  0
SECTION
  2
HEADER
  9
$ACADVER
  1
AC1015
  9
$ACADMAINTVER
 70
     6
  9
$DWGCODEPAGE
  3
ANSI_1252
  9
$INSBASE
 10
0.0
 20
0.0
 30
0.0
  9
$EXTMIN
 10
0.0
 20
0.0
 30
0.0
  9
$EXTMAX
 10
1682.0
 20
2378.0
 30
0.0
  9
$LIMMIN
 10
0.0
 20
0.0
  9
$LIMMAX
 10
1682.0
 20
2378.0
  9
$ORTHOMODE
 70
     0
  9
$REGENMODE
 70
     1
  9
$FILLMODE
 70
     1
  9
$QTEXTMODE
 70
     0
  9
$MIRRTEXT
 70
     1
  9
$LTSCALE
 40
1.0
  9
$ATTMODE
 70
     1
  9
$TEXTSIZE
 40
2.5
  9
$TRACEWID
 40
1.0
  9
$TEXTSTYLE
  7
Standard
  9
$CLAYER
  8
0
  9
$CELTYPE
  6
ByLayer
  9
$CECOLOR
 62
   256
  9
$CELTSCALE
 40
1.0
  9
$DISPSILH
 70
     0
  9
$DIMSCALE
 40
1.0
  9
$DIMASZ
 40
2.5
  9
$DIMEXO
 40
0.625
  9
$DIMDLI
 40
3.75
  9
$DIMRND
 40
0.0
  9
$DIMDLE
 40
0.0
  9
$DIMEXE
 40
1.25
  9
$DIMTP
 40
0.0
  9
$DIMTM
 40
0.0
  9
$DIMTXT
 40
2.5
  9
$DIMCEN
 40
2.5
  9
$DIMTSZ
 40
0.0
  9
$DIMTOL
 70
     0
  9
$DIMLIM
 70
     0
  9
$DIMTIH
 70
     0
  9
$DIMTOH
 70
     0
  9
$DIMSE1
 70
     0
  9
$DIMSE2
 70
     0
  9
$DIMTAD
 70
     1
  9
$DIMZIN
 70
     8
  9
$DIMBLK
  1

  9
$DIMASO
 70
     1
  9
$DIMSHO
 70
     1
  9
$DIMPOST
  1

  9
$DIMAPOST
  1

  9
$DIMALT
 70
     0
  9
$DIMALTD
 70
     3
  9
$DIMALTF
 40
0.0393700787
  9
$DIMLFAC
 40
1.0
  9
$DIMTOFL
 70
     1
  9
$DIMTVP
 40
0.0
  9
$DIMTIX
 70
     0
  9
$DIMSOXD
 70
     0
  9
$DIMSAH
 70
     0
  9
$DIMBLK1
  1

  9
$DIMBLK2
  1

  9
$DIMSTYLE
  2
ISO-25
  9
$DIMCLRD
 70
     0
  9
$DIMCLRE
 70
     0
  9
$DIMCLRT
 70
     0
  9
$DIMTFAC
 40
1.0
  9
$DIMGAP
 40
0.625
  9
$DIMJUST
 70
     0
  9
$DIMSD1
 70
     0
  9
$DIMSD2
 70
     0
  9
$DIMTOLJ
 70
     0
  9
$DIMTZIN
 70
     8
  9
$DIMALTZ
 70
     0
  9
$DIMALTTZ
 70
     0
  9
$DIMUPT
 70
     0
  9
$DIMDEC
 70
     2
  9
$DIMTDEC
 70
     2
  9
$DIMALTU
 70
     2
  9
$DIMALTTD
 70
     3
  9
$DIMTXSTY
  7
Standard
  9
$DIMAUNIT
 70
     0
  9
$DIMADEC
 70
     0
  9
$DIMALTRND
 40
0.0
  9
$DIMAZIN
 70
     0
  9
$DIMDSEP
 70
    44
  9
$DIMATFIT
 70
     3
  9
$DIMFRAC
 70
     0
  9
$DIMLDRBLK
  1

  9
$DIMLUNIT
 70
     2
  9
$DIMLWD
 70
    -2
  9
$DIMLWE
 70
    -2
  9
$DIMTMOVE
 70
     0
  9
$LUNITS
 70
     2
  9
$LUPREC
 70
     4
  9
$SKETCHINC
 40
1.0
  9
$FILLETRAD
 40
10.0
  9
$AUNITS
 70
     0
  9
$AUPREC
 70
     0
  9
$MENU
  1
.
  9
$ELEVATION
 40
0.0
  9
$PELEVATION
 40
0.0
  9
$THICKNESS
 40
0.0
  9
$LIMCHECK
 70
     0
  9
$CHAMFERA
 40
10.0
  9
$CHAMFERB
 40
10.0
  9
$CHAMFERC
 40
20.0
  9
$CHAMFERD
 40
0.0
  9
$SKPOLY
 70
     0
  9
$TDCREATE
 40
2455315.437815868
  9
$TDUCREATE
 40
2455315.354482535
  9
$TDUPDATE
 40
2455315.437815879
  9
$TDUUPDATE
 40
2455315.354482546
  9
$TDINDWG
 40
0.0000000116
  9
$TDUSRTIMER
 40
0.0000000116
  9
$USRTIMER
 70
     1
  9
$ANGBASE
 50
0.0
  9
$ANGDIR
 70
     0
  9
$PDMODE
 70
     0
  9
$PDSIZE
 40
0.0
  9
$PLINEWID
 40
0.0
  9
$SPLFRAME
 70
     0
  9
$SPLINETYPE
 70
     6
  9
$SPLINESEGS
 70
     8
  9
$HANDSEED
  5
1AC
  9
$SURFTAB1
 70
     6
  9
$SURFTAB2
 70
     6
  9
$SURFTYPE
 70
     6
  9
$SURFU
 70
     6
  9
$SURFV
 70
     6
  9
$UCSBASE
  2

  9
$UCSNAME
  2

  9
$UCSORG
 10
0.0
 20
0.0
 30
0.0
  9
$UCSXDIR
 10
1.0
 20
0.0
 30
0.0
  9
$UCSYDIR
 10
0.0
 20
1.0
 30
0.0
  9
$UCSORTHOREF
  2

  9
$UCSORTHOVIEW
 70
     0
  9
$UCSORGTOP
 10
0.0
 20
0.0
 30
0.0
  9
$UCSORGBOTTOM
 10
0.0
 20
0.0
 30
0.0
  9
$UCSORGLEFT
 10
0.0
 20
0.0
 30
0.0
  9
$UCSORGRIGHT
 10
0.0
 20
0.0
 30
0.0
  9
$UCSORGFRONT
 10
0.0
 20
0.0
 30
0.0
  9
$UCSORGBACK
 10
0.0
 20
0.0
 30
0.0
  9
$PUCSBASE
  2

  9
$PUCSNAME
  2

  9
$PUCSORG
 10
0.0
 20
0.0
 30
0.0
  9
$PUCSXDIR
 10
1.0
 20
0.0
 30
0.0
  9
$PUCSYDIR
 10
0.0
 20
1.0
 30
0.0
  9
$PUCSORTHOREF
  2

  9
$PUCSORTHOVIEW
 70
     0
  9
$PUCSORGTOP
 10
0.0
 20
0.0
 30
0.0
  9
$PUCSORGBOTTOM
 10
0.0
 20
0.0
 30
0.0
  9
$PUCSORGLEFT
 10
0.0
 20
0.0
 30
0.0
  9
$PUCSORGRIGHT
 10
0.0
 20
0.0
 30
0.0
  9
$PUCSORGFRONT
 10
0.0
 20
0.0
 30
0.0
  9
$PUCSORGBACK
 10
0.0
 20
0.0
 30
0.0
  9
$USERI1
 70
     0
  9
$USERI2
 70
     0
  9
$USERI3
 70
     0
  9
$USERI4
 70
     0
  9
$USERI5
 70
     0
  9
$USERR1
 40
0.0
  9
$USERR2
 40
0.0
  9
$USERR3
 40
0.0
  9
$USERR4
 40
0.0
  9
$USERR5
 40
0.0
  9
$WORLDVIEW
 70
     1
  9
$SHADEDGE
 70
     3
  9
$SHADEDIF
 70
    70
  9
$TILEMODE
 70
     1
  9
$MAXACTVP
 70
    64
  9
$PINSBASE
 10
0.0
 20
0.0
 30
0.0
  9
$PLIMCHECK
 70
     0
  9
$PEXTMIN
 10
0.0
 20
0.0
 30
0.0
  9
$PEXTMAX
 10
1682.0
 20
2378.0
 30
0.0
  9
$PLIMMIN
 10
0.0
 20
0.0
  9
$PLIMMAX
 10
1682.0
 20
2378.0
  9
$UNITMODE
 70
     0
  9
$VISRETAIN
 70
     1
  9
$PLINEGEN
 70
     0
  9
$PSLTSCALE
 70
     1
  9
$TREEDEPTH
 70
  3020
  9
$CMLSTYLE
  2
Standard
  9
$CMLJUST
 70
     0
  9
$CMLSCALE
 40
20.0
  9
$PROXYGRAPHICS
 70
     1
  9
$MEASUREMENT
 70
     1
  9
$CELWEIGHT
370
    -1
  9
$ENDCAPS
280
     0
  9
$JOINSTYLE
280
     0
  9
$LWDISPLAY
290
     0
  9
$INSUNITS
 70
     4
  9
$HYPERLINKBASE
  1

  9
$STYLESHEET
  1

  9
$XEDIT
290
     1
  9
$CEPSNTYPE
380
     0
  9
$PSTYLEMODE
290
     1
  9
$FINGERPRINTGUID
  2
{B7008A70-038A-4BB9-8AED-32C078A6E6CC}
  9
$VERSIONGUID
  2
{FAEB1C32-E019-11D5-929B-00C0DF256EC4}
  9
$EXTNAMES
290
     1
  9
$PSVPSCALE
 40
0.0
  9
$OLESTARTUP
290
     0
  0
ENDSEC
  0
SECTION
  2
CLASSES
  0
CLASS
  1
ACDBDICTIONARYWDFLT
  2
AcDbDictionaryWithDefault
  3
ObjectDBX Classes
 90
        0
280
     0
281
     0
  0
CLASS
  1
VISUALSTYLE
  2
AcDbVisualStyle
  3
ObjectDBX Classes
 90
     4095
280
     0
281
     0
  0
CLASS
  1
SCALE
  2
AcDbScale
  3
ObjectDBX Classes
 90
     1153
280
     0
281
     0
  0
CLASS
  1
DICTIONARYVAR
  2
AcDbDictionaryVar
  3
ObjectDBX Classes
 90
        0
280
     0
281
     0
  0
CLASS
  1
ACDBPLACEHOLDER
  2
AcDbPlaceHolder
  3
ObjectDBX Classes
 90
        0
280
     0
281
     0
  0
CLASS
  1
LAYOUT
  2
AcDbLayout
  3
ObjectDBX Classes
 90
        0
280
     0
281
     0
  0
ENDSEC
  0
SECTION
  2
TABLES
  0
TABLE
  2
VPORT
  5
8
330
0
100
AcDbSymbolTable
 70
     1
  0
VPORT
  5
29
330
8
100
AcDbSymbolTableRecord
100
AcDbViewportTableRecord
  2
*Active
 70
     0
 10
0.0
 20
0.0
 11
1.0
 21
1.0
 12
344.1869158879
 22
148.5
 13
0.0
 23
0.0
 14
10.0
 24
10.0
 15
10.0
 25
10.0
 16
0.0
 26
0.0
 36
1.0
 17
0.0
 27
0.0
 37
0.0
 40
297.0
 41
1.9729729729
 42
50.0
 43
0.0
 44
0.0
 50
0.0
 51
0.0
 71
     0
 72
   100
 73
     1
 74
     3
 75
     0
 76
     0
 77
     0
 78
     0
281
     0
 65
     1
110
0.0
120
0.0
130
0.0
111
1.0
121
0.0
131
0.0
112
0.0
122
1.0
132
0.0
 79
     0
146
0.0
  0
ENDTAB
  0
TABLE
  2
LTYPE
  5
5
330
0
100
AcDbSymbolTable
 70
     1
  0
LTYPE
  5
14
330
5
100
AcDbSymbolTableRecord
100
AcDbLinetypeTableRecord
  2
ByBlock
 70
     0
  3

 72
    65
 73
     0
 40
0.0
  0
LTYPE
  5
15
330
5
100
AcDbSymbolTableRecord
100
AcDbLinetypeTableRecord
  2
ByLayer
 70
     0
  3

 72
    65
 73
     0
 40
0.0
  0
LTYPE
  5
16
330
5
100
AcDbSymbolTableRecord
100
AcDbLinetypeTableRecord
  2
Continuous
 70
     0
  3
Solid line
 72
    65
 73
     0
 40
0.0
  0
ENDTAB
  0
TABLE
  2
LAYER
  5
2
330
0
100
AcDbSymbolTable
 70
    12
  0
LAYER
  5
10
330
2
100
AcDbSymbolTableRecord
100
AcDbLayerTableRecord
  2
0
 70
     0
 62
     7
  6
Continuous
370
    -3
390
F
  0
LAYER
  5
5D
330
2
100
AcDbSymbolTableRecord
100
AcDbLayerTableRecord
  2
Default
 70
     0
 62
     7
  6
Continuous
370
    -3
390
F
  0
LAYER
  5
60
330
2
100
AcDbSymbolTableRecord
100
AcDbLayerTableRecord
  2
$DDT_AUDIT_GENERATED_(60)
 70
     0
 62
     7
  6
Continuous
370
    -3
390
F
  0
LAYER
  5
95
330
2
100
AcDbSymbolTableRecord
100
AcDbLayerTableRecord
  2
$DDT_AUDIT_GENERATED_(95)
 70
     0
 62
     7
  6
Continuous
370
    -3
390
F
  0
LAYER
  5
98
330
2
100
AcDbSymbolTableRecord
100
AcDbLayerTableRecord
  2
02636038_GEHÄUSE
 70
     0
 62
     7
  6
Continuous
370
    -3
390
F
  0
LAYER
  5
AA
330
2
100
AcDbSymbolTableRecord
100
AcDbLayerTableRecord
  2
$DDT_AUDIT_GENERATED_(AA)
 70
     0
 62
     7
  6
Continuous
370
    -3
390
F
  0
LAYER
  5
D2
330
2
100
AcDbSymbolTableRecord
100
AcDbLayerTableRecord
  2
$DDT_AUDIT_GENERATED_(D2)
 70
     0
 62
     7
  6
Continuous
370
    -3
390
F
  0
LAYER
  5
F3
330
2
100
AcDbSymbolTableRecord
100
AcDbLayerTableRecord
  2
$DDT_AUDIT_GENERATED_(F3)
 70
     0
 62
     7
  6
Continuous
370
    -3
390
F
  0
LAYER
  5
103
330
2
100
AcDbSymbolTableRecord
100
AcDbLayerTableRecord
  2
$DDT_AUDIT_GENERATED_(103)
 70
     0
 62
     7
  6
Continuous
370
    -3
390
F
  0
LAYER
  5
11D
330
2
100
AcDbSymbolTableRecord
100
AcDbLayerTableRecord
  2
$DDT_AUDIT_GENERATED_(11D)
 70
     0
 62
     7
  6
Continuous
370
    -3
390
F
  0
LAYER
  5
13F
330
2
100
AcDbSymbolTableRecord
100
AcDbLayerTableRecord
  2
$DDT_AUDIT_GENERATED_(13F)
 70
     0
 62
     7
  6
Continuous
370
    -3
390
F
  0
LAYER
  5
156
330
2
100
AcDbSymbolTableRecord
100
AcDbLayerTableRecord
  2
$DDT_AUDIT_GENERATED_(156)
 70
     0
 62
     7
  6
Continuous
370
    -3
390
F
  0
ENDTAB
  0
TABLE
  2
STYLE
  5
3
330
0
100
AcDbSymbolTable
 70
     2
  0
STYLE
  5
11
330
3
100
AcDbSymbolTableRecord
100
AcDbTextStyleTableRecord
  2
Standard
 70
     0
 40
0.0
 41
1.0
 50
0.0
 71
     0
 42
2.5
  3
txt
  4

  0
STYLE
  5
19B
330
3
100
AcDbSymbolTableRecord
100
AcDbTextStyleTableRecord
  2
SEACAD_seiso_ttf
 70
     0
 40
0.0
 41
1.0
 50
0.0
 71
     0
 42
0.2
  3
seiso.ttf
  4

  0
ENDTAB
  0
TABLE
  2
VIEW
  5
6
330
0
100
AcDbSymbolTable
 70
     0
  0
ENDTAB
  0
TABLE
  2
UCS
  5
7
330
0
100
AcDbSymbolTable
 70
     0
  0
ENDTAB
  0
TABLE
  2
APPID
  5
9
330
0
100
AcDbSymbolTable
 70
     1
  0
APPID
  5
12
330
9
100
AcDbSymbolTableRecord
100
AcDbRegAppTableRecord
  2
ACAD
 70
     0
  0
ENDTAB
  0
TABLE
  2
DIMSTYLE
  5
A
330
0
100
AcDbSymbolTable
 70
     1
100
AcDbDimStyleTable
  0
DIMSTYLE
105
27
330
A
100
AcDbSymbolTableRecord
100
AcDbDimStyleTableRecord
  2
ISO-25
 70
     0
 41
2.5
 42
0.625
 43
3.75
 44
1.25
 73
     0
 74
     0
 77
     1
 78
     8
140
2.5
141
2.5
143
0.0393700787
147
0.625
171
     3
172
     1
271
     2
272
     2
274
     3
278
    44
283
     0
284
     8
340
11
  0
ENDTAB
  0
TABLE
  2
BLOCK_RECORD
  5
1
330
0
100
AcDbSymbolTable
 70
     4
  0
BLOCK_RECORD
  5
1F
330
1
100
AcDbSymbolTableRecord
100
AcDbBlockTableRecord
  2
*Model_Space
340
22
  0
BLOCK_RECORD
  5
1B
330
1
100
AcDbSymbolTableRecord
100
AcDbBlockTableRecord
  2
*Paper_Space
340
1E
  0
BLOCK_RECORD
  5
5E
330
1
100
AcDbSymbolTableRecord
100
AcDbBlockTableRecord
  2
SE
340
0
102
{BLKREFS
331
5F
102
}
  0
BLOCK_RECORD
  5
D7
330
1
100
AcDbSymbolTableRecord
100
AcDbBlockTableRecord
  2
SE1
340
0
102
{BLKREFS
331
D8
102
}
  0
BLOCK_RECORD
  5
14A
330
1
100
AcDbSymbolTableRecord
100
AcDbBlockTableRecord
  2
SE2
340
0
102
{BLKREFS
331
14B
102
}
  0
ENDTAB
  0
ENDSEC
  0
SECTION
  2
BLOCKS
  0
BLOCK
  5
20
330
1F
100
AcDbEntity
  8
0
100
AcDbBlockBegin
  2
*Model_Space
 70
     0
 10
0.0
 20
0.0
 30
0.0
  3
*Model_Space
  1

  0
ENDBLK
  5
21
330
1F
100
AcDbEntity
  8
0
100
AcDbBlockEnd
  0
BLOCK
  5
1C
330
1B
100
AcDbEntity
 67
     1
  8
0
100
AcDbBlockBegin
  2
*Paper_Space
 70
     0
 10
0.0
 20
0.0
 30
0.0
  3
*Paper_Space
  1

  0
ENDBLK
  5
1D
330
1B
100
AcDbEntity
 67
     1
  8
0
100
AcDbBlockEnd
  0
BLOCK
  5
D5
330
5E
100
AcDbEntity
  8
0
100
AcDbBlockBegin
  2
SE
 70
     0
 10
0.0
 20
0.0
 30
0.0
  3
SE
  1

  0
LINE
  5
61
330
5E
100
AcDbEntity
  8
$DDT_AUDIT_GENERATED_(60)
  6
Continuous
 62
     7
100
AcDbLine
 10
56.3609607734
 20
364.4069143883
 30
0.0
 11
56.3609607734
 21
274.4022165985
 31
0.0
  0
ELLIPSE
  5
62
330
5E
100
AcDbEntity
  8
$DDT_AUDIT_GENERATED_(60)
  6
Continuous
 62
     7
100
AcDbEllipse
 10
6.8691084228
 20
373.9022165999
 30
0.0
 11
0.3537285797375264
 21
-0.3536225539037957
 31
0.0
210
0.0
220
0.0
230
1.0
 40
0.9993091709
 41
2.356390132714926
 42
2.671897963738994
  0
ARC
  5
63
330
5E
100
AcDbEntity
  8
$DDT_AUDIT_GENERATED_(60)
  6
Continuous
 62
     7
100
AcDbCircle
 10
55.8609607892
 20
373.9022422795
 30
0.0
 40
0.4999743204067708
100
AcDbArc
 50
71.9237356303
 51
90.0
  0
LINE
  5
64
330
5E
100
AcDbEntity
  8
$DDT_AUDIT_GENERATED_(60)
  6
Continuous
 62
     7
100
AcDbLine
 10
6.3739718758
 20
364.4069143882
 30
0.0
 11
6.3674064394
 21
364.4069143882
 31
0.0
  0
SPLINE
  5
65
330
5E
100
AcDbEntity
  8
$DDT_AUDIT_GENERATED_(60)
  6
Continuous
 62
     7
100
AcDbSpline
210
0.0
220
0.0
230
1.0
 70
     8
 71
     3
 72
    24
 73
    20
 74
     0
 42
0.0000000002204928
 43
0.0000000001
 40
0.0
 40
0.0
 40
0.0
 40
0.0
 40
0.0201451760622891
 40
0.04042529546944
 40
0.0609493000352605
 40
0.0818223492314022
 40
0.1031445398493846
 40
0.1250099593470764
 40
0.184478428753331
 40
0.249934283401572
 40
0.3093684045571971
 40
0.3749242443971772
 40
0.4998811000095312
 40
0.6248947006140004
 40
0.6561541422238946
 40
0.6874139049141472
 40
0.7499314193615089
 40
0.8802689285489875
 40
1.0
 40
1.0
 40
1.0
 40
1.0
 10
31.3648618390605
 20
329.402133616791
 30
0.0
 10
31.03955194893808
 20
329.4094790596334
 30
0.0
 10
30.38675306613514
 20
329.4242191490889
 30
0.0
 10
29.40985877364759
 20
329.5430634622101
 30
0.0
 10
28.43574710036003
 20
329.7325912446929
 30
0.0
 10
27.46636738254858
 20
329.9998023087476
 30
0.0
 10
26.50357727902251
 20
330.3427168909498
 30
0.0
 10
25.01234352554652
 20
330.9975513711173
 30
0.0
 10
23.0279408917894
 20
332.1895273591136
 30
0.0
 10
20.84039179413009
 20
334.0276883802347
 30
0.0
 10
18.86350521754112
 20
336.1666708418006
 30
0.0
 10
16.58779898306732
 20
339.1941210405646
 30
0.0
 10
14.23362771307977
 20
343.3152192465504
 30
0.0
 10
12.57895289735554
 20
347.1693698837925
 30
0.0
 10
11.62572758128497
 20
349.7920445661615
 30
0.0
 10
11.02393076953771
 20
351.5502309186408
 30
0.0
 10
10.01436783244439
 20
354.7049130214222
 30
0.0
 10
8.786952277552606
 20
359.1141206311876
 30
0.0
 10
8.09343370219002
 20
362.6932516970307
 30
0.0
 10
7.761381903057147
 20
364.4069143902121
 30
0.0
  0
SPLINE
  5
66
330
5E
100
AcDbEntity
  8
$DDT_AUDIT_GENERATED_(60)
  6
Continuous
 62
     7
100
AcDbSpline
210
0.0
220
0.0
230
1.0
 70
     8
 71
     3
 72
    23
 73
    19
 74
     0
 42
0.0000000002204452
 43
0.0000000001
 40
0.0
 40
0.0
 40
0.0
 40
0.0
 40
0.0586739368940803
 40
0.1199415643517019
 40
0.1837689743278198
 40
0.2501186653410289
 40
0.3126334793871873
 40
0.3438931750564925
 40
0.3751552668729729
 40
0.5001942496265888
 40
0.6251415995778776
 40
0.6906683630450542
 40
0.7501592435917773
 40
0.8156307267381878
 40
0.8750816261050982
 40
0.9182517632069281
 40
0.9596180170963199
 40
1.0
 40
1.0
 40
1.0
 40
1.0
 10
54.96834201698756
 20
364.4069143902121
 30
0.0
 10
54.81313403355131
 20
363.5655455984186
 30
0.0
 10
54.49585707354946
 20
361.8456151757068
 30
0.0
 10
53.90846284421044
 20
359.2314786532667
 30
0.0
 10
53.21646268537779
 20
356.5201669090748
 30
0.0
 10
52.42831767155546
 20
353.8038604911534
 30
0.0
 10
51.70556741647005
 20
351.5504418198481
 30
0.0
 10
51.10399909183622
 20
349.7923617092795
 30
0.0
 10
50.15108511838211
 20
347.1691257947355
 30
0.0
 10
48.49610976037698
 20
343.3153617495273
 30
0.0
 10
46.14203363360719
 20
339.1949420936651
 30
0.0
 10
43.86668843674509
 20
336.167216557412
 30
0.0
 10
41.88942411655022
 20
334.0280052066254
 30
0.0
 10
39.70117932258441
 20
332.1897834979527
 30
0.0
 10
37.43004436108762
 20
330.8232779833348
 30
0.0
 10
35.29751086193865
 20
329.9752741962185
 30
0.0
 10
33.33861316877712
 20
329.4922323900476
 30
0.0
 10
32.01747666813915
 20
329.4319245000821
 30
0.0
 10
31.3648618390605
 20
329.402133616791
 30
0.0
  0
LINE
  5
67
330
5E
100
AcDbEntity
  8
$DDT_AUDIT_GENERATED_(60)
  6
Continuous
 62
     7
100
AcDbLine
 10
56.3623172387
 20
364.4069143882
 30
0.0
 11
56.3557518023
 21
364.4069143882
 31
0.0
  0
LINE
  5
68
330
5E
100
AcDbEntity
  8
$DDT_AUDIT_GENERATED_(60)
  6
Continuous
 62
     7
100
AcDbLine
 10
15.9903845571
 20
274.4022165988
 30
0.0
 11
46.739339121
 21
274.4022165985
 31
0.0
  0
LINE
  5
69
330
5E
100
AcDbEntity
  8
$DDT_AUDIT_GENERATED_(60)
  6
Continuous
 62
     7
100
AcDbLine
 10
56.3623172227
 20
373.9022165999
 30
0.0
 11
56.3459963641
 21
373.9022165999
 31
0.0
  0
ELLIPSE
  5
6A
330
5E
100
AcDbEntity
  8
$DDT_AUDIT_GENERATED_(60)
  6
Continuous
 62
     7
100
AcDbEllipse
 10
55.8609735513
 20
373.9022165999
 30
0.0
 11
0.0
 21
0.499998781610846
 31
0.0
210
0.0
220
0.0
230
1.0
 40
1.0
 41
-0.3119176187140571
 42
0.0000001510282885
  0
LINE
  5
6B
330
5E
100
AcDbEntity
  8
$DDT_AUDIT_GENERATED_(60)
  6
Continuous
 62
     7
100
AcDbLine
 10
54.4986477536
 20
374.4022165999
 30
0.0
 11
55.8616098802
 21
374.4022165999
 31
0.0
  0
LINE
  5
6C
330
5E
100
AcDbEntity
  8
$DDT_AUDIT_GENERATED_(60)
  6
Continuous
 62
     7
100
AcDbLine
 10
49.9975579606
 20
374.4022165999
 30
0.0
 11
54.4986477536
 21
374.4022165999
 31
0.0
  0
LINE
  5
6D
330
5E
100
AcDbEntity
  8
$DDT_AUDIT_GENERATED_(60)
  6
Continuous
 62
     7
100
AcDbLine
 10
12.7742011899
 20
374.4022165999
 30
0.0
 11
49.9555224882
 21
374.4022165999
 31
0.0
  0
LINE
  5
6E
330
5E
100
AcDbEntity
  8
$DDT_AUDIT_GENERATED_(60)
  6
Continuous
 62
     7
100
AcDbLine
 10
8.2310761616
 20
374.4022165999
 30
0.0
 11
12.7323245608
 21
374.4022165999
 31
0.0
  0
LINE
  5
6F
330
5E
100
AcDbEntity
  8
$DDT_AUDIT_GENERATED_(60)
  6
Continuous
 62
     7
100
AcDbLine
 10
6.8678439329
 20
374.4022165999
 30
0.0
 11
8.2310761616
 21
374.4022165999
 31
0.0
  0
ELLIPSE
  5
70
330
5E
100
AcDbEntity
  8
$DDT_AUDIT_GENERATED_(60)
  6
Continuous
 62
     7
100
AcDbEllipse
 10
6.8687501268
 20
373.9022165999
 30
0.0
 11
-0.001486444622271488
 21
-0.4999977905907199
 31
0.0
210
0.0
220
0.0
230
0.9999999999999997
 40
0.9999745947
 41
3.144565471666122
 42
3.456546679272862
  0
LINE
  5
71
330
5E
100
AcDbEntity
  8
$DDT_AUDIT_GENERATED_(60)
  6
Continuous
 62
     7
100
AcDbLine
 10
6.3837581352
 20
373.9022165992
 30
0.0
 11
6.3674064554
 21
373.9022165992
 31
0.0
  0
ARC
  5
72
330
5E
100
AcDbEntity
  8
$DDT_AUDIT_GENERATED_(60)
  6
Continuous
 62
     7
100
AcDbCircle
 10
53.9690561448
 20
338.6652995502
 30
0.0
 40
25.74431046868056
100
AcDbArc
 50
98.235911504
 51
98.2614217822
  0
LINE
  5
73
330
5E
100
AcDbEntity
  8
$DDT_AUDIT_GENERATED_(60)
  6
Continuous
 62
     7
100
AcDbLine
 10
6.3687872153
 20
274.4022165985
 30
0.0
 11
6.3688147679
 21
274.4022165985
 31
0.0
  0
LINE
  5
74
330
5E
100
AcDbEntity
  8
$DDT_AUDIT_GENERATED_(60)
  6
Continuous
 62
     7
100
AcDbLine
 10
15.9903845571
 20
274.4022165988
 30
0.0
 11
6.373913725
 21
274.4022165985
 31
0.0
  0
LINE
  5
75
330
5E
100
AcDbEntity
  8
$DDT_AUDIT_GENERATED_(60)
  6
Continuous
 62
     7
100
AcDbLine
 10
56.3558099582
 20
274.4022165985
 30
0.0
 11
46.739339121
 21
274.4022165985
 31
0.0
  0
LINE
  5
76
330
5E
100
AcDbEntity
  8
$DDT_AUDIT_GENERATED_(60)
  6
Continuous
 62
     7
100
AcDbLine
 10
56.3609094112
 20
274.4022165985
 30
0.0
 11
56.3609367042
 21
274.4022165984
 31
0.0
  0
LINE
  5
77
330
5E
100
AcDbEntity
  8
$DDT_AUDIT_GENERATED_(60)
  6
Continuous
 62
     7
100
AcDbLine
 10
50.4554974482
 20
373.9022165999
 30
0.0
 11
50.4657371131
 21
373.9022165999
 31
0.0
  0
SPLINE
  5
78
330
5E
100
AcDbEntity
  8
$DDT_AUDIT_GENERATED_(60)
  6
Continuous
 62
     7
100
AcDbSpline
210
0.0
220
0.0
230
1.0
 70
    12
 71
     2
 72
     6
 73
     3
 74
     0
 42
0.00000001
 43
0.0000000001
 40
0.0
 40
0.0
 40
0.0
 40
1.0
 40
1.0
 40
1.0
 10
49.955522488158
 20
374.4022165998721
 30
0.0
 41
1.0
 10
50.455522488158
 20
374.4022165998722
 30
0.0
 41
0.707106781186548
 10
50.455522488158
 20
373.9022165998721
 30
0.0
 41
1.0
  0
SPLINE
  5
79
330
5E
100
AcDbEntity
  8
$DDT_AUDIT_GENERATED_(60)
  6
Continuous
 62
     7
100
AcDbSpline
210
0.0
220
0.0
230
1.0
 70
    12
 71
     2
 72
     6
 73
     3
 74
     0
 42
0.00000001
 43
0.0000000001
 40
0.0
 40
0.0
 40
0.0
 40
1.0
 40
1.0
 40
1.0
 10
12.7742011899332
 20
374.4022165998721
 30
0.0
 41
1.0
 10
12.27420118993311
 20
374.4022165998721
 30
0.0
 41
0.70710678118641
 10
12.27420118993315
 20
373.902216599872
 30
0.0
 41
1.0
  0
ELLIPSE
  5
7A
330
5E
100
AcDbEntity
  8
$DDT_AUDIT_GENERATED_(60)
  6
Continuous
 62
     7
100
AcDbEllipse
 10
8.2310761616
 20
373.9022165999
 30
0.0
 11
0.0
 21
0.5
 31
0.0
210
0.0
220
0.0
230
1.0
 40
1.0
 41
0.0
 42
1.570796326794897
  0
ARC
  5
7B
330
5E
100
AcDbEntity
  8
$DDT_AUDIT_GENERATED_(60)
  6
Continuous
 62
     7
100
AcDbCircle
 10
53.3576918374
 20
377.8615299303
 30
0.0
 40
13.4567349611674
100
AcDbArc
 50
257.5454224553
 51
257.5989524917
  0
ARC
  5
7C
330
5E
100
AcDbEntity
  8
$DDT_AUDIT_GENERATED_(60)
  6
Continuous
 62
     7
100
AcDbCircle
 10
53.3576918374
 20
377.8615299303
 30
0.0
 40
13.4567349611674
100
AcDbArc
 50
257.5423803355
 51
257.5439773629
  0
LINE
  5
7D
330
5E
100
AcDbEntity
  8
$DDT_AUDIT_GENERATED_(60)
  6
Continuous
 62
     7
100
AcDbLine
 10
54.968342017
 20
364.4069143902
 30
0.0
 11
54.968342017
 21
373.9022165999
 31
0.0
  0
LINE
  5
7E
330
5E
100
AcDbEntity
  8
$DDT_AUDIT_GENERATED_(60)
  6
Continuous
 62
     7
100
AcDbLine
 10
53.596514954
 20
364.4069143901
 30
0.0
 11
54.968342017
 21
364.4069143902
 31
0.0
  0
LINE
  5
7F
330
5E
100
AcDbEntity
  8
$DDT_AUDIT_GENERATED_(60)
  6
Continuous
 62
     7
100
AcDbLine
 10
50.4555224882
 20
373.9022165999
 30
0.0
 11
50.4555224882
 21
364.7229903875
 31
0.0
  0
LINE
  5
80
330
5E
100
AcDbEntity
  8
$DDT_AUDIT_GENERATED_(60)
  6
Continuous
 62
     7
100
AcDbLine
 10
12.2742011899
 20
373.9022165999
 30
0.0
 11
12.2742011899
 21
364.7229717772
 31
0.0
  0
LINE
  5
81
330
5E
100
AcDbEntity
  8
$DDT_AUDIT_GENERATED_(60)
  6
Continuous
 62
     7
100
AcDbLine
 10
7.761381903
 20
373.9022165999
 30
0.0
 11
7.761381903
 21
364.4069143902
 31
0.0
  0
LINE
  5
82
330
5E
100
AcDbEntity
  8
$DDT_AUDIT_GENERATED_(60)
  6
Continuous
 62
     7
100
AcDbLine
 10
7.7613819031
 20
364.4069143902
 30
0.0
 11
9.1313202222
 21
364.4069143901
 31
0.0
  0
SPLINE
  5
83
330
5E
100
AcDbEntity
  8
$DDT_AUDIT_GENERATED_(60)
  6
Continuous
 62
     7
100
AcDbSpline
210
0.0
220
0.0
230
1.0
 70
    12
 71
     6
 72
    15
 73
     8
 74
     0
 42
0.0000000010183809
 43
0.0000000001
 40
0.3310860251248199
 40
0.3310860251248199
 40
0.3310860251248199
 40
0.3310860251248199
 40
0.3310860251248199
 40
0.3310860251248199
 40
0.3310860251248199
 40
0.3902655746700215
 40
0.7446463944328552
 40
0.7446463944328552
 40
0.7446463944328552
 40
0.7446463944328552
 40
0.7446463944328552
 40
0.7446463944328552
 40
0.7446463944328552
 10
14.30284757005654
 20
361.8742097399027
 30
0.0
 41
1.0
 10
14.36507907699393
 20
361.8067866248696
 30
0.0
 41
1.0
 10
14.80377322436078
 20
361.3359965122784
 30
0.0
 41
1.0
 10
15.26911187297683
 20
360.8682191417973
 30
0.0
 41
1.0
 10
15.7612716178763
 20
360.4061469572904
 30
0.0
 41
1.0
 10
16.27934758930241
 20
359.95313971425
 30
0.0
 41
1.0
 10
16.82150249003841
 20
359.5127638919322
 30
0.0
 41
1.0
 10
17.30217884521455
 20
359.146794903347
 30
0.0
 41
1.0
  0
SPLINE
  5
84
330
5E
100
AcDbEntity
  8
$DDT_AUDIT_GENERATED_(60)
  6
Continuous
 62
     7
100
AcDbSpline
210
0.0
220
0.0
230
1.0
 70
    12
 71
     6
 72
    15
 73
     8
 74
     0
 42
0.000000001018385
 43
0.0000000001
 40
0.2553494836037291
 40
0.2553494836037291
 40
0.2553494836037291
 40
0.2553494836037291
 40
0.2553494836037291
 40
0.2553494836037291
 40
0.2553494836037291
 40
0.6097317173846706
 40
0.6689115210928817
 40
0.6689115210928817
 40
0.6689115210928817
 40
0.6689115210928817
 40
0.6689115210928817
 40
0.6689115210928817
 40
0.6689115210928817
 10
45.42754474106874
 20
359.1467948334482
 30
0.0
 41
1.0
 10
45.90822111389484
 20
359.512763831707
 30
0.0
 41
1.0
 10
46.45037605793677
 20
359.9531396856748
 30
0.0
 41
1.0
 10
46.96845206922811
 20
360.4061469625708
 30
0.0
 41
1.0
 10
47.46061185008551
 20
360.8682191823285
 30
0.0
 41
1.0
 10
47.92595053056065
 20
361.3359965886936
 30
0.0
 41
1.0
 10
48.3646447058273
 20
361.8067867372604
 30
0.0
 41
1.0
 10
48.4268762335477
 20
361.874209874519
 30
0.0
 41
1.0
  0
SPLINE
  5
85
330
5E
100
AcDbEntity
  8
$DDT_AUDIT_GENERATED_(60)
  6
Continuous
 62
     7
100
AcDbSpline
210
0.0
220
0.0
230
1.0
 70
    12
 71
     6
 72
    14
 73
     7
 74
     0
 42
0.0000000011282652
 43
0.0000000001
 40
0.7746093991208197
 40
0.7746093991208197
 40
0.7746093991208197
 40
0.7746093991208197
 40
0.7746093991208197
 40
0.7746093991208197
 40
0.7746093991208197
 40
0.8696456506637606
 40
0.8696456506637606
 40
0.8696456506637606
 40
0.8696456506637606
 40
0.8696456506637606
 40
0.8696456506637606
 40
0.8696456506637606
 10
49.06788563102226
 20
362.5985141465848
 30
0.0
 41
1.0
 10
49.16010283979425
 20
362.70720862523
 30
0.0
 41
1.0
 10
49.25095540841194
 20
362.8159211297913
 30
0.0
 41
1.0
 10
49.34045712557194
 20
362.9246289697974
 30
0.0
 41
1.0
 10
49.42862455779229
 20
363.0333126125344
 30
0.0
 41
1.0
 10
49.51547685099541
 20
363.1419562413436
 30
0.0
 41
1.0
 10
49.60103536267167
 20
363.2505484655919
 30
0.0
 41
1.0
  0
SPLINE
  5
86
330
5E
100
AcDbEntity
  8
$DDT_AUDIT_GENERATED_(60)
  6
Continuous
 62
     7
100
AcDbSpline
210
0.0
220
0.0
230
1.0
 70
    12
 71
     6
 72
    14
 73
     7
 74
     0
 42
0.0000000011877457
 43
0.0000000001
 40
0.9732101218581417
 40
0.9732101218581417
 40
0.9732101218581417
 40
0.9732101218581417
 40
0.9732101218581417
 40
0.9732101218581417
 40
0.9732101218581417
 40
1.0
 40
1.0
 40
1.0
 40
1.0
 40
1.0
 40
1.0
 40
1.0
 10
50.13800265213232
 20
363.9594598730952
 30
0.0
 41
1.0
 10
50.16021243244967
 20
363.9899715980769
 30
0.0
 41
1.0
 10
50.18232788502781
 20
364.0204781078759
 30
0.0
 41
1.0
 10
50.20434961595807
 20
364.0509795325136
 30
0.0
 41
1.0
 10
50.22627823896384
 20
364.0814760408667
 30
0.0
 41
1.0
 10
50.24811437441712
 20
364.1119678422247
 30
0.0
 41
1.0
 10
50.2698586482703
 20
364.1424551879244
 30
0.0
 41
1.0
  0
ARC
  5
87
330
5E
100
AcDbEntity
  8
$DDT_AUDIT_GENERATED_(60)
  6
Continuous
 62
     7
100
AcDbCircle
 10
31.3566495894
 20
377.5553816684
 30
0.0
 40
23.15707964082439
100
AcDbArc
 50
239.1802263176
 51
239.3593367331
  0
SPLINE
  5
88
330
5E
100
AcDbEntity
  8
$DDT_AUDIT_GENERATED_(60)
  6
Continuous
 62
     7
100
AcDbSpline
210
0.0
220
0.0
230
1.0
 70
     8
 71
     3
 72
    20
 73
    16
 74
     0
 42
0.0000000007431985
 43
0.0000000001
 40
0.0
 40
0.0
 40
0.0
 40
0.0
 40
0.1249999999999996
 40
0.1249999999999996
 40
0.2499999999999991
 40
0.2499999999999991
 40
0.4999999999999982
 40
0.4999999999999982
 40
0.6249999999999986
 40
0.6249999999999986
 40
0.749999999999999
 40
0.749999999999999
 40
0.8749999999999994
 40
0.8749999999999994
 40
1.0
 40
1.0
 40
1.0
 40
1.0
 10
43.23735706591668
 20
357.6684938413399
 30
0.0
 10
43.46709347107598
 20
357.804966802604
 30
0.0
 10
43.59091996239323
 20
357.9616139955543
 30
0.0
 10
43.63256895189077
 20
358.2814359099464
 30
0.0
 10
43.54671251949276
 20
358.4504269332787
 30
0.0
 10
42.98284448196497
 20
358.936863606449
 30
0.0
 10
42.18516935430798
 20
359.2391293888205
 30
0.0
 10
40.48729590453534
 20
359.5899993158505
 30
0.0
 10
39.827279507083
 20
359.6927809775702
 30
0.0
 10
38.3930736733102
 20
359.8586927871277
 30
0.0
 10
37.61341429145894
 20
359.9238163300412
 30
0.0
 10
35.92953196978758
 20
360.0090830614155
 30
0.0
 10
35.05644876460374
 20
360.0245062240561
 30
0.0
 10
33.24892283570621
 20
360.0170087862058
 30
0.0
 10
32.30676875952691
 20
360.0064548884682
 30
0.0
 10
31.36497513998634
 20
360.0064402093991
 30
0.0
  0
SPLINE
  5
89
330
5E
100
AcDbEntity
  8
$DDT_AUDIT_GENERATED_(60)
  6
Continuous
 62
     7
100
AcDbSpline
210
0.0
220
0.0
230
1.0
 70
     8
 71
     3
 72
    16
 73
    12
 74
     0
 42
0.0000000007347604
 43
0.0000000001
 40
0.0
 40
0.0
 40
0.0
 40
0.0
 40
0.25
 40
0.25
 40
0.375
 40
0.375
 40
0.5
 40
0.5
 40
0.75
 40
0.75
 40
1.0
 40
1.0
 40
1.0
 40
1.0
 10
31.36497513998634
 20
360.0064402093991
 30
0.0
 10
29.48348040767283
 20
360.0064937338536
 30
0.0
 10
27.62747965401683
 20
360.0506850615232
 30
0.0
 10
25.13412624429521
 20
359.9248622962792
 30
0.0
 10
24.33925044592702
 20
359.8589738833977
 30
0.0
 10
22.90147870263948
 20
359.6926889958105
 30
0.0
 10
22.25629469712903
 20
359.5925077034852
 30
0.0
 10
20.54417258603317
 20
359.2397564978452
 30
0.0
 10
19.74942725370304
 20
358.9383461995862
 30
0.0
 10
18.99467746487799
 20
358.288669062001
 30
0.0
 10
19.03315459887374
 20
357.9415092171783
 30
0.0
 10
19.49236819379679
 20
357.668472294263
 30
0.0
  0
ARC
  5
8A
330
5E
100
AcDbEntity
  8
$DDT_AUDIT_GENERATED_(60)
  6
Continuous
 62
     7
100
AcDbCircle
 10
31.3733572602
 20
377.5542276326
 30
0.0
 40
23.15592580325884
100
AcDbArc
 50
300.642502553
 51
300.8206656166
  0
ELLIPSE
  5
8B
330
5E
100
AcDbEntity
  8
$DDT_AUDIT_GENERATED_(60)
  6
Continuous
 62
     7
100
AcDbEllipse
 10
31.364861839
 20
359.2311480319
 30
0.0
 11
-12.25
 21
0.0
 31
0.0
210
0.0
220
0.0
230
1.0
 40
0.2940403252
 41
-3.413481710702595
 42
-3.327472384480001
  0
ELLIPSE
  5
8C
330
5E
100
AcDbEntity
  8
$DDT_AUDIT_GENERATED_(60)
  6
Continuous
 62
     7
100
AcDbEllipse
 10
31.364861839
 20
359.2311480319
 30
0.0
 11
-12.25
 21
0.0
 31
0.0
210
0.0
220
0.0
230
1.0
 40
0.2940403252
 41
0.1831770096613395
 42
0.2718890571128395
  0
ELLIPSE
  5
8D
330
5E
100
AcDbEntity
  8
$DDT_AUDIT_GENERATED_(60)
  6
Continuous
 62
     7
100
AcDbEllipse
 10
31.364861839
 20
359.2311480319
 30
0.0
 11
12.0085
 21
0.0
 31
0.0
210
0.0
220
0.0
230
1.0
 40
0.2940403252
 41
-0.1866182159288448
 42
-0.1497934540427215
  0
ELLIPSE
  5
8E
330
5E
100
AcDbEntity
  8
$DDT_AUDIT_GENERATED_(60)
  6
Continuous
 62
     7
100
AcDbEllipse
 10
31.364861839
 20
359.2311480319
 30
0.0
 11
12.0085
 21
0.0
 31
0.0
210
0.0
220
0.0
230
1.0
 40
0.2940403252
 41
3.291148133051224
 42
3.328210869518703
  0
LINE
  5
8F
330
5E
100
AcDbEntity
  8
$DDT_AUDIT_GENERATED_(60)
  6
Continuous
 62
     7
100
AcDbLine
 10
6.3739720101
 20
364.4069143884
 30
0.0
 11
6.3739720101
 21
274.4022165975
 31
0.0
  0
LINE
  5
90
330
5E
100
AcDbEntity
  8
$DDT_AUDIT_GENERATED_(60)
  6
Continuous
 62
     7
100
AcDbLine
 10
56.355751668
 20
274.4022165975
 30
0.0
 11
56.355751668
 21
364.4069143884
 31
0.0
  0
SPLINE
  5
91
330
5E
100
AcDbEntity
  8
$DDT_AUDIT_GENERATED_(60)
  6
Continuous
 62
     7
100
AcDbSpline
210
0.0
220
0.0
230
1.0
 70
     8
 71
     3
 72
    20
 73
    16
 74
     0
 42
0.0000000010531524
 43
0.0000000001
 40
0.0
 40
0.0
 40
0.0
 40
0.0
 40
0.0479282434495127
 40
0.1253731316475429
 40
0.2203866456910827
 40
0.3306673630206203
 40
0.4482080320909436
 40
0.5647745743084036
 40
0.6729838256168
 40
0.7664954772343601
 40
0.8444223095704341
 40
0.9079623972531141
 40
0.9583197962068701
 40
0.996702120845094
 40
1.0
 40
1.0
 40
1.0
 40
1.0
 10
56.36175134960869
 20
364.4069143927261
 30
0.0
 10
56.36173175616316
 20
364.5737689616769
 30
0.0
 10
56.36168882318171
 20
364.9438688621703
 30
0.0
 10
56.36165417168878
 20
365.6575773002692
 30
0.0
 10
56.36163791570098
 20
366.5463991075661
 30
0.0
 10
56.36164214366855
 20
367.5703422997443
 30
0.0
 10
56.36164712780583
 20
368.6598433274392
 30
0.0
 10
56.36164094241014
 20
369.743590277836
 30
0.0
 10
56.36163924114647
 20
370.7509740193113
 30
0.0
 10
56.36165881704491
 20
371.6364044271524
 30
0.0
 10
56.36170215218145
 20
372.3795093027813
 30
0.0
 10
56.36176291954551
 20
372.9884756205722
 30
0.0
 10
56.36184470953968
 20
373.4654842649383
 30
0.0
 10
56.36190754974718
 20
373.7662084555828
 30
0.0
 10
56.36195418987263
 20
373.8907645150639
 30
0.0
 10
56.36195848130117
 20
373.9022166017168
 30
0.0
  0
SPLINE
  5
92
330
5E
100
AcDbEntity
  8
$DDT_AUDIT_GENERATED_(60)
  6
Continuous
 62
     7
100
AcDbSpline
210
0.0
220
0.0
230
1.0
 70
     8
 71
     3
 72
    20
 73
    16
 74
     0
 42
0.0000000010531524
 43
0.0000000001
 40
0.0
 40
0.0
 40
0.0
 40
0.0
 40
0.0479282321214404
 40
0.1253731218792382
 40
0.2203866381235186
 40
0.3306673586955005
 40
0.4482080316447657
 40
0.5647745777485583
 40
0.6729838323461265
 40
0.7664954863475507
 40
0.844422320426636
 40
0.9079624092664322
 40
0.9583198088406182
 40
0.9967021336122637
 40
1.0
 40
1.0
 40
1.0
 40
1.0
 10
6.367972328506725
 20
373.9022165953012
 30
0.0
 10
6.367991921948199
 20
373.7353620657929
 30
0.0
 10
6.368034854927855
 20
373.3652621929969
 30
0.0
 10
6.368069506420288
 20
372.6515537780027
 30
0.0
 10
6.368085762410922
 20
371.762731949264
 30
0.0
 10
6.368081534443425
 20
370.7387887273555
 30
0.0
 10
6.368076550306044
 20
369.6492876649251
 30
0.0
 10
6.368082735701889
 20
368.565540679537
 30
0.0
 10
6.368084436965054
 20
367.5581569078577
 30
0.0
 10
6.368064861064653
 20
366.6727264764934
 30
0.0
 10
6.368021525924895
 20
365.9296215843615
 30
0.0
 10
6.367960758558587
 20
365.3206552549058
 30
0.0
 10
6.367878968557214
 20
364.8436466059069
 30
0.0
 10
6.367816128361452
 20
364.5429224519442
 30
0.0
 10
6.367769488248944
 20
364.4183664286169
 30
0.0
 10
6.367765196836985
 20
364.406914386299
 30
0.0
  0
ARC
  5
93
330
5E
100
AcDbEntity
  8
$DDT_AUDIT_GENERATED_(60)
  6
Continuous
 62
     7
100
AcDbCircle
 10
55.8814699143
 20
373.9320261518
 30
0.0
 40
0.4654789330306769
100
AcDbArc
 50
356.3282309857
 51
73.5469428779
  0
ARC
  5
94
330
5E
100
AcDbEntity
  8
$DDT_AUDIT_GENERATED_(60)
  6
Continuous
 62
     7
100
AcDbCircle
 10
6.8482146071
 20
373.9320828046
 30
0.0
 40
0.4654128637288054
100
AcDbArc
 50
106.453947783
 51
183.6792797236
  0
LINE
  5
96
330
5E
100
AcDbEntity
  8
$DDT_AUDIT_GENERATED_(95)
  6
Continuous
 62
     7
100
AcDbLine
 10
53.6956660294
 20
274.3922165985
 30
0.0
 11
34.7764294941
 21
274.3922165985
 31
0.0
  0
LINE
  5
97
330
5E
100
AcDbEntity
  8
$DDT_AUDIT_GENERATED_(95)
  6
Continuous
 62
     7
100
AcDbLine
 10
31.3233478052
 20
274.3922165985
 30
0.0
 11
9.0294398582
 21
274.3922165985
 31
0.0
  0
ELLIPSE
  5
99
330
5E
100
AcDbEntity
  8
02636038_GEHÄUSE
  6
Continuous
 62
     7
100
AcDbEllipse
 10
31.364861839
 20
350.9157488032
 30
0.0
 11
-10.75000000000001
 21
1.387778780781446E-14
 31
0.0
210
0.0
220
0.0
230
1.0
 40
0.2940403252
 41
0.0
 42
6.283185307179586
  0
LINE
  5
9A
330
5E
100
AcDbEntity
  8
02636038_GEHÄUSE
  6
Continuous
 62
     7
100
AcDbLine
 10
42.364861839
 20
350.458717538
 30
0.0
 11
42.364861839
 21
351.9797901582
 31
0.0
  0
ELLIPSE
  5
9B
330
5E
100
AcDbEntity
  8
02636038_GEHÄUSE
  6
Continuous
 62
     7
100
AcDbEllipse
 10
31.364861839
 20
353.7831278476
 30
0.0
 11
-11.80000000000002
 21
0.0
 31
0.0
210
0.0
220
0.0
230
1.0
 40
0.2940403252
 41
2.77125002149808
 42
3.511935285681506
  0
LINE
  5
9C
330
5E
100
AcDbEntity
  8
02636038_GEHÄUSE
  6
Continuous
 62
     7
100
AcDbLine
 10
42.364861839
 20
350.458717538
 30
0.0
 11
42.364861839
 21
350.3771984514
 31
0.0
  0
LINE
  5
9D
330
5E
100
AcDbEntity
  8
02636038_GEHÄUSE
  6
Continuous
 62
     7
100
AcDbLine
 10
42.364861839
 20
351.9797901582
 30
0.0
 11
42.364861839
 21
353.3027915044
 31
0.0
  0
LINE
  5
9E
330
5E
100
AcDbEntity
  8
02636038_GEHÄUSE
  6
Continuous
 62
     7
100
AcDbLine
 10
42.364861839
 20
353.3027915044
 30
0.0
 11
42.364861839
 21
355.0389244723
 31
0.0
  0
LINE
  5
9F
330
5E
100
AcDbEntity
  8
02636038_GEHÄUSE
  6
Continuous
 62
     7
100
AcDbLine
 10
20.364861839
 20
351.9797901582
 30
0.0
 11
20.364861839
 21
350.458717538
 31
0.0
  0
ELLIPSE
  5
A0
330
5E
100
AcDbEntity
  8
02636038_GEHÄUSE
  6
Continuous
 62
     7
100
AcDbEllipse
 10
31.364861839
 20
353.7831278476
 30
0.0
 11
11.79999999999999
 21
0.0
 31
0.0
210
0.0
220
0.0
230
1.0
 40
0.2940403252
 41
2.77125002149808
 42
3.511935285681505
  0
LINE
  5
A1
330
5E
100
AcDbEntity
  8
02636038_GEHÄUSE
  6
Continuous
 62
     7
100
AcDbLine
 10
20.364861839
 20
355.0389244723
 30
0.0
 11
20.364861839
 21
353.3027915044
 31
0.0
  0
LINE
  5
A2
330
5E
100
AcDbEntity
  8
02636038_GEHÄUSE
  6
Continuous
 62
     7
100
AcDbLine
 10
20.364861839
 20
353.3027915044
 30
0.0
 11
20.364861839
 21
351.9797901582
 31
0.0
  0
LINE
  5
A3
330
5E
100
AcDbEntity
  8
02636038_GEHÄUSE
  6
Continuous
 62
     7
100
AcDbLine
 10
20.364861839
 20
350.3771616955
 30
0.0
 11
20.364861839
 21
350.458717538
 31
0.0
  0
LINE
  5
A4
330
5E
100
AcDbEntity
  8
02636038_GEHÄUSE
  6
Continuous
 62
     7
100
AcDbLine
 10
21.8026807338
 20
349.4487820736
 30
0.0
 11
22.2680966283
 21
349.2314504336
 31
0.0
  0
LINE
  5
A5
330
5E
100
AcDbEntity
  8
02636038_GEHÄUSE
  6
Continuous
 62
     7
100
AcDbLine
 10
40.4616270498
 20
349.2314504336
 30
0.0
 11
40.9270429443
 21
349.4487820736
 31
0.0
  0
ARC
  5
A6
330
5E
100
AcDbEntity
  8
02636038_GEHÄUSE
  6
Continuous
 62
     7
100
AcDbCircle
 10
38.7355444655
 20
354.4106173411
 30
0.0
 40
5.424244251252163
100
AcDbArc
 50
292.7665884241
 51
311.9816260873
  0
ARC
  5
A7
330
5E
100
AcDbEntity
  8
02636038_GEHÄUSE
  6
Continuous
 62
     7
100
AcDbCircle
 10
24.085250572
 20
354.5396474302
 30
0.0
 40
5.582001218538879
100
AcDbArc
 50
228.1463613066
 51
246.5124867459
  0
LINE
  5
A8
330
5E
100
AcDbEntity
  8
02636038_GEHÄUSE
  6
Continuous
 62
     7
100
AcDbLine
 10
19.564861839
 20
358.7481794827
 30
0.0
 11
19.564861839
 21
353.7831278476
 31
0.0
  0
LINE
  5
A9
330
5E
100
AcDbEntity
  8
02636038_GEHÄUSE
  6
Continuous
 62
     7
100
AcDbLine
 10
43.164861839
 20
353.7831278476
 30
0.0
 11
43.164861839
 21
358.7406964338
 31
0.0
  0
SPLINE
  5
AB
330
5E
100
AcDbEntity
  8
$DDT_AUDIT_GENERATED_(AA)
  6
Continuous
 62
     7
100
AcDbSpline
210
0.0
220
0.0
230
1.0
 70
     8
 71
     3
 72
    10
 73
     6
 74
     0
 42
0.0000000014493389
 43
0.0000000001
 40
0.9339302051760574
 40
0.9339302051760574
 40
0.9339302051760574
 40
0.9339302051760574
 40
0.9374016646776866
 40
0.9686972914875559
 40
0.9696382484805802
 40
0.9696382484805802
 40
0.9696382484805802
 40
0.9696382484805802
 10
50.10030412199251
 20
408.2145329706923
 30
0.0
 10
50.10228559851475
 20
408.2224160010991
 30
0.0
 10
50.12102431302627
 20
408.3013718040057
 30
0.0
 10
50.12883746283281
 20
408.3825020057191
 30
0.0
 10
50.12703987971825
 20
408.455927709799
 30
0.0
 10
50.1269797897891
 20
408.4580710677774
 30
0.0
  0
SPLINE
  5
AC
330
5E
100
AcDbEntity
  8
$DDT_AUDIT_GENERATED_(AA)
  6
Continuous
 62
     7
100
AcDbSpline
210
0.0
220
0.0
230
1.0
 70
     8
 71
     3
 72
    11
 73
     7
 74
     0
 42
0.0000000014504681
 43
0.0000000001
 40
0.029672344095751
 40
0.029672344095751
 40
0.029672344095751
 40
0.029672344095751
 40
0.0312907383128727
 40
0.0385599113359119
 40
0.0625715745752731
 40
0.0664182754741231
 40
0.0664182754741231
 40
0.0664182754741231
 40
0.0664182754741231
 10
12.60248142036564
 20
408.4626603475878
 30
0.0
 10
12.6022927069149
 20
408.4589776836697
 30
0.0
 10
12.60142755118896
 20
408.4387529318211
 30
0.0
 10
12.60189461865591
 20
408.3638640822688
 30
0.0
 10
12.61167243097166
 20
408.2839779730008
 30
0.0
 10
12.62650810267801
 20
408.2206672618615
 30
0.0
 10
12.62869132367261
 20
408.2119263989317
 30
0.0
  0
ARC
  5
AD
330
5E
100
AcDbEntity
  8
$DDT_AUDIT_GENERATED_(AA)
  6
Continuous
 62
     7
100
AcDbCircle
 10
13.8041912397
 20
378.2634250216
 30
0.0
 40
6.610399648517189
100
AcDbArc
 50
169.2490887523
 51
180.2890424669
  0
ARC
  5
AE
330
5E
100
AcDbEntity
  8
$DDT_AUDIT_GENERATED_(AA)
  6
Continuous
 62
     7
100
AcDbCircle
 10
48.9248048843
 20
378.2633386828
 30
0.0
 40
6.61113052468199
100
AcDbArc
 50
359.7130892593
 51
10.7504538484
  0
ELLIPSE
  5
AF
330
5E
100
AcDbEntity
  8
$DDT_AUDIT_GENERATED_(AA)
  6
Continuous
 62
     7
100
AcDbEllipse
 10
54.9091275787
 20
377.1195309227
 30
0.0
 11
0.0
 21
0.3000000000035357
 31
0.0
210
0.0
220
0.0
230
1.0
 40
1.0
 41
3.141592653589793
 42
3.336671149504166
  0
ARC
  5
B0
330
5E
100
AcDbEntity
  8
$DDT_AUDIT_GENERATED_(AA)
  6
Continuous
 62
     7
100
AcDbCircle
 10
31.398984005
 20
642.860027945
 30
0.0
 40
232.6877058595639
100
AcDbArc
 50
265.5073320483
 51
269.991707543
  0
ARC
  5
B1
330
5E
100
AcDbEntity
  8
$DDT_AUDIT_GENERATED_(AA)
  6
Continuous
 62
     7
100
AcDbCircle
 10
31.3959676398
 20
641.344606872
 30
0.0
 40
231.1722843828751
100
AcDbArc
 50
269.9924007854
 51
274.5061417341
  0
SPLINE
  5
B2
330
5E
100
AcDbEntity
  8
$DDT_AUDIT_GENERATED_(AA)
  6
Continuous
 62
     7
100
AcDbSpline
210
0.0
220
0.0
230
1.0
 70
     8
 71
     3
 72
     8
 73
     4
 74
     0
 42
0.0000000014454487
 43
0.0000000001
 40
0.0
 40
0.0
 40
0.0
 40
0.0
 40
0.0047475909730392
 40
0.0047475909730392
 40
0.0047475909730392
 40
0.0047475909730392
 10
12.8244993488041
 20
417.7460119399761
 30
0.0
 10
12.82455794903327
 20
417.7569115456575
 30
0.0
 10
12.82532660903906
 20
417.7678183161586
 30
0.0
 10
12.82680199501837
 20
417.7787305445385
 30
0.0
  0
SPLINE
  5
B3
330
5E
100
AcDbEntity
  8
$DDT_AUDIT_GENERATED_(AA)
  6
Continuous
 62
     7
100
AcDbSpline
210
0.0
220
0.0
230
1.0
 70
     8
 71
     3
 72
     8
 73
     4
 74
     0
 42
0.0000000014457442
 43
0.0000000001
 40
0.9965449596270833
 40
0.9965449596270833
 40
0.9965449596270833
 40
0.9965449596270833
 40
1.0
 40
1.0
 40
1.0
 40
1.0
 10
49.90545258065149
 20
417.7769410946482
 30
0.0
 10
49.90624715263313
 20
417.7689892219081
 30
0.0
 10
49.90666711727815
 20
417.7610399400749
 30
0.0
 10
49.90671120063416
 20
417.7530938958194
 30
0.0
  0
ARC
  5
B4
330
5E
100
AcDbEntity
  8
$DDT_AUDIT_GENERATED_(AA)
  6
Continuous
 62
     7
100
AcDbCircle
 10
49.4152154236
 20
417.6803592334
 30
0.0
 40
0.4968484979453227
100
AcDbArc
 50
0.9648582446
 51
8.4178971298
  0
ARC
  5
B5
330
5E
100
AcDbEntity
  8
$DDT_AUDIT_GENERATED_(AA)
  6
Continuous
 62
     7
100
AcDbCircle
 10
13.316005516
 20
417.6732722574
 30
0.0
 40
0.4968595111892826
100
AcDbArc
 50
171.5817055994
 51
178.9069012295
  0
LINE
  5
B6
330
5E
100
AcDbEntity
  8
$DDT_AUDIT_GENERATED_(AA)
  6
Continuous
 62
     7
100
AcDbLine
 10
49.5412799921
 20
420.2102969491
 30
0.0
 11
49.9067112006
 21
417.7530938958
 31
0.0
  0
SPLINE
  5
B7
330
5E
100
AcDbEntity
  8
$DDT_AUDIT_GENERATED_(AA)
  6
Continuous
 62
     7
100
AcDbSpline
210
0.0
220
0.0
230
1.0
 70
     8
 71
     3
 72
     8
 73
     4
 74
     0
 42
0.0000000014263053
 43
0.0000000001
 40
0.0000020928600833
 40
0.0000020928600833
 40
0.0000020928600833
 40
0.0000020928600833
 40
0.0055760582361694
 40
0.0055760582361694
 40
0.0055760582361694
 40
0.0055760582361694
 10
49.54127798130055
 20
420.2103115814227
 30
0.0
 10
49.53949285551196
 20
420.2233017698545
 30
0.0
 10
49.53772360913604
 20
420.2361842820155
 30
0.0
 10
49.53561092355155
 20
420.2489750178463
 30
0.0
  0
LINE
  5
B8
330
5E
100
AcDbEntity
  8
$DDT_AUDIT_GENERATED_(AA)
  6
Continuous
 62
     7
100
AcDbLine
 10
10.0585605689
 20
376.8195309227
 30
0.0
 11
52.6839452958
 21
376.8195309227
 31
0.0
  0
LINE
  5
B9
330
5E
100
AcDbEntity
  8
$DDT_AUDIT_GENERATED_(AA)
  6
Continuous
 62
     7
100
AcDbLine
 10
52.6839452958
 20
376.8195309227
 30
0.0
 11
54.9091275787
 21
376.8195309227
 31
0.0
  0
SPLINE
  5
BA
330
5E
100
AcDbEntity
  8
$DDT_AUDIT_GENERATED_(AA)
  6
Continuous
 62
     7
100
AcDbSpline
210
0.0
220
0.0
230
1.0
 70
     8
 71
     3
 72
     8
 73
     4
 74
     0
 42
0.0000000296556333
 43
0.0000000001
 40
0.6946647514096397
 40
0.6946647514096397
 40
0.6946647514096397
 40
0.6946647514096397
 40
0.7281557107663573
 40
0.7281557107663573
 40
0.7281557107663573
 40
0.7281557107663573
 10
7.555795672841661
 20
376.8903908605445
 30
0.0
 10
7.558957197918267
 20
376.8884600521905
 30
0.0
 10
7.562243877030358
 20
376.8866281570311
 30
0.0
 10
7.565654218726611
 20
376.8848936875286
 30
0.0
  0
ARC
  5
BB
330
5E
100
AcDbEntity
  8
$DDT_AUDIT_GENERATED_(AA)
  6
Continuous
 62
     7
100
AcDbCircle
 10
9.7940869377
 20
430.1229921598
 30
0.0
 40
53.3041173472036
100
AcDbArc
 50
268.9247576435
 51
270.2841652183
  0
ARC
  5
BC
330
5E
100
AcDbEntity
  8
$DDT_AUDIT_GENERATED_(AA)
  6
Continuous
 62
     7
100
AcDbCircle
 10
7.7713229243
 20
377.0258799225
 30
0.0
 40
0.1922057189715235
100
AcDbArc
 50
263.8485918445
 51
272.3900467531
  0
LINE
  5
BD
330
5E
100
AcDbEntity
  8
$DDT_AUDIT_GENERATED_(AA)
  6
Continuous
 62
     7
100
AcDbLine
 10
55.4656398654
 20
379.203270901
 30
0.0
 11
55.4602921724
 21
379.2593532901
 31
0.0
  0
ARC
  5
BE
330
5E
100
AcDbEntity
  8
$DDT_AUDIT_GENERATED_(AA)
  6
Continuous
 62
     7
100
AcDbCircle
 10
48.8386950264
 20
378.1912681784
 30
0.0
 40
6.703771133397928
100
AcDbArc
 50
355.2234962422
 51
8.682576434
  0
SPLINE
  5
BF
330
5E
100
AcDbEntity
  8
$DDT_AUDIT_GENERATED_(AA)
  6
Continuous
 62
     7
100
AcDbSpline
210
0.0
220
0.0
230
1.0
 70
     8
 71
     3
 72
    11
 73
     7
 74
     0
 42
0.0000000092359783
 43
0.0000000001
 40
0.0
 40
0.0
 40
0.0
 40
0.0
 40
0.2059697832660457
 40
0.4412659467864378
 40
0.7070641828039512
 40
1.0
 40
1.0
 40
1.0
 40
1.0
 10
54.96721982858094
 20
376.8255289568486
 30
0.0
 10
55.03822809758719
 20
376.8389160657534
 30
0.0
 10
55.16543996702227
 20
376.8663875495764
 30
0.0
 10
55.33737567905402
 20
377.0151800136624
 30
0.0
 10
55.46674501140742
 20
377.2667126693717
 30
0.0
 10
55.50062161366372
 20
377.4914171113228
 30
0.0
 10
55.51918455546164
 20
377.6330504919647
 30
0.0
  0
SPLINE
  5
C0
330
5E
100
AcDbEntity
  8
$DDT_AUDIT_GENERATED_(AA)
  6
Continuous
 62
     7
100
AcDbSpline
210
0.0
220
0.0
230
1.0
 70
     8
 71
     3
 72
    11
 73
     7
 74
     0
 42
0.0000000113704434
 43
0.0000000001
 40
0.0
 40
0.0
 40
0.0
 40
0.0
 40
0.292113146572151
 40
0.6000887242561248
 40
0.9283150715659165
 40
1.0
 40
1.0
 40
1.0
 40
1.0
 10
7.210552185277459
 20
377.6330452008187
 30
0.0
 10
7.222919873522953
 20
377.5247572970912
 30
0.0
 10
7.246874504051107
 20
377.3378788108108
 30
0.0
 10
7.34791392244414
 20
377.087087663135
 30
0.0
 10
7.466080055056449
 20
376.9270193817187
 30
0.0
 10
7.554962893231633
 20
376.8989366857456
 30
0.0
 10
7.57361407769919
 20
376.8931765943957
 30
0.0
  0
ARC
  5
C1
330
5E
100
AcDbEntity
  8
$DDT_AUDIT_GENERATED_(AA)
  6
Continuous
 62
     7
100
AcDbCircle
 10
13.8918952442
 20
378.191358335
 30
0.0
 40
6.704629641263224
100
AcDbArc
 50
171.3159892737
 51
184.7767101666
  0
LINE
  5
C2
330
5E
100
AcDbEntity
  8
$DDT_AUDIT_GENERATED_(AA)
  6
Continuous
 62
     7
100
AcDbLine
 10
7.2694433999
 20
379.2594072776
 30
0.0
 11
7.2641270749
 21
379.2036565722
 31
0.0
  0
ARC
  5
C3
330
5E
100
AcDbEntity
  8
$DDT_AUDIT_GENERATED_(AA)
  6
Continuous
 62
     7
100
AcDbCircle
 10
11.4403143129
 20
408.7345413812
 30
0.0
 40
1.191550232411016
100
AcDbArc
 50
346.8279150003
 51
1.0925753396
  0
ARC
  5
C4
330
5E
100
AcDbEntity
  8
$DDT_AUDIT_GENERATED_(AA)
  6
Continuous
 62
     7
100
AcDbCircle
 10
51.0857021763
 20
408.7177621689
 30
0.0
 40
0.9908863544802082
100
AcDbArc
 50
176.2436196624
 51
195.1425485353
  0
LINE
  5
C5
330
5E
100
AcDbEntity
  8
$DDT_AUDIT_GENERATED_(AA)
  6
Continuous
 62
     7
100
AcDbLine
 10
13.2229891832
 20
420.3400553202
 30
0.0
 11
12.8574447976
 21
417.87509802
 31
0.0
  0
LINE
  5
C6
330
5E
100
AcDbEntity
  8
$DDT_AUDIT_GENERATED_(AA)
  6
Continuous
 62
     7
100
AcDbLine
 10
49.8737158704
 20
417.8825373585
 30
0.0
 11
49.5093110694
 21
420.3398329292
 31
0.0
  0
ARC
  5
C7
330
5E
100
AcDbEntity
  8
$DDT_AUDIT_GENERATED_(AA)
  6
Continuous
 62
     7
100
AcDbCircle
 10
114.6405429429
 20
412.8557918997
 30
0.0
 40
64.6759447734795
100
AcDbArc
 50
181.3057382223
 51
183.6497804492
  0
ARC
  5
C8
330
5E
100
AcDbEntity
  8
$DDT_AUDIT_GENERATED_(AA)
  6
Continuous
 62
     7
100
AcDbCircle
 10
3198.5489034592
 20
447.6843492076
 30
0.0
 40
3148.777145927002
100
AcDbArc
 50
180.5460720922
 51
180.6605485541
  0
LINE
  5
C9
330
5E
100
AcDbEntity
  8
$DDT_AUDIT_GENERATED_(AA)
  6
Continuous
 62
     7
100
AcDbLine
 10
49.9120528901
 20
417.6780360718
 30
0.0
 11
49.911941007
 21
417.6882191409
 31
0.0
  0
LINE
  5
CA
330
5E
100
AcDbEntity
  8
$DDT_AUDIT_GENERATED_(AA)
  6
Continuous
 62
     7
100
AcDbLine
 10
12.8194613467
 20
417.6822383836
 30
0.0
 11
12.8192985318
 21
417.6717674068
 31
0.0
  0
ARC
  5
CB
330
5E
100
AcDbEntity
  8
$DDT_AUDIT_GENERATED_(AA)
  6
Continuous
 62
     7
100
AcDbCircle
 10
-2139.9915657486
 20
439.1544372747
 30
0.0
 40
2152.91741504422
100
AcDbArc
 50
359.2610456414
 51
359.4281507957
  0
ARC
  5
CC
330
5E
100
AcDbEntity
  8
$DDT_AUDIT_GENERATED_(AA)
  6
Continuous
 62
     7
100
AcDbCircle
 10
-54.0613257246
 20
412.9736416802
 30
0.0
 40
66.82943539480415
100
AcDbArc
 50
356.3684716429
 51
358.6367590142
  0
SPLINE
  5
CD
330
5E
100
AcDbEntity
  8
$DDT_AUDIT_GENERATED_(AA)
  6
Continuous
 62
     7
100
AcDbSpline
210
0.0
220
0.0
230
1.0
 70
     8
 71
     3
 72
    72
 73
    68
 74
     0
 42
0.0000000002614626
 43
0.0000000001
 40
0.0
 40
0.0
 40
0.0
 40
0.0
 40
0.0121228762382508
 40
0.0233728160543904
 40
0.033935138917047
 40
0.0436127495434896
 40
0.0563429715015595
 40
0.0670162515308453
 40
0.0763777234501524
 40
0.0855036552777571
 40
0.0944169425252069
 40
0.1034230788067158
 40
0.1139592781002724
 40
0.1261915200295259
 40
0.1378746786618348
 40
0.1485443910698284
 40
0.1572340901509757
 40
0.1639710075885202
 40
0.1693743547148476
 40
0.1750802328244611
 40
0.1811785222136211
 40
0.1933707999765166
 40
0.2068008822234793
 40
0.2213128089357577
 40
0.2391015313051491
 40
0.2582647171197601
 40
0.2787980972913145
 40
0.3007011982385039
 40
0.323976082546852
 40
0.3486234067061462
 40
0.3739511797511502
 40
0.3992455269661968
 40
0.4244989415084016
 40
0.4497026310324337
 40
0.4748468278768556
 40
0.4999187002456277
 40
0.5249016424359066
 40
0.5497772972659655
 40
0.574528648186461
 40
0.5991432044347987
 40
0.6236163051131487
 40
0.6475303740322185
 40
0.6699194438432412
 40
0.6907913125989105
 40
0.7101891523288677
 40
0.7281460308421912
 40
0.7446844771249883
 40
0.7598176181317796
 40
0.7718456722410334
 40
0.7848239531697915
 40
0.7992543856585039
 40
0.8151643681292685
 40
0.8322801044787127
 40
0.8495144127057654
 40
0.866787918005258
 40
0.8817772706556719
 40
0.8962285037586766
 40
0.909864607932503
 40
0.9213695526062801
 40
0.9262493970122456
 40
0.9318149635796674
 40
0.9389905360626736
 40
0.9478161265185312
 40
0.9583388884214686
 40
0.9705799242530969
 40
0.9844554019001207
 40
0.9869304310179352
 40
0.9869304310179352
 40
0.9869304310179352
 40
0.9869304310179352
 10
49.53820646329033
 20
420.2487214286319
 30
0.0
 10
49.51833727045612
 20
420.3635426480045
 30
0.0
 10
49.48592040336207
 20
420.5472580597124
 30
0.0
 10
49.38380118429686
 20
420.7393133261587
 30
0.0
 10
49.29168480140216
 20
420.848336651287
 30
0.0
 10
49.17821905181646
 20
420.9543210631902
 30
0.0
 10
49.04027991442567
 20
421.0543560535249
 30
0.0
 10
48.8862499365349
 20
421.1451889419573
 30
0.0
 10
48.73872853036524
 20
421.2207111954513
 30
0.0
 10
48.58431755676845
 20
421.2912085013616
 30
0.0
 10
48.4189128462446
 20
421.359312135759
 30
0.0
 10
48.23133851691566
 20
421.4296776808791
 30
0.0
 10
48.00693030139495
 20
421.5063461636067
 30
0.0
 10
47.74334534424843
 20
421.587766523909
 30
0.0
 10
47.45719232658806
 20
421.6677592463423
 30
0.0
 10
47.18154218138078
 20
421.7382179874846
 30
0.0
 10
46.93631039493873
 20
421.7963432328266
 30
0.0
 10
46.73227813988063
 20
421.8419351100457
 30
0.0
 10
46.55247489325109
 20
421.8803251710105
 30
0.0
 10
46.3742120827683
 20
421.9168552817775
 30
0.0
 10
46.11852576078851
 20
421.9670392261677
 30
0.0
 10
45.76607185208777
 20
422.0318085158291
 30
0.0
 10
45.29533718543159
 20
422.1108184483031
 30
0.0
 10
44.72924778505654
 20
422.1969884795988
 30
0.0
 10
44.05508012577854
 20
422.2886437452165
 30
0.0
 10
43.25688687444671
 20
422.3838021962592
 30
0.0
 10
42.35229663628837
 20
422.4770167041252
 30
0.0
 10
41.33471668724003
 20
422.5660560750218
 30
0.0
 10
40.19896775474199
 20
422.6486367898844
 30
0.0
 10
38.9537454616722
 20
422.7218650115767
 30
0.0
 10
37.62494645737126
 20
422.7830439371058
 30
0.0
 10
36.24424310499278
 20
422.830911894
 30
0.0
 10
34.83377390600938
 20
422.8656737785035
 30
0.0
 10
33.40332484707391
 20
422.8881576685575
 30
0.0
 10
31.96293732398644
 20
422.8990443368576
 30
0.0
 10
30.52288322282482
 20
422.8986646470574
 30
0.0
 10
29.09347362502929
 20
422.8869833894707
 30
0.0
 10
27.68480429553154
 20
422.8637132179213
 30
0.0
 10
26.30647659028639
 20
422.8284164452546
 30
0.0
 10
24.96733357692046
 20
422.7806065309778
 30
0.0
 10
23.68274346362894
 20
422.7201841130377
 30
0.0
 10
22.48257596525438
 20
422.6485320019822
 30
0.0
 10
21.39116974983089
 20
422.568453786643
 30
0.0
 10
20.41973727918471
 20
422.4833047001632
 30
0.0
 10
19.56109966547837
 20
422.3953620593201
 30
0.0
 10
18.80695422690268
 20
422.3066932212598
 30
0.0
 10
18.14897981992324
 20
422.219168169772
 30
0.0
 10
17.60040318932285
 20
422.137609396477
 30
0.0
 10
17.12175728661406
 20
422.0593833851675
 30
0.0
 10
16.67417380665995
 20
421.9795445398215
 30
0.0
 10
16.21122483283575
 20
421.888551958753
 30
0.0
 10
15.74035198474494
 20
421.785249965712
 30
0.0
 10
15.28516361667496
 20
421.6722003687514
 30
0.0
 10
14.86256880736925
 20
421.5518418689651
 30
0.0
 10
14.50251073925012
 20
421.4326755166663
 30
0.0
 10
14.20349071223375
 20
421.3170103773849
 30
0.0
 10
13.96170386290606
 20
421.2070516719044
 30
0.0
 10
13.77038152507434
 20
421.1031731557473
 30
0.0
 10
13.64254053437271
 20
421.0192989822565
 30
0.0
 10
13.55632051727366
 20
420.9532155674879
 30
0.0
 10
13.4894305178214
 20
420.8955925015151
 30
0.0
 10
13.41549348305955
 20
420.8203377430666
 30
0.0
 10
13.33968472322434
 20
420.722002919278
 30
0.0
 10
13.27243575613676
 20
420.5974162020269
 30
0.0
 10
13.22661966288644
 20
420.4443025644649
 30
0.0
 10
13.21367866645924
 20
420.3124739975793
 30
0.0
 10
13.20706162027723
 20
420.2394225428307
 30
0.0
 10
13.20607558937425
 20
420.228356027607
 30
0.0
  0
LINE
  5
CE
330
5E
100
AcDbEntity
  8
$DDT_AUDIT_GENERATED_(AA)
  6
Continuous
 62
     7
100
AcDbLine
 10
12.6291926254
 20
408.2126836185
 30
0.0
 11
7.1947934841
 21
378.2325882398
 31
0.0
  0
LINE
  5
CF
330
5E
100
AcDbEntity
  8
$DDT_AUDIT_GENERATED_(AA)
  6
Continuous
 62
     7
100
AcDbLine
 10
55.5348712404
 20
378.2327559879
 30
0.0
 11
50.0995971798
 21
408.2151522666
 31
0.0
  0
ARC
  5
D0
330
5E
100
AcDbEntity
  8
$DDT_AUDIT_GENERATED_(AA)
  6
Continuous
 62
     7
100
AcDbCircle
 10
8.2500693207
 20
348.4819684385
 30
0.0
 40
28.35871475399334
100
AcDbArc
 50
88.7997778946
 51
90.9511847705
  0
ARC
  5
D1
330
5E
100
AcDbEntity
  8
$DDT_AUDIT_GENERATED_(AA)
  6
Continuous
 62
     7
100
AcDbCircle
 10
7.7680809895
 20
377.2427113223
 30
0.0
 40
0.4069699000391453
100
AcDbArc
 50
239.1867763867
 51
266.0240130317
  0
ARC
  5
D3
330
5E
100
AcDbEntity
  8
$DDT_AUDIT_GENERATED_(D2)
  6
Continuous
 62
     7
100
AcDbCircle
 10
31.364861839
 20
368.0022165999
 30
0.0
 40
24.5
100
AcDbArc
 50
158.8503735992
 51
164.8572685595
  0
ARC
  5
D4
330
5E
100
AcDbEntity
  8
$DDT_AUDIT_GENERATED_(D2)
  6
Continuous
 62
     7
100
AcDbCircle
 10
31.364861839
 20
368.0022165999
 30
0.0
 40
24.5
100
AcDbArc
 50
15.1427314405
 51
21.109553521
  0
ENDBLK
  5
D6
330
5E
100
AcDbEntity
  8
0
100
AcDbBlockEnd
  0
BLOCK
  5
148
330
D7
100
AcDbEntity
  8
0
100
AcDbBlockBegin
  2
SE1
 70
     0
 10
0.0
 20
0.0
 30
0.0
  3
SE1
  1

  0
LINE
  5
D9
330
D7
100
AcDbEntity
  8
$DDT_AUDIT_GENERATED_(60)
  6
Continuous
 62
     7
100
AcDbLine
 10
125.9584854799
 20
374.4022165999
 30
0.0
 11
150.4586112114
 21
374.4022165999
 31
0.0
  0
LINE
  5
DA
330
D7
100
AcDbEntity
  8
$DDT_AUDIT_GENERATED_(60)
  6
Continuous
 62
     7
100
AcDbLine
 10
170.3245411623
 20
274.4022165988
 30
0.0
 11
175.4552383497
 21
274.4022165979
 31
0.0
  0
LINE
  5
DB
330
D7
100
AcDbEntity
  8
$DDT_AUDIT_GENERATED_(60)
  6
Continuous
 62
     7
100
AcDbLine
 10
234.7451557427
 20
374.4022165999
 30
0.0
 11
253.3358132469
 21
374.4022165999
 31
0.0
  0
LINE
  5
DC
330
D7
100
AcDbEntity
  8
$DDT_AUDIT_GENERATED_(60)
  6
Continuous
 62
     7
100
AcDbLine
 10
158.9026645111
 20
374.4022165999
 30
0.0
 11
234.7451557427
 21
374.4022165999
 31
0.0
  0
LINE
  5
DD
330
D7
100
AcDbEntity
  8
$DDT_AUDIT_GENERATED_(60)
  6
Continuous
 62
     7
100
AcDbLine
 10
151.4620495029
 20
374.4022165999
 30
0.0
 11
158.9026645111
 21
374.4022165999
 31
0.0
  0
LINE
  5
DE
330
D7
100
AcDbEntity
  8
$DDT_AUDIT_GENERATED_(60)
  6
Continuous
 62
     7
100
AcDbLine
 10
150.4586112114
 20
374.4022165999
 30
0.0
 11
151.4620495029
 21
374.4022165999
 31
0.0
  0
SPLINE
  5
DF
330
D7
100
AcDbEntity
  8
$DDT_AUDIT_GENERATED_(60)
  6
Continuous
 62
     7
100
AcDbSpline
210
0.0
220
0.0
230
1.0
 70
    12
 71
     6
 72
    14
 73
     7
 74
     0
 42
0.0000000001452337
 43
0.0000000001
 40
0.0
 40
0.0
 40
0.0
 40
0.0
 40
0.0
 40
0.0
 40
0.0
 40
1.0
 40
1.0
 40
1.0
 40
1.0
 40
1.0
 40
1.0
 40
1.0
 10
175.4552345230387
 20
329.402133616791
 30
0.0
 41
1.0
 10
175.4552368287833
 20
336.5491167784431
 30
0.0
 41
1.0
 10
175.4552844113142
 20
343.19298807752
 30
0.0
 41
1.0
 10
180.1696415622904
 20
349.6406006833968
 30
0.0
 41
1.0
 10
187.1657347146879
 20
353.7649243789679
 30
0.0
 41
1.0
 10
192.9398150903554
 20
354.3438279780898
 30
0.0
 41
1.0
 10
226.0918616034867
 20
354.3983034369421
 30
0.0
 41
1.0
  0
LINE
  5
E0
330
D7
100
AcDbEntity
  8
$DDT_AUDIT_GENERATED_(60)
  6
Continuous
 62
     7
100
AcDbLine
 10
132.340606678
 20
274.4022165985
 30
0.0
 11
125.4584854797
 21
274.4022165985
 31
0.0
  0
LINE
  5
E1
330
D7
100
AcDbEntity
  8
$DDT_AUDIT_GENERATED_(60)
  6
Continuous
 62
     7
100
AcDbLine
 10
146.539752569
 20
274.4022165985
 30
0.0
 11
132.340606678
 21
274.4022165985
 31
0.0
  0
LINE
  5
E2
330
D7
100
AcDbEntity
  8
$DDT_AUDIT_GENERATED_(60)
  6
Continuous
 62
     7
100
AcDbLine
 10
150.4584855177
 20
274.4022165985
 30
0.0
 11
146.539752569
 21
274.4022165985
 31
0.0
  0
LINE
  5
E3
330
D7
100
AcDbEntity
  8
$DDT_AUDIT_GENERATED_(60)
  6
Continuous
 62
     7
100
AcDbLine
 10
151.458612192
 20
274.4022165985
 30
0.0
 11
150.4584853065
 21
274.4022165985
 31
0.0
  0
LINE
  5
E4
330
D7
100
AcDbEntity
  8
$DDT_AUDIT_GENERATED_(60)
  6
Continuous
 62
     7
100
AcDbLine
 10
170.3245411623
 20
274.4022165988
 30
0.0
 11
151.4586755506
 21
274.4022165985
 31
0.0
  0
ARC
  5
E5
330
D7
100
AcDbEntity
  8
$DDT_AUDIT_GENERATED_(60)
  6
Continuous
 62
     7
100
AcDbCircle
 10
213.4932054154
 20
-3074.2876454554
 30
0.0
 40
3439.076281622616
100
AcDbArc
 50
89.6459355064
 51
90.8536782397
  0
ARC
  5
E6
330
D7
100
AcDbEntity
  8
$DDT_AUDIT_GENERATED_(60)
  6
Continuous
 62
     7
100
AcDbCircle
 10
242.747369801
 20
-252.3178393486
 30
0.0
 40
617.0926980817079
100
AcDbArc
 50
88.9704052784
 51
90.743009847
  0
ARC
  5
E7
330
D7
100
AcDbEntity
  8
$DDT_AUDIT_GENERATED_(60)
  6
Continuous
 62
     7
100
AcDbCircle
 10
252.8358163993
 20
364.6752273692
 30
0.0
 40
0.9999999918325342
100
AcDbArc
 50
329.2310461653
 51
0.0
  0
ARC
  5
E8
330
D7
100
AcDbEntity
  8
$DDT_AUDIT_GENERATED_(60)
  6
Continuous
 62
     7
100
AcDbCircle
 10
239.5267567125
 20
373.0367765649
 30
0.0
 40
16.71744633401483
100
AcDbArc
 50
308.7901768218
 51
327.9424740413
  0
ARC
  5
E9
330
D7
100
AcDbEntity
  8
$DDT_AUDIT_GENERATED_(60)
  6
Continuous
 62
     7
100
AcDbCircle
 10
238.6324565421
 20
334.2982084129
 30
0.0
 40
23.69135583684659
100
AcDbArc
 50
99.4438506933
 51
121.960338051
  0
SPLINE
  5
EA
330
D7
100
AcDbEntity
  8
$DDT_AUDIT_GENERATED_(60)
  6
Continuous
 62
     7
100
AcDbSpline
210
0.0
220
0.0
230
1.0
 70
     8
 71
     3
 72
    16
 73
    12
 74
     0
 42
0.0000000006471818
 43
0.0000000001
 40
0.0
 40
0.0
 40
0.0
 40
0.0
 40
0.25
 40
0.25
 40
0.375
 40
0.375
 40
0.5
 40
0.5
 40
0.75
 40
0.75
 40
1.0
 40
1.0
 40
1.0
 40
1.0
 10
249.9997384461191
 20
360.0064402093991
 30
0.0
 10
249.9997895051952
 20
360.0064937338536
 30
0.0
 10
249.5278883641608
 20
360.0506850615232
 30
0.0
 10
248.285570474309
 20
359.9248622962792
 30
0.0
 10
247.7725463463098
 20
359.8589738833977
 30
0.0
 10
246.5962843663652
 20
359.6926889958105
 30
0.0
 10
245.935794651436
 20
359.5925077034852
 30
0.0
 10
243.7350504450473
 20
359.2397564978452
 30
0.0
 10
242.0205551921208
 20
358.9383461995862
 30
0.0
 10
238.4277862686976
 20
358.288669062001
 30
0.0
 10
236.5513682896768
 20
357.9415092171783
 30
0.0
 10
234.7451557426502
 20
357.668472294263
 30
0.0
  0
ARC
  5
EB
330
D7
100
AcDbEntity
  8
$DDT_AUDIT_GENERATED_(60)
  6
Continuous
 62
     7
100
AcDbCircle
 10
-196.5907047727
 20
310.3225752724
 30
0.0
 40
322.2151299665411
100
AcDbArc
 50
358.1615051739
 51
1.8389015315
  0
LINE
  5
EC
330
D7
100
AcDbEntity
  8
$DDT_AUDIT_GENERATED_(60)
  6
Continuous
 62
     7
100
AcDbLine
 10
125.4584854797
 20
299.9929754976
 30
0.0
 11
125.4584854797
 21
274.4022165985
 31
0.0
  0
LINE
  5
ED
330
D7
100
AcDbEntity
  8
$DDT_AUDIT_GENERATED_(60)
  6
Continuous
 62
     7
100
AcDbLine
 10
125.4584854797
 20
373.9022165999
 30
0.0
 11
125.4584854797
 21
320.6622577033
 31
0.0
  0
ARC
  5
EE
330
D7
100
AcDbEntity
  8
$DDT_AUDIT_GENERATED_(60)
  6
Continuous
 62
     7
100
AcDbCircle
 10
125.9584854798
 20
373.9022165998
 30
0.0
 40
0.5000000001089224
100
AcDbArc
 50
89.9999999841
 51
179.9999999875
  0
LINE
  5
EF
330
D7
100
AcDbEntity
  8
$DDT_AUDIT_GENERATED_(60)
  6
Continuous
 62
     7
100
AcDbLine
 10
175.4552383497
 20
274.4022165973
 30
0.0
 11
175.4552383495
 21
329.4021336034
 31
0.0
  0
ARC
  5
F0
330
D7
100
AcDbEntity
  8
$DDT_AUDIT_GENERATED_(60)
  6
Continuous
 62
     7
100
AcDbCircle
 10
253.3357159594
 20
373.9022163727
 30
0.0
 40
0.5000002271438484
100
AcDbArc
 50
0.000026031
 51
90.0000712278
  0
LINE
  5
F1
330
D7
100
AcDbEntity
  8
$DDT_AUDIT_GENERATED_(60)
  6
Continuous
 62
     7
100
AcDbLine
 10
253.8358163918
 20
364.6752279346
 30
0.0
 11
253.8358163918
 21
373.9022165999
 31
0.0
  0
LINE
  5
F2
330
D7
100
AcDbEntity
  8
$DDT_AUDIT_GENERATED_(95)
  6
Continuous
 62
     7
100
AcDbLine
 10
173.6584854797
 20
274.3922165985
 30
0.0
 11
150.5642903654
 21
274.3922165985
 31
0.0
  0
LINE
  5
F4
330
D7
100
AcDbEntity
  8
$DDT_AUDIT_GENERATED_(F3)
  6
Continuous
 62
     7
100
AcDbLine
 10
171.9756743971
 20
395.0242793777
 30
0.0
 11
172.0874698065
 21
390.7549849353
 31
0.0
  0
LINE
  5
F5
330
D7
100
AcDbEntity
  8
$DDT_AUDIT_GENERATED_(F3)
  6
Continuous
 62
     7
100
AcDbLine
 10
171.9756743971
 20
395.0242793777
 30
0.0
 11
171.4694620592
 21
395.254973631
 31
0.0
  0
LINE
  5
F6
330
D7
100
AcDbEntity
  8
02636038_GEHÄUSE
  6
Continuous
 62
     7
100
AcDbLine
 10
250.2545926818
 20
354.0766822994
 30
0.0
 11
229.7050428637
 21
347.7548153069
 31
0.0
  0
SPLINE
  5
F7
330
D7
100
AcDbEntity
  8
02636038_GEHÄUSE
  6
Continuous
 62
     7
100
AcDbSpline
210
0.0
220
0.0
230
1.0
 70
     8
 71
     3
 72
    10
 73
     6
 74
     0
 42
0.0000000019260148
 43
0.0000000001
 40
0.0
 40
0.0
 40
0.0
 40
0.0
 40
0.5
 40
0.5
 40
1.0
 40
1.0
 40
1.0
 40
1.0
 10
242.3586093416237
 20
351.9797901582477
 30
0.0
 10
241.5679226964951
 20
351.6173158045839
 30
0.0
 10
240.7612200317466
 20
351.3071423621806
 30
0.0
 10
239.1131061677047
 20
350.8001374954479
 30
0.0
 10
238.271695435937
 20
350.6033045443954
 30
0.0
 10
237.4142855168935
 20
350.4587175379543
 30
0.0
  0
LINE
  5
F8
330
D7
100
AcDbEntity
  8
02636038_GEHÄUSE
  6
Continuous
 62
     7
100
AcDbLine
 10
243.1797275218
 20
355.0389244723
 30
0.0
 11
235.0156660724
 21
352.5273312229
 31
0.0
  0
LINE
  5
F9
330
D7
100
AcDbEntity
  8
02636038_GEHÄUSE
  6
Continuous
 62
     7
100
AcDbLine
 10
243.1797275218
 20
355.0389244723
 30
0.0
 11
243.7138317626
 21
353.3027915044
 31
0.0
  0
SPLINE
  5
FA
330
D7
100
AcDbEntity
  8
02636038_GEHÄUSE
  6
Continuous
 62
     7
100
AcDbSpline
210
0.0
220
0.0
230
1.0
 70
     8
 71
     3
 72
    14
 73
    10
 74
     0
 42
0.0000000049320844
 43
0.0000000001
 40
0.0
 40
0.0
 40
0.0
 40
0.0
 40
0.1249999999999997
 40
0.1249999999999997
 40
0.2499999999999994
 40
0.2499999999999994
 40
0.4999999999999996
 40
0.4999999999999996
 40
1.0
 40
1.0
 40
1.0
 40
1.0
 10
243.7138317625691
 20
353.3027915043793
 30
0.0
 10
243.7386561731783
 20
353.2220984965817
 30
0.0
 10
243.7326152415206
 20
353.1323108556897
 30
0.0
 10
243.6819555643481
 20
352.9711091247151
 30
0.0
 10
243.6389551716306
 20
352.8961301557596
 30
0.0
 10
243.4899879550305
 20
352.6922003587989
 30
0.0
 10
243.3618873985824
 20
352.5780994213016
 30
0.0
 10
242.9622919039889
 20
352.2758871866654
 30
0.0
 10
242.662281258488
 20
352.1190024270642
 30
0.0
 10
242.3586093416237
 20
351.9797901582477
 30
0.0
  0
SPLINE
  5
FB
330
D7
100
AcDbEntity
  8
02636038_GEHÄUSE
  6
Continuous
 62
     7
100
AcDbSpline
210
0.0
220
0.0
230
1.0
 70
     8
 71
     3
 72
    14
 73
    10
 74
     0
 42
0.0000000049319876
 43
0.0000000001
 40
0.0
 40
0.0
 40
0.0
 40
0.0
 40
0.4999999999999996
 40
0.4999999999999996
 40
0.7499999999999993
 40
0.7499999999999993
 40
0.8749999999999997
 40
0.8749999999999997
 40
1.0
 40
1.0
 40
1.0
 40
1.0
 10
237.4142855168935
 20
350.4587175379543
 30
0.0
 10
237.0834619947251
 20
350.4029300066134
 30
0.0
 10
236.749810071732
 20
350.3641762155744
 30
0.0
 10
236.2469141531946
 20
350.3897335631207
 30
0.0
 10
236.0782649661917
 20
350.4121491334486
 30
0.0
 10
235.8418897491043
 20
350.4962708485348
 30
0.0
 10
235.763716311003
 20
350.5340586326335
 30
0.0
 10
235.6303819732619
 20
350.6392054500624
 30
0.0
 10
235.5747124288243
 20
350.7101226409445
 30
0.0
 10
235.5497703131717
 20
350.7911982549729
 30
0.0
  0
LINE
  5
FC
330
D7
100
AcDbEntity
  8
02636038_GEHÄUSE
  6
Continuous
 62
     7
100
AcDbLine
 10
235.5497703132
 20
350.791198255
 30
0.0
 11
235.0156660724
 21
352.5273312229
 31
0.0
  0
LINE
  5
FD
330
D7
100
AcDbEntity
  8
02636038_GEHÄUSE
  6
Continuous
 62
     7
100
AcDbLine
 10
229.085986362
 20
347.896598173
 30
0.0
 11
229.7050428637
 21
347.7548153069
 31
0.0
  0
LINE
  5
FE
330
D7
100
AcDbEntity
  8
02636038_GEHÄUSE
  6
Continuous
 62
     7
100
AcDbLine
 10
250.2545926818
 20
354.0766822994
 30
0.0
 11
250.6869084965
 21
354.5419095232
 31
0.0
  0
ARC
  5
FF
330
D7
100
AcDbEntity
  8
02636038_GEHÄUSE
  6
Continuous
 62
     7
100
AcDbCircle
 10
249.9543655977
 20
355.2226303922
 30
0.0
 40
1.000000000000008
100
AcDbArc
 50
317.1
 51
17.1
  0
ARC
  5
100
330
D7
100
AcDbEntity
  8
02636038_GEHÄUSE
  6
Continuous
 62
     7
100
AcDbCircle
 10
229.309236478
 20
348.8713593672
 30
0.0
 40
0.9999999999999931
100
AcDbArc
 50
197.1
 51
257.1
  0
LINE
  5
101
330
D7
100
AcDbEntity
  8
02636038_GEHÄUSE
  6
Continuous
 62
     7
100
AcDbLine
 10
226.491325586
 20
354.6302278
 30
0.0
 11
228.3534434633
 21
348.5773190419
 31
0.0
  0
LINE
  5
102
330
D7
100
AcDbEntity
  8
02636038_GEHÄUSE
  6
Continuous
 62
     7
100
AcDbLine
 10
250.9101586125
 20
355.5166707174
 30
0.0
 11
249.5247503497
 21
360.0200106561
 31
0.0
  0
LINE
  5
104
330
D7
100
AcDbEntity
  8
$DDT_AUDIT_GENERATED_(103)
  6
Continuous
 62
     7
100
AcDbLine
 10
248.699571036
 20
353.1797945244
 30
0.0
 11
231.4952967697
 21
347.8870686702
 31
0.0
  0
LINE
  5
105
330
D7
100
AcDbEntity
  8
$DDT_AUDIT_GENERATED_(103)
  6
Continuous
 62
     7
100
AcDbLine
 10
231.3776806396
 20
348.2693858761
 30
0.0
 11
231.4952967697
 21
347.8870686702
 31
0.0
  0
LINE
  5
106
330
D7
100
AcDbEntity
  8
$DDT_AUDIT_GENERATED_(103)
  6
Continuous
 62
     7
100
AcDbLine
 10
248.699571036
 20
353.1797945244
 30
0.0
 11
248.581954906
 21
353.5621117303
 31
0.0
  0
SPLINE
  5
107
330
D7
100
AcDbEntity
  8
$DDT_AUDIT_GENERATED_(AA)
  6
Continuous
 62
     7
100
AcDbSpline
210
0.0
220
0.0
230
1.0
 70
     8
 71
     3
 72
    10
 73
     6
 74
     0
 42
0.000000001108172
 43
0.0000000001
 40
0.4315822252771488
 40
0.4315822252771488
 40
0.4315822252771488
 40
0.4315822252771488
 40
0.4363786918301353
 40
0.5000553786525825
 40
0.5001170919339232
 40
0.5001170919339232
 40
0.5001170919339232
 40
0.5001170919339232
 10
129.1855515492656
 20
390.6285749089296
 30
0.0
 10
129.1601797978745
 20
390.641873715116
 30
0.0
 10
128.8103140650282
 20
390.8252543486648
 30
0.0
 10
128.6378785045405
 20
390.9155670431517
 30
0.0
 10
128.6380003668549
 20
390.9155044841163
 30
0.0
 10
128.6380006352925
 20
390.9155043447496
 30
0.0
  0
LINE
  5
108
330
D7
100
AcDbEntity
  8
$DDT_AUDIT_GENERATED_(AA)
  6
Continuous
 62
     7
100
AcDbLine
 10
153.5961521334
 20
377.4047929584
 30
0.0
 11
154.1120986808
 21
377.1670119519
 31
0.0
  0
LINE
  5
109
330
D7
100
AcDbEntity
  8
$DDT_AUDIT_GENERATED_(AA)
  6
Continuous
 62
     7
100
AcDbLine
 10
150.2616517217
 20
379.1777782771
 30
0.0
 11
153.5961521334
 21
377.4047929584
 31
0.0
  0
SPLINE
  5
10A
330
D7
100
AcDbEntity
  8
$DDT_AUDIT_GENERATED_(AA)
  6
Continuous
 62
     7
100
AcDbSpline
210
0.0
220
0.0
230
1.0
 70
     8
 71
     5
 72
    12
 73
     6
 74
     0
 42
0.0000000009474974
 43
0.0000000001
 40
0.0
 40
0.0
 40
0.0
 40
0.0
 40
0.0
 40
0.0
 40
1.0
 40
1.0
 40
1.0
 40
1.0
 40
1.0
 40
1.0
 10
174.8335186133976
 20
410.1723245224409
 30
0.0
 10
172.4538574590534
 20
409.8795094595764
 30
0.0
 10
170.5842461492893
 20
409.6496775739654
 30
0.0
 10
169.0647058869763
 20
408.4626225730954
 30
0.0
 10
169.3770480416113
 20
406.7849209454844
 30
0.0
 10
169.8597998395804
 20
404.1914097001618
 30
0.0
  0
LINE
  5
10B
330
D7
100
AcDbEntity
  8
$DDT_AUDIT_GENERATED_(AA)
  6
Continuous
 62
     7
100
AcDbLine
 10
150.2616552195
 20
379.1777764173
 30
0.0
 11
128.7916828692
 21
390.5935632135
 31
0.0
  0
LINE
  5
10C
330
D7
100
AcDbEntity
  8
$DDT_AUDIT_GENERATED_(AA)
  6
Continuous
 62
     7
100
AcDbLine
 10
174.5912638648
 20
376.8195309227
 30
0.0
 11
161.850839111
 21
376.8195309227
 31
0.0
  0
ARC
  5
10D
330
D7
100
AcDbEntity
  8
$DDT_AUDIT_GENERATED_(AA)
  6
Continuous
 62
     7
100
AcDbCircle
 10
162.2453843873
 20
847.1405788479
 30
0.0
 40
470.3212134142813
100
AcDbArc
 50
269.236532819
 51
269.9519354408
  0
SPLINE
  5
10E
330
D7
100
AcDbEntity
  8
$DDT_AUDIT_GENERATED_(AA)
  6
Continuous
 62
     7
100
AcDbSpline
210
0.0
220
0.0
230
1.0
 70
     8
 71
     3
 72
     8
 73
     4
 74
     0
 42
0.0000000774352648
 43
0.0000000001
 40
0.6485602454504871
 40
0.6485602454504871
 40
0.6485602454504871
 40
0.6485602454504871
 40
1.0
 40
1.0
 40
1.0
 40
1.0
 10
155.9510090256436
 20
376.8341026145882
 30
0.0
 10
155.9604997189513
 20
376.8314003110314
 30
0.0
 10
155.9702415766019
 20
376.8406530800773
 30
0.0
 10
155.9785321320066
 20
376.8611190048424
 30
0.0
  0
ARC
  5
10F
330
D7
100
AcDbEntity
  8
$DDT_AUDIT_GENERATED_(AA)
  6
Continuous
 62
     7
100
AcDbCircle
 10
203.8564244586
 20
397.0995951096
 30
0.0
 40
32.40065791155133
100
AcDbArc
 50
183.0666041959
 51
198.0115085057
  0
LINE
  5
110
330
D7
100
AcDbEntity
  8
$DDT_AUDIT_GENERATED_(AA)
  6
Continuous
 62
     7
100
AcDbLine
 10
132.2250510322
 20
409.4314673401
 30
0.0
 11
128.6379861127
 21
390.9154314059
 31
0.0
  0
ARC
  5
111
330
D7
100
AcDbEntity
  8
$DDT_AUDIT_GENERATED_(AA)
  6
Continuous
 62
     7
100
AcDbCircle
 10
174.5912638649
 20
377.1195309227
 30
0.0
 40
0.3000000000562772
100
AcDbArc
 50
269.9999999822
 51
10.5354679005
  0
ARC
  5
112
330
D7
100
AcDbEntity
  8
$DDT_AUDIT_GENERATED_(AA)
  6
Continuous
 62
     7
100
AcDbCircle
 10
225.3814510188
 20
414.6621545236
 30
0.0
 40
56.50025356261393
100
AcDbArc
 50
189.946625326
 51
190.6641623024
  0
LINE
  5
113
330
D7
100
AcDbEntity
  8
$DDT_AUDIT_GENERATED_(AA)
  6
Continuous
 62
     7
100
AcDbLine
 10
174.83396694
 20
410.1726707508
 30
0.0
 11
220.2799568267
 21
415.7583601536
 31
0.0
  0
LINE
  5
114
330
D7
100
AcDbEntity
  8
$DDT_AUDIT_GENERATED_(AA)
  6
Continuous
 62
     7
100
AcDbLine
 10
238.6902613619
 20
419.948344277
 30
0.0
 11
238.3885095436
 21
422.4345789643
 31
0.0
  0
ARC
  5
115
330
D7
100
AcDbEntity
  8
$DDT_AUDIT_GENERATED_(AA)
  6
Continuous
 62
     7
100
AcDbCircle
 10
205.7958242513
 20
533.7924416121
 30
0.0
 40
118.9194451883786
100
AcDbArc
 50
276.9958413266
 51
285.877080646
  0
ARC
  5
116
330
D7
100
AcDbEntity
  8
$DDT_AUDIT_GENERATED_(AA)
  6
Continuous
 62
     7
100
AcDbCircle
 10
238.2189054491
 20
419.8761592207
 30
0.0
 40
0.4724858189998929
100
AcDbArc
 50
296.3739592221
 51
8.7882304642
  0
ARC
  5
117
330
D7
100
AcDbEntity
  8
$DDT_AUDIT_GENERATED_(AA)
  6
Continuous
 62
     7
100
AcDbCircle
 10
400.6782452918
 20
-1337.408701037
 30
0.0
 40
1767.814989400128
100
AcDbArc
 50
95.2923085865
 51
98.7146800688
  0
SPLINE
  5
118
330
D7
100
AcDbEntity
  8
$DDT_AUDIT_GENERATED_(AA)
  6
Continuous
 62
     7
100
AcDbSpline
210
0.0
220
0.0
230
1.0
 70
     8
 71
     3
 72
    13
 73
     9
 74
     0
 42
0.0000000108319325
 43
0.0000000001
 40
0.0
 40
0.0
 40
0.0
 40
0.0
 40
0.2748632800192888
 40
0.3926682204574781
 40
0.4999909011648733
 40
0.6072914798974016
 40
0.725063219417252
 40
1.0
 40
1.0
 40
1.0
 40
1.0
 10
132.8134725344784
 20
409.9969758991185
 30
0.0
 10
132.7216398963559
 20
409.9842860536525
 30
0.0
 10
132.6122046961922
 20
409.9656903371462
 30
0.0
 10
132.4663570229406
 20
409.9118614560526
 30
0.0
 10
132.382482555789
 20
409.8527937266176
 30
0.0
 10
132.3205263512128
 20
409.7710769011919
 30
0.0
 10
132.2618241394162
 20
409.6272345748726
 30
0.0
 10
132.2397227969457
 20
409.5185592170366
 30
0.0
 10
132.2241016985307
 20
409.4272570641313
 30
0.0
  0
SPLINE
  5
119
330
D7
100
AcDbEntity
  8
$DDT_AUDIT_GENERATED_(AA)
  6
Continuous
 62
     7
100
AcDbSpline
210
0.0
220
0.0
230
1.0
 70
     8
 71
     3
 72
    13
 73
     9
 74
     0
 42
0.0000000116537648
 43
0.0000000001
 40
0.0
 40
0.0
 40
0.0
 40
0.0
 40
0.2667152657383027
 40
0.3869800437538896
 40
0.5000769033247504
 40
0.6131509100921387
 40
0.7333649410552741
 40
1.0
 40
1.0
 40
1.0
 40
1.0
 10
238.3886935061794
 20
422.4336149778655
 30
0.0
 10
238.3800873599579
 20
422.516247836695
 30
0.0
 10
238.3659657315446
 20
422.6172402380658
 30
0.0
 10
238.306913520278
 20
422.7491596638426
 30
0.0
 10
238.2413667906304
 20
422.8239023552266
 30
0.0
 10
238.1553110601573
 20
422.8736837584457
 30
0.0
 10
238.014401303395
 20
422.9059411340803
 30
0.0
 10
237.9125571827634
 20
422.9000780868652
 30
0.0
 10
237.8298074487071
 20
422.8923865114277
 30
0.0
  0
LINE
  5
11A
330
D7
100
AcDbEntity
  8
$DDT_AUDIT_GENERATED_(AA)
  6
Continuous
 62
     7
100
AcDbLine
 10
171.5014012405
 20
395.3661338357
 30
0.0
 11
169.8593639312
 21
404.1913631155
 31
0.0
  0
LINE
  5
11B
330
D7
100
AcDbEntity
  8
$DDT_AUDIT_GENERATED_(AA)
  6
Continuous
 62
     7
100
AcDbLine
 10
174.8861897504
 20
377.1743823489
 30
0.0
 11
173.035927645
 21
387.1187284461
 31
0.0
  0
ARC
  5
11C
330
D7
100
AcDbEntity
  8
$DDT_AUDIT_GENERATED_(AA)
  6
Continuous
 62
     7
100
AcDbCircle
 10
156.1759739839
 20
383.3153793321
 30
0.0
 40
6.463388047468188
100
AcDbArc
 50
251.4493633028
 51
268.0198147704
  0
LINE
  5
11E
330
D7
100
AcDbEntity
  8
$DDT_AUDIT_GENERATED_(11D)
  6
Continuous
 62
     7
100
AcDbLine
 10
124.5913141721
 20
321.5640947341
 30
0.0
 11
120.3081780568
 21
319.5668355626
 31
0.0
  0
ARC
  5
11F
330
D7
100
AcDbEntity
  8
$DDT_AUDIT_GENERATED_(11D)
  6
Continuous
 62
     7
100
AcDbCircle
 10
122.2720600721
 20
323.3900389701
 30
0.0
 40
1.367316569407234
100
AcDbArc
 50
25.01059726
 51
36.11722856
  0
ARC
  5
120
330
D7
100
AcDbEntity
  8
$DDT_AUDIT_GENERATED_(11D)
  6
Continuous
 62
     7
100
AcDbCircle
 10
120.40021143
 20
322.5171816055
 30
0.0
 40
1.367316576553085
100
AcDbArc
 50
193.8827714691
 51
204.9894027401
  0
SPLINE
  5
121
330
D7
100
AcDbEntity
  8
$DDT_AUDIT_GENERATED_(11D)
  6
Continuous
 62
     7
100
AcDbSpline
210
0.0
220
0.0
230
1.0
 70
     8
 71
     3
 72
    11
 73
     7
 74
     0
 42
0.0000003440380536
 43
0.0000000001
 40
0.0
 40
0.0
 40
0.0
 40
0.0
 40
0.5121488556905546
 40
0.5121488556905546
 40
0.5121488556905546
 40
1.0
 40
1.0
 40
1.0
 40
1.0
 10
119.0727748073158
 20
322.2161663806708
 30
0.0
 10
119.0706178640932
 20
322.2154286550101
 30
0.0
 10
119.0696414426718
 20
322.2123228883306
 30
0.0
 10
119.0697790751275
 20
322.2074465772079
 30
0.0
 10
119.0699108867433
 20
322.2027764981601
 30
0.0
 10
119.0710304662828
 20
322.1964239279196
 30
0.0
 10
119.0728359851343
 20
322.189112940596
 30
0.0
  0
SPLINE
  5
122
330
D7
100
AcDbEntity
  8
$DDT_AUDIT_GENERATED_(11D)
  6
Continuous
 62
     7
100
AcDbSpline
210
0.0
220
0.0
230
1.0
 70
     8
 71
     3
 72
    11
 73
     7
 74
     0
 42
0.0000003446648399
 43
0.0000000001
 40
0.0
 40
0.0
 40
0.0
 40
0.0
 40
0.5143622367452163
 40
0.5143622367452163
 40
0.5143622367452163
 40
1.0
 40
1.0
 40
1.0
 40
1.0
 10
123.3765957330003
 20
324.195989077007
 30
0.0
 10
123.3719212713868
 20
324.2023928288837
 30
0.0
 10
123.367568309931
 20
324.2075334570209
 30
0.0
 10
123.3639616460662
 20
324.2105975376072
 30
0.0
 10
123.360564831578
 20
324.2134833383691
 30
0.0
 10
123.3577641864396
 20
324.2145443183047
 30
0.0
 10
123.355910919937
 20
324.2134255579509
 30
0.0
  0
ARC
  5
123
330
D7
100
AcDbEntity
  8
$DDT_AUDIT_GENERATED_(11D)
  6
Continuous
 62
     7
100
AcDbCircle
 10
122.2743060207
 20
323.3913653117
 30
0.0
 40
1.364720489138029
100
AcDbArc
 50
36.1278258209
 51
59.911768136
  0
LINE
  5
124
330
D7
100
AcDbEntity
  8
$DDT_AUDIT_GENERATED_(11D)
  6
Continuous
 62
     7
100
AcDbLine
 10
119.8209959215
 20
323.7531704779
 30
0.0
 11
120.9584854797
 21
324.28359057
 31
0.0
  0
ARC
  5
125
330
D7
100
AcDbEntity
  8
$DDT_AUDIT_GENERATED_(11D)
  6
Continuous
 62
     7
100
AcDbCircle
 10
120.3977517255
 20
322.516313665
 30
0.0
 40
1.364720496291073
100
AcDbArc
 50
115.0
 51
193.8721742083
  0
ARC
  5
126
330
D7
100
AcDbEntity
  8
$DDT_AUDIT_GENERATED_(11D)
  6
Continuous
 62
     7
100
AcDbCircle
 10
125.7112167765
 20
302.8396071487
 30
0.0
 40
20.48218639323945
100
AcDbArc
 50
107.8024112409
 51
108.9115466436
  0
ARC
  5
127
330
D7
100
AcDbEntity
  8
$DDT_AUDIT_GENERATED_(11D)
  6
Continuous
 62
     7
100
AcDbCircle
 10
133.9321081084
 20
306.6730719482
 30
0.0
 40
20.4821862047441
100
AcDbArc
 50
121.0884533721
 51
122.1975887851
  0
LINE
  5
128
330
D7
100
AcDbEntity
  8
$DDT_AUDIT_GENERATED_(11D)
  6
Continuous
 62
     7
100
AcDbLine
 10
120.395665756
 20
322.012690364
 30
0.0
 11
121.3168566505
 21
320.0371901155
 31
0.0
  0
ARC
  5
129
330
D7
100
AcDbEntity
  8
$DDT_AUDIT_GENERATED_(11D)
  6
Continuous
 62
     7
100
AcDbCircle
 10
120.6380383283
 20
322.1257105506
 30
0.0
 40
0.2674285444752562
100
AcDbArc
 50
115.0
 51
205.0
  0
LINE
  5
12A
330
D7
100
AcDbEntity
  8
$DDT_AUDIT_GENERATED_(11D)
  6
Continuous
 62
     7
100
AcDbLine
 10
120.9584854797
 20
322.5702122622
 30
0.0
 11
120.5250181417
 21
322.368083123
 31
0.0
  0
LINE
  5
12B
330
D7
100
AcDbEntity
  8
$DDT_AUDIT_GENERATED_(11D)
  6
Continuous
 62
     7
100
AcDbLine
 10
123.5826261181
 20
321.0937357699
 30
0.0
 11
122.9584854797
 21
322.4322096884
 31
0.0
  0
LINE
  5
12C
330
D7
100
AcDbEntity
  8
$DDT_AUDIT_GENERATED_(11D)
  6
Continuous
 62
     7
100
AcDbLine
 10
124.477285843
 20
316.2436882473
 30
0.0
 11
123.8070960434
 21
316.0403873121
 31
0.0
  0
LINE
  5
12D
330
D7
100
AcDbEntity
  8
$DDT_AUDIT_GENERATED_(11D)
  6
Continuous
 62
     7
100
AcDbLine
 10
125.6235821982
 20
311.4406501021
 30
0.0
 11
125.0786860477
 21
311.2946456187
 31
0.0
  0
LINE
  5
12E
330
D7
100
AcDbEntity
  8
$DDT_AUDIT_GENERATED_(11D)
  6
Continuous
 62
     7
100
AcDbLine
 10
125.4777128579
 20
312.5100496032
 30
0.0
 11
124.8015647795
 21
312.3288762717
 31
0.0
  0
LINE
  5
12F
330
D7
100
AcDbEntity
  8
$DDT_AUDIT_GENERATED_(11D)
  6
Continuous
 62
     7
100
AcDbLine
 10
124.5901484232
 20
315.8224851685
 30
0.0
 11
123.9140003448
 21
315.641311837
 31
0.0
  0
ARC
  5
130
330
D7
100
AcDbEntity
  8
$DDT_AUDIT_GENERATED_(11D)
  6
Continuous
 62
     7
100
AcDbCircle
 10
123.452947617
 20
318.4141140813
 30
0.0
 40
2.400003866358583
100
AcDbArc
 50
205.0
 51
278.5729363266
  0
ARC
  5
131
330
D7
100
AcDbEntity
  8
$DDT_AUDIT_GENERATED_(11D)
  6
Continuous
 62
     7
100
AcDbCircle
 10
123.4529311486
 20
318.414106402
 30
0.0
 40
2.400003866358581
100
AcDbArc
 50
295.0002168979
 51
332.39745718
  0
LINE
  5
132
330
D7
100
AcDbEntity
  8
$DDT_AUDIT_GENERATED_(11D)
  6
Continuous
 62
     7
100
AcDbLine
 10
125.4840333306
 20
319.7372866647
 30
0.0
 11
123.5111628271
 21
323.9681211126
 31
0.0
  0
LINE
  5
133
330
D7
100
AcDbEntity
  8
$DDT_AUDIT_GENERATED_(11D)
  6
Continuous
 62
     7
100
AcDbLine
 10
119.1608949125
 20
321.9395578611
 30
0.0
 11
121.277805424
 21
317.3998286192
 31
0.0
  0
ARC
  5
134
330
D7
100
AcDbEntity
  8
$DDT_AUDIT_GENERATED_(11D)
  6
Continuous
 62
     7
100
AcDbCircle
 10
127.0252280072
 20
305.3823482835
 30
0.0
 40
1.750000000000001
100
AcDbArc
 50
145.8050174785
 51
212.8303346833
  0
ARC
  5
135
330
D7
100
AcDbEntity
  8
$DDT_AUDIT_GENERATED_(11D)
  6
Continuous
 62
     7
100
AcDbCircle
 10
125.8605423043
 20
309.7290145018
 30
0.0
 40
1.750000000000001
100
AcDbArc
 50
116.5369590324
 51
261.9115302787
  0
LINE
  5
136
330
D7
100
AcDbEntity
  8
$DDT_AUDIT_GENERATED_(11D)
  6
Continuous
 62
     7
100
AcDbLine
 10
124.8015647795
 20
312.3288762717
 30
0.0
 11
125.0786860477
 21
311.2946456187
 31
0.0
  0
LINE
  5
137
330
D7
100
AcDbEntity
  8
$DDT_AUDIT_GENERATED_(11D)
  6
Continuous
 62
     7
100
AcDbLine
 10
125.6163918701
 20
311.9924924835
 30
0.0
 11
125.4777128579
 21
312.5100496032
 31
0.0
  0
ARC
  5
138
330
D7
100
AcDbEntity
  8
$DDT_AUDIT_GENERATED_(11D)
  6
Continuous
 62
     7
100
AcDbCircle
 10
124.6958566013
 20
314.0756807201
 30
0.0
 40
1.749999999999999
100
AcDbArc
 50
296.5369590324
 51
302.0090752874
  0
ARC
  5
139
330
D7
100
AcDbEntity
  8
$DDT_AUDIT_GENERATED_(11D)
  6
Continuous
 62
     7
100
AcDbCircle
 10
124.6958566013
 20
314.0756807201
 30
0.0
 40
1.749999999999999
100
AcDbArc
 50
116.5369590324
 51
273.4630409676
  0
ARC
  5
13A
330
D7
100
AcDbEntity
  8
$DDT_AUDIT_GENERATED_(11D)
  6
Continuous
 62
     7
100
AcDbCircle
 10
124.6958566013
 20
314.0756807201
 30
0.0
 40
1.749999999999998
100
AcDbArc
 50
59.1910541073
 51
93.4630409676
  0
LINE
  5
13B
330
D7
100
AcDbEntity
  8
$DDT_AUDIT_GENERATED_(11D)
  6
Continuous
 62
     7
100
AcDbLine
 10
123.8070340598
 20
316.0405154472
 30
0.0
 11
123.9140003448
 21
315.641311837
 31
0.0
  0
LINE
  5
13C
330
D7
100
AcDbEntity
  8
$DDT_AUDIT_GENERATED_(11D)
  6
Continuous
 62
     7
100
AcDbLine
 10
124.5901484232
 20
315.8224851685
 30
0.0
 11
124.477288713
 21
316.2436833408
 31
0.0
  0
ARC
  5
13D
330
D7
100
AcDbEntity
  8
$DDT_AUDIT_GENERATED_(D2)
  6
Continuous
 62
     7
100
AcDbCircle
 10
150.4584854797
 20
368.0022165999
 30
0.0
 40
24.5
100
AcDbArc
 50
15.1427314405
 51
21.1345775636
  0
ARC
  5
13E
330
D7
100
AcDbEntity
  8
$DDT_AUDIT_GENERATED_(D2)
  6
Continuous
 62
     7
100
AcDbCircle
 10
150.4584854797
 20
368.0022165999
 30
0.0
 40
24.5
100
AcDbArc
 50
128.4855267209
 51
164.8572685595
  0
ARC
  5
140
330
D7
100
AcDbEntity
  8
$DDT_AUDIT_GENERATED_(13F)
  6
Continuous
 62
     7
100
AcDbCircle
 10
121.9584854797
 20
321.7021389253
 30
0.0
 40
0.9999999999995499
100
AcDbArc
 50
180.0
 51
0.0
  0
LINE
  5
141
330
D7
100
AcDbEntity
  8
$DDT_AUDIT_GENERATED_(13F)
  6
Continuous
 62
     7
100
AcDbLine
 10
122.9584854797
 20
321.7021389253
 30
0.0
 11
122.9584854797
 21
323.4883611903
 31
0.0
  0
LINE
  5
142
330
D7
100
AcDbEntity
  8
$DDT_AUDIT_GENERATED_(13F)
  6
Continuous
 62
     7
100
AcDbLine
 10
120.9584854797
 20
323.4883611903
 30
0.0
 11
120.9584854797
 21
321.7021389253
 31
0.0
  0
LINE
  5
143
330
D7
100
AcDbEntity
  8
$DDT_AUDIT_GENERATED_(13F)
  6
Continuous
 62
     7
100
AcDbLine
 10
120.9584854797
 20
334.2079994636
 30
0.0
 11
120.9584854797
 21
323.4883611903
 31
0.0
  0
LINE
  5
144
330
D7
100
AcDbEntity
  8
$DDT_AUDIT_GENERATED_(13F)
  6
Continuous
 62
     7
100
AcDbLine
 10
122.9584854797
 20
323.4883611903
 30
0.0
 11
122.9584854797
 21
334.2079994636
 31
0.0
  0
ARC
  5
145
330
D7
100
AcDbEntity
  8
$DDT_AUDIT_GENERATED_(13F)
  6
Continuous
 62
     7
100
AcDbCircle
 10
121.9584854797
 20
336.6355724775
 30
0.0
 40
1.000000000000001
100
AcDbArc
 50
0.0
 51
180.0
  0
LINE
  5
146
330
D7
100
AcDbEntity
  8
$DDT_AUDIT_GENERATED_(13F)
  6
Continuous
 62
     7
100
AcDbLine
 10
122.9584854797
 20
334.2079994636
 30
0.0
 11
122.9584854797
 21
336.6355724775
 31
0.0
  0
LINE
  5
147
330
D7
100
AcDbEntity
  8
$DDT_AUDIT_GENERATED_(13F)
  6
Continuous
 62
     7
100
AcDbLine
 10
120.9584854797
 20
336.6355724775
 30
0.0
 11
120.9584854797
 21
334.2079994636
 31
0.0
  0
ENDBLK
  5
149
330
D7
100
AcDbEntity
  8
0
100
AcDbBlockEnd
  0
BLOCK
  5
199
330
14A
100
AcDbEntity
  8
0
100
AcDbBlockBegin
  2
SE2
 70
     0
 10
0.0
 20
0.0
 30
0.0
  3
SE2
  1

  0
SPLINE
  5
14C
330
14A
100
AcDbEntity
  8
$DDT_AUDIT_GENERATED_(60)
  6
Continuous
 62
     7
100
AcDbSpline
210
0.0
220
0.0
230
1.0
 70
    12
 71
     6
 72
    22
 73
    15
 74
     0
 42
0.000000000123742
 43
0.0000000001
 40
0.0
 40
0.0
 40
0.0
 40
0.0
 40
0.0
 40
0.0
 40
0.0
 40
0.2783843883585438
 40
0.4999998048736058
 40
0.4999998048736058
 40
0.4999998048736058
 40
0.4999998048736058
 40
0.4999998048736058
 40
0.7216152213886684
 40
0.9432306379037287
 40
1.0
 40
1.0
 40
1.0
 40
1.0
 40
1.0
 40
1.0
 40
1.0
 10
6.3691084386364
 20
209.786327539424
 30
0.0
 41
1.0
 10
6.369579335817853
 20
212.9708579872533
 30
0.0
 41
1.0
 10
7.245002184214859
 20
218.7958340197802
 30
0.0
 41
1.0
 10
9.796670985598263
 20
224.546516421496
 30
0.0
 41
1.0
 10
14.13928088089641
 20
229.6666899553707
 30
0.0
 41
1.0
 10
20.32908242353913
 20
233.4195850591224
 30
0.0
 41
1.0
 10
27.814469087875
 20
234.786327521035
 30
0.0
 41
1.0
 10
34.915254590218
 20
234.786327521035
 30
0.0
 41
1.0
 10
41.550765513315
 20
233.5747622483559
 30
0.0
 41
1.0
 10
47.88767012994061
 20
230.0927833969058
 30
0.0
 41
1.0
 10
52.44000860858185
 20
225.1278428723962
 30
0.0
 41
1.0
 10
55.19501660303527
 20
219.4487416315677
 30
0.0
 41
1.0
 10
56.26075392068242
 20
213.6321958867299
 30
0.0
 41
1.0
 10
56.36079747348931
 20
210.4357254551933
 30
0.0
 41
1.0
 10
56.3609350924469
 20
209.7863276457998
 30
0.0
 41
1.0
  0
LINE
  5
14D
330
14A
100
AcDbEntity
  8
$DDT_AUDIT_GENERATED_(60)
  6
Continuous
 62
     7
100
AcDbLine
 10
56.3609094115
 20
209.7863277706
 30
0.0
 11
56.3609610755
 21
208.7863275232
 31
0.0
  0
LINE
  5
14E
330
14A
100
AcDbEntity
  8
$DDT_AUDIT_GENERATED_(60)
  6
Continuous
 62
     7
100
AcDbLine
 10
6.3687626026
 20
208.7863275233
 30
0.0
 11
6.3688147676
 21
209.7863277728
 31
0.0
  0
SPLINE
  5
14F
330
14A
100
AcDbEntity
  8
$DDT_AUDIT_GENERATED_(60)
  6
Continuous
 62
     7
100
AcDbSpline
210
0.0
220
0.0
230
1.0
 70
    12
 71
     5
 72
    12
 73
     6
 74
     0
 42
0.0000000012796184
 43
0.0000000001
 40
0.0
 40
0.0
 40
0.0
 40
0.0
 40
0.0
 40
0.0
 40
1.0
 40
1.0
 40
1.0
 40
1.0
 40
1.0
 40
1.0
 10
56.3609608488877
 20
208.7863275215657
 30
0.0
 41
1.0
 10
56.364685525078
 20
208.263792053205
 30
0.0
 41
1.0
 10
56.37972367632
 20
207.14499941145
 30
0.0
 41
1.0
 10
56.234529181319
 20
205.476080492615
 30
0.0
 41
1.0
 10
55.789954888953
 20
203.4218626764839
 30
0.0
 41
1.0
 10
54.968342016999
 20
201.1707218983209
 30
0.0
 41
1.0
  0
SPLINE
  5
150
330
14A
100
AcDbEntity
  8
$DDT_AUDIT_GENERATED_(60)
  6
Continuous
 62
     7
100
AcDbSpline
210
0.0
220
0.0
230
1.0
 70
     8
 71
     3
 72
    21
 73
    17
 74
     0
 42
0.0000000001306885
 43
0.0000000001
 40
0.0
 40
0.0
 40
0.0
 40
0.0
 40
0.0155123164677468
 40
0.0311186643508069
 40
0.0389459155504578
 40
0.0467754452832249
 40
0.0623952313277663
 40
0.0779163429980249
 40
0.0933471283137812
 40
0.124133252518368
 40
0.1861753650833538
 40
0.2487867832839529
 40
0.3740016632837573
 40
0.4991985490142564
 40
0.749597033411441
 40
1.0
 40
1.0
 40
1.0
 40
1.0
 10
8.23107616158995
 20
201.3421484896148
 30
0.0
 10
8.372143361991213
 20
200.9725044718114
 30
0.0
 10
8.655132873540119
 20
200.2309757553727
 30
0.0
 10
9.063001789568332
 20
199.3250206343612
 30
0.0
 10
9.39819692824954
 20
198.6017440320604
 30
0.0
 10
9.735180525758064
 20
197.8788739145779
 30
0.0
 10
10.14572515808564
 20
196.973746386389
 30
0.0
 10
10.58824960743187
 20
195.8710513648838
 30
0.0
 10
11.085722192082
 20
194.3762904159415
 30
0.0
 10
11.71111511153171
 20
191.6816279783506
 30
0.0
 10
12.13765842554201
 20
187.7327425763614
 30
0.0
 10
12.48463488780941
 20
181.3712316627254
 30
0.0
 10
12.64499663261545
 20
173.3886128105171
 30
0.0
 10
12.75446793532958
 20
160.6189041844796
 30
0.0
 10
12.77362782706629
 20
144.6554169314874
 30
0.0
 10
12.77401006783721
 20
131.8849485812732
 30
0.0
 10
12.7742011899332
 20
125.4996572580854
 30
0.0
  0
SPLINE
  5
151
330
14A
100
AcDbEntity
  8
$DDT_AUDIT_GENERATED_(60)
  6
Continuous
 62
     7
100
AcDbSpline
210
0.0
220
0.0
230
1.0
 70
    12
 71
     5
 72
    12
 73
     6
 74
     0
 42
0.0000000012796183
 43
0.0000000001
 40
0.0
 40
0.0
 40
0.0
 40
0.0
 40
0.0
 40
0.0
 40
1.0
 40
1.0
 40
1.0
 40
1.0
 40
1.0
 40
1.0
 10
7.761381903045747
 20
201.1707212353914
 30
0.0
 41
1.0
 10
6.939768893876
 20
203.421862192534
 30
0.0
 41
1.0
 10
6.4951945224275
 20
205.4760801977309
 30
0.0
 41
1.0
 10
6.350000000000001
 20
207.1449992796619
 30
0.0
 41
1.0
 10
6.365038152794003
 20
208.263792022429
 30
0.0
 41
1.0
 10
6.368762829204601
 20
208.7863275216134
 30
0.0
 41
1.0
  0
SPLINE
  5
152
330
14A
100
AcDbEntity
  8
$DDT_AUDIT_GENERATED_(60)
  6
Continuous
 62
     7
100
AcDbSpline
210
0.0
220
0.0
230
1.0
 70
    12
 71
     3
 72
    21
 73
    17
 74
     0
 42
0.0000000001309949
 43
0.0000000001
 40
0.0
 40
0.0
 40
0.0
 40
0.0
 40
0.2499999999999997
 40
0.5000000000000007
 40
0.6249999999999998
 40
0.6875000000000001
 40
0.7500000000000003
 40
0.8125000000000007
 40
0.84375
 40
0.8749999999999994
 40
0.8749999999999994
 40
0.9062500000000003
 40
0.9374999999999998
 40
0.9374999999999998
 40
0.9687500000000006
 40
1.0
 40
1.0
 40
1.0
 40
1.0
 10
50.455522488158
 20
125.4996572580849
 30
0.0
 41
1.0
 10
50.4555224881578
 20
131.8736123413931
 30
0.0
 41
1.0
 10
50.4544043270354
 20
144.6214457625356
 30
0.0
 41
1.0
 10
50.4766045639935
 20
160.5550716502439
 30
0.0
 41
1.0
 10
50.5679179952661
 20
171.7049519789205
 30
0.0
 41
1.0
 10
50.68278523502639
 20
178.0716792626029
 30
0.0
 41
1.0
 10
50.8267738649798
 20
182.8424192975438
 30
0.0
 41
1.0
 10
51.0388780286325
 20
186.8063050849013
 30
0.0
 41
1.0
 10
51.338391496356
 20
189.9526240866645
 30
0.0
 41
1.0
 10
51.5633441993335
 20
191.5124147698413
 30
0.0
 41
1.0
 10
51.85008902114161
 20
193.0536404978552
 30
0.0
 41
1.0
 10
52.19908601384859
 20
194.5691017242381
 30
0.0
 41
1.0
 10
52.732339118225
 20
196.0239261175665
 30
0.0
 41
1.0
 10
53.3479870558355
 20
197.4689551673579
 30
0.0
 41
1.0
 10
54.0373445036333
 20
198.9026219288203
 30
0.0
 41
1.0
 10
54.6877342486892
 20
200.4018834204014
 30
0.0
 41
1.0
 10
54.968342016999
 20
201.1707218983209
 30
0.0
 41
1.0
  0
SPLINE
  5
153
330
14A
100
AcDbEntity
  8
$DDT_AUDIT_GENERATED_(60)
  6
Continuous
 62
     7
100
AcDbSpline
210
0.0
220
0.0
230
1.0
 70
    12
 71
     3
 72
    44
 73
    40
 74
     0
 42
0.0000000001659061
 43
0.0000000001
 40
0.0
 40
0.0
 40
0.0
 40
0.0
 40
0.0312499999999999
 40
0.0312499999999999
 40
0.0625
 40
0.09375
 40
0.09375
 40
0.1250000000000001
 40
0.1250000000000001
 40
0.1875000000000007
 40
0.2187499999999994
 40
0.2187499999999994
 40
0.2499999999999999
 40
0.2499999999999999
 40
0.3125000000000008
 40
0.3437499999999995
 40
0.3437499999999995
 40
0.4062500000000003
 40
0.4375000000000008
 40
0.4375000000000008
 40
0.4999999999999999
 40
0.5312500000000003
 40
0.5625000000000009
 40
0.5625000000000009
 40
0.6406250000000001
 40
0.6562500000000004
 40
0.6562500000000004
 40
0.6874999999999991
 40
0.75
 40
0.7656250000000001
 40
0.7812500000000004
 40
0.8125000000000009
 40
0.8593749999999998
 40
0.875
 40
0.875
 40
0.9374999999999991
 40
0.9687499999999996
 40
0.9687499999999996
 40
1.0
 40
1.0
 40
1.0
 40
1.0
 10
12.27420118993315
 20
125.4996572580853
 30
0.0
 41
1.0
 10
12.2742011899331
 20
124.8855851222464
 30
0.0
 41
1.0
 10
12.2797791978742
 20
124.258540223636
 30
0.0
 41
1.0
 10
12.3618817824158
 20
123.0116225676606
 30
0.0
 41
1.0
 10
12.5085801724724
 20
121.7703031890466
 30
0.0
 41
1.0
 10
12.7951199812863
 20
120.5519777607817
 30
0.0
 41
1.0
 10
13.149442470255
 20
119.3450005309221
 30
0.0
 41
1.0
 10
13.3623798754309
 20
118.7438104372499
 30
0.0
 41
1.0
 10
14.0862752361707
 20
116.997996119741
 30
0.0
 41
1.0
 10
14.9796425714243
 20
115.3528408719832
 30
0.0
 41
1.0
 10
16.1092569187653
 20
113.845730060868
 30
0.0
 41
1.0
 10
16.9172985010951
 20
112.8729160176696
 30
0.0
 41
1.0
 10
17.343081509164
 20
112.409122389467
 30
0.0
 41
1.0
 10
18.6784083057398
 20
111.0891530907847
 30
0.0
 41
1.0
 10
20.132325699735
 20
109.9069871954974
 30
0.0
 41
1.0
 10
21.76898286677706
 20
108.9359670534369
 30
0.0
 41
1.0
 10
23.43381055867785
 20
108.0571202891529
 30
0.0
 41
1.0
 10
25.16683526681529
 20
107.3504013177849
 30
0.0
 41
1.0
 10
27.00167515889064
 20
106.8940347335639
 30
0.0
 41
1.0
 10
28.85905467403541
 20
106.5296629430689
 30
0.0
 41
1.0
 10
30.72421674947443
 20
106.3499999999999
 30
0.0
 41
1.0
 10
33.22643026480703
 20
106.4674145023619
 30
0.0
 41
1.0
 10
34.48191045956146
 20
106.6499789529429
 30
0.0
 41
1.0
 10
36.63452111862009
 20
107.0708618729959
 30
0.0
 41
1.0
 10
38.41425596040771
 20
107.6485821203249
 30
0.0
 41
1.0
 10
40.11543723580889
 20
108.4899836102059
 30
0.0
 41
1.0
 10
40.95229358681932
 20
108.9310339236619
 30
0.0
 41
1.0
 10
42.5704254383504
 20
109.8889076773639
 30
0.0
 41
1.0
 10
44.26945781859789
 20
111.2633840264646
 30
0.0
 41
1.0
 10
45.58878739514901
 20
112.6290637295949
 30
0.0
 41
1.0
 10
46.4158644420741
 20
113.5749183621527
 30
0.0
 41
1.0
 10
47.5425803727527
 20
115.0715675019947
 30
0.0
 41
1.0
 10
48.4804910785301
 20
116.6978558705121
 30
0.0
 41
1.0
 10
48.999137409398
 20
117.8565216760164
 30
0.0
 41
1.0
 10
49.6044881073443
 20
119.3129639615787
 30
0.0
 41
1.0
 10
50.1385536833269
 20
121.110856288976
 30
0.0
 41
1.0
 10
50.3655744504604
 20
122.9863907741868
 30
0.0
 41
1.0
 10
50.4498951128197
 20
124.248836970403
 30
0.0
 41
1.0
 10
50.455522488158
 20
124.8830513613811
 30
0.0
 41
1.0
 10
50.455522488158
 20
125.4996572580849
 30
0.0
 41
1.0
  0
SPLINE
  5
154
330
14A
100
AcDbEntity
  8
$DDT_AUDIT_GENERATED_(60)
  6
Continuous
 62
     7
100
AcDbSpline
210
0.0
220
0.0
230
1.0
 70
    12
 71
     3
 72
    19
 73
    15
 74
     0
 42
0.0000000001309887
 43
0.0000000001
 40
0.0
 40
0.0
 40
0.0
 40
0.0
 40
0.0312500000000036
 40
0.0625000000000073
 40
0.0937500000000109
 40
0.1250000000000019
 40
0.1562500000000055
 40
0.1875000000000092
 40
0.2500000000000034
 40
0.3125000000000107
 40
0.3750000000000048
 40
0.5000000000000068
 40
0.7500000000000101
 40
1.0
 40
1.0
 40
1.0
 40
1.0
 10
7.761381903045747
 20
201.1707212353914
 30
0.0
 41
1.0
 10
8.0433424080988
 20
200.3861388977976
 30
0.0
 41
1.0
 10
8.709560316122001
 20
198.8655339029714
 30
0.0
 41
1.0
 10
9.765413351580703
 20
196.6744221645332
 30
0.0
 41
1.0
 10
10.5558215396994
 20
194.4820678942816
 30
0.0
 41
1.0
 10
11.0659594257369
 20
192.2209425420345
 30
0.0
 41
1.0
 10
11.3963892230416
 20
189.9046870931568
 30
0.0
 41
1.0
 10
11.6929140934812
 20
186.7730806575669
 30
0.0
 41
1.0
 10
11.9042591419315
 20
182.8085892533846
 30
0.0
 41
1.0
 10
12.0476525111152
 20
178.0400803301771
 30
0.0
 41
1.0
 10
12.1621106049106
 20
171.6765905934063
 30
0.0
 41
1.0
 10
12.2531551542067
 20
160.5337789880394
 30
0.0
 41
1.0
 10
12.2753161599936
 20
144.6099201347091
 30
0.0
 41
1.0
 10
12.2742011899336
 20
131.8697664337679
 30
0.0
 41
1.0
 10
12.27420118993315
 20
125.4996572580853
 30
0.0
 41
1.0
  0
LINE
  5
155
330
14A
100
AcDbEntity
  8
$DDT_AUDIT_GENERATED_(60)
  6
Continuous
 62
     7
100
AcDbLine
 10
8.2310761616
 20
201.3421484896
 30
0.0
 11
7.761381903
 21
201.1707212354
 31
0.0
  0
LINE
  5
157
330
14A
100
AcDbEntity
  8
$DDT_AUDIT_GENERATED_(156)
  6
Continuous
 62
     7
100
AcDbLine
 10
6.364861839
 20
207.286327521
 30
0.0
 11
6.364861839
 21
220.786327521
 31
0.0
  0
LINE
  5
158
330
14A
100
AcDbEntity
  8
$DDT_AUDIT_GENERATED_(156)
  6
Continuous
 62
     7
100
AcDbLine
 10
6.364861839
 20
220.786327521
 30
0.0
 11
8.9368503593
 21
220.786327521
 31
0.0
  0
LINE
  5
159
330
14A
100
AcDbEntity
  8
$DDT_AUDIT_GENERATED_(156)
  6
Continuous
 62
     7
100
AcDbLine
 10
56.364861839
 20
220.786327521
 30
0.0
 11
56.364861839
 21
207.286327521
 31
0.0
  0
ARC
  5
15A
330
14A
100
AcDbEntity
  8
$DDT_AUDIT_GENERATED_(156)
  6
Continuous
 62
     7
100
AcDbCircle
 10
31.364861839
 20
207.286327521
 30
0.0
 40
25.0
100
AcDbArc
 50
325.147298072
 51
0.0
  0
ARC
  5
15B
330
14A
100
AcDbEntity
  8
$DDT_AUDIT_GENERATED_(156)
  6
Continuous
 62
     7
100
AcDbCircle
 10
31.364861839
 20
207.286327521
 30
0.0
 40
25.0
100
AcDbArc
 50
180.0
 51
214.8940610724
  0
LINE
  5
15C
330
14A
100
AcDbEntity
  8
$DDT_AUDIT_GENERATED_(156)
  6
Continuous
 62
     7
100
AcDbLine
 10
53.7928777226
 20
220.786327521
 30
0.0
 11
56.364861839
 21
220.786327521
 31
0.0
  0
LINE
  5
15D
330
14A
100
AcDbEntity
  8
$DDT_AUDIT_GENERATED_(AA)
  6
Continuous
 62
     7
100
AcDbLine
 10
55.2010994692
 20
204.2323652904
 30
0.0
 11
55.1963833569
 21
204.2334788162
 31
0.0
  0
ARC
  5
15E
330
14A
100
AcDbEntity
  8
$DDT_AUDIT_GENERATED_(AA)
  6
Continuous
 62
     7
100
AcDbCircle
 10
9.4866220391
 20
196.3434341867
 30
0.0
 40
8.127921338437465
100
AcDbArc
 50
103.9043582776
 51
103.9279607019
  0
ARC
  5
15F
330
14A
100
AcDbEntity
  8
$DDT_AUDIT_GENERATED_(AA)
  6
Continuous
 62
     7
100
AcDbCircle
 10
31.7324897277
 20
207.4962650595
 30
0.0
 40
23.80854776265057
100
AcDbArc
 50
357.6214769456
 51
5.7558913123
  0
ARC
  5
160
330
14A
100
AcDbEntity
  8
$DDT_AUDIT_GENERATED_(AA)
  6
Continuous
 62
     7
100
AcDbCircle
 10
43.3751674245
 20
207.060556948
 30
0.0
 40
12.15791250807157
100
AcDbArc
 50
346.5502125265
 51
357.3959695923
  0
ARC
  5
161
330
14A
100
AcDbEntity
  8
$DDT_AUDIT_GENERATED_(AA)
  6
Continuous
 62
     7
100
AcDbCircle
 10
31.3648920552
 20
209.8392787203
 30
0.0
 40
24.48527628854219
100
AcDbArc
 50
193.2368764941
 51
220.4368633335
  0
ARC
  5
162
330
14A
100
AcDbEntity
  8
$DDT_AUDIT_GENERATED_(AA)
  6
Continuous
 62
     7
100
AcDbCircle
 10
31.3648920552
 20
209.8392787203
 30
0.0
 40
24.48527628854219
100
AcDbArc
 50
319.5272906122
 51
346.763140871
  0
ARC
  5
163
330
14A
100
AcDbEntity
  8
$DDT_AUDIT_GENERATED_(AA)
  6
Continuous
 62
     7
100
AcDbCircle
 10
19.380256423
 20
207.0644300459
 30
0.0
 40
12.18375013328361
100
AcDbArc
 50
182.6167578601
 51
193.4394918418
  0
ARC
  5
164
330
14A
100
AcDbEntity
  8
$DDT_AUDIT_GENERATED_(AA)
  6
Continuous
 62
     7
100
AcDbCircle
 10
30.9971334656
 20
207.4963556101
 30
0.0
 40
23.80843881416667
100
AcDbArc
 50
174.2443008512
 51
182.3787625289
  0
ARC
  5
165
330
14A
100
AcDbEntity
  8
$DDT_AUDIT_GENERATED_(AA)
  6
Continuous
 62
     7
100
AcDbCircle
 10
31.3648617733
 20
207.4306668718
 30
0.0
 40
24.18091788817462
100
AcDbArc
 50
5.8231773007
 51
174.1768224375
  0
ARC
  5
166
330
14A
100
AcDbEntity
  8
$DDT_AUDIT_GENERATED_(AA)
  6
Continuous
 62
     7
100
AcDbCircle
 10
2405.7266319535
 20
184.816969993
 30
0.0
 40
2355.754389453866
100
AcDbArc
 50
179.419426518
 51
179.8433088586
  0
SPLINE
  5
167
330
14A
100
AcDbEntity
  8
$DDT_AUDIT_GENERATED_(AA)
  6
Continuous
 62
     7
100
AcDbSpline
210
0.0
220
0.0
230
1.0
 70
     8
 71
     3
 72
     8
 73
     4
 74
     0
 42
0.0000000001951788
 43
0.0000000001
 40
0.0
 40
0.0
 40
0.0
 40
0.0
 40
1.0
 40
1.0
 40
1.0
 40
1.0
 10
49.91262045015253
 20
140.0246049011025
 30
0.0
 10
49.91555734803558
 20
144.0793291699699
 30
0.0
 10
49.93950044454841
 20
161.1576721228042
 30
0.0
 10
49.98444973969099
 20
191.2596337596055
 30
0.0
  0
LINE
  5
168
330
14A
100
AcDbEntity
  8
$DDT_AUDIT_GENERATED_(AA)
  6
Continuous
 62
     7
100
AcDbLine
 10
49.9117938717
 20
139.9440715745
 30
0.0
 11
49.9119498121
 21
140.0249162113
 31
0.0
  0
ARC
  5
169
330
14A
100
AcDbEntity
  8
$DDT_AUDIT_GENERATED_(AA)
  6
Continuous
 62
     7
100
AcDbCircle
 10
31.3665912246
 20
140.1102962923
 30
0.0
 40
18.5473858844815
100
AcDbArc
 50
180.5147205069
 51
359.4846255862
  0
LINE
  5
16A
330
14A
100
AcDbEntity
  8
$DDT_AUDIT_GENERATED_(AA)
  6
Continuous
 62
     7
100
AcDbLine
 10
12.8189812239
 20
140.0237713989
 30
0.0
 11
12.8190795717
 21
139.9439927137
 31
0.0
  0
SPLINE
  5
16B
330
14A
100
AcDbEntity
  8
$DDT_AUDIT_GENERATED_(AA)
  6
Continuous
 62
     7
100
AcDbSpline
210
0.0
220
0.0
230
1.0
 70
     8
 71
     3
 72
     8
 73
     4
 74
     0
 42
0.0000000001951815
 43
0.0000000001
 40
0.0
 40
0.0
 40
0.0
 40
0.0
 40
1.0
 40
1.0
 40
1.0
 40
1.0
 10
12.75006645748979
 20
191.2580304647844
 30
0.0
 10
12.75380244555229
 20
189.6751236373757
 30
0.0
 10
12.77594209322342
 20
172.5970191390897
 30
0.0
 10
12.81648540050316
 20
140.0237169699263
 30
0.0
  0
ARC
  5
16C
330
14A
100
AcDbEntity
  8
$DDT_AUDIT_GENERATED_(AA)
  6
Continuous
 62
     7
100
AcDbCircle
 10
-2307.6756016545
 20
184.9912022421
 30
0.0
 40
2320.433330808538
100
AcDbArc
 50
0.1547221523
 51
0.5853006027
  0
ELLIPSE
  5
16D
330
14A
100
AcDbEntity
  8
$DDT_AUDIT_GENERATED_(11D)
  6
Continuous
 62
     7
100
AcDbEllipse
 10
31.364861839
 20
237.7950668863
 30
0.0
 11
-2.399994780943932
 21
-4.857225732735060E-14
 31
0.0
210
0.0
220
0.0
230
1.0
 40
0.906307787
 41
3.897013155265357
 42
4.394564561062069
  0
ELLIPSE
  5
16E
330
14A
100
AcDbEntity
  8
$DDT_AUDIT_GENERATED_(11D)
  6
Continuous
 62
     7
100
AcDbEllipse
 10
31.364861839
 20
237.7950668863
 30
0.0
 11
-2.399994780943932
 21
-4.857225732735060E-14
 31
0.0
210
0.0
220
0.0
230
1.0
 40
0.906307787
 41
1.746702558784779
 42
2.905517193327161
  0
ELLIPSE
  5
16F
330
14A
100
AcDbEntity
  8
$DDT_AUDIT_GENERATED_(11D)
  6
Continuous
 62
     7
100
AcDbEllipse
 10
31.364861839
 20
237.7950668863
 30
0.0
 11
2.399994780943932
 21
-1.387778780781446E-14
 31
0.0
210
0.0
220
0.0
230
1.0
 40
0.906307787
 41
3.377668113852413
 42
4.536482748394794
  0
ELLIPSE
  5
170
330
14A
100
AcDbEntity
  8
$DDT_AUDIT_GENERATED_(11D)
  6
Continuous
 62
     7
100
AcDbEllipse
 10
31.364861839
 20
237.7950668863
 30
0.0
 11
2.399994780943932
 21
-1.387778780781446E-14
 31
0.0
210
0.0
220
0.0
230
1.0
 40
0.906307787
 41
1.888620746117504
 42
2.38617215191422
  0
ARC
  5
171
330
14A
100
AcDbEntity
  8
$DDT_AUDIT_GENERATED_(11D)
  6
Continuous
 62
     7
100
AcDbCircle
 10
32.3659424413
 20
239.8598406058
 30
0.0
 40
3.282564392475519
100
AcDbArc
 50
245.6950546154
 51
252.243697047
  0
ARC
  5
172
330
14A
100
AcDbEntity
  8
$DDT_AUDIT_GENERATED_(11D)
  6
Continuous
 62
     7
100
AcDbCircle
 10
30.9033137699
 20
236.619511047
 30
0.0
 40
0.2725761471050493
100
AcDbArc
 50
65.8431271032
 51
81.2324155165
  0
LINE
  5
173
330
14A
100
AcDbEntity
  8
$DDT_AUDIT_GENERATED_(11D)
  6
Continuous
 62
     7
100
AcDbLine
 10
30.614861839
 20
240.2547697745
 30
0.0
 11
30.614861839
 21
240.8117817716
 31
0.0
  0
LINE
  5
174
330
14A
100
AcDbEntity
  8
$DDT_AUDIT_GENERATED_(11D)
  6
Continuous
 62
     7
100
AcDbLine
 10
30.614861839
 20
239.286327521
 30
0.0
 11
30.614861839
 21
240.2547697745
 31
0.0
  0
LINE
  5
175
330
14A
100
AcDbEntity
  8
$DDT_AUDIT_GENERATED_(11D)
  6
Continuous
 62
     7
100
AcDbLine
 10
30.614861839
 20
237.2264466044
 30
0.0
 11
30.614861839
 21
237.286327521
 31
0.0
  0
LINE
  5
176
330
14A
100
AcDbEntity
  8
$DDT_AUDIT_GENERATED_(11D)
  6
Continuous
 62
     7
100
AcDbLine
 10
30.614861839
 20
236.0104276145
 30
0.0
 11
30.614861839
 21
237.2264466044
 31
0.0
  0
ELLIPSE
  5
177
330
14A
100
AcDbEntity
  8
$DDT_AUDIT_GENERATED_(11D)
  6
Continuous
 62
     7
100
AcDbEllipse
 10
31.014861839
 20
236.0104276145
 30
0.0
 11
0.4000000000000015
 21
1.387778780781446E-14
 31
0.0
210
0.0
220
0.0
230
1.0
 40
0.906307787
 41
3.141592653589833
 42
4.536482748394763
  0
ARC
  5
178
330
14A
100
AcDbEntity
  8
$DDT_AUDIT_GENERATED_(11D)
  6
Continuous
 62
     7
100
AcDbCircle
 10
30.9772132185
 20
237.2506146653
 30
0.0
 40
0.3631564640339904
100
AcDbArc
 50
183.8158540657
 51
264.8890666567
  0
LINE
  5
179
330
14A
100
AcDbEntity
  8
$DDT_AUDIT_GENERATED_(11D)
  6
Continuous
 62
     7
100
AcDbLine
 10
32.114861839
 20
240.8117817716
 30
0.0
 11
32.114861839
 21
240.2547697745
 31
0.0
  0
LINE
  5
17A
330
14A
100
AcDbEntity
  8
$DDT_AUDIT_GENERATED_(11D)
  6
Continuous
 62
     7
100
AcDbLine
 10
32.114861839
 20
240.2547697745
 30
0.0
 11
32.114861839
 21
239.286327521
 31
0.0
  0
LINE
  5
17B
330
14A
100
AcDbEntity
  8
$DDT_AUDIT_GENERATED_(11D)
  6
Continuous
 62
     7
100
AcDbLine
 10
32.114861839
 20
237.286327521
 30
0.0
 11
32.114861839
 21
237.2264466044
 31
0.0
  0
LINE
  5
17C
330
14A
100
AcDbEntity
  8
$DDT_AUDIT_GENERATED_(11D)
  6
Continuous
 62
     7
100
AcDbLine
 10
32.114861839
 20
237.2264466044
 30
0.0
 11
32.114861839
 21
236.0104276145
 31
0.0
  0
ARC
  5
17D
330
14A
100
AcDbEntity
  8
$DDT_AUDIT_GENERATED_(11D)
  6
Continuous
 62
     7
100
AcDbCircle
 10
30.3638682108
 20
239.8596143922
 30
0.0
 40
3.282322430850261
100
AcDbArc
 50
287.7560613181
 51
294.3051870195
  0
ARC
  5
17E
330
14A
100
AcDbEntity
  8
$DDT_AUDIT_GENERATED_(11D)
  6
Continuous
 62
     7
100
AcDbCircle
 10
31.8264013
 20
236.6195401784
 30
0.0
 40
0.2725460440415464
100
AcDbArc
 50
98.7667294529
 51
114.1577279278
  0
ELLIPSE
  5
17F
330
14A
100
AcDbEntity
  8
$DDT_AUDIT_GENERATED_(11D)
  6
Continuous
 62
     7
100
AcDbEllipse
 10
31.714861839
 20
236.0104276145
 30
0.0
 11
0.4000000000000014
 21
6.938893903907228E-15
 31
0.0
210
0.0
220
0.0
230
1.0
 40
0.906307787
 41
4.88829521237457
 42
6.283185307179567
  0
ARC
  5
180
330
14A
100
AcDbEntity
  8
$DDT_AUDIT_GENERATED_(11D)
  6
Continuous
 62
     7
100
AcDbCircle
 10
31.7525104596
 20
237.2506146653
 30
0.0
 40
0.3631564640339833
100
AcDbArc
 50
275.1109333433
 51
356.1841459343
  0
ARC
  5
181
330
14A
100
AcDbEntity
  8
$DDT_AUDIT_GENERATED_(11D)
  6
Continuous
 62
     7
100
AcDbCircle
 10
31.3658643852
 20
236.7907336997
 30
0.0
 40
2.397248668104857
100
AcDbArc
 50
179.9378790995
 51
238.48252709
  0
ARC
  5
182
330
14A
100
AcDbEntity
  8
$DDT_AUDIT_GENERATED_(11D)
  6
Continuous
 62
     7
100
AcDbCircle
 10
31.3658643852
 20
236.7907336997
 30
0.0
 40
2.397248668104857
100
AcDbArc
 50
301.5309001907
 51
359.9910419544
  0
LINE
  5
183
330
14A
100
AcDbEntity
  8
$DDT_AUDIT_GENERATED_(11D)
  6
Continuous
 62
     7
100
AcDbLine
 10
33.76485662
 20
236.7918736179
 30
0.0
 11
33.76485662
 21
237.286327521
 31
0.0
  0
LINE
  5
184
330
14A
100
AcDbEntity
  8
$DDT_AUDIT_GENERATED_(11D)
  6
Continuous
 62
     7
100
AcDbLine
 10
28.9648670581
 20
237.286327521
 30
0.0
 11
28.9648670581
 21
236.7918736179
 31
0.0
  0
LINE
  5
185
330
14A
100
AcDbEntity
  8
$DDT_AUDIT_GENERATED_(11D)
  6
Continuous
 62
     7
100
AcDbLine
 10
31.714861839
 20
241.2117817716
 30
0.0
 11
31.014861839
 21
241.2117817716
 31
0.0
  0
ARC
  5
186
330
14A
100
AcDbEntity
  8
$DDT_AUDIT_GENERATED_(11D)
  6
Continuous
 62
     7
100
AcDbCircle
 10
31.014861839
 20
240.8117817716
 30
0.0
 40
0.3999999999999976
100
AcDbArc
 50
90.0
 51
180.0
  0
ARC
  5
187
330
14A
100
AcDbEntity
  8
$DDT_AUDIT_GENERATED_(11D)
  6
Continuous
 62
     7
100
AcDbCircle
 10
31.714861839
 20
240.8117817716
 30
0.0
 40
0.4000000000000004
100
AcDbArc
 50
0.0
 51
90.0
  0
ARC
  5
188
330
14A
100
AcDbEntity
  8
$DDT_AUDIT_GENERATED_(11D)
  6
Continuous
 62
     7
100
AcDbCircle
 10
31.364861839
 20
234.3842706965
 30
0.0
 40
1.75
100
AcDbArc
 50
11.2521355184
 51
19.4368283272
  0
ARC
  5
189
330
14A
100
AcDbEntity
  8
$DDT_AUDIT_GENERATED_(11D)
  6
Continuous
 62
     7
100
AcDbCircle
 10
31.364861839
 20
234.3842706965
 30
0.0
 40
1.75
100
AcDbArc
 50
160.5631716728
 51
168.6880074991
  0
ARC
  5
18A
330
14A
100
AcDbEntity
  8
$DDT_AUDIT_GENERATED_(11D)
  6
Continuous
 62
     7
100
AcDbCircle
 10
31.364861839
 20
235.5489563994
 30
0.0
 40
1.75
100
AcDbArc
 50
195.5996670001
 51
207.9498242718
  0
ARC
  5
18B
330
14A
100
AcDbEntity
  8
$DDT_AUDIT_GENERATED_(11D)
  6
Continuous
 62
     7
100
AcDbCircle
 10
31.364861839
 20
235.5489563994
 30
0.0
 40
1.75
100
AcDbArc
 50
332.0351464933
 51
344.0773871208
  0
ARC
  5
18C
330
14A
100
AcDbEntity
  8
$DDT_AUDIT_GENERATED_(D2)
  6
Continuous
 62
     7
100
AcDbCircle
 10
31.364861839
 20
209.786327521
 30
0.0
 40
23.64931288642442
100
AcDbArc
 50
10.8074319055
 51
169.2178582566
  0
ARC
  5
18D
330
14A
100
AcDbEntity
  8
$DDT_AUDIT_GENERATED_(13F)
  6
Continuous
 62
     7
100
AcDbCircle
 10
26.3087343271
 20
238.286327521
 30
0.0
 40
1.000000000000001
100
AcDbArc
 50
90.0
 51
270.0
  0
LINE
  5
18E
330
14A
100
AcDbEntity
  8
$DDT_AUDIT_GENERATED_(13F)
  6
Continuous
 62
     7
100
AcDbLine
 10
26.3087343271
 20
237.286327521
 30
0.0
 11
26.3362936873
 21
237.286327521
 31
0.0
  0
LINE
  5
18F
330
14A
100
AcDbEntity
  8
$DDT_AUDIT_GENERATED_(13F)
  6
Continuous
 62
     7
100
AcDbLine
 10
26.3362936873
 20
239.286327521
 30
0.0
 11
26.3087343271
 21
239.286327521
 31
0.0
  0
LINE
  5
190
330
14A
100
AcDbEntity
  8
$DDT_AUDIT_GENERATED_(13F)
  6
Continuous
 62
     7
100
AcDbLine
 10
28.4199802887
 20
239.286327521
 30
0.0
 11
26.3362936873
 21
239.286327521
 31
0.0
  0
LINE
  5
191
330
14A
100
AcDbEntity
  8
$DDT_AUDIT_GENERATED_(13F)
  6
Continuous
 62
     7
100
AcDbLine
 10
26.3362936873
 20
237.286327521
 30
0.0
 11
28.4199802887
 21
237.286327521
 31
0.0
  0
LINE
  5
192
330
14A
100
AcDbEntity
  8
$DDT_AUDIT_GENERATED_(13F)
  6
Continuous
 62
     7
100
AcDbLine
 10
28.4199802887
 20
237.286327521
 30
0.0
 11
34.3097433894
 21
237.286327521
 31
0.0
  0
LINE
  5
193
330
14A
100
AcDbEntity
  8
$DDT_AUDIT_GENERATED_(13F)
  6
Continuous
 62
     7
100
AcDbLine
 10
34.3097433894
 20
239.286327521
 30
0.0
 11
28.4199802887
 21
239.286327521
 31
0.0
  0
LINE
  5
194
330
14A
100
AcDbEntity
  8
$DDT_AUDIT_GENERATED_(13F)
  6
Continuous
 62
     7
100
AcDbLine
 10
36.3934148926
 20
239.286327521
 30
0.0
 11
34.3097433894
 21
239.286327521
 31
0.0
  0
LINE
  5
195
330
14A
100
AcDbEntity
  8
$DDT_AUDIT_GENERATED_(13F)
  6
Continuous
 62
     7
100
AcDbLine
 10
34.3097433894
 20
237.286327521
 30
0.0
 11
36.3934148926
 21
237.286327521
 31
0.0
  0
ARC
  5
196
330
14A
100
AcDbEntity
  8
$DDT_AUDIT_GENERATED_(13F)
  6
Continuous
 62
     7
100
AcDbCircle
 10
36.4209742528
 20
238.286327521
 30
0.0
 40
1.000000000000001
100
AcDbArc
 50
270.0
 51
90.0
  0
LINE
  5
197
330
14A
100
AcDbEntity
  8
$DDT_AUDIT_GENERATED_(13F)
  6
Continuous
 62
     7
100
AcDbLine
 10
36.3934148926
 20
237.286327521
 30
0.0
 11
36.4209742528
 21
237.286327521
 31
0.0
  0
LINE
  5
198
330
14A
100
AcDbEntity
  8
$DDT_AUDIT_GENERATED_(13F)
  6
Continuous
 62
     7
100
AcDbLine
 10
36.4209742528
 20
239.286327521
 30
0.0
 11
36.3934148926
 21
239.286327521
 31
0.0
  0
ENDBLK
  5
19A
330
14A
100
AcDbEntity
  8
0
100
AcDbBlockEnd
  0
ENDSEC
  0
SECTION
  2
ENTITIES
  0
INSERT
  5
5F
330
1F
100
AcDbEntity
  8
Default
100
AcDbBlockReference
  2
SE
 10
0.0
 20
0.0
 30
0.0
  0
INSERT
  5
D8
330
1F
100
AcDbEntity
  8
Default
100
AcDbBlockReference
  2
SE1
 10
0.0
 20
0.0
 30
0.0
  0
INSERT
  5
14B
330
1F
100
AcDbEntity
  8
Default
100
AcDbBlockReference
  2
SE2
 10
0.0
 20
0.0
 30
0.0
  0
TEXT
  5
19C
330
1F
100
AcDbEntity
  8
Default
  6
Continuous
 62
     7
100
AcDbText
 10
5.9362635081
 20
53.4225120485
 30
0.0
 40
10.0
  1
Grohe AG^J
  7
SEACAD_seiso_ttf
 11
5.9362635081
 21
63.4225120485
 31
0.0
100
AcDbText
 73
     3
  0
TEXT
  5
19D
330
1F
100
AcDbEntity
  8
Default
  6
Continuous
 62
     7
100
AcDbText
 10
5.9362635081
 20
37.0588756849
 30
0.0
 40
10.0
  1
 
  7
SEACAD_seiso_ttf
 11
5.9362635081
 21
47.0588756849
 31
0.0
100
AcDbText
 73
     3
  0
TEXT
  5
19E
330
1F
100
AcDbEntity
  8
Default
  6
Continuous
 62
     7
100
AcDbText
 10
5.9362635081
 20
20.6952393213
 30
0.0
 40
10.0
  1
ecn: 
  7
SEACAD_seiso_ttf
 11
5.9362635081
 21
30.6952393213
 31
0.0
100
AcDbText
 73
     3
  0
TEXT
  5
19F
330
1F
100
AcDbEntity
  8
Default
  6
Continuous
 62
     7
100
AcDbText
 10
5.9362635081
 20
4.3316029576
 30
0.0
 40
10.0
  1
unit: mm
  7
SEACAD_seiso_ttf
 11
5.9362635081
 21
14.3316029576
 31
0.0
100
AcDbText
 73
     3
  0
LINE
  5
1A0
330
1F
100
AcDbEntity
  8
Default
  6
Continuous
 62
     7
100
AcDbLine
 10
0.0
 20
0.0
 30
0.0
 11
100.0
 21
0.0
 31
0.0
  0
LINE
  5
1A1
330
1F
100
AcDbEntity
  8
Default
  6
Continuous
 62
     7
100
AcDbLine
 10
0.0
 20
0.0
 30
0.0
 11
0.0
 21
100.0
 31
0.0
  0
TEXT
  5
1A2
330
1F
100
AcDbEntity
  8
Default
  6
Continuous
 62
     7
100
AcDbText
 10
24.3923665681
 20
-18.2375342018
 30
0.0
 40
10.0
  1
100 mm
  7
SEACAD_seiso_ttf
 11
24.3923665681
 21
-8.2375342018
 31
0.0
100
AcDbText
 73
     3
  0
TEXT
  5
1A3
330
1F
100
AcDbEntity
  8
Default
  6
Continuous
 62
     7
100
AcDbText
 10
-7.6150308803
 20
24.6231930421
 30
0.0
 40
10.0
  1
100 mm
 50
90.0
  7
SEACAD_seiso_ttf
 11
-17.6150308803
 21
24.6231930421
 31
0.0
100
AcDbText
 73
     3
  0
TEXT
  5
1A4
330
1F
100
AcDbEntity
  8
Default
  6
Continuous
 62
     7
100
AcDbText
 10
28.4878128572
 20
20.0907663715
 30
0.0
 40
10.0
  1
216815
  7
SEACAD_seiso_ttf
 11
28.4878128572
 21
30.0907663715
 31
0.0
100
AcDbText
 73
     3
  0
TEXT
  5
1A5
330
1F
100
AcDbEntity
  8
Default
  6
Continuous
 62
     7
100
AcDbText
 10
5.9012241913
 20
36.7242780188
 30
0.0
 40
10.0
  1
32827000
  7
SEACAD_seiso_ttf
 11
5.9012241913
 21
46.7242780188
 31
0.0
100
AcDbText
 73
     3
  0
ENDSEC
  0
SECTION
  2
OBJECTS
  0
DICTIONARY
  5
C
330
0
100
AcDbDictionary
281
     1
  3
ACAD_GROUP
350
D
  3
ACAD_LAYOUT
350
1A
  3
ACAD_MLEADERSTYLE
350
1A9
  3
ACAD_MLINESTYLE
350
17
  3
ACAD_PLOTSETTINGS
350
19
  3
ACAD_PLOTSTYLENAME
350
E
  3
ACAD_SCALELIST
350
3B
  3
ACAD_TABLESTYLE
350
1A8
  3
ACAD_VISUALSTYLE
350
2A
  3
AcDbVariableDictionary
350
1A6
  0
DICTIONARY
  5
D
102
{ACAD_REACTORS
330
C
102
}
330
C
100
AcDbDictionary
281
     1
  0
DICTIONARY
  5
1A
102
{ACAD_REACTORS
330
C
102
}
330
C
100
AcDbDictionary
281
     1
  3
Layout1
350
1E
  3
Model
350
22
  0
DICTIONARY
  5
1A9
102
{ACAD_REACTORS
330
C
102
}
330
C
100
AcDbDictionary
281
     1
  0
DICTIONARY
  5
17
102
{ACAD_REACTORS
330
C
102
}
330
C
100
AcDbDictionary
281
     1
  3
Standard
350
18
  0
DICTIONARY
  5
19
102
{ACAD_REACTORS
330
C
102
}
330
C
100
AcDbDictionary
281
     1
  0
ACDBDICTIONARYWDFLT
  5
E
102
{ACAD_REACTORS
330
C
102
}
330
C
100
AcDbDictionary
281
     1
  3
Normal
350
F
100
AcDbDictionaryWithDefault
340
F
  0
DICTIONARY
  5
3B
102
{ACAD_REACTORS
330
C
102
}
330
C
100
AcDbDictionary
281
     1
  3
A0
350
3C
  3
A1
350
3D
  3
A2
350
3E
  3
A3
350
3F
  3
A4
350
40
  3
A5
350
41
  3
A6
350
42
  3
A7
350
43
  3
A8
350
44
  3
A9
350
45
  3
B0
350
46
  3
B1
350
47
  3
B2
350
48
  3
B3
350
49
  3
B4
350
4A
  3
B5
350
4B
  3
B6
350
4C
  3
B7
350
4D
  3
B8
350
4E
  3
B9
350
4F
  3
C0
350
50
  3
C1
350
51
  3
C2
350
52
  3
C3
350
53
  3
C4
350
54
  3
C5
350
55
  3
C6
350
56
  3
C7
350
57
  3
C8
350
58
  3
C9
350
59
  3
D0
350
5A
  3
D1
350
5B
  3
D2
350
5C
  0
DICTIONARY
  5
1A8
102
{ACAD_REACTORS
330
C
102
}
330
C
100
AcDbDictionary
281
     1
  0
DICTIONARY
  5
2A
102
{ACAD_REACTORS
330
C
102
}
330
C
100
AcDbDictionary
281
     1
  3
2dWireframe
350
2F
  3
3D Hidden
350
31
  3
3dWireframe
350
30
  3
Basic
350
32
  3
Brighten
350
36
  3
ColorChange
350
3A
  3
Conceptual
350
34
  3
Dim
350
35
  3
Facepattern
350
39
  3
Flat
350
2B
  3
FlatWithEdges
350
2C
  3
Gouraud
350
2D
  3
GouraudWithEdges
350
2E
  3
Linepattern
350
38
  3
Realistic
350
33
  3
Thicken
350
37
  0
DICTIONARY
  5
1A6
102
{ACAD_REACTORS
330
C
102
}
330
C
100
AcDbDictionary
281
     1
  3
CANNOSCALE
350
1A7
  3
PSOLHEIGHT
350
1AB
  3
PSOLWIDTH
350
1AA
  0
LAYOUT
  5
1E
102
{ACAD_REACTORS
330
1A
102
}
330
1A
100
AcDbPlotSettings
  1

  2
none_device
  4

  6

 40
0.0
 41
0.0
 42
0.0
 43
0.0
 44
0.0
 45
0.0
 46
0.0
 47
0.0
 48
0.0
 49
0.0
140
0.0
141
0.0
142
1.0
143
1.0
 70
   688
 72
     0
 73
     0
 74
     5
  7

 75
    16
147
1.0
148
0.0
149
0.0
100
AcDbLayout
  1
Layout1
 70
     1
 71
     1
 10
0.0
 20
0.0
 11
1682.0
 21
2378.0
 12
0.0
 22
0.0
 32
0.0
 14
0.0
 24
0.0
 34
0.0
 15
1682.0
 25
2378.0
 35
0.0
146
0.0
 13
0.0
 23
0.0
 33
0.0
 16
1.0
 26
0.0
 36
0.0
 17
0.0
 27
1.0
 37
0.0
 76
     0
330
1B
  0
LAYOUT
  5
22
102
{ACAD_REACTORS
330
1A
102
}
330
1A
100
AcDbPlotSettings
  1

  2
none_device
  4

  6

 40
0.0
 41
0.0
 42
0.0
 43
0.0
 44
0.0
 45
0.0
 46
0.0
 47
0.0
 48
0.0
 49
0.0
140
0.0
141
0.0
142
1.0
143
1.0
 70
  1712
 72
     0
 73
     0
 74
     0
  7

 75
     0
147
1.0
148
0.0
149
0.0
100
AcDbLayout
  1
Model
 70
     1
 71
     0
 10
0.0
 20
0.0
 11
1682.0
 21
2378.0
 12
0.0
 22
0.0
 32
0.0
 14
0.0
 24
0.0
 34
0.0
 15
1682.0
 25
2378.0
 35
0.0
146
0.0
 13
0.0
 23
0.0
 33
0.0
 16
1.0
 26
0.0
 36
0.0
 17
0.0
 27
1.0
 37
0.0
 76
     0
330
1F
331
29
  0
MLINESTYLE
  5
18
102
{ACAD_REACTORS
330
17
102
}
330
17
100
AcDbMlineStyle
  2
Standard
 70
     0
  3

 62
   256
 51
90.0
 52
90.0
 71
     2
 49
0.5
 62
   256
  6
BYLAYER
 49
-0.5
 62
   256
  6
BYLAYER
  0
ACDBPLACEHOLDER
  5
F
102
{ACAD_REACTORS
330
E
102
}
330
E
  0
SCALE
  5
3C
102
{ACAD_REACTORS
330
3B
102
}
330
3B
100
AcDbScale
 70
     0
300
1:1
140
1.0
141
1.0
290
     1
  0
SCALE
  5
3D
102
{ACAD_REACTORS
330
3B
102
}
330
3B
100
AcDbScale
 70
     0
300
1:2
140
1.0
141
2.0
290
     0
  0
SCALE
  5
3E
102
{ACAD_REACTORS
330
3B
102
}
330
3B
100
AcDbScale
 70
     0
300
1:4
140
1.0
141
4.0
290
     0
  0
SCALE
  5
3F
102
{ACAD_REACTORS
330
3B
102
}
330
3B
100
AcDbScale
 70
     0
300
1:5
140
1.0
141
5.0
290
     0
  0
SCALE
  5
40
102
{ACAD_REACTORS
330
3B
102
}
330
3B
100
AcDbScale
 70
     0
300
1:8
140
1.0
141
8.0
290
     0
  0
SCALE
  5
41
102
{ACAD_REACTORS
330
3B
102
}
330
3B
100
AcDbScale
 70
     0
300
1:10
140
1.0
141
10.0
290
     0
  0
SCALE
  5
42
102
{ACAD_REACTORS
330
3B
102
}
330
3B
100
AcDbScale
 70
     0
300
1:16
140
1.0
141
16.0
290
     0
  0
SCALE
  5
43
102
{ACAD_REACTORS
330
3B
102
}
330
3B
100
AcDbScale
 70
     0
300
1:20
140
1.0
141
20.0
290
     0
  0
SCALE
  5
44
102
{ACAD_REACTORS
330
3B
102
}
330
3B
100
AcDbScale
 70
     0
300
1:30
140
1.0
141
30.0
290
     0
  0
SCALE
  5
45
102
{ACAD_REACTORS
330
3B
102
}
330
3B
100
AcDbScale
 70
     0
300
1:40
140
1.0
141
40.0
290
     0
  0
SCALE
  5
46
102
{ACAD_REACTORS
330
3B
102
}
330
3B
100
AcDbScale
 70
     0
300
1:50
140
1.0
141
50.0
290
     0
  0
SCALE
  5
47
102
{ACAD_REACTORS
330
3B
102
}
330
3B
100
AcDbScale
 70
     0
300
1:100
140
1.0
141
100.0
290
     0
  0
SCALE
  5
48
102
{ACAD_REACTORS
330
3B
102
}
330
3B
100
AcDbScale
 70
     0
300
2:1
140
2.0
141
1.0
290
     0
  0
SCALE
  5
49
102
{ACAD_REACTORS
330
3B
102
}
330
3B
100
AcDbScale
 70
     0
300
4:1
140
4.0
141
1.0
290
     0
  0
SCALE
  5
4A
102
{ACAD_REACTORS
330
3B
102
}
330
3B
100
AcDbScale
 70
     0
300
8:1
140
8.0
141
1.0
290
     0
  0
SCALE
  5
4B
102
{ACAD_REACTORS
330
3B
102
}
330
3B
100
AcDbScale
 70
     0
300
10:1
140
10.0
141
1.0
290
     0
  0
SCALE
  5
4C
102
{ACAD_REACTORS
330
3B
102
}
330
3B
100
AcDbScale
 70
     0
300
100:1
140
100.0
141
1.0
290
     0
  0
SCALE
  5
4D
102
{ACAD_REACTORS
330
3B
102
}
330
3B
100
AcDbScale
 70
     0
300
1/128" = 1'-0"
140
0.0078125
141
12.0
290
     0
  0
SCALE
  5
4E
102
{ACAD_REACTORS
330
3B
102
}
330
3B
100
AcDbScale
 70
     0
300
1/64" = 1'-0"
140
0.015625
141
12.0
290
     0
  0
SCALE
  5
4F
102
{ACAD_REACTORS
330
3B
102
}
330
3B
100
AcDbScale
 70
     0
300
1/32" = 1'-0"
140
0.03125
141
12.0
290
     0
  0
SCALE
  5
50
102
{ACAD_REACTORS
330
3B
102
}
330
3B
100
AcDbScale
 70
     0
300
1/16" = 1'-0"
140
0.0625
141
12.0
290
     0
  0
SCALE
  5
51
102
{ACAD_REACTORS
330
3B
102
}
330
3B
100
AcDbScale
 70
     0
300
3/32" = 1'-0"
140
0.09375
141
12.0
290
     0
  0
SCALE
  5
52
102
{ACAD_REACTORS
330
3B
102
}
330
3B
100
AcDbScale
 70
     0
300
1/8" = 1'-0"
140
0.125
141
12.0
290
     0
  0
SCALE
  5
53
102
{ACAD_REACTORS
330
3B
102
}
330
3B
100
AcDbScale
 70
     0
300
3/16" = 1'-0"
140
0.1875
141
12.0
290
     0
  0
SCALE
  5
54
102
{ACAD_REACTORS
330
3B
102
}
330
3B
100
AcDbScale
 70
     0
300
1/4" = 1'-0"
140
0.25
141
12.0
290
     0
  0
SCALE
  5
55
102
{ACAD_REACTORS
330
3B
102
}
330
3B
100
AcDbScale
 70
     0
300
3/8" = 1'-0"
140
0.375
141
12.0
290
     0
  0
SCALE
  5
56
102
{ACAD_REACTORS
330
3B
102
}
330
3B
100
AcDbScale
 70
     0
300
1/2" = 1'-0"
140
0.5
141
12.0
290
     0
  0
SCALE
  5
57
102
{ACAD_REACTORS
330
3B
102
}
330
3B
100
AcDbScale
 70
     0
300
3/4" = 1'-0"
140
0.75
141
12.0
290
     0
  0
SCALE
  5
58
102
{ACAD_REACTORS
330
3B
102
}
330
3B
100
AcDbScale
 70
     0
300
1" = 1'-0"
140
1.0
141
12.0
290
     0
  0
SCALE
  5
59
102
{ACAD_REACTORS
330
3B
102
}
330
3B
100
AcDbScale
 70
     0
300
1-1/2" = 1'-0"
140
1.5
141
12.0
290
     0
  0
SCALE
  5
5A
102
{ACAD_REACTORS
330
3B
102
}
330
3B
100
AcDbScale
 70
     0
300
3" = 1'-0"
140
3.0
141
12.0
290
     0
  0
SCALE
  5
5B
102
{ACAD_REACTORS
330
3B
102
}
330
3B
100
AcDbScale
 70
     0
300
6" = 1'-0"
140
6.0
141
12.0
290
     0
  0
SCALE
  5
5C
102
{ACAD_REACTORS
330
3B
102
}
330
3B
100
AcDbScale
 70
     0
300
1'-0" = 1'-0"
140
12.0
141
12.0
290
     0
  0
VISUALSTYLE
  5
2F
102
{ACAD_REACTORS
330
2A
102
}
330
2A
100
AcDbVisualStyle
  2
2dWireframe
 70
     4
 71
     0
 72
     2
 73
     0
 90
        0
 40
-0.6
 41
-30.0
 62
     5
 63
     7
 74
     1
 91
        4
 64
     7
 65
   257
 75
     1
175
     1
 42
1.0
 92
        0
 66
   257
 43
1.0
 76
     1
 77
     6
 78
     2
 67
     7
 79
     5
170
     0
171
     0
290
     0
174
     0
 93
        1
 44
0.0
173
     0
291
     0
 45
0.0
1001
ACAD
1000
AcDbSavedByObjectVersion
1070
     0
  0
VISUALSTYLE
  5
31
102
{ACAD_REACTORS
330
2A
102
}
330
2A
100
AcDbVisualStyle
  2
3D Hidden
 70
     6
 71
     1
 72
     2
 73
     2
 90
        0
 40
-0.6
 41
-30.0
 62
     5
 63
     7
 74
     2
 91
        2
 64
     7
 65
   257
 75
     2
175
     1
 42
40.0
 92
        0
 66
   257
 43
1.0
 76
     1
 77
     6
 78
     2
 67
     7
 79
     3
170
     0
171
     0
290
     0
174
     0
 93
        1
 44
0.0
173
     0
291
     0
 45
0.0
1001
ACAD
1000
AcDbSavedByObjectVersion
1070
     0
  0
VISUALSTYLE
  5
30
102
{ACAD_REACTORS
330
2A
102
}
330
2A
100
AcDbVisualStyle
  2
3dWireframe
 70
     5
 71
     0
 72
     2
 73
     0
 90
        0
 40
-0.6
 41
-30.0
 62
     5
 63
     7
 74
     1
 91
        4
 64
     7
 65
   257
 75
     1
175
     1
 42
1.0
 92
        0
 66
   257
 43
1.0
 76
     1
 77
     6
 78
     2
 67
     7
 79
     5
170
     0
171
     0
290
     0
174
     0
 93
        1
 44
0.0
173
     0
291
     0
 45
0.0
1001
ACAD
1000
AcDbSavedByObjectVersion
1070
     0
  0
VISUALSTYLE
  5
32
102
{ACAD_REACTORS
330
2A
102
}
330
2A
100
AcDbVisualStyle
  2
Basic
 70
     7
 71
     1
 72
     0
 73
     1
 90
        0
 40
-0.6
 41
-30.0
 62
     5
 63
     7
 74
     0
 91
        4
 64
     7
 65
   257
 75
     1
175
     1
 42
1.0
 92
        8
 66
     7
 43
1.0
 76
     1
 77
     6
 78
     2
 67
     7
 79
     5
170
     0
171
     0
290
     0
174
     0
 93
        1
 44
0.0
173
     0
291
     1
 45
0.0
1001
ACAD
1000
AcDbSavedByObjectVersion
1070
     0
  0
VISUALSTYLE
  5
36
102
{ACAD_REACTORS
330
2A
102
}
330
2A
100
AcDbVisualStyle
  2
Brighten
 70
    12
 71
     2
 72
     2
 73
     0
 90
        0
 40
-0.6
 41
-30.0
 62
     5
 63
     7
 74
     1
 91
        4
 64
     7
 65
   257
 75
     1
175
     1
 42
1.0
 92
        8
 66
     7
 43
1.0
 76
     1
 77
     6
 78
     2
 67
     7
 79
     5
170
     0
171
     0
290
     0
174
     0
 93
        1
 44
50.0
173
     0
291
     1
 45
0.0
1001
ACAD
1000
AcDbSavedByObjectVersion
1070
     0
  0
VISUALSTYLE
  5
3A
102
{ACAD_REACTORS
330
2A
102
}
330
2A
100
AcDbVisualStyle
  2
ColorChange
 70
    16
 71
     2
 72
     2
 73
     3
 90
        0
 40
-0.6
 41
-30.0
 62
     5
 63
     8
 74
     1
 91
        4
 64
     7
 65
   257
 75
     1
175
     1
 42
1.0
 92
        8
 66
     8
 43
1.0
 76
     1
 77
     6
 78
     2
 67
     7
 79
     5
170
     0
171
     0
290
     0
174
     0
 93
        1
 44
0.0
173
     0
291
     1
 45
0.0
1001
ACAD
1000
AcDbSavedByObjectVersion
1070
     0
  0
VISUALSTYLE
  5
34
102
{ACAD_REACTORS
330
2A
102
}
330
2A
100
AcDbVisualStyle
  2
Conceptual
 70
     9
 71
     3
 72
     2
 73
     0
 90
        0
 40
-0.6
 41
-30.0
 62
     5
 63
     7
 74
     2
 91
        2
 64
     7
 65
   257
 75
     1
175
     1
 42
40.0
 92
        8
 66
     7
 43
1.0
 76
     1
 77
     6
 78
     2
 67
     7
 79
     3
170
     0
171
     0
290
     0
174
     0
 93
        1
 44
0.0
173
     0
291
     0
 45
0.0
1001
ACAD
1000
AcDbSavedByObjectVersion
1070
     0
  0
VISUALSTYLE
  5
35
102
{ACAD_REACTORS
330
2A
102
}
330
2A
100
AcDbVisualStyle
  2
Dim
 70
    11
 71
     2
 72
     2
 73
     0
 90
        0
 40
-0.6
 41
-30.0
 62
     5
 63
     7
 74
     1
 91
        4
 64
     7
 65
   257
 75
     1
175
     1
 42
1.0
 92
        8
 66
     7
 43
1.0
 76
     1
 77
     6
 78
     2
 67
     7
 79
     5
170
     0
171
     0
290
     0
174
     0
 93
        1
 44
-50.0
173
     0
291
     1
 45
0.0
1001
ACAD
1000
AcDbSavedByObjectVersion
1070
     0
  0
VISUALSTYLE
  5
39
102
{ACAD_REACTORS
330
2A
102
}
330
2A
100
AcDbVisualStyle
  2
Facepattern
 70
    15
 71
     2
 72
     2
 73
     0
 90
        0
 40
-0.6
 41
-30.0
 62
     5
 63
     7
 74
     1
 91
        4
 64
     7
 65
   257
 75
     1
175
     1
 42
1.0
 92
        8
 66
     7
 43
1.0
 76
     1
 77
     6
 78
     2
 67
     7
 79
     5
170
     0
171
     0
290
     0
174
     0
 93
        1
 44
0.0
173
     0
291
     1
 45
0.0
1001
ACAD
1000
AcDbSavedByObjectVersion
1070
     0
  0
VISUALSTYLE
  5
2B
102
{ACAD_REACTORS
330
2A
102
}
330
2A
100
AcDbVisualStyle
  2
Flat
 70
     0
 71
     2
 72
     1
 73
     1
 90
        2
 40
-0.6
 41
30.0
 62
     5
 63
     7
 74
     0
 91
        4
 64
     7
 65
   257
 75
     1
175
     1
 42
1.0
 92
        8
 66
     7
 43
1.0
 76
     1
 77
     6
 78
     2
 67
     7
 79
     5
170
     0
171
     0
290
     0
174
     0
 93
       13
 44
0.0
173
     0
291
     1
 45
0.0
1001
ACAD
1000
AcDbSavedByObjectVersion
1070
     0
  0
VISUALSTYLE
  5
2C
102
{ACAD_REACTORS
330
2A
102
}
330
2A
100
AcDbVisualStyle
  2
FlatWithEdges
 70
     1
 71
     2
 72
     1
 73
     1
 90
        2
 40
-0.6
 41
30.0
 62
     5
 63
     7
 74
     1
 91
        4
 64
     7
 65
   257
 75
     1
175
     1
 42
1.0
 92
        0
 66
   257
 43
1.0
 76
     1
 77
     6
 78
     2
 67
     7
 79
     5
170
     0
171
     0
290
     0
174
     0
 93
       13
 44
0.0
173
     0
291
     1
 45
0.0
1001
ACAD
1000
AcDbSavedByObjectVersion
1070
     0
  0
VISUALSTYLE
  5
2D
102
{ACAD_REACTORS
330
2A
102
}
330
2A
100
AcDbVisualStyle
  2
Gouraud
 70
     2
 71
     2
 72
     2
 73
     1
 90
        2
 40
-0.6
 41
30.0
 62
     5
 63
     7
 74
     0
 91
        4
 64
     7
 65
   257
 75
     1
175
     1
 42
1.0
 92
        0
 66
     7
 43
1.0
 76
     1
 77
     6
 78
     2
 67
     7
 79
     5
170
     0
171
     0
290
     0
174
     0
 93
       13
 44
0.0
173
     0
291
     1
 45
0.0
1001
ACAD
1000
AcDbSavedByObjectVersion
1070
     0
  0
VISUALSTYLE
  5
2E
102
{ACAD_REACTORS
330
2A
102
}
330
2A
100
AcDbVisualStyle
  2
GouraudWithEdges
 70
     3
 71
     2
 72
     2
 73
     1
 90
        2
 40
-0.6
 41
30.0
 62
     5
 63
     7
 74
     1
 91
        4
 64
     7
 65
   257
 75
     1
175
     1
 42
1.0
 92
        0
 66
   257
 43
1.0
 76
     1
 77
     6
 78
     2
 67
     7
 79
     5
170
     0
171
     0
290
     0
174
     0
 93
       13
 44
0.0
173
     0
291
     1
 45
0.0
1001
ACAD
1000
AcDbSavedByObjectVersion
1070
     0
  0
VISUALSTYLE
  5
38
102
{ACAD_REACTORS
330
2A
102
}
330
2A
100
AcDbVisualStyle
  2
Linepattern
 70
    14
 71
     2
 72
     2
 73
     0
 90
        0
 40
-0.6
 41
-30.0
 62
     5
 63
     7
 74
     1
 91
        4
 64
     7
 65
   257
 75
     7
175
     7
 42
1.0
 92
        8
 66
     7
 43
1.0
 76
     1
 77
     6
 78
     2
 67
     7
 79
     5
170
     0
171
     0
290
     0
174
     0
 93
        1
 44
0.0
173
     0
291
     1
 45
0.0
1001
ACAD
1000
AcDbSavedByObjectVersion
1070
     0
  0
VISUALSTYLE
  5
33
102
{ACAD_REACTORS
330
2A
102
}
330
2A
100
AcDbVisualStyle
  2
Realistic
 70
     8
 71
     2
 72
     2
 73
     0
 90
        0
 40
-0.6
 41
-30.0
 62
     5
 63
     7
 74
     1
 91
        0
 64
     7
 65
   257
 75
     1
175
     1
 42
1.0
 92
        8
 66
     8
 43
1.0
 76
     1
 77
     6
 78
     2
 67
     7
 79
     5
170
     0
171
     0
290
     0
174
     0
 93
       13
 44
0.0
173
     0
291
     0
 45
0.0
1001
ACAD
1000
AcDbSavedByObjectVersion
1070
     0
  0
VISUALSTYLE
  5
37
102
{ACAD_REACTORS
330
2A
102
}
330
2A
100
AcDbVisualStyle
  2
Thicken
 70
    13
 71
     2
 72
     2
 73
     0
 90
        0
 40
-0.6
 41
-30.0
 62
     5
 63
     7
 74
     1
 91
        4
 64
     7
 65
   257
 75
     1
175
     1
 42
1.0
 92
       12
 66
     7
 43
1.0
 76
     1
 77
     6
 78
     2
 67
     7
 79
     5
170
     0
171
     0
290
     0
174
     0
 93
        1
 44
0.0
173
     0
291
     1
 45
0.0
1001
ACAD
1000
AcDbSavedByObjectVersion
1070
     0
  0
DICTIONARYVAR
  5
1A7
102
{ACAD_REACTORS
330
1A6
102
}
330
1A6
100
DictionaryVariables
280
     0
  1
1:1
  0
DICTIONARYVAR
  5
1AB
102
{ACAD_REACTORS
330
1A6
102
}
330
1A6
100
DictionaryVariables
280
     0
  1
80.000000
  0
DICTIONARYVAR
  5
1AA
102
{ACAD_REACTORS
330
1A6
102
}
330
1A6
100
DictionaryVariables
280
     0
  1
5.000000
  0
ENDSEC
  0
EOF
