  0
SECTION
  2
HEADER
  9
$ACADVER
  1
AC1009
  9
$DWGCODEPAGE
  3
ansi_1252
  9
$INSBASE
 10
0.0
 20
0.0
 30
0.0
  9
$EXTMIN
 10
1.000000000000000E+20
 20
1.000000000000000E+20
 30
1.000000000000000E+20
  9
$EXTMAX
 10
-1.000000000000000E+20
 20
-1.000000000000000E+20
 30
-1.000000000000000E+20
  9
$LIMMIN
 10
0.0
 20
0.0
  9
$LIMMAX
 10
12.0
 20
9.0
  9
$ORTHOMODE
 70
     0
  9
$REGENMODE
 70
     1
  9
$FILLMODE
 70
     1
  9
$QTEXTMODE
 70
     0
  9
$MIRRTEXT
 70
     1
  9
$DRAGMODE
 70
     2
  9
$LTSCALE
 40
1.0
  9
$OSMODE
 70
    37
  9
$ATTMODE
 70
     1
  9
$TEXTSIZE
 40
0.2
  9
$TRACEWID
 40
0.05
  9
$TEXTSTYLE
  7
STANDARD
  9
$CLAYER
  8
0
  9
$CELTYPE
  6
BYLAYER
  9
$CECOLOR
 62
   256
  9
$DIMSCALE
 40
1.0
  9
$DIMASZ
 40
0.18
  9
$DIMEXO
 40
0.0625
  9
$DIMDLI
 40
0.38
  9
$DIMRND
 40
0.0
  9
$DIMDLE
 40
0.0
  9
$DIMEXE
 40
0.18
  9
$DIMTP
 40
0.0
  9
$DIMTM
 40
0.0
  9
$DIMTXT
 40
0.18
  9
$DIMCEN
 40
0.09
  9
$DIMTSZ
 40
0.0
  9
$DIMTOL
 70
     0
  9
$DIMLIM
 70
     0
  9
$DIMTIH
 70
     1
  9
$DIMTOH
 70
     1
  9
$DIMSE1
 70
     0
  9
$DIMSE2
 70
     0
  9
$DIMTAD
 70
     0
  9
$DIMZIN
 70
     0
  9
$DIMBLK
  1

  9
$DIMASO
 70
     1
  9
$DIMSHO
 70
     1
  9
$DIMPOST
  1

  9
$DIMAPOST
  1

  9
$DIMALT
 70
     0
  9
$DIMALTD
 70
     2
  9
$DIMALTF
 40
25.4
  9
$DIMLFAC
 40
1.0
  9
$DIMTOFL
 70
     0
  9
$DIMTVP
 40
0.0
  9
$DIMTIX
 70
     0
  9
$DIMSOXD
 70
     0
  9
$DIMSAH
 70
     0
  9
$DIMBLK1
  1

  9
$DIMBLK2
  1

  9
$DIMSTYLE
  2
STANDARD
  9
$DIMCLRD
 70
     0
  9
$DIMCLRE
 70
     0
  9
$DIMCLRT
 70
     0
  9
$DIMTFAC
 40
1.0
  9
$DIMGAP
 40
0.09
  9
$LUNITS
 70
     2
  9
$LUPREC
 70
     4
  9
$SKETCHINC
 40
0.1
  9
$FILLETRAD
 40
0.5
  9
$AUNITS
 70
     0
  9
$AUPREC
 70
     0
  9
$MENU
  1
.
  9
$ELEVATION
 40
0.0
  9
$PELEVATION
 40
0.0
  9
$THICKNESS
 40
0.0
  9
$LIMCHECK
 70
     0
  9
$CHAMFERA
 40
0.5
  9
$CHAMFERB
 40
0.5
  9
$SKPOLY
 70
     0
  9
$TDCREATE
 40
2455267.421155602
  9
$TDUPDATE
 40
2455267.421155602
  9
$TDINDWG
 40
0.0000000116
  9
$TDUSRTIMER
 40
0.0000000116
  9
$USRTIMER
 70
     1
  9
$ANGBASE
 50
0.0
  9
$ANGDIR
 70
     0
  9
$PDMODE
 70
     0
  9
$PDSIZE
 40
0.0
  9
$PLINEWID
 40
0.0
  9
$COORDS
 70
     1
  9
$SPLFRAME
 70
     0
  9
$SPLINETYPE
 70
     6
  9
$SPLINESEGS
 70
     8
  9
$ATTDIA
 70
     0
  9
$ATTREQ
 70
     1
  9
$HANDLING
 70
     1
  9
$HANDSEED
  5
B1C
  9
$SURFTAB1
 70
     6
  9
$SURFTAB2
 70
     6
  9
$SURFTYPE
 70
     6
  9
$SURFU
 70
     6
  9
$SURFV
 70
     6
  9
$UCSNAME
  2

  9
$UCSORG
 10
0.0
 20
0.0
 30
0.0
  9
$UCSXDIR
 10
1.0
 20
0.0
 30
0.0
  9
$UCSYDIR
 10
0.0
 20
1.0
 30
0.0
  9
$PUCSNAME
  2

  9
$PUCSORG
 10
0.0
 20
0.0
 30
0.0
  9
$PUCSXDIR
 10
1.0
 20
0.0
 30
0.0
  9
$PUCSYDIR
 10
0.0
 20
1.0
 30
0.0
  9
$USERI1
 70
     0
  9
$USERI2
 70
     0
  9
$USERI3
 70
     0
  9
$USERI4
 70
     0
  9
$USERI5
 70
     0
  9
$USERR1
 40
0.0
  9
$USERR2
 40
0.0
  9
$USERR3
 40
0.0
  9
$USERR4
 40
0.0
  9
$USERR5
 40
0.0
  9
$WORLDVIEW
 70
     1
  9
$SHADEDGE
 70
     3
  9
$SHADEDIF
 70
    70
  9
$TILEMODE
 70
     1
  9
$MAXACTVP
 70
    64
  9
$PLIMCHECK
 70
     0
  9
$PEXTMIN
 10
1.000000000000000E+20
 20
1.000000000000000E+20
 30
1.000000000000000E+20
  9
$PEXTMAX
 10
-1.000000000000000E+20
 20
-1.000000000000000E+20
 30
-1.000000000000000E+20
  9
$PLIMMIN
 10
0.0
 20
0.0
  9
$PLIMMAX
 10
12.0
 20
9.0
  9
$UNITMODE
 70
     0
  9
$VISRETAIN
 70
     1
  9
$PLINEGEN
 70
     0
  9
$PSLTSCALE
 70
     1
  0
ENDSEC
  0
SECTION
  2
TABLES
  0
TABLE
  2
VPORT
 70
     1
  0
VPORT
  2
*ACTIVE
 70
     0
 10
0.0
 20
0.0
 11
1.0
 21
1.0
 12
0.0
 22
0.0
 13
0.0
 23
0.0
 14
0.5
 24
0.5
 15
0.5
 25
0.5
 16
336.0154724121094
 26
-313.3394775390625
 36
131.7431945800781
 17
5.829986572265625
 27
0.0
 37
0.0
 40
282.6260643703619
 41
1.972972972850329
 42
50.0
 43
0.0
 44
0.0
 50
0.0
 51
0.0
 71
     0
 72
   100
 73
     1
 74
     3
 75
     0
 76
     0
 77
     0
 78
     0
  0
ENDTAB
  0
TABLE
  2
LTYPE
 70
     1
  0
LTYPE
  2
CONTINUOUS
 70
     0
  3
Solid line
 72
    65
 73
     0
 40
0.0
  0
ENDTAB
  0
TABLE
  2
LAYER
 70
     2
  0
LAYER
  2
0
 70
     0
 62
     7
  6
CONTINUOUS
  0
LAYER
  2
LAYER_1
 70
     0
 62
     7
  6
CONTINUOUS
  0
ENDTAB
  0
TABLE
  2
STYLE
 70
     1
  0
STYLE
  2
STANDARD
 70
     0
 40
0.0
 41
1.0
 50
0.0
 71
     0
 42
0.2
  3
txt
  4

  0
ENDTAB
  0
TABLE
  2
VIEW
 70
     0
  0
ENDTAB
  0
TABLE
  2
UCS
 70
     0
  0
ENDTAB
  0
TABLE
  2
APPID
 70
     1
  0
APPID
  2
ACAD
 70
     0
  0
ENDTAB
  0
TABLE
  2
DIMSTYLE
 70
     1
  0
DIMSTYLE
  2
STANDARD
 70
     0
  3

  4

  5

  6

  7

 40
1.0
 41
0.18
 42
0.0625
 43
0.38
 44
0.18
 45
0.0
 46
0.0
 47
0.0
 48
0.0
140
0.18
141
0.09
142
0.0
143
25.4
144
1.0
145
0.0
146
1.0
147
0.09
 71
     0
 72
     0
 73
     1
 74
     1
 75
     0
 76
     0
 77
     0
 78
     0
170
     0
171
     2
172
     0
173
     0
174
     0
175
     0
176
     0
177
     0
178
     0
  0
ENDTAB
  0
ENDSEC
  0
SECTION
  2
BLOCKS
  0
BLOCK
  8
0
  2
$MODEL_SPACE
 70
     0
 10
0.0
 20
0.0
 30
0.0
  3
$MODEL_SPACE
  1

  0
ENDBLK
  5
21
  8
0
  0
BLOCK
 67
     1
  8
0
  2
$PAPER_SPACE
 70
     0
 10
0.0
 20
0.0
 30
0.0
  3
$PAPER_SPACE
  1

  0
ENDBLK
  5
1D
 67
     1
  8
0
  0
BLOCK
  8
0
  2
E3_NODE
 70
     0
 10
0.0
 20
0.0
 30
0.0
  3
E3_NODE
  1

  0
POLYLINE
  5
3C
  8
0
 62
     9
 66
     1
 10
0.0
 20
0.0
 30
0.0
 70
    64
 71
     6
 72
     4
  0
VERTEX
  5
3D
  8
0
 10
0.1000000014901161
 20
-28.0
 30
-25.5
 70
   192
  0
VERTEX
  5
3E
  8
0
 10
7.179999828338623
 20
-28.0
 30
0.0
 70
   192
  0
VERTEX
  5
3F
  8
0
 10
7.188000202178955
 20
-28.0
 30
-4.099999904632568
 70
   192
  0
VERTEX
  5
40
  8
0
 10
0.1000000014901161
 20
-28.0
 30
25.5
 70
   192
  0
VERTEX
  5
41
  8
0
 10
7.126999855041504
 20
-28.0
 30
25.5
 70
   192
  0
VERTEX
  5
42
  8
0
 10
7.127999782562256
 20
-28.0
 30
-25.5
 70
   192
  0
VERTEX
  5
43
  8
0
 62
     9
 10
0.0
 20
0.0
 30
0.0
 70
   128
 71
     3
 72
     2
 73
     1
  0
VERTEX
  5
44
  8
0
 62
     9
 10
0.0
 20
0.0
 30
0.0
 70
   128
 71
     2
 72
     5
 73
     4
  0
VERTEX
  5
45
  8
0
 62
     9
 10
0.0
 20
0.0
 30
0.0
 70
   128
 71
     4
 72
     1
 73
     2
  0
VERTEX
  5
46
  8
0
 62
     9
 10
0.0
 20
0.0
 30
0.0
 70
   128
 71
     1
 72
     6
 73
     3
  0
SEQEND
  5
47
  8
0
 62
     9
  0
ENDBLK
  5
4B
  8
0
  0
BLOCK
  8
0
  2
E3_NODE_1_
 70
     0
 10
0.0
 20
0.0
 30
0.0
  3
E3_NODE_1_
  1

  0
POLYLINE
  5
4D
  8
0
 62
     9
 66
     1
 10
0.0
 20
0.0
 30
0.0
 70
    64
 71
    38
 72
    36
  0
VERTEX
  5
4E
  8
0
 10
0.1000000014901161
 20
27.98299980163574
 30
-26.47699928283691
 70
   192
  0
VERTEX
  5
4F
  8
0
 10
0.1000000014901161
 20
-19.45000076293945
 30
-45.64199829101562
 70
   192
  0
VERTEX
  5
50
  8
0
 10
0.1000000014901161
 20
-15.25
 30
-48.98300170898438
 70
   192
  0
VERTEX
  5
51
  8
0
 10
0.1000000014901161
 20
-22.93600082397461
 30
-41.56000137329102
 70
   192
  0
VERTEX
  5
52
  8
0
 10
0.1000000014901161
 20
-27.98299980163574
 30
26.47699928283691
 70
   192
  0
VERTEX
  5
53
  8
0
 10
0.1000000014901161
 20
-22.93600082397461
 30
41.56000137329102
 70
   192
  0
VERTEX
  5
54
  8
0
 10
0.1000000014901161
 20
-25.57900047302246
 30
36.88899993896484
 70
   192
  0
VERTEX
  5
55
  8
0
 10
0.1000000014901161
 20
-5.342999935150146
 30
52.98600006103516
 70
   192
  0
VERTEX
  5
56
  8
0
 10
0.1000000014901161
 20
-10.48900032043457
 30
51.46099853515625
 70
   192
  0
VERTEX
  5
57
  8
0
 10
0.1000000014901161
 20
0.0
 30
-53.5
 70
   192
  0
VERTEX
  5
58
  8
0
 10
0.1000000014901161
 20
22.93600082397461
 30
-41.56000137329102
 70
   192
  0
VERTEX
  5
59
  8
0
 10
0.1000000014901161
 20
25.57900047302246
 30
-36.88899993896484
 70
   192
  0
VERTEX
  5
5A
  8
0
 10
0.1000000014901161
 20
-25.57900047302246
 30
-36.88899993896484
 70
   192
  0
VERTEX
  5
5B
  8
0
 10
0.1000000014901161
 20
-19.45000076293945
 30
45.64199829101562
 70
   192
  0
VERTEX
  5
5C
  8
0
 10
0.1000000014901161
 20
-15.25
 30
48.98300170898438
 70
   192
  0
VERTEX
  5
5D
  8
0
 10
0.1000000014901161
 20
5.342999935150146
 30
52.98600006103516
 70
   192
  0
VERTEX
  5
5E
  8
0
 10
0.1000000014901161
 20
0.0
 30
53.5
 70
   192
  0
VERTEX
  5
5F
  8
0
 10
0.1000000014901161
 20
19.45000076293945
 30
45.64199829101562
 70
   192
  0
VERTEX
  5
60
  8
0
 10
0.1000000014901161
 20
15.25
 30
48.98300170898438
 70
   192
  0
VERTEX
  5
61
  8
0
 10
0.1000000014901161
 20
27.98299980163574
 30
26.47699928283691
 70
   192
  0
VERTEX
  5
62
  8
0
 10
0.1000000014901161
 20
27.2819995880127
 30
31.79899978637695
 70
   192
  0
VERTEX
  5
63
  8
0
 10
0.1000000014901161
 20
19.45000076293945
 30
-45.64199829101562
 70
   192
  0
VERTEX
  5
64
  8
0
 10
0.1000000014901161
 20
15.25
 30
-48.98300170898438
 70
   192
  0
VERTEX
  5
65
  8
0
 10
0.1000000014901161
 20
5.342999935150146
 30
-52.98600006103516
 70
   192
  0
VERTEX
  5
66
  8
0
 10
0.1000000014901161
 20
-27.2819995880127
 30
-31.79899978637695
 70
   192
  0
VERTEX
  5
67
  8
0
 10
0.1000000014901161
 20
10.48900032043457
 30
51.46099853515625
 70
   192
  0
VERTEX
  5
68
  8
0
 10
0.1000000014901161
 20
22.93600082397461
 30
41.56000137329102
 70
   192
  0
VERTEX
  5
69
  8
0
 10
0.1000000014901161
 20
25.57900047302246
 30
36.88899993896484
 70
   192
  0
VERTEX
  5
6A
  8
0
 10
0.1000000014901161
 20
27.2819995880127
 30
-31.79899978637695
 70
   192
  0
VERTEX
  5
6B
  8
0
 10
0.1000000014901161
 20
10.48900032043457
 30
-51.46099853515625
 70
   192
  0
VERTEX
  5
6C
  8
0
 10
0.1000000014901161
 20
-10.48900032043457
 30
-51.46099853515625
 70
   192
  0
VERTEX
  5
6D
  8
0
 10
0.1000000014901161
 20
-5.342999935150146
 30
-52.98600006103516
 70
   192
  0
VERTEX
  5
6E
  8
0
 10
0.1000000014901161
 20
-27.98299980163574
 30
-26.47699928283691
 70
   192
  0
VERTEX
  5
6F
  8
0
 10
0.1000000014901161
 20
28.0
 30
25.5
 70
   192
  0
VERTEX
  5
70
  8
0
 10
0.1000000014901161
 20
-28.0
 30
-25.5
 70
   192
  0
VERTEX
  5
71
  8
0
 10
0.1000000014901161
 20
-27.2819995880127
 30
31.79899978637695
 70
   192
  0
VERTEX
  5
72
  8
0
 10
0.1000000014901161
 20
28.0
 30
-25.5
 70
   192
  0
VERTEX
  5
73
  8
0
 10
0.1000000014901161
 20
-28.0
 30
25.5
 70
   192
  0
VERTEX
  5
74
  8
0
 62
     9
 10
0.0
 20
0.0
 30
0.0
 70
   128
 71
     3
 72
     2
 73
     1
  0
VERTEX
  5
75
  8
0
 62
     9
 10
0.0
 20
0.0
 30
0.0
 70
   128
 71
     2
 72
     4
 73
     1
  0
VERTEX
  5
76
  8
0
 62
     9
 10
0.0
 20
0.0
 30
0.0
 70
   128
 71
     7
 72
     6
 73
     5
  0
VERTEX
  5
77
  8
0
 62
     9
 10
0.0
 20
0.0
 30
0.0
 70
   128
 71
     9
 72
     8
 73
     5
  0
VERTEX
  5
78
  8
0
 62
     9
 10
0.0
 20
0.0
 30
0.0
 70
   128
 71
    12
 72
    11
 73
    10
  0
VERTEX
  5
79
  8
0
 62
     9
 10
0.0
 20
0.0
 30
0.0
 70
   128
 71
     4
 72
    13
 73
     1
  0
VERTEX
  5
7A
  8
0
 62
     9
 10
0.0
 20
0.0
 30
0.0
 70
   128
 71
     6
 72
    14
 73
     5
  0
VERTEX
  5
7B
  8
0
 62
     9
 10
0.0
 20
0.0
 30
0.0
 70
   128
 71
     5
 72
    15
 73
     9
  0
VERTEX
  5
7C
  8
0
 62
     9
 10
0.0
 20
0.0
 30
0.0
 70
   128
 71
    17
 72
    16
 73
     5
  0
VERTEX
  5
7D
  8
0
 62
     9
 10
0.0
 20
0.0
 30
0.0
 70
   128
 71
    19
 72
    18
 73
     5
  0
VERTEX
  5
7E
  8
0
 62
     9
 10
0.0
 20
0.0
 30
0.0
 70
   128
 71
    21
 72
    20
 73
     5
  0
VERTEX
  5
7F
  8
0
 62
     9
 10
0.0
 20
0.0
 30
0.0
 70
   128
 71
    11
 72
    22
 73
    10
  0
VERTEX
  5
80
  8
0
 62
     9
 10
0.0
 20
0.0
 30
0.0
 70
   128
 71
    24
 72
    10
 73
    23
  0
VERTEX
  5
81
  8
0
 62
     9
 10
0.0
 20
0.0
 30
0.0
 70
   128
 71
    13
 72
    25
 73
     1
  0
VERTEX
  5
82
  8
0
 62
     9
 10
0.0
 20
0.0
 30
0.0
 70
   128
 71
     5
 72
    14
 73
    15
  0
VERTEX
  5
83
  8
0
 62
     9
 10
0.0
 20
0.0
 30
0.0
 70
   128
 71
    16
 72
    26
 73
     5
  0
VERTEX
  5
84
  8
0
 62
     9
 10
0.0
 20
0.0
 30
0.0
 70
   128
 71
    18
 72
    27
 73
     5
  0
VERTEX
  5
85
  8
0
 62
     9
 10
0.0
 20
0.0
 30
0.0
 70
   128
 71
     5
 72
    28
 73
    21
  0
VERTEX
  5
86
  8
0
 62
     9
 10
0.0
 20
0.0
 30
0.0
 70
   128
 71
    10
 72
    29
 73
    12
  0
VERTEX
  5
87
  8
0
 62
     9
 10
0.0
 20
0.0
 30
0.0
 70
   128
 71
    23
 72
    30
 73
    24
  0
VERTEX
  5
88
  8
0
 62
     9
 10
0.0
 20
0.0
 30
0.0
 70
   128
 71
    32
 72
    31
 73
     1
  0
VERTEX
  5
89
  8
0
 62
     9
 10
0.0
 20
0.0
 30
0.0
 70
   128
 71
    25
 72
    33
 73
     1
  0
VERTEX
  5
8A
  8
0
 62
     9
 10
0.0
 20
0.0
 30
0.0
 70
   128
 71
     5
 72
     8
 73
    17
  0
VERTEX
  5
8B
  8
0
 62
     9
 10
0.0
 20
0.0
 30
0.0
 70
   128
 71
     5
 72
    27
 73
    28
  0
VERTEX
  5
8C
  8
0
 62
     9
 10
0.0
 20
0.0
 30
0.0
 70
   128
 71
    10
 72
    22
 73
    23
  0
VERTEX
  5
8D
  8
0
 62
     9
 10
0.0
 20
0.0
 30
0.0
 70
   128
 71
     1
 72
    31
 73
     3
  0
VERTEX
  5
8E
  8
0
 62
     9
 10
0.0
 20
0.0
 30
0.0
 70
   128
 71
     5
 72
    26
 73
    19
  0
VERTEX
  5
8F
  8
0
 62
     9
 10
0.0
 20
0.0
 30
0.0
 70
   128
 71
     1
 72
    10
 73
    32
  0
VERTEX
  5
90
  8
0
 62
     9
 10
0.0
 20
0.0
 30
0.0
 70
   128
 71
    20
 72
    34
 73
     5
  0
VERTEX
  5
91
  8
0
 62
     9
 10
0.0
 20
0.0
 30
0.0
 70
   128
 71
    33
 72
    35
 73
     1
  0
VERTEX
  5
92
  8
0
 62
     9
 10
0.0
 20
0.0
 30
0.0
 70
   128
 71
     5
 72
    36
 73
     7
  0
VERTEX
  5
93
  8
0
 62
     9
 10
0.0
 20
0.0
 30
0.0
 70
   128
 71
    38
 72
    34
 73
    37
  0
VERTEX
  5
94
  8
0
 62
     9
 10
0.0
 20
0.0
 30
0.0
 70
   128
 71
    10
 72
     1
 73
    29
  0
VERTEX
  5
95
  8
0
 62
     9
 10
0.0
 20
0.0
 30
0.0
 70
   128
 71
    37
 72
    35
 73
    38
  0
VERTEX
  5
96
  8
0
 62
     9
 10
0.0
 20
0.0
 30
0.0
 70
   128
 71
    34
 72
    38
 73
     5
  0
VERTEX
  5
97
  8
0
 62
     9
 10
0.0
 20
0.0
 30
0.0
 70
   128
 71
    35
 72
    37
 73
     1
  0
SEQEND
  5
98
  8
0
 62
     9
  0
ENDBLK
  5
9B
  8
0
  0
BLOCK
  8
0
  2
E3_NODE_2_
 70
     0
 10
0.0
 20
0.0
 30
0.0
  3
E3_NODE_2_
  1

  0
POLYLINE
  5
9D
  8
0
 62
     9
 66
     1
 10
0.0
 20
0.0
 30
0.0
 70
    64
 71
   103
 72
   101
  0
VERTEX
  5
9E
  8
0
 10
0.1000000014901161
 20
28.0
 30
25.5
 70
   192
  0
VERTEX
  5
9F
  8
0
 10
7.126999855041504
 20
28.0
 30
25.5
 70
   192
  0
VERTEX
  5
A0
  8
0
 10
7.126999855041504
 20
27.99900054931641
 30
25.53300094604492
 70
   192
  0
VERTEX
  5
A1
  8
0
 10
0.1000000014901161
 20
27.98299980163574
 30
26.47699928283691
 70
   192
  0
VERTEX
  5
A2
  8
0
 10
7.122000217437744
 20
27.96199989318848
 30
26.47599983215332
 70
   192
  0
VERTEX
  5
A3
  8
0
 10
0.1000000014901161
 20
27.2819995880127
 30
31.79899978637695
 70
   192
  0
VERTEX
  5
A4
  8
0
 10
7.107999801635742
 20
27.75399971008301
 30
29.06599998474121
 70
   192
  0
VERTEX
  5
A5
  8
0
 10
7.116000175476074
 20
27.91699981689453
 30
27.6560001373291
 70
   192
  0
VERTEX
  5
A6
  8
0
 10
7.104000091552734
 20
27.67200088500977
 30
29.77300071716309
 70
   192
  0
VERTEX
  5
A7
  8
0
 10
0.1000000014901161
 20
25.57900047302246
 30
36.88899993896484
 70
   192
  0
VERTEX
  5
A8
  8
0
 10
7.083000183105469
 20
26.70499992370605
 30
33.91600036621094
 70
   192
  0
VERTEX
  5
A9
  8
0
 10
7.072999954223633
 20
26.01600074768066
 30
35.84500122070312
 70
   192
  0
VERTEX
  5
AA
  8
0
 10
7.072000026702881
 20
25.98999977111816
 30
35.91799926757812
 70
   192
  0
VERTEX
  5
AB
  8
0
 10
7.092999935150146
 20
27.26700019836426
 30
31.86300086975098
 70
   192
  0
VERTEX
  5
AC
  8
0
 10
7.090000152587891
 20
27.09000015258789
 30
32.51200103759766
 70
   192
  0
VERTEX
  5
AD
  8
0
 10
7.093999862670898
 20
27.28000068664551
 30
31.79800033569336
 70
   192
  0
VERTEX
  5
AE
  8
0
 10
0.1000000014901161
 20
22.93600082397461
 30
41.56000137329102
 70
   192
  0
VERTEX
  5
AF
  8
0
 10
7.052999973297119
 20
24.11599922180176
 30
39.72800064086914
 70
   192
  0
VERTEX
  5
B0
  8
0
 10
7.043000221252441
 20
22.9689998626709
 30
41.51300048828125
 70
   192
  0
VERTEX
  5
B1
  8
0
 10
7.056000232696533
 20
24.49399948120117
 30
39.02799987792969
 70
   192
  0
VERTEX
  5
B2
  8
0
 10
7.061999797821045
 20
25.125
 30
37.85900115966797
 70
   192
  0
VERTEX
  5
B3
  8
0
 10
7.066999912261963
 20
25.56100082397461
 30
36.88000106811523
 70
   192
  0
VERTEX
  5
B4
  8
0
 10
0.1000000014901161
 20
19.45000076293945
 30
45.64199829101562
 70
   192
  0
VERTEX
  5
B5
  8
0
 10
7.033999919891357
 20
21.6919994354248
 30
43.20500183105469
 70
   192
  0
VERTEX
  5
B6
  8
0
 10
7.026000022888184
 20
20.38100051879883
 30
44.69300079345703
 70
   192
  0
VERTEX
  5
B7
  8
0
 10
7.026000022888184
 20
20.29199981689453
 30
44.79299926757812
 70
   192
  0
VERTEX
  5
B8
  8
0
 10
7.043000221252441
 20
22.93499946594238
 30
41.55899810791016
 70
   192
  0
VERTEX
  5
B9
  8
0
 10
7.040999889373779
 20
22.61400032043457
 30
41.98300170898438
 70
   192
  0
VERTEX
  5
BA
  8
0
 10
7.013000011444092
 20
17.79599952697754
 30
47.09199905395508
 70
   192
  0
VERTEX
  5
BB
  8
0
 10
7.010000228881836
 20
17.15800094604492
 30
47.62699890136719
 70
   192
  0
VERTEX
  5
BC
  8
0
 10
7.01800012588501
 20
18.77799987792969
 30
46.27000045776367
 70
   192
  0
VERTEX
  5
BD
  8
0
 10
0.1000000014901161
 20
15.25
 30
48.98300170898438
 70
   192
  0
VERTEX
  5
BE
  8
0
 10
7.020999908447266
 20
19.4370002746582
 30
45.62699890136719
 70
   192
  0
VERTEX
  5
BF
  8
0
 10
7.002999782562256
 20
15.44299983978271
 30
48.85599899291992
 70
   192
  0
VERTEX
  5
C0
  8
0
 10
0.1000000014901161
 20
10.48900032043457
 30
51.46099853515625
 70
   192
  0
VERTEX
  5
C1
  8
0
 10
6.997000217437744
 20
13.64299964904785
 30
49.95100021362305
 70
   192
  0
VERTEX
  5
C2
  8
0
 10
6.992000102996826
 20
11.88300037384033
 30
50.84799957275391
 70
   192
  0
VERTEX
  5
C3
  8
0
 10
7.002999782562256
 20
15.24600028991699
 30
48.97600173950195
 70
   192
  0
VERTEX
  5
C4
  8
0
 10
7.001999855041504
 20
14.9680004119873
 30
49.14500045776367
 70
   192
  0
VERTEX
  5
C5
  8
0
 10
6.991000175476074
 20
11.76900005340576
 30
50.90700149536133
 70
   192
  0
VERTEX
  5
C6
  8
0
 10
6.982999801635742
 20
8.609000205993652
 30
52.12400054931641
 70
   192
  0
VERTEX
  5
C7
  8
0
 10
6.98199987411499
 20
7.843999862670898
 30
52.37900161743164
 70
   192
  0
VERTEX
  5
C8
  8
0
 10
6.986000061035156
 20
9.831999778747559
 30
51.71699905395508
 70
   192
  0
VERTEX
  5
C9
  8
0
 10
6.98799991607666
 20
10.48200035095215
 30
51.44499969482422
 70
   192
  0
VERTEX
  5
CA
  8
0
 10
0.1000000014901161
 20
5.342999935150146
 30
52.98600006103516
 70
   192
  0
VERTEX
  5
CB
  8
0
 10
6.978000164031982
 20
5.815999984741211
 30
52.88899993896484
 70
   192
  0
VERTEX
  5
CC
  8
0
 10
6.97599983215332
 20
3.76200008392334
 30
53.24599838256836
 70
   192
  0
VERTEX
  5
CD
  8
0
 10
6.973999977111816
 20
1.720999956130981
 30
53.44599914550781
 70
   192
  0
VERTEX
  5
CE
  8
0
 10
0.1000000014901161
 20
0.0
 30
53.5
 70
   192
  0
VERTEX
  5
CF
  8
0
 10
6.978000164031982
 20
5.340000152587891
 30
52.97200012207031
 70
   192
  0
VERTEX
  5
D0
  8
0
 10
6.978000164031982
 20
5.21999979019165
 30
52.99300003051758
 70
   192
  0
VERTEX
  5
D1
  8
0
 10
6.973999977111816
 20
1.694000005722046
 30
53.44900131225586
 70
   192
  0
VERTEX
  5
D2
  8
0
 10
0.1000000014901161
 20
-5.342999935150146
 30
52.98600006103516
 70
   192
  0
VERTEX
  5
D3
  8
0
 10
6.97700023651123
 20
-4.828999996185303
 30
53.08000183105469
 70
   192
  0
VERTEX
  5
D4
  8
0
 10
6.978000164031982
 20
-5.26200008392334
 30
52.98600006103516
 70
   192
  0
VERTEX
  5
D5
  8
0
 10
6.974999904632568
 20
-2.578000068664551
 30
53.38100051879883
 70
   192
  0
VERTEX
  5
D6
  8
0
 10
6.973999977111816
 20
-0.3799999952316284
 30
53.49700164794922
 70
   192
  0
VERTEX
  5
D7
  8
0
 10
6.973999977111816
 20
-1.781000018119812
 30
53.42300033569336
 70
   192
  0
VERTEX
  5
D8
  8
0
 10
6.973999977111816
 20
0.0
 30
53.48899841308594
 70
   192
  0
VERTEX
  5
D9
  8
0
 10
6.980000019073486
 20
-7.040999889373779
 30
52.59999847412109
 70
   192
  0
VERTEX
  5
DA
  8
0
 10
6.984000205993652
 20
-8.675999641418457
 30
52.10400009155273
 70
   192
  0
VERTEX
  5
DB
  8
0
 10
0.1000000014901161
 20
-10.48900032043457
 30
51.46099853515625
 70
   192
  0
VERTEX
  5
DC
  8
0
 10
6.985000133514404
 20
-9.199000358581543
 30
51.94599914550781
 70
   192
  0
VERTEX
  5
DD
  8
0
 10
6.978000164031982
 20
-5.339000225067139
 30
52.97000122070312
 70
   192
  0
VERTEX
  5
DE
  8
0
 10
0.1000000014901161
 20
-15.25
 30
48.98300170898438
 70
   192
  0
VERTEX
  5
DF
  8
0
 10
6.995999813079834
 20
-13.30500030517578
 30
50.13700103759766
 70
   192
  0
VERTEX
  5
E0
  8
0
 10
7.001999855041504
 20
-15.01599979400635
 30
49.12300109863281
 70
   192
  0
VERTEX
  5
E1
  8
0
 10
7.002999782562256
 20
-15.22900009155273
 30
48.99599838256836
 70
   192
  0
VERTEX
  5
E2
  8
0
 10
6.992000102996826
 20
-11.92700004577637
 30
50.81100082397461
 70
   192
  0
VERTEX
  5
E3
  8
0
 10
6.989999771118164
 20
-11.29100036621094
 30
51.12300109863281
 70
   192
  0
VERTEX
  5
E4
  8
0
 10
6.98799991607666
 20
-10.48099994659424
 30
51.44100189208984
 70
   192
  0
VERTEX
  5
E5
  8
0
 10
0.1000000014901161
 20
-19.45000076293945
 30
45.64199829101562
 70
   192
  0
VERTEX
  5
E6
  8
0
 10
7.010000228881836
 20
-17.05299949645996
 30
47.70800018310547
 70
   192
  0
VERTEX
  5
E7
  8
0
 10
7.013999938964844
 20
-17.85199928283691
 30
47.04199981689453
 70
   192
  0
VERTEX
  5
E8
  8
0
 10
7.002999782562256
 20
-15.24899959564209
 30
48.98199844360352
 70
   192
  0
VERTEX
  5
E9
  8
0
 10
7.01800012588501
 20
-18.76499938964844
 30
46.28099822998047
 70
   192
  0
VERTEX
  5
EA
  8
0
 10
0.1000000014901161
 20
-22.93600082397461
 30
41.56000137329102
 70
   192
  0
VERTEX
  5
EB
  8
0
 10
7.034999847412109
 20
-21.8169994354248
 30
43.04999923706055
 70
   192
  0
VERTEX
  5
EC
  8
0
 10
7.040999889373779
 20
-22.64699935913086
 30
41.93000030517578
 70
   192
  0
VERTEX
  5
ED
  8
0
 10
7.026999950408936
 20
-20.41200065612793
 30
44.6609992980957
 70
   192
  0
VERTEX
  5
EE
  8
0
 10
7.026000022888184
 20
-20.35600090026855
 30
44.72499847412109
 70
   192
  0
VERTEX
  5
EF
  8
0
 10
7.020999908447266
 20
-19.43499946594238
 30
45.62599945068359
 70
   192
  0
VERTEX
  5
F0
  8
0
 10
0.1000000014901161
 20
-25.57900047302246
 30
36.88899993896484
 70
   192
  0
VERTEX
  5
F1
  8
0
 10
7.053999900817871
 20
-24.31399917602539
 30
39.38700103759766
 70
   192
  0
VERTEX
  5
F2
  8
0
 10
7.056000232696533
 20
-24.52700042724609
 30
38.97600173950195
 70
   192
  0
VERTEX
  5
F3
  8
0
 10
7.043000221252441
 20
-22.92700004577637
 30
41.55300140380859
 70
   192
  0
VERTEX
  5
F4
  8
0
 10
7.045000076293945
 20
-23.13899993896484
 30
41.26699829101562
 70
   192
  0
VERTEX
  5
F5
  8
0
 10
7.065000057220459
 20
-25.33499908447266
 30
37.42200088500977
 70
   192
  0
VERTEX
  5
F6
  8
0
 10
0.1000000014901161
 20
-27.2819995880127
 30
31.79899978637695
 70
   192
  0
VERTEX
  5
F7
  8
0
 10
7.085999965667725
 20
-26.89599990844727
 30
33.2869987487793
 70
   192
  0
VERTEX
  5
F8
  8
0
 10
7.090000152587891
 20
-27.10300064086914
 30
32.44699859619141
 70
   192
  0
VERTEX
  5
F9
  8
0
 10
7.074999809265137
 20
-26.19700050354004
 30
35.38399887084961
 70
   192
  0
VERTEX
  5
FA
  8
0
 10
7.066999912261963
 20
-25.56399917602539
 30
36.88199996948242
 70
   192
  0
VERTEX
  5
FB
  8
0
 10
7.072999954223633
 20
-26.02099990844727
 30
35.80199813842773
 70
   192
  0
VERTEX
  5
FC
  8
0
 10
7.097000122070312
 20
-27.42600059509277
 30
31.14200019836426
 70
   192
  0
VERTEX
  5
FD
  8
0
 10
7.107999801635742
 20
-27.77700042724609
 30
29.01300048828125
 70
   192
  0
VERTEX
  5
FE
  8
0
 10
0.1000000014901161
 20
-27.98299980163574
 30
26.47699928283691
 70
   192
  0
VERTEX
  5
FF
  8
0
 10
7.093999862670898
 20
-27.26399993896484
 30
31.79400062561035
 70
   192
  0
VERTEX
  5
100
  8
0
 10
7.109000205993652
 20
-27.78499984741211
 30
28.9640007019043
 70
   192
  0
VERTEX
  5
101
  8
0
 10
7.119999885559082
 20
-27.97100067138672
 30
26.76600074768066
 70
   192
  0
VERTEX
  5
102
  8
0
 10
0.1000000014901161
 20
-28.0
 30
25.5
 70
   192
  0
VERTEX
  5
103
  8
0
 10
7.122000217437744
 20
-27.97800064086914
 30
26.47699928283691
 70
   192
  0
VERTEX
  5
104
  8
0
 10
7.126999855041504
 20
-28.0
 30
25.5
 70
   192
  0
VERTEX
  5
105
  8
0
 62
     9
 10
0.0
 20
0.0
 30
0.0
 70
   128
 71
     3
 72
     2
 73
     1
  0
VERTEX
  5
106
  8
0
 62
     9
 10
0.0
 20
0.0
 30
0.0
 70
   128
 71
     1
 72
     4
 73
     3
  0
VERTEX
  5
107
  8
0
 62
     9
 10
0.0
 20
0.0
 30
0.0
 70
   128
 71
     4
 72
     5
 73
     3
  0
VERTEX
  5
108
  8
0
 62
     9
 10
0.0
 20
0.0
 30
0.0
 70
   128
 71
     7
 72
     4
 73
     6
  0
VERTEX
  5
109
  8
0
 62
     9
 10
0.0
 20
0.0
 30
0.0
 70
   128
 71
     7
 72
     8
 73
     4
  0
VERTEX
  5
10A
  8
0
 62
     9
 10
0.0
 20
0.0
 30
0.0
 70
   128
 71
     6
 72
     9
 73
     7
  0
VERTEX
  5
10B
  8
0
 62
     9
 10
0.0
 20
0.0
 30
0.0
 70
   128
 71
     8
 72
     5
 73
     4
  0
VERTEX
  5
10C
  8
0
 62
     9
 10
0.0
 20
0.0
 30
0.0
 70
   128
 71
    11
 72
     6
 73
    10
  0
VERTEX
  5
10D
  8
0
 62
     9
 10
0.0
 20
0.0
 30
0.0
 70
   128
 71
    10
 72
    12
 73
    11
  0
VERTEX
  5
10E
  8
0
 62
     9
 10
0.0
 20
0.0
 30
0.0
 70
   128
 71
    10
 72
    13
 73
    12
  0
VERTEX
  5
10F
  8
0
 62
     9
 10
0.0
 20
0.0
 30
0.0
 70
   128
 71
    15
 72
    14
 73
     6
  0
VERTEX
  5
110
  8
0
 62
     9
 10
0.0
 20
0.0
 30
0.0
 70
   128
 71
     6
 72
    11
 73
    15
  0
VERTEX
  5
111
  8
0
 62
     9
 10
0.0
 20
0.0
 30
0.0
 70
   128
 71
    14
 72
    16
 73
     6
  0
VERTEX
  5
112
  8
0
 62
     9
 10
0.0
 20
0.0
 30
0.0
 70
   128
 71
    19
 72
    18
 73
    17
  0
VERTEX
  5
113
  8
0
 62
     9
 10
0.0
 20
0.0
 30
0.0
 70
   128
 71
    20
 72
    10
 73
    17
  0
VERTEX
  5
114
  8
0
 62
     9
 10
0.0
 20
0.0
 30
0.0
 70
   128
 71
    20
 72
    21
 73
    10
  0
VERTEX
  5
115
  8
0
 62
     9
 10
0.0
 20
0.0
 30
0.0
 70
   128
 71
    17
 72
    18
 73
    20
  0
VERTEX
  5
116
  8
0
 62
     9
 10
0.0
 20
0.0
 30
0.0
 70
   128
 71
    21
 72
    22
 73
    10
  0
VERTEX
  5
117
  8
0
 62
     9
 10
0.0
 20
0.0
 30
0.0
 70
   128
 71
    24
 72
    17
 73
    23
  0
VERTEX
  5
118
  8
0
 62
     9
 10
0.0
 20
0.0
 30
0.0
 70
   128
 71
    23
 72
    25
 73
    24
  0
VERTEX
  5
119
  8
0
 62
     9
 10
0.0
 20
0.0
 30
0.0
 70
   128
 71
    23
 72
    26
 73
    25
  0
VERTEX
  5
11A
  8
0
 62
     9
 10
0.0
 20
0.0
 30
0.0
 70
   128
 71
    28
 72
    27
 73
    17
  0
VERTEX
  5
11B
  8
0
 62
     9
 10
0.0
 20
0.0
 30
0.0
 70
   128
 71
    17
 72
    24
 73
    28
  0
VERTEX
  5
11C
  8
0
 62
     9
 10
0.0
 20
0.0
 30
0.0
 70
   128
 71
    30
 72
    29
 73
    23
  0
VERTEX
  5
11D
  8
0
 62
     9
 10
0.0
 20
0.0
 30
0.0
 70
   128
 71
    29
 72
    31
 73
    23
  0
VERTEX
  5
11E
  8
0
 62
     9
 10
0.0
 20
0.0
 30
0.0
 70
   128
 71
    23
 72
    32
 73
    30
  0
VERTEX
  5
11F
  8
0
 62
     9
 10
0.0
 20
0.0
 30
0.0
 70
   128
 71
    31
 72
    33
 73
    23
  0
VERTEX
  5
120
  8
0
 62
     9
 10
0.0
 20
0.0
 30
0.0
 70
   128
 71
    32
 72
    34
 73
    30
  0
VERTEX
  5
121
  8
0
 62
     9
 10
0.0
 20
0.0
 30
0.0
 70
   128
 71
    36
 72
    32
 73
    35
  0
VERTEX
  5
122
  8
0
 62
     9
 10
0.0
 20
0.0
 30
0.0
 70
   128
 71
    35
 72
    37
 73
    36
  0
VERTEX
  5
123
  8
0
 62
     9
 10
0.0
 20
0.0
 30
0.0
 70
   128
 71
    39
 72
    38
 73
    32
  0
VERTEX
  5
124
  8
0
 62
     9
 10
0.0
 20
0.0
 30
0.0
 70
   128
 71
    32
 72
    36
 73
    39
  0
VERTEX
  5
125
  8
0
 62
     9
 10
0.0
 20
0.0
 30
0.0
 70
   128
 71
    35
 72
    40
 73
    37
  0
VERTEX
  5
126
  8
0
 62
     9
 10
0.0
 20
0.0
 30
0.0
 70
   128
 71
    42
 72
    41
 73
    35
  0
VERTEX
  5
127
  8
0
 62
     9
 10
0.0
 20
0.0
 30
0.0
 70
   128
 71
    41
 72
    43
 73
    35
  0
VERTEX
  5
128
  8
0
 62
     9
 10
0.0
 20
0.0
 30
0.0
 70
   128
 71
    43
 72
    44
 73
    35
  0
VERTEX
  5
129
  8
0
 62
     9
 10
0.0
 20
0.0
 30
0.0
 70
   128
 71
    35
 72
    45
 73
    42
  0
VERTEX
  5
12A
  8
0
 62
     9
 10
0.0
 20
0.0
 30
0.0
 70
   128
 71
    45
 72
    46
 73
    42
  0
VERTEX
  5
12B
  8
0
 62
     9
 10
0.0
 20
0.0
 30
0.0
 70
   128
 71
    48
 72
    47
 73
    45
  0
VERTEX
  5
12C
  8
0
 62
     9
 10
0.0
 20
0.0
 30
0.0
 70
   128
 71
    45
 72
    49
 73
    48
  0
VERTEX
  5
12D
  8
0
 62
     9
 10
0.0
 20
0.0
 30
0.0
 70
   128
 71
    51
 72
    50
 73
    45
  0
VERTEX
  5
12E
  8
0
 62
     9
 10
0.0
 20
0.0
 30
0.0
 70
   128
 71
    45
 72
    47
 73
    51
  0
VERTEX
  5
12F
  8
0
 62
     9
 10
0.0
 20
0.0
 30
0.0
 70
   128
 71
    49
 72
    52
 73
    48
  0
VERTEX
  5
130
  8
0
 62
     9
 10
0.0
 20
0.0
 30
0.0
 70
   128
 71
    55
 72
    54
 73
    53
  0
VERTEX
  5
131
  8
0
 62
     9
 10
0.0
 20
0.0
 30
0.0
 70
   128
 71
    56
 72
    49
 73
    53
  0
VERTEX
  5
132
  8
0
 62
     9
 10
0.0
 20
0.0
 30
0.0
 70
   128
 71
    53
 72
    54
 73
    56
  0
VERTEX
  5
133
  8
0
 62
     9
 10
0.0
 20
0.0
 30
0.0
 70
   128
 71
    58
 72
    57
 73
    49
  0
VERTEX
  5
134
  8
0
 62
     9
 10
0.0
 20
0.0
 30
0.0
 70
   128
 71
    49
 72
    56
 73
    58
  0
VERTEX
  5
135
  8
0
 62
     9
 10
0.0
 20
0.0
 30
0.0
 70
   128
 71
    57
 72
    59
 73
    49
  0
VERTEX
  5
136
  8
0
 62
     9
 10
0.0
 20
0.0
 30
0.0
 70
   128
 71
    61
 72
    60
 73
    53
  0
VERTEX
  5
137
  8
0
 62
     9
 10
0.0
 20
0.0
 30
0.0
 70
   128
 71
    53
 72
    62
 73
    61
  0
VERTEX
  5
138
  8
0
 62
     9
 10
0.0
 20
0.0
 30
0.0
 70
   128
 71
    62
 72
    63
 73
    61
  0
VERTEX
  5
139
  8
0
 62
     9
 10
0.0
 20
0.0
 30
0.0
 70
   128
 71
    60
 72
    64
 73
    53
  0
VERTEX
  5
13A
  8
0
 62
     9
 10
0.0
 20
0.0
 30
0.0
 70
   128
 71
    67
 72
    66
 73
    65
  0
VERTEX
  5
13B
  8
0
 62
     9
 10
0.0
 20
0.0
 30
0.0
 70
   128
 71
    65
 72
    68
 73
    67
  0
VERTEX
  5
13C
  8
0
 62
     9
 10
0.0
 20
0.0
 30
0.0
 70
   128
 71
    66
 72
    69
 73
    62
  0
VERTEX
  5
13D
  8
0
 62
     9
 10
0.0
 20
0.0
 30
0.0
 70
   128
 71
    69
 72
    70
 73
    62
  0
VERTEX
  5
13E
  8
0
 62
     9
 10
0.0
 20
0.0
 30
0.0
 70
   128
 71
    62
 72
    65
 73
    66
  0
VERTEX
  5
13F
  8
0
 62
     9
 10
0.0
 20
0.0
 30
0.0
 70
   128
 71
    70
 72
    71
 73
    62
  0
VERTEX
  5
140
  8
0
 62
     9
 10
0.0
 20
0.0
 30
0.0
 70
   128
 71
    73
 72
    65
 73
    72
  0
VERTEX
  5
141
  8
0
 62
     9
 10
0.0
 20
0.0
 30
0.0
 70
   128
 71
    72
 72
    74
 73
    73
  0
VERTEX
  5
142
  8
0
 62
     9
 10
0.0
 20
0.0
 30
0.0
 70
   128
 71
    73
 72
    75
 73
    65
  0
VERTEX
  5
143
  8
0
 62
     9
 10
0.0
 20
0.0
 30
0.0
 70
   128
 71
    72
 72
    76
 73
    74
  0
VERTEX
  5
144
  8
0
 62
     9
 10
0.0
 20
0.0
 30
0.0
 70
   128
 71
    79
 72
    78
 73
    77
  0
VERTEX
  5
145
  8
0
 62
     9
 10
0.0
 20
0.0
 30
0.0
 70
   128
 71
    78
 72
    80
 73
    72
  0
VERTEX
  5
146
  8
0
 62
     9
 10
0.0
 20
0.0
 30
0.0
 70
   128
 71
    80
 72
    81
 73
    72
  0
VERTEX
  5
147
  8
0
 62
     9
 10
0.0
 20
0.0
 30
0.0
 70
   128
 71
    81
 72
    82
 73
    72
  0
VERTEX
  5
148
  8
0
 62
     9
 10
0.0
 20
0.0
 30
0.0
 70
   128
 71
    72
 72
    77
 73
    78
  0
VERTEX
  5
149
  8
0
 62
     9
 10
0.0
 20
0.0
 30
0.0
 70
   128
 71
    84
 72
    77
 73
    83
  0
VERTEX
  5
14A
  8
0
 62
     9
 10
0.0
 20
0.0
 30
0.0
 70
   128
 71
    83
 72
    85
 73
    84
  0
VERTEX
  5
14B
  8
0
 62
     9
 10
0.0
 20
0.0
 30
0.0
 70
   128
 71
    87
 72
    86
 73
    77
  0
VERTEX
  5
14C
  8
0
 62
     9
 10
0.0
 20
0.0
 30
0.0
 70
   128
 71
    77
 72
    84
 73
    87
  0
VERTEX
  5
14D
  8
0
 62
     9
 10
0.0
 20
0.0
 30
0.0
 70
   128
 71
    83
 72
    88
 73
    85
  0
VERTEX
  5
14E
  8
0
 62
     9
 10
0.0
 20
0.0
 30
0.0
 70
   128
 71
    91
 72
    90
 73
    89
  0
VERTEX
  5
14F
  8
0
 62
     9
 10
0.0
 20
0.0
 30
0.0
 70
   128
 71
    92
 72
    83
 73
    89
  0
VERTEX
  5
150
  8
0
 62
     9
 10
0.0
 20
0.0
 30
0.0
 70
   128
 71
    94
 72
    93
 73
    83
  0
VERTEX
  5
151
  8
0
 62
     9
 10
0.0
 20
0.0
 30
0.0
 70
   128
 71
    83
 72
    92
 73
    94
  0
VERTEX
  5
152
  8
0
 62
     9
 10
0.0
 20
0.0
 30
0.0
 70
   128
 71
    89
 72
    90
 73
    92
  0
VERTEX
  5
153
  8
0
 62
     9
 10
0.0
 20
0.0
 30
0.0
 70
   128
 71
    96
 72
    95
 73
    89
  0
VERTEX
  5
154
  8
0
 62
     9
 10
0.0
 20
0.0
 30
0.0
 70
   128
 71
    89
 72
    97
 73
    96
  0
VERTEX
  5
155
  8
0
 62
     9
 10
0.0
 20
0.0
 30
0.0
 70
   128
 71
    95
 72
    98
 73
    89
  0
VERTEX
  5
156
  8
0
 62
     9
 10
0.0
 20
0.0
 30
0.0
 70
   128
 71
    97
 72
    99
 73
    96
  0
VERTEX
  5
157
  8
0
 62
     9
 10
0.0
 20
0.0
 30
0.0
 70
   128
 71
    97
 72
   100
 73
    99
  0
VERTEX
  5
158
  8
0
 62
     9
 10
0.0
 20
0.0
 30
0.0
 70
   128
 71
   102
 72
    97
 73
   101
  0
VERTEX
  5
159
  8
0
 62
     9
 10
0.0
 20
0.0
 30
0.0
 70
   128
 71
   101
 72
   103
 73
   102
  0
VERTEX
  5
15A
  8
0
 62
     9
 10
0.0
 20
0.0
 30
0.0
 70
   128
 71
    97
 72
   102
 73
   100
  0
VERTEX
  5
15B
  8
0
 62
     9
 10
0.0
 20
0.0
 30
0.0
 70
   128
 71
    89
 72
    98
 73
    91
  0
VERTEX
  5
15C
  8
0
 62
     9
 10
0.0
 20
0.0
 30
0.0
 70
   128
 71
    83
 72
    93
 73
    88
  0
VERTEX
  5
15D
  8
0
 62
     9
 10
0.0
 20
0.0
 30
0.0
 70
   128
 71
    77
 72
    86
 73
    79
  0
VERTEX
  5
15E
  8
0
 62
     9
 10
0.0
 20
0.0
 30
0.0
 70
   128
 71
    72
 72
    82
 73
    76
  0
VERTEX
  5
15F
  8
0
 62
     9
 10
0.0
 20
0.0
 30
0.0
 70
   128
 71
    65
 72
    75
 73
    68
  0
VERTEX
  5
160
  8
0
 62
     9
 10
0.0
 20
0.0
 30
0.0
 70
   128
 71
    62
 72
    71
 73
    63
  0
VERTEX
  5
161
  8
0
 62
     9
 10
0.0
 20
0.0
 30
0.0
 70
   128
 71
    53
 72
    64
 73
    55
  0
VERTEX
  5
162
  8
0
 62
     9
 10
0.0
 20
0.0
 30
0.0
 70
   128
 71
    49
 72
    59
 73
    52
  0
VERTEX
  5
163
  8
0
 62
     9
 10
0.0
 20
0.0
 30
0.0
 70
   128
 71
    45
 72
    50
 73
    46
  0
VERTEX
  5
164
  8
0
 62
     9
 10
0.0
 20
0.0
 30
0.0
 70
   128
 71
    35
 72
    44
 73
    40
  0
VERTEX
  5
165
  8
0
 62
     9
 10
0.0
 20
0.0
 30
0.0
 70
   128
 71
    32
 72
    38
 73
    34
  0
VERTEX
  5
166
  8
0
 62
     9
 10
0.0
 20
0.0
 30
0.0
 70
   128
 71
    23
 72
    33
 73
    26
  0
VERTEX
  5
167
  8
0
 62
     9
 10
0.0
 20
0.0
 30
0.0
 70
   128
 71
    17
 72
    27
 73
    19
  0
VERTEX
  5
168
  8
0
 62
     9
 10
0.0
 20
0.0
 30
0.0
 70
   128
 71
    10
 72
    22
 73
    13
  0
VERTEX
  5
169
  8
0
 62
     9
 10
0.0
 20
0.0
 30
0.0
 70
   128
 71
     6
 72
    16
 73
     9
  0
SEQEND
  5
16A
  8
0
 62
     9
  0
ENDBLK
  5
16D
  8
0
  0
BLOCK
  8
0
  2
E3_NODE_3_
 70
     0
 10
0.0
 20
0.0
 30
0.0
  3
E3_NODE_3_
  1

  0
POLYLINE
  5
16F
  8
0
 62
     9
 66
     1
 10
0.0
 20
0.0
 30
0.0
 70
    64
 71
    10
 72
     8
  0
VERTEX
  5
170
  8
0
 10
0.1000000014901161
 20
28.0
 30
-25.5
 70
   192
  0
VERTEX
  5
171
  8
0
 10
7.196000099182129
 20
28.0
 30
-12.44799995422363
 70
   192
  0
VERTEX
  5
172
  8
0
 10
7.269000053405762
 20
28.0
 30
1.401000022888184
 70
   192
  0
VERTEX
  5
173
  8
0
 10
0.1000000014901161
 20
28.0
 30
25.5
 70
   192
  0
VERTEX
  5
174
  8
0
 10
7.190000057220459
 20
28.0
 30
14.90299987792969
 70
   192
  0
VERTEX
  5
175
  8
0
 10
7.14799976348877
 20
28.0
 30
21.98999977111816
 70
   192
  0
VERTEX
  5
176
  8
0
 10
7.179999828338623
 20
28.0
 30
-15.55599975585938
 70
   192
  0
VERTEX
  5
177
  8
0
 10
7.127999782562256
 20
28.0
 30
-25.5
 70
   192
  0
VERTEX
  5
178
  8
0
 10
7.157999992370605
 20
28.0
 30
-19.72100067138672
 70
   192
  0
VERTEX
  5
179
  8
0
 10
7.126999855041504
 20
28.0
 30
25.5
 70
   192
  0
VERTEX
  5
17A
  8
0
 62
     9
 10
0.0
 20
0.0
 30
0.0
 70
   128
 71
     3
 72
     2
 73
     1
  0
VERTEX
  5
17B
  8
0
 62
     9
 10
0.0
 20
0.0
 30
0.0
 70
   128
 71
     1
 72
     4
 73
     3
  0
VERTEX
  5
17C
  8
0
 62
     9
 10
0.0
 20
0.0
 30
0.0
 70
   128
 71
     6
 72
     5
 73
     4
  0
VERTEX
  5
17D
  8
0
 62
     9
 10
0.0
 20
0.0
 30
0.0
 70
   128
 71
     2
 72
     7
 73
     1
  0
VERTEX
  5
17E
  8
0
 62
     9
 10
0.0
 20
0.0
 30
0.0
 70
   128
 71
     4
 72
     5
 73
     3
  0
VERTEX
  5
17F
  8
0
 62
     9
 10
0.0
 20
0.0
 30
0.0
 70
   128
 71
     9
 72
     8
 73
     1
  0
VERTEX
  5
180
  8
0
 62
     9
 10
0.0
 20
0.0
 30
0.0
 70
   128
 71
     1
 72
     7
 73
     9
  0
VERTEX
  5
181
  8
0
 62
     9
 10
0.0
 20
0.0
 30
0.0
 70
   128
 71
     4
 72
    10
 73
     6
  0
SEQEND
  5
182
  8
0
 62
     9
  0
ENDBLK
  5
185
  8
0
  0
BLOCK
  8
0
  2
E3_NODE_4_
 70
     0
 10
0.0
 20
0.0
 30
0.0
  3
E3_NODE_4_
  1

  0
POLYLINE
  5
187
  8
0
 62
     9
 66
     1
 10
0.0
 20
0.0
 30
0.0
 70
    64
 71
   102
 72
   100
  0
VERTEX
  5
188
  8
0
 10
0.1000000014901161
 20
-28.0
 30
-25.5
 70
   192
  0
VERTEX
  5
189
  8
0
 10
7.127999782562256
 20
-28.0
 30
-25.5
 70
   192
  0
VERTEX
  5
18A
  8
0
 10
7.122000217437744
 20
-27.96199989318848
 30
-26.47599983215332
 70
   192
  0
VERTEX
  5
18B
  8
0
 10
0.1000000014901161
 20
-27.2819995880127
 30
-31.79899978637695
 70
   192
  0
VERTEX
  5
18C
  8
0
 10
0.1000000014901161
 20
-27.98299980163574
 30
-26.47699928283691
 70
   192
  0
VERTEX
  5
18D
  8
0
 10
7.107999801635742
 20
-27.74799919128418
 30
-29.1200008392334
 70
   192
  0
VERTEX
  5
18E
  8
0
 10
7.116000175476074
 20
-27.91699981689453
 30
-27.6560001373291
 70
   192
  0
VERTEX
  5
18F
  8
0
 10
7.105000019073486
 20
-27.67200088500977
 30
-29.77300071716309
 70
   192
  0
VERTEX
  5
190
  8
0
 10
0.1000000014901161
 20
-25.57900047302246
 30
-36.88899993896484
 70
   192
  0
VERTEX
  5
191
  8
0
 10
7.072000026702881
 20
-25.98999977111816
 30
-35.91799926757812
 70
   192
  0
VERTEX
  5
192
  8
0
 10
7.072000026702881
 20
-25.92900085449219
 30
-36.05400085449219
 70
   192
  0
VERTEX
  5
193
  8
0
 10
7.083000183105469
 20
-26.70499992370605
 30
-33.91600036621094
 70
   192
  0
VERTEX
  5
194
  8
0
 10
7.093999862670898
 20
-27.26700019836426
 30
-31.86300086975098
 70
   192
  0
VERTEX
  5
195
  8
0
 10
7.089000225067139
 20
-27.05299949645996
 30
-32.64599990844727
 70
   192
  0
VERTEX
  5
196
  8
0
 10
7.093999862670898
 20
-27.28000068664551
 30
-31.79800033569336
 70
   192
  0
VERTEX
  5
197
  8
0
 10
0.1000000014901161
 20
-22.93600082397461
 30
-41.56000137329102
 70
   192
  0
VERTEX
  5
198
  8
0
 10
7.052999973297119
 20
-24.11599922180176
 30
-39.72800064086914
 70
   192
  0
VERTEX
  5
199
  8
0
 10
7.043000221252441
 20
-22.9689998626709
 30
-41.51300048828125
 70
   192
  0
VERTEX
  5
19A
  8
0
 10
7.054999828338623
 20
-24.34499931335449
 30
-39.30300140380859
 70
   192
  0
VERTEX
  5
19B
  8
0
 10
7.061999797821045
 20
-25.125
 30
-37.85900115966797
 70
   192
  0
VERTEX
  5
19C
  8
0
 10
7.066999912261963
 20
-25.56100082397461
 30
-36.88000106811523
 70
   192
  0
VERTEX
  5
19D
  8
0
 10
0.1000000014901161
 20
-19.45000076293945
 30
-45.64199829101562
 70
   192
  0
VERTEX
  5
19E
  8
0
 10
7.026000022888184
 20
-20.29199981689453
 30
-44.79299926757812
 70
   192
  0
VERTEX
  5
19F
  8
0
 10
7.025000095367432
 20
-20.03899955749512
 30
-45.04000091552734
 70
   192
  0
VERTEX
  5
1A0
  8
0
 10
7.034999847412109
 20
-21.6919994354248
 30
-43.20500183105469
 70
   192
  0
VERTEX
  5
1A1
  8
0
 10
7.043000221252441
 20
-22.93499946594238
 30
-41.55899810791016
 70
   192
  0
VERTEX
  5
1A2
  8
0
 10
7.039000034332275
 20
-22.375
 30
-42.29999923706055
 70
   192
  0
VERTEX
  5
1A3
  8
0
 10
7.01800012588501
 20
-18.77799987792969
 30
-46.27000045776367
 70
   192
  0
VERTEX
  5
1A4
  8
0
 10
7.01200008392334
 20
-17.36000061035156
 30
-47.45800018310547
 70
   192
  0
VERTEX
  5
1A5
  8
0
 10
0.1000000014901161
 20
-15.25
 30
-48.98300170898438
 70
   192
  0
VERTEX
  5
1A6
  8
0
 10
7.011000156402588
 20
-17.15800094604492
 30
-47.62699890136719
 70
   192
  0
VERTEX
  5
1A7
  8
0
 10
7.021999835968018
 20
-19.4370002746582
 30
-45.62699890136719
 70
   192
  0
VERTEX
  5
1A8
  8
0
 10
7.004000186920166
 20
-15.44299983978271
 30
-48.85599899291992
 70
   192
  0
VERTEX
  5
1A9
  8
0
 10
0.1000000014901161
 20
-10.48900032043457
 30
-51.46099853515625
 70
   192
  0
VERTEX
  5
1AA
  8
0
 10
6.991000175476074
 20
-11.76900005340576
 30
-50.90700149536133
 70
   192
  0
VERTEX
  5
1AB
  8
0
 10
6.989999771118164
 20
-11.19900035858154
 30
-51.14500045776367
 70
   192
  0
VERTEX
  5
1AC
  8
0
 10
6.997000217437744
 20
-13.64299964904785
 30
-49.95100021362305
 70
   192
  0
VERTEX
  5
1AD
  8
0
 10
7.002999782562256
 20
-15.24600028991699
 30
-48.97600173950195
 70
   192
  0
VERTEX
  5
1AE
  8
0
 10
7.0
 20
-14.4069995880127
 30
-49.48600006103516
 70
   192
  0
VERTEX
  5
1AF
  8
0
 10
0.1000000014901161
 20
-5.342999935150146
 30
-52.98600006103516
 70
   192
  0
VERTEX
  5
1B0
  8
0
 10
6.98199987411499
 20
-7.843999862670898
 30
-52.37900161743164
 70
   192
  0
VERTEX
  5
1B1
  8
0
 10
6.98199987411499
 20
-7.826000213623047
 30
-52.38299942016602
 70
   192
  0
VERTEX
  5
1B2
  8
0
 10
6.986000061035156
 20
-9.831999778747559
 30
-51.71699905395508
 70
   192
  0
VERTEX
  5
1B3
  8
0
 10
6.98799991607666
 20
-10.48200035095215
 30
-51.44499969482422
 70
   192
  0
VERTEX
  5
1B4
  8
0
 10
6.979000091552734
 20
-5.815999984741211
 30
-52.88899993896484
 70
   192
  0
VERTEX
  5
1B5
  8
0
 10
0.1000000014901161
 20
0.0
 30
-53.5
 70
   192
  0
VERTEX
  5
1B6
  8
0
 10
6.973999977111816
 20
-1.694000005722046
 30
-53.44900131225586
 70
   192
  0
VERTEX
  5
1B7
  8
0
 10
6.973999977111816
 20
-0.718999981880188
 30
-53.47200012207031
 70
   192
  0
VERTEX
  5
1B8
  8
0
 10
6.97599983215332
 20
-3.76200008392334
 30
-53.24599838256836
 70
   192
  0
VERTEX
  5
1B9
  8
0
 10
6.978000164031982
 20
-5.340000152587891
 30
-52.97200012207031
 70
   192
  0
VERTEX
  5
1BA
  8
0
 10
6.97700023651123
 20
-4.316999912261963
 30
-53.15000152587891
 70
   192
  0
VERTEX
  5
1BB
  8
0
 10
0.1000000014901161
 20
5.342999935150146
 30
-52.98600006103516
 70
   192
  0
VERTEX
  5
1BC
  8
0
 10
6.974999904632568
 20
2.578000068664551
 30
-53.38100051879883
 70
   192
  0
VERTEX
  5
1BD
  8
0
 10
6.974999904632568
 20
2.859999895095825
 30
-53.34299850463867
 70
   192
  0
VERTEX
  5
1BE
  8
0
 10
6.97700023651123
 20
4.828999996185303
 30
-53.08000183105469
 70
   192
  0
VERTEX
  5
1BF
  8
0
 10
6.973999977111816
 20
0.3799999952316284
 30
-53.49700164794922
 70
   192
  0
VERTEX
  5
1C0
  8
0
 10
6.973999977111816
 20
0.0
 30
-53.48899841308594
 70
   192
  0
VERTEX
  5
1C1
  8
0
 10
0.1000000014901161
 20
10.48900032043457
 30
-51.46099853515625
 70
   192
  0
VERTEX
  5
1C2
  8
0
 10
6.985000133514404
 20
9.199000358581543
 30
-51.94599914550781
 70
   192
  0
VERTEX
  5
1C3
  8
0
 10
6.986999988555908
 20
9.859999656677246
 30
-51.68600082397461
 70
   192
  0
VERTEX
  5
1C4
  8
0
 10
6.980999946594238
 20
7.040999889373779
 30
-52.59999847412109
 70
   192
  0
VERTEX
  5
1C5
  8
0
 10
6.978000164031982
 20
5.339000225067139
 30
-52.97000122070312
 70
   192
  0
VERTEX
  5
1C6
  8
0
 10
6.980000019073486
 20
6.416999816894531
 30
-52.73600006103516
 70
   192
  0
VERTEX
  5
1C7
  8
0
 10
0.1000000014901161
 20
15.25
 30
-48.98300170898438
 70
   192
  0
VERTEX
  5
1C8
  8
0
 10
6.995999813079834
 20
13.30500030517578
 30
-50.13700103759766
 70
   192
  0
VERTEX
  5
1C9
  8
0
 10
7.002999782562256
 20
15.22900009155273
 30
-48.99599838256836
 70
   192
  0
VERTEX
  5
1CA
  8
0
 10
6.989999771118164
 20
11.29100036621094
 30
-51.12300109863281
 70
   192
  0
VERTEX
  5
1CB
  8
0
 10
6.995999813079834
 20
13.13599967956543
 30
-50.22000122070312
 70
   192
  0
VERTEX
  5
1CC
  8
0
 10
6.98799991607666
 20
10.48099994659424
 30
-51.44100189208984
 70
   192
  0
VERTEX
  5
1CD
  8
0
 10
0.1000000014901161
 20
19.45000076293945
 30
-45.64199829101562
 70
   192
  0
VERTEX
  5
1CE
  8
0
 10
7.01800012588501
 20
18.76499938964844
 30
-46.28099822998047
 70
   192
  0
VERTEX
  5
1CF
  8
0
 10
7.019000053405762
 20
18.9950008392334
 30
-46.05699920654297
 70
   192
  0
VERTEX
  5
1D0
  8
0
 10
7.010000228881836
 20
17.05299949645996
 30
-47.70800018310547
 70
   192
  0
VERTEX
  5
1D1
  8
0
 10
7.002999782562256
 20
15.24899959564209
 30
-48.98199844360352
 70
   192
  0
VERTEX
  5
1D2
  8
0
 10
7.006999969482422
 20
16.20299911499023
 30
-48.30799865722656
 70
   192
  0
VERTEX
  5
1D3
  8
0
 10
7.026000022888184
 20
20.35600090026855
 30
-44.72499847412109
 70
   192
  0
VERTEX
  5
1D4
  8
0
 10
7.032999992370605
 20
21.47100067138672
 30
-43.44699859619141
 70
   192
  0
VERTEX
  5
1D5
  8
0
 10
0.1000000014901161
 20
22.93600082397461
 30
-41.56000137329102
 70
   192
  0
VERTEX
  5
1D6
  8
0
 10
7.021999835968018
 20
19.43499946594238
 30
-45.62599945068359
 70
   192
  0
VERTEX
  5
1D7
  8
0
 10
7.034999847412109
 20
21.8169994354248
 30
-43.04999923706055
 70
   192
  0
VERTEX
  5
1D8
  8
0
 10
0.1000000014901161
 20
25.57900047302246
 30
-36.88899993896484
 70
   192
  0
VERTEX
  5
1D9
  8
0
 10
7.065000057220459
 20
25.33499908447266
 30
-37.42200088500977
 70
   192
  0
VERTEX
  5
1DA
  8
0
 10
7.065000057220459
 20
25.34199905395508
 30
-37.40499877929688
 70
   192
  0
VERTEX
  5
1DB
  8
0
 10
7.054999828338623
 20
24.31399917602539
 30
-39.38700103759766
 70
   192
  0
VERTEX
  5
1DC
  8
0
 10
7.045000076293945
 20
23.13899993896484
 30
-41.26699829101562
 70
   192
  0
VERTEX
  5
1DD
  8
0
 10
7.048999786376953
 20
23.59700012207031
 30
-40.53400039672852
 70
   192
  0
VERTEX
  5
1DE
  8
0
 10
7.043000221252441
 20
22.92700004577637
 30
-41.55300140380859
 70
   192
  0
VERTEX
  5
1DF
  8
0
 10
7.074999809265137
 20
26.19700050354004
 30
-35.38399887084961
 70
   192
  0
VERTEX
  5
1E0
  8
0
 10
7.081999778747559
 20
26.64500045776367
 30
-34.03799819946289
 70
   192
  0
VERTEX
  5
1E1
  8
0
 10
0.1000000014901161
 20
27.2819995880127
 30
-31.79899978637695
 70
   192
  0
VERTEX
  5
1E2
  8
0
 10
7.066999912261963
 20
25.56399917602539
 30
-36.88199996948242
 70
   192
  0
VERTEX
  5
1E3
  8
0
 10
7.085999965667725
 20
26.89599990844727
 30
-33.2869987487793
 70
   192
  0
VERTEX
  5
1E4
  8
0
 10
0.1000000014901161
 20
27.98299980163574
 30
-26.47699928283691
 70
   192
  0
VERTEX
  5
1E5
  8
0
 10
7.109000205993652
 20
27.78499984741211
 30
-28.9640007019043
 70
   192
  0
VERTEX
  5
1E6
  8
0
 10
7.11899995803833
 20
27.95299911499023
 30
-26.98800086975098
 70
   192
  0
VERTEX
  5
1E7
  8
0
 10
7.120999813079834
 20
27.97100067138672
 30
-26.76600074768066
 70
   192
  0
VERTEX
  5
1E8
  8
0
 10
7.099999904632568
 20
27.52300071716309
 30
-30.55100059509277
 70
   192
  0
VERTEX
  5
1E9
  8
0
 10
7.097000122070312
 20
27.42600059509277
 30
-31.14200019836426
 70
   192
  0
VERTEX
  5
1EA
  8
0
 10
7.093999862670898
 20
27.26399993896484
 30
-31.79400062561035
 70
   192
  0
VERTEX
  5
1EB
  8
0
 10
0.1000000014901161
 20
28.0
 30
-25.5
 70
   192
  0
VERTEX
  5
1EC
  8
0
 10
7.122000217437744
 20
27.97800064086914
 30
-26.47699928283691
 70
   192
  0
VERTEX
  5
1ED
  8
0
 10
7.127999782562256
 20
28.0
 30
-25.5
 70
   192
  0
VERTEX
  5
1EE
  8
0
 62
     9
 10
0.0
 20
0.0
 30
0.0
 70
   128
 71
     3
 72
     2
 73
     1
  0
VERTEX
  5
1EF
  8
0
 62
     9
 10
0.0
 20
0.0
 30
0.0
 70
   128
 71
     6
 72
     5
 73
     4
  0
VERTEX
  5
1F0
  8
0
 62
     9
 10
0.0
 20
0.0
 30
0.0
 70
   128
 71
     6
 72
     7
 73
     5
  0
VERTEX
  5
1F1
  8
0
 62
     9
 10
0.0
 20
0.0
 30
0.0
 70
   128
 71
     4
 72
     8
 73
     6
  0
VERTEX
  5
1F2
  8
0
 62
     9
 10
0.0
 20
0.0
 30
0.0
 70
   128
 71
     7
 72
     3
 73
     5
  0
VERTEX
  5
1F3
  8
0
 62
     9
 10
0.0
 20
0.0
 30
0.0
 70
   128
 71
    11
 72
    10
 73
     9
  0
VERTEX
  5
1F4
  8
0
 62
     9
 10
0.0
 20
0.0
 30
0.0
 70
   128
 71
    12
 72
     4
 73
     9
  0
VERTEX
  5
1F5
  8
0
 62
     9
 10
0.0
 20
0.0
 30
0.0
 70
   128
 71
     9
 72
    10
 73
    12
  0
VERTEX
  5
1F6
  8
0
 62
     9
 10
0.0
 20
0.0
 30
0.0
 70
   128
 71
    14
 72
    13
 73
     4
  0
VERTEX
  5
1F7
  8
0
 62
     9
 10
0.0
 20
0.0
 30
0.0
 70
   128
 71
     4
 72
    12
 73
    14
  0
VERTEX
  5
1F8
  8
0
 62
     9
 10
0.0
 20
0.0
 30
0.0
 70
   128
 71
    13
 72
    15
 73
     4
  0
VERTEX
  5
1F9
  8
0
 62
     9
 10
0.0
 20
0.0
 30
0.0
 70
   128
 71
    18
 72
    17
 73
    16
  0
VERTEX
  5
1FA
  8
0
 62
     9
 10
0.0
 20
0.0
 30
0.0
 70
   128
 71
    19
 72
     9
 73
    16
  0
VERTEX
  5
1FB
  8
0
 62
     9
 10
0.0
 20
0.0
 30
0.0
 70
   128
 71
    19
 72
    20
 73
     9
  0
VERTEX
  5
1FC
  8
0
 62
     9
 10
0.0
 20
0.0
 30
0.0
 70
   128
 71
    16
 72
    17
 73
    19
  0
VERTEX
  5
1FD
  8
0
 62
     9
 10
0.0
 20
0.0
 30
0.0
 70
   128
 71
    20
 72
    21
 73
     9
  0
VERTEX
  5
1FE
  8
0
 62
     9
 10
0.0
 20
0.0
 30
0.0
 70
   128
 71
    24
 72
    23
 73
    22
  0
VERTEX
  5
1FF
  8
0
 62
     9
 10
0.0
 20
0.0
 30
0.0
 70
   128
 71
    25
 72
    16
 73
    22
  0
VERTEX
  5
200
  8
0
 62
     9
 10
0.0
 20
0.0
 30
0.0
 70
   128
 71
    22
 72
    23
 73
    25
  0
VERTEX
  5
201
  8
0
 62
     9
 10
0.0
 20
0.0
 30
0.0
 70
   128
 71
    27
 72
    26
 73
    16
  0
VERTEX
  5
202
  8
0
 62
     9
 10
0.0
 20
0.0
 30
0.0
 70
   128
 71
    16
 72
    25
 73
    27
  0
VERTEX
  5
203
  8
0
 62
     9
 10
0.0
 20
0.0
 30
0.0
 70
   128
 71
    29
 72
    28
 73
    22
  0
VERTEX
  5
204
  8
0
 62
     9
 10
0.0
 20
0.0
 30
0.0
 70
   128
 71
    22
 72
    30
 73
    29
  0
VERTEX
  5
205
  8
0
 62
     9
 10
0.0
 20
0.0
 30
0.0
 70
   128
 71
    30
 72
    31
 73
    29
  0
VERTEX
  5
206
  8
0
 62
     9
 10
0.0
 20
0.0
 30
0.0
 70
   128
 71
    28
 72
    32
 73
    22
  0
VERTEX
  5
207
  8
0
 62
     9
 10
0.0
 20
0.0
 30
0.0
 70
   128
 71
    30
 72
    33
 73
    31
  0
VERTEX
  5
208
  8
0
 62
     9
 10
0.0
 20
0.0
 30
0.0
 70
   128
 71
    36
 72
    35
 73
    34
  0
VERTEX
  5
209
  8
0
 62
     9
 10
0.0
 20
0.0
 30
0.0
 70
   128
 71
    37
 72
    30
 73
    34
  0
VERTEX
  5
20A
  8
0
 62
     9
 10
0.0
 20
0.0
 30
0.0
 70
   128
 71
    39
 72
    38
 73
    30
  0
VERTEX
  5
20B
  8
0
 62
     9
 10
0.0
 20
0.0
 30
0.0
 70
   128
 71
    30
 72
    37
 73
    39
  0
VERTEX
  5
20C
  8
0
 62
     9
 10
0.0
 20
0.0
 30
0.0
 70
   128
 71
    34
 72
    35
 73
    37
  0
VERTEX
  5
20D
  8
0
 62
     9
 10
0.0
 20
0.0
 30
0.0
 70
   128
 71
    42
 72
    41
 73
    40
  0
VERTEX
  5
20E
  8
0
 62
     9
 10
0.0
 20
0.0
 30
0.0
 70
   128
 71
    41
 72
    43
 73
    34
  0
VERTEX
  5
20F
  8
0
 62
     9
 10
0.0
 20
0.0
 30
0.0
 70
   128
 71
    43
 72
    44
 73
    34
  0
VERTEX
  5
210
  8
0
 62
     9
 10
0.0
 20
0.0
 30
0.0
 70
   128
 71
    34
 72
    40
 73
    41
  0
VERTEX
  5
211
  8
0
 62
     9
 10
0.0
 20
0.0
 30
0.0
 70
   128
 71
    40
 72
    45
 73
    42
  0
VERTEX
  5
212
  8
0
 62
     9
 10
0.0
 20
0.0
 30
0.0
 70
   128
 71
    48
 72
    47
 73
    46
  0
VERTEX
  5
213
  8
0
 62
     9
 10
0.0
 20
0.0
 30
0.0
 70
   128
 71
    47
 72
    49
 73
    40
  0
VERTEX
  5
214
  8
0
 62
     9
 10
0.0
 20
0.0
 30
0.0
 70
   128
 71
    51
 72
    50
 73
    40
  0
VERTEX
  5
215
  8
0
 62
     9
 10
0.0
 20
0.0
 30
0.0
 70
   128
 71
    40
 72
    49
 73
    51
  0
VERTEX
  5
216
  8
0
 62
     9
 10
0.0
 20
0.0
 30
0.0
 70
   128
 71
    40
 72
    46
 73
    47
  0
VERTEX
  5
217
  8
0
 62
     9
 10
0.0
 20
0.0
 30
0.0
 70
   128
 71
    53
 72
    46
 73
    52
  0
VERTEX
  5
218
  8
0
 62
     9
 10
0.0
 20
0.0
 30
0.0
 70
   128
 71
    52
 72
    54
 73
    53
  0
VERTEX
  5
219
  8
0
 62
     9
 10
0.0
 20
0.0
 30
0.0
 70
   128
 71
    52
 72
    55
 73
    54
  0
VERTEX
  5
21A
  8
0
 62
     9
 10
0.0
 20
0.0
 30
0.0
 70
   128
 71
    53
 72
    56
 73
    46
  0
VERTEX
  5
21B
  8
0
 62
     9
 10
0.0
 20
0.0
 30
0.0
 70
   128
 71
    56
 72
    57
 73
    46
  0
VERTEX
  5
21C
  8
0
 62
     9
 10
0.0
 20
0.0
 30
0.0
 70
   128
 71
    60
 72
    59
 73
    58
  0
VERTEX
  5
21D
  8
0
 62
     9
 10
0.0
 20
0.0
 30
0.0
 70
   128
 71
    61
 72
    52
 73
    58
  0
VERTEX
  5
21E
  8
0
 62
     9
 10
0.0
 20
0.0
 30
0.0
 70
   128
 71
    58
 72
    59
 73
    61
  0
VERTEX
  5
21F
  8
0
 62
     9
 10
0.0
 20
0.0
 30
0.0
 70
   128
 71
    63
 72
    62
 73
    52
  0
VERTEX
  5
220
  8
0
 62
     9
 10
0.0
 20
0.0
 30
0.0
 70
   128
 71
    52
 72
    61
 73
    63
  0
VERTEX
  5
221
  8
0
 62
     9
 10
0.0
 20
0.0
 30
0.0
 70
   128
 71
    66
 72
    65
 73
    64
  0
VERTEX
  5
222
  8
0
 62
     9
 10
0.0
 20
0.0
 30
0.0
 70
   128
 71
    68
 72
    67
 73
    58
  0
VERTEX
  5
223
  8
0
 62
     9
 10
0.0
 20
0.0
 30
0.0
 70
   128
 71
    58
 72
    64
 73
    68
  0
VERTEX
  5
224
  8
0
 62
     9
 10
0.0
 20
0.0
 30
0.0
 70
   128
 71
    64
 72
    65
 73
    68
  0
VERTEX
  5
225
  8
0
 62
     9
 10
0.0
 20
0.0
 30
0.0
 70
   128
 71
    67
 72
    69
 73
    58
  0
VERTEX
  5
226
  8
0
 62
     9
 10
0.0
 20
0.0
 30
0.0
 70
   128
 71
    72
 72
    71
 73
    70
  0
VERTEX
  5
227
  8
0
 62
     9
 10
0.0
 20
0.0
 30
0.0
 70
   128
 71
    73
 72
    64
 73
    70
  0
VERTEX
  5
228
  8
0
 62
     9
 10
0.0
 20
0.0
 30
0.0
 70
   128
 71
    75
 72
    74
 73
    64
  0
VERTEX
  5
229
  8
0
 62
     9
 10
0.0
 20
0.0
 30
0.0
 70
   128
 71
    64
 72
    73
 73
    75
  0
VERTEX
  5
22A
  8
0
 62
     9
 10
0.0
 20
0.0
 30
0.0
 70
   128
 71
    70
 72
    71
 73
    73
  0
VERTEX
  5
22B
  8
0
 62
     9
 10
0.0
 20
0.0
 30
0.0
 70
   128
 71
    77
 72
    76
 73
    70
  0
VERTEX
  5
22C
  8
0
 62
     9
 10
0.0
 20
0.0
 30
0.0
 70
   128
 71
    70
 72
    78
 73
    77
  0
VERTEX
  5
22D
  8
0
 62
     9
 10
0.0
 20
0.0
 30
0.0
 70
   128
 71
    76
 72
    79
 73
    70
  0
VERTEX
  5
22E
  8
0
 62
     9
 10
0.0
 20
0.0
 30
0.0
 70
   128
 71
    78
 72
    80
 73
    77
  0
VERTEX
  5
22F
  8
0
 62
     9
 10
0.0
 20
0.0
 30
0.0
 70
   128
 71
    83
 72
    82
 73
    81
  0
VERTEX
  5
230
  8
0
 62
     9
 10
0.0
 20
0.0
 30
0.0
 70
   128
 71
    84
 72
    78
 73
    81
  0
VERTEX
  5
231
  8
0
 62
     9
 10
0.0
 20
0.0
 30
0.0
 70
   128
 71
    86
 72
    85
 73
    78
  0
VERTEX
  5
232
  8
0
 62
     9
 10
0.0
 20
0.0
 30
0.0
 70
   128
 71
    85
 72
    87
 73
    78
  0
VERTEX
  5
233
  8
0
 62
     9
 10
0.0
 20
0.0
 30
0.0
 70
   128
 71
    78
 72
    84
 73
    86
  0
VERTEX
  5
234
  8
0
 62
     9
 10
0.0
 20
0.0
 30
0.0
 70
   128
 71
    81
 72
    82
 73
    84
  0
VERTEX
  5
235
  8
0
 62
     9
 10
0.0
 20
0.0
 30
0.0
 70
   128
 71
    89
 72
    88
 73
    81
  0
VERTEX
  5
236
  8
0
 62
     9
 10
0.0
 20
0.0
 30
0.0
 70
   128
 71
    81
 72
    90
 73
    89
  0
VERTEX
  5
237
  8
0
 62
     9
 10
0.0
 20
0.0
 30
0.0
 70
   128
 71
    88
 72
    91
 73
    81
  0
VERTEX
  5
238
  8
0
 62
     9
 10
0.0
 20
0.0
 30
0.0
 70
   128
 71
    90
 72
    92
 73
    89
  0
VERTEX
  5
239
  8
0
 62
     9
 10
0.0
 20
0.0
 30
0.0
 70
   128
 71
    95
 72
    94
 73
    93
  0
VERTEX
  5
23A
  8
0
 62
     9
 10
0.0
 20
0.0
 30
0.0
 70
   128
 71
    93
 72
    96
 73
    95
  0
VERTEX
  5
23B
  8
0
 62
     9
 10
0.0
 20
0.0
 30
0.0
 70
   128
 71
    94
 72
    97
 73
    90
  0
VERTEX
  5
23C
  8
0
 62
     9
 10
0.0
 20
0.0
 30
0.0
 70
   128
 71
    97
 72
    98
 73
    90
  0
VERTEX
  5
23D
  8
0
 62
     9
 10
0.0
 20
0.0
 30
0.0
 70
   128
 71
    98
 72
    99
 73
    90
  0
VERTEX
  5
23E
  8
0
 62
     9
 10
0.0
 20
0.0
 30
0.0
 70
   128
 71
    90
 72
    93
 73
    94
  0
VERTEX
  5
23F
  8
0
 62
     9
 10
0.0
 20
0.0
 30
0.0
 70
   128
 71
   101
 72
    93
 73
   100
  0
VERTEX
  5
240
  8
0
 62
     9
 10
0.0
 20
0.0
 30
0.0
 70
   128
 71
   100
 72
   102
 73
   101
  0
VERTEX
  5
241
  8
0
 62
     9
 10
0.0
 20
0.0
 30
0.0
 70
   128
 71
    93
 72
   101
 73
    96
  0
VERTEX
  5
242
  8
0
 62
     9
 10
0.0
 20
0.0
 30
0.0
 70
   128
 71
    90
 72
    99
 73
    92
  0
VERTEX
  5
243
  8
0
 62
     9
 10
0.0
 20
0.0
 30
0.0
 70
   128
 71
    81
 72
    91
 73
    83
  0
VERTEX
  5
244
  8
0
 62
     9
 10
0.0
 20
0.0
 30
0.0
 70
   128
 71
    78
 72
    87
 73
    80
  0
VERTEX
  5
245
  8
0
 62
     9
 10
0.0
 20
0.0
 30
0.0
 70
   128
 71
    70
 72
    79
 73
    72
  0
VERTEX
  5
246
  8
0
 62
     9
 10
0.0
 20
0.0
 30
0.0
 70
   128
 71
    64
 72
    74
 73
    66
  0
VERTEX
  5
247
  8
0
 62
     9
 10
0.0
 20
0.0
 30
0.0
 70
   128
 71
    58
 72
    69
 73
    60
  0
VERTEX
  5
248
  8
0
 62
     9
 10
0.0
 20
0.0
 30
0.0
 70
   128
 71
    52
 72
    62
 73
    55
  0
VERTEX
  5
249
  8
0
 62
     9
 10
0.0
 20
0.0
 30
0.0
 70
   128
 71
    46
 72
    57
 73
    48
  0
VERTEX
  5
24A
  8
0
 62
     9
 10
0.0
 20
0.0
 30
0.0
 70
   128
 71
    40
 72
    50
 73
    45
  0
VERTEX
  5
24B
  8
0
 62
     9
 10
0.0
 20
0.0
 30
0.0
 70
   128
 71
    34
 72
    44
 73
    36
  0
VERTEX
  5
24C
  8
0
 62
     9
 10
0.0
 20
0.0
 30
0.0
 70
   128
 71
    30
 72
    38
 73
    33
  0
VERTEX
  5
24D
  8
0
 62
     9
 10
0.0
 20
0.0
 30
0.0
 70
   128
 71
    22
 72
    32
 73
    24
  0
VERTEX
  5
24E
  8
0
 62
     9
 10
0.0
 20
0.0
 30
0.0
 70
   128
 71
    16
 72
    26
 73
    18
  0
VERTEX
  5
24F
  8
0
 62
     9
 10
0.0
 20
0.0
 30
0.0
 70
   128
 71
     9
 72
    21
 73
    11
  0
VERTEX
  5
250
  8
0
 62
     9
 10
0.0
 20
0.0
 30
0.0
 70
   128
 71
     4
 72
    15
 73
     8
  0
VERTEX
  5
251
  8
0
 62
     9
 10
0.0
 20
0.0
 30
0.0
 70
   128
 71
     1
 72
     5
 73
     3
  0
SEQEND
  5
252
  8
0
 62
     9
  0
ENDBLK
  5
255
  8
0
  0
BLOCK
  8
0
  2
E3_NODE_5_
 70
     0
 10
0.0
 20
0.0
 30
0.0
  3
E3_NODE_5_
  1

  0
POLYLINE
  5
257
  8
0
 62
     9
 66
     1
 10
0.0
 20
0.0
 30
0.0
 70
    64
 71
   167
 72
   165
  0
VERTEX
  5
258
  8
0
 10
10.60900020599365
 20
31.48200035095215
 30
25.55400085449219
 70
   192
  0
VERTEX
  5
259
  8
0
 10
10.59799957275391
 20
31.40999984741211
 30
27.67000007629395
 70
   192
  0
VERTEX
  5
25A
  8
0
 10
7.122000217437744
 20
27.96199989318848
 30
26.47599983215332
 70
   192
  0
VERTEX
  5
25B
  8
0
 10
7.116000175476074
 20
27.91699981689453
 30
27.6560001373291
 70
   192
  0
VERTEX
  5
25C
  8
0
 10
10.58899974822998
 20
31.2180004119873
 30
29.52799987792969
 70
   192
  0
VERTEX
  5
25D
  8
0
 10
7.107999801635742
 20
27.75399971008301
 30
29.06599998474121
 70
   192
  0
VERTEX
  5
25E
  8
0
 10
10.58800029754639
 20
31.1870002746582
 30
29.82999992370605
 70
   192
  0
VERTEX
  5
25F
  8
0
 10
7.104000091552734
 20
27.67200088500977
 30
29.77300071716309
 70
   192
  0
VERTEX
  5
260
  8
0
 10
10.57800006866455
 20
30.86800003051758
 30
31.71299934387207
 70
   192
  0
VERTEX
  5
261
  8
0
 10
10.56999969482422
 20
30.4680004119873
 30
33.40399932861328
 70
   192
  0
VERTEX
  5
262
  8
0
 10
7.092999935150146
 20
27.26700019836426
 30
31.86300086975098
 70
   192
  0
VERTEX
  5
263
  8
0
 10
7.093999862670898
 20
27.28000068664551
 30
31.79800033569336
 70
   192
  0
VERTEX
  5
264
  8
0
 10
7.090000152587891
 20
27.09000015258789
 30
32.51200103759766
 70
   192
  0
VERTEX
  5
265
  8
0
 10
10.56799983978271
 20
30.36800003051758
 30
33.82300186157227
 70
   192
  0
VERTEX
  5
266
  8
0
 10
10.55799961090088
 20
29.72400093078613
 30
35.89599990844727
 70
   192
  0
VERTEX
  5
267
  8
0
 10
7.083000183105469
 20
26.70499992370605
 30
33.91600036621094
 70
   192
  0
VERTEX
  5
268
  8
0
 10
7.072999954223633
 20
26.01600074768066
 30
35.84500122070312
 70
   192
  0
VERTEX
  5
269
  8
0
 10
10.55200004577637
 20
29.23900032043457
 30
37.14400100708008
 70
   192
  0
VERTEX
  5
26A
  8
0
 10
7.072000026702881
 20
25.98999977111816
 30
35.91799926757812
 70
   192
  0
VERTEX
  5
26B
  8
0
 10
10.54800033569336
 20
28.93499946594238
 30
37.92699813842773
 70
   192
  0
VERTEX
  5
26C
  8
0
 10
10.53800010681152
 20
27.99900054931641
 30
39.91299819946289
 70
   192
  0
VERTEX
  5
26D
  8
0
 10
7.061999797821045
 20
25.125
 30
37.85900115966797
 70
   192
  0
VERTEX
  5
26E
  8
0
 10
7.066999912261963
 20
25.56100082397461
 30
36.88000106811523
 70
   192
  0
VERTEX
  5
26F
  8
0
 10
7.056000232696533
 20
24.49399948120117
 30
39.02799987792969
 70
   192
  0
VERTEX
  5
270
  8
0
 10
10.53400039672852
 20
27.54700088500977
 30
40.73099899291992
 70
   192
  0
VERTEX
  5
271
  8
0
 10
10.52999973297119
 20
27.07699966430664
 30
41.58100128173828
 70
   192
  0
VERTEX
  5
272
  8
0
 10
7.052999973297119
 20
24.11599922180176
 30
39.72800064086914
 70
   192
  0
VERTEX
  5
273
  8
0
 10
10.52099990844727
 20
25.9069995880127
 30
43.40599822998047
 70
   192
  0
VERTEX
  5
274
  8
0
 10
7.043000221252441
 20
22.9689998626709
 30
41.51300048828125
 70
   192
  0
VERTEX
  5
275
  8
0
 10
10.51799964904785
 20
25.42799949645996
 30
44.05099868774414
 70
   192
  0
VERTEX
  5
276
  8
0
 10
7.040999889373779
 20
22.61400032043457
 30
41.98300170898438
 70
   192
  0
VERTEX
  5
277
  8
0
 10
7.043000221252441
 20
22.93499946594238
 30
41.55899810791016
 70
   192
  0
VERTEX
  5
278
  8
0
 10
10.51299953460693
 20
24.61199951171875
 30
45.15000152587891
 70
   192
  0
VERTEX
  5
279
  8
0
 10
10.50500011444092
 20
23.19499969482422
 30
46.80599975585938
 70
   192
  0
VERTEX
  5
27A
  8
0
 10
7.026000022888184
 20
20.38100051879883
 30
44.69300079345703
 70
   192
  0
VERTEX
  5
27B
  8
0
 10
7.033999919891357
 20
21.6919994354248
 30
43.20500183105469
 70
   192
  0
VERTEX
  5
27C
  8
0
 10
10.50300025939941
 20
22.91200065612793
 30
47.09299850463867
 70
   192
  0
VERTEX
  5
27D
  8
0
 10
10.49699974060059
 20
21.65399932861328
 30
48.37200164794922
 70
   192
  0
VERTEX
  5
27E
  8
0
 10
7.020999908447266
 20
19.4370002746582
 30
45.62699890136719
 70
   192
  0
VERTEX
  5
27F
  8
0
 10
7.01800012588501
 20
18.77799987792969
 30
46.27000045776367
 70
   192
  0
VERTEX
  5
280
  8
0
 10
10.49100017547607
 20
20.23200035095215
 30
49.63899993896484
 70
   192
  0
VERTEX
  5
281
  8
0
 10
7.013000011444092
 20
17.79599952697754
 30
47.09199905395508
 70
   192
  0
VERTEX
  5
282
  8
0
 10
10.48999977111816
 20
20.01899909973145
 30
49.80599975585938
 70
   192
  0
VERTEX
  5
283
  8
0
 10
7.026000022888184
 20
20.29199981689453
 30
44.79299926757812
 70
   192
  0
VERTEX
  5
284
  8
0
 10
10.48400020599365
 20
18.52300071716309
 30
50.97499847412109
 70
   192
  0
VERTEX
  5
285
  8
0
 10
10.47900009155273
 20
16.83699989318848
 30
52.1150016784668
 70
   192
  0
VERTEX
  5
286
  8
0
 10
7.002999782562256
 20
15.44299983978271
 30
48.85599899291992
 70
   192
  0
VERTEX
  5
287
  8
0
 10
7.010000228881836
 20
17.15800094604492
 30
47.62699890136719
 70
   192
  0
VERTEX
  5
288
  8
0
 10
7.001999855041504
 20
14.9680004119873
 30
49.14500045776367
 70
   192
  0
VERTEX
  5
289
  8
0
 10
7.002999782562256
 20
15.24600028991699
 30
48.97600173950195
 70
   192
  0
VERTEX
  5
28A
  8
0
 10
10.47799968719482
 20
16.72500038146973
 30
52.19100189208984
 70
   192
  0
VERTEX
  5
28B
  8
0
 10
10.47299957275391
 20
14.84000015258789
 30
53.28400039672852
 70
   192
  0
VERTEX
  5
28C
  8
0
 10
6.997000217437744
 20
13.64299964904785
 30
49.95100021362305
 70
   192
  0
VERTEX
  5
28D
  8
0
 10
6.992000102996826
 20
11.88300037384033
 30
50.84799957275391
 70
   192
  0
VERTEX
  5
28E
  8
0
 10
10.47000026702881
 20
13.35700035095215
 30
54.01100158691406
 70
   192
  0
VERTEX
  5
28F
  8
0
 10
10.4680004119873
 20
12.86800003051758
 30
54.25099945068359
 70
   192
  0
VERTEX
  5
290
  8
0
 10
10.46500015258789
 20
11.10999965667725
 30
54.97499847412109
 70
   192
  0
VERTEX
  5
291
  8
0
 10
6.98799991607666
 20
10.48200035095215
 30
51.44499969482422
 70
   192
  0
VERTEX
  5
292
  8
0
 10
6.991000175476074
 20
11.76900005340576
 30
50.90700149536133
 70
   192
  0
VERTEX
  5
293
  8
0
 10
6.986000061035156
 20
9.831999778747559
 30
51.71699905395508
 70
   192
  0
VERTEX
  5
294
  8
0
 10
6.982999801635742
 20
8.609000205993652
 30
52.12400054931641
 70
   192
  0
VERTEX
  5
295
  8
0
 10
10.46399974822998
 20
10.80900001525879
 30
55.07699966430664
 70
   192
  0
VERTEX
  5
296
  8
0
 10
10.46199989318848
 20
9.682000160217285
 30
55.45800018310547
 70
   192
  0
VERTEX
  5
297
  8
0
 10
10.46100044250488
 20
9.055999755859375
 30
55.66999816894531
 70
   192
  0
VERTEX
  5
298
  8
0
 10
10.45899963378906
 20
6.958000183105469
 30
56.22200012207031
 70
   192
  0
VERTEX
  5
299
  8
0
 10
6.978000164031982
 20
5.815999984741211
 30
52.88899993896484
 70
   192
  0
VERTEX
  5
29A
  8
0
 10
6.98199987411499
 20
7.843999862670898
 30
52.37900161743164
 70
   192
  0
VERTEX
  5
29B
  8
0
 10
10.45800018310547
 20
5.869999885559082
 30
56.42900085449219
 70
   192
  0
VERTEX
  5
29C
  8
0
 10
6.978000164031982
 20
5.340000152587891
 30
52.97200012207031
 70
   192
  0
VERTEX
  5
29D
  8
0
 10
6.978000164031982
 20
5.21999979019165
 30
52.99300003051758
 70
   192
  0
VERTEX
  5
29E
  8
0
 10
10.45699977874756
 20
4.817999839782715
 30
56.63000106811523
 70
   192
  0
VERTEX
  5
29F
  8
0
 10
10.45499992370605
 20
2.638000011444092
 30
56.88999938964844
 70
   192
  0
VERTEX
  5
2A0
  8
0
 10
6.973999977111816
 20
1.720999956130981
 30
53.44599914550781
 70
   192
  0
VERTEX
  5
2A1
  8
0
 10
6.97599983215332
 20
3.76200008392334
 30
53.24599838256836
 70
   192
  0
VERTEX
  5
2A2
  8
0
 10
10.45499992370605
 20
1.934999942779541
 30
56.92800140380859
 70
   192
  0
VERTEX
  5
2A3
  8
0
 10
6.973999977111816
 20
1.694000005722046
 30
53.44900131225586
 70
   192
  0
VERTEX
  5
2A4
  8
0
 10
10.45499992370605
 20
0.7369999885559082
 30
56.99200057983398
 70
   192
  0
VERTEX
  5
2A5
  8
0
 10
10.45499992370605
 20
-1.432000041007996
 30
56.96799850463867
 70
   192
  0
VERTEX
  5
2A6
  8
0
 10
6.973999977111816
 20
-0.3799999952316284
 30
53.49700164794922
 70
   192
  0
VERTEX
  5
2A7
  8
0
 10
6.973999977111816
 20
0.0
 30
53.48899841308594
 70
   192
  0
VERTEX
  5
2A8
  8
0
 10
6.973999977111816
 20
-1.781000018119812
 30
53.42300033569336
 70
   192
  0
VERTEX
  5
2A9
  8
0
 10
10.45499992370605
 20
-2.003000020980835
 30
56.92200088500977
 70
   192
  0
VERTEX
  5
2AA
  8
0
 10
10.45600032806396
 20
-3.595999956130981
 30
56.79499816894531
 70
   192
  0
VERTEX
  5
2AB
  8
0
 10
6.974999904632568
 20
-2.578000068664551
 30
53.38100051879883
 70
   192
  0
VERTEX
  5
2AC
  8
0
 10
6.97700023651123
 20
-4.828999996185303
 30
53.08000183105469
 70
   192
  0
VERTEX
  5
2AD
  8
0
 10
10.45800018310547
 20
-5.750999927520752
 30
56.47100067138672
 70
   192
  0
VERTEX
  5
2AE
  8
0
 10
6.978000164031982
 20
-5.26200008392334
 30
52.98600006103516
 70
   192
  0
VERTEX
  5
2AF
  8
0
 10
10.45800018310547
 20
-5.919000148773193
 30
56.43399810791016
 70
   192
  0
VERTEX
  5
2B0
  8
0
 10
10.46000003814697
 20
-7.894999980926514
 30
55.99499893188477
 70
   192
  0
VERTEX
  5
2B1
  8
0
 10
6.980000019073486
 20
-7.040999889373779
 30
52.59999847412109
 70
   192
  0
VERTEX
  5
2B2
  8
0
 10
6.978000164031982
 20
-5.339000225067139
 30
52.97000122070312
 70
   192
  0
VERTEX
  5
2B3
  8
0
 10
10.46199989318848
 20
-9.729999542236328
 30
55.45899963378906
 70
   192
  0
VERTEX
  5
2B4
  8
0
 10
6.984000205993652
 20
-8.675999641418457
 30
52.10400009155273
 70
   192
  0
VERTEX
  5
2B5
  8
0
 10
10.46300029754639
 20
-9.76099967956543
 30
55.44800186157227
 70
   192
  0
VERTEX
  5
2B6
  8
0
 10
10.46599960327148
 20
-11.77099990844727
 30
54.71699905395508
 70
   192
  0
VERTEX
  5
2B7
  8
0
 10
6.98799991607666
 20
-10.48099994659424
 30
51.44100189208984
 70
   192
  0
VERTEX
  5
2B8
  8
0
 10
6.985000133514404
 20
-9.199000358581543
 30
51.94599914550781
 70
   192
  0
VERTEX
  5
2B9
  8
0
 10
10.47000026702881
 20
-13.41600036621094
 30
53.98699951171875
 70
   192
  0
VERTEX
  5
2BA
  8
0
 10
6.989999771118164
 20
-11.29100036621094
 30
51.12300109863281
 70
   192
  0
VERTEX
  5
2BB
  8
0
 10
6.992000102996826
 20
-11.92700004577637
 30
50.81100082397461
 70
   192
  0
VERTEX
  5
2BC
  8
0
 10
10.47000026702881
 20
-13.75599956512451
 30
53.83700180053711
 70
   192
  0
VERTEX
  5
2BD
  8
0
 10
10.47500038146973
 20
-15.68299961090088
 30
52.81700134277344
 70
   192
  0
VERTEX
  5
2BE
  8
0
 10
6.995999813079834
 20
-13.30500030517578
 30
50.13700103759766
 70
   192
  0
VERTEX
  5
2BF
  8
0
 10
7.001999855041504
 20
-15.01599979400635
 30
49.12300109863281
 70
   192
  0
VERTEX
  5
2C0
  8
0
 10
10.47900009155273
 20
-16.8799991607666
 30
52.07199859619141
 70
   192
  0
VERTEX
  5
2C1
  8
0
 10
10.48099994659424
 20
-17.54800033569336
 30
51.65700149536133
 70
   192
  0
VERTEX
  5
2C2
  8
0
 10
7.002999782562256
 20
-15.24899959564209
 30
48.98199844360352
 70
   192
  0
VERTEX
  5
2C3
  8
0
 10
7.002999782562256
 20
-15.22900009155273
 30
48.99599838256836
 70
   192
  0
VERTEX
  5
2C4
  8
0
 10
7.010000228881836
 20
-17.05299949645996
 30
47.70800018310547
 70
   192
  0
VERTEX
  5
2C5
  8
0
 10
10.48600006103516
 20
-19.08399963378906
 30
50.55799865722656
 70
   192
  0
VERTEX
  5
2C6
  8
0
 10
10.48999977111816
 20
-20.07799911499023
 30
49.74499893188477
 70
   192
  0
VERTEX
  5
2C7
  8
0
 10
7.013999938964844
 20
-17.85199928283691
 30
47.04199981689453
 70
   192
  0
VERTEX
  5
2C8
  8
0
 10
10.49300003051758
 20
-20.76300048828125
 30
49.18399810791016
 70
   192
  0
VERTEX
  5
2C9
  8
0
 10
10.5
 20
-22.34499931335449
 30
47.69599914550781
 70
   192
  0
VERTEX
  5
2CA
  8
0
 10
7.020999908447266
 20
-19.43499946594238
 30
45.62599945068359
 70
   192
  0
VERTEX
  5
2CB
  8
0
 10
7.026000022888184
 20
-20.35600090026855
 30
44.72499847412109
 70
   192
  0
VERTEX
  5
2CC
  8
0
 10
10.50399971008301
 20
-22.94099998474121
 30
47.05199813842773
 70
   192
  0
VERTEX
  5
2CD
  8
0
 10
7.026999950408936
 20
-20.41200065612793
 30
44.6609992980957
 70
   192
  0
VERTEX
  5
2CE
  8
0
 10
7.01800012588501
 20
-18.76499938964844
 30
46.28099822998047
 70
   192
  0
VERTEX
  5
2CF
  8
0
 10
10.50800037384033
 20
-23.82500076293945
 30
46.09799957275391
 70
   192
  0
VERTEX
  5
2D0
  8
0
 10
7.034999847412109
 20
-21.8169994354248
 30
43.04999923706055
 70
   192
  0
VERTEX
  5
2D1
  8
0
 10
7.040999889373779
 20
-22.64699935913086
 30
41.93000030517578
 70
   192
  0
VERTEX
  5
2D2
  8
0
 10
10.51700019836426
 20
-25.20199966430664
 30
44.38600158691406
 70
   192
  0
VERTEX
  5
2D3
  8
0
 10
10.51799964904785
 20
-25.47800064086914
 30
44.00099945068359
 70
   192
  0
VERTEX
  5
2D4
  8
0
 10
10.52200031280518
 20
-26.02300071716309
 30
43.23799896240234
 70
   192
  0
VERTEX
  5
2D5
  8
0
 10
7.045000076293945
 20
-23.13899993896484
 30
41.26699829101562
 70
   192
  0
VERTEX
  5
2D6
  8
0
 10
7.043000221252441
 20
-22.92700004577637
 30
41.55300140380859
 70
   192
  0
VERTEX
  5
2D7
  8
0
 10
10.5310001373291
 20
-27.18000030517578
 30
41.40599822998047
 70
   192
  0
VERTEX
  5
2D8
  8
0
 10
10.53499984741211
 20
-27.57799911499023
 30
40.66899871826172
 70
   192
  0
VERTEX
  5
2D9
  8
0
 10
7.056000232696533
 20
-24.52700042724609
 30
38.97600173950195
 70
   192
  0
VERTEX
  5
2DA
  8
0
 10
7.053999900817871
 20
-24.31399917602539
 30
39.38700103759766
 70
   192
  0
VERTEX
  5
2DB
  8
0
 10
10.53999996185303
 20
-28.20899963378906
 30
39.49800109863281
 70
   192
  0
VERTEX
  5
2DC
  8
0
 10
10.55000019073486
 20
-29.10799980163574
 30
37.51499938964844
 70
   192
  0
VERTEX
  5
2DD
  8
0
 10
7.066999912261963
 20
-25.56399917602539
 30
36.88199996948242
 70
   192
  0
VERTEX
  5
2DE
  8
0
 10
7.072999954223633
 20
-26.02099990844727
 30
35.80199813842773
 70
   192
  0
VERTEX
  5
2DF
  8
0
 10
10.55200004577637
 20
-29.26099967956543
 30
37.10200119018555
 70
   192
  0
VERTEX
  5
2E0
  8
0
 10
7.065000057220459
 20
-25.33499908447266
 30
37.42200088500977
 70
   192
  0
VERTEX
  5
2E1
  8
0
 10
7.074999809265137
 20
-26.19700050354004
 30
35.38399887084961
 70
   192
  0
VERTEX
  5
2E2
  8
0
 10
10.5600004196167
 20
-29.87199974060059
 30
35.45999908447266
 70
   192
  0
VERTEX
  5
2E3
  8
0
 10
7.085999965667725
 20
-26.89599990844727
 30
33.2869987487793
 70
   192
  0
VERTEX
  5
2E4
  8
0
 10
10.56700038909912
 20
-30.28499984741211
 30
34.12300109863281
 70
   192
  0
VERTEX
  5
2E5
  8
0
 10
10.57100009918213
 20
-30.48100090026855
 30
33.33000183105469
 70
   192
  0
VERTEX
  5
2E6
  8
0
 10
7.090000152587891
 20
-27.10300064086914
 30
32.44699859619141
 70
   192
  0
VERTEX
  5
2E7
  8
0
 10
10.57699966430664
 20
-30.80500030517578
 30
32.01699829101562
 70
   192
  0
VERTEX
  5
2E8
  8
0
 10
7.093999862670898
 20
-27.26399993896484
 30
31.79400062561035
 70
   192
  0
VERTEX
  5
2E9
  8
0
 10
7.097000122070312
 20
-27.42600059509277
 30
31.14200019836426
 70
   192
  0
VERTEX
  5
2EA
  8
0
 10
10.58699989318848
 20
-31.18000030517578
 30
29.87800025939941
 70
   192
  0
VERTEX
  5
2EB
  8
0
 10
7.107999801635742
 20
-27.77700042724609
 30
29.01300048828125
 70
   192
  0
VERTEX
  5
2EC
  8
0
 10
10.58899974822998
 20
-31.22299957275391
 30
29.46699905395508
 70
   192
  0
VERTEX
  5
2ED
  8
0
 10
7.109000205993652
 20
-27.78499984741211
 30
28.9640007019043
 70
   192
  0
VERTEX
  5
2EE
  8
0
 10
10.59799957275391
 20
-31.4069995880127
 30
27.71100044250488
 70
   192
  0
VERTEX
  5
2EF
  8
0
 10
10.60900020599365
 20
-31.48399925231934
 30
25.51700019836426
 70
   192
  0
VERTEX
  5
2F0
  8
0
 10
7.122000217437744
 20
-27.97800064086914
 30
26.47699928283691
 70
   192
  0
VERTEX
  5
2F1
  8
0
 10
7.126999855041504
 20
-28.0
 30
25.5
 70
   192
  0
VERTEX
  5
2F2
  8
0
 10
7.119999885559082
 20
-27.97100067138672
 30
26.76600074768066
 70
   192
  0
VERTEX
  5
2F3
  8
0
 10
10.60900020599365
 20
31.48399925231934
 30
25.51700019836426
 70
   192
  0
VERTEX
  5
2F4
  8
0
 10
7.126999855041504
 20
28.0
 30
25.5
 70
   192
  0
VERTEX
  5
2F5
  8
0
 10
7.14799976348877
 20
28.0
 30
21.98999977111816
 70
   192
  0
VERTEX
  5
2F6
  8
0
 10
10.62399959564209
 20
31.47800064086914
 30
21.57099914550781
 70
   192
  0
VERTEX
  5
2F7
  8
0
 10
7.126999855041504
 20
27.99900054931641
 30
25.53300094604492
 70
   192
  0
VERTEX
  5
2F8
  8
0
 10
7.190000057220459
 20
28.0
 30
14.90299987792969
 70
   192
  0
VERTEX
  5
2F9
  8
0
 10
10.64799976348877
 20
31.46999931335449
 30
15.57299995422363
 70
   192
  0
VERTEX
  5
2FA
  8
0
 10
10.63099956512451
 20
31.47599983215332
 30
19.94700050354004
 70
   192
  0
VERTEX
  5
2FB
  8
0
 10
10.65100002288818
 20
31.46299934387207
 30
13.60900020599365
 70
   192
  0
VERTEX
  5
2FC
  8
0
 10
7.269000053405762
 20
28.0
 30
1.401000022888184
 70
   192
  0
VERTEX
  5
2FD
  8
0
 10
9.795000076293945
 20
30.53899955749512
 30
1.526000022888184
 70
   192
  0
VERTEX
  5
2FE
  8
0
 10
10.67099952697754
 20
31.41900062561035
 30
1.569000005722046
 70
   192
  0
VERTEX
  5
2FF
  8
0
 62
     9
 10
0.0
 20
0.0
 30
0.0
 70
   128
 71
     3
 72
     2
 73
     1
  0
VERTEX
  5
300
  8
0
 62
     9
 10
0.0
 20
0.0
 30
0.0
 70
   128
 71
     3
 72
     4
 73
     2
  0
VERTEX
  5
301
  8
0
 62
     9
 10
0.0
 20
0.0
 30
0.0
 70
   128
 71
     4
 72
     6
 73
     5
  0
VERTEX
  5
302
  8
0
 62
     9
 10
0.0
 20
0.0
 30
0.0
 70
   128
 71
     5
 72
     2
 73
     4
  0
VERTEX
  5
303
  8
0
 62
     9
 10
0.0
 20
0.0
 30
0.0
 70
   128
 71
     7
 72
     5
 73
     6
  0
VERTEX
  5
304
  8
0
 62
     9
 10
0.0
 20
0.0
 30
0.0
 70
   128
 71
     9
 72
     7
 73
     8
  0
VERTEX
  5
305
  8
0
 62
     9
 10
0.0
 20
0.0
 30
0.0
 70
   128
 71
    11
 72
    10
 73
     9
  0
VERTEX
  5
306
  8
0
 62
     9
 10
0.0
 20
0.0
 30
0.0
 70
   128
 71
     9
 72
    12
 73
    11
  0
VERTEX
  5
307
  8
0
 62
     9
 10
0.0
 20
0.0
 30
0.0
 70
   128
 71
     8
 72
    12
 73
     9
  0
VERTEX
  5
308
  8
0
 62
     9
 10
0.0
 20
0.0
 30
0.0
 70
   128
 71
    11
 72
    13
 73
    10
  0
VERTEX
  5
309
  8
0
 62
     9
 10
0.0
 20
0.0
 30
0.0
 70
   128
 71
    16
 72
    15
 73
    14
  0
VERTEX
  5
30A
  8
0
 62
     9
 10
0.0
 20
0.0
 30
0.0
 70
   128
 71
    14
 72
    10
 73
    13
  0
VERTEX
  5
30B
  8
0
 62
     9
 10
0.0
 20
0.0
 30
0.0
 70
   128
 71
    15
 72
    16
 73
    17
  0
VERTEX
  5
30C
  8
0
 62
     9
 10
0.0
 20
0.0
 30
0.0
 70
   128
 71
    17
 72
    18
 73
    15
  0
VERTEX
  5
30D
  8
0
 62
     9
 10
0.0
 20
0.0
 30
0.0
 70
   128
 71
    20
 72
    18
 73
    19
  0
VERTEX
  5
30E
  8
0
 62
     9
 10
0.0
 20
0.0
 30
0.0
 70
   128
 71
    22
 72
    21
 73
    20
  0
VERTEX
  5
30F
  8
0
 62
     9
 10
0.0
 20
0.0
 30
0.0
 70
   128
 71
    20
 72
    23
 73
    22
  0
VERTEX
  5
310
  8
0
 62
     9
 10
0.0
 20
0.0
 30
0.0
 70
   128
 71
    21
 72
    22
 73
    24
  0
VERTEX
  5
311
  8
0
 62
     9
 10
0.0
 20
0.0
 30
0.0
 70
   128
 71
    24
 72
    25
 73
    21
  0
VERTEX
  5
312
  8
0
 62
     9
 10
0.0
 20
0.0
 30
0.0
 70
   128
 71
    19
 72
    23
 73
    20
  0
VERTEX
  5
313
  8
0
 62
     9
 10
0.0
 20
0.0
 30
0.0
 70
   128
 71
    27
 72
    26
 73
    25
  0
VERTEX
  5
314
  8
0
 62
     9
 10
0.0
 20
0.0
 30
0.0
 70
   128
 71
    27
 72
    29
 73
    28
  0
VERTEX
  5
315
  8
0
 62
     9
 10
0.0
 20
0.0
 30
0.0
 70
   128
 71
    32
 72
    31
 73
    30
  0
VERTEX
  5
316
  8
0
 62
     9
 10
0.0
 20
0.0
 30
0.0
 70
   128
 71
    30
 72
    28
 73
    32
  0
VERTEX
  5
317
  8
0
 62
     9
 10
0.0
 20
0.0
 30
0.0
 70
   128
 71
    28
 72
    29
 73
    32
  0
VERTEX
  5
318
  8
0
 62
     9
 10
0.0
 20
0.0
 30
0.0
 70
   128
 71
    28
 72
    26
 73
    27
  0
VERTEX
  5
319
  8
0
 62
     9
 10
0.0
 20
0.0
 30
0.0
 70
   128
 71
    33
 72
    30
 73
    31
  0
VERTEX
  5
31A
  8
0
 62
     9
 10
0.0
 20
0.0
 30
0.0
 70
   128
 71
    36
 72
    35
 73
    34
  0
VERTEX
  5
31B
  8
0
 62
     9
 10
0.0
 20
0.0
 30
0.0
 70
   128
 71
    34
 72
    33
 73
    36
  0
VERTEX
  5
31C
  8
0
 62
     9
 10
0.0
 20
0.0
 30
0.0
 70
   128
 71
    35
 72
    37
 73
    34
  0
VERTEX
  5
31D
  8
0
 62
     9
 10
0.0
 20
0.0
 30
0.0
 70
   128
 71
    39
 72
    38
 73
    37
  0
VERTEX
  5
31E
  8
0
 62
     9
 10
0.0
 20
0.0
 30
0.0
 70
   128
 71
    39
 72
    40
 73
    38
  0
VERTEX
  5
31F
  8
0
 62
     9
 10
0.0
 20
0.0
 30
0.0
 70
   128
 71
    40
 72
    42
 73
    41
  0
VERTEX
  5
320
  8
0
 62
     9
 10
0.0
 20
0.0
 30
0.0
 70
   128
 71
    41
 72
    38
 73
    40
  0
VERTEX
  5
321
  8
0
 62
     9
 10
0.0
 20
0.0
 30
0.0
 70
   128
 71
    42
 72
    43
 73
    41
  0
VERTEX
  5
322
  8
0
 62
     9
 10
0.0
 20
0.0
 30
0.0
 70
   128
 71
    37
 72
    44
 73
    39
  0
VERTEX
  5
323
  8
0
 62
     9
 10
0.0
 20
0.0
 30
0.0
 70
   128
 71
    47
 72
    46
 73
    45
  0
VERTEX
  5
324
  8
0
 62
     9
 10
0.0
 20
0.0
 30
0.0
 70
   128
 71
    45
 72
    43
 73
    48
  0
VERTEX
  5
325
  8
0
 62
     9
 10
0.0
 20
0.0
 30
0.0
 70
   128
 71
    50
 72
    49
 73
    46
  0
VERTEX
  5
326
  8
0
 62
     9
 10
0.0
 20
0.0
 30
0.0
 70
   128
 71
    46
 72
    47
 73
    50
  0
VERTEX
  5
327
  8
0
 62
     9
 10
0.0
 20
0.0
 30
0.0
 70
   128
 71
    45
 72
    48
 73
    47
  0
VERTEX
  5
328
  8
0
 62
     9
 10
0.0
 20
0.0
 30
0.0
 70
   128
 71
    53
 72
    52
 73
    51
  0
VERTEX
  5
329
  8
0
 62
     9
 10
0.0
 20
0.0
 30
0.0
 70
   128
 71
    51
 72
    46
 73
    49
  0
VERTEX
  5
32A
  8
0
 62
     9
 10
0.0
 20
0.0
 30
0.0
 70
   128
 71
    52
 72
    53
 73
    54
  0
VERTEX
  5
32B
  8
0
 62
     9
 10
0.0
 20
0.0
 30
0.0
 70
   128
 71
    54
 72
    55
 73
    52
  0
VERTEX
  5
32C
  8
0
 62
     9
 10
0.0
 20
0.0
 30
0.0
 70
   128
 71
    58
 72
    57
 73
    56
  0
VERTEX
  5
32D
  8
0
 62
     9
 10
0.0
 20
0.0
 30
0.0
 70
   128
 71
    56
 72
    55
 73
    59
  0
VERTEX
  5
32E
  8
0
 62
     9
 10
0.0
 20
0.0
 30
0.0
 70
   128
 71
    58
 72
    60
 73
    57
  0
VERTEX
  5
32F
  8
0
 62
     9
 10
0.0
 20
0.0
 30
0.0
 70
   128
 71
    62
 72
    60
 73
    61
  0
VERTEX
  5
330
  8
0
 62
     9
 10
0.0
 20
0.0
 30
0.0
 70
   128
 71
    62
 72
    57
 73
    60
  0
VERTEX
  5
331
  8
0
 62
     9
 10
0.0
 20
0.0
 30
0.0
 70
   128
 71
    61
 72
    63
 73
    62
  0
VERTEX
  5
332
  8
0
 62
     9
 10
0.0
 20
0.0
 30
0.0
 70
   128
 71
    56
 72
    59
 73
    58
  0
VERTEX
  5
333
  8
0
 62
     9
 10
0.0
 20
0.0
 30
0.0
 70
   128
 71
    64
 72
    63
 73
    61
  0
VERTEX
  5
334
  8
0
 62
     9
 10
0.0
 20
0.0
 30
0.0
 70
   128
 71
    67
 72
    66
 73
    65
  0
VERTEX
  5
335
  8
0
 62
     9
 10
0.0
 20
0.0
 30
0.0
 70
   128
 71
    66
 72
    69
 73
    68
  0
VERTEX
  5
336
  8
0
 62
     9
 10
0.0
 20
0.0
 30
0.0
 70
   128
 71
    69
 72
    70
 73
    68
  0
VERTEX
  5
337
  8
0
 62
     9
 10
0.0
 20
0.0
 30
0.0
 70
   128
 71
    68
 72
    65
 73
    66
  0
VERTEX
  5
338
  8
0
 62
     9
 10
0.0
 20
0.0
 30
0.0
 70
   128
 71
    65
 72
    64
 73
    67
  0
VERTEX
  5
339
  8
0
 62
     9
 10
0.0
 20
0.0
 30
0.0
 70
   128
 71
    71
 72
    68
 73
    70
  0
VERTEX
  5
33A
  8
0
 62
     9
 10
0.0
 20
0.0
 30
0.0
 70
   128
 71
    74
 72
    73
 73
    72
  0
VERTEX
  5
33B
  8
0
 62
     9
 10
0.0
 20
0.0
 30
0.0
 70
   128
 71
    72
 72
    71
 73
    74
  0
VERTEX
  5
33C
  8
0
 62
     9
 10
0.0
 20
0.0
 30
0.0
 70
   128
 71
    73
 72
    75
 73
    72
  0
VERTEX
  5
33D
  8
0
 62
     9
 10
0.0
 20
0.0
 30
0.0
 70
   128
 71
    77
 72
    75
 73
    76
  0
VERTEX
  5
33E
  8
0
 62
     9
 10
0.0
 20
0.0
 30
0.0
 70
   128
 71
    79
 72
    78
 73
    77
  0
VERTEX
  5
33F
  8
0
 62
     9
 10
0.0
 20
0.0
 30
0.0
 70
   128
 71
    77
 72
    80
 73
    79
  0
VERTEX
  5
340
  8
0
 62
     9
 10
0.0
 20
0.0
 30
0.0
 70
   128
 71
    76
 72
    80
 73
    77
  0
VERTEX
  5
341
  8
0
 62
     9
 10
0.0
 20
0.0
 30
0.0
 70
   128
 71
    78
 72
    79
 73
    81
  0
VERTEX
  5
342
  8
0
 62
     9
 10
0.0
 20
0.0
 30
0.0
 70
   128
 71
    81
 72
    82
 73
    78
  0
VERTEX
  5
343
  8
0
 62
     9
 10
0.0
 20
0.0
 30
0.0
 70
   128
 71
    84
 72
    83
 73
    82
  0
VERTEX
  5
344
  8
0
 62
     9
 10
0.0
 20
0.0
 30
0.0
 70
   128
 71
    83
 72
    84
 73
    85
  0
VERTEX
  5
345
  8
0
 62
     9
 10
0.0
 20
0.0
 30
0.0
 70
   128
 71
    85
 72
    86
 73
    83
  0
VERTEX
  5
346
  8
0
 62
     9
 10
0.0
 20
0.0
 30
0.0
 70
   128
 71
    86
 72
    85
 73
    87
  0
VERTEX
  5
347
  8
0
 62
     9
 10
0.0
 20
0.0
 30
0.0
 70
   128
 71
    87
 72
    88
 73
    86
  0
VERTEX
  5
348
  8
0
 62
     9
 10
0.0
 20
0.0
 30
0.0
 70
   128
 71
    91
 72
    90
 73
    89
  0
VERTEX
  5
349
  8
0
 62
     9
 10
0.0
 20
0.0
 30
0.0
 70
   128
 71
    89
 72
    88
 73
    91
  0
VERTEX
  5
34A
  8
0
 62
     9
 10
0.0
 20
0.0
 30
0.0
 70
   128
 71
    90
 72
    93
 73
    92
  0
VERTEX
  5
34B
  8
0
 62
     9
 10
0.0
 20
0.0
 30
0.0
 70
   128
 71
    92
 72
    89
 73
    90
  0
VERTEX
  5
34C
  8
0
 62
     9
 10
0.0
 20
0.0
 30
0.0
 70
   128
 71
    93
 72
    94
 73
    92
  0
VERTEX
  5
34D
  8
0
 62
     9
 10
0.0
 20
0.0
 30
0.0
 70
   128
 71
    97
 72
    96
 73
    95
  0
VERTEX
  5
34E
  8
0
 62
     9
 10
0.0
 20
0.0
 30
0.0
 70
   128
 71
    99
 72
    98
 73
    95
  0
VERTEX
  5
34F
  8
0
 62
     9
 10
0.0
 20
0.0
 30
0.0
 70
   128
 71
    95
 72
    96
 73
    99
  0
VERTEX
  5
350
  8
0
 62
     9
 10
0.0
 20
0.0
 30
0.0
 70
   128
 71
    99
 72
   100
 73
    98
  0
VERTEX
  5
351
  8
0
 62
     9
 10
0.0
 20
0.0
 30
0.0
 70
   128
 71
    95
 72
    94
 73
    97
  0
VERTEX
  5
352
  8
0
 62
     9
 10
0.0
 20
0.0
 30
0.0
 70
   128
 71
   103
 72
   102
 73
   101
  0
VERTEX
  5
353
  8
0
 62
     9
 10
0.0
 20
0.0
 30
0.0
 70
   128
 71
   101
 72
    98
 73
   100
  0
VERTEX
  5
354
  8
0
 62
     9
 10
0.0
 20
0.0
 30
0.0
 70
   128
 71
   102
 72
   103
 73
   104
  0
VERTEX
  5
355
  8
0
 62
     9
 10
0.0
 20
0.0
 30
0.0
 70
   128
 71
   104
 72
   105
 73
   102
  0
VERTEX
  5
356
  8
0
 62
     9
 10
0.0
 20
0.0
 30
0.0
 70
   128
 71
   108
 72
   107
 73
   106
  0
VERTEX
  5
357
  8
0
 62
     9
 10
0.0
 20
0.0
 30
0.0
 70
   128
 71
   106
 72
   107
 73
   109
  0
VERTEX
  5
358
  8
0
 62
     9
 10
0.0
 20
0.0
 30
0.0
 70
   128
 71
   109
 72
   110
 73
   106
  0
VERTEX
  5
359
  8
0
 62
     9
 10
0.0
 20
0.0
 30
0.0
 70
   128
 71
   109
 72
   112
 73
   111
  0
VERTEX
  5
35A
  8
0
 62
     9
 10
0.0
 20
0.0
 30
0.0
 70
   128
 71
   111
 72
   110
 73
   109
  0
VERTEX
  5
35B
  8
0
 62
     9
 10
0.0
 20
0.0
 30
0.0
 70
   128
 71
   106
 72
   105
 73
   108
  0
VERTEX
  5
35C
  8
0
 62
     9
 10
0.0
 20
0.0
 30
0.0
 70
   128
 71
   113
 72
   111
 73
   112
  0
VERTEX
  5
35D
  8
0
 62
     9
 10
0.0
 20
0.0
 30
0.0
 70
   128
 71
   115
 72
   114
 73
   113
  0
VERTEX
  5
35E
  8
0
 62
     9
 10
0.0
 20
0.0
 30
0.0
 70
   128
 71
   114
 72
   115
 73
   116
  0
VERTEX
  5
35F
  8
0
 62
     9
 10
0.0
 20
0.0
 30
0.0
 70
   128
 71
   116
 72
   117
 73
   114
  0
VERTEX
  5
360
  8
0
 62
     9
 10
0.0
 20
0.0
 30
0.0
 70
   128
 71
   116
 72
   118
 73
   117
  0
VERTEX
  5
361
  8
0
 62
     9
 10
0.0
 20
0.0
 30
0.0
 70
   128
 71
   113
 72
   119
 73
   115
  0
VERTEX
  5
362
  8
0
 62
     9
 10
0.0
 20
0.0
 30
0.0
 70
   128
 71
   120
 72
   117
 73
   118
  0
VERTEX
  5
363
  8
0
 62
     9
 10
0.0
 20
0.0
 30
0.0
 70
   128
 71
   118
 72
   121
 73
   120
  0
VERTEX
  5
364
  8
0
 62
     9
 10
0.0
 20
0.0
 30
0.0
 70
   128
 71
   123
 72
   121
 73
   122
  0
VERTEX
  5
365
  8
0
 62
     9
 10
0.0
 20
0.0
 30
0.0
 70
   128
 71
   122
 72
   124
 73
   123
  0
VERTEX
  5
366
  8
0
 62
     9
 10
0.0
 20
0.0
 30
0.0
 70
   128
 71
   127
 72
   126
 73
   125
  0
VERTEX
  5
367
  8
0
 62
     9
 10
0.0
 20
0.0
 30
0.0
 70
   128
 71
   125
 72
   124
 73
   127
  0
VERTEX
  5
368
  8
0
 62
     9
 10
0.0
 20
0.0
 30
0.0
 70
   128
 71
   128
 72
   125
 73
   126
  0
VERTEX
  5
369
  8
0
 62
     9
 10
0.0
 20
0.0
 30
0.0
 70
   128
 71
   131
 72
   130
 73
   129
  0
VERTEX
  5
36A
  8
0
 62
     9
 10
0.0
 20
0.0
 30
0.0
 70
   128
 71
   129
 72
   128
 73
   131
  0
VERTEX
  5
36B
  8
0
 62
     9
 10
0.0
 20
0.0
 30
0.0
 70
   128
 71
   126
 72
   131
 73
   128
  0
VERTEX
  5
36C
  8
0
 62
     9
 10
0.0
 20
0.0
 30
0.0
 70
   128
 71
   132
 72
   129
 73
   130
  0
VERTEX
  5
36D
  8
0
 62
     9
 10
0.0
 20
0.0
 30
0.0
 70
   128
 71
   134
 72
   133
 73
   132
  0
VERTEX
  5
36E
  8
0
 62
     9
 10
0.0
 20
0.0
 30
0.0
 70
   128
 71
   133
 72
   134
 73
   135
  0
VERTEX
  5
36F
  8
0
 62
     9
 10
0.0
 20
0.0
 30
0.0
 70
   128
 71
   135
 72
   136
 73
   133
  0
VERTEX
  5
370
  8
0
 62
     9
 10
0.0
 20
0.0
 30
0.0
 70
   128
 71
   132
 72
   137
 73
   134
  0
VERTEX
  5
371
  8
0
 62
     9
 10
0.0
 20
0.0
 30
0.0
 70
   128
 71
   139
 72
   136
 73
   138
  0
VERTEX
  5
372
  8
0
 62
     9
 10
0.0
 20
0.0
 30
0.0
 70
   128
 71
   138
 72
   140
 73
   139
  0
VERTEX
  5
373
  8
0
 62
     9
 10
0.0
 20
0.0
 30
0.0
 70
   128
 71
   142
 72
   141
 73
   140
  0
VERTEX
  5
374
  8
0
 62
     9
 10
0.0
 20
0.0
 30
0.0
 70
   128
 71
   140
 72
   143
 73
   142
  0
VERTEX
  5
375
  8
0
 62
     9
 10
0.0
 20
0.0
 30
0.0
 70
   128
 71
   140
 72
   141
 73
   139
  0
VERTEX
  5
376
  8
0
 62
     9
 10
0.0
 20
0.0
 30
0.0
 70
   128
 71
   145
 72
   144
 73
   142
  0
VERTEX
  5
377
  8
0
 62
     9
 10
0.0
 20
0.0
 30
0.0
 70
   128
 71
   145
 72
   146
 73
   144
  0
VERTEX
  5
378
  8
0
 62
     9
 10
0.0
 20
0.0
 30
0.0
 70
   128
 71
   146
 72
   148
 73
   147
  0
VERTEX
  5
379
  8
0
 62
     9
 10
0.0
 20
0.0
 30
0.0
 70
   128
 71
   147
 72
   144
 73
   146
  0
VERTEX
  5
37A
  8
0
 62
     9
 10
0.0
 20
0.0
 30
0.0
 70
   128
 71
   148
 72
   149
 73
   147
  0
VERTEX
  5
37B
  8
0
 62
     9
 10
0.0
 20
0.0
 30
0.0
 70
   128
 71
   151
 72
   149
 73
   150
  0
VERTEX
  5
37C
  8
0
 62
     9
 10
0.0
 20
0.0
 30
0.0
 70
   128
 71
   153
 72
   152
 73
   151
  0
VERTEX
  5
37D
  8
0
 62
     9
 10
0.0
 20
0.0
 30
0.0
 70
   128
 71
   153
 72
   154
 73
   152
  0
VERTEX
  5
37E
  8
0
 62
     9
 10
0.0
 20
0.0
 30
0.0
 70
   128
 71
   151
 72
   155
 73
   153
  0
VERTEX
  5
37F
  8
0
 62
     9
 10
0.0
 20
0.0
 30
0.0
 70
   128
 71
   150
 72
   155
 73
   151
  0
VERTEX
  5
380
  8
0
 62
     9
 10
0.0
 20
0.0
 30
0.0
 70
   128
 71
   158
 72
   157
 73
   156
  0
VERTEX
  5
381
  8
0
 62
     9
 10
0.0
 20
0.0
 30
0.0
 70
   128
 71
   156
 72
   159
 73
   158
  0
VERTEX
  5
382
  8
0
 62
     9
 10
0.0
 20
0.0
 30
0.0
 70
   128
 71
   157
 72
   160
 73
     1
  0
VERTEX
  5
383
  8
0
 62
     9
 10
0.0
 20
0.0
 30
0.0
 70
   128
 71
   163
 72
   162
 73
   161
  0
VERTEX
  5
384
  8
0
 62
     9
 10
0.0
 20
0.0
 30
0.0
 70
   128
 71
   162
 72
   164
 73
   161
  0
VERTEX
  5
385
  8
0
 62
     9
 10
0.0
 20
0.0
 30
0.0
 70
   128
 71
   161
 72
   158
 73
   163
  0
VERTEX
  5
386
  8
0
 62
     9
 10
0.0
 20
0.0
 30
0.0
 70
   128
 71
   164
 72
   166
 73
   165
  0
VERTEX
  5
387
  8
0
 62
     9
 10
0.0
 20
0.0
 30
0.0
 70
   128
 71
   165
 72
   161
 73
   164
  0
VERTEX
  5
388
  8
0
 62
     9
 10
0.0
 20
0.0
 30
0.0
 70
   128
 71
   164
 72
   167
 73
   166
  0
VERTEX
  5
389
  8
0
 62
     9
 10
0.0
 20
0.0
 30
0.0
 70
   128
 71
   158
 72
   159
 73
   163
  0
VERTEX
  5
38A
  8
0
 62
     9
 10
0.0
 20
0.0
 30
0.0
 70
   128
 71
   157
 72
     1
 73
   156
  0
VERTEX
  5
38B
  8
0
 62
     9
 10
0.0
 20
0.0
 30
0.0
 70
   128
 71
   149
 72
   148
 73
   150
  0
VERTEX
  5
38C
  8
0
 62
     9
 10
0.0
 20
0.0
 30
0.0
 70
   128
 71
   142
 72
   143
 73
   145
  0
VERTEX
  5
38D
  8
0
 62
     9
 10
0.0
 20
0.0
 30
0.0
 70
   128
 71
   136
 72
   135
 73
   138
  0
VERTEX
  5
38E
  8
0
 62
     9
 10
0.0
 20
0.0
 30
0.0
 70
   128
 71
   130
 72
   137
 73
   132
  0
VERTEX
  5
38F
  8
0
 62
     9
 10
0.0
 20
0.0
 30
0.0
 70
   128
 71
   124
 72
   122
 73
   127
  0
VERTEX
  5
390
  8
0
 62
     9
 10
0.0
 20
0.0
 30
0.0
 70
   128
 71
   121
 72
   123
 73
   120
  0
VERTEX
  5
391
  8
0
 62
     9
 10
0.0
 20
0.0
 30
0.0
 70
   128
 71
   112
 72
   119
 73
   113
  0
VERTEX
  5
392
  8
0
 62
     9
 10
0.0
 20
0.0
 30
0.0
 70
   128
 71
   105
 72
   104
 73
   108
  0
VERTEX
  5
393
  8
0
 62
     9
 10
0.0
 20
0.0
 30
0.0
 70
   128
 71
   101
 72
   100
 73
   103
  0
VERTEX
  5
394
  8
0
 62
     9
 10
0.0
 20
0.0
 30
0.0
 70
   128
 71
    94
 72
    93
 73
    97
  0
VERTEX
  5
395
  8
0
 62
     9
 10
0.0
 20
0.0
 30
0.0
 70
   128
 71
    88
 72
    87
 73
    91
  0
VERTEX
  5
396
  8
0
 62
     9
 10
0.0
 20
0.0
 30
0.0
 70
   128
 71
    82
 72
    81
 73
    84
  0
VERTEX
  5
397
  8
0
 62
     9
 10
0.0
 20
0.0
 30
0.0
 70
   128
 71
    75
 72
    73
 73
    76
  0
VERTEX
  5
398
  8
0
 62
     9
 10
0.0
 20
0.0
 30
0.0
 70
   128
 71
    70
 72
    74
 73
    71
  0
VERTEX
  5
399
  8
0
 62
     9
 10
0.0
 20
0.0
 30
0.0
 70
   128
 71
    61
 72
    67
 73
    64
  0
VERTEX
  5
39A
  8
0
 62
     9
 10
0.0
 20
0.0
 30
0.0
 70
   128
 71
    55
 72
    54
 73
    59
  0
VERTEX
  5
39B
  8
0
 62
     9
 10
0.0
 20
0.0
 30
0.0
 70
   128
 71
    51
 72
    49
 73
    53
  0
VERTEX
  5
39C
  8
0
 62
     9
 10
0.0
 20
0.0
 30
0.0
 70
   128
 71
    43
 72
    42
 73
    48
  0
VERTEX
  5
39D
  8
0
 62
     9
 10
0.0
 20
0.0
 30
0.0
 70
   128
 71
    37
 72
    35
 73
    44
  0
VERTEX
  5
39E
  8
0
 62
     9
 10
0.0
 20
0.0
 30
0.0
 70
   128
 71
    31
 72
    36
 73
    33
  0
VERTEX
  5
39F
  8
0
 62
     9
 10
0.0
 20
0.0
 30
0.0
 70
   128
 71
    25
 72
    24
 73
    27
  0
VERTEX
  5
3A0
  8
0
 62
     9
 10
0.0
 20
0.0
 30
0.0
 70
   128
 71
    18
 72
    17
 73
    19
  0
VERTEX
  5
3A1
  8
0
 62
     9
 10
0.0
 20
0.0
 30
0.0
 70
   128
 71
    14
 72
    13
 73
    16
  0
VERTEX
  5
3A2
  8
0
 62
     9
 10
0.0
 20
0.0
 30
0.0
 70
   128
 71
     6
 72
     8
 73
     7
  0
VERTEX
  5
3A3
  8
0
 62
     9
 10
0.0
 20
0.0
 30
0.0
 70
   128
 71
     1
 72
   160
 73
     3
  0
SEQEND
  5
3A4
  8
0
 62
     9
  0
ENDBLK
  5
3A7
  8
0
  0
BLOCK
  8
0
  2
E3_NODE_6_
 70
     0
 10
0.0
 20
0.0
 30
0.0
  3
E3_NODE_6_
  1

  0
POLYLINE
  5
3A9
  8
0
 62
     9
 66
     1
 10
0.0
 20
0.0
 30
0.0
 70
    64
 71
   166
 72
   164
  0
VERTEX
  5
3AA
  8
0
 10
10.60900020599365
 20
-31.48399925231934
 30
-25.51700019836426
 70
   192
  0
VERTEX
  5
3AB
  8
0
 10
10.59799957275391
 20
-31.40999984741211
 30
-27.67000007629395
 70
   192
  0
VERTEX
  5
3AC
  8
0
 10
7.122000217437744
 20
-27.96199989318848
 30
-26.47599983215332
 70
   192
  0
VERTEX
  5
3AD
  8
0
 10
7.116000175476074
 20
-27.91699981689453
 30
-27.6560001373291
 70
   192
  0
VERTEX
  5
3AE
  8
0
 10
10.58899974822998
 20
-31.21199989318848
 30
-29.5890007019043
 70
   192
  0
VERTEX
  5
3AF
  8
0
 10
7.107999801635742
 20
-27.74799919128418
 30
-29.1200008392334
 70
   192
  0
VERTEX
  5
3B0
  8
0
 10
10.58800029754639
 20
-31.1870002746582
 30
-29.82999992370605
 70
   192
  0
VERTEX
  5
3B1
  8
0
 10
7.105000019073486
 20
-27.67200088500977
 30
-29.77300071716309
 70
   192
  0
VERTEX
  5
3B2
  8
0
 10
10.57900047302246
 20
-30.86800003051758
 30
-31.71299934387207
 70
   192
  0
VERTEX
  5
3B3
  8
0
 10
10.56999969482422
 20
-30.43199920654297
 30
-33.55599975585938
 70
   192
  0
VERTEX
  5
3B4
  8
0
 10
7.093999862670898
 20
-27.26700019836426
 30
-31.86300086975098
 70
   192
  0
VERTEX
  5
3B5
  8
0
 10
7.093999862670898
 20
-27.28000068664551
 30
-31.79800033569336
 70
   192
  0
VERTEX
  5
3B6
  8
0
 10
7.089000225067139
 20
-27.05299949645996
 30
-32.64599990844727
 70
   192
  0
VERTEX
  5
3B7
  8
0
 10
10.56799983978271
 20
-30.36800003051758
 30
-33.82300186157227
 70
   192
  0
VERTEX
  5
3B8
  8
0
 10
10.55799961090088
 20
-29.72400093078613
 30
-35.89599990844727
 70
   192
  0
VERTEX
  5
3B9
  8
0
 10
7.083000183105469
 20
-26.70499992370605
 30
-33.91600036621094
 70
   192
  0
VERTEX
  5
3BA
  8
0
 10
7.072000026702881
 20
-25.98999977111816
 30
-35.91799926757812
 70
   192
  0
VERTEX
  5
3BB
  8
0
 10
10.55099964141846
 20
-29.14699935913086
 30
-37.38100051879883
 70
   192
  0
VERTEX
  5
3BC
  8
0
 10
7.072000026702881
 20
-25.92900085449219
 30
-36.05400085449219
 70
   192
  0
VERTEX
  5
3BD
  8
0
 10
10.54800033569336
 20
-28.93499946594238
 30
-37.92699813842773
 70
   192
  0
VERTEX
  5
3BE
  8
0
 10
10.53899955749512
 20
-27.99900054931641
 30
-39.91299819946289
 70
   192
  0
VERTEX
  5
3BF
  8
0
 10
7.061999797821045
 20
-25.125
 30
-37.85900115966797
 70
   192
  0
VERTEX
  5
3C0
  8
0
 10
7.066999912261963
 20
-25.56100082397461
 30
-36.88000106811523
 70
   192
  0
VERTEX
  5
3C1
  8
0
 10
7.054999828338623
 20
-24.34499931335449
 30
-39.30300140380859
 70
   192
  0
VERTEX
  5
3C2
  8
0
 10
10.53299999237061
 20
-27.37700080871582
 30
-41.03799819946289
 70
   192
  0
VERTEX
  5
3C3
  8
0
 10
10.52999973297119
 20
-27.07699966430664
 30
-41.58100128173828
 70
   192
  0
VERTEX
  5
3C4
  8
0
 10
7.052999973297119
 20
-24.11599922180176
 30
-39.72800064086914
 70
   192
  0
VERTEX
  5
3C5
  8
0
 10
10.52099990844727
 20
-25.9069995880127
 30
-43.40599822998047
 70
   192
  0
VERTEX
  5
3C6
  8
0
 10
7.043000221252441
 20
-22.9689998626709
 30
-41.51300048828125
 70
   192
  0
VERTEX
  5
3C7
  8
0
 10
10.51700019836426
 20
-25.16200065612793
 30
-44.40900039672852
 70
   192
  0
VERTEX
  5
3C8
  8
0
 10
7.039000034332275
 20
-22.375
 30
-42.29999923706055
 70
   192
  0
VERTEX
  5
3C9
  8
0
 10
7.043000221252441
 20
-22.93499946594238
 30
-41.55899810791016
 70
   192
  0
VERTEX
  5
3CA
  8
0
 10
10.51299953460693
 20
-24.61199951171875
 30
-45.15000152587891
 70
   192
  0
VERTEX
  5
3CB
  8
0
 10
10.50500011444092
 20
-23.19499969482422
 30
-46.80599975585938
 70
   192
  0
VERTEX
  5
3CC
  8
0
 10
7.026000022888184
 20
-20.29199981689453
 30
-44.79299926757812
 70
   192
  0
VERTEX
  5
3CD
  8
0
 10
7.034999847412109
 20
-21.6919994354248
 30
-43.20500183105469
 70
   192
  0
VERTEX
  5
3CE
  8
0
 10
10.5019998550415
 20
-22.52799987792969
 30
-47.48400115966797
 70
   192
  0
VERTEX
  5
3CF
  8
0
 10
7.025000095367432
 20
-20.03899955749512
 30
-45.04000091552734
 70
   192
  0
VERTEX
  5
3D0
  8
0
 10
10.49699974060059
 20
-21.65399932861328
 30
-48.37200164794922
 70
   192
  0
VERTEX
  5
3D1
  8
0
 10
7.021999835968018
 20
-19.4370002746582
 30
-45.62699890136719
 70
   192
  0
VERTEX
  5
3D2
  8
0
 10
7.01800012588501
 20
-18.77799987792969
 30
-46.27000045776367
 70
   192
  0
VERTEX
  5
3D3
  8
0
 10
10.49100017547607
 20
-20.23200035095215
 30
-49.63899993896484
 70
   192
  0
VERTEX
  5
3D4
  8
0
 10
7.01200008392334
 20
-17.36000061035156
 30
-47.45800018310547
 70
   192
  0
VERTEX
  5
3D5
  8
0
 10
10.48799991607666
 20
-19.51499938964844
 30
-50.20000076293945
 70
   192
  0
VERTEX
  5
3D6
  8
0
 10
10.48499965667725
 20
-18.52300071716309
 30
-50.97499847412109
 70
   192
  0
VERTEX
  5
3D7
  8
0
 10
10.47900009155273
 20
-16.72500038146973
 30
-52.19100189208984
 70
   192
  0
VERTEX
  5
3D8
  8
0
 10
7.004000186920166
 20
-15.44299983978271
 30
-48.85599899291992
 70
   192
  0
VERTEX
  5
3D9
  8
0
 10
7.011000156402588
 20
-17.15800094604492
 30
-47.62699890136719
 70
   192
  0
VERTEX
  5
3DA
  8
0
 10
7.0
 20
-14.4069995880127
 30
-49.48600006103516
 70
   192
  0
VERTEX
  5
3DB
  8
0
 10
7.002999782562256
 20
-15.24600028991699
 30
-48.97600173950195
 70
   192
  0
VERTEX
  5
3DC
  8
0
 10
10.47700023651123
 20
-16.20299911499023
 30
-52.49300003051758
 70
   192
  0
VERTEX
  5
3DD
  8
0
 10
10.47299957275391
 20
-14.84000015258789
 30
-53.28400039672852
 70
   192
  0
VERTEX
  5
3DE
  8
0
 10
6.997000217437744
 20
-13.64299964904785
 30
-49.95100021362305
 70
   192
  0
VERTEX
  5
3DF
  8
0
 10
10.4689998626709
 20
-12.86800003051758
 30
-54.25099945068359
 70
   192
  0
VERTEX
  5
3E0
  8
0
 10
6.991000175476074
 20
-11.76900005340576
 30
-50.90700149536133
 70
   192
  0
VERTEX
  5
3E1
  8
0
 10
6.989999771118164
 20
-11.19900035858154
 30
-51.14500045776367
 70
   192
  0
VERTEX
  5
3E2
  8
0
 10
10.4680004119873
 20
-12.5959997177124
 30
-54.36299896240234
 70
   192
  0
VERTEX
  5
3E3
  8
0
 10
10.46500015258789
 20
-11.10999965667725
 30
-54.97499847412109
 70
   192
  0
VERTEX
  5
3E4
  8
0
 10
6.98799991607666
 20
-10.48200035095215
 30
-51.44499969482422
 70
   192
  0
VERTEX
  5
3E5
  8
0
 10
6.986000061035156
 20
-9.831999778747559
 30
-51.71699905395508
 70
   192
  0
VERTEX
  5
3E6
  8
0
 10
10.46100044250488
 20
-8.79800033569336
 30
-55.73799896240234
 70
   192
  0
VERTEX
  5
3E7
  8
0
 10
6.98199987411499
 20
-7.826000213623047
 30
-52.38299942016602
 70
   192
  0
VERTEX
  5
3E8
  8
0
 10
6.98199987411499
 20
-7.843999862670898
 30
-52.37900161743164
 70
   192
  0
VERTEX
  5
3E9
  8
0
 10
10.46199989318848
 20
-9.055999755859375
 30
-55.66999816894531
 70
   192
  0
VERTEX
  5
3EA
  8
0
 10
10.45899963378906
 20
-6.958000183105469
 30
-56.22200012207031
 70
   192
  0
VERTEX
  5
3EB
  8
0
 10
10.45699977874756
 20
-4.855999946594238
 30
-56.62200164794922
 70
   192
  0
VERTEX
  5
3EC
  8
0
 10
6.97700023651123
 20
-4.316999912261963
 30
-53.15000152587891
 70
   192
  0
VERTEX
  5
3ED
  8
0
 10
6.978000164031982
 20
-5.340000152587891
 30
-52.97200012207031
 70
   192
  0
VERTEX
  5
3EE
  8
0
 10
6.979000091552734
 20
-5.815999984741211
 30
-52.88899993896484
 70
   192
  0
VERTEX
  5
3EF
  8
0
 10
10.45699977874756
 20
-4.817999839782715
 30
-56.63000106811523
 70
   192
  0
VERTEX
  5
3F0
  8
0
 10
10.45600032806396
 20
-2.638000011444092
 30
-56.88999938964844
 70
   192
  0
VERTEX
  5
3F1
  8
0
 10
6.973999977111816
 20
-1.694000005722046
 30
-53.44900131225586
 70
   192
  0
VERTEX
  5
3F2
  8
0
 10
6.97599983215332
 20
-3.76200008392334
 30
-53.24599838256836
 70
   192
  0
VERTEX
  5
3F3
  8
0
 10
10.45499992370605
 20
-0.8080000281333923
 30
-56.98799896240234
 70
   192
  0
VERTEX
  5
3F4
  8
0
 10
6.973999977111816
 20
-0.718999981880188
 30
-53.47200012207031
 70
   192
  0
VERTEX
  5
3F5
  8
0
 10
10.45499992370605
 20
-0.7369999885559082
 30
-56.99200057983398
 70
   192
  0
VERTEX
  5
3F6
  8
0
 10
10.45499992370605
 20
1.432000041007996
 30
-56.96799850463867
 70
   192
  0
VERTEX
  5
3F7
  8
0
 10
6.973999977111816
 20
0.3799999952316284
 30
-53.49700164794922
 70
   192
  0
VERTEX
  5
3F8
  8
0
 10
6.973999977111816
 20
0.0
 30
-53.48899841308594
 70
   192
  0
VERTEX
  5
3F9
  8
0
 10
6.974999904632568
 20
2.578000068664551
 30
-53.38100051879883
 70
   192
  0
VERTEX
  5
3FA
  8
0
 10
10.45600032806396
 20
3.216000080108643
 30
-56.82500076293945
 70
   192
  0
VERTEX
  5
3FB
  8
0
 10
6.974999904632568
 20
2.859999895095825
 30
-53.34299850463867
 70
   192
  0
VERTEX
  5
3FC
  8
0
 10
10.45600032806396
 20
3.595999956130981
 30
-56.79499816894531
 70
   192
  0
VERTEX
  5
3FD
  8
0
 10
10.45800018310547
 20
5.750999927520752
 30
-56.47100067138672
 70
   192
  0
VERTEX
  5
3FE
  8
0
 10
6.97700023651123
 20
4.828999996185303
 30
-53.08000183105469
 70
   192
  0
VERTEX
  5
3FF
  8
0
 10
10.45899963378906
 20
7.216000080108643
 30
-56.14500045776367
 70
   192
  0
VERTEX
  5
400
  8
0
 10
6.980000019073486
 20
6.416999816894531
 30
-52.73600006103516
 70
   192
  0
VERTEX
  5
401
  8
0
 10
6.978000164031982
 20
5.339000225067139
 30
-52.97000122070312
 70
   192
  0
VERTEX
  5
402
  8
0
 10
10.46000003814697
 20
7.894999980926514
 30
-55.99499893188477
 70
   192
  0
VERTEX
  5
403
  8
0
 10
6.980999946594238
 20
7.040999889373779
 30
-52.59999847412109
 70
   192
  0
VERTEX
  5
404
  8
0
 10
10.46300029754639
 20
9.729999542236328
 30
-55.45899963378906
 70
   192
  0
VERTEX
  5
405
  8
0
 10
6.985000133514404
 20
9.199000358581543
 30
-51.94599914550781
 70
   192
  0
VERTEX
  5
406
  8
0
 10
6.986999988555908
 20
9.859999656677246
 30
-51.68600082397461
 70
   192
  0
VERTEX
  5
407
  8
0
 10
10.46500015258789
 20
10.80900001525879
 30
-55.06700134277344
 70
   192
  0
VERTEX
  5
408
  8
0
 10
10.46500015258789
 20
11.08899974822998
 30
-54.96500015258789
 70
   192
  0
VERTEX
  5
409
  8
0
 10
10.46599960327148
 20
11.77099990844727
 30
-54.71699905395508
 70
   192
  0
VERTEX
  5
40A
  8
0
 10
6.98799991607666
 20
10.48099994659424
 30
-51.44100189208984
 70
   192
  0
VERTEX
  5
40B
  8
0
 10
6.989999771118164
 20
11.29100036621094
 30
-51.12300109863281
 70
   192
  0
VERTEX
  5
40C
  8
0
 10
10.4709997177124
 20
13.75599956512451
 30
-53.83700180053711
 70
   192
  0
VERTEX
  5
40D
  8
0
 10
6.995999813079834
 20
13.13599967956543
 30
-50.22000122070312
 70
   192
  0
VERTEX
  5
40E
  8
0
 10
10.47299957275391
 20
14.76500034332275
 30
-53.30300140380859
 70
   192
  0
VERTEX
  5
40F
  8
0
 10
10.47599983215332
 20
15.68299961090088
 30
-52.81700134277344
 70
   192
  0
VERTEX
  5
410
  8
0
 10
10.48099994659424
 20
17.54800033569336
 30
-51.65700149536133
 70
   192
  0
VERTEX
  5
411
  8
0
 10
7.002999782562256
 20
15.22900009155273
 30
-48.99599838256836
 70
   192
  0
VERTEX
  5
412
  8
0
 10
6.995999813079834
 20
13.30500030517578
 30
-50.13700103759766
 70
   192
  0
VERTEX
  5
413
  8
0
 10
7.006999969482422
 20
16.20299911499023
 30
-48.30799865722656
 70
   192
  0
VERTEX
  5
414
  8
0
 10
7.002999782562256
 20
15.24899959564209
 30
-48.98199844360352
 70
   192
  0
VERTEX
  5
415
  8
0
 10
10.48400020599365
 20
18.22500038146973
 30
-51.17200088500977
 70
   192
  0
VERTEX
  5
416
  8
0
 10
10.48700046539307
 20
19.08399963378906
 30
-50.55799865722656
 70
   192
  0
VERTEX
  5
417
  8
0
 10
7.010000228881836
 20
17.05299949645996
 30
-47.70800018310547
 70
   192
  0
VERTEX
  5
418
  8
0
 10
10.49300003051758
 20
20.76300048828125
 30
-49.18399810791016
 70
   192
  0
VERTEX
  5
419
  8
0
 10
7.01800012588501
 20
18.76499938964844
 30
-46.28099822998047
 70
   192
  0
VERTEX
  5
41A
  8
0
 10
10.49600028991699
 20
21.35499954223633
 30
-48.62699890136719
 70
   192
  0
VERTEX
  5
41B
  8
0
 10
7.019000053405762
 20
18.9950008392334
 30
-46.05699920654297
 70
   192
  0
VERTEX
  5
41C
  8
0
 10
10.50100040435791
 20
22.34499931335449
 30
-47.69599914550781
 70
   192
  0
VERTEX
  5
41D
  8
0
 10
7.021999835968018
 20
19.43499946594238
 30
-45.62599945068359
 70
   192
  0
VERTEX
  5
41E
  8
0
 10
7.026000022888184
 20
20.35600090026855
 30
-44.72499847412109
 70
   192
  0
VERTEX
  5
41F
  8
0
 10
10.50800037384033
 20
23.82500076293945
 30
-46.09700012207031
 70
   192
  0
VERTEX
  5
420
  8
0
 10
7.032999992370605
 20
21.47100067138672
 30
-43.44699859619141
 70
   192
  0
VERTEX
  5
421
  8
0
 10
10.51000022888184
 20
24.14500045776367
 30
-45.70000076293945
 70
   192
  0
VERTEX
  5
422
  8
0
 10
7.034999847412109
 20
21.8169994354248
 30
-43.04999923706055
 70
   192
  0
VERTEX
  5
423
  8
0
 10
10.51700019836426
 20
25.20299911499023
 30
-44.38600158691406
 70
   192
  0
VERTEX
  5
424
  8
0
 10
7.043000221252441
 20
22.92700004577637
 30
-41.55300140380859
 70
   192
  0
VERTEX
  5
425
  8
0
 10
10.52200031280518
 20
26.02300071716309
 30
-43.23799896240234
 70
   192
  0
VERTEX
  5
426
  8
0
 10
7.045000076293945
 20
23.13899993896484
 30
-41.26699829101562
 70
   192
  0
VERTEX
  5
427
  8
0
 10
10.52600002288818
 20
26.53700065612793
 30
-42.42399978637695
 70
   192
  0
VERTEX
  5
428
  8
0
 10
7.048999786376953
 20
23.59700012207031
 30
-40.53400039672852
 70
   192
  0
VERTEX
  5
429
  8
0
 10
7.065000057220459
 20
25.33499908447266
 30
-37.42200088500977
 70
   192
  0
VERTEX
  5
42A
  8
0
 10
7.054999828338623
 20
24.31399917602539
 30
-39.38700103759766
 70
   192
  0
VERTEX
  5
42B
  8
0
 10
10.54300022125244
 20
28.48200035095215
 30
-38.89699935913086
 70
   192
  0
VERTEX
  5
42C
  8
0
 10
7.065000057220459
 20
25.34199905395508
 30
-37.40499877929688
 70
   192
  0
VERTEX
  5
42D
  8
0
 10
10.5310001373291
 20
27.18000030517578
 30
-41.40599822998047
 70
   192
  0
VERTEX
  5
42E
  8
0
 10
10.54100036621094
 20
28.20899963378906
 30
-39.49800109863281
 70
   192
  0
VERTEX
  5
42F
  8
0
 10
7.066999912261963
 20
25.56399917602539
 30
-36.88199996948242
 70
   192
  0
VERTEX
  5
430
  8
0
 10
10.55000019073486
 20
29.10799980163574
 30
-37.51499938964844
 70
   192
  0
VERTEX
  5
431
  8
0
 10
7.074999809265137
 20
26.19700050354004
 30
-35.38399887084961
 70
   192
  0
VERTEX
  5
432
  8
0
 10
10.5600004196167
 20
29.87199974060059
 30
-35.45999908447266
 70
   192
  0
VERTEX
  5
433
  8
0
 10
7.081999778747559
 20
26.64500045776367
 30
-34.03799819946289
 70
   192
  0
VERTEX
  5
434
  8
0
 10
10.5620002746582
 20
29.97599983215332
 30
-35.12300109863281
 70
   192
  0
VERTEX
  5
435
  8
0
 10
10.56700038909912
 20
30.28499984741211
 30
-34.12300109863281
 70
   192
  0
VERTEX
  5
436
  8
0
 10
7.085999965667725
 20
26.89599990844727
 30
-33.2869987487793
 70
   192
  0
VERTEX
  5
437
  8
0
 10
10.57699966430664
 20
30.80500030517578
 30
-32.01699829101562
 70
   192
  0
VERTEX
  5
438
  8
0
 10
7.093999862670898
 20
27.26399993896484
 30
-31.79400062561035
 70
   192
  0
VERTEX
  5
439
  8
0
 10
7.097000122070312
 20
27.42600059509277
 30
-31.14200019836426
 70
   192
  0
VERTEX
  5
43A
  8
0
 10
10.58100032806396
 20
30.94899940490723
 30
-31.19700050354004
 70
   192
  0
VERTEX
  5
43B
  8
0
 10
7.099999904632568
 20
27.52300071716309
 30
-30.55100059509277
 70
   192
  0
VERTEX
  5
43C
  8
0
 10
10.58800029754639
 20
31.18000030517578
 30
-29.87800025939941
 70
   192
  0
VERTEX
  5
43D
  8
0
 10
10.59799957275391
 20
31.4069995880127
 30
-27.71100044250488
 70
   192
  0
VERTEX
  5
43E
  8
0
 10
7.11899995803833
 20
27.95299911499023
 30
-26.98800086975098
 70
   192
  0
VERTEX
  5
43F
  8
0
 10
7.109000205993652
 20
27.78499984741211
 30
-28.9640007019043
 70
   192
  0
VERTEX
  5
440
  8
0
 10
10.60099983215332
 20
31.42499923706055
 30
-27.19000053405762
 70
   192
  0
VERTEX
  5
441
  8
0
 10
10.60900020599365
 20
31.48399925231934
 30
-25.51700019836426
 70
   192
  0
VERTEX
  5
442
  8
0
 10
7.127999782562256
 20
28.0
 30
-25.5
 70
   192
  0
VERTEX
  5
443
  8
0
 10
7.122000217437744
 20
27.97800064086914
 30
-26.47699928283691
 70
   192
  0
VERTEX
  5
444
  8
0
 10
10.625
 20
31.48299980163574
 30
-22.03400039672852
 70
   192
  0
VERTEX
  5
445
  8
0
 10
7.157999992370605
 20
28.0
 30
-19.72100067138672
 70
   192
  0
VERTEX
  5
446
  8
0
 10
10.62899971008301
 20
31.47800064086914
 30
-19.93099975585938
 70
   192
  0
VERTEX
  5
447
  8
0
 10
10.63099956512451
 20
31.47500038146973
 30
-19.02099990844727
 70
   192
  0
VERTEX
  5
448
  8
0
 10
7.120999813079834
 20
27.97100067138672
 30
-26.76600074768066
 70
   192
  0
VERTEX
  5
449
  8
0
 10
10.64700031280518
 20
31.45299911499023
 30
-10.85599994659424
 70
   192
  0
VERTEX
  5
44A
  8
0
 10
7.196000099182129
 20
28.0
 30
-12.44799995422363
 70
   192
  0
VERTEX
  5
44B
  8
0
 10
7.179999828338623
 20
28.0
 30
-15.55599975585938
 70
   192
  0
VERTEX
  5
44C
  8
0
 10
7.269000053405762
 20
28.0
 30
1.401000022888184
 70
   192
  0
VERTEX
  5
44D
  8
0
 10
10.67099952697754
 20
31.41900062561035
 30
1.569000005722046
 70
   192
  0
VERTEX
  5
44E
  8
0
 10
9.795000076293945
 20
30.53899955749512
 30
1.526000022888184
 70
   192
  0
VERTEX
  5
44F
  8
0
 10
7.127999782562256
 20
-28.0
 30
-25.5
 70
   192
  0
VERTEX
  5
450
  8
0
 62
     9
 10
0.0
 20
0.0
 30
0.0
 70
   128
 71
     3
 72
     2
 73
     1
  0
VERTEX
  5
451
  8
0
 62
     9
 10
0.0
 20
0.0
 30
0.0
 70
   128
 71
     3
 72
     4
 73
     2
  0
VERTEX
  5
452
  8
0
 62
     9
 10
0.0
 20
0.0
 30
0.0
 70
   128
 71
     4
 72
     6
 73
     5
  0
VERTEX
  5
453
  8
0
 62
     9
 10
0.0
 20
0.0
 30
0.0
 70
   128
 71
     5
 72
     2
 73
     4
  0
VERTEX
  5
454
  8
0
 62
     9
 10
0.0
 20
0.0
 30
0.0
 70
   128
 71
     7
 72
     5
 73
     6
  0
VERTEX
  5
455
  8
0
 62
     9
 10
0.0
 20
0.0
 30
0.0
 70
   128
 71
     9
 72
     7
 73
     8
  0
VERTEX
  5
456
  8
0
 62
     9
 10
0.0
 20
0.0
 30
0.0
 70
   128
 71
    11
 72
    10
 73
     9
  0
VERTEX
  5
457
  8
0
 62
     9
 10
0.0
 20
0.0
 30
0.0
 70
   128
 71
     9
 72
    12
 73
    11
  0
VERTEX
  5
458
  8
0
 62
     9
 10
0.0
 20
0.0
 30
0.0
 70
   128
 71
     8
 72
    12
 73
     9
  0
VERTEX
  5
459
  8
0
 62
     9
 10
0.0
 20
0.0
 30
0.0
 70
   128
 71
    11
 72
    13
 73
    10
  0
VERTEX
  5
45A
  8
0
 62
     9
 10
0.0
 20
0.0
 30
0.0
 70
   128
 71
    16
 72
    15
 73
    14
  0
VERTEX
  5
45B
  8
0
 62
     9
 10
0.0
 20
0.0
 30
0.0
 70
   128
 71
    14
 72
    10
 73
    13
  0
VERTEX
  5
45C
  8
0
 62
     9
 10
0.0
 20
0.0
 30
0.0
 70
   128
 71
    15
 72
    16
 73
    17
  0
VERTEX
  5
45D
  8
0
 62
     9
 10
0.0
 20
0.0
 30
0.0
 70
   128
 71
    17
 72
    18
 73
    15
  0
VERTEX
  5
45E
  8
0
 62
     9
 10
0.0
 20
0.0
 30
0.0
 70
   128
 71
    17
 72
    19
 73
    18
  0
VERTEX
  5
45F
  8
0
 62
     9
 10
0.0
 20
0.0
 30
0.0
 70
   128
 71
    20
 72
    18
 73
    19
  0
VERTEX
  5
460
  8
0
 62
     9
 10
0.0
 20
0.0
 30
0.0
 70
   128
 71
    22
 72
    21
 73
    20
  0
VERTEX
  5
461
  8
0
 62
     9
 10
0.0
 20
0.0
 30
0.0
 70
   128
 71
    20
 72
    23
 73
    22
  0
VERTEX
  5
462
  8
0
 62
     9
 10
0.0
 20
0.0
 30
0.0
 70
   128
 71
    21
 72
    22
 73
    24
  0
VERTEX
  5
463
  8
0
 62
     9
 10
0.0
 20
0.0
 30
0.0
 70
   128
 71
    24
 72
    25
 73
    21
  0
VERTEX
  5
464
  8
0
 62
     9
 10
0.0
 20
0.0
 30
0.0
 70
   128
 71
    27
 72
    26
 73
    25
  0
VERTEX
  5
465
  8
0
 62
     9
 10
0.0
 20
0.0
 30
0.0
 70
   128
 71
    27
 72
    29
 73
    28
  0
VERTEX
  5
466
  8
0
 62
     9
 10
0.0
 20
0.0
 30
0.0
 70
   128
 71
    32
 72
    31
 73
    30
  0
VERTEX
  5
467
  8
0
 62
     9
 10
0.0
 20
0.0
 30
0.0
 70
   128
 71
    30
 72
    28
 73
    32
  0
VERTEX
  5
468
  8
0
 62
     9
 10
0.0
 20
0.0
 30
0.0
 70
   128
 71
    28
 72
    29
 73
    32
  0
VERTEX
  5
469
  8
0
 62
     9
 10
0.0
 20
0.0
 30
0.0
 70
   128
 71
    28
 72
    26
 73
    27
  0
VERTEX
  5
46A
  8
0
 62
     9
 10
0.0
 20
0.0
 30
0.0
 70
   128
 71
    33
 72
    30
 73
    31
  0
VERTEX
  5
46B
  8
0
 62
     9
 10
0.0
 20
0.0
 30
0.0
 70
   128
 71
    36
 72
    35
 73
    34
  0
VERTEX
  5
46C
  8
0
 62
     9
 10
0.0
 20
0.0
 30
0.0
 70
   128
 71
    34
 72
    33
 73
    36
  0
VERTEX
  5
46D
  8
0
 62
     9
 10
0.0
 20
0.0
 30
0.0
 70
   128
 71
    35
 72
    38
 73
    37
  0
VERTEX
  5
46E
  8
0
 62
     9
 10
0.0
 20
0.0
 30
0.0
 70
   128
 71
    35
 72
    37
 73
    34
  0
VERTEX
  5
46F
  8
0
 62
     9
 10
0.0
 20
0.0
 30
0.0
 70
   128
 71
    40
 72
    39
 73
    37
  0
VERTEX
  5
470
  8
0
 62
     9
 10
0.0
 20
0.0
 30
0.0
 70
   128
 71
    40
 72
    41
 73
    39
  0
VERTEX
  5
471
  8
0
 62
     9
 10
0.0
 20
0.0
 30
0.0
 70
   128
 71
    41
 72
    43
 73
    42
  0
VERTEX
  5
472
  8
0
 62
     9
 10
0.0
 20
0.0
 30
0.0
 70
   128
 71
    42
 72
    39
 73
    41
  0
VERTEX
  5
473
  8
0
 62
     9
 10
0.0
 20
0.0
 30
0.0
 70
   128
 71
    43
 72
    44
 73
    42
  0
VERTEX
  5
474
  8
0
 62
     9
 10
0.0
 20
0.0
 30
0.0
 70
   128
 71
    47
 72
    46
 73
    45
  0
VERTEX
  5
475
  8
0
 62
     9
 10
0.0
 20
0.0
 30
0.0
 70
   128
 71
    45
 72
    44
 73
    48
  0
VERTEX
  5
476
  8
0
 62
     9
 10
0.0
 20
0.0
 30
0.0
 70
   128
 71
    46
 72
    50
 73
    49
  0
VERTEX
  5
477
  8
0
 62
     9
 10
0.0
 20
0.0
 30
0.0
 70
   128
 71
    49
 72
    51
 73
    46
  0
VERTEX
  5
478
  8
0
 62
     9
 10
0.0
 20
0.0
 30
0.0
 70
   128
 71
    46
 72
    47
 73
    50
  0
VERTEX
  5
479
  8
0
 62
     9
 10
0.0
 20
0.0
 30
0.0
 70
   128
 71
    45
 72
    48
 73
    47
  0
VERTEX
  5
47A
  8
0
 62
     9
 10
0.0
 20
0.0
 30
0.0
 70
   128
 71
    53
 72
    52
 73
    51
  0
VERTEX
  5
47B
  8
0
 62
     9
 10
0.0
 20
0.0
 30
0.0
 70
   128
 71
    55
 72
    54
 73
    52
  0
VERTEX
  5
47C
  8
0
 62
     9
 10
0.0
 20
0.0
 30
0.0
 70
   128
 71
    54
 72
    55
 73
    56
  0
VERTEX
  5
47D
  8
0
 62
     9
 10
0.0
 20
0.0
 30
0.0
 70
   128
 71
    56
 72
    57
 73
    54
  0
VERTEX
  5
47E
  8
0
 62
     9
 10
0.0
 20
0.0
 30
0.0
 70
   128
 71
    52
 72
    53
 73
    55
  0
VERTEX
  5
47F
  8
0
 62
     9
 10
0.0
 20
0.0
 30
0.0
 70
   128
 71
    59
 72
    58
 73
    57
  0
VERTEX
  5
480
  8
0
 62
     9
 10
0.0
 20
0.0
 30
0.0
 70
   128
 71
    59
 72
    60
 73
    58
  0
VERTEX
  5
481
  8
0
 62
     9
 10
0.0
 20
0.0
 30
0.0
 70
   128
 71
    63
 72
    62
 73
    61
  0
VERTEX
  5
482
  8
0
 62
     9
 10
0.0
 20
0.0
 30
0.0
 70
   128
 71
    64
 72
    58
 73
    63
  0
VERTEX
  5
483
  8
0
 62
     9
 10
0.0
 20
0.0
 30
0.0
 70
   128
 71
    61
 72
    64
 73
    63
  0
VERTEX
  5
484
  8
0
 62
     9
 10
0.0
 20
0.0
 30
0.0
 70
   128
 71
    58
 72
    60
 73
    63
  0
VERTEX
  5
485
  8
0
 62
     9
 10
0.0
 20
0.0
 30
0.0
 70
   128
 71
    65
 72
    61
 73
    62
  0
VERTEX
  5
486
  8
0
 62
     9
 10
0.0
 20
0.0
 30
0.0
 70
   128
 71
    68
 72
    67
 73
    66
  0
VERTEX
  5
487
  8
0
 62
     9
 10
0.0
 20
0.0
 30
0.0
 70
   128
 71
    66
 72
    65
 73
    68
  0
VERTEX
  5
488
  8
0
 62
     9
 10
0.0
 20
0.0
 30
0.0
 70
   128
 71
    65
 72
    69
 73
    68
  0
VERTEX
  5
489
  8
0
 62
     9
 10
0.0
 20
0.0
 30
0.0
 70
   128
 71
    70
 72
    66
 73
    67
  0
VERTEX
  5
48A
  8
0
 62
     9
 10
0.0
 20
0.0
 30
0.0
 70
   128
 71
    73
 72
    72
 73
    71
  0
VERTEX
  5
48B
  8
0
 62
     9
 10
0.0
 20
0.0
 30
0.0
 70
   128
 71
    72
 72
    75
 73
    74
  0
VERTEX
  5
48C
  8
0
 62
     9
 10
0.0
 20
0.0
 30
0.0
 70
   128
 71
    74
 72
    71
 73
    72
  0
VERTEX
  5
48D
  8
0
 62
     9
 10
0.0
 20
0.0
 30
0.0
 70
   128
 71
    71
 72
    70
 73
    73
  0
VERTEX
  5
48E
  8
0
 62
     9
 10
0.0
 20
0.0
 30
0.0
 70
   128
 71
    76
 72
    74
 73
    75
  0
VERTEX
  5
48F
  8
0
 62
     9
 10
0.0
 20
0.0
 30
0.0
 70
   128
 71
    78
 72
    77
 73
    76
  0
VERTEX
  5
490
  8
0
 62
     9
 10
0.0
 20
0.0
 30
0.0
 70
   128
 71
    76
 72
    79
 73
    78
  0
VERTEX
  5
491
  8
0
 62
     9
 10
0.0
 20
0.0
 30
0.0
 70
   128
 71
    77
 72
    78
 73
    80
  0
VERTEX
  5
492
  8
0
 62
     9
 10
0.0
 20
0.0
 30
0.0
 70
   128
 71
    80
 72
    81
 73
    77
  0
VERTEX
  5
493
  8
0
 62
     9
 10
0.0
 20
0.0
 30
0.0
 70
   128
 71
    80
 72
    82
 73
    81
  0
VERTEX
  5
494
  8
0
 62
     9
 10
0.0
 20
0.0
 30
0.0
 70
   128
 71
    85
 72
    84
 73
    83
  0
VERTEX
  5
495
  8
0
 62
     9
 10
0.0
 20
0.0
 30
0.0
 70
   128
 71
    83
 72
    81
 73
    82
  0
VERTEX
  5
496
  8
0
 62
     9
 10
0.0
 20
0.0
 30
0.0
 70
   128
 71
    88
 72
    87
 73
    86
  0
VERTEX
  5
497
  8
0
 62
     9
 10
0.0
 20
0.0
 30
0.0
 70
   128
 71
    86
 72
    84
 73
    88
  0
VERTEX
  5
498
  8
0
 62
     9
 10
0.0
 20
0.0
 30
0.0
 70
   128
 71
    84
 72
    85
 73
    88
  0
VERTEX
  5
499
  8
0
 62
     9
 10
0.0
 20
0.0
 30
0.0
 70
   128
 71
    90
 72
    89
 73
    86
  0
VERTEX
  5
49A
  8
0
 62
     9
 10
0.0
 20
0.0
 30
0.0
 70
   128
 71
    91
 72
    89
 73
    90
  0
VERTEX
  5
49B
  8
0
 62
     9
 10
0.0
 20
0.0
 30
0.0
 70
   128
 71
    90
 72
    92
 73
    91
  0
VERTEX
  5
49C
  8
0
 62
     9
 10
0.0
 20
0.0
 30
0.0
 70
   128
 71
    94
 72
    92
 73
    93
  0
VERTEX
  5
49D
  8
0
 62
     9
 10
0.0
 20
0.0
 30
0.0
 70
   128
 71
    93
 72
    95
 73
    94
  0
VERTEX
  5
49E
  8
0
 62
     9
 10
0.0
 20
0.0
 30
0.0
 70
   128
 71
    92
 72
    94
 73
    91
  0
VERTEX
  5
49F
  8
0
 62
     9
 10
0.0
 20
0.0
 30
0.0
 70
   128
 71
    93
 72
    97
 73
    96
  0
VERTEX
  5
4A0
  8
0
 62
     9
 10
0.0
 20
0.0
 30
0.0
 70
   128
 71
    97
 72
    98
 73
    96
  0
VERTEX
  5
4A1
  8
0
 62
     9
 10
0.0
 20
0.0
 30
0.0
 70
   128
 71
    98
 72
   100
 73
    99
  0
VERTEX
  5
4A2
  8
0
 62
     9
 10
0.0
 20
0.0
 30
0.0
 70
   128
 71
    99
 72
    96
 73
    98
  0
VERTEX
  5
4A3
  8
0
 62
     9
 10
0.0
 20
0.0
 30
0.0
 70
   128
 71
   100
 72
   101
 73
    99
  0
VERTEX
  5
4A4
  8
0
 62
     9
 10
0.0
 20
0.0
 30
0.0
 70
   128
 71
   104
 72
   103
 73
   102
  0
VERTEX
  5
4A5
  8
0
 62
     9
 10
0.0
 20
0.0
 30
0.0
 70
   128
 71
   102
 72
   101
 73
   105
  0
VERTEX
  5
4A6
  8
0
 62
     9
 10
0.0
 20
0.0
 30
0.0
 70
   128
 71
   103
 72
   107
 73
   106
  0
VERTEX
  5
4A7
  8
0
 62
     9
 10
0.0
 20
0.0
 30
0.0
 70
   128
 71
   106
 72
   108
 73
   103
  0
VERTEX
  5
4A8
  8
0
 62
     9
 10
0.0
 20
0.0
 30
0.0
 70
   128
 71
   103
 72
   104
 73
   107
  0
VERTEX
  5
4A9
  8
0
 62
     9
 10
0.0
 20
0.0
 30
0.0
 70
   128
 71
   102
 72
   105
 73
   104
  0
VERTEX
  5
4AA
  8
0
 62
     9
 10
0.0
 20
0.0
 30
0.0
 70
   128
 71
   110
 72
   109
 73
   108
  0
VERTEX
  5
4AB
  8
0
 62
     9
 10
0.0
 20
0.0
 30
0.0
 70
   128
 71
   111
 72
   109
 73
   110
  0
VERTEX
  5
4AC
  8
0
 62
     9
 10
0.0
 20
0.0
 30
0.0
 70
   128
 71
   110
 72
   112
 73
   111
  0
VERTEX
  5
4AD
  8
0
 62
     9
 10
0.0
 20
0.0
 30
0.0
 70
   128
 71
   112
 72
   114
 73
   113
  0
VERTEX
  5
4AE
  8
0
 62
     9
 10
0.0
 20
0.0
 30
0.0
 70
   128
 71
   112
 72
   113
 73
   111
  0
VERTEX
  5
4AF
  8
0
 62
     9
 10
0.0
 20
0.0
 30
0.0
 70
   128
 71
   116
 72
   115
 73
   113
  0
VERTEX
  5
4B0
  8
0
 62
     9
 10
0.0
 20
0.0
 30
0.0
 70
   128
 71
   116
 72
   117
 73
   115
  0
VERTEX
  5
4B1
  8
0
 62
     9
 10
0.0
 20
0.0
 30
0.0
 70
   128
 71
   117
 72
   119
 73
   118
  0
VERTEX
  5
4B2
  8
0
 62
     9
 10
0.0
 20
0.0
 30
0.0
 70
   128
 71
   118
 72
   115
 73
   117
  0
VERTEX
  5
4B3
  8
0
 62
     9
 10
0.0
 20
0.0
 30
0.0
 70
   128
 71
   119
 72
   120
 73
   118
  0
VERTEX
  5
4B4
  8
0
 62
     9
 10
0.0
 20
0.0
 30
0.0
 70
   128
 71
   122
 72
   120
 73
   121
  0
VERTEX
  5
4B5
  8
0
 62
     9
 10
0.0
 20
0.0
 30
0.0
 70
   128
 71
   121
 72
   123
 73
   122
  0
VERTEX
  5
4B6
  8
0
 62
     9
 10
0.0
 20
0.0
 30
0.0
 70
   128
 71
   123
 72
   125
 73
   124
  0
VERTEX
  5
4B7
  8
0
 62
     9
 10
0.0
 20
0.0
 30
0.0
 70
   128
 71
   125
 72
   127
 73
   126
  0
VERTEX
  5
4B8
  8
0
 62
     9
 10
0.0
 20
0.0
 30
0.0
 70
   128
 71
   126
 72
   124
 73
   125
  0
VERTEX
  5
4B9
  8
0
 62
     9
 10
0.0
 20
0.0
 30
0.0
 70
   128
 71
   123
 72
   124
 73
   122
  0
VERTEX
  5
4BA
  8
0
 62
     9
 10
0.0
 20
0.0
 30
0.0
 70
   128
 71
   129
 72
   128
 73
   126
  0
VERTEX
  5
4BB
  8
0
 62
     9
 10
0.0
 20
0.0
 30
0.0
 70
   128
 71
   128
 72
   131
 73
   130
  0
VERTEX
  5
4BC
  8
0
 62
     9
 10
0.0
 20
0.0
 30
0.0
 70
   128
 71
   133
 72
   132
 73
   128
  0
VERTEX
  5
4BD
  8
0
 62
     9
 10
0.0
 20
0.0
 30
0.0
 70
   128
 71
   132
 72
   126
 73
   128
  0
VERTEX
  5
4BE
  8
0
 62
     9
 10
0.0
 20
0.0
 30
0.0
 70
   128
 71
   130
 72
   133
 73
   128
  0
VERTEX
  5
4BF
  8
0
 62
     9
 10
0.0
 20
0.0
 30
0.0
 70
   128
 71
   126
 72
   127
 73
   129
  0
VERTEX
  5
4C0
  8
0
 62
     9
 10
0.0
 20
0.0
 30
0.0
 70
   128
 71
   135
 72
   130
 73
   134
  0
VERTEX
  5
4C1
  8
0
 62
     9
 10
0.0
 20
0.0
 30
0.0
 70
   128
 71
   134
 72
   136
 73
   135
  0
VERTEX
  5
4C2
  8
0
 62
     9
 10
0.0
 20
0.0
 30
0.0
 70
   128
 71
   136
 72
   138
 73
   137
  0
VERTEX
  5
4C3
  8
0
 62
     9
 10
0.0
 20
0.0
 30
0.0
 70
   128
 71
   137
 72
   135
 73
   136
  0
VERTEX
  5
4C4
  8
0
 62
     9
 10
0.0
 20
0.0
 30
0.0
 70
   128
 71
   138
 72
   139
 73
   137
  0
VERTEX
  5
4C5
  8
0
 62
     9
 10
0.0
 20
0.0
 30
0.0
 70
   128
 71
   141
 72
   140
 73
   139
  0
VERTEX
  5
4C6
  8
0
 62
     9
 10
0.0
 20
0.0
 30
0.0
 70
   128
 71
   143
 72
   142
 73
   140
  0
VERTEX
  5
4C7
  8
0
 62
     9
 10
0.0
 20
0.0
 30
0.0
 70
   128
 71
   143
 72
   144
 73
   142
  0
VERTEX
  5
4C8
  8
0
 62
     9
 10
0.0
 20
0.0
 30
0.0
 70
   128
 71
   144
 72
   146
 73
   145
  0
VERTEX
  5
4C9
  8
0
 62
     9
 10
0.0
 20
0.0
 30
0.0
 70
   128
 71
   145
 72
   142
 73
   144
  0
VERTEX
  5
4CA
  8
0
 62
     9
 10
0.0
 20
0.0
 30
0.0
 70
   128
 71
   140
 72
   141
 73
   143
  0
VERTEX
  5
4CB
  8
0
 62
     9
 10
0.0
 20
0.0
 30
0.0
 70
   128
 71
   147
 72
   145
 73
   146
  0
VERTEX
  5
4CC
  8
0
 62
     9
 10
0.0
 20
0.0
 30
0.0
 70
   128
 71
   150
 72
   149
 73
   148
  0
VERTEX
  5
4CD
  8
0
 62
     9
 10
0.0
 20
0.0
 30
0.0
 70
   128
 71
   148
 72
   147
 73
   150
  0
VERTEX
  5
4CE
  8
0
 62
     9
 10
0.0
 20
0.0
 30
0.0
 70
   128
 71
   149
 72
   151
 73
   148
  0
VERTEX
  5
4CF
  8
0
 62
     9
 10
0.0
 20
0.0
 30
0.0
 70
   128
 71
   154
 72
   153
 73
   152
  0
VERTEX
  5
4D0
  8
0
 62
     9
 10
0.0
 20
0.0
 30
0.0
 70
   128
 71
   152
 72
   151
 73
   154
  0
VERTEX
  5
4D1
  8
0
 62
     9
 10
0.0
 20
0.0
 30
0.0
 70
   128
 71
   155
 72
   152
 73
   153
  0
VERTEX
  5
4D2
  8
0
 62
     9
 10
0.0
 20
0.0
 30
0.0
 70
   128
 71
   153
 72
   156
 73
   155
  0
VERTEX
  5
4D3
  8
0
 62
     9
 10
0.0
 20
0.0
 30
0.0
 70
   128
 71
   156
 72
   157
 73
   155
  0
VERTEX
  5
4D4
  8
0
 62
     9
 10
0.0
 20
0.0
 30
0.0
 70
   128
 71
   156
 72
   158
 73
   157
  0
VERTEX
  5
4D5
  8
0
 62
     9
 10
0.0
 20
0.0
 30
0.0
 70
   128
 71
   151
 72
   159
 73
   154
  0
VERTEX
  5
4D6
  8
0
 62
     9
 10
0.0
 20
0.0
 30
0.0
 70
   128
 71
   162
 72
   161
 73
   160
  0
VERTEX
  5
4D7
  8
0
 62
     9
 10
0.0
 20
0.0
 30
0.0
 70
   128
 71
   160
 72
   158
 73
   162
  0
VERTEX
  5
4D8
  8
0
 62
     9
 10
0.0
 20
0.0
 30
0.0
 70
   128
 71
   160
 72
   161
 73
   163
  0
VERTEX
  5
4D9
  8
0
 62
     9
 10
0.0
 20
0.0
 30
0.0
 70
   128
 71
   165
 72
   164
 73
   160
  0
VERTEX
  5
4DA
  8
0
 62
     9
 10
0.0
 20
0.0
 30
0.0
 70
   128
 71
   163
 72
   165
 73
   160
  0
VERTEX
  5
4DB
  8
0
 62
     9
 10
0.0
 20
0.0
 30
0.0
 70
   128
 71
   158
 72
   156
 73
   162
  0
VERTEX
  5
4DC
  8
0
 62
     9
 10
0.0
 20
0.0
 30
0.0
 70
   128
 71
   151
 72
   149
 73
   159
  0
VERTEX
  5
4DD
  8
0
 62
     9
 10
0.0
 20
0.0
 30
0.0
 70
   128
 71
   146
 72
   150
 73
   147
  0
VERTEX
  5
4DE
  8
0
 62
     9
 10
0.0
 20
0.0
 30
0.0
 70
   128
 71
   139
 72
   138
 73
   141
  0
VERTEX
  5
4DF
  8
0
 62
     9
 10
0.0
 20
0.0
 30
0.0
 70
   128
 71
   130
 72
   131
 73
   134
  0
VERTEX
  5
4E0
  8
0
 62
     9
 10
0.0
 20
0.0
 30
0.0
 70
   128
 71
   120
 72
   119
 73
   121
  0
VERTEX
  5
4E1
  8
0
 62
     9
 10
0.0
 20
0.0
 30
0.0
 70
   128
 71
   113
 72
   114
 73
   116
  0
VERTEX
  5
4E2
  8
0
 62
     9
 10
0.0
 20
0.0
 30
0.0
 70
   128
 71
   108
 72
   106
 73
   110
  0
VERTEX
  5
4E3
  8
0
 62
     9
 10
0.0
 20
0.0
 30
0.0
 70
   128
 71
   101
 72
   100
 73
   105
  0
VERTEX
  5
4E4
  8
0
 62
     9
 10
0.0
 20
0.0
 30
0.0
 70
   128
 71
    96
 72
    95
 73
    93
  0
VERTEX
  5
4E5
  8
0
 62
     9
 10
0.0
 20
0.0
 30
0.0
 70
   128
 71
    86
 72
    87
 73
    90
  0
VERTEX
  5
4E6
  8
0
 62
     9
 10
0.0
 20
0.0
 30
0.0
 70
   128
 71
    83
 72
    82
 73
    85
  0
VERTEX
  5
4E7
  8
0
 62
     9
 10
0.0
 20
0.0
 30
0.0
 70
   128
 71
    75
 72
    79
 73
    76
  0
VERTEX
  5
4E8
  8
0
 62
     9
 10
0.0
 20
0.0
 30
0.0
 70
   128
 71
    67
 72
    73
 73
    70
  0
VERTEX
  5
4E9
  8
0
 62
     9
 10
0.0
 20
0.0
 30
0.0
 70
   128
 71
    62
 72
    69
 73
    65
  0
VERTEX
  5
4EA
  8
0
 62
     9
 10
0.0
 20
0.0
 30
0.0
 70
   128
 71
    57
 72
    56
 73
    59
  0
VERTEX
  5
4EB
  8
0
 62
     9
 10
0.0
 20
0.0
 30
0.0
 70
   128
 71
    51
 72
    49
 73
    53
  0
VERTEX
  5
4EC
  8
0
 62
     9
 10
0.0
 20
0.0
 30
0.0
 70
   128
 71
    44
 72
    43
 73
    48
  0
VERTEX
  5
4ED
  8
0
 62
     9
 10
0.0
 20
0.0
 30
0.0
 70
   128
 71
    37
 72
    38
 73
    40
  0
VERTEX
  5
4EE
  8
0
 62
     9
 10
0.0
 20
0.0
 30
0.0
 70
   128
 71
    31
 72
    36
 73
    33
  0
VERTEX
  5
4EF
  8
0
 62
     9
 10
0.0
 20
0.0
 30
0.0
 70
   128
 71
    25
 72
    24
 73
    27
  0
VERTEX
  5
4F0
  8
0
 62
     9
 10
0.0
 20
0.0
 30
0.0
 70
   128
 71
    19
 72
    23
 73
    20
  0
VERTEX
  5
4F1
  8
0
 62
     9
 10
0.0
 20
0.0
 30
0.0
 70
   128
 71
    14
 72
    13
 73
    16
  0
VERTEX
  5
4F2
  8
0
 62
     9
 10
0.0
 20
0.0
 30
0.0
 70
   128
 71
     6
 72
     8
 73
     7
  0
VERTEX
  5
4F3
  8
0
 62
     9
 10
0.0
 20
0.0
 30
0.0
 70
   128
 71
     1
 72
   166
 73
     3
  0
SEQEND
  5
4F4
  8
0
 62
     9
  0
ENDBLK
  5
4F7
  8
0
  0
BLOCK
  8
0
  2
E3_NODE_7_
 70
     0
 10
0.0
 20
0.0
 30
0.0
  3
E3_NODE_7_
  1

  0
POLYLINE
  5
4F9
  8
0
 62
     9
 66
     1
 10
0.0
 20
0.0
 30
0.0
 70
    64
 71
    10
 72
     8
  0
VERTEX
  5
4FA
  8
0
 10
7.188000202178955
 20
-28.0
 30
-4.099999904632568
 70
   192
  0
VERTEX
  5
4FB
  8
0
 10
10.67000007629395
 20
-31.48399925231934
 30
0.0
 70
   192
  0
VERTEX
  5
4FC
  8
0
 10
10.62199974060059
 20
-31.48399925231934
 30
-19.93099975585938
 70
   192
  0
VERTEX
  5
4FD
  8
0
 10
7.127999782562256
 20
-28.0
 30
-25.5
 70
   192
  0
VERTEX
  5
4FE
  8
0
 10
10.60900020599365
 20
-31.48399925231934
 30
-25.51700019836426
 70
   192
  0
VERTEX
  5
4FF
  8
0
 10
7.179999828338623
 20
-28.0
 30
0.0
 70
   192
  0
VERTEX
  5
500
  8
0
 10
7.126999855041504
 20
-28.0
 30
25.5
 70
   192
  0
VERTEX
  5
501
  8
0
 10
10.6230001449585
 20
-31.48399925231934
 30
19.94700050354004
 70
   192
  0
VERTEX
  5
502
  8
0
 10
10.67099952697754
 20
-31.48399925231934
 30
0.5009999871253967
 70
   192
  0
VERTEX
  5
503
  8
0
 10
10.60900020599365
 20
-31.48399925231934
 30
25.51700019836426
 70
   192
  0
VERTEX
  5
504
  8
0
 62
     9
 10
0.0
 20
0.0
 30
0.0
 70
   128
 71
     3
 72
     2
 73
     1
  0
VERTEX
  5
505
  8
0
 62
     9
 10
0.0
 20
0.0
 30
0.0
 70
   128
 71
     1
 72
     4
 73
     3
  0
VERTEX
  5
506
  8
0
 62
     9
 10
0.0
 20
0.0
 30
0.0
 70
   128
 71
     4
 72
     5
 73
     3
  0
VERTEX
  5
507
  8
0
 62
     9
 10
0.0
 20
0.0
 30
0.0
 70
   128
 71
     8
 72
     7
 73
     6
  0
VERTEX
  5
508
  8
0
 62
     9
 10
0.0
 20
0.0
 30
0.0
 70
   128
 71
     6
 72
     9
 73
     8
  0
VERTEX
  5
509
  8
0
 62
     9
 10
0.0
 20
0.0
 30
0.0
 70
   128
 71
     8
 72
    10
 73
     7
  0
VERTEX
  5
50A
  8
0
 62
     9
 10
0.0
 20
0.0
 30
0.0
 70
   128
 71
     6
 72
     2
 73
     9
  0
VERTEX
  5
50B
  8
0
 62
     9
 10
0.0
 20
0.0
 30
0.0
 70
   128
 71
     2
 72
     6
 73
     1
  0
SEQEND
  5
50C
  8
0
 62
     9
  0
ENDBLK
  5
50F
  8
0
  0
BLOCK
  8
0
  2
E3_NODE_8_
 70
     0
 10
0.0
 20
0.0
 30
0.0
  3
E3_NODE_8_
  1

  0
POLYLINE
  5
511
  8
0
 62
     9
 66
     1
 10
0.0
 20
0.0
 30
0.0
 70
    64
 71
   250
 72
   262
  0
VERTEX
  5
512
  8
0
 10
10.31599998474121
 20
-33.59700012207031
 30
-59.80799865722656
 70
   192
  0
VERTEX
  5
513
  8
0
 10
10.61999988555908
 20
-33.59700012207031
 30
-19.93099975585938
 70
   192
  0
VERTEX
  5
514
  8
0
 10
10.14599990844727
 20
-78.0
 30
-19.9379997253418
 70
   192
  0
VERTEX
  5
515
  8
0
 10
10.61999988555908
 20
-33.59700012207031
 30
19.94700050354004
 70
   192
  0
VERTEX
  5
516
  8
0
 10
10.14599990844727
 20
-78.0
 30
19.93600082397461
 70
   192
  0
VERTEX
  5
517
  8
0
 10
10.3149995803833
 20
-33.59700012207031
 30
59.82400131225586
 70
   192
  0
VERTEX
  5
518
  8
0
 10
9.840999603271484
 20
-78.0
 30
59.81000137329102
 70
   192
  0
VERTEX
  5
519
  8
0
 10
10.13199996948242
 20
55.2130012512207
 30
-59.81000137329102
 70
   192
  0
VERTEX
  5
51A
  8
0
 10
9.842000007629395
 20
78.0
 30
-59.8120002746582
 70
   192
  0
VERTEX
  5
51B
  8
0
 10
10.14599990844727
 20
78.0
 30
-19.9379997253418
 70
   192
  0
VERTEX
  5
51C
  8
0
 10
10.43599987030029
 20
55.2130012512207
 30
-19.93400001525879
 70
   192
  0
VERTEX
  5
51D
  8
0
 10
10.14599990844727
 20
78.0
 30
19.93600082397461
 70
   192
  0
VERTEX
  5
51E
  8
0
 10
10.43599987030029
 20
55.2130012512207
 30
19.94300079345703
 70
   192
  0
VERTEX
  5
51F
  8
0
 10
9.840999603271484
 20
78.0
 30
59.81000137329102
 70
   192
  0
VERTEX
  5
520
  8
0
 10
10.67000007629395
 20
-31.48399925231934
 30
0.0
 70
   192
  0
VERTEX
  5
521
  8
0
 10
10.67099952697754
 20
-31.48399925231934
 30
0.5009999871253967
 70
   192
  0
VERTEX
  5
522
  8
0
 10
10.62199974060059
 20
-31.48399925231934
 30
-19.93099975585938
 70
   192
  0
VERTEX
  5
523
  8
0
 10
10.41199970245361
 20
10.80900001525879
 30
59.82699966430664
 70
   192
  0
VERTEX
  5
524
  8
0
 10
10.46100044250488
 20
9.055999755859375
 30
55.66999816894531
 70
   192
  0
VERTEX
  5
525
  8
0
 10
10.46199989318848
 20
9.682000160217285
 30
55.45800018310547
 70
   192
  0
VERTEX
  5
526
  8
0
 10
10.45699977874756
 20
4.817999839782715
 30
56.63000106811523
 70
   192
  0
VERTEX
  5
527
  8
0
 10
10.45800018310547
 20
5.869999885559082
 30
56.42900085449219
 70
   192
  0
VERTEX
  5
528
  8
0
 10
10.45899963378906
 20
6.958000183105469
 30
56.22200012207031
 70
   192
  0
VERTEX
  5
529
  8
0
 10
10.45499992370605
 20
0.7369999885559082
 30
56.99200057983398
 70
   192
  0
VERTEX
  5
52A
  8
0
 10
10.45499992370605
 20
1.934999942779541
 30
56.92800140380859
 70
   192
  0
VERTEX
  5
52B
  8
0
 10
10.45499992370605
 20
2.638000011444092
 30
56.88999938964844
 70
   192
  0
VERTEX
  5
52C
  8
0
 10
10.45499992370605
 20
-1.432000041007996
 30
56.96799850463867
 70
   192
  0
VERTEX
  5
52D
  8
0
 10
10.45499992370605
 20
-2.003000020980835
 30
56.92200088500977
 70
   192
  0
VERTEX
  5
52E
  8
0
 10
10.45600032806396
 20
-3.595999956130981
 30
56.79499816894531
 70
   192
  0
VERTEX
  5
52F
  8
0
 10
10.45800018310547
 20
-5.750999927520752
 30
56.47100067138672
 70
   192
  0
VERTEX
  5
530
  8
0
 10
10.46000003814697
 20
-7.894999980926514
 30
55.99499893188477
 70
   192
  0
VERTEX
  5
531
  8
0
 10
10.45800018310547
 20
-5.919000148773193
 30
56.43399810791016
 70
   192
  0
VERTEX
  5
532
  8
0
 10
10.46599960327148
 20
-11.77099990844727
 30
54.71699905395508
 70
   192
  0
VERTEX
  5
533
  8
0
 10
10.46300029754639
 20
-9.76099967956543
 30
55.44800186157227
 70
   192
  0
VERTEX
  5
534
  8
0
 10
10.46199989318848
 20
-9.729999542236328
 30
55.45899963378906
 70
   192
  0
VERTEX
  5
535
  8
0
 10
10.47000026702881
 20
-13.75599956512451
 30
53.83700180053711
 70
   192
  0
VERTEX
  5
536
  8
0
 10
10.47000026702881
 20
-13.41600036621094
 30
53.98699951171875
 70
   192
  0
VERTEX
  5
537
  8
0
 10
10.47500038146973
 20
-15.68299961090088
 30
52.81700134277344
 70
   192
  0
VERTEX
  5
538
  8
0
 10
10.48099994659424
 20
-17.54800033569336
 30
51.65700149536133
 70
   192
  0
VERTEX
  5
539
  8
0
 10
10.47900009155273
 20
-16.8799991607666
 30
52.07199859619141
 70
   192
  0
VERTEX
  5
53A
  8
0
 10
10.49300003051758
 20
-20.76300048828125
 30
49.18399810791016
 70
   192
  0
VERTEX
  5
53B
  8
0
 10
10.48999977111816
 20
-20.07799911499023
 30
49.74499893188477
 70
   192
  0
VERTEX
  5
53C
  8
0
 10
10.48600006103516
 20
-19.08399963378906
 30
50.55799865722656
 70
   192
  0
VERTEX
  5
53D
  8
0
 10
10.5
 20
-22.34499931335449
 30
47.69599914550781
 70
   192
  0
VERTEX
  5
53E
  8
0
 10
10.50800037384033
 20
-23.82500076293945
 30
46.09799957275391
 70
   192
  0
VERTEX
  5
53F
  8
0
 10
10.50399971008301
 20
-22.94099998474121
 30
47.05199813842773
 70
   192
  0
VERTEX
  5
540
  8
0
 10
10.52200031280518
 20
-26.02300071716309
 30
43.23799896240234
 70
   192
  0
VERTEX
  5
541
  8
0
 10
10.51799964904785
 20
-25.47800064086914
 30
44.00099945068359
 70
   192
  0
VERTEX
  5
542
  8
0
 10
10.5310001373291
 20
-27.18000030517578
 30
41.40599822998047
 70
   192
  0
VERTEX
  5
543
  8
0
 10
10.51700019836426
 20
-25.20199966430664
 30
44.38600158691406
 70
   192
  0
VERTEX
  5
544
  8
0
 10
10.53999996185303
 20
-28.20899963378906
 30
39.49800109863281
 70
   192
  0
VERTEX
  5
545
  8
0
 10
10.53499984741211
 20
-27.57799911499023
 30
40.66899871826172
 70
   192
  0
VERTEX
  5
546
  8
0
 10
10.55000019073486
 20
-29.10799980163574
 30
37.51499938964844
 70
   192
  0
VERTEX
  5
547
  8
0
 10
10.5600004196167
 20
-29.87199974060059
 30
35.45999908447266
 70
   192
  0
VERTEX
  5
548
  8
0
 10
10.55200004577637
 20
-29.26099967956543
 30
37.10200119018555
 70
   192
  0
VERTEX
  5
549
  8
0
 10
10.57699966430664
 20
-30.80500030517578
 30
32.01699829101562
 70
   192
  0
VERTEX
  5
54A
  8
0
 10
10.57100009918213
 20
-30.48100090026855
 30
33.33000183105469
 70
   192
  0
VERTEX
  5
54B
  8
0
 10
10.56700038909912
 20
-30.28499984741211
 30
34.12300109863281
 70
   192
  0
VERTEX
  5
54C
  8
0
 10
10.59799957275391
 20
-31.4069995880127
 30
27.71100044250488
 70
   192
  0
VERTEX
  5
54D
  8
0
 10
10.58899974822998
 20
-31.22299957275391
 30
29.46699905395508
 70
   192
  0
VERTEX
  5
54E
  8
0
 10
10.58699989318848
 20
-31.18000030517578
 30
29.87800025939941
 70
   192
  0
VERTEX
  5
54F
  8
0
 10
10.6230001449585
 20
-31.48399925231934
 30
19.94700050354004
 70
   192
  0
VERTEX
  5
550
  8
0
 10
10.60900020599365
 20
-31.48399925231934
 30
25.51700019836426
 70
   192
  0
VERTEX
  5
551
  8
0
 10
10.60900020599365
 20
31.48399925231934
 30
25.51700019836426
 70
   192
  0
VERTEX
  5
552
  8
0
 10
10.62399959564209
 20
31.47800064086914
 30
21.57099914550781
 70
   192
  0
VERTEX
  5
553
  8
0
 10
10.59799957275391
 20
31.40999984741211
 30
27.67000007629395
 70
   192
  0
VERTEX
  5
554
  8
0
 10
10.60900020599365
 20
31.48200035095215
 30
25.55400085449219
 70
   192
  0
VERTEX
  5
555
  8
0
 10
10.58800029754639
 20
31.1870002746582
 30
29.82999992370605
 70
   192
  0
VERTEX
  5
556
  8
0
 10
10.58899974822998
 20
31.2180004119873
 30
29.52799987792969
 70
   192
  0
VERTEX
  5
557
  8
0
 10
10.57800006866455
 20
30.86800003051758
 30
31.71299934387207
 70
   192
  0
VERTEX
  5
558
  8
0
 10
10.13199996948242
 20
55.2130012512207
 30
59.81900024414062
 70
   192
  0
VERTEX
  5
559
  8
0
 10
10.56999969482422
 20
30.4680004119873
 30
33.40399932861328
 70
   192
  0
VERTEX
  5
55A
  8
0
 10
10.56799983978271
 20
30.36800003051758
 30
33.82300186157227
 70
   192
  0
VERTEX
  5
55B
  8
0
 10
10.55799961090088
 20
29.72400093078613
 30
35.89599990844727
 70
   192
  0
VERTEX
  5
55C
  8
0
 10
10.54800033569336
 20
28.93499946594238
 30
37.92699813842773
 70
   192
  0
VERTEX
  5
55D
  8
0
 10
10.55200004577637
 20
29.23900032043457
 30
37.14400100708008
 70
   192
  0
VERTEX
  5
55E
  8
0
 10
10.52999973297119
 20
27.07699966430664
 30
41.58100128173828
 70
   192
  0
VERTEX
  5
55F
  8
0
 10
10.53400039672852
 20
27.54700088500977
 30
40.73099899291992
 70
   192
  0
VERTEX
  5
560
  8
0
 10
10.52099990844727
 20
25.9069995880127
 30
43.40599822998047
 70
   192
  0
VERTEX
  5
561
  8
0
 10
10.53800010681152
 20
27.99900054931641
 30
39.91299819946289
 70
   192
  0
VERTEX
  5
562
  8
0
 10
10.51299953460693
 20
24.61199951171875
 30
45.15000152587891
 70
   192
  0
VERTEX
  5
563
  8
0
 10
10.51799964904785
 20
25.42799949645996
 30
44.05099868774414
 70
   192
  0
VERTEX
  5
564
  8
0
 10
10.50500011444092
 20
23.19499969482422
 30
46.80599975585938
 70
   192
  0
VERTEX
  5
565
  8
0
 10
10.49699974060059
 20
21.65399932861328
 30
48.37200164794922
 70
   192
  0
VERTEX
  5
566
  8
0
 10
10.50300025939941
 20
22.91200065612793
 30
47.09299850463867
 70
   192
  0
VERTEX
  5
567
  8
0
 10
10.48400020599365
 20
18.52300071716309
 30
50.97499847412109
 70
   192
  0
VERTEX
  5
568
  8
0
 10
10.48999977111816
 20
20.01899909973145
 30
49.80599975585938
 70
   192
  0
VERTEX
  5
569
  8
0
 10
10.49100017547607
 20
20.23200035095215
 30
49.63899993896484
 70
   192
  0
VERTEX
  5
56A
  8
0
 10
10.47799968719482
 20
16.72500038146973
 30
52.19100189208984
 70
   192
  0
VERTEX
  5
56B
  8
0
 10
10.47900009155273
 20
16.83699989318848
 30
52.1150016784668
 70
   192
  0
VERTEX
  5
56C
  8
0
 10
10.47000026702881
 20
13.35700035095215
 30
54.01100158691406
 70
   192
  0
VERTEX
  5
56D
  8
0
 10
10.47299957275391
 20
14.84000015258789
 30
53.28400039672852
 70
   192
  0
VERTEX
  5
56E
  8
0
 10
10.4680004119873
 20
12.86800003051758
 30
54.25099945068359
 70
   192
  0
VERTEX
  5
56F
  8
0
 10
10.46399974822998
 20
10.80900001525879
 30
55.07699966430664
 70
   192
  0
VERTEX
  5
570
  8
0
 10
10.46500015258789
 20
11.10999965667725
 30
54.97499847412109
 70
   192
  0
VERTEX
  5
571
  8
0
 10
10.64700031280518
 20
31.45299911499023
 30
-10.85599994659424
 70
   192
  0
VERTEX
  5
572
  8
0
 10
10.63099956512451
 20
31.47500038146973
 30
-19.02099990844727
 70
   192
  0
VERTEX
  5
573
  8
0
 10
10.67099952697754
 20
31.41900062561035
 30
1.569000005722046
 70
   192
  0
VERTEX
  5
574
  8
0
 10
10.65100002288818
 20
31.46299934387207
 30
13.60900020599365
 70
   192
  0
VERTEX
  5
575
  8
0
 10
10.64799976348877
 20
31.46999931335449
 30
15.57299995422363
 70
   192
  0
VERTEX
  5
576
  8
0
 10
10.63099956512451
 20
31.47599983215332
 30
19.94700050354004
 70
   192
  0
VERTEX
  5
577
  8
0
 10
10.41300010681152
 20
10.80900001525879
 30
-59.80799865722656
 70
   192
  0
VERTEX
  5
578
  8
0
 10
10.46599960327148
 20
11.77099990844727
 30
-54.71699905395508
 70
   192
  0
VERTEX
  5
579
  8
0
 10
10.46500015258789
 20
11.08899974822998
 30
-54.96500015258789
 70
   192
  0
VERTEX
  5
57A
  8
0
 10
10.4709997177124
 20
13.75599956512451
 30
-53.83700180053711
 70
   192
  0
VERTEX
  5
57B
  8
0
 10
10.47299957275391
 20
14.76500034332275
 30
-53.30300140380859
 70
   192
  0
VERTEX
  5
57C
  8
0
 10
10.47599983215332
 20
15.68299961090088
 30
-52.81700134277344
 70
   192
  0
VERTEX
  5
57D
  8
0
 10
10.48700046539307
 20
19.08399963378906
 30
-50.55799865722656
 70
   192
  0
VERTEX
  5
57E
  8
0
 10
10.48400020599365
 20
18.22500038146973
 30
-51.17200088500977
 70
   192
  0
VERTEX
  5
57F
  8
0
 10
10.49300003051758
 20
20.76300048828125
 30
-49.18399810791016
 70
   192
  0
VERTEX
  5
580
  8
0
 10
10.48099994659424
 20
17.54800033569336
 30
-51.65700149536133
 70
   192
  0
VERTEX
  5
581
  8
0
 10
10.50100040435791
 20
22.34499931335449
 30
-47.69599914550781
 70
   192
  0
VERTEX
  5
582
  8
0
 10
10.49600028991699
 20
21.35499954223633
 30
-48.62699890136719
 70
   192
  0
VERTEX
  5
583
  8
0
 10
10.51700019836426
 20
25.20299911499023
 30
-44.38600158691406
 70
   192
  0
VERTEX
  5
584
  8
0
 10
10.51000022888184
 20
24.14500045776367
 30
-45.70000076293945
 70
   192
  0
VERTEX
  5
585
  8
0
 10
10.5310001373291
 20
27.18000030517578
 30
-41.40599822998047
 70
   192
  0
VERTEX
  5
586
  8
0
 10
10.52600002288818
 20
26.53700065612793
 30
-42.42399978637695
 70
   192
  0
VERTEX
  5
587
  8
0
 10
10.52200031280518
 20
26.02300071716309
 30
-43.23799896240234
 70
   192
  0
VERTEX
  5
588
  8
0
 10
10.54100036621094
 20
28.20899963378906
 30
-39.49800109863281
 70
   192
  0
VERTEX
  5
589
  8
0
 10
10.55000019073486
 20
29.10799980163574
 30
-37.51499938964844
 70
   192
  0
VERTEX
  5
58A
  8
0
 10
10.54300022125244
 20
28.48200035095215
 30
-38.89699935913086
 70
   192
  0
VERTEX
  5
58B
  8
0
 10
10.50800037384033
 20
23.82500076293945
 30
-46.09700012207031
 70
   192
  0
VERTEX
  5
58C
  8
0
 10
10.56700038909912
 20
30.28499984741211
 30
-34.12300109863281
 70
   192
  0
VERTEX
  5
58D
  8
0
 10
10.5620002746582
 20
29.97599983215332
 30
-35.12300109863281
 70
   192
  0
VERTEX
  5
58E
  8
0
 10
10.57699966430664
 20
30.80500030517578
 30
-32.01699829101562
 70
   192
  0
VERTEX
  5
58F
  8
0
 10
10.5600004196167
 20
29.87199974060059
 30
-35.45999908447266
 70
   192
  0
VERTEX
  5
590
  8
0
 10
10.58100032806396
 20
30.94899940490723
 30
-31.19700050354004
 70
   192
  0
VERTEX
  5
591
  8
0
 10
10.58800029754639
 20
31.18000030517578
 30
-29.87800025939941
 70
   192
  0
VERTEX
  5
592
  8
0
 10
10.59799957275391
 20
31.4069995880127
 30
-27.71100044250488
 70
   192
  0
VERTEX
  5
593
  8
0
 10
10.60900020599365
 20
31.48399925231934
 30
-25.51700019836426
 70
   192
  0
VERTEX
  5
594
  8
0
 10
10.60099983215332
 20
31.42499923706055
 30
-27.19000053405762
 70
   192
  0
VERTEX
  5
595
  8
0
 10
10.62899971008301
 20
31.47800064086914
 30
-19.93099975585938
 70
   192
  0
VERTEX
  5
596
  8
0
 10
10.625
 20
31.48299980163574
 30
-22.03400039672852
 70
   192
  0
VERTEX
  5
597
  8
0
 10
10.59799957275391
 20
-31.40999984741211
 30
-27.67000007629395
 70
   192
  0
VERTEX
  5
598
  8
0
 10
10.60900020599365
 20
-31.48399925231934
 30
-25.51700019836426
 70
   192
  0
VERTEX
  5
599
  8
0
 10
10.58800029754639
 20
-31.1870002746582
 30
-29.82999992370605
 70
   192
  0
VERTEX
  5
59A
  8
0
 10
10.58899974822998
 20
-31.21199989318848
 30
-29.5890007019043
 70
   192
  0
VERTEX
  5
59B
  8
0
 10
10.57900047302246
 20
-30.86800003051758
 30
-31.71299934387207
 70
   192
  0
VERTEX
  5
59C
  8
0
 10
10.56799983978271
 20
-30.36800003051758
 30
-33.82300186157227
 70
   192
  0
VERTEX
  5
59D
  8
0
 10
10.56999969482422
 20
-30.43199920654297
 30
-33.55599975585938
 70
   192
  0
VERTEX
  5
59E
  8
0
 10
10.55799961090088
 20
-29.72400093078613
 30
-35.89599990844727
 70
   192
  0
VERTEX
  5
59F
  8
0
 10
10.54800033569336
 20
-28.93499946594238
 30
-37.92699813842773
 70
   192
  0
VERTEX
  5
5A0
  8
0
 10
10.55099964141846
 20
-29.14699935913086
 30
-37.38100051879883
 70
   192
  0
VERTEX
  5
5A1
  8
0
 10
10.52999973297119
 20
-27.07699966430664
 30
-41.58100128173828
 70
   192
  0
VERTEX
  5
5A2
  8
0
 10
10.53299999237061
 20
-27.37700080871582
 30
-41.03799819946289
 70
   192
  0
VERTEX
  5
5A3
  8
0
 10
10.52099990844727
 20
-25.9069995880127
 30
-43.40599822998047
 70
   192
  0
VERTEX
  5
5A4
  8
0
 10
10.53899955749512
 20
-27.99900054931641
 30
-39.91299819946289
 70
   192
  0
VERTEX
  5
5A5
  8
0
 10
10.51299953460693
 20
-24.61199951171875
 30
-45.15000152587891
 70
   192
  0
VERTEX
  5
5A6
  8
0
 10
10.51700019836426
 20
-25.16200065612793
 30
-44.40900039672852
 70
   192
  0
VERTEX
  5
5A7
  8
0
 10
10.50500011444092
 20
-23.19499969482422
 30
-46.80599975585938
 70
   192
  0
VERTEX
  5
5A8
  8
0
 10
10.49699974060059
 20
-21.65399932861328
 30
-48.37200164794922
 70
   192
  0
VERTEX
  5
5A9
  8
0
 10
10.5019998550415
 20
-22.52799987792969
 30
-47.48400115966797
 70
   192
  0
VERTEX
  5
5AA
  8
0
 10
10.48499965667725
 20
-18.52300071716309
 30
-50.97499847412109
 70
   192
  0
VERTEX
  5
5AB
  8
0
 10
10.48799991607666
 20
-19.51499938964844
 30
-50.20000076293945
 70
   192
  0
VERTEX
  5
5AC
  8
0
 10
10.49100017547607
 20
-20.23200035095215
 30
-49.63899993896484
 70
   192
  0
VERTEX
  5
5AD
  8
0
 10
10.47900009155273
 20
-16.72500038146973
 30
-52.19100189208984
 70
   192
  0
VERTEX
  5
5AE
  8
0
 10
10.47299957275391
 20
-14.84000015258789
 30
-53.28400039672852
 70
   192
  0
VERTEX
  5
5AF
  8
0
 10
10.47700023651123
 20
-16.20299911499023
 30
-52.49300003051758
 70
   192
  0
VERTEX
  5
5B0
  8
0
 10
10.46500015258789
 20
-11.10999965667725
 30
-54.97499847412109
 70
   192
  0
VERTEX
  5
5B1
  8
0
 10
10.4680004119873
 20
-12.5959997177124
 30
-54.36299896240234
 70
   192
  0
VERTEX
  5
5B2
  8
0
 10
10.46199989318848
 20
-9.055999755859375
 30
-55.66999816894531
 70
   192
  0
VERTEX
  5
5B3
  8
0
 10
10.4689998626709
 20
-12.86800003051758
 30
-54.25099945068359
 70
   192
  0
VERTEX
  5
5B4
  8
0
 10
10.45899963378906
 20
-6.958000183105469
 30
-56.22200012207031
 70
   192
  0
VERTEX
  5
5B5
  8
0
 10
10.46100044250488
 20
-8.79800033569336
 30
-55.73799896240234
 70
   192
  0
VERTEX
  5
5B6
  8
0
 10
10.45699977874756
 20
-4.817999839782715
 30
-56.63000106811523
 70
   192
  0
VERTEX
  5
5B7
  8
0
 10
10.45699977874756
 20
-4.855999946594238
 30
-56.62200164794922
 70
   192
  0
VERTEX
  5
5B8
  8
0
 10
10.45499992370605
 20
-0.8080000281333923
 30
-56.98799896240234
 70
   192
  0
VERTEX
  5
5B9
  8
0
 10
10.45600032806396
 20
-2.638000011444092
 30
-56.88999938964844
 70
   192
  0
VERTEX
  5
5BA
  8
0
 10
10.45499992370605
 20
-0.7369999885559082
 30
-56.99200057983398
 70
   192
  0
VERTEX
  5
5BB
  8
0
 10
10.45499992370605
 20
1.432000041007996
 30
-56.96799850463867
 70
   192
  0
VERTEX
  5
5BC
  8
0
 10
10.45600032806396
 20
3.595999956130981
 30
-56.79499816894531
 70
   192
  0
VERTEX
  5
5BD
  8
0
 10
10.45600032806396
 20
3.216000080108643
 30
-56.82500076293945
 70
   192
  0
VERTEX
  5
5BE
  8
0
 10
10.45800018310547
 20
5.750999927520752
 30
-56.47100067138672
 70
   192
  0
VERTEX
  5
5BF
  8
0
 10
10.46000003814697
 20
7.894999980926514
 30
-55.99499893188477
 70
   192
  0
VERTEX
  5
5C0
  8
0
 10
10.45899963378906
 20
7.216000080108643
 30
-56.14500045776367
 70
   192
  0
VERTEX
  5
5C1
  8
0
 10
10.46500015258789
 20
10.80900001525879
 30
-55.06700134277344
 70
   192
  0
VERTEX
  5
5C2
  8
0
 10
10.46300029754639
 20
9.729999542236328
 30
-55.45899963378906
 70
   192
  0
VERTEX
  5
5C3
  8
0
 10
9.295999526977539
 20
-75.99500274658203
 30
-97.9540023803711
 70
   192
  0
VERTEX
  5
5C4
  8
0
 10
9.29800033569336
 20
-75.42400360107422
 30
-98.23799896240234
 70
   192
  0
VERTEX
  5
5C5
  8
0
 10
9.303000450134277
 20
-74.87899780273438
 30
-98.4020004272461
 70
   192
  0
VERTEX
  5
5C6
  8
0
 10
9.312000274658203
 20
-74.10900115966797
 30
-98.4990005493164
 70
   192
  0
VERTEX
  5
5C7
  8
0
 10
9.314000129699707
 20
-74.0
 30
-98.5
 70
   192
  0
VERTEX
  5
5C8
  8
0
 10
9.300999641418457
 20
-77.4469985961914
 30
-96.52899932861328
 70
   192
  0
VERTEX
  5
5C9
  8
0
 10
9.29699993133545
 20
-77.1240005493164
 30
-96.9990005493164
 70
   192
  0
VERTEX
  5
5CA
  8
0
 10
9.300999641418457
 20
-77.46099853515625
 30
-96.4990005493164
 70
   192
  0
VERTEX
  5
5CB
  8
0
 10
9.293999671936035
 20
-76.58100128173828
 30
-97.55599975585938
 70
   192
  0
VERTEX
  5
5CC
  8
0
 10
9.295000076293945
 20
-76.12100219726562
 30
-97.89199829101562
 70
   192
  0
VERTEX
  5
5CD
  8
0
 10
9.317000389099121
 20
-77.92400360107422
 30
-95.27400207519531
 70
   192
  0
VERTEX
  5
5CE
  8
0
 10
9.309000015258789
 20
-77.7750015258789
 30
-95.8239974975586
 70
   192
  0
VERTEX
  5
5CF
  8
0
 10
9.329999923706055
 20
-78.0
 30
-94.5
 70
   192
  0
VERTEX
  5
5D0
  8
0
 10
9.842000007629395
 20
-78.0
 30
-59.8120002746582
 70
   192
  0
VERTEX
  5
5D1
  8
0
 10
9.63599967956543
 20
-45.95600128173828
 30
-98.5
 70
   192
  0
VERTEX
  5
5D2
  8
0
 10
9.692000389099121
 20
-38.99800109863281
 30
-98.5
 70
   192
  0
VERTEX
  5
5D3
  8
0
 10
9.718000411987305
 20
-33.59700012207031
 30
-98.5
 70
   192
  0
VERTEX
  5
5D4
  8
0
 10
9.826000213623047
 20
-10.95199966430664
 30
-98.5
 70
   192
  0
VERTEX
  5
5D5
  8
0
 10
9.838000297546387
 20
0.0070000002160668
 30
-98.5
 70
   192
  0
VERTEX
  5
5D6
  8
0
 10
9.762999534606934
 20
28.05200004577637
 30
-98.5
 70
   192
  0
VERTEX
  5
5D7
  8
0
 10
9.809000015258789
 20
10.80900001525879
 30
-98.5
 70
   192
  0
VERTEX
  5
5D8
  8
0
 10
9.300999641418457
 20
77.4540023803711
 30
-96.49500274658203
 70
   192
  0
VERTEX
  5
5D9
  8
0
 10
9.307999610900879
 20
77.73799896240234
 30
-95.92500305175781
 70
   192
  0
VERTEX
  5
5DA
  8
0
 10
9.3149995803833
 20
77.9020004272461
 30
-95.37899780273438
 70
   192
  0
VERTEX
  5
5DB
  8
0
 10
9.32800006866455
 20
77.9990005493164
 30
-94.60900115966797
 70
   192
  0
VERTEX
  5
5DC
  8
0
 10
9.329999923706055
 20
78.0
 30
-94.5
 70
   192
  0
VERTEX
  5
5DD
  8
0
 10
9.295000076293945
 20
76.02899932861328
 30
-97.9469985961914
 70
   192
  0
VERTEX
  5
5DE
  8
0
 10
9.293999671936035
 20
76.49800109863281
 30
-97.6240005493164
 70
   192
  0
VERTEX
  5
5DF
  8
0
 10
9.295000076293945
 20
75.9990005493164
 30
-97.96099853515625
 70
   192
  0
VERTEX
  5
5E0
  8
0
 10
9.295999526977539
 20
77.05599975585938
 30
-97.08100128173828
 70
   192
  0
VERTEX
  5
5E1
  8
0
 10
9.300000190734863
 20
77.39099884033203
 30
-96.62100219726562
 70
   192
  0
VERTEX
  5
5E2
  8
0
 10
9.303999900817871
 20
74.77400207519531
 30
-98.42400360107422
 70
   192
  0
VERTEX
  5
5E3
  8
0
 10
9.298999786376953
 20
75.3239974975586
 30
-98.2750015258789
 70
   192
  0
VERTEX
  5
5E4
  8
0
 10
9.314000129699707
 20
74.0
 30
-98.5
 70
   192
  0
VERTEX
  5
5E5
  8
0
 10
9.536999702453613
 20
56.09700012207031
 30
-98.5
 70
   192
  0
VERTEX
  5
5E6
  8
0
 10
9.543999671936035
 20
55.2130012512207
 30
-98.5
 70
   192
  0
VERTEX
  5
5E7
  8
0
 10
9.529000282287598
 20
55.2130012512207
 30
98.5
 70
   192
  0
VERTEX
  5
5E8
  8
0
 10
9.295000076293945
 20
75.99500274658203
 30
97.9540023803711
 70
   192
  0
VERTEX
  5
5E9
  8
0
 10
9.303999900817871
 20
74.99800109863281
 30
98.22699737548828
 70
   192
  0
VERTEX
  5
5EA
  8
0
 10
9.29800033569336
 20
75.42400360107422
 30
98.23799896240234
 70
   192
  0
VERTEX
  5
5EB
  8
0
 10
9.303000450134277
 20
74.87899780273438
 30
98.4020004272461
 70
   192
  0
VERTEX
  5
5EC
  8
0
 10
9.312000274658203
 20
74.10900115966797
 30
98.4990005493164
 70
   192
  0
VERTEX
  5
5ED
  8
0
 10
9.314000129699707
 20
74.0
 30
98.5
 70
   192
  0
VERTEX
  5
5EE
  8
0
 10
9.300000190734863
 20
77.4469985961914
 30
96.52899932861328
 70
   192
  0
VERTEX
  5
5EF
  8
0
 10
9.295999526977539
 20
77.1240005493164
 30
96.9990005493164
 70
   192
  0
VERTEX
  5
5F0
  8
0
 10
9.300999641418457
 20
77.46099853515625
 30
96.4990005493164
 70
   192
  0
VERTEX
  5
5F1
  8
0
 10
9.293999671936035
 20
76.58100128173828
 30
97.55599975585938
 70
   192
  0
VERTEX
  5
5F2
  8
0
 10
9.293999671936035
 20
76.12100219726562
 30
97.89199829101562
 70
   192
  0
VERTEX
  5
5F3
  8
0
 10
9.315999984741211
 20
77.92400360107422
 30
95.27400207519531
 70
   192
  0
VERTEX
  5
5F4
  8
0
 10
9.307999610900879
 20
77.7750015258789
 30
95.8239974975586
 70
   192
  0
VERTEX
  5
5F5
  8
0
 10
9.329000473022461
 20
78.0
 30
94.5
 70
   192
  0
VERTEX
  5
5F6
  8
0
 10
9.692000389099121
 20
38.99800109863281
 30
98.5
 70
   192
  0
VERTEX
  5
5F7
  8
0
 10
9.635000228881836
 20
45.95600128173828
 30
98.5
 70
   192
  0
VERTEX
  5
5F8
  8
0
 10
9.826000213623047
 20
10.95199966430664
 30
98.5
 70
   192
  0
VERTEX
  5
5F9
  8
0
 10
9.836999893188477
 20
-0.0070000002160668
 30
98.5
 70
   192
  0
VERTEX
  5
5FA
  8
0
 10
9.826000213623047
 20
10.80900001525879
 30
98.5
 70
   192
  0
VERTEX
  5
5FB
  8
0
 10
9.76200008392334
 20
-28.05200004577637
 30
98.5
 70
   192
  0
VERTEX
  5
5FC
  8
0
 10
9.300999641418457
 20
-77.4540023803711
 30
96.49500274658203
 70
   192
  0
VERTEX
  5
5FD
  8
0
 10
9.3149995803833
 20
-77.72699737548828
 30
95.49700164794922
 70
   192
  0
VERTEX
  5
5FE
  8
0
 10
9.307000160217285
 20
-77.73799896240234
 30
95.92500305175781
 70
   192
  0
VERTEX
  5
5FF
  8
0
 10
9.3149995803833
 20
-77.9020004272461
 30
95.37899780273438
 70
   192
  0
VERTEX
  5
600
  8
0
 10
9.32699966430664
 20
-77.9990005493164
 30
94.60900115966797
 70
   192
  0
VERTEX
  5
601
  8
0
 10
9.329000473022461
 20
-78.0
 30
94.5
 70
   192
  0
VERTEX
  5
602
  8
0
 10
9.295000076293945
 20
-76.02899932861328
 30
97.9469985961914
 70
   192
  0
VERTEX
  5
603
  8
0
 10
9.293999671936035
 20
-76.49800109863281
 30
97.6240005493164
 70
   192
  0
VERTEX
  5
604
  8
0
 10
9.295000076293945
 20
-75.9990005493164
 30
97.96099853515625
 70
   192
  0
VERTEX
  5
605
  8
0
 10
9.295999526977539
 20
-77.05599975585938
 30
97.08100128173828
 70
   192
  0
VERTEX
  5
606
  8
0
 10
9.298999786376953
 20
-77.39099884033203
 30
96.62100219726562
 70
   192
  0
VERTEX
  5
607
  8
0
 10
9.303999900817871
 20
-74.77400207519531
 30
98.42400360107422
 70
   192
  0
VERTEX
  5
608
  8
0
 10
9.298999786376953
 20
-75.3239974975586
 30
98.2750015258789
 70
   192
  0
VERTEX
  5
609
  8
0
 10
9.314000129699707
 20
-74.0
 30
98.5
 70
   192
  0
VERTEX
  5
60A
  8
0
 10
9.53600025177002
 20
-56.09700012207031
 30
98.5
 70
   192
  0
VERTEX
  5
60B
  8
0
 10
9.718000411987305
 20
-33.59700012207031
 30
98.5
 70
   192
  0
VERTEX
  5
60C
  8
0
 62
     9
 10
0.0
 20
0.0
 30
0.0
 70
   128
 71
     3
 72
     2
 73
     1
  0
VERTEX
  5
60D
  8
0
 62
     9
 10
0.0
 20
0.0
 30
0.0
 70
   128
 71
     5
 72
     4
 73
     2
  0
VERTEX
  5
60E
  8
0
 62
     9
 10
0.0
 20
0.0
 30
0.0
 70
   128
 71
     7
 72
     6
 73
     4
  0
VERTEX
  5
60F
  8
0
 62
     9
 10
0.0
 20
0.0
 30
0.0
 70
   128
 71
    10
 72
     9
 73
     8
  0
VERTEX
  5
610
  8
0
 62
     9
 10
0.0
 20
0.0
 30
0.0
 70
   128
 71
    12
 72
    10
 73
    11
  0
VERTEX
  5
611
  8
0
 62
     9
 10
0.0
 20
0.0
 30
0.0
 70
   128
 71
    14
 72
    12
 73
    13
  0
VERTEX
  5
612
  8
0
 62
     9
 10
0.0
 20
0.0
 30
0.0
 70
   128
 71
    15
 72
     2
 73
     4
  0
VERTEX
  5
613
  8
0
 62
     9
 10
0.0
 20
0.0
 30
0.0
 70
   128
 71
     4
 72
    16
 73
    15
  0
VERTEX
  5
614
  8
0
 62
     9
 10
0.0
 20
0.0
 30
0.0
 70
   128
 71
    15
 72
    17
 73
     2
  0
VERTEX
  5
615
  8
0
 62
     9
 10
0.0
 20
0.0
 30
0.0
 70
   128
 71
    20
 72
    19
 73
    18
  0
VERTEX
  5
616
  8
0
 62
     9
 10
0.0
 20
0.0
 30
0.0
 70
   128
 71
    22
 72
    21
 73
    18
  0
VERTEX
  5
617
  8
0
 62
     9
 10
0.0
 20
0.0
 30
0.0
 70
   128
 71
    18
 72
    23
 73
    22
  0
VERTEX
  5
618
  8
0
 62
     9
 10
0.0
 20
0.0
 30
0.0
 70
   128
 71
    18
 72
    19
 73
    23
  0
VERTEX
  5
619
  8
0
 62
     9
 10
0.0
 20
0.0
 30
0.0
 70
   128
 71
    25
 72
    24
 73
    18
  0
VERTEX
  5
61A
  8
0
 62
     9
 10
0.0
 20
0.0
 30
0.0
 70
   128
 71
    18
 72
    26
 73
    25
  0
VERTEX
  5
61B
  8
0
 62
     9
 10
0.0
 20
0.0
 30
0.0
 70
   128
 71
    24
 72
    27
 73
    18
  0
VERTEX
  5
61C
  8
0
 62
     9
 10
0.0
 20
0.0
 30
0.0
 70
   128
 71
    27
 72
    28
 73
     6
  0
VERTEX
  5
61D
  8
0
 62
     9
 10
0.0
 20
0.0
 30
0.0
 70
   128
 71
    28
 72
    29
 73
     6
  0
VERTEX
  5
61E
  8
0
 62
     9
 10
0.0
 20
0.0
 30
0.0
 70
   128
 71
     6
 72
    18
 73
    27
  0
VERTEX
  5
61F
  8
0
 62
     9
 10
0.0
 20
0.0
 30
0.0
 70
   128
 71
    29
 72
    30
 73
     6
  0
VERTEX
  5
620
  8
0
 62
     9
 10
0.0
 20
0.0
 30
0.0
 70
   128
 71
    32
 72
    31
 73
     6
  0
VERTEX
  5
621
  8
0
 62
     9
 10
0.0
 20
0.0
 30
0.0
 70
   128
 71
    34
 72
    33
 73
     6
  0
VERTEX
  5
622
  8
0
 62
     9
 10
0.0
 20
0.0
 30
0.0
 70
   128
 71
     6
 72
    35
 73
    34
  0
VERTEX
  5
623
  8
0
 62
     9
 10
0.0
 20
0.0
 30
0.0
 70
   128
 71
     6
 72
    31
 73
    35
  0
VERTEX
  5
624
  8
0
 62
     9
 10
0.0
 20
0.0
 30
0.0
 70
   128
 71
    37
 72
    36
 73
     6
  0
VERTEX
  5
625
  8
0
 62
     9
 10
0.0
 20
0.0
 30
0.0
 70
   128
 71
     6
 72
    33
 73
    37
  0
VERTEX
  5
626
  8
0
 62
     9
 10
0.0
 20
0.0
 30
0.0
 70
   128
 71
    36
 72
    38
 73
     6
  0
VERTEX
  5
627
  8
0
 62
     9
 10
0.0
 20
0.0
 30
0.0
 70
   128
 71
     6
 72
    30
 73
    32
  0
VERTEX
  5
628
  8
0
 62
     9
 10
0.0
 20
0.0
 30
0.0
 70
   128
 71
    40
 72
    39
 73
     6
  0
VERTEX
  5
629
  8
0
 62
     9
 10
0.0
 20
0.0
 30
0.0
 70
   128
 71
    42
 72
    41
 73
     6
  0
VERTEX
  5
62A
  8
0
 62
     9
 10
0.0
 20
0.0
 30
0.0
 70
   128
 71
     6
 72
    43
 73
    42
  0
VERTEX
  5
62B
  8
0
 62
     9
 10
0.0
 20
0.0
 30
0.0
 70
   128
 71
     6
 72
    39
 73
    43
  0
VERTEX
  5
62C
  8
0
 62
     9
 10
0.0
 20
0.0
 30
0.0
 70
   128
 71
    41
 72
    44
 73
     6
  0
VERTEX
  5
62D
  8
0
 62
     9
 10
0.0
 20
0.0
 30
0.0
 70
   128
 71
    46
 72
    45
 73
     6
  0
VERTEX
  5
62E
  8
0
 62
     9
 10
0.0
 20
0.0
 30
0.0
 70
   128
 71
    48
 72
    47
 73
     6
  0
VERTEX
  5
62F
  8
0
 62
     9
 10
0.0
 20
0.0
 30
0.0
 70
   128
 71
    47
 72
    49
 73
     6
  0
VERTEX
  5
630
  8
0
 62
     9
 10
0.0
 20
0.0
 30
0.0
 70
   128
 71
     6
 72
    50
 73
    48
  0
VERTEX
  5
631
  8
0
 62
     9
 10
0.0
 20
0.0
 30
0.0
 70
   128
 71
    52
 72
    51
 73
     6
  0
VERTEX
  5
632
  8
0
 62
     9
 10
0.0
 20
0.0
 30
0.0
 70
   128
 71
     6
 72
    49
 73
    52
  0
VERTEX
  5
633
  8
0
 62
     9
 10
0.0
 20
0.0
 30
0.0
 70
   128
 71
    51
 72
    53
 73
     6
  0
VERTEX
  5
634
  8
0
 62
     9
 10
0.0
 20
0.0
 30
0.0
 70
   128
 71
     6
 72
    45
 73
    50
  0
VERTEX
  5
635
  8
0
 62
     9
 10
0.0
 20
0.0
 30
0.0
 70
   128
 71
     6
 72
    44
 73
    46
  0
VERTEX
  5
636
  8
0
 62
     9
 10
0.0
 20
0.0
 30
0.0
 70
   128
 71
     6
 72
    38
 73
    40
  0
VERTEX
  5
637
  8
0
 62
     9
 10
0.0
 20
0.0
 30
0.0
 70
   128
 71
    55
 72
    54
 73
     6
  0
VERTEX
  5
638
  8
0
 62
     9
 10
0.0
 20
0.0
 30
0.0
 70
   128
 71
    57
 72
    56
 73
     6
  0
VERTEX
  5
639
  8
0
 62
     9
 10
0.0
 20
0.0
 30
0.0
 70
   128
 71
     6
 72
    58
 73
    57
  0
VERTEX
  5
63A
  8
0
 62
     9
 10
0.0
 20
0.0
 30
0.0
 70
   128
 71
     6
 72
    54
 73
    58
  0
VERTEX
  5
63B
  8
0
 62
     9
 10
0.0
 20
0.0
 30
0.0
 70
   128
 71
    59
 72
     4
 73
     6
  0
VERTEX
  5
63C
  8
0
 62
     9
 10
0.0
 20
0.0
 30
0.0
 70
   128
 71
     6
 72
    60
 73
    59
  0
VERTEX
  5
63D
  8
0
 62
     9
 10
0.0
 20
0.0
 30
0.0
 70
   128
 71
     6
 72
    61
 73
    60
  0
VERTEX
  5
63E
  8
0
 62
     9
 10
0.0
 20
0.0
 30
0.0
 70
   128
 71
     6
 72
    56
 73
    61
  0
VERTEX
  5
63F
  8
0
 62
     9
 10
0.0
 20
0.0
 30
0.0
 70
   128
 71
    63
 72
    62
 73
     4
  0
VERTEX
  5
640
  8
0
 62
     9
 10
0.0
 20
0.0
 30
0.0
 70
   128
 71
     4
 72
    59
 73
    63
  0
VERTEX
  5
641
  8
0
 62
     9
 10
0.0
 20
0.0
 30
0.0
 70
   128
 71
     6
 72
    53
 73
    55
  0
VERTEX
  5
642
  8
0
 62
     9
 10
0.0
 20
0.0
 30
0.0
 70
   128
 71
    18
 72
    21
 73
    26
  0
VERTEX
  5
643
  8
0
 62
     9
 10
0.0
 20
0.0
 30
0.0
 70
   128
 71
    65
 72
    64
 73
    13
  0
VERTEX
  5
644
  8
0
 62
     9
 10
0.0
 20
0.0
 30
0.0
 70
   128
 71
    67
 72
    66
 73
    13
  0
VERTEX
  5
645
  8
0
 62
     9
 10
0.0
 20
0.0
 30
0.0
 70
   128
 71
    13
 72
    64
 73
    67
  0
VERTEX
  5
646
  8
0
 62
     9
 10
0.0
 20
0.0
 30
0.0
 70
   128
 71
    69
 72
    68
 73
    13
  0
VERTEX
  5
647
  8
0
 62
     9
 10
0.0
 20
0.0
 30
0.0
 70
   128
 71
    68
 72
    70
 73
    13
  0
VERTEX
  5
648
  8
0
 62
     9
 10
0.0
 20
0.0
 30
0.0
 70
   128
 71
    70
 72
    72
 73
    71
  0
VERTEX
  5
649
  8
0
 62
     9
 10
0.0
 20
0.0
 30
0.0
 70
   128
 71
    72
 72
    73
 73
    71
  0
VERTEX
  5
64A
  8
0
 62
     9
 10
0.0
 20
0.0
 30
0.0
 70
   128
 71
    71
 72
    13
 73
    70
  0
VERTEX
  5
64B
  8
0
 62
     9
 10
0.0
 20
0.0
 30
0.0
 70
   128
 71
    13
 72
    66
 73
    69
  0
VERTEX
  5
64C
  8
0
 62
     9
 10
0.0
 20
0.0
 30
0.0
 70
   128
 71
    73
 72
    74
 73
    71
  0
VERTEX
  5
64D
  8
0
 62
     9
 10
0.0
 20
0.0
 30
0.0
 70
   128
 71
    76
 72
    75
 73
    71
  0
VERTEX
  5
64E
  8
0
 62
     9
 10
0.0
 20
0.0
 30
0.0
 70
   128
 71
    71
 72
    74
 73
    76
  0
VERTEX
  5
64F
  8
0
 62
     9
 10
0.0
 20
0.0
 30
0.0
 70
   128
 71
    78
 72
    77
 73
    71
  0
VERTEX
  5
650
  8
0
 62
     9
 10
0.0
 20
0.0
 30
0.0
 70
   128
 71
    77
 72
    79
 73
    71
  0
VERTEX
  5
651
  8
0
 62
     9
 10
0.0
 20
0.0
 30
0.0
 70
   128
 71
    71
 72
    80
 73
    78
  0
VERTEX
  5
652
  8
0
 62
     9
 10
0.0
 20
0.0
 30
0.0
 70
   128
 71
    82
 72
    81
 73
    71
  0
VERTEX
  5
653
  8
0
 62
     9
 10
0.0
 20
0.0
 30
0.0
 70
   128
 71
    71
 72
    79
 73
    82
  0
VERTEX
  5
654
  8
0
 62
     9
 10
0.0
 20
0.0
 30
0.0
 70
   128
 71
    81
 72
    83
 73
    71
  0
VERTEX
  5
655
  8
0
 62
     9
 10
0.0
 20
0.0
 30
0.0
 70
   128
 71
    85
 72
    84
 73
    71
  0
VERTEX
  5
656
  8
0
 62
     9
 10
0.0
 20
0.0
 30
0.0
 70
   128
 71
    87
 72
    86
 73
    71
  0
VERTEX
  5
657
  8
0
 62
     9
 10
0.0
 20
0.0
 30
0.0
 70
   128
 71
    71
 72
    88
 73
    87
  0
VERTEX
  5
658
  8
0
 62
     9
 10
0.0
 20
0.0
 30
0.0
 70
   128
 71
    71
 72
    84
 73
    88
  0
VERTEX
  5
659
  8
0
 62
     9
 10
0.0
 20
0.0
 30
0.0
 70
   128
 71
    90
 72
    89
 73
    71
  0
VERTEX
  5
65A
  8
0
 62
     9
 10
0.0
 20
0.0
 30
0.0
 70
   128
 71
    71
 72
    86
 73
    90
  0
VERTEX
  5
65B
  8
0
 62
     9
 10
0.0
 20
0.0
 30
0.0
 70
   128
 71
    92
 72
    91
 73
    18
  0
VERTEX
  5
65C
  8
0
 62
     9
 10
0.0
 20
0.0
 30
0.0
 70
   128
 71
    91
 72
    93
 73
    18
  0
VERTEX
  5
65D
  8
0
 62
     9
 10
0.0
 20
0.0
 30
0.0
 70
   128
 71
    95
 72
    94
 73
    18
  0
VERTEX
  5
65E
  8
0
 62
     9
 10
0.0
 20
0.0
 30
0.0
 70
   128
 71
    18
 72
    93
 73
    95
  0
VERTEX
  5
65F
  8
0
 62
     9
 10
0.0
 20
0.0
 30
0.0
 70
   128
 71
    18
 72
    71
 73
    92
  0
VERTEX
  5
660
  8
0
 62
     9
 10
0.0
 20
0.0
 30
0.0
 70
   128
 71
    71
 72
    89
 73
    92
  0
VERTEX
  5
661
  8
0
 62
     9
 10
0.0
 20
0.0
 30
0.0
 70
   128
 71
    71
 72
    83
 73
    85
  0
VERTEX
  5
662
  8
0
 62
     9
 10
0.0
 20
0.0
 30
0.0
 70
   128
 71
    71
 72
    75
 73
    80
  0
VERTEX
  5
663
  8
0
 62
     9
 10
0.0
 20
0.0
 30
0.0
 70
   128
 71
    97
 72
    96
 73
    11
  0
VERTEX
  5
664
  8
0
 62
     9
 10
0.0
 20
0.0
 30
0.0
 70
   128
 71
    98
 72
    13
 73
    11
  0
VERTEX
  5
665
  8
0
 62
     9
 10
0.0
 20
0.0
 30
0.0
 70
   128
 71
    98
 72
    99
 73
    13
  0
VERTEX
  5
666
  8
0
 62
     9
 10
0.0
 20
0.0
 30
0.0
 70
   128
 71
    99
 72
   100
 73
    13
  0
VERTEX
  5
667
  8
0
 62
     9
 10
0.0
 20
0.0
 30
0.0
 70
   128
 71
    11
 72
    96
 73
    98
  0
VERTEX
  5
668
  8
0
 62
     9
 10
0.0
 20
0.0
 30
0.0
 70
   128
 71
   100
 72
   101
 73
    13
  0
VERTEX
  5
669
  8
0
 62
     9
 10
0.0
 20
0.0
 30
0.0
 70
   128
 71
   104
 72
   103
 73
   102
  0
VERTEX
  5
66A
  8
0
 62
     9
 10
0.0
 20
0.0
 30
0.0
 70
   128
 71
   103
 72
   105
 73
   102
  0
VERTEX
  5
66B
  8
0
 62
     9
 10
0.0
 20
0.0
 30
0.0
 70
   128
 71
   105
 72
   106
 73
     8
  0
VERTEX
  5
66C
  8
0
 62
     9
 10
0.0
 20
0.0
 30
0.0
 70
   128
 71
   106
 72
   107
 73
     8
  0
VERTEX
  5
66D
  8
0
 62
     9
 10
0.0
 20
0.0
 30
0.0
 70
   128
 71
     8
 72
   102
 73
   105
  0
VERTEX
  5
66E
  8
0
 62
     9
 10
0.0
 20
0.0
 30
0.0
 70
   128
 71
   109
 72
   108
 73
     8
  0
VERTEX
  5
66F
  8
0
 62
     9
 10
0.0
 20
0.0
 30
0.0
 70
   128
 71
   108
 72
   110
 73
     8
  0
VERTEX
  5
670
  8
0
 62
     9
 10
0.0
 20
0.0
 30
0.0
 70
   128
 71
     8
 72
   111
 73
   109
  0
VERTEX
  5
671
  8
0
 62
     9
 10
0.0
 20
0.0
 30
0.0
 70
   128
 71
   113
 72
   112
 73
     8
  0
VERTEX
  5
672
  8
0
 62
     9
 10
0.0
 20
0.0
 30
0.0
 70
   128
 71
     8
 72
   110
 73
   113
  0
VERTEX
  5
673
  8
0
 62
     9
 10
0.0
 20
0.0
 30
0.0
 70
   128
 71
   115
 72
   114
 73
     8
  0
VERTEX
  5
674
  8
0
 62
     9
 10
0.0
 20
0.0
 30
0.0
 70
   128
 71
   117
 72
   116
 73
     8
  0
VERTEX
  5
675
  8
0
 62
     9
 10
0.0
 20
0.0
 30
0.0
 70
   128
 71
     8
 72
   118
 73
   117
  0
VERTEX
  5
676
  8
0
 62
     9
 10
0.0
 20
0.0
 30
0.0
 70
   128
 71
     8
 72
   114
 73
   118
  0
VERTEX
  5
677
  8
0
 62
     9
 10
0.0
 20
0.0
 30
0.0
 70
   128
 71
   116
 72
   119
 73
     8
  0
VERTEX
  5
678
  8
0
 62
     9
 10
0.0
 20
0.0
 30
0.0
 70
   128
 71
   121
 72
   120
 73
     8
  0
VERTEX
  5
679
  8
0
 62
     9
 10
0.0
 20
0.0
 30
0.0
 70
   128
 71
     8
 72
   119
 73
   121
  0
VERTEX
  5
67A
  8
0
 62
     9
 10
0.0
 20
0.0
 30
0.0
 70
   128
 71
     8
 72
   122
 73
   115
  0
VERTEX
  5
67B
  8
0
 62
     9
 10
0.0
 20
0.0
 30
0.0
 70
   128
 71
     8
 72
   112
 73
   122
  0
VERTEX
  5
67C
  8
0
 62
     9
 10
0.0
 20
0.0
 30
0.0
 70
   128
 71
     8
 72
   107
 73
   111
  0
VERTEX
  5
67D
  8
0
 62
     9
 10
0.0
 20
0.0
 30
0.0
 70
   128
 71
   124
 72
   123
 73
     8
  0
VERTEX
  5
67E
  8
0
 62
     9
 10
0.0
 20
0.0
 30
0.0
 70
   128
 71
   123
 72
   125
 73
     8
  0
VERTEX
  5
67F
  8
0
 62
     9
 10
0.0
 20
0.0
 30
0.0
 70
   128
 71
     8
 72
   126
 73
   124
  0
VERTEX
  5
680
  8
0
 62
     9
 10
0.0
 20
0.0
 30
0.0
 70
   128
 71
   125
 72
   127
 73
    11
  0
VERTEX
  5
681
  8
0
 62
     9
 10
0.0
 20
0.0
 30
0.0
 70
   128
 71
   127
 72
   128
 73
    11
  0
VERTEX
  5
682
  8
0
 62
     9
 10
0.0
 20
0.0
 30
0.0
 70
   128
 71
   128
 72
   129
 73
    11
  0
VERTEX
  5
683
  8
0
 62
     9
 10
0.0
 20
0.0
 30
0.0
 70
   128
 71
    11
 72
     8
 73
   125
  0
VERTEX
  5
684
  8
0
 62
     9
 10
0.0
 20
0.0
 30
0.0
 70
   128
 71
   131
 72
   130
 73
    11
  0
VERTEX
  5
685
  8
0
 62
     9
 10
0.0
 20
0.0
 30
0.0
 70
   128
 71
   133
 72
   132
 73
    11
  0
VERTEX
  5
686
  8
0
 62
     9
 10
0.0
 20
0.0
 30
0.0
 70
   128
 71
    11
 72
   130
 73
   133
  0
VERTEX
  5
687
  8
0
 62
     9
 10
0.0
 20
0.0
 30
0.0
 70
   128
 71
    11
 72
   129
 73
   131
  0
VERTEX
  5
688
  8
0
 62
     9
 10
0.0
 20
0.0
 30
0.0
 70
   128
 71
     8
 72
   120
 73
   126
  0
VERTEX
  5
689
  8
0
 62
     9
 10
0.0
 20
0.0
 30
0.0
 70
   128
 71
   135
 72
   134
 73
     2
  0
VERTEX
  5
68A
  8
0
 62
     9
 10
0.0
 20
0.0
 30
0.0
 70
   128
 71
   137
 72
   136
 73
     1
  0
VERTEX
  5
68B
  8
0
 62
     9
 10
0.0
 20
0.0
 30
0.0
 70
   128
 71
     1
 72
     2
 73
   137
  0
VERTEX
  5
68C
  8
0
 62
     9
 10
0.0
 20
0.0
 30
0.0
 70
   128
 71
     2
 72
   134
 73
   137
  0
VERTEX
  5
68D
  8
0
 62
     9
 10
0.0
 20
0.0
 30
0.0
 70
   128
 71
   136
 72
   138
 73
     1
  0
VERTEX
  5
68E
  8
0
 62
     9
 10
0.0
 20
0.0
 30
0.0
 70
   128
 71
   140
 72
   139
 73
     1
  0
VERTEX
  5
68F
  8
0
 62
     9
 10
0.0
 20
0.0
 30
0.0
 70
   128
 71
     1
 72
   138
 73
   140
  0
VERTEX
  5
690
  8
0
 62
     9
 10
0.0
 20
0.0
 30
0.0
 70
   128
 71
   139
 72
   141
 73
     1
  0
VERTEX
  5
691
  8
0
 62
     9
 10
0.0
 20
0.0
 30
0.0
 70
   128
 71
   143
 72
   142
 73
     1
  0
VERTEX
  5
692
  8
0
 62
     9
 10
0.0
 20
0.0
 30
0.0
 70
   128
 71
     1
 72
   141
 73
   143
  0
VERTEX
  5
693
  8
0
 62
     9
 10
0.0
 20
0.0
 30
0.0
 70
   128
 71
   145
 72
   144
 73
     1
  0
VERTEX
  5
694
  8
0
 62
     9
 10
0.0
 20
0.0
 30
0.0
 70
   128
 71
   144
 72
   146
 73
     1
  0
VERTEX
  5
695
  8
0
 62
     9
 10
0.0
 20
0.0
 30
0.0
 70
   128
 71
     1
 72
   147
 73
   145
  0
VERTEX
  5
696
  8
0
 62
     9
 10
0.0
 20
0.0
 30
0.0
 70
   128
 71
   149
 72
   148
 73
     1
  0
VERTEX
  5
697
  8
0
 62
     9
 10
0.0
 20
0.0
 30
0.0
 70
   128
 71
     1
 72
   146
 73
   149
  0
VERTEX
  5
698
  8
0
 62
     9
 10
0.0
 20
0.0
 30
0.0
 70
   128
 71
   148
 72
   150
 73
     1
  0
VERTEX
  5
699
  8
0
 62
     9
 10
0.0
 20
0.0
 30
0.0
 70
   128
 71
   152
 72
   151
 73
     1
  0
VERTEX
  5
69A
  8
0
 62
     9
 10
0.0
 20
0.0
 30
0.0
 70
   128
 71
   154
 72
   153
 73
     1
  0
VERTEX
  5
69B
  8
0
 62
     9
 10
0.0
 20
0.0
 30
0.0
 70
   128
 71
     1
 72
   155
 73
   154
  0
VERTEX
  5
69C
  8
0
 62
     9
 10
0.0
 20
0.0
 30
0.0
 70
   128
 71
     1
 72
   151
 73
   155
  0
VERTEX
  5
69D
  8
0
 62
     9
 10
0.0
 20
0.0
 30
0.0
 70
   128
 71
   153
 72
   156
 73
     1
  0
VERTEX
  5
69E
  8
0
 62
     9
 10
0.0
 20
0.0
 30
0.0
 70
   128
 71
   158
 72
   157
 73
     1
  0
VERTEX
  5
69F
  8
0
 62
     9
 10
0.0
 20
0.0
 30
0.0
 70
   128
 71
   160
 72
   159
 73
     1
  0
VERTEX
  5
6A0
  8
0
 62
     9
 10
0.0
 20
0.0
 30
0.0
 70
   128
 71
   159
 72
   161
 73
     1
  0
VERTEX
  5
6A1
  8
0
 62
     9
 10
0.0
 20
0.0
 30
0.0
 70
   128
 71
     1
 72
   162
 73
   160
  0
VERTEX
  5
6A2
  8
0
 62
     9
 10
0.0
 20
0.0
 30
0.0
 70
   128
 71
   164
 72
   163
 73
     1
  0
VERTEX
  5
6A3
  8
0
 62
     9
 10
0.0
 20
0.0
 30
0.0
 70
   128
 71
   166
 72
   165
 73
     1
  0
VERTEX
  5
6A4
  8
0
 62
     9
 10
0.0
 20
0.0
 30
0.0
 70
   128
 71
     1
 72
   163
 73
   166
  0
VERTEX
  5
6A5
  8
0
 62
     9
 10
0.0
 20
0.0
 30
0.0
 70
   128
 71
     1
 72
   161
 73
   164
  0
VERTEX
  5
6A6
  8
0
 62
     9
 10
0.0
 20
0.0
 30
0.0
 70
   128
 71
     1
 72
   157
 73
   162
  0
VERTEX
  5
6A7
  8
0
 62
     9
 10
0.0
 20
0.0
 30
0.0
 70
   128
 71
     1
 72
   156
 73
   158
  0
VERTEX
  5
6A8
  8
0
 62
     9
 10
0.0
 20
0.0
 30
0.0
 70
   128
 71
     1
 72
   150
 73
   152
  0
VERTEX
  5
6A9
  8
0
 62
     9
 10
0.0
 20
0.0
 30
0.0
 70
   128
 71
     1
 72
   142
 73
   147
  0
VERTEX
  5
6AA
  8
0
 62
     9
 10
0.0
 20
0.0
 30
0.0
 70
   128
 71
   168
 72
   167
 73
   102
  0
VERTEX
  5
6AB
  8
0
 62
     9
 10
0.0
 20
0.0
 30
0.0
 70
   128
 71
   167
 72
   169
 73
   102
  0
VERTEX
  5
6AC
  8
0
 62
     9
 10
0.0
 20
0.0
 30
0.0
 70
   128
 71
   102
 72
     1
 73
   168
  0
VERTEX
  5
6AD
  8
0
 62
     9
 10
0.0
 20
0.0
 30
0.0
 70
   128
 71
   169
 72
   170
 73
   102
  0
VERTEX
  5
6AE
  8
0
 62
     9
 10
0.0
 20
0.0
 30
0.0
 70
   128
 71
   172
 72
   171
 73
   102
  0
VERTEX
  5
6AF
  8
0
 62
     9
 10
0.0
 20
0.0
 30
0.0
 70
   128
 71
   102
 72
   170
 73
   172
  0
VERTEX
  5
6B0
  8
0
 62
     9
 10
0.0
 20
0.0
 30
0.0
 70
   128
 71
   171
 72
   173
 73
   102
  0
VERTEX
  5
6B1
  8
0
 62
     9
 10
0.0
 20
0.0
 30
0.0
 70
   128
 71
   175
 72
   174
 73
   102
  0
VERTEX
  5
6B2
  8
0
 62
     9
 10
0.0
 20
0.0
 30
0.0
 70
   128
 71
   177
 72
   176
 73
   102
  0
VERTEX
  5
6B3
  8
0
 62
     9
 10
0.0
 20
0.0
 30
0.0
 70
   128
 71
   102
 72
   174
 73
   177
  0
VERTEX
  5
6B4
  8
0
 62
     9
 10
0.0
 20
0.0
 30
0.0
 70
   128
 71
   102
 72
   173
 73
   175
  0
VERTEX
  5
6B5
  8
0
 62
     9
 10
0.0
 20
0.0
 30
0.0
 70
   128
 71
     1
 72
   165
 73
   168
  0
VERTEX
  5
6B6
  8
0
 62
     9
 10
0.0
 20
0.0
 30
0.0
 70
   128
 71
   179
 72
   178
 73
     1
  0
VERTEX
  5
6B7
  8
0
 62
     9
 10
0.0
 20
0.0
 30
0.0
 70
   128
 71
     1
 72
   180
 73
   179
  0
VERTEX
  5
6B8
  8
0
 62
     9
 10
0.0
 20
0.0
 30
0.0
 70
   128
 71
     1
 72
   181
 73
   180
  0
VERTEX
  5
6B9
  8
0
 62
     9
 10
0.0
 20
0.0
 30
0.0
 70
   128
 71
     1
 72
   182
 73
   181
  0
VERTEX
  5
6BA
  8
0
 62
     9
 10
0.0
 20
0.0
 30
0.0
 70
   128
 71
   184
 72
   183
 73
     1
  0
VERTEX
  5
6BB
  8
0
 62
     9
 10
0.0
 20
0.0
 30
0.0
 70
   128
 71
   183
 72
   185
 73
     1
  0
VERTEX
  5
6BC
  8
0
 62
     9
 10
0.0
 20
0.0
 30
0.0
 70
   128
 71
     1
 72
   186
 73
   184
  0
VERTEX
  5
6BD
  8
0
 62
     9
 10
0.0
 20
0.0
 30
0.0
 70
   128
 71
     1
 72
   187
 73
   186
  0
VERTEX
  5
6BE
  8
0
 62
     9
 10
0.0
 20
0.0
 30
0.0
 70
   128
 71
   189
 72
   188
 73
     1
  0
VERTEX
  5
6BF
  8
0
 62
     9
 10
0.0
 20
0.0
 30
0.0
 70
   128
 71
   188
 72
   190
 73
     1
  0
VERTEX
  5
6C0
  8
0
 62
     9
 10
0.0
 20
0.0
 30
0.0
 70
   128
 71
   190
 72
   191
 73
     1
  0
VERTEX
  5
6C1
  8
0
 62
     9
 10
0.0
 20
0.0
 30
0.0
 70
   128
 71
     1
 72
   185
 73
   189
  0
VERTEX
  5
6C2
  8
0
 62
     9
 10
0.0
 20
0.0
 30
0.0
 70
   128
 71
     1
 72
   178
 73
   187
  0
VERTEX
  5
6C3
  8
0
 62
     9
 10
0.0
 20
0.0
 30
0.0
 70
   128
 71
     1
 72
   192
 73
   182
  0
VERTEX
  5
6C4
  8
0
 62
     9
 10
0.0
 20
0.0
 30
0.0
 70
   128
 71
     1
 72
   193
 73
   192
  0
VERTEX
  5
6C5
  8
0
 62
     9
 10
0.0
 20
0.0
 30
0.0
 70
   128
 71
   195
 72
   194
 73
     1
  0
VERTEX
  5
6C6
  8
0
 62
     9
 10
0.0
 20
0.0
 30
0.0
 70
   128
 71
     1
 72
   102
 73
   195
  0
VERTEX
  5
6C7
  8
0
 62
     9
 10
0.0
 20
0.0
 30
0.0
 70
   128
 71
   102
 72
   196
 73
   195
  0
VERTEX
  5
6C8
  8
0
 62
     9
 10
0.0
 20
0.0
 30
0.0
 70
   128
 71
   197
 72
   102
 73
     8
  0
VERTEX
  5
6C9
  8
0
 62
     9
 10
0.0
 20
0.0
 30
0.0
 70
   128
 71
   197
 72
   198
 73
   102
  0
VERTEX
  5
6CA
  8
0
 62
     9
 10
0.0
 20
0.0
 30
0.0
 70
   128
 71
   200
 72
   199
 73
     8
  0
VERTEX
  5
6CB
  8
0
 62
     9
 10
0.0
 20
0.0
 30
0.0
 70
   128
 71
     8
 72
   201
 73
   200
  0
VERTEX
  5
6CC
  8
0
 62
     9
 10
0.0
 20
0.0
 30
0.0
 70
   128
 71
     8
 72
   202
 73
   201
  0
VERTEX
  5
6CD
  8
0
 62
     9
 10
0.0
 20
0.0
 30
0.0
 70
   128
 71
     8
 72
   203
 73
   202
  0
VERTEX
  5
6CE
  8
0
 62
     9
 10
0.0
 20
0.0
 30
0.0
 70
   128
 71
   205
 72
   204
 73
     8
  0
VERTEX
  5
6CF
  8
0
 62
     9
 10
0.0
 20
0.0
 30
0.0
 70
   128
 71
   204
 72
   206
 73
     8
  0
VERTEX
  5
6D0
  8
0
 62
     9
 10
0.0
 20
0.0
 30
0.0
 70
   128
 71
     8
 72
   207
 73
   205
  0
VERTEX
  5
6D1
  8
0
 62
     9
 10
0.0
 20
0.0
 30
0.0
 70
   128
 71
     8
 72
   208
 73
   207
  0
VERTEX
  5
6D2
  8
0
 62
     9
 10
0.0
 20
0.0
 30
0.0
 70
   128
 71
     8
 72
   199
 73
   208
  0
VERTEX
  5
6D3
  8
0
 62
     9
 10
0.0
 20
0.0
 30
0.0
 70
   128
 71
   210
 72
   209
 73
     8
  0
VERTEX
  5
6D4
  8
0
 62
     9
 10
0.0
 20
0.0
 30
0.0
 70
   128
 71
   209
 72
   211
 73
     8
  0
VERTEX
  5
6D5
  8
0
 62
     9
 10
0.0
 20
0.0
 30
0.0
 70
   128
 71
   211
 72
   212
 73
     8
  0
VERTEX
  5
6D6
  8
0
 62
     9
 10
0.0
 20
0.0
 30
0.0
 70
   128
 71
     8
 72
   206
 73
   210
  0
VERTEX
  5
6D7
  8
0
 62
     9
 10
0.0
 20
0.0
 30
0.0
 70
   128
 71
   212
 72
   213
 73
     8
  0
VERTEX
  5
6D8
  8
0
 62
     9
 10
0.0
 20
0.0
 30
0.0
 70
   128
 71
   216
 72
   215
 73
   214
  0
VERTEX
  5
6D9
  8
0
 62
     9
 10
0.0
 20
0.0
 30
0.0
 70
   128
 71
   217
 72
   215
 73
   216
  0
VERTEX
  5
6DA
  8
0
 62
     9
 10
0.0
 20
0.0
 30
0.0
 70
   128
 71
   219
 72
   218
 73
   216
  0
VERTEX
  5
6DB
  8
0
 62
     9
 10
0.0
 20
0.0
 30
0.0
 70
   128
 71
   216
 72
   220
 73
   219
  0
VERTEX
  5
6DC
  8
0
 62
     9
 10
0.0
 20
0.0
 30
0.0
 70
   128
 71
   216
 72
   218
 73
   217
  0
VERTEX
  5
6DD
  8
0
 62
     9
 10
0.0
 20
0.0
 30
0.0
 70
   128
 71
   222
 72
   221
 73
   214
  0
VERTEX
  5
6DE
  8
0
 62
     9
 10
0.0
 20
0.0
 30
0.0
 70
   128
 71
   221
 72
   223
 73
   214
  0
VERTEX
  5
6DF
  8
0
 62
     9
 10
0.0
 20
0.0
 30
0.0
 70
   128
 71
   214
 72
   224
 73
   222
  0
VERTEX
  5
6E0
  8
0
 62
     9
 10
0.0
 20
0.0
 30
0.0
 70
   128
 71
   214
 72
   225
 73
   224
  0
VERTEX
  5
6E1
  8
0
 62
     9
 10
0.0
 20
0.0
 30
0.0
 70
   128
 71
   214
 72
   215
 73
   225
  0
VERTEX
  5
6E2
  8
0
 62
     9
 10
0.0
 20
0.0
 30
0.0
 70
   128
 71
   227
 72
   226
 73
   214
  0
VERTEX
  5
6E3
  8
0
 62
     9
 10
0.0
 20
0.0
 30
0.0
 70
   128
 71
   226
 72
   228
 73
   214
  0
VERTEX
  5
6E4
  8
0
 62
     9
 10
0.0
 20
0.0
 30
0.0
 70
   128
 71
   228
 72
    14
 73
    71
  0
VERTEX
  5
6E5
  8
0
 62
     9
 10
0.0
 20
0.0
 30
0.0
 70
   128
 71
    71
 72
   214
 73
   228
  0
VERTEX
  5
6E6
  8
0
 62
     9
 10
0.0
 20
0.0
 30
0.0
 70
   128
 71
   214
 72
   223
 73
   227
  0
VERTEX
  5
6E7
  8
0
 62
     9
 10
0.0
 20
0.0
 30
0.0
 70
   128
 71
   229
 72
    71
 73
    18
  0
VERTEX
  5
6E8
  8
0
 62
     9
 10
0.0
 20
0.0
 30
0.0
 70
   128
 71
   229
 72
   230
 73
    71
  0
VERTEX
  5
6E9
  8
0
 62
     9
 10
0.0
 20
0.0
 30
0.0
 70
   128
 71
   230
 72
   214
 73
    71
  0
VERTEX
  5
6EA
  8
0
 62
     9
 10
0.0
 20
0.0
 30
0.0
 70
   128
 71
    18
 72
   231
 73
   229
  0
VERTEX
  5
6EB
  8
0
 62
     9
 10
0.0
 20
0.0
 30
0.0
 70
   128
 71
   232
 72
    18
 73
     6
  0
VERTEX
  5
6EC
  8
0
 62
     9
 10
0.0
 20
0.0
 30
0.0
 70
   128
 71
   232
 72
   233
 73
    18
  0
VERTEX
  5
6ED
  8
0
 62
     9
 10
0.0
 20
0.0
 30
0.0
 70
   128
 71
     6
 72
   234
 73
   232
  0
VERTEX
  5
6EE
  8
0
 62
     9
 10
0.0
 20
0.0
 30
0.0
 70
   128
 71
   236
 72
   235
 73
     7
  0
VERTEX
  5
6EF
  8
0
 62
     9
 10
0.0
 20
0.0
 30
0.0
 70
   128
 71
   237
 72
   235
 73
   236
  0
VERTEX
  5
6F0
  8
0
 62
     9
 10
0.0
 20
0.0
 30
0.0
 70
   128
 71
   239
 72
   238
 73
   236
  0
VERTEX
  5
6F1
  8
0
 62
     9
 10
0.0
 20
0.0
 30
0.0
 70
   128
 71
   236
 72
   240
 73
   239
  0
VERTEX
  5
6F2
  8
0
 62
     9
 10
0.0
 20
0.0
 30
0.0
 70
   128
 71
   236
 72
   238
 73
   237
  0
VERTEX
  5
6F3
  8
0
 62
     9
 10
0.0
 20
0.0
 30
0.0
 70
   128
 71
   242
 72
   241
 73
     7
  0
VERTEX
  5
6F4
  8
0
 62
     9
 10
0.0
 20
0.0
 30
0.0
 70
   128
 71
   241
 72
   243
 73
     7
  0
VERTEX
  5
6F5
  8
0
 62
     9
 10
0.0
 20
0.0
 30
0.0
 70
   128
 71
     7
 72
   244
 73
   242
  0
VERTEX
  5
6F6
  8
0
 62
     9
 10
0.0
 20
0.0
 30
0.0
 70
   128
 71
     7
 72
   245
 73
   244
  0
VERTEX
  5
6F7
  8
0
 62
     9
 10
0.0
 20
0.0
 30
0.0
 70
   128
 71
     7
 72
   235
 73
   245
  0
VERTEX
  5
6F8
  8
0
 62
     9
 10
0.0
 20
0.0
 30
0.0
 70
   128
 71
   247
 72
   246
 73
     7
  0
VERTEX
  5
6F9
  8
0
 62
     9
 10
0.0
 20
0.0
 30
0.0
 70
   128
 71
   246
 72
   248
 73
     7
  0
VERTEX
  5
6FA
  8
0
 62
     9
 10
0.0
 20
0.0
 30
0.0
 70
   128
 71
   248
 72
   249
 73
     7
  0
VERTEX
  5
6FB
  8
0
 62
     9
 10
0.0
 20
0.0
 30
0.0
 70
   128
 71
     7
 72
   243
 73
   247
  0
VERTEX
  5
6FC
  8
0
 62
     9
 10
0.0
 20
0.0
 30
0.0
 70
   128
 71
   249
 72
   250
 73
     6
  0
VERTEX
  5
6FD
  8
0
 62
     9
 10
0.0
 20
0.0
 30
0.0
 70
   128
 71
     6
 72
     7
 73
   249
  0
VERTEX
  5
6FE
  8
0
 62
     9
 10
0.0
 20
0.0
 30
0.0
 70
   128
 71
     7
 72
   240
 73
   236
  0
VERTEX
  5
6FF
  8
0
 62
     9
 10
0.0
 20
0.0
 30
0.0
 70
   128
 71
     6
 72
   250
 73
   234
  0
VERTEX
  5
700
  8
0
 62
     9
 10
0.0
 20
0.0
 30
0.0
 70
   128
 71
    18
 72
   233
 73
   231
  0
VERTEX
  5
701
  8
0
 62
     9
 10
0.0
 20
0.0
 30
0.0
 70
   128
 71
   214
 72
   220
 73
   216
  0
VERTEX
  5
702
  8
0
 62
     9
 10
0.0
 20
0.0
 30
0.0
 70
   128
 71
     8
 72
     9
 73
   203
  0
VERTEX
  5
703
  8
0
 62
     9
 10
0.0
 20
0.0
 30
0.0
 70
   128
 71
     8
 72
   213
 73
   197
  0
VERTEX
  5
704
  8
0
 62
     9
 10
0.0
 20
0.0
 30
0.0
 70
   128
 71
   102
 72
   198
 73
   196
  0
VERTEX
  5
705
  8
0
 62
     9
 10
0.0
 20
0.0
 30
0.0
 70
   128
 71
     1
 72
   194
 73
   193
  0
VERTEX
  5
706
  8
0
 62
     9
 10
0.0
 20
0.0
 30
0.0
 70
   128
 71
     2
 72
    17
 73
   135
  0
VERTEX
  5
707
  8
0
 62
     9
 10
0.0
 20
0.0
 30
0.0
 70
   128
 71
   102
 72
   176
 73
   104
  0
VERTEX
  5
708
  8
0
 62
     9
 10
0.0
 20
0.0
 30
0.0
 70
   128
 71
    11
 72
   132
 73
    97
  0
VERTEX
  5
709
  8
0
 62
     9
 10
0.0
 20
0.0
 30
0.0
 70
   128
 71
    13
 72
   101
 73
    65
  0
VERTEX
  5
70A
  8
0
 62
     9
 10
0.0
 20
0.0
 30
0.0
 70
   128
 71
    18
 72
    94
 73
    20
  0
VERTEX
  5
70B
  8
0
 62
     9
 10
0.0
 20
0.0
 30
0.0
 70
   128
 71
     4
 72
    62
 73
    16
  0
VERTEX
  5
70C
  8
0
 62
     9
 10
0.0
 20
0.0
 30
0.0
 70
   128
 71
    13
 72
    71
 73
    14
  0
VERTEX
  5
70D
  8
0
 62
     9
 10
0.0
 20
0.0
 30
0.0
 70
   128
 71
    11
 72
    13
 73
    12
  0
VERTEX
  5
70E
  8
0
 62
     9
 10
0.0
 20
0.0
 30
0.0
 70
   128
 71
     8
 72
    11
 73
    10
  0
VERTEX
  5
70F
  8
0
 62
     9
 10
0.0
 20
0.0
 30
0.0
 70
   128
 71
     4
 72
     5
 73
     7
  0
VERTEX
  5
710
  8
0
 62
     9
 10
0.0
 20
0.0
 30
0.0
 70
   128
 71
     2
 72
     3
 73
     5
  0
VERTEX
  5
711
  8
0
 62
     9
 10
0.0
 20
0.0
 30
0.0
 70
   128
 71
     1
 72
   191
 73
     3
  0
SEQEND
  5
712
  8
0
 62
     9
  0
ENDBLK
  5
715
  8
0
  0
BLOCK
  8
0
  2
E3_NODE_9_
 70
     0
 10
0.0
 20
0.0
 30
0.0
  3
E3_NODE_9_
  1

  0
POLYLINE
  5
717
  8
0
 62
     9
 66
     1
 10
0.0
 20
0.0
 30
0.0
 70
    64
 71
     8
 72
     6
  0
VERTEX
  5
718
  8
0
 10
0.0
 20
-78.0
 30
-94.5
 70
   192
  0
VERTEX
  5
719
  8
0
 10
10.14599990844727
 20
-78.0
 30
-19.9379997253418
 70
   192
  0
VERTEX
  5
71A
  8
0
 10
10.14599990844727
 20
-78.0
 30
19.93600082397461
 70
   192
  0
VERTEX
  5
71B
  8
0
 10
9.842000007629395
 20
-78.0
 30
-59.8120002746582
 70
   192
  0
VERTEX
  5
71C
  8
0
 10
0.0
 20
-78.0
 30
94.5
 70
   192
  0
VERTEX
  5
71D
  8
0
 10
9.840999603271484
 20
-78.0
 30
59.81000137329102
 70
   192
  0
VERTEX
  5
71E
  8
0
 10
9.329999923706055
 20
-78.0
 30
-94.5
 70
   192
  0
VERTEX
  5
71F
  8
0
 10
9.329000473022461
 20
-78.0
 30
94.5
 70
   192
  0
VERTEX
  5
720
  8
0
 62
     9
 10
0.0
 20
0.0
 30
0.0
 70
   128
 71
     3
 72
     2
 73
     1
  0
VERTEX
  5
721
  8
0
 62
     9
 10
0.0
 20
0.0
 30
0.0
 70
   128
 71
     2
 72
     4
 73
     1
  0
VERTEX
  5
722
  8
0
 62
     9
 10
0.0
 20
0.0
 30
0.0
 70
   128
 71
     1
 72
     5
 73
     3
  0
VERTEX
  5
723
  8
0
 62
     9
 10
0.0
 20
0.0
 30
0.0
 70
   128
 71
     5
 72
     6
 73
     3
  0
VERTEX
  5
724
  8
0
 62
     9
 10
0.0
 20
0.0
 30
0.0
 70
   128
 71
     4
 72
     7
 73
     1
  0
VERTEX
  5
725
  8
0
 62
     9
 10
0.0
 20
0.0
 30
0.0
 70
   128
 71
     5
 72
     8
 73
     6
  0
SEQEND
  5
726
  8
0
 62
     9
  0
ENDBLK
  5
729
  8
0
  0
BLOCK
  8
0
  2
E3_NODE_10_
 70
     0
 10
0.0
 20
0.0
 30
0.0
  3
E3_NODE_10_
  1

  0
POLYLINE
  5
72B
  8
0
 62
     9
 66
     1
 10
0.0
 20
0.0
 30
0.0
 70
    64
 71
    16
 72
    14
  0
VERTEX
  5
72C
  8
0
 10
0.0
 20
-78.0
 30
94.5
 70
   192
  0
VERTEX
  5
72D
  8
0
 10
0.0
 20
-77.46399688720703
 30
96.5
 70
   192
  0
VERTEX
  5
72E
  8
0
 10
0.0
 20
-76.0
 30
97.96399688720703
 70
   192
  0
VERTEX
  5
72F
  8
0
 10
0.0
 20
-74.0
 30
98.5
 70
   192
  0
VERTEX
  5
730
  8
0
 10
0.0
 20
-74.0
 30
-98.5
 70
   192
  0
VERTEX
  5
731
  8
0
 10
0.0
 20
-78.0
 30
-94.5
 70
   192
  0
VERTEX
  5
732
  8
0
 10
0.0
 20
-76.0
 30
-97.96399688720703
 70
   192
  0
VERTEX
  5
733
  8
0
 10
0.0
 20
-77.46399688720703
 30
-96.5
 70
   192
  0
VERTEX
  5
734
  8
0
 10
0.0
 20
74.0
 30
-98.5
 70
   192
  0
VERTEX
  5
735
  8
0
 10
0.0
 20
78.0
 30
-94.5
 70
   192
  0
VERTEX
  5
736
  8
0
 10
0.0
 20
77.46399688720703
 30
-96.5
 70
   192
  0
VERTEX
  5
737
  8
0
 10
0.0
 20
74.0
 30
98.5
 70
   192
  0
VERTEX
  5
738
  8
0
 10
0.0
 20
78.0
 30
94.5
 70
   192
  0
VERTEX
  5
739
  8
0
 10
0.0
 20
76.0
 30
97.96399688720703
 70
   192
  0
VERTEX
  5
73A
  8
0
 10
0.0
 20
77.46399688720703
 30
96.5
 70
   192
  0
VERTEX
  5
73B
  8
0
 10
0.0
 20
76.0
 30
-97.96399688720703
 70
   192
  0
VERTEX
  5
73C
  8
0
 62
     9
 10
0.0
 20
0.0
 30
0.0
 70
   128
 71
     3
 72
     2
 73
     1
  0
VERTEX
  5
73D
  8
0
 62
     9
 10
0.0
 20
0.0
 30
0.0
 70
   128
 71
     6
 72
     5
 73
     4
  0
VERTEX
  5
73E
  8
0
 62
     9
 10
0.0
 20
0.0
 30
0.0
 70
   128
 71
     4
 72
     1
 73
     6
  0
VERTEX
  5
73F
  8
0
 62
     9
 10
0.0
 20
0.0
 30
0.0
 70
   128
 71
     8
 72
     7
 73
     5
  0
VERTEX
  5
740
  8
0
 62
     9
 10
0.0
 20
0.0
 30
0.0
 70
   128
 71
    11
 72
    10
 73
     9
  0
VERTEX
  5
741
  8
0
 62
     9
 10
0.0
 20
0.0
 30
0.0
 70
   128
 71
    13
 72
    12
 73
     9
  0
VERTEX
  5
742
  8
0
 62
     9
 10
0.0
 20
0.0
 30
0.0
 70
   128
 71
     5
 72
     6
 73
     8
  0
VERTEX
  5
743
  8
0
 62
     9
 10
0.0
 20
0.0
 30
0.0
 70
   128
 71
     4
 72
     5
 73
     9
  0
VERTEX
  5
744
  8
0
 62
     9
 10
0.0
 20
0.0
 30
0.0
 70
   128
 71
     9
 72
    10
 73
    13
  0
VERTEX
  5
745
  8
0
 62
     9
 10
0.0
 20
0.0
 30
0.0
 70
   128
 71
    14
 72
    12
 73
    13
  0
VERTEX
  5
746
  8
0
 62
     9
 10
0.0
 20
0.0
 30
0.0
 70
   128
 71
     9
 72
    12
 73
     4
  0
VERTEX
  5
747
  8
0
 62
     9
 10
0.0
 20
0.0
 30
0.0
 70
   128
 71
    13
 72
    15
 73
    14
  0
VERTEX
  5
748
  8
0
 62
     9
 10
0.0
 20
0.0
 30
0.0
 70
   128
 71
     9
 72
    16
 73
    11
  0
VERTEX
  5
749
  8
0
 62
     9
 10
0.0
 20
0.0
 30
0.0
 70
   128
 71
     1
 72
     4
 73
     3
  0
SEQEND
  5
74A
  8
0
 62
     9
  0
ENDBLK
  5
74D
  8
0
  0
BLOCK
  8
0
  2
E3_NODE_11_
 70
     0
 10
0.0
 20
0.0
 30
0.0
  3
E3_NODE_11_
  1

  0
POLYLINE
  5
74F
  8
0
 62
     9
 66
     1
 10
0.0
 20
0.0
 30
0.0
 70
    64
 71
    13
 72
    11
  0
VERTEX
  5
750
  8
0
 10
0.0
 20
74.0
 30
-98.5
 70
   192
  0
VERTEX
  5
751
  8
0
 10
9.809000015258789
 20
10.80900001525879
 30
-98.5
 70
   192
  0
VERTEX
  5
752
  8
0
 10
9.838000297546387
 20
0.0070000002160668
 30
-98.5
 70
   192
  0
VERTEX
  5
753
  8
0
 10
0.0
 20
-74.0
 30
-98.5
 70
   192
  0
VERTEX
  5
754
  8
0
 10
9.718000411987305
 20
-33.59700012207031
 30
-98.5
 70
   192
  0
VERTEX
  5
755
  8
0
 10
9.692000389099121
 20
-38.99800109863281
 30
-98.5
 70
   192
  0
VERTEX
  5
756
  8
0
 10
9.826000213623047
 20
-10.95199966430664
 30
-98.5
 70
   192
  0
VERTEX
  5
757
  8
0
 10
9.543999671936035
 20
55.2130012512207
 30
-98.5
 70
   192
  0
VERTEX
  5
758
  8
0
 10
9.762999534606934
 20
28.05200004577637
 30
-98.5
 70
   192
  0
VERTEX
  5
759
  8
0
 10
9.63599967956543
 20
-45.95600128173828
 30
-98.5
 70
   192
  0
VERTEX
  5
75A
  8
0
 10
9.314000129699707
 20
74.0
 30
-98.5
 70
   192
  0
VERTEX
  5
75B
  8
0
 10
9.536999702453613
 20
56.09700012207031
 30
-98.5
 70
   192
  0
VERTEX
  5
75C
  8
0
 10
9.314000129699707
 20
-74.0
 30
-98.5
 70
   192
  0
VERTEX
  5
75D
  8
0
 62
     9
 10
0.0
 20
0.0
 30
0.0
 70
   128
 71
     3
 72
     2
 73
     1
  0
VERTEX
  5
75E
  8
0
 62
     9
 10
0.0
 20
0.0
 30
0.0
 70
   128
 71
     1
 72
     4
 73
     3
  0
VERTEX
  5
75F
  8
0
 62
     9
 10
0.0
 20
0.0
 30
0.0
 70
   128
 71
     6
 72
     5
 73
     4
  0
VERTEX
  5
760
  8
0
 62
     9
 10
0.0
 20
0.0
 30
0.0
 70
   128
 71
     4
 72
     7
 73
     3
  0
VERTEX
  5
761
  8
0
 62
     9
 10
0.0
 20
0.0
 30
0.0
 70
   128
 71
     9
 72
     8
 73
     1
  0
VERTEX
  5
762
  8
0
 62
     9
 10
0.0
 20
0.0
 30
0.0
 70
   128
 71
     4
 72
    10
 73
     6
  0
VERTEX
  5
763
  8
0
 62
     9
 10
0.0
 20
0.0
 30
0.0
 70
   128
 71
     1
 72
     2
 73
     9
  0
VERTEX
  5
764
  8
0
 62
     9
 10
0.0
 20
0.0
 30
0.0
 70
   128
 71
     4
 72
     5
 73
     7
  0
VERTEX
  5
765
  8
0
 62
     9
 10
0.0
 20
0.0
 30
0.0
 70
   128
 71
    12
 72
    11
 73
     1
  0
VERTEX
  5
766
  8
0
 62
     9
 10
0.0
 20
0.0
 30
0.0
 70
   128
 71
     1
 72
     8
 73
    12
  0
VERTEX
  5
767
  8
0
 62
     9
 10
0.0
 20
0.0
 30
0.0
 70
   128
 71
     4
 72
    13
 73
    10
  0
SEQEND
  5
768
  8
0
 62
     9
  0
ENDBLK
  5
76B
  8
0
  0
BLOCK
  8
0
  2
E3_NODE_12_
 70
     0
 10
0.0
 20
0.0
 30
0.0
  3
E3_NODE_12_
  1

  0
POLYLINE
  5
76D
  8
0
 62
     9
 66
     1
 10
0.0
 20
0.0
 30
0.0
 70
    64
 71
     8
 72
     6
  0
VERTEX
  5
76E
  8
0
 10
0.0
 20
78.0
 30
-94.5
 70
   192
  0
VERTEX
  5
76F
  8
0
 10
0.0
 20
78.0
 30
94.5
 70
   192
  0
VERTEX
  5
770
  8
0
 10
10.14599990844727
 20
78.0
 30
19.93600082397461
 70
   192
  0
VERTEX
  5
771
  8
0
 10
10.14599990844727
 20
78.0
 30
-19.9379997253418
 70
   192
  0
VERTEX
  5
772
  8
0
 10
9.840999603271484
 20
78.0
 30
59.81000137329102
 70
   192
  0
VERTEX
  5
773
  8
0
 10
9.329000473022461
 20
78.0
 30
94.5
 70
   192
  0
VERTEX
  5
774
  8
0
 10
9.842000007629395
 20
78.0
 30
-59.8120002746582
 70
   192
  0
VERTEX
  5
775
  8
0
 10
9.329999923706055
 20
78.0
 30
-94.5
 70
   192
  0
VERTEX
  5
776
  8
0
 62
     9
 10
0.0
 20
0.0
 30
0.0
 70
   128
 71
     3
 72
     2
 73
     1
  0
VERTEX
  5
777
  8
0
 62
     9
 10
0.0
 20
0.0
 30
0.0
 70
   128
 71
     1
 72
     4
 73
     3
  0
VERTEX
  5
778
  8
0
 62
     9
 10
0.0
 20
0.0
 30
0.0
 70
   128
 71
     3
 72
     5
 73
     2
  0
VERTEX
  5
779
  8
0
 62
     9
 10
0.0
 20
0.0
 30
0.0
 70
   128
 71
     5
 72
     6
 73
     2
  0
VERTEX
  5
77A
  8
0
 62
     9
 10
0.0
 20
0.0
 30
0.0
 70
   128
 71
     1
 72
     7
 73
     4
  0
VERTEX
  5
77B
  8
0
 62
     9
 10
0.0
 20
0.0
 30
0.0
 70
   128
 71
     1
 72
     8
 73
     7
  0
SEQEND
  5
77C
  8
0
 62
     9
  0
ENDBLK
  5
77F
  8
0
  0
BLOCK
  8
0
  2
E3_NODE_13_
 70
     0
 10
0.0
 20
0.0
 30
0.0
  3
E3_NODE_13_
  1

  0
POLYLINE
  5
781
  8
0
 62
     9
 66
     1
 10
0.0
 20
0.0
 30
0.0
 70
    64
 71
    13
 72
    11
  0
VERTEX
  5
782
  8
0
 10
0.0
 20
74.0
 30
98.5
 70
   192
  0
VERTEX
  5
783
  8
0
 10
9.826000213623047
 20
10.80900001525879
 30
98.5
 70
   192
  0
VERTEX
  5
784
  8
0
 10
9.826000213623047
 20
10.95199966430664
 30
98.5
 70
   192
  0
VERTEX
  5
785
  8
0
 10
0.0
 20
-74.0
 30
98.5
 70
   192
  0
VERTEX
  5
786
  8
0
 10
9.76200008392334
 20
-28.05200004577637
 30
98.5
 70
   192
  0
VERTEX
  5
787
  8
0
 10
9.836999893188477
 20
-0.0070000002160668
 30
98.5
 70
   192
  0
VERTEX
  5
788
  8
0
 10
9.692000389099121
 20
38.99800109863281
 30
98.5
 70
   192
  0
VERTEX
  5
789
  8
0
 10
9.718000411987305
 20
-33.59700012207031
 30
98.5
 70
   192
  0
VERTEX
  5
78A
  8
0
 10
9.635000228881836
 20
45.95600128173828
 30
98.5
 70
   192
  0
VERTEX
  5
78B
  8
0
 10
9.529000282287598
 20
55.2130012512207
 30
98.5
 70
   192
  0
VERTEX
  5
78C
  8
0
 10
9.314000129699707
 20
-74.0
 30
98.5
 70
   192
  0
VERTEX
  5
78D
  8
0
 10
9.53600025177002
 20
-56.09700012207031
 30
98.5
 70
   192
  0
VERTEX
  5
78E
  8
0
 10
9.314000129699707
 20
74.0
 30
98.5
 70
   192
  0
VERTEX
  5
78F
  8
0
 62
     9
 10
0.0
 20
0.0
 30
0.0
 70
   128
 71
     3
 72
     2
 73
     1
  0
VERTEX
  5
790
  8
0
 62
     9
 10
0.0
 20
0.0
 30
0.0
 70
   128
 71
     6
 72
     5
 73
     4
  0
VERTEX
  5
791
  8
0
 62
     9
 10
0.0
 20
0.0
 30
0.0
 70
   128
 71
     1
 72
     7
 73
     3
  0
VERTEX
  5
792
  8
0
 62
     9
 10
0.0
 20
0.0
 30
0.0
 70
   128
 71
     5
 72
     8
 73
     4
  0
VERTEX
  5
793
  8
0
 62
     9
 10
0.0
 20
0.0
 30
0.0
 70
   128
 71
     1
 72
     9
 73
     7
  0
VERTEX
  5
794
  8
0
 62
     9
 10
0.0
 20
0.0
 30
0.0
 70
   128
 71
     4
 72
     1
 73
     6
  0
VERTEX
  5
795
  8
0
 62
     9
 10
0.0
 20
0.0
 30
0.0
 70
   128
 71
     1
 72
     2
 73
     6
  0
VERTEX
  5
796
  8
0
 62
     9
 10
0.0
 20
0.0
 30
0.0
 70
   128
 71
     1
 72
    10
 73
     9
  0
VERTEX
  5
797
  8
0
 62
     9
 10
0.0
 20
0.0
 30
0.0
 70
   128
 71
    12
 72
    11
 73
     4
  0
VERTEX
  5
798
  8
0
 62
     9
 10
0.0
 20
0.0
 30
0.0
 70
   128
 71
     4
 72
     8
 73
    12
  0
VERTEX
  5
799
  8
0
 62
     9
 10
0.0
 20
0.0
 30
0.0
 70
   128
 71
     1
 72
    13
 73
    10
  0
SEQEND
  5
79A
  8
0
 62
     9
  0
ENDBLK
  5
79D
  8
0
  0
BLOCK
  8
0
  2
E3_NODE_14_
 70
     0
 10
0.0
 20
0.0
 30
0.0
  3
E3_NODE_14_
  1

  0
POLYLINE
  5
79F
  8
0
 62
     9
 66
     1
 10
0.0
 20
0.0
 30
0.0
 70
    64
 71
    17
 72
    15
  0
VERTEX
  5
7A0
  8
0
 10
0.0
 20
77.46399688720703
 30
-96.5
 70
   192
  0
VERTEX
  5
7A1
  8
0
 10
0.0
 20
78.0
 30
-94.5
 70
   192
  0
VERTEX
  5
7A2
  8
0
 10
9.3149995803833
 20
77.9020004272461
 30
-95.37899780273438
 70
   192
  0
VERTEX
  5
7A3
  8
0
 10
9.329999923706055
 20
78.0
 30
-94.5
 70
   192
  0
VERTEX
  5
7A4
  8
0
 10
9.32800006866455
 20
77.9990005493164
 30
-94.60900115966797
 70
   192
  0
VERTEX
  5
7A5
  8
0
 10
9.307999610900879
 20
77.73799896240234
 30
-95.92500305175781
 70
   192
  0
VERTEX
  5
7A6
  8
0
 10
0.0
 20
76.0
 30
-97.96399688720703
 70
   192
  0
VERTEX
  5
7A7
  8
0
 10
9.295999526977539
 20
77.05599975585938
 30
-97.08100128173828
 70
   192
  0
VERTEX
  5
7A8
  8
0
 10
9.300000190734863
 20
77.39099884033203
 30
-96.62100219726562
 70
   192
  0
VERTEX
  5
7A9
  8
0
 10
9.293999671936035
 20
76.49800109863281
 30
-97.6240005493164
 70
   192
  0
VERTEX
  5
7AA
  8
0
 10
9.300999641418457
 20
77.4540023803711
 30
-96.49500274658203
 70
   192
  0
VERTEX
  5
7AB
  8
0
 10
9.295000076293945
 20
76.02899932861328
 30
-97.9469985961914
 70
   192
  0
VERTEX
  5
7AC
  8
0
 10
0.0
 20
74.0
 30
-98.5
 70
   192
  0
VERTEX
  5
7AD
  8
0
 10
9.298999786376953
 20
75.3239974975586
 30
-98.2750015258789
 70
   192
  0
VERTEX
  5
7AE
  8
0
 10
9.303999900817871
 20
74.77400207519531
 30
-98.42400360107422
 70
   192
  0
VERTEX
  5
7AF
  8
0
 10
9.295000076293945
 20
75.9990005493164
 30
-97.96099853515625
 70
   192
  0
VERTEX
  5
7B0
  8
0
 10
9.314000129699707
 20
74.0
 30
-98.5
 70
   192
  0
VERTEX
  5
7B1
  8
0
 62
     9
 10
0.0
 20
0.0
 30
0.0
 70
   128
 71
     3
 72
     2
 73
     1
  0
VERTEX
  5
7B2
  8
0
 62
     9
 10
0.0
 20
0.0
 30
0.0
 70
   128
 71
     5
 72
     4
 73
     2
  0
VERTEX
  5
7B3
  8
0
 62
     9
 10
0.0
 20
0.0
 30
0.0
 70
   128
 71
     2
 72
     3
 73
     5
  0
VERTEX
  5
7B4
  8
0
 62
     9
 10
0.0
 20
0.0
 30
0.0
 70
   128
 71
     1
 72
     6
 73
     3
  0
VERTEX
  5
7B5
  8
0
 62
     9
 10
0.0
 20
0.0
 30
0.0
 70
   128
 71
     8
 72
     1
 73
     7
  0
VERTEX
  5
7B6
  8
0
 62
     9
 10
0.0
 20
0.0
 30
0.0
 70
   128
 71
     8
 72
     9
 73
     1
  0
VERTEX
  5
7B7
  8
0
 62
     9
 10
0.0
 20
0.0
 30
0.0
 70
   128
 71
     7
 72
    10
 73
     8
  0
VERTEX
  5
7B8
  8
0
 62
     9
 10
0.0
 20
0.0
 30
0.0
 70
   128
 71
     9
 72
    11
 73
     1
  0
VERTEX
  5
7B9
  8
0
 62
     9
 10
0.0
 20
0.0
 30
0.0
 70
   128
 71
     7
 72
    12
 73
    10
  0
VERTEX
  5
7BA
  8
0
 62
     9
 10
0.0
 20
0.0
 30
0.0
 70
   128
 71
    14
 72
     7
 73
    13
  0
VERTEX
  5
7BB
  8
0
 62
     9
 10
0.0
 20
0.0
 30
0.0
 70
   128
 71
    13
 72
    15
 73
    14
  0
VERTEX
  5
7BC
  8
0
 62
     9
 10
0.0
 20
0.0
 30
0.0
 70
   128
 71
    14
 72
    16
 73
     7
  0
VERTEX
  5
7BD
  8
0
 62
     9
 10
0.0
 20
0.0
 30
0.0
 70
   128
 71
    13
 72
    17
 73
    15
  0
VERTEX
  5
7BE
  8
0
 62
     9
 10
0.0
 20
0.0
 30
0.0
 70
   128
 71
     7
 72
    16
 73
    12
  0
VERTEX
  5
7BF
  8
0
 62
     9
 10
0.0
 20
0.0
 30
0.0
 70
   128
 71
     1
 72
    11
 73
     6
  0
SEQEND
  5
7C0
  8
0
 62
     9
  0
ENDBLK
  5
7C3
  8
0
  0
BLOCK
  8
0
  2
E3_NODE_15_
 70
     0
 10
0.0
 20
0.0
 30
0.0
  3
E3_NODE_15_
  1

  0
POLYLINE
  5
7C5
  8
0
 62
     9
 66
     1
 10
0.0
 20
0.0
 30
0.0
 70
    64
 71
    17
 72
    15
  0
VERTEX
  5
7C6
  8
0
 10
0.0
 20
-77.46399688720703
 30
96.5
 70
   192
  0
VERTEX
  5
7C7
  8
0
 10
0.0
 20
-78.0
 30
94.5
 70
   192
  0
VERTEX
  5
7C8
  8
0
 10
9.3149995803833
 20
-77.9020004272461
 30
95.37899780273438
 70
   192
  0
VERTEX
  5
7C9
  8
0
 10
9.329000473022461
 20
-78.0
 30
94.5
 70
   192
  0
VERTEX
  5
7CA
  8
0
 10
9.32699966430664
 20
-77.9990005493164
 30
94.60900115966797
 70
   192
  0
VERTEX
  5
7CB
  8
0
 10
9.307000160217285
 20
-77.73799896240234
 30
95.92500305175781
 70
   192
  0
VERTEX
  5
7CC
  8
0
 10
0.0
 20
-76.0
 30
97.96399688720703
 70
   192
  0
VERTEX
  5
7CD
  8
0
 10
9.295999526977539
 20
-77.05599975585938
 30
97.08100128173828
 70
   192
  0
VERTEX
  5
7CE
  8
0
 10
9.298999786376953
 20
-77.39099884033203
 30
96.62100219726562
 70
   192
  0
VERTEX
  5
7CF
  8
0
 10
9.293999671936035
 20
-76.49800109863281
 30
97.6240005493164
 70
   192
  0
VERTEX
  5
7D0
  8
0
 10
9.300999641418457
 20
-77.4540023803711
 30
96.49500274658203
 70
   192
  0
VERTEX
  5
7D1
  8
0
 10
9.295000076293945
 20
-76.02899932861328
 30
97.9469985961914
 70
   192
  0
VERTEX
  5
7D2
  8
0
 10
0.0
 20
-74.0
 30
98.5
 70
   192
  0
VERTEX
  5
7D3
  8
0
 10
9.298999786376953
 20
-75.3239974975586
 30
98.2750015258789
 70
   192
  0
VERTEX
  5
7D4
  8
0
 10
9.303999900817871
 20
-74.77400207519531
 30
98.42400360107422
 70
   192
  0
VERTEX
  5
7D5
  8
0
 10
9.295000076293945
 20
-75.9990005493164
 30
97.96099853515625
 70
   192
  0
VERTEX
  5
7D6
  8
0
 10
9.314000129699707
 20
-74.0
 30
98.5
 70
   192
  0
VERTEX
  5
7D7
  8
0
 62
     9
 10
0.0
 20
0.0
 30
0.0
 70
   128
 71
     3
 72
     2
 73
     1
  0
VERTEX
  5
7D8
  8
0
 62
     9
 10
0.0
 20
0.0
 30
0.0
 70
   128
 71
     5
 72
     4
 73
     2
  0
VERTEX
  5
7D9
  8
0
 62
     9
 10
0.0
 20
0.0
 30
0.0
 70
   128
 71
     2
 72
     3
 73
     5
  0
VERTEX
  5
7DA
  8
0
 62
     9
 10
0.0
 20
0.0
 30
0.0
 70
   128
 71
     1
 72
     6
 73
     3
  0
VERTEX
  5
7DB
  8
0
 62
     9
 10
0.0
 20
0.0
 30
0.0
 70
   128
 71
     8
 72
     1
 73
     7
  0
VERTEX
  5
7DC
  8
0
 62
     9
 10
0.0
 20
0.0
 30
0.0
 70
   128
 71
     8
 72
     9
 73
     1
  0
VERTEX
  5
7DD
  8
0
 62
     9
 10
0.0
 20
0.0
 30
0.0
 70
   128
 71
     7
 72
    10
 73
     8
  0
VERTEX
  5
7DE
  8
0
 62
     9
 10
0.0
 20
0.0
 30
0.0
 70
   128
 71
     9
 72
    11
 73
     1
  0
VERTEX
  5
7DF
  8
0
 62
     9
 10
0.0
 20
0.0
 30
0.0
 70
   128
 71
     7
 72
    12
 73
    10
  0
VERTEX
  5
7E0
  8
0
 62
     9
 10
0.0
 20
0.0
 30
0.0
 70
   128
 71
    14
 72
     7
 73
    13
  0
VERTEX
  5
7E1
  8
0
 62
     9
 10
0.0
 20
0.0
 30
0.0
 70
   128
 71
    13
 72
    15
 73
    14
  0
VERTEX
  5
7E2
  8
0
 62
     9
 10
0.0
 20
0.0
 30
0.0
 70
   128
 71
    14
 72
    16
 73
     7
  0
VERTEX
  5
7E3
  8
0
 62
     9
 10
0.0
 20
0.0
 30
0.0
 70
   128
 71
    13
 72
    17
 73
    15
  0
VERTEX
  5
7E4
  8
0
 62
     9
 10
0.0
 20
0.0
 30
0.0
 70
   128
 71
     7
 72
    16
 73
    12
  0
VERTEX
  5
7E5
  8
0
 62
     9
 10
0.0
 20
0.0
 30
0.0
 70
   128
 71
     1
 72
    11
 73
     6
  0
SEQEND
  5
7E6
  8
0
 62
     9
  0
ENDBLK
  5
7E9
  8
0
  0
BLOCK
  8
0
  2
E3_NODE_16_
 70
     0
 10
0.0
 20
0.0
 30
0.0
  3
E3_NODE_16_
  1

  0
POLYLINE
  5
7EB
  8
0
 62
     9
 66
     1
 10
0.0
 20
0.0
 30
0.0
 70
    64
 71
    17
 72
    15
  0
VERTEX
  5
7EC
  8
0
 10
0.0
 20
76.0
 30
97.96399688720703
 70
   192
  0
VERTEX
  5
7ED
  8
0
 10
0.0
 20
74.0
 30
98.5
 70
   192
  0
VERTEX
  5
7EE
  8
0
 10
9.303000450134277
 20
74.87899780273438
 30
98.4020004272461
 70
   192
  0
VERTEX
  5
7EF
  8
0
 10
9.314000129699707
 20
74.0
 30
98.5
 70
   192
  0
VERTEX
  5
7F0
  8
0
 10
9.312000274658203
 20
74.10900115966797
 30
98.4990005493164
 70
   192
  0
VERTEX
  5
7F1
  8
0
 10
9.29800033569336
 20
75.42400360107422
 30
98.23799896240234
 70
   192
  0
VERTEX
  5
7F2
  8
0
 10
0.0
 20
77.46399688720703
 30
96.5
 70
   192
  0
VERTEX
  5
7F3
  8
0
 10
9.293999671936035
 20
76.58100128173828
 30
97.55599975585938
 70
   192
  0
VERTEX
  5
7F4
  8
0
 10
9.293999671936035
 20
76.12100219726562
 30
97.89199829101562
 70
   192
  0
VERTEX
  5
7F5
  8
0
 10
9.295999526977539
 20
77.1240005493164
 30
96.9990005493164
 70
   192
  0
VERTEX
  5
7F6
  8
0
 10
9.295000076293945
 20
75.99500274658203
 30
97.9540023803711
 70
   192
  0
VERTEX
  5
7F7
  8
0
 10
9.300000190734863
 20
77.4469985961914
 30
96.52899932861328
 70
   192
  0
VERTEX
  5
7F8
  8
0
 10
0.0
 20
78.0
 30
94.5
 70
   192
  0
VERTEX
  5
7F9
  8
0
 10
9.307999610900879
 20
77.7750015258789
 30
95.8239974975586
 70
   192
  0
VERTEX
  5
7FA
  8
0
 10
9.315999984741211
 20
77.92400360107422
 30
95.27400207519531
 70
   192
  0
VERTEX
  5
7FB
  8
0
 10
9.300999641418457
 20
77.46099853515625
 30
96.4990005493164
 70
   192
  0
VERTEX
  5
7FC
  8
0
 10
9.329000473022461
 20
78.0
 30
94.5
 70
   192
  0
VERTEX
  5
7FD
  8
0
 62
     9
 10
0.0
 20
0.0
 30
0.0
 70
   128
 71
     3
 72
     2
 73
     1
  0
VERTEX
  5
7FE
  8
0
 62
     9
 10
0.0
 20
0.0
 30
0.0
 70
   128
 71
     5
 72
     4
 73
     2
  0
VERTEX
  5
7FF
  8
0
 62
     9
 10
0.0
 20
0.0
 30
0.0
 70
   128
 71
     2
 72
     3
 73
     5
  0
VERTEX
  5
800
  8
0
 62
     9
 10
0.0
 20
0.0
 30
0.0
 70
   128
 71
     1
 72
     6
 73
     3
  0
VERTEX
  5
801
  8
0
 62
     9
 10
0.0
 20
0.0
 30
0.0
 70
   128
 71
     8
 72
     1
 73
     7
  0
VERTEX
  5
802
  8
0
 62
     9
 10
0.0
 20
0.0
 30
0.0
 70
   128
 71
     8
 72
     9
 73
     1
  0
VERTEX
  5
803
  8
0
 62
     9
 10
0.0
 20
0.0
 30
0.0
 70
   128
 71
     7
 72
    10
 73
     8
  0
VERTEX
  5
804
  8
0
 62
     9
 10
0.0
 20
0.0
 30
0.0
 70
   128
 71
     9
 72
    11
 73
     1
  0
VERTEX
  5
805
  8
0
 62
     9
 10
0.0
 20
0.0
 30
0.0
 70
   128
 71
     7
 72
    12
 73
    10
  0
VERTEX
  5
806
  8
0
 62
     9
 10
0.0
 20
0.0
 30
0.0
 70
   128
 71
    14
 72
     7
 73
    13
  0
VERTEX
  5
807
  8
0
 62
     9
 10
0.0
 20
0.0
 30
0.0
 70
   128
 71
    13
 72
    15
 73
    14
  0
VERTEX
  5
808
  8
0
 62
     9
 10
0.0
 20
0.0
 30
0.0
 70
   128
 71
    14
 72
    16
 73
     7
  0
VERTEX
  5
809
  8
0
 62
     9
 10
0.0
 20
0.0
 30
0.0
 70
   128
 71
    13
 72
    17
 73
    15
  0
VERTEX
  5
80A
  8
0
 62
     9
 10
0.0
 20
0.0
 30
0.0
 70
   128
 71
     7
 72
    16
 73
    12
  0
VERTEX
  5
80B
  8
0
 62
     9
 10
0.0
 20
0.0
 30
0.0
 70
   128
 71
     1
 72
    11
 73
     6
  0
SEQEND
  5
80C
  8
0
 62
     9
  0
ENDBLK
  5
80F
  8
0
  0
BLOCK
  8
0
  2
E3_NODE_17_
 70
     0
 10
0.0
 20
0.0
 30
0.0
  3
E3_NODE_17_
  1

  0
POLYLINE
  5
811
  8
0
 62
     9
 66
     1
 10
0.0
 20
0.0
 30
0.0
 70
    64
 71
    17
 72
    15
  0
VERTEX
  5
812
  8
0
 10
0.0
 20
-76.0
 30
-97.96399688720703
 70
   192
  0
VERTEX
  5
813
  8
0
 10
0.0
 20
-74.0
 30
-98.5
 70
   192
  0
VERTEX
  5
814
  8
0
 10
9.303000450134277
 20
-74.87899780273438
 30
-98.4020004272461
 70
   192
  0
VERTEX
  5
815
  8
0
 10
9.314000129699707
 20
-74.0
 30
-98.5
 70
   192
  0
VERTEX
  5
816
  8
0
 10
9.312000274658203
 20
-74.10900115966797
 30
-98.4990005493164
 70
   192
  0
VERTEX
  5
817
  8
0
 10
9.29800033569336
 20
-75.42400360107422
 30
-98.23799896240234
 70
   192
  0
VERTEX
  5
818
  8
0
 10
0.0
 20
-77.46399688720703
 30
-96.5
 70
   192
  0
VERTEX
  5
819
  8
0
 10
9.293999671936035
 20
-76.58100128173828
 30
-97.55599975585938
 70
   192
  0
VERTEX
  5
81A
  8
0
 10
9.295000076293945
 20
-76.12100219726562
 30
-97.89199829101562
 70
   192
  0
VERTEX
  5
81B
  8
0
 10
9.29699993133545
 20
-77.1240005493164
 30
-96.9990005493164
 70
   192
  0
VERTEX
  5
81C
  8
0
 10
9.295999526977539
 20
-75.99500274658203
 30
-97.9540023803711
 70
   192
  0
VERTEX
  5
81D
  8
0
 10
9.300999641418457
 20
-77.4469985961914
 30
-96.52899932861328
 70
   192
  0
VERTEX
  5
81E
  8
0
 10
0.0
 20
-78.0
 30
-94.5
 70
   192
  0
VERTEX
  5
81F
  8
0
 10
9.309000015258789
 20
-77.7750015258789
 30
-95.8239974975586
 70
   192
  0
VERTEX
  5
820
  8
0
 10
9.317000389099121
 20
-77.92400360107422
 30
-95.27400207519531
 70
   192
  0
VERTEX
  5
821
  8
0
 10
9.300999641418457
 20
-77.46099853515625
 30
-96.4990005493164
 70
   192
  0
VERTEX
  5
822
  8
0
 10
9.329999923706055
 20
-78.0
 30
-94.5
 70
   192
  0
VERTEX
  5
823
  8
0
 62
     9
 10
0.0
 20
0.0
 30
0.0
 70
   128
 71
     3
 72
     2
 73
     1
  0
VERTEX
  5
824
  8
0
 62
     9
 10
0.0
 20
0.0
 30
0.0
 70
   128
 71
     5
 72
     4
 73
     2
  0
VERTEX
  5
825
  8
0
 62
     9
 10
0.0
 20
0.0
 30
0.0
 70
   128
 71
     2
 72
     3
 73
     5
  0
VERTEX
  5
826
  8
0
 62
     9
 10
0.0
 20
0.0
 30
0.0
 70
   128
 71
     1
 72
     6
 73
     3
  0
VERTEX
  5
827
  8
0
 62
     9
 10
0.0
 20
0.0
 30
0.0
 70
   128
 71
     8
 72
     1
 73
     7
  0
VERTEX
  5
828
  8
0
 62
     9
 10
0.0
 20
0.0
 30
0.0
 70
   128
 71
     8
 72
     9
 73
     1
  0
VERTEX
  5
829
  8
0
 62
     9
 10
0.0
 20
0.0
 30
0.0
 70
   128
 71
     7
 72
    10
 73
     8
  0
VERTEX
  5
82A
  8
0
 62
     9
 10
0.0
 20
0.0
 30
0.0
 70
   128
 71
     9
 72
    11
 73
     1
  0
VERTEX
  5
82B
  8
0
 62
     9
 10
0.0
 20
0.0
 30
0.0
 70
   128
 71
     7
 72
    12
 73
    10
  0
VERTEX
  5
82C
  8
0
 62
     9
 10
0.0
 20
0.0
 30
0.0
 70
   128
 71
    14
 72
     7
 73
    13
  0
VERTEX
  5
82D
  8
0
 62
     9
 10
0.0
 20
0.0
 30
0.0
 70
   128
 71
    13
 72
    15
 73
    14
  0
VERTEX
  5
82E
  8
0
 62
     9
 10
0.0
 20
0.0
 30
0.0
 70
   128
 71
    14
 72
    16
 73
     7
  0
VERTEX
  5
82F
  8
0
 62
     9
 10
0.0
 20
0.0
 30
0.0
 70
   128
 71
    13
 72
    17
 73
    15
  0
VERTEX
  5
830
  8
0
 62
     9
 10
0.0
 20
0.0
 30
0.0
 70
   128
 71
     7
 72
    16
 73
    12
  0
VERTEX
  5
831
  8
0
 62
     9
 10
0.0
 20
0.0
 30
0.0
 70
   128
 71
     1
 72
    11
 73
     6
  0
SEQEND
  5
832
  8
0
 62
     9
  0
ENDBLK
  5
835
  8
0
  0
BLOCK
  8
0
  2
E3_NODE_18_
 70
     0
 10
0.0
 20
0.0
 30
0.0
  3
E3_NODE_18_
  1

  0
POLYLINE
  5
837
  8
0
 62
     9
 66
     1
 10
0.0
 20
0.0
 30
0.0
 70
    64
 71
    89
 72
    87
  0
VERTEX
  5
838
  8
0
 10
4.820000171661377
 20
27.29999923706055
 30
-25.5
 70
   192
  0
VERTEX
  5
839
  8
0
 10
11.54800033569336
 20
27.2859992980957
 30
-26.38899993896484
 70
   192
  0
VERTEX
  5
83A
  8
0
 10
11.53800010681152
 20
27.14900016784668
 30
-28.36899948120117
 70
   192
  0
VERTEX
  5
83B
  8
0
 10
11.55200004577637
 20
27.29999923706055
 30
-25.5
 70
   192
  0
VERTEX
  5
83C
  8
0
 10
4.820000171661377
 20
26.77499961853027
 30
-30.82600021362305
 70
   192
  0
VERTEX
  5
83D
  8
0
 10
11.5319995880127
 20
26.98699951171875
 30
-29.62199974060059
 70
   192
  0
VERTEX
  5
83E
  8
0
 10
11.52299976348877
 20
26.61700057983398
 30
-31.56599998474121
 70
   192
  0
VERTEX
  5
83F
  8
0
 10
11.51399993896484
 20
26.10799980163574
 30
-33.47800064086914
 70
   192
  0
VERTEX
  5
840
  8
0
 10
4.820000171661377
 20
25.22200012207031
 30
-35.94699859619141
 70
   192
  0
VERTEX
  5
841
  8
0
 10
11.52600002288818
 20
26.75900077819824
 30
-30.82299995422363
 70
   192
  0
VERTEX
  5
842
  8
0
 10
11.50399971008301
 20
25.45899963378906
 30
-35.35499954223633
 70
   192
  0
VERTEX
  5
843
  8
0
 10
4.820000171661377
 20
22.69899940490723
 30
-40.66699981689453
 70
   192
  0
VERTEX
  5
844
  8
0
 10
11.48999977111816
 20
24.10099983215332
 30
-38.32300186157227
 70
   192
  0
VERTEX
  5
845
  8
0
 10
11.49499988555908
 20
24.66900062561035
 30
-37.19300079345703
 70
   192
  0
VERTEX
  5
846
  8
0
 10
11.5019998550415
 20
25.20700073242188
 30
-35.94100189208984
 70
   192
  0
VERTEX
  5
847
  8
0
 10
11.48200035095215
 20
23.10899925231934
 30
-40.03499984741211
 70
   192
  0
VERTEX
  5
848
  8
0
 10
4.820000171661377
 20
19.30400085449219
 30
-44.80400085449219
 70
   192
  0
VERTEX
  5
849
  8
0
 10
11.46599960327148
 20
20.76199913024902
 30
-43.22700119018555
 70
   192
  0
VERTEX
  5
84A
  8
0
 10
11.45899963378906
 20
19.40800094604492
 30
-44.70000076293945
 70
   192
  0
VERTEX
  5
84B
  8
0
 10
11.47399997711182
 20
21.99600028991699
 30
-41.66999816894531
 70
   192
  0
VERTEX
  5
84C
  8
0
 10
11.47900009155273
 20
22.68499946594238
 30
-40.65800094604492
 70
   192
  0
VERTEX
  5
84D
  8
0
 10
11.45499992370605
 20
18.49799919128418
 30
-45.57699966430664
 70
   192
  0
VERTEX
  5
84E
  8
0
 10
11.44799995422363
 20
16.9950008392334
 30
-46.8650016784668
 70
   192
  0
VERTEX
  5
84F
  8
0
 10
11.45800018310547
 20
19.30200004577637
 30
-44.80199813842773
 70
   192
  0
VERTEX
  5
850
  8
0
 10
4.820000171661377
 20
15.16699981689453
 30
-48.19900131225586
 70
   192
  0
VERTEX
  5
851
  8
0
 10
11.44299983978271
 20
15.40299987792969
 30
-48.03900146484375
 70
   192
  0
VERTEX
  5
852
  8
0
 10
4.820000171661377
 20
10.44699954986572
 30
-50.72200012207031
 70
   192
  0
VERTEX
  5
853
  8
0
 10
11.43299961090088
 20
11.95899963378906
 30
-50.04100036621094
 70
   192
  0
VERTEX
  5
854
  8
0
 10
11.43000030517578
 20
10.8100004196167
 30
-50.56900024414062
 70
   192
  0
VERTEX
  5
855
  8
0
 10
11.4370002746582
 20
13.72399997711182
 30
-49.09999847412109
 70
   192
  0
VERTEX
  5
856
  8
0
 10
11.44200038909912
 20
15.16199970245361
 30
-48.19200134277344
 70
   192
  0
VERTEX
  5
857
  8
0
 10
11.42700004577637
 20
8.96500015258789
 30
-51.2859992980957
 70
   192
  0
VERTEX
  5
858
  8
0
 10
11.42399978637695
 20
7.073999881744385
 30
-51.86700057983398
 70
   192
  0
VERTEX
  5
859
  8
0
 10
11.43000030517578
 20
10.44299983978271
 30
-50.71099853515625
 70
   192
  0
VERTEX
  5
85A
  8
0
 10
4.820000171661377
 20
5.326000213623047
 30
-52.27500152587891
 70
   192
  0
VERTEX
  5
85B
  8
0
 10
4.820000171661377
 20
1.805999994277954
 30
-52.7400016784668
 70
   192
  0
VERTEX
  5
85C
  8
0
 10
11.42000007629395
 20
1.902999997138977
 30
-52.73400115966797
 70
   192
  0
VERTEX
  5
85D
  8
0
 10
11.41899967193604
 20
0.0
 30
-52.79700088500977
 70
   192
  0
VERTEX
  5
85E
  8
0
 10
11.42000007629395
 20
3.16100001335144
 30
-52.61600112915039
 70
   192
  0
VERTEX
  5
85F
  8
0
 10
11.42199993133545
 20
5.138999938964844
 30
-52.3120002746582
 70
   192
  0
VERTEX
  5
860
  8
0
 10
11.42199993133545
 20
5.324999809265137
 30
-52.26900100708008
 70
   192
  0
VERTEX
  5
861
  8
0
 10
1.320000052452087
 20
0.0
 30
-52.79999923706055
 70
   192
  0
VERTEX
  5
862
  8
0
 10
1.776000022888184
 20
1.539999961853027
 30
-52.75699996948242
 70
   192
  0
VERTEX
  5
863
  8
0
 10
1.320000052452087
 20
1.04200005531311
 30
-52.77999877929688
 70
   192
  0
VERTEX
  5
864
  8
0
 10
1.554999947547913
 20
1.465999960899353
 30
-52.76100158691406
 70
   192
  0
VERTEX
  5
865
  8
0
 10
4.820000171661377
 20
-26.77499961853027
 30
-30.82600021362305
 70
   192
  0
VERTEX
  5
866
  8
0
 10
11.53299999237061
 20
-27.00900077819824
 30
-29.47400093078613
 70
   192
  0
VERTEX
  5
867
  8
0
 10
11.54300022125244
 20
-27.22699928283691
 30
-27.5
 70
   192
  0
VERTEX
  5
868
  8
0
 10
11.52600002288818
 20
-26.76000022888184
 30
-30.82299995422363
 70
   192
  0
VERTEX
  5
869
  8
0
 10
4.820000171661377
 20
-27.29999923706055
 30
-25.5
 70
   192
  0
VERTEX
  5
86A
  8
0
 10
4.820000171661377
 20
-25.22200012207031
 30
-35.94699859619141
 70
   192
  0
VERTEX
  5
86B
  8
0
 10
11.50800037384033
 20
-25.76099967956543
 30
-34.5369987487793
 70
   192
  0
VERTEX
  5
86C
  8
0
 10
11.51399993896484
 20
-26.15200042724609
 30
-33.33399963378906
 70
   192
  0
VERTEX
  5
86D
  8
0
 10
11.5019998550415
 20
-25.20899963378906
 30
-35.94200134277344
 70
   192
  0
VERTEX
  5
86E
  8
0
 10
11.52400016784668
 20
-26.65099906921387
 30
-31.41900062561035
 70
   192
  0
VERTEX
  5
86F
  8
0
 10
4.820000171661377
 20
-22.69899940490723
 30
-40.66699981689453
 70
   192
  0
VERTEX
  5
870
  8
0
 10
11.48200035095215
 20
-23.18899917602539
 30
-39.90700149536133
 70
   192
  0
VERTEX
  5
871
  8
0
 10
11.49100017547607
 20
-24.17099952697754
 30
-38.18999862670898
 70
   192
  0
VERTEX
  5
872
  8
0
 10
11.47900009155273
 20
-22.68400001525879
 30
-40.65700149536133
 70
   192
  0
VERTEX
  5
873
  8
0
 10
11.49899959564209
 20
-25.03000068664551
 30
-36.39899826049805
 70
   192
  0
VERTEX
  5
874
  8
0
 10
11.4689998626709
 20
-21.31800079345703
 30
-42.55400085449219
 70
   192
  0
VERTEX
  5
875
  8
0
 10
11.47399997711182
 20
-22.08399963378906
 30
-41.54899978637695
 70
   192
  0
VERTEX
  5
876
  8
0
 10
4.820000171661377
 20
-19.30400085449219
 30
-44.80400085449219
 70
   192
  0
VERTEX
  5
877
  8
0
 10
11.46199989318848
 20
-20.01099967956543
 30
-44.06999969482422
 70
   192
  0
VERTEX
  5
878
  8
0
 10
11.45800018310547
 20
-19.29100036621094
 30
-44.79100036621094
 70
   192
  0
VERTEX
  5
879
  8
0
 10
4.820000171661377
 20
-15.16699981689453
 30
-48.19900131225586
 70
   192
  0
VERTEX
  5
87A
  8
0
 10
11.44900035858154
 20
-17.11300086975098
 30
-46.77099990844727
 70
   192
  0
VERTEX
  5
87B
  8
0
 10
11.44200038909912
 20
-15.16300010681152
 30
-48.19400024414062
 70
   192
  0
VERTEX
  5
87C
  8
0
 10
11.44299983978271
 20
-15.52700042724609
 30
-47.95500183105469
 70
   192
  0
VERTEX
  5
87D
  8
0
 10
11.45499992370605
 20
-18.60799980163574
 30
-45.47499847412109
 70
   192
  0
VERTEX
  5
87E
  8
0
 10
4.820000171661377
 20
-10.44699954986572
 30
-50.72200012207031
 70
   192
  0
VERTEX
  5
87F
  8
0
 10
11.4350004196167
 20
-12.73600006103516
 30
-49.64699935913086
 70
   192
  0
VERTEX
  5
880
  8
0
 10
11.4399995803833
 20
-14.4709997177124
 30
-48.64899826049805
 70
   192
  0
VERTEX
  5
881
  8
0
 10
11.43099975585938
 20
-10.94699954986572
 30
-50.50899887084961
 70
   192
  0
VERTEX
  5
882
  8
0
 10
11.43000030517578
 20
-10.44200038909912
 30
-50.70899963378906
 70
   192
  0
VERTEX
  5
883
  8
0
 10
4.820000171661377
 20
-5.326000213623047
 30
-52.27500152587891
 70
   192
  0
VERTEX
  5
884
  8
0
 10
11.42399978637695
 20
-7.218999862670898
 30
-51.82799911499023
 70
   192
  0
VERTEX
  5
885
  8
0
 10
11.42300033569336
 20
-5.993000030517578
 30
-52.13399887084961
 70
   192
  0
VERTEX
  5
886
  8
0
 10
11.42199993133545
 20
-5.322999954223633
 30
-52.25899887084961
 70
   192
  0
VERTEX
  5
887
  8
0
 10
11.42700004577637
 20
-9.107000350952148
 30
-51.23600006103516
 70
   192
  0
VERTEX
  5
888
  8
0
 10
1.325000047683716
 20
-1.108999967575073
 30
-52.77700042724609
 70
   192
  0
VERTEX
  5
889
  8
0
 10
4.820000171661377
 20
-1.805999994277954
 30
-52.7400016784668
 70
   192
  0
VERTEX
  5
88A
  8
0
 10
1.776000022888184
 20
-1.539999961853027
 30
-52.75699996948242
 70
   192
  0
VERTEX
  5
88B
  8
0
 10
1.375
 20
-1.269000053405762
 30
-52.77000045776367
 70
   192
  0
VERTEX
  5
88C
  8
0
 10
1.320000052452087
 20
-1.04200005531311
 30
-52.77999877929688
 70
   192
  0
VERTEX
  5
88D
  8
0
 10
11.42000007629395
 20
-2.052000045776367
 30
-52.72299957275391
 70
   192
  0
VERTEX
  5
88E
  8
0
 10
11.42099952697754
 20
-4.026000022888184
 30
-52.50199890136719
 70
   192
  0
VERTEX
  5
88F
  8
0
 10
11.41899967193604
 20
-0.0750000029802322
 30
-52.79999923706055
 70
   192
  0
VERTEX
  5
890
  8
0
 10
11.55200004577637
 20
-27.29999923706055
 30
-25.5
 70
   192
  0
VERTEX
  5
891
  8
0
 62
     9
 10
0.0
 20
0.0
 30
0.0
 70
   128
 71
     3
 72
     2
 73
     1
  0
VERTEX
  5
892
  8
0
 62
     9
 10
0.0
 20
0.0
 30
0.0
 70
   128
 71
     2
 72
     4
 73
     1
  0
VERTEX
  5
893
  8
0
 62
     9
 10
0.0
 20
0.0
 30
0.0
 70
   128
 71
     1
 72
     5
 73
     3
  0
VERTEX
  5
894
  8
0
 62
     9
 10
0.0
 20
0.0
 30
0.0
 70
   128
 71
     5
 72
     6
 73
     3
  0
VERTEX
  5
895
  8
0
 62
     9
 10
0.0
 20
0.0
 30
0.0
 70
   128
 71
     8
 72
     7
 73
     5
  0
VERTEX
  5
896
  8
0
 62
     9
 10
0.0
 20
0.0
 30
0.0
 70
   128
 71
     5
 72
     9
 73
     8
  0
VERTEX
  5
897
  8
0
 62
     9
 10
0.0
 20
0.0
 30
0.0
 70
   128
 71
     7
 72
    10
 73
     5
  0
VERTEX
  5
898
  8
0
 62
     9
 10
0.0
 20
0.0
 30
0.0
 70
   128
 71
     9
 72
    11
 73
     8
  0
VERTEX
  5
899
  8
0
 62
     9
 10
0.0
 20
0.0
 30
0.0
 70
   128
 71
    13
 72
     9
 73
    12
  0
VERTEX
  5
89A
  8
0
 62
     9
 10
0.0
 20
0.0
 30
0.0
 70
   128
 71
    13
 72
    14
 73
     9
  0
VERTEX
  5
89B
  8
0
 62
     9
 10
0.0
 20
0.0
 30
0.0
 70
   128
 71
    14
 72
    15
 73
     9
  0
VERTEX
  5
89C
  8
0
 62
     9
 10
0.0
 20
0.0
 30
0.0
 70
   128
 71
    12
 72
    16
 73
    13
  0
VERTEX
  5
89D
  8
0
 62
     9
 10
0.0
 20
0.0
 30
0.0
 70
   128
 71
    19
 72
    18
 73
    17
  0
VERTEX
  5
89E
  8
0
 62
     9
 10
0.0
 20
0.0
 30
0.0
 70
   128
 71
    18
 72
    20
 73
    12
  0
VERTEX
  5
89F
  8
0
 62
     9
 10
0.0
 20
0.0
 30
0.0
 70
   128
 71
    20
 72
    21
 73
    12
  0
VERTEX
  5
8A0
  8
0
 62
     9
 10
0.0
 20
0.0
 30
0.0
 70
   128
 71
    12
 72
    17
 73
    18
  0
VERTEX
  5
8A1
  8
0
 62
     9
 10
0.0
 20
0.0
 30
0.0
 70
   128
 71
    23
 72
    22
 73
    17
  0
VERTEX
  5
8A2
  8
0
 62
     9
 10
0.0
 20
0.0
 30
0.0
 70
   128
 71
    22
 72
    24
 73
    17
  0
VERTEX
  5
8A3
  8
0
 62
     9
 10
0.0
 20
0.0
 30
0.0
 70
   128
 71
    17
 72
    25
 73
    23
  0
VERTEX
  5
8A4
  8
0
 62
     9
 10
0.0
 20
0.0
 30
0.0
 70
   128
 71
    25
 72
    26
 73
    23
  0
VERTEX
  5
8A5
  8
0
 62
     9
 10
0.0
 20
0.0
 30
0.0
 70
   128
 71
    29
 72
    28
 73
    27
  0
VERTEX
  5
8A6
  8
0
 62
     9
 10
0.0
 20
0.0
 30
0.0
 70
   128
 71
    30
 72
    25
 73
    27
  0
VERTEX
  5
8A7
  8
0
 62
     9
 10
0.0
 20
0.0
 30
0.0
 70
   128
 71
    27
 72
    28
 73
    30
  0
VERTEX
  5
8A8
  8
0
 62
     9
 10
0.0
 20
0.0
 30
0.0
 70
   128
 71
    30
 72
    31
 73
    25
  0
VERTEX
  5
8A9
  8
0
 62
     9
 10
0.0
 20
0.0
 30
0.0
 70
   128
 71
    33
 72
    32
 73
    27
  0
VERTEX
  5
8AA
  8
0
 62
     9
 10
0.0
 20
0.0
 30
0.0
 70
   128
 71
    32
 72
    34
 73
    27
  0
VERTEX
  5
8AB
  8
0
 62
     9
 10
0.0
 20
0.0
 30
0.0
 70
   128
 71
    27
 72
    35
 73
    33
  0
VERTEX
  5
8AC
  8
0
 62
     9
 10
0.0
 20
0.0
 30
0.0
 70
   128
 71
    38
 72
    37
 73
    36
  0
VERTEX
  5
8AD
  8
0
 62
     9
 10
0.0
 20
0.0
 30
0.0
 70
   128
 71
    37
 72
    39
 73
    36
  0
VERTEX
  5
8AE
  8
0
 62
     9
 10
0.0
 20
0.0
 30
0.0
 70
   128
 71
    39
 72
    40
 73
    35
  0
VERTEX
  5
8AF
  8
0
 62
     9
 10
0.0
 20
0.0
 30
0.0
 70
   128
 71
    35
 72
    36
 73
    39
  0
VERTEX
  5
8B0
  8
0
 62
     9
 10
0.0
 20
0.0
 30
0.0
 70
   128
 71
    40
 72
    41
 73
    35
  0
VERTEX
  5
8B1
  8
0
 62
     9
 10
0.0
 20
0.0
 30
0.0
 70
   128
 71
    36
 72
    43
 73
    42
  0
VERTEX
  5
8B2
  8
0
 62
     9
 10
0.0
 20
0.0
 30
0.0
 70
   128
 71
    44
 72
    42
 73
    43
  0
VERTEX
  5
8B3
  8
0
 62
     9
 10
0.0
 20
0.0
 30
0.0
 70
   128
 71
    43
 72
    45
 73
    44
  0
VERTEX
  5
8B4
  8
0
 62
     9
 10
0.0
 20
0.0
 30
0.0
 70
   128
 71
    42
 72
    38
 73
    36
  0
VERTEX
  5
8B5
  8
0
 62
     9
 10
0.0
 20
0.0
 30
0.0
 70
   128
 71
    48
 72
    47
 73
    46
  0
VERTEX
  5
8B6
  8
0
 62
     9
 10
0.0
 20
0.0
 30
0.0
 70
   128
 71
    47
 72
    49
 73
    46
  0
VERTEX
  5
8B7
  8
0
 62
     9
 10
0.0
 20
0.0
 30
0.0
 70
   128
 71
    46
 72
    50
 73
    48
  0
VERTEX
  5
8B8
  8
0
 62
     9
 10
0.0
 20
0.0
 30
0.0
 70
   128
 71
    53
 72
    52
 73
    51
  0
VERTEX
  5
8B9
  8
0
 62
     9
 10
0.0
 20
0.0
 30
0.0
 70
   128
 71
    51
 72
    46
 73
    53
  0
VERTEX
  5
8BA
  8
0
 62
     9
 10
0.0
 20
0.0
 30
0.0
 70
   128
 71
    52
 72
    54
 73
    51
  0
VERTEX
  5
8BB
  8
0
 62
     9
 10
0.0
 20
0.0
 30
0.0
 70
   128
 71
    46
 72
    55
 73
    53
  0
VERTEX
  5
8BC
  8
0
 62
     9
 10
0.0
 20
0.0
 30
0.0
 70
   128
 71
    58
 72
    57
 73
    56
  0
VERTEX
  5
8BD
  8
0
 62
     9
 10
0.0
 20
0.0
 30
0.0
 70
   128
 71
    56
 72
    51
 73
    58
  0
VERTEX
  5
8BE
  8
0
 62
     9
 10
0.0
 20
0.0
 30
0.0
 70
   128
 71
    57
 72
    59
 73
    56
  0
VERTEX
  5
8BF
  8
0
 62
     9
 10
0.0
 20
0.0
 30
0.0
 70
   128
 71
    51
 72
    60
 73
    58
  0
VERTEX
  5
8C0
  8
0
 62
     9
 10
0.0
 20
0.0
 30
0.0
 70
   128
 71
    62
 72
    61
 73
    56
  0
VERTEX
  5
8C1
  8
0
 62
     9
 10
0.0
 20
0.0
 30
0.0
 70
   128
 71
    61
 72
    64
 73
    63
  0
VERTEX
  5
8C2
  8
0
 62
     9
 10
0.0
 20
0.0
 30
0.0
 70
   128
 71
    63
 72
    56
 73
    61
  0
VERTEX
  5
8C3
  8
0
 62
     9
 10
0.0
 20
0.0
 30
0.0
 70
   128
 71
    64
 72
    65
 73
    63
  0
VERTEX
  5
8C4
  8
0
 62
     9
 10
0.0
 20
0.0
 30
0.0
 70
   128
 71
    67
 72
    66
 73
    63
  0
VERTEX
  5
8C5
  8
0
 62
     9
 10
0.0
 20
0.0
 30
0.0
 70
   128
 71
    69
 72
    68
 73
    66
  0
VERTEX
  5
8C6
  8
0
 62
     9
 10
0.0
 20
0.0
 30
0.0
 70
   128
 71
    66
 72
    67
 73
    69
  0
VERTEX
  5
8C7
  8
0
 62
     9
 10
0.0
 20
0.0
 30
0.0
 70
   128
 71
    63
 72
    70
 73
    67
  0
VERTEX
  5
8C8
  8
0
 62
     9
 10
0.0
 20
0.0
 30
0.0
 70
   128
 71
    72
 72
    71
 73
    66
  0
VERTEX
  5
8C9
  8
0
 62
     9
 10
0.0
 20
0.0
 30
0.0
 70
   128
 71
    66
 72
    73
 73
    72
  0
VERTEX
  5
8CA
  8
0
 62
     9
 10
0.0
 20
0.0
 30
0.0
 70
   128
 71
    72
 72
    74
 73
    71
  0
VERTEX
  5
8CB
  8
0
 62
     9
 10
0.0
 20
0.0
 30
0.0
 70
   128
 71
    74
 72
    75
 73
    71
  0
VERTEX
  5
8CC
  8
0
 62
     9
 10
0.0
 20
0.0
 30
0.0
 70
   128
 71
    77
 72
    76
 73
    71
  0
VERTEX
  5
8CD
  8
0
 62
     9
 10
0.0
 20
0.0
 30
0.0
 70
   128
 71
    77
 72
    78
 73
    76
  0
VERTEX
  5
8CE
  8
0
 62
     9
 10
0.0
 20
0.0
 30
0.0
 70
   128
 71
    78
 72
    79
 73
    76
  0
VERTEX
  5
8CF
  8
0
 62
     9
 10
0.0
 20
0.0
 30
0.0
 70
   128
 71
    71
 72
    80
 73
    77
  0
VERTEX
  5
8D0
  8
0
 62
     9
 10
0.0
 20
0.0
 30
0.0
 70
   128
 71
    83
 72
    82
 73
    81
  0
VERTEX
  5
8D1
  8
0
 62
     9
 10
0.0
 20
0.0
 30
0.0
 70
   128
 71
    82
 72
    38
 73
    81
  0
VERTEX
  5
8D2
  8
0
 62
     9
 10
0.0
 20
0.0
 30
0.0
 70
   128
 71
    81
 72
    84
 73
    83
  0
VERTEX
  5
8D3
  8
0
 62
     9
 10
0.0
 20
0.0
 30
0.0
 70
   128
 71
    38
 72
    85
 73
    81
  0
VERTEX
  5
8D4
  8
0
 62
     9
 10
0.0
 20
0.0
 30
0.0
 70
   128
 71
    87
 72
    86
 73
    82
  0
VERTEX
  5
8D5
  8
0
 62
     9
 10
0.0
 20
0.0
 30
0.0
 70
   128
 71
    86
 72
    88
 73
    82
  0
VERTEX
  5
8D6
  8
0
 62
     9
 10
0.0
 20
0.0
 30
0.0
 70
   128
 71
    88
 72
    38
 73
    82
  0
VERTEX
  5
8D7
  8
0
 62
     9
 10
0.0
 20
0.0
 30
0.0
 70
   128
 71
    82
 72
    76
 73
    87
  0
VERTEX
  5
8D8
  8
0
 62
     9
 10
0.0
 20
0.0
 30
0.0
 70
   128
 71
    76
 72
    79
 73
    87
  0
VERTEX
  5
8D9
  8
0
 62
     9
 10
0.0
 20
0.0
 30
0.0
 70
   128
 71
    38
 72
    42
 73
    85
  0
VERTEX
  5
8DA
  8
0
 62
     9
 10
0.0
 20
0.0
 30
0.0
 70
   128
 71
    71
 72
    75
 73
    80
  0
VERTEX
  5
8DB
  8
0
 62
     9
 10
0.0
 20
0.0
 30
0.0
 70
   128
 71
    66
 72
    68
 73
    73
  0
VERTEX
  5
8DC
  8
0
 62
     9
 10
0.0
 20
0.0
 30
0.0
 70
   128
 71
    63
 72
    65
 73
    70
  0
VERTEX
  5
8DD
  8
0
 62
     9
 10
0.0
 20
0.0
 30
0.0
 70
   128
 71
    56
 72
    59
 73
    62
  0
VERTEX
  5
8DE
  8
0
 62
     9
 10
0.0
 20
0.0
 30
0.0
 70
   128
 71
    51
 72
    54
 73
    60
  0
VERTEX
  5
8DF
  8
0
 62
     9
 10
0.0
 20
0.0
 30
0.0
 70
   128
 71
    46
 72
    49
 73
    55
  0
VERTEX
  5
8E0
  8
0
 62
     9
 10
0.0
 20
0.0
 30
0.0
 70
   128
 71
    50
 72
    89
 73
    48
  0
VERTEX
  5
8E1
  8
0
 62
     9
 10
0.0
 20
0.0
 30
0.0
 70
   128
 71
    35
 72
    41
 73
    33
  0
VERTEX
  5
8E2
  8
0
 62
     9
 10
0.0
 20
0.0
 30
0.0
 70
   128
 71
    27
 72
    34
 73
    29
  0
VERTEX
  5
8E3
  8
0
 62
     9
 10
0.0
 20
0.0
 30
0.0
 70
   128
 71
    25
 72
    31
 73
    26
  0
VERTEX
  5
8E4
  8
0
 62
     9
 10
0.0
 20
0.0
 30
0.0
 70
   128
 71
    17
 72
    24
 73
    19
  0
VERTEX
  5
8E5
  8
0
 62
     9
 10
0.0
 20
0.0
 30
0.0
 70
   128
 71
    12
 72
    21
 73
    16
  0
VERTEX
  5
8E6
  8
0
 62
     9
 10
0.0
 20
0.0
 30
0.0
 70
   128
 71
     9
 72
    15
 73
    11
  0
VERTEX
  5
8E7
  8
0
 62
     9
 10
0.0
 20
0.0
 30
0.0
 70
   128
 71
     5
 72
    10
 73
     6
  0
SEQEND
  5
8E8
  8
0
 62
     9
  0
ENDBLK
  5
8EB
  8
0
  0
BLOCK
  8
0
  2
E3_NODE_19_
 70
     0
 10
0.0
 20
0.0
 30
0.0
  3
E3_NODE_19_
  1

  0
POLYLINE
  5
8ED
  8
0
 62
     9
 66
     1
 10
0.0
 20
0.0
 30
0.0
 70
    64
 71
    72
 72
    71
  0
VERTEX
  5
8EE
  8
0
 10
11.65999984741211
 20
0.0
 30
-16.53800010681152
 70
   192
  0
VERTEX
  5
8EF
  8
0
 10
11.42199993133545
 20
-5.322999954223633
 30
-52.25899887084961
 70
   192
  0
VERTEX
  5
8F0
  8
0
 10
11.42099952697754
 20
-4.026000022888184
 30
-52.50199890136719
 70
   192
  0
VERTEX
  5
8F1
  8
0
 10
11.42000007629395
 20
-2.052000045776367
 30
-52.72299957275391
 70
   192
  0
VERTEX
  5
8F2
  8
0
 10
11.41899967193604
 20
-0.0750000029802322
 30
-52.79999923706055
 70
   192
  0
VERTEX
  5
8F3
  8
0
 10
11.41899967193604
 20
0.0
 30
-52.79700088500977
 70
   192
  0
VERTEX
  5
8F4
  8
0
 10
11.42399978637695
 20
-7.218999862670898
 30
-51.82799911499023
 70
   192
  0
VERTEX
  5
8F5
  8
0
 10
11.42300033569336
 20
-5.993000030517578
 30
-52.13399887084961
 70
   192
  0
VERTEX
  5
8F6
  8
0
 10
11.43000030517578
 20
-10.44200038909912
 30
-50.70899963378906
 70
   192
  0
VERTEX
  5
8F7
  8
0
 10
11.42700004577637
 20
-9.107000350952148
 30
-51.23600006103516
 70
   192
  0
VERTEX
  5
8F8
  8
0
 10
11.4399995803833
 20
-14.4709997177124
 30
-48.64899826049805
 70
   192
  0
VERTEX
  5
8F9
  8
0
 10
11.4350004196167
 20
-12.73600006103516
 30
-49.64699935913086
 70
   192
  0
VERTEX
  5
8FA
  8
0
 10
11.43099975585938
 20
-10.94699954986572
 30
-50.50899887084961
 70
   192
  0
VERTEX
  5
8FB
  8
0
 10
11.44200038909912
 20
-15.16300010681152
 30
-48.19400024414062
 70
   192
  0
VERTEX
  5
8FC
  8
0
 10
11.45800018310547
 20
-19.29100036621094
 30
-44.79100036621094
 70
   192
  0
VERTEX
  5
8FD
  8
0
 10
11.45499992370605
 20
-18.60799980163574
 30
-45.47499847412109
 70
   192
  0
VERTEX
  5
8FE
  8
0
 10
11.44900035858154
 20
-17.11300086975098
 30
-46.77099990844727
 70
   192
  0
VERTEX
  5
8FF
  8
0
 10
11.44299983978271
 20
-15.52700042724609
 30
-47.95500183105469
 70
   192
  0
VERTEX
  5
900
  8
0
 10
11.4689998626709
 20
-21.31800079345703
 30
-42.55400085449219
 70
   192
  0
VERTEX
  5
901
  8
0
 10
11.46199989318848
 20
-20.01099967956543
 30
-44.06999969482422
 70
   192
  0
VERTEX
  5
902
  8
0
 10
11.47399997711182
 20
-22.08399963378906
 30
-41.54899978637695
 70
   192
  0
VERTEX
  5
903
  8
0
 10
11.47900009155273
 20
-22.68400001525879
 30
-40.65700149536133
 70
   192
  0
VERTEX
  5
904
  8
0
 10
11.5019998550415
 20
-25.20899963378906
 30
-35.94200134277344
 70
   192
  0
VERTEX
  5
905
  8
0
 10
11.49899959564209
 20
-25.03000068664551
 30
-36.39899826049805
 70
   192
  0
VERTEX
  5
906
  8
0
 10
11.49100017547607
 20
-24.17099952697754
 30
-38.18999862670898
 70
   192
  0
VERTEX
  5
907
  8
0
 10
11.48200035095215
 20
-23.18899917602539
 30
-39.90700149536133
 70
   192
  0
VERTEX
  5
908
  8
0
 10
11.51399993896484
 20
-26.15200042724609
 30
-33.33399963378906
 70
   192
  0
VERTEX
  5
909
  8
0
 10
11.50800037384033
 20
-25.76099967956543
 30
-34.5369987487793
 70
   192
  0
VERTEX
  5
90A
  8
0
 10
11.52600002288818
 20
-26.76000022888184
 30
-30.82299995422363
 70
   192
  0
VERTEX
  5
90B
  8
0
 10
11.52400016784668
 20
-26.65099906921387
 30
-31.41900062561035
 70
   192
  0
VERTEX
  5
90C
  8
0
 10
11.55200004577637
 20
-27.29999923706055
 30
-25.5
 70
   192
  0
VERTEX
  5
90D
  8
0
 10
11.54300022125244
 20
-27.22699928283691
 30
-27.5
 70
   192
  0
VERTEX
  5
90E
  8
0
 10
11.53299999237061
 20
-27.00900077819824
 30
-29.47400093078613
 70
   192
  0
VERTEX
  5
90F
  8
0
 10
11.58100032806396
 20
-27.29999923706055
 30
-16.53899955749512
 70
   192
  0
VERTEX
  5
910
  8
0
 10
11.5319995880127
 20
26.98699951171875
 30
-29.62199974060059
 70
   192
  0
VERTEX
  5
911
  8
0
 10
11.53800010681152
 20
27.14900016784668
 30
-28.36899948120117
 70
   192
  0
VERTEX
  5
912
  8
0
 10
11.52600002288818
 20
26.75900077819824
 30
-30.82299995422363
 70
   192
  0
VERTEX
  5
913
  8
0
 10
11.54800033569336
 20
27.2859992980957
 30
-26.38899993896484
 70
   192
  0
VERTEX
  5
914
  8
0
 10
11.55200004577637
 20
27.29999923706055
 30
-25.5
 70
   192
  0
VERTEX
  5
915
  8
0
 10
11.5019998550415
 20
25.20700073242188
 30
-35.94100189208984
 70
   192
  0
VERTEX
  5
916
  8
0
 10
11.50399971008301
 20
25.45899963378906
 30
-35.35499954223633
 70
   192
  0
VERTEX
  5
917
  8
0
 10
11.51399993896484
 20
26.10799980163574
 30
-33.47800064086914
 70
   192
  0
VERTEX
  5
918
  8
0
 10
11.52299976348877
 20
26.61700057983398
 30
-31.56599998474121
 70
   192
  0
VERTEX
  5
919
  8
0
 10
11.48999977111816
 20
24.10099983215332
 30
-38.32300186157227
 70
   192
  0
VERTEX
  5
91A
  8
0
 10
11.49499988555908
 20
24.66900062561035
 30
-37.19300079345703
 70
   192
  0
VERTEX
  5
91B
  8
0
 10
11.47900009155273
 20
22.68499946594238
 30
-40.65800094604492
 70
   192
  0
VERTEX
  5
91C
  8
0
 10
11.48200035095215
 20
23.10899925231934
 30
-40.03499984741211
 70
   192
  0
VERTEX
  5
91D
  8
0
 10
11.45899963378906
 20
19.40800094604492
 30
-44.70000076293945
 70
   192
  0
VERTEX
  5
91E
  8
0
 10
11.46599960327148
 20
20.76199913024902
 30
-43.22700119018555
 70
   192
  0
VERTEX
  5
91F
  8
0
 10
11.47399997711182
 20
21.99600028991699
 30
-41.66999816894531
 70
   192
  0
VERTEX
  5
920
  8
0
 10
11.45800018310547
 20
19.30200004577637
 30
-44.80199813842773
 70
   192
  0
VERTEX
  5
921
  8
0
 10
11.44200038909912
 20
15.16199970245361
 30
-48.19200134277344
 70
   192
  0
VERTEX
  5
922
  8
0
 10
11.44299983978271
 20
15.40299987792969
 30
-48.03900146484375
 70
   192
  0
VERTEX
  5
923
  8
0
 10
11.44799995422363
 20
16.9950008392334
 30
-46.8650016784668
 70
   192
  0
VERTEX
  5
924
  8
0
 10
11.45499992370605
 20
18.49799919128418
 30
-45.57699966430664
 70
   192
  0
VERTEX
  5
925
  8
0
 10
11.43299961090088
 20
11.95899963378906
 30
-50.04100036621094
 70
   192
  0
VERTEX
  5
926
  8
0
 10
11.4370002746582
 20
13.72399997711182
 30
-49.09999847412109
 70
   192
  0
VERTEX
  5
927
  8
0
 10
11.43000030517578
 20
10.8100004196167
 30
-50.56900024414062
 70
   192
  0
VERTEX
  5
928
  8
0
 10
11.43000030517578
 20
10.44299983978271
 30
-50.71099853515625
 70
   192
  0
VERTEX
  5
929
  8
0
 10
11.42199993133545
 20
5.324999809265137
 30
-52.26900100708008
 70
   192
  0
VERTEX
  5
92A
  8
0
 10
11.42399978637695
 20
7.073999881744385
 30
-51.86700057983398
 70
   192
  0
VERTEX
  5
92B
  8
0
 10
11.42700004577637
 20
8.96500015258789
 30
-51.2859992980957
 70
   192
  0
VERTEX
  5
92C
  8
0
 10
11.42000007629395
 20
3.16100001335144
 30
-52.61600112915039
 70
   192
  0
VERTEX
  5
92D
  8
0
 10
11.42199993133545
 20
5.138999938964844
 30
-52.3120002746582
 70
   192
  0
VERTEX
  5
92E
  8
0
 10
11.42000007629395
 20
1.902999997138977
 30
-52.73400115966797
 70
   192
  0
VERTEX
  5
92F
  8
0
 10
11.57299995422363
 20
27.29999923706055
 30
-16.53899955749512
 70
   192
  0
VERTEX
  5
930
  8
0
 10
11.61400032043457
 20
27.29999923706055
 30
1.952000021934509
 70
   192
  0
VERTEX
  5
931
  8
0
 10
11.64799976348877
 20
0.0
 30
19.89999961853027
 70
   192
  0
VERTEX
  5
932
  8
0
 10
11.64799976348877
 20
-0.1500000059604645
 30
19.89999961853027
 70
   192
  0
VERTEX
  5
933
  8
0
 10
11.60900020599365
 20
-27.29999923706055
 30
-7.552000045776367
 70
   192
  0
VERTEX
  5
934
  8
0
 10
11.57699966430664
 20
-27.29999923706055
 30
19.89999961853027
 70
   192
  0
VERTEX
  5
935
  8
0
 10
11.57699966430664
 20
27.29999923706055
 30
19.89999961853027
 70
   192
  0
VERTEX
  5
936
  8
0
 62
     9
 10
0.0
 20
0.0
 30
0.0
 70
   128
 71
     3
 72
     2
 73
     1
  0
VERTEX
  5
937
  8
0
 62
     9
 10
0.0
 20
0.0
 30
0.0
 70
   128
 71
     1
 72
     4
 73
     3
  0
VERTEX
  5
938
  8
0
 62
     9
 10
0.0
 20
0.0
 30
0.0
 70
   128
 71
     1
 72
     5
 73
     4
  0
VERTEX
  5
939
  8
0
 62
     9
 10
0.0
 20
0.0
 30
0.0
 70
   128
 71
     1
 72
     6
 73
     5
  0
VERTEX
  5
93A
  8
0
 62
     9
 10
0.0
 20
0.0
 30
0.0
 70
   128
 71
     8
 72
     7
 73
     1
  0
VERTEX
  5
93B
  8
0
 62
     9
 10
0.0
 20
0.0
 30
0.0
 70
   128
 71
    10
 72
     9
 73
     1
  0
VERTEX
  5
93C
  8
0
 62
     9
 10
0.0
 20
0.0
 30
0.0
 70
   128
 71
     1
 72
     7
 73
    10
  0
VERTEX
  5
93D
  8
0
 62
     9
 10
0.0
 20
0.0
 30
0.0
 70
   128
 71
     1
 72
     2
 73
     8
  0
VERTEX
  5
93E
  8
0
 62
     9
 10
0.0
 20
0.0
 30
0.0
 70
   128
 71
    12
 72
    11
 73
     1
  0
VERTEX
  5
93F
  8
0
 62
     9
 10
0.0
 20
0.0
 30
0.0
 70
   128
 71
     1
 72
    13
 73
    12
  0
VERTEX
  5
940
  8
0
 62
     9
 10
0.0
 20
0.0
 30
0.0
 70
   128
 71
    11
 72
    14
 73
     1
  0
VERTEX
  5
941
  8
0
 62
     9
 10
0.0
 20
0.0
 30
0.0
 70
   128
 71
     1
 72
     9
 73
    13
  0
VERTEX
  5
942
  8
0
 62
     9
 10
0.0
 20
0.0
 30
0.0
 70
   128
 71
    16
 72
    15
 73
     1
  0
VERTEX
  5
943
  8
0
 62
     9
 10
0.0
 20
0.0
 30
0.0
 70
   128
 71
     1
 72
    17
 73
    16
  0
VERTEX
  5
944
  8
0
 62
     9
 10
0.0
 20
0.0
 30
0.0
 70
   128
 71
     1
 72
    18
 73
    17
  0
VERTEX
  5
945
  8
0
 62
     9
 10
0.0
 20
0.0
 30
0.0
 70
   128
 71
    20
 72
    19
 73
     1
  0
VERTEX
  5
946
  8
0
 62
     9
 10
0.0
 20
0.0
 30
0.0
 70
   128
 71
    19
 72
    21
 73
     1
  0
VERTEX
  5
947
  8
0
 62
     9
 10
0.0
 20
0.0
 30
0.0
 70
   128
 71
    21
 72
    22
 73
     1
  0
VERTEX
  5
948
  8
0
 62
     9
 10
0.0
 20
0.0
 30
0.0
 70
   128
 71
    24
 72
    23
 73
     1
  0
VERTEX
  5
949
  8
0
 62
     9
 10
0.0
 20
0.0
 30
0.0
 70
   128
 71
     1
 72
    25
 73
    24
  0
VERTEX
  5
94A
  8
0
 62
     9
 10
0.0
 20
0.0
 30
0.0
 70
   128
 71
     1
 72
    26
 73
    25
  0
VERTEX
  5
94B
  8
0
 62
     9
 10
0.0
 20
0.0
 30
0.0
 70
   128
 71
    28
 72
    27
 73
     1
  0
VERTEX
  5
94C
  8
0
 62
     9
 10
0.0
 20
0.0
 30
0.0
 70
   128
 71
    30
 72
    29
 73
     1
  0
VERTEX
  5
94D
  8
0
 62
     9
 10
0.0
 20
0.0
 30
0.0
 70
   128
 71
     1
 72
    27
 73
    30
  0
VERTEX
  5
94E
  8
0
 62
     9
 10
0.0
 20
0.0
 30
0.0
 70
   128
 71
     1
 72
    23
 73
    28
  0
VERTEX
  5
94F
  8
0
 62
     9
 10
0.0
 20
0.0
 30
0.0
 70
   128
 71
     1
 72
    22
 73
    26
  0
VERTEX
  5
950
  8
0
 62
     9
 10
0.0
 20
0.0
 30
0.0
 70
   128
 71
    32
 72
    31
 73
     1
  0
VERTEX
  5
951
  8
0
 62
     9
 10
0.0
 20
0.0
 30
0.0
 70
   128
 71
     1
 72
    33
 73
    32
  0
VERTEX
  5
952
  8
0
 62
     9
 10
0.0
 20
0.0
 30
0.0
 70
   128
 71
    31
 72
    34
 73
     1
  0
VERTEX
  5
953
  8
0
 62
     9
 10
0.0
 20
0.0
 30
0.0
 70
   128
 71
     1
 72
    29
 73
    33
  0
VERTEX
  5
954
  8
0
 62
     9
 10
0.0
 20
0.0
 30
0.0
 70
   128
 71
     1
 72
    15
 73
    20
  0
VERTEX
  5
955
  8
0
 62
     9
 10
0.0
 20
0.0
 30
0.0
 70
   128
 71
     1
 72
    14
 73
    18
  0
VERTEX
  5
956
  8
0
 62
     9
 10
0.0
 20
0.0
 30
0.0
 70
   128
 71
    36
 72
    35
 73
     1
  0
VERTEX
  5
957
  8
0
 62
     9
 10
0.0
 20
0.0
 30
0.0
 70
   128
 71
    35
 72
    37
 73
     1
  0
VERTEX
  5
958
  8
0
 62
     9
 10
0.0
 20
0.0
 30
0.0
 70
   128
 71
     1
 72
    38
 73
    36
  0
VERTEX
  5
959
  8
0
 62
     9
 10
0.0
 20
0.0
 30
0.0
 70
   128
 71
     1
 72
    39
 73
    38
  0
VERTEX
  5
95A
  8
0
 62
     9
 10
0.0
 20
0.0
 30
0.0
 70
   128
 71
    41
 72
    40
 73
     1
  0
VERTEX
  5
95B
  8
0
 62
     9
 10
0.0
 20
0.0
 30
0.0
 70
   128
 71
     1
 72
    42
 73
    41
  0
VERTEX
  5
95C
  8
0
 62
     9
 10
0.0
 20
0.0
 30
0.0
 70
   128
 71
     1
 72
    43
 73
    42
  0
VERTEX
  5
95D
  8
0
 62
     9
 10
0.0
 20
0.0
 30
0.0
 70
   128
 71
     1
 72
    37
 73
    43
  0
VERTEX
  5
95E
  8
0
 62
     9
 10
0.0
 20
0.0
 30
0.0
 70
   128
 71
    45
 72
    44
 73
     1
  0
VERTEX
  5
95F
  8
0
 62
     9
 10
0.0
 20
0.0
 30
0.0
 70
   128
 71
    47
 72
    46
 73
     1
  0
VERTEX
  5
960
  8
0
 62
     9
 10
0.0
 20
0.0
 30
0.0
 70
   128
 71
     1
 72
    44
 73
    47
  0
VERTEX
  5
961
  8
0
 62
     9
 10
0.0
 20
0.0
 30
0.0
 70
   128
 71
    49
 72
    48
 73
     1
  0
VERTEX
  5
962
  8
0
 62
     9
 10
0.0
 20
0.0
 30
0.0
 70
   128
 71
     1
 72
    50
 73
    49
  0
VERTEX
  5
963
  8
0
 62
     9
 10
0.0
 20
0.0
 30
0.0
 70
   128
 71
    48
 72
    51
 73
     1
  0
VERTEX
  5
964
  8
0
 62
     9
 10
0.0
 20
0.0
 30
0.0
 70
   128
 71
     1
 72
    46
 73
    50
  0
VERTEX
  5
965
  8
0
 62
     9
 10
0.0
 20
0.0
 30
0.0
 70
   128
 71
     1
 72
    40
 73
    45
  0
VERTEX
  5
966
  8
0
 62
     9
 10
0.0
 20
0.0
 30
0.0
 70
   128
 71
    53
 72
    52
 73
     1
  0
VERTEX
  5
967
  8
0
 62
     9
 10
0.0
 20
0.0
 30
0.0
 70
   128
 71
     1
 72
    54
 73
    53
  0
VERTEX
  5
968
  8
0
 62
     9
 10
0.0
 20
0.0
 30
0.0
 70
   128
 71
     1
 72
    55
 73
    54
  0
VERTEX
  5
969
  8
0
 62
     9
 10
0.0
 20
0.0
 30
0.0
 70
   128
 71
    57
 72
    56
 73
     1
  0
VERTEX
  5
96A
  8
0
 62
     9
 10
0.0
 20
0.0
 30
0.0
 70
   128
 71
    56
 72
    58
 73
     1
  0
VERTEX
  5
96B
  8
0
 62
     9
 10
0.0
 20
0.0
 30
0.0
 70
   128
 71
    58
 72
    59
 73
     1
  0
VERTEX
  5
96C
  8
0
 62
     9
 10
0.0
 20
0.0
 30
0.0
 70
   128
 71
     1
 72
    52
 73
    57
  0
VERTEX
  5
96D
  8
0
 62
     9
 10
0.0
 20
0.0
 30
0.0
 70
   128
 71
    61
 72
    60
 73
     1
  0
VERTEX
  5
96E
  8
0
 62
     9
 10
0.0
 20
0.0
 30
0.0
 70
   128
 71
     1
 72
    62
 73
    61
  0
VERTEX
  5
96F
  8
0
 62
     9
 10
0.0
 20
0.0
 30
0.0
 70
   128
 71
     1
 72
    59
 73
    62
  0
VERTEX
  5
970
  8
0
 62
     9
 10
0.0
 20
0.0
 30
0.0
 70
   128
 71
    64
 72
    63
 73
     1
  0
VERTEX
  5
971
  8
0
 62
     9
 10
0.0
 20
0.0
 30
0.0
 70
   128
 71
    63
 72
    65
 73
     1
  0
VERTEX
  5
972
  8
0
 62
     9
 10
0.0
 20
0.0
 30
0.0
 70
   128
 71
    65
 72
     6
 73
     1
  0
VERTEX
  5
973
  8
0
 62
     9
 10
0.0
 20
0.0
 30
0.0
 70
   128
 71
     1
 72
    60
 73
    64
  0
VERTEX
  5
974
  8
0
 62
     9
 10
0.0
 20
0.0
 30
0.0
 70
   128
 71
     1
 72
    51
 73
    55
  0
VERTEX
  5
975
  8
0
 62
     9
 10
0.0
 20
0.0
 30
0.0
 70
   128
 71
    67
 72
    66
 73
     1
  0
VERTEX
  5
976
  8
0
 62
     9
 10
0.0
 20
0.0
 30
0.0
 70
   128
 71
     1
 72
    68
 73
    67
  0
VERTEX
  5
977
  8
0
 62
     9
 10
0.0
 20
0.0
 30
0.0
 70
   128
 71
    69
 72
    68
 73
     1
  0
VERTEX
  5
978
  8
0
 62
     9
 10
0.0
 20
0.0
 30
0.0
 70
   128
 71
     1
 72
    70
 73
    69
  0
VERTEX
  5
979
  8
0
 62
     9
 10
0.0
 20
0.0
 30
0.0
 70
   128
 71
    70
 72
    71
 73
    69
  0
VERTEX
  5
97A
  8
0
 62
     9
 10
0.0
 20
0.0
 30
0.0
 70
   128
 71
     1
 72
    34
 73
    70
  0
VERTEX
  5
97B
  8
0
 62
     9
 10
0.0
 20
0.0
 30
0.0
 70
   128
 71
    68
 72
    72
 73
    67
  0
VERTEX
  5
97C
  8
0
 62
     9
 10
0.0
 20
0.0
 30
0.0
 70
   128
 71
     1
 72
    66
 73
    39
  0
SEQEND
  5
97D
  8
0
 62
     9
  0
ENDBLK
  5
980
  8
0
  0
BLOCK
  8
0
  2
E3_NODE_20_
 70
     0
 10
0.0
 20
0.0
 30
0.0
  3
E3_NODE_20_
  1

  0
POLYLINE
  5
982
  8
0
 62
     9
 66
     1
 10
0.0
 20
0.0
 30
0.0
 70
    64
 71
     6
 72
     4
  0
VERTEX
  5
983
  8
0
 10
4.820000171661377
 20
-27.29999923706055
 30
19.89999961853027
 70
   192
  0
VERTEX
  5
984
  8
0
 10
4.820000171661377
 20
-27.29999923706055
 30
-25.5
 70
   192
  0
VERTEX
  5
985
  8
0
 10
11.60900020599365
 20
-27.29999923706055
 30
-7.552000045776367
 70
   192
  0
VERTEX
  5
986
  8
0
 10
11.58100032806396
 20
-27.29999923706055
 30
-16.53899955749512
 70
   192
  0
VERTEX
  5
987
  8
0
 10
11.55200004577637
 20
-27.29999923706055
 30
-25.5
 70
   192
  0
VERTEX
  5
988
  8
0
 10
11.57699966430664
 20
-27.29999923706055
 30
19.89999961853027
 70
   192
  0
VERTEX
  5
989
  8
0
 62
     9
 10
0.0
 20
0.0
 30
0.0
 70
   128
 71
     3
 72
     2
 73
     1
  0
VERTEX
  5
98A
  8
0
 62
     9
 10
0.0
 20
0.0
 30
0.0
 70
   128
 71
     3
 72
     4
 73
     2
  0
VERTEX
  5
98B
  8
0
 62
     9
 10
0.0
 20
0.0
 30
0.0
 70
   128
 71
     4
 72
     5
 73
     2
  0
VERTEX
  5
98C
  8
0
 62
     9
 10
0.0
 20
0.0
 30
0.0
 70
   128
 71
     1
 72
     6
 73
     3
  0
SEQEND
  5
98D
  8
0
 62
     9
  0
ENDBLK
  5
990
  8
0
  0
BLOCK
  8
0
  2
E3_NODE_21_
 70
     0
 10
0.0
 20
0.0
 30
0.0
  3
E3_NODE_21_
  1

  0
POLYLINE
  5
992
  8
0
 62
     9
 66
     1
 10
0.0
 20
0.0
 30
0.0
 70
    64
 71
     6
 72
     4
  0
VERTEX
  5
993
  8
0
 10
4.820000171661377
 20
27.29999923706055
 30
19.89999961853027
 70
   192
  0
VERTEX
  5
994
  8
0
 10
4.820000171661377
 20
-27.29999923706055
 30
19.89999961853027
 70
   192
  0
VERTEX
  5
995
  8
0
 10
11.64799976348877
 20
0.0
 30
19.89999961853027
 70
   192
  0
VERTEX
  5
996
  8
0
 10
11.57699966430664
 20
-27.29999923706055
 30
19.89999961853027
 70
   192
  0
VERTEX
  5
997
  8
0
 10
11.64799976348877
 20
-0.1500000059604645
 30
19.89999961853027
 70
   192
  0
VERTEX
  5
998
  8
0
 10
11.57699966430664
 20
27.29999923706055
 30
19.89999961853027
 70
   192
  0
VERTEX
  5
999
  8
0
 62
     9
 10
0.0
 20
0.0
 30
0.0
 70
   128
 71
     3
 72
     2
 73
     1
  0
VERTEX
  5
99A
  8
0
 62
     9
 10
0.0
 20
0.0
 30
0.0
 70
   128
 71
     5
 72
     4
 73
     2
  0
VERTEX
  5
99B
  8
0
 62
     9
 10
0.0
 20
0.0
 30
0.0
 70
   128
 71
     2
 72
     3
 73
     5
  0
VERTEX
  5
99C
  8
0
 62
     9
 10
0.0
 20
0.0
 30
0.0
 70
   128
 71
     1
 72
     6
 73
     3
  0
SEQEND
  5
99D
  8
0
 62
     9
  0
ENDBLK
  5
9A0
  8
0
  0
BLOCK
  8
0
  2
E3_NODE_22_
 70
     0
 10
0.0
 20
0.0
 30
0.0
  3
E3_NODE_22_
  1

  0
POLYLINE
  5
9A2
  8
0
 62
     9
 66
     1
 10
0.0
 20
0.0
 30
0.0
 70
    64
 71
     6
 72
     4
  0
VERTEX
  5
9A3
  8
0
 10
4.820000171661377
 20
27.29999923706055
 30
-25.5
 70
   192
  0
VERTEX
  5
9A4
  8
0
 10
4.820000171661377
 20
27.29999923706055
 30
19.89999961853027
 70
   192
  0
VERTEX
  5
9A5
  8
0
 10
11.61400032043457
 20
27.29999923706055
 30
1.952000021934509
 70
   192
  0
VERTEX
  5
9A6
  8
0
 10
11.57699966430664
 20
27.29999923706055
 30
19.89999961853027
 70
   192
  0
VERTEX
  5
9A7
  8
0
 10
11.57299995422363
 20
27.29999923706055
 30
-16.53899955749512
 70
   192
  0
VERTEX
  5
9A8
  8
0
 10
11.55200004577637
 20
27.29999923706055
 30
-25.5
 70
   192
  0
VERTEX
  5
9A9
  8
0
 62
     9
 10
0.0
 20
0.0
 30
0.0
 70
   128
 71
     3
 72
     2
 73
     1
  0
VERTEX
  5
9AA
  8
0
 62
     9
 10
0.0
 20
0.0
 30
0.0
 70
   128
 71
     3
 72
     4
 73
     2
  0
VERTEX
  5
9AB
  8
0
 62
     9
 10
0.0
 20
0.0
 30
0.0
 70
   128
 71
     1
 72
     5
 73
     3
  0
VERTEX
  5
9AC
  8
0
 62
     9
 10
0.0
 20
0.0
 30
0.0
 70
   128
 71
     1
 72
     6
 73
     5
  0
SEQEND
  5
9AD
  8
0
 62
     9
  0
ENDBLK
  5
9B0
  8
0
  0
BLOCK
  8
0
  2
E3_NODE_23_
 70
     0
 10
0.0
 20
0.0
 30
0.0
  3
E3_NODE_23_
  1

  0
POLYLINE
  5
9B2
  8
0
 62
     9
 66
     1
 10
0.0
 20
0.0
 30
0.0
 70
    64
 71
     4
 72
     2
  0
VERTEX
  5
9B3
  8
0
 10
4.820000171661377
 20
-27.29999923706055
 30
20.60000038146973
 70
   192
  0
VERTEX
  5
9B4
  8
0
 10
11.57400035858154
 20
-27.29999923706055
 30
20.60000038146973
 70
   192
  0
VERTEX
  5
9B5
  8
0
 10
11.55200004577637
 20
-27.29999923706055
 30
25.5
 70
   192
  0
VERTEX
  5
9B6
  8
0
 10
4.820000171661377
 20
-27.29999923706055
 30
25.5
 70
   192
  0
VERTEX
  5
9B7
  8
0
 62
     9
 10
0.0
 20
0.0
 30
0.0
 70
   128
 71
     3
 72
     2
 73
     1
  0
VERTEX
  5
9B8
  8
0
 62
     9
 10
0.0
 20
0.0
 30
0.0
 70
   128
 71
     1
 72
     4
 73
     3
  0
SEQEND
  5
9B9
  8
0
 62
     9
  0
ENDBLK
  5
9BC
  8
0
  0
BLOCK
  8
0
  2
E3_NODE_24_
 70
     0
 10
0.0
 20
0.0
 30
0.0
  3
E3_NODE_24_
  1

  0
POLYLINE
  5
9BE
  8
0
 62
     9
 66
     1
 10
0.0
 20
0.0
 30
0.0
 70
    64
 71
    67
 72
    65
  0
VERTEX
  5
9BF
  8
0
 10
11.64500045776367
 20
0.1500000059604645
 30
20.60000038146973
 70
   192
  0
VERTEX
  5
9C0
  8
0
 10
11.42199993133545
 20
5.322999954223633
 30
52.25899887084961
 70
   192
  0
VERTEX
  5
9C1
  8
0
 10
11.42099952697754
 20
4.026000022888184
 30
52.50199890136719
 70
   192
  0
VERTEX
  5
9C2
  8
0
 10
11.42000007629395
 20
2.052000045776367
 30
52.72299957275391
 70
   192
  0
VERTEX
  5
9C3
  8
0
 10
11.41899967193604
 20
0.0750000029802322
 30
52.79999923706055
 70
   192
  0
VERTEX
  5
9C4
  8
0
 10
11.42399978637695
 20
7.218999862670898
 30
51.82799911499023
 70
   192
  0
VERTEX
  5
9C5
  8
0
 10
11.42199993133545
 20
5.993000030517578
 30
52.13399887084961
 70
   192
  0
VERTEX
  5
9C6
  8
0
 10
11.42899990081787
 20
10.44200038909912
 30
50.70899963378906
 70
   192
  0
VERTEX
  5
9C7
  8
0
 10
11.42700004577637
 20
9.107000350952148
 30
51.23600006103516
 70
   192
  0
VERTEX
  5
9C8
  8
0
 10
11.43900012969971
 20
14.4709997177124
 30
48.64899826049805
 70
   192
  0
VERTEX
  5
9C9
  8
0
 10
11.4350004196167
 20
12.73600006103516
 30
49.64699935913086
 70
   192
  0
VERTEX
  5
9CA
  8
0
 10
11.43000030517578
 20
10.94699954986572
 30
50.50899887084961
 70
   192
  0
VERTEX
  5
9CB
  8
0
 10
11.44200038909912
 20
15.16300010681152
 30
48.19400024414062
 70
   192
  0
VERTEX
  5
9CC
  8
0
 10
11.45800018310547
 20
19.29100036621094
 30
44.79100036621094
 70
   192
  0
VERTEX
  5
9CD
  8
0
 10
11.45499992370605
 20
18.60799980163574
 30
45.47499847412109
 70
   192
  0
VERTEX
  5
9CE
  8
0
 10
11.44900035858154
 20
17.11300086975098
 30
46.77099990844727
 70
   192
  0
VERTEX
  5
9CF
  8
0
 10
11.44299983978271
 20
15.52700042724609
 30
47.95500183105469
 70
   192
  0
VERTEX
  5
9D0
  8
0
 10
11.4689998626709
 20
21.31800079345703
 30
42.55400085449219
 70
   192
  0
VERTEX
  5
9D1
  8
0
 10
11.46199989318848
 20
20.01099967956543
 30
44.06999969482422
 70
   192
  0
VERTEX
  5
9D2
  8
0
 10
11.47399997711182
 20
22.08399963378906
 30
41.54899978637695
 70
   192
  0
VERTEX
  5
9D3
  8
0
 10
11.47799968719482
 20
22.68400001525879
 30
40.65700149536133
 70
   192
  0
VERTEX
  5
9D4
  8
0
 10
11.50100040435791
 20
25.20899963378906
 30
35.94200134277344
 70
   192
  0
VERTEX
  5
9D5
  8
0
 10
11.49899959564209
 20
25.03000068664551
 30
36.39899826049805
 70
   192
  0
VERTEX
  5
9D6
  8
0
 10
11.48999977111816
 20
24.17099952697754
 30
38.18999862670898
 70
   192
  0
VERTEX
  5
9D7
  8
0
 10
11.48200035095215
 20
23.18899917602539
 30
39.90700149536133
 70
   192
  0
VERTEX
  5
9D8
  8
0
 10
11.51399993896484
 20
26.15200042724609
 30
33.33399963378906
 70
   192
  0
VERTEX
  5
9D9
  8
0
 10
11.50800037384033
 20
25.76099967956543
 30
34.5369987487793
 70
   192
  0
VERTEX
  5
9DA
  8
0
 10
11.52600002288818
 20
26.76000022888184
 30
30.82299995422363
 70
   192
  0
VERTEX
  5
9DB
  8
0
 10
11.52299976348877
 20
26.65099906921387
 30
31.41900062561035
 70
   192
  0
VERTEX
  5
9DC
  8
0
 10
11.55200004577637
 20
27.29999923706055
 30
25.5
 70
   192
  0
VERTEX
  5
9DD
  8
0
 10
11.54300022125244
 20
27.22699928283691
 30
27.5
 70
   192
  0
VERTEX
  5
9DE
  8
0
 10
11.53299999237061
 20
27.00900077819824
 30
29.47400093078613
 70
   192
  0
VERTEX
  5
9DF
  8
0
 10
11.57400035858154
 20
27.29999923706055
 30
20.60000038146973
 70
   192
  0
VERTEX
  5
9E0
  8
0
 10
11.41899967193604
 20
0.0
 30
52.79700088500977
 70
   192
  0
VERTEX
  5
9E1
  8
0
 10
11.64500045776367
 20
0.0
 30
20.60000038146973
 70
   192
  0
VERTEX
  5
9E2
  8
0
 10
11.5319995880127
 20
-26.98699951171875
 30
29.62199974060059
 70
   192
  0
VERTEX
  5
9E3
  8
0
 10
11.53800010681152
 20
-27.14900016784668
 30
28.36899948120117
 70
   192
  0
VERTEX
  5
9E4
  8
0
 10
11.52600002288818
 20
-26.75900077819824
 30
30.82299995422363
 70
   192
  0
VERTEX
  5
9E5
  8
0
 10
11.54800033569336
 20
-27.2859992980957
 30
26.38899993896484
 70
   192
  0
VERTEX
  5
9E6
  8
0
 10
11.55200004577637
 20
-27.29999923706055
 30
25.5
 70
   192
  0
VERTEX
  5
9E7
  8
0
 10
11.50100040435791
 20
-25.20700073242188
 30
35.94100189208984
 70
   192
  0
VERTEX
  5
9E8
  8
0
 10
11.50399971008301
 20
-25.45899963378906
 30
35.35499954223633
 70
   192
  0
VERTEX
  5
9E9
  8
0
 10
11.51299953460693
 20
-26.10799980163574
 30
33.47800064086914
 70
   192
  0
VERTEX
  5
9EA
  8
0
 10
11.52299976348877
 20
-26.61700057983398
 30
31.56599998474121
 70
   192
  0
VERTEX
  5
9EB
  8
0
 10
11.48999977111816
 20
-24.10099983215332
 30
38.32300186157227
 70
   192
  0
VERTEX
  5
9EC
  8
0
 10
11.49499988555908
 20
-24.66900062561035
 30
37.19300079345703
 70
   192
  0
VERTEX
  5
9ED
  8
0
 10
11.47799968719482
 20
-22.68499946594238
 30
40.65800094604492
 70
   192
  0
VERTEX
  5
9EE
  8
0
 10
11.48099994659424
 20
-23.10899925231934
 30
40.03499984741211
 70
   192
  0
VERTEX
  5
9EF
  8
0
 10
11.45899963378906
 20
-19.40800094604492
 30
44.70000076293945
 70
   192
  0
VERTEX
  5
9F0
  8
0
 10
11.46599960327148
 20
-20.76199913024902
 30
43.22700119018555
 70
   192
  0
VERTEX
  5
9F1
  8
0
 10
11.47299957275391
 20
-21.99600028991699
 30
41.66999816894531
 70
   192
  0
VERTEX
  5
9F2
  8
0
 10
11.45800018310547
 20
-19.30200004577637
 30
44.80199813842773
 70
   192
  0
VERTEX
  5
9F3
  8
0
 10
11.44200038909912
 20
-15.16199970245361
 30
48.19200134277344
 70
   192
  0
VERTEX
  5
9F4
  8
0
 10
11.44200038909912
 20
-15.40299987792969
 30
48.03900146484375
 70
   192
  0
VERTEX
  5
9F5
  8
0
 10
11.44799995422363
 20
-16.9950008392334
 30
46.8650016784668
 70
   192
  0
VERTEX
  5
9F6
  8
0
 10
11.45400047302246
 20
-18.49799919128418
 30
45.57699966430664
 70
   192
  0
VERTEX
  5
9F7
  8
0
 10
11.43299961090088
 20
-11.95899963378906
 30
50.04100036621094
 70
   192
  0
VERTEX
  5
9F8
  8
0
 10
11.4370002746582
 20
-13.72399997711182
 30
49.09999847412109
 70
   192
  0
VERTEX
  5
9F9
  8
0
 10
11.43000030517578
 20
-10.8100004196167
 30
50.56900024414062
 70
   192
  0
VERTEX
  5
9FA
  8
0
 10
11.42899990081787
 20
-10.44299983978271
 30
50.71099853515625
 70
   192
  0
VERTEX
  5
9FB
  8
0
 10
11.42199993133545
 20
-5.324999809265137
 30
52.26900100708008
 70
   192
  0
VERTEX
  5
9FC
  8
0
 10
11.42399978637695
 20
-7.073999881744385
 30
51.86700057983398
 70
   192
  0
VERTEX
  5
9FD
  8
0
 10
11.42700004577637
 20
-8.96500015258789
 30
51.2859992980957
 70
   192
  0
VERTEX
  5
9FE
  8
0
 10
11.42000007629395
 20
-3.16100001335144
 30
52.61600112915039
 70
   192
  0
VERTEX
  5
9FF
  8
0
 10
11.42199993133545
 20
-5.138999938964844
 30
52.3120002746582
 70
   192
  0
VERTEX
  5
A00
  8
0
 10
11.41899967193604
 20
-1.902999997138977
 30
52.73400115966797
 70
   192
  0
VERTEX
  5
A01
  8
0
 10
11.57400035858154
 20
-27.29999923706055
 30
20.60000038146973
 70
   192
  0
VERTEX
  5
A02
  8
0
 62
     9
 10
0.0
 20
0.0
 30
0.0
 70
   128
 71
     3
 72
     2
 73
     1
  0
VERTEX
  5
A03
  8
0
 62
     9
 10
0.0
 20
0.0
 30
0.0
 70
   128
 71
     1
 72
     4
 73
     3
  0
VERTEX
  5
A04
  8
0
 62
     9
 10
0.0
 20
0.0
 30
0.0
 70
   128
 71
     1
 72
     5
 73
     4
  0
VERTEX
  5
A05
  8
0
 62
     9
 10
0.0
 20
0.0
 30
0.0
 70
   128
 71
     7
 72
     6
 73
     1
  0
VERTEX
  5
A06
  8
0
 62
     9
 10
0.0
 20
0.0
 30
0.0
 70
   128
 71
     9
 72
     8
 73
     1
  0
VERTEX
  5
A07
  8
0
 62
     9
 10
0.0
 20
0.0
 30
0.0
 70
   128
 71
     1
 72
     6
 73
     9
  0
VERTEX
  5
A08
  8
0
 62
     9
 10
0.0
 20
0.0
 30
0.0
 70
   128
 71
     1
 72
     2
 73
     7
  0
VERTEX
  5
A09
  8
0
 62
     9
 10
0.0
 20
0.0
 30
0.0
 70
   128
 71
    11
 72
    10
 73
     1
  0
VERTEX
  5
A0A
  8
0
 62
     9
 10
0.0
 20
0.0
 30
0.0
 70
   128
 71
     1
 72
    12
 73
    11
  0
VERTEX
  5
A0B
  8
0
 62
     9
 10
0.0
 20
0.0
 30
0.0
 70
   128
 71
    10
 72
    13
 73
     1
  0
VERTEX
  5
A0C
  8
0
 62
     9
 10
0.0
 20
0.0
 30
0.0
 70
   128
 71
     1
 72
     8
 73
    12
  0
VERTEX
  5
A0D
  8
0
 62
     9
 10
0.0
 20
0.0
 30
0.0
 70
   128
 71
    15
 72
    14
 73
     1
  0
VERTEX
  5
A0E
  8
0
 62
     9
 10
0.0
 20
0.0
 30
0.0
 70
   128
 71
     1
 72
    16
 73
    15
  0
VERTEX
  5
A0F
  8
0
 62
     9
 10
0.0
 20
0.0
 30
0.0
 70
   128
 71
     1
 72
    17
 73
    16
  0
VERTEX
  5
A10
  8
0
 62
     9
 10
0.0
 20
0.0
 30
0.0
 70
   128
 71
    19
 72
    18
 73
     1
  0
VERTEX
  5
A11
  8
0
 62
     9
 10
0.0
 20
0.0
 30
0.0
 70
   128
 71
    18
 72
    20
 73
     1
  0
VERTEX
  5
A12
  8
0
 62
     9
 10
0.0
 20
0.0
 30
0.0
 70
   128
 71
    20
 72
    21
 73
     1
  0
VERTEX
  5
A13
  8
0
 62
     9
 10
0.0
 20
0.0
 30
0.0
 70
   128
 71
    23
 72
    22
 73
     1
  0
VERTEX
  5
A14
  8
0
 62
     9
 10
0.0
 20
0.0
 30
0.0
 70
   128
 71
     1
 72
    24
 73
    23
  0
VERTEX
  5
A15
  8
0
 62
     9
 10
0.0
 20
0.0
 30
0.0
 70
   128
 71
     1
 72
    25
 73
    24
  0
VERTEX
  5
A16
  8
0
 62
     9
 10
0.0
 20
0.0
 30
0.0
 70
   128
 71
     1
 72
    21
 73
    25
  0
VERTEX
  5
A17
  8
0
 62
     9
 10
0.0
 20
0.0
 30
0.0
 70
   128
 71
     1
 72
    14
 73
    19
  0
VERTEX
  5
A18
  8
0
 62
     9
 10
0.0
 20
0.0
 30
0.0
 70
   128
 71
    27
 72
    26
 73
     1
  0
VERTEX
  5
A19
  8
0
 62
     9
 10
0.0
 20
0.0
 30
0.0
 70
   128
 71
    29
 72
    28
 73
     1
  0
VERTEX
  5
A1A
  8
0
 62
     9
 10
0.0
 20
0.0
 30
0.0
 70
   128
 71
     1
 72
    26
 73
    29
  0
VERTEX
  5
A1B
  8
0
 62
     9
 10
0.0
 20
0.0
 30
0.0
 70
   128
 71
    31
 72
    30
 73
     1
  0
VERTEX
  5
A1C
  8
0
 62
     9
 10
0.0
 20
0.0
 30
0.0
 70
   128
 71
     1
 72
    32
 73
    31
  0
VERTEX
  5
A1D
  8
0
 62
     9
 10
0.0
 20
0.0
 30
0.0
 70
   128
 71
    30
 72
    33
 73
     1
  0
VERTEX
  5
A1E
  8
0
 62
     9
 10
0.0
 20
0.0
 30
0.0
 70
   128
 71
     1
 72
    28
 73
    32
  0
VERTEX
  5
A1F
  8
0
 62
     9
 10
0.0
 20
0.0
 30
0.0
 70
   128
 71
     1
 72
    22
 73
    27
  0
VERTEX
  5
A20
  8
0
 62
     9
 10
0.0
 20
0.0
 30
0.0
 70
   128
 71
     1
 72
    13
 73
    17
  0
VERTEX
  5
A21
  8
0
 62
     9
 10
0.0
 20
0.0
 30
0.0
 70
   128
 71
     1
 72
    34
 73
     5
  0
VERTEX
  5
A22
  8
0
 62
     9
 10
0.0
 20
0.0
 30
0.0
 70
   128
 71
    37
 72
    36
 73
    35
  0
VERTEX
  5
A23
  8
0
 62
     9
 10
0.0
 20
0.0
 30
0.0
 70
   128
 71
    36
 72
    38
 73
    35
  0
VERTEX
  5
A24
  8
0
 62
     9
 10
0.0
 20
0.0
 30
0.0
 70
   128
 71
    35
 72
    39
 73
    37
  0
VERTEX
  5
A25
  8
0
 62
     9
 10
0.0
 20
0.0
 30
0.0
 70
   128
 71
    35
 72
    40
 73
    39
  0
VERTEX
  5
A26
  8
0
 62
     9
 10
0.0
 20
0.0
 30
0.0
 70
   128
 71
    42
 72
    41
 73
    35
  0
VERTEX
  5
A27
  8
0
 62
     9
 10
0.0
 20
0.0
 30
0.0
 70
   128
 71
    35
 72
    43
 73
    42
  0
VERTEX
  5
A28
  8
0
 62
     9
 10
0.0
 20
0.0
 30
0.0
 70
   128
 71
    35
 72
    44
 73
    43
  0
VERTEX
  5
A29
  8
0
 62
     9
 10
0.0
 20
0.0
 30
0.0
 70
   128
 71
    35
 72
    38
 73
    44
  0
VERTEX
  5
A2A
  8
0
 62
     9
 10
0.0
 20
0.0
 30
0.0
 70
   128
 71
    46
 72
    45
 73
    35
  0
VERTEX
  5
A2B
  8
0
 62
     9
 10
0.0
 20
0.0
 30
0.0
 70
   128
 71
    48
 72
    47
 73
    35
  0
VERTEX
  5
A2C
  8
0
 62
     9
 10
0.0
 20
0.0
 30
0.0
 70
   128
 71
    35
 72
    45
 73
    48
  0
VERTEX
  5
A2D
  8
0
 62
     9
 10
0.0
 20
0.0
 30
0.0
 70
   128
 71
    35
 72
    41
 73
    46
  0
VERTEX
  5
A2E
  8
0
 62
     9
 10
0.0
 20
0.0
 30
0.0
 70
   128
 71
    50
 72
    49
 73
    35
  0
VERTEX
  5
A2F
  8
0
 62
     9
 10
0.0
 20
0.0
 30
0.0
 70
   128
 71
    35
 72
    51
 73
    50
  0
VERTEX
  5
A30
  8
0
 62
     9
 10
0.0
 20
0.0
 30
0.0
 70
   128
 71
    49
 72
    52
 73
    35
  0
VERTEX
  5
A31
  8
0
 62
     9
 10
0.0
 20
0.0
 30
0.0
 70
   128
 71
    54
 72
    53
 73
    35
  0
VERTEX
  5
A32
  8
0
 62
     9
 10
0.0
 20
0.0
 30
0.0
 70
   128
 71
    35
 72
    55
 73
    54
  0
VERTEX
  5
A33
  8
0
 62
     9
 10
0.0
 20
0.0
 30
0.0
 70
   128
 71
    35
 72
    56
 73
    55
  0
VERTEX
  5
A34
  8
0
 62
     9
 10
0.0
 20
0.0
 30
0.0
 70
   128
 71
    35
 72
    52
 73
    56
  0
VERTEX
  5
A35
  8
0
 62
     9
 10
0.0
 20
0.0
 30
0.0
 70
   128
 71
    58
 72
    57
 73
    35
  0
VERTEX
  5
A36
  8
0
 62
     9
 10
0.0
 20
0.0
 30
0.0
 70
   128
 71
    57
 72
    59
 73
    35
  0
VERTEX
  5
A37
  8
0
 62
     9
 10
0.0
 20
0.0
 30
0.0
 70
   128
 71
    59
 72
    60
 73
    35
  0
VERTEX
  5
A38
  8
0
 62
     9
 10
0.0
 20
0.0
 30
0.0
 70
   128
 71
    62
 72
    61
 73
    35
  0
VERTEX
  5
A39
  8
0
 62
     9
 10
0.0
 20
0.0
 30
0.0
 70
   128
 71
    35
 72
    63
 73
    62
  0
VERTEX
  5
A3A
  8
0
 62
     9
 10
0.0
 20
0.0
 30
0.0
 70
   128
 71
    35
 72
    60
 73
    63
  0
VERTEX
  5
A3B
  8
0
 62
     9
 10
0.0
 20
0.0
 30
0.0
 70
   128
 71
    35
 72
    53
 73
    58
  0
VERTEX
  5
A3C
  8
0
 62
     9
 10
0.0
 20
0.0
 30
0.0
 70
   128
 71
    35
 72
    47
 73
    51
  0
VERTEX
  5
A3D
  8
0
 62
     9
 10
0.0
 20
0.0
 30
0.0
 70
   128
 71
    65
 72
    64
 73
    35
  0
VERTEX
  5
A3E
  8
0
 62
     9
 10
0.0
 20
0.0
 30
0.0
 70
   128
 71
    64
 72
    66
 73
    35
  0
VERTEX
  5
A3F
  8
0
 62
     9
 10
0.0
 20
0.0
 30
0.0
 70
   128
 71
    66
 72
    34
 73
    35
  0
VERTEX
  5
A40
  8
0
 62
     9
 10
0.0
 20
0.0
 30
0.0
 70
   128
 71
    35
 72
    61
 73
    65
  0
VERTEX
  5
A41
  8
0
 62
     9
 10
0.0
 20
0.0
 30
0.0
 70
   128
 71
    35
 72
    67
 73
    40
  0
VERTEX
  5
A42
  8
0
 62
     9
 10
0.0
 20
0.0
 30
0.0
 70
   128
 71
     1
 72
    35
 73
    34
  0
SEQEND
  5
A43
  8
0
 62
     9
  0
ENDBLK
  5
A46
  8
0
  0
BLOCK
  8
0
  2
E3_NODE_25_
 70
     0
 10
0.0
 20
0.0
 30
0.0
  3
E3_NODE_25_
  1

  0
POLYLINE
  5
A48
  8
0
 62
     9
 66
     1
 10
0.0
 20
0.0
 30
0.0
 70
    64
 71
    89
 72
    87
  0
VERTEX
  5
A49
  8
0
 10
4.820000171661377
 20
-27.29999923706055
 30
25.5
 70
   192
  0
VERTEX
  5
A4A
  8
0
 10
11.54800033569336
 20
-27.2859992980957
 30
26.38899993896484
 70
   192
  0
VERTEX
  5
A4B
  8
0
 10
11.53800010681152
 20
-27.14900016784668
 30
28.36899948120117
 70
   192
  0
VERTEX
  5
A4C
  8
0
 10
11.55200004577637
 20
-27.29999923706055
 30
25.5
 70
   192
  0
VERTEX
  5
A4D
  8
0
 10
4.820000171661377
 20
-26.77499961853027
 30
30.82600021362305
 70
   192
  0
VERTEX
  5
A4E
  8
0
 10
11.5319995880127
 20
-26.98699951171875
 30
29.62199974060059
 70
   192
  0
VERTEX
  5
A4F
  8
0
 10
11.52299976348877
 20
-26.61700057983398
 30
31.56599998474121
 70
   192
  0
VERTEX
  5
A50
  8
0
 10
11.51299953460693
 20
-26.10799980163574
 30
33.47800064086914
 70
   192
  0
VERTEX
  5
A51
  8
0
 10
4.820000171661377
 20
-25.22200012207031
 30
35.94699859619141
 70
   192
  0
VERTEX
  5
A52
  8
0
 10
11.52600002288818
 20
-26.75900077819824
 30
30.82299995422363
 70
   192
  0
VERTEX
  5
A53
  8
0
 10
11.50399971008301
 20
-25.45899963378906
 30
35.35499954223633
 70
   192
  0
VERTEX
  5
A54
  8
0
 10
4.820000171661377
 20
-22.69899940490723
 30
40.66699981689453
 70
   192
  0
VERTEX
  5
A55
  8
0
 10
11.48999977111816
 20
-24.10099983215332
 30
38.32300186157227
 70
   192
  0
VERTEX
  5
A56
  8
0
 10
11.49499988555908
 20
-24.66900062561035
 30
37.19300079345703
 70
   192
  0
VERTEX
  5
A57
  8
0
 10
11.50100040435791
 20
-25.20700073242188
 30
35.94100189208984
 70
   192
  0
VERTEX
  5
A58
  8
0
 10
11.48099994659424
 20
-23.10899925231934
 30
40.03499984741211
 70
   192
  0
VERTEX
  5
A59
  8
0
 10
4.820000171661377
 20
-19.30400085449219
 30
44.80400085449219
 70
   192
  0
VERTEX
  5
A5A
  8
0
 10
11.46599960327148
 20
-20.76199913024902
 30
43.22700119018555
 70
   192
  0
VERTEX
  5
A5B
  8
0
 10
11.45899963378906
 20
-19.40800094604492
 30
44.70000076293945
 70
   192
  0
VERTEX
  5
A5C
  8
0
 10
11.47299957275391
 20
-21.99600028991699
 30
41.66999816894531
 70
   192
  0
VERTEX
  5
A5D
  8
0
 10
11.47799968719482
 20
-22.68499946594238
 30
40.65800094604492
 70
   192
  0
VERTEX
  5
A5E
  8
0
 10
11.45400047302246
 20
-18.49799919128418
 30
45.57699966430664
 70
   192
  0
VERTEX
  5
A5F
  8
0
 10
11.44799995422363
 20
-16.9950008392334
 30
46.8650016784668
 70
   192
  0
VERTEX
  5
A60
  8
0
 10
11.45800018310547
 20
-19.30200004577637
 30
44.80199813842773
 70
   192
  0
VERTEX
  5
A61
  8
0
 10
4.820000171661377
 20
-15.16699981689453
 30
48.19900131225586
 70
   192
  0
VERTEX
  5
A62
  8
0
 10
11.44200038909912
 20
-15.40299987792969
 30
48.03900146484375
 70
   192
  0
VERTEX
  5
A63
  8
0
 10
4.820000171661377
 20
-10.44699954986572
 30
50.72200012207031
 70
   192
  0
VERTEX
  5
A64
  8
0
 10
11.43299961090088
 20
-11.95899963378906
 30
50.04100036621094
 70
   192
  0
VERTEX
  5
A65
  8
0
 10
11.43000030517578
 20
-10.8100004196167
 30
50.56900024414062
 70
   192
  0
VERTEX
  5
A66
  8
0
 10
11.4370002746582
 20
-13.72399997711182
 30
49.09999847412109
 70
   192
  0
VERTEX
  5
A67
  8
0
 10
11.44200038909912
 20
-15.16199970245361
 30
48.19200134277344
 70
   192
  0
VERTEX
  5
A68
  8
0
 10
11.42700004577637
 20
-8.96500015258789
 30
51.2859992980957
 70
   192
  0
VERTEX
  5
A69
  8
0
 10
11.42399978637695
 20
-7.073999881744385
 30
51.86700057983398
 70
   192
  0
VERTEX
  5
A6A
  8
0
 10
11.42899990081787
 20
-10.44299983978271
 30
50.71099853515625
 70
   192
  0
VERTEX
  5
A6B
  8
0
 10
4.820000171661377
 20
-5.326000213623047
 30
52.27500152587891
 70
   192
  0
VERTEX
  5
A6C
  8
0
 10
4.820000171661377
 20
-1.805999994277954
 30
52.7400016784668
 70
   192
  0
VERTEX
  5
A6D
  8
0
 10
11.41899967193604
 20
-1.902999997138977
 30
52.73400115966797
 70
   192
  0
VERTEX
  5
A6E
  8
0
 10
11.41899967193604
 20
0.0
 30
52.79700088500977
 70
   192
  0
VERTEX
  5
A6F
  8
0
 10
11.42000007629395
 20
-3.16100001335144
 30
52.61600112915039
 70
   192
  0
VERTEX
  5
A70
  8
0
 10
11.42199993133545
 20
-5.138999938964844
 30
52.3120002746582
 70
   192
  0
VERTEX
  5
A71
  8
0
 10
11.42199993133545
 20
-5.324999809265137
 30
52.26900100708008
 70
   192
  0
VERTEX
  5
A72
  8
0
 10
1.320000052452087
 20
0.0
 30
52.79999923706055
 70
   192
  0
VERTEX
  5
A73
  8
0
 10
1.776000022888184
 20
-1.539999961853027
 30
52.75699996948242
 70
   192
  0
VERTEX
  5
A74
  8
0
 10
1.320000052452087
 20
-1.04200005531311
 30
52.77999877929688
 70
   192
  0
VERTEX
  5
A75
  8
0
 10
1.554999947547913
 20
-1.465999960899353
 30
52.76100158691406
 70
   192
  0
VERTEX
  5
A76
  8
0
 10
4.820000171661377
 20
26.77499961853027
 30
30.82600021362305
 70
   192
  0
VERTEX
  5
A77
  8
0
 10
11.53299999237061
 20
27.00900077819824
 30
29.47400093078613
 70
   192
  0
VERTEX
  5
A78
  8
0
 10
11.54300022125244
 20
27.22699928283691
 30
27.5
 70
   192
  0
VERTEX
  5
A79
  8
0
 10
11.52600002288818
 20
26.76000022888184
 30
30.82299995422363
 70
   192
  0
VERTEX
  5
A7A
  8
0
 10
4.820000171661377
 20
27.29999923706055
 30
25.5
 70
   192
  0
VERTEX
  5
A7B
  8
0
 10
4.820000171661377
 20
25.22200012207031
 30
35.94699859619141
 70
   192
  0
VERTEX
  5
A7C
  8
0
 10
11.50800037384033
 20
25.76099967956543
 30
34.5369987487793
 70
   192
  0
VERTEX
  5
A7D
  8
0
 10
11.51399993896484
 20
26.15200042724609
 30
33.33399963378906
 70
   192
  0
VERTEX
  5
A7E
  8
0
 10
11.50100040435791
 20
25.20899963378906
 30
35.94200134277344
 70
   192
  0
VERTEX
  5
A7F
  8
0
 10
11.52299976348877
 20
26.65099906921387
 30
31.41900062561035
 70
   192
  0
VERTEX
  5
A80
  8
0
 10
4.820000171661377
 20
22.69899940490723
 30
40.66699981689453
 70
   192
  0
VERTEX
  5
A81
  8
0
 10
11.48200035095215
 20
23.18899917602539
 30
39.90700149536133
 70
   192
  0
VERTEX
  5
A82
  8
0
 10
11.48999977111816
 20
24.17099952697754
 30
38.18999862670898
 70
   192
  0
VERTEX
  5
A83
  8
0
 10
11.47799968719482
 20
22.68400001525879
 30
40.65700149536133
 70
   192
  0
VERTEX
  5
A84
  8
0
 10
11.49899959564209
 20
25.03000068664551
 30
36.39899826049805
 70
   192
  0
VERTEX
  5
A85
  8
0
 10
11.4689998626709
 20
21.31800079345703
 30
42.55400085449219
 70
   192
  0
VERTEX
  5
A86
  8
0
 10
11.47399997711182
 20
22.08399963378906
 30
41.54899978637695
 70
   192
  0
VERTEX
  5
A87
  8
0
 10
4.820000171661377
 20
19.30400085449219
 30
44.80400085449219
 70
   192
  0
VERTEX
  5
A88
  8
0
 10
11.46199989318848
 20
20.01099967956543
 30
44.06999969482422
 70
   192
  0
VERTEX
  5
A89
  8
0
 10
11.45800018310547
 20
19.29100036621094
 30
44.79100036621094
 70
   192
  0
VERTEX
  5
A8A
  8
0
 10
4.820000171661377
 20
15.16699981689453
 30
48.19900131225586
 70
   192
  0
VERTEX
  5
A8B
  8
0
 10
11.44900035858154
 20
17.11300086975098
 30
46.77099990844727
 70
   192
  0
VERTEX
  5
A8C
  8
0
 10
11.44200038909912
 20
15.16300010681152
 30
48.19400024414062
 70
   192
  0
VERTEX
  5
A8D
  8
0
 10
11.44299983978271
 20
15.52700042724609
 30
47.95500183105469
 70
   192
  0
VERTEX
  5
A8E
  8
0
 10
11.45499992370605
 20
18.60799980163574
 30
45.47499847412109
 70
   192
  0
VERTEX
  5
A8F
  8
0
 10
4.820000171661377
 20
10.44699954986572
 30
50.72200012207031
 70
   192
  0
VERTEX
  5
A90
  8
0
 10
11.4350004196167
 20
12.73600006103516
 30
49.64699935913086
 70
   192
  0
VERTEX
  5
A91
  8
0
 10
11.43900012969971
 20
14.4709997177124
 30
48.64899826049805
 70
   192
  0
VERTEX
  5
A92
  8
0
 10
11.43000030517578
 20
10.94699954986572
 30
50.50899887084961
 70
   192
  0
VERTEX
  5
A93
  8
0
 10
11.42899990081787
 20
10.44200038909912
 30
50.70899963378906
 70
   192
  0
VERTEX
  5
A94
  8
0
 10
4.820000171661377
 20
5.326000213623047
 30
52.27500152587891
 70
   192
  0
VERTEX
  5
A95
  8
0
 10
11.42399978637695
 20
7.218999862670898
 30
51.82799911499023
 70
   192
  0
VERTEX
  5
A96
  8
0
 10
11.42199993133545
 20
5.993000030517578
 30
52.13399887084961
 70
   192
  0
VERTEX
  5
A97
  8
0
 10
11.42199993133545
 20
5.322999954223633
 30
52.25899887084961
 70
   192
  0
VERTEX
  5
A98
  8
0
 10
11.42700004577637
 20
9.107000350952148
 30
51.23600006103516
 70
   192
  0
VERTEX
  5
A99
  8
0
 10
1.325000047683716
 20
1.108999967575073
 30
52.77700042724609
 70
   192
  0
VERTEX
  5
A9A
  8
0
 10
4.820000171661377
 20
1.805999994277954
 30
52.7400016784668
 70
   192
  0
VERTEX
  5
A9B
  8
0
 10
1.776000022888184
 20
1.539999961853027
 30
52.75699996948242
 70
   192
  0
VERTEX
  5
A9C
  8
0
 10
1.375
 20
1.269000053405762
 30
52.77000045776367
 70
   192
  0
VERTEX
  5
A9D
  8
0
 10
1.320000052452087
 20
1.04200005531311
 30
52.77999877929688
 70
   192
  0
VERTEX
  5
A9E
  8
0
 10
11.42000007629395
 20
2.052000045776367
 30
52.72299957275391
 70
   192
  0
VERTEX
  5
A9F
  8
0
 10
11.42099952697754
 20
4.026000022888184
 30
52.50199890136719
 70
   192
  0
VERTEX
  5
AA0
  8
0
 10
11.41899967193604
 20
0.0750000029802322
 30
52.79999923706055
 70
   192
  0
VERTEX
  5
AA1
  8
0
 10
11.55200004577637
 20
27.29999923706055
 30
25.5
 70
   192
  0
VERTEX
  5
AA2
  8
0
 62
     9
 10
0.0
 20
0.0
 30
0.0
 70
   128
 71
     3
 72
     2
 73
     1
  0
VERTEX
  5
AA3
  8
0
 62
     9
 10
0.0
 20
0.0
 30
0.0
 70
   128
 71
     2
 72
     4
 73
     1
  0
VERTEX
  5
AA4
  8
0
 62
     9
 10
0.0
 20
0.0
 30
0.0
 70
   128
 71
     1
 72
     5
 73
     3
  0
VERTEX
  5
AA5
  8
0
 62
     9
 10
0.0
 20
0.0
 30
0.0
 70
   128
 71
     5
 72
     6
 73
     3
  0
VERTEX
  5
AA6
  8
0
 62
     9
 10
0.0
 20
0.0
 30
0.0
 70
   128
 71
     8
 72
     7
 73
     5
  0
VERTEX
  5
AA7
  8
0
 62
     9
 10
0.0
 20
0.0
 30
0.0
 70
   128
 71
     5
 72
     9
 73
     8
  0
VERTEX
  5
AA8
  8
0
 62
     9
 10
0.0
 20
0.0
 30
0.0
 70
   128
 71
     7
 72
    10
 73
     5
  0
VERTEX
  5
AA9
  8
0
 62
     9
 10
0.0
 20
0.0
 30
0.0
 70
   128
 71
     9
 72
    11
 73
     8
  0
VERTEX
  5
AAA
  8
0
 62
     9
 10
0.0
 20
0.0
 30
0.0
 70
   128
 71
    13
 72
     9
 73
    12
  0
VERTEX
  5
AAB
  8
0
 62
     9
 10
0.0
 20
0.0
 30
0.0
 70
   128
 71
    13
 72
    14
 73
     9
  0
VERTEX
  5
AAC
  8
0
 62
     9
 10
0.0
 20
0.0
 30
0.0
 70
   128
 71
    14
 72
    15
 73
     9
  0
VERTEX
  5
AAD
  8
0
 62
     9
 10
0.0
 20
0.0
 30
0.0
 70
   128
 71
    12
 72
    16
 73
    13
  0
VERTEX
  5
AAE
  8
0
 62
     9
 10
0.0
 20
0.0
 30
0.0
 70
   128
 71
    19
 72
    18
 73
    17
  0
VERTEX
  5
AAF
  8
0
 62
     9
 10
0.0
 20
0.0
 30
0.0
 70
   128
 71
    18
 72
    20
 73
    12
  0
VERTEX
  5
AB0
  8
0
 62
     9
 10
0.0
 20
0.0
 30
0.0
 70
   128
 71
    20
 72
    21
 73
    12
  0
VERTEX
  5
AB1
  8
0
 62
     9
 10
0.0
 20
0.0
 30
0.0
 70
   128
 71
    12
 72
    17
 73
    18
  0
VERTEX
  5
AB2
  8
0
 62
     9
 10
0.0
 20
0.0
 30
0.0
 70
   128
 71
    23
 72
    22
 73
    17
  0
VERTEX
  5
AB3
  8
0
 62
     9
 10
0.0
 20
0.0
 30
0.0
 70
   128
 71
    22
 72
    24
 73
    17
  0
VERTEX
  5
AB4
  8
0
 62
     9
 10
0.0
 20
0.0
 30
0.0
 70
   128
 71
    17
 72
    25
 73
    23
  0
VERTEX
  5
AB5
  8
0
 62
     9
 10
0.0
 20
0.0
 30
0.0
 70
   128
 71
    25
 72
    26
 73
    23
  0
VERTEX
  5
AB6
  8
0
 62
     9
 10
0.0
 20
0.0
 30
0.0
 70
   128
 71
    29
 72
    28
 73
    27
  0
VERTEX
  5
AB7
  8
0
 62
     9
 10
0.0
 20
0.0
 30
0.0
 70
   128
 71
    30
 72
    25
 73
    27
  0
VERTEX
  5
AB8
  8
0
 62
     9
 10
0.0
 20
0.0
 30
0.0
 70
   128
 71
    27
 72
    28
 73
    30
  0
VERTEX
  5
AB9
  8
0
 62
     9
 10
0.0
 20
0.0
 30
0.0
 70
   128
 71
    30
 72
    31
 73
    25
  0
VERTEX
  5
ABA
  8
0
 62
     9
 10
0.0
 20
0.0
 30
0.0
 70
   128
 71
    33
 72
    32
 73
    27
  0
VERTEX
  5
ABB
  8
0
 62
     9
 10
0.0
 20
0.0
 30
0.0
 70
   128
 71
    32
 72
    34
 73
    27
  0
VERTEX
  5
ABC
  8
0
 62
     9
 10
0.0
 20
0.0
 30
0.0
 70
   128
 71
    27
 72
    35
 73
    33
  0
VERTEX
  5
ABD
  8
0
 62
     9
 10
0.0
 20
0.0
 30
0.0
 70
   128
 71
    38
 72
    37
 73
    36
  0
VERTEX
  5
ABE
  8
0
 62
     9
 10
0.0
 20
0.0
 30
0.0
 70
   128
 71
    37
 72
    39
 73
    36
  0
VERTEX
  5
ABF
  8
0
 62
     9
 10
0.0
 20
0.0
 30
0.0
 70
   128
 71
    39
 72
    40
 73
    35
  0
VERTEX
  5
AC0
  8
0
 62
     9
 10
0.0
 20
0.0
 30
0.0
 70
   128
 71
    35
 72
    36
 73
    39
  0
VERTEX
  5
AC1
  8
0
 62
     9
 10
0.0
 20
0.0
 30
0.0
 70
   128
 71
    40
 72
    41
 73
    35
  0
VERTEX
  5
AC2
  8
0
 62
     9
 10
0.0
 20
0.0
 30
0.0
 70
   128
 71
    36
 72
    43
 73
    42
  0
VERTEX
  5
AC3
  8
0
 62
     9
 10
0.0
 20
0.0
 30
0.0
 70
   128
 71
    44
 72
    42
 73
    43
  0
VERTEX
  5
AC4
  8
0
 62
     9
 10
0.0
 20
0.0
 30
0.0
 70
   128
 71
    43
 72
    45
 73
    44
  0
VERTEX
  5
AC5
  8
0
 62
     9
 10
0.0
 20
0.0
 30
0.0
 70
   128
 71
    42
 72
    38
 73
    36
  0
VERTEX
  5
AC6
  8
0
 62
     9
 10
0.0
 20
0.0
 30
0.0
 70
   128
 71
    48
 72
    47
 73
    46
  0
VERTEX
  5
AC7
  8
0
 62
     9
 10
0.0
 20
0.0
 30
0.0
 70
   128
 71
    47
 72
    49
 73
    46
  0
VERTEX
  5
AC8
  8
0
 62
     9
 10
0.0
 20
0.0
 30
0.0
 70
   128
 71
    46
 72
    50
 73
    48
  0
VERTEX
  5
AC9
  8
0
 62
     9
 10
0.0
 20
0.0
 30
0.0
 70
   128
 71
    53
 72
    52
 73
    51
  0
VERTEX
  5
ACA
  8
0
 62
     9
 10
0.0
 20
0.0
 30
0.0
 70
   128
 71
    51
 72
    46
 73
    53
  0
VERTEX
  5
ACB
  8
0
 62
     9
 10
0.0
 20
0.0
 30
0.0
 70
   128
 71
    52
 72
    54
 73
    51
  0
VERTEX
  5
ACC
  8
0
 62
     9
 10
0.0
 20
0.0
 30
0.0
 70
   128
 71
    46
 72
    55
 73
    53
  0
VERTEX
  5
ACD
  8
0
 62
     9
 10
0.0
 20
0.0
 30
0.0
 70
   128
 71
    58
 72
    57
 73
    56
  0
VERTEX
  5
ACE
  8
0
 62
     9
 10
0.0
 20
0.0
 30
0.0
 70
   128
 71
    56
 72
    51
 73
    58
  0
VERTEX
  5
ACF
  8
0
 62
     9
 10
0.0
 20
0.0
 30
0.0
 70
   128
 71
    57
 72
    59
 73
    56
  0
VERTEX
  5
AD0
  8
0
 62
     9
 10
0.0
 20
0.0
 30
0.0
 70
   128
 71
    51
 72
    60
 73
    58
  0
VERTEX
  5
AD1
  8
0
 62
     9
 10
0.0
 20
0.0
 30
0.0
 70
   128
 71
    62
 72
    61
 73
    56
  0
VERTEX
  5
AD2
  8
0
 62
     9
 10
0.0
 20
0.0
 30
0.0
 70
   128
 71
    61
 72
    64
 73
    63
  0
VERTEX
  5
AD3
  8
0
 62
     9
 10
0.0
 20
0.0
 30
0.0
 70
   128
 71
    63
 72
    56
 73
    61
  0
VERTEX
  5
AD4
  8
0
 62
     9
 10
0.0
 20
0.0
 30
0.0
 70
   128
 71
    64
 72
    65
 73
    63
  0
VERTEX
  5
AD5
  8
0
 62
     9
 10
0.0
 20
0.0
 30
0.0
 70
   128
 71
    67
 72
    66
 73
    63
  0
VERTEX
  5
AD6
  8
0
 62
     9
 10
0.0
 20
0.0
 30
0.0
 70
   128
 71
    69
 72
    68
 73
    66
  0
VERTEX
  5
AD7
  8
0
 62
     9
 10
0.0
 20
0.0
 30
0.0
 70
   128
 71
    66
 72
    67
 73
    69
  0
VERTEX
  5
AD8
  8
0
 62
     9
 10
0.0
 20
0.0
 30
0.0
 70
   128
 71
    63
 72
    70
 73
    67
  0
VERTEX
  5
AD9
  8
0
 62
     9
 10
0.0
 20
0.0
 30
0.0
 70
   128
 71
    72
 72
    71
 73
    66
  0
VERTEX
  5
ADA
  8
0
 62
     9
 10
0.0
 20
0.0
 30
0.0
 70
   128
 71
    66
 72
    73
 73
    72
  0
VERTEX
  5
ADB
  8
0
 62
     9
 10
0.0
 20
0.0
 30
0.0
 70
   128
 71
    72
 72
    74
 73
    71
  0
VERTEX
  5
ADC
  8
0
 62
     9
 10
0.0
 20
0.0
 30
0.0
 70
   128
 71
    74
 72
    75
 73
    71
  0
VERTEX
  5
ADD
  8
0
 62
     9
 10
0.0
 20
0.0
 30
0.0
 70
   128
 71
    77
 72
    76
 73
    71
  0
VERTEX
  5
ADE
  8
0
 62
     9
 10
0.0
 20
0.0
 30
0.0
 70
   128
 71
    77
 72
    78
 73
    76
  0
VERTEX
  5
ADF
  8
0
 62
     9
 10
0.0
 20
0.0
 30
0.0
 70
   128
 71
    78
 72
    79
 73
    76
  0
VERTEX
  5
AE0
  8
0
 62
     9
 10
0.0
 20
0.0
 30
0.0
 70
   128
 71
    71
 72
    80
 73
    77
  0
VERTEX
  5
AE1
  8
0
 62
     9
 10
0.0
 20
0.0
 30
0.0
 70
   128
 71
    83
 72
    82
 73
    81
  0
VERTEX
  5
AE2
  8
0
 62
     9
 10
0.0
 20
0.0
 30
0.0
 70
   128
 71
    82
 72
    38
 73
    81
  0
VERTEX
  5
AE3
  8
0
 62
     9
 10
0.0
 20
0.0
 30
0.0
 70
   128
 71
    81
 72
    84
 73
    83
  0
VERTEX
  5
AE4
  8
0
 62
     9
 10
0.0
 20
0.0
 30
0.0
 70
   128
 71
    38
 72
    85
 73
    81
  0
VERTEX
  5
AE5
  8
0
 62
     9
 10
0.0
 20
0.0
 30
0.0
 70
   128
 71
    87
 72
    86
 73
    82
  0
VERTEX
  5
AE6
  8
0
 62
     9
 10
0.0
 20
0.0
 30
0.0
 70
   128
 71
    86
 72
    88
 73
    82
  0
VERTEX
  5
AE7
  8
0
 62
     9
 10
0.0
 20
0.0
 30
0.0
 70
   128
 71
    88
 72
    38
 73
    82
  0
VERTEX
  5
AE8
  8
0
 62
     9
 10
0.0
 20
0.0
 30
0.0
 70
   128
 71
    82
 72
    76
 73
    87
  0
VERTEX
  5
AE9
  8
0
 62
     9
 10
0.0
 20
0.0
 30
0.0
 70
   128
 71
    76
 72
    79
 73
    87
  0
VERTEX
  5
AEA
  8
0
 62
     9
 10
0.0
 20
0.0
 30
0.0
 70
   128
 71
    38
 72
    42
 73
    85
  0
VERTEX
  5
AEB
  8
0
 62
     9
 10
0.0
 20
0.0
 30
0.0
 70
   128
 71
    71
 72
    75
 73
    80
  0
VERTEX
  5
AEC
  8
0
 62
     9
 10
0.0
 20
0.0
 30
0.0
 70
   128
 71
    66
 72
    68
 73
    73
  0
VERTEX
  5
AED
  8
0
 62
     9
 10
0.0
 20
0.0
 30
0.0
 70
   128
 71
    63
 72
    65
 73
    70
  0
VERTEX
  5
AEE
  8
0
 62
     9
 10
0.0
 20
0.0
 30
0.0
 70
   128
 71
    56
 72
    59
 73
    62
  0
VERTEX
  5
AEF
  8
0
 62
     9
 10
0.0
 20
0.0
 30
0.0
 70
   128
 71
    51
 72
    54
 73
    60
  0
VERTEX
  5
AF0
  8
0
 62
     9
 10
0.0
 20
0.0
 30
0.0
 70
   128
 71
    46
 72
    49
 73
    55
  0
VERTEX
  5
AF1
  8
0
 62
     9
 10
0.0
 20
0.0
 30
0.0
 70
   128
 71
    50
 72
    89
 73
    48
  0
VERTEX
  5
AF2
  8
0
 62
     9
 10
0.0
 20
0.0
 30
0.0
 70
   128
 71
    35
 72
    41
 73
    33
  0
VERTEX
  5
AF3
  8
0
 62
     9
 10
0.0
 20
0.0
 30
0.0
 70
   128
 71
    27
 72
    34
 73
    29
  0
VERTEX
  5
AF4
  8
0
 62
     9
 10
0.0
 20
0.0
 30
0.0
 70
   128
 71
    25
 72
    31
 73
    26
  0
VERTEX
  5
AF5
  8
0
 62
     9
 10
0.0
 20
0.0
 30
0.0
 70
   128
 71
    17
 72
    24
 73
    19
  0
VERTEX
  5
AF6
  8
0
 62
     9
 10
0.0
 20
0.0
 30
0.0
 70
   128
 71
    12
 72
    21
 73
    16
  0
VERTEX
  5
AF7
  8
0
 62
     9
 10
0.0
 20
0.0
 30
0.0
 70
   128
 71
     9
 72
    15
 73
    11
  0
VERTEX
  5
AF8
  8
0
 62
     9
 10
0.0
 20
0.0
 30
0.0
 70
   128
 71
     5
 72
    10
 73
     6
  0
SEQEND
  5
AF9
  8
0
 62
     9
  0
ENDBLK
  5
AFC
  8
0
  0
BLOCK
  8
0
  2
E3_NODE_26_
 70
     0
 10
0.0
 20
0.0
 30
0.0
  3
E3_NODE_26_
  1

  0
POLYLINE
  5
AFE
  8
0
 62
     9
 66
     1
 10
0.0
 20
0.0
 30
0.0
 70
    64
 71
     4
 72
     2
  0
VERTEX
  5
AFF
  8
0
 10
4.820000171661377
 20
27.29999923706055
 30
20.60000038146973
 70
   192
  0
VERTEX
  5
B00
  8
0
 10
4.820000171661377
 20
27.29999923706055
 30
25.5
 70
   192
  0
VERTEX
  5
B01
  8
0
 10
11.55200004577637
 20
27.29999923706055
 30
25.5
 70
   192
  0
VERTEX
  5
B02
  8
0
 10
11.57400035858154
 20
27.29999923706055
 30
20.60000038146973
 70
   192
  0
VERTEX
  5
B03
  8
0
 62
     9
 10
0.0
 20
0.0
 30
0.0
 70
   128
 71
     3
 72
     2
 73
     1
  0
VERTEX
  5
B04
  8
0
 62
     9
 10
0.0
 20
0.0
 30
0.0
 70
   128
 71
     1
 72
     4
 73
     3
  0
SEQEND
  5
B05
  8
0
 62
     9
  0
ENDBLK
  5
B08
  8
0
  0
BLOCK
  8
0
  2
E3_NODE_27_
 70
     0
 10
0.0
 20
0.0
 30
0.0
  3
E3_NODE_27_
  1

  0
POLYLINE
  5
B0A
  8
0
 62
     9
 66
     1
 10
0.0
 20
0.0
 30
0.0
 70
    64
 71
     6
 72
     4
  0
VERTEX
  5
B0B
  8
0
 10
4.820000171661377
 20
-27.29999923706055
 30
20.60000038146973
 70
   192
  0
VERTEX
  5
B0C
  8
0
 10
4.820000171661377
 20
27.29999923706055
 30
20.60000038146973
 70
   192
  0
VERTEX
  5
B0D
  8
0
 10
11.64500045776367
 20
0.0
 30
20.60000038146973
 70
   192
  0
VERTEX
  5
B0E
  8
0
 10
11.57400035858154
 20
27.29999923706055
 30
20.60000038146973
 70
   192
  0
VERTEX
  5
B0F
  8
0
 10
11.64500045776367
 20
0.1500000059604645
 30
20.60000038146973
 70
   192
  0
VERTEX
  5
B10
  8
0
 10
11.57400035858154
 20
-27.29999923706055
 30
20.60000038146973
 70
   192
  0
VERTEX
  5
B11
  8
0
 62
     9
 10
0.0
 20
0.0
 30
0.0
 70
   128
 71
     3
 72
     2
 73
     1
  0
VERTEX
  5
B12
  8
0
 62
     9
 10
0.0
 20
0.0
 30
0.0
 70
   128
 71
     5
 72
     4
 73
     2
  0
VERTEX
  5
B13
  8
0
 62
     9
 10
0.0
 20
0.0
 30
0.0
 70
   128
 71
     2
 72
     3
 73
     5
  0
VERTEX
  5
B14
  8
0
 62
     9
 10
0.0
 20
0.0
 30
0.0
 70
   128
 71
     1
 72
     6
 73
     3
  0
SEQEND
  5
B15
  8
0
 62
     9
  0
ENDBLK
  5
B18
  8
0
  0
ENDSEC
  0
SECTION
  2
ENTITIES
  0
INSERT
  5
48
  8
LAYER_1
  2
E3_NODE
 10
0.0
 20
0.0
 30
0.0
  0
INSERT
  5
99
  8
LAYER_1
  2
E3_NODE_1_
 10
0.0
 20
0.0
 30
0.0
  0
INSERT
  5
16B
  8
LAYER_1
  2
E3_NODE_2_
 10
0.0
 20
0.0
 30
0.0
  0
INSERT
  5
183
  8
LAYER_1
  2
E3_NODE_3_
 10
0.0
 20
0.0
 30
0.0
  0
INSERT
  5
253
  8
LAYER_1
  2
E3_NODE_4_
 10
0.0
 20
0.0
 30
0.0
  0
INSERT
  5
3A5
  8
LAYER_1
  2
E3_NODE_5_
 10
0.0
 20
0.0
 30
0.0
  0
INSERT
  5
4F5
  8
LAYER_1
  2
E3_NODE_6_
 10
0.0
 20
0.0
 30
0.0
  0
INSERT
  5
50D
  8
LAYER_1
  2
E3_NODE_7_
 10
0.0
 20
0.0
 30
0.0
  0
INSERT
  5
713
  8
LAYER_1
  2
E3_NODE_8_
 10
0.0
 20
0.0
 30
0.0
  0
INSERT
  5
727
  8
LAYER_1
  2
E3_NODE_9_
 10
0.0
 20
0.0
 30
0.0
  0
INSERT
  5
74B
  8
LAYER_1
  2
E3_NODE_10_
 10
0.0
 20
0.0
 30
0.0
  0
INSERT
  5
769
  8
LAYER_1
  2
E3_NODE_11_
 10
0.0
 20
0.0
 30
0.0
  0
INSERT
  5
77D
  8
LAYER_1
  2
E3_NODE_12_
 10
0.0
 20
0.0
 30
0.0
  0
INSERT
  5
79B
  8
LAYER_1
  2
E3_NODE_13_
 10
0.0
 20
0.0
 30
0.0
  0
INSERT
  5
7C1
  8
LAYER_1
  2
E3_NODE_14_
 10
0.0
 20
0.0
 30
0.0
  0
INSERT
  5
7E7
  8
LAYER_1
  2
E3_NODE_15_
 10
0.0
 20
0.0
 30
0.0
  0
INSERT
  5
80D
  8
LAYER_1
  2
E3_NODE_16_
 10
0.0
 20
0.0
 30
0.0
  0
INSERT
  5
833
  8
LAYER_1
  2
E3_NODE_17_
 10
0.0
 20
0.0
 30
0.0
  0
INSERT
  5
8E9
  8
LAYER_1
  2
E3_NODE_18_
 10
0.0
 20
0.0
 30
0.0
  0
INSERT
  5
97E
  8
LAYER_1
  2
E3_NODE_19_
 10
0.0
 20
0.0
 30
0.0
  0
INSERT
  5
98E
  8
LAYER_1
  2
E3_NODE_20_
 10
0.0
 20
0.0
 30
0.0
  0
INSERT
  5
99E
  8
LAYER_1
  2
E3_NODE_21_
 10
0.0
 20
0.0
 30
0.0
  0
INSERT
  5
9AE
  8
LAYER_1
  2
E3_NODE_22_
 10
0.0
 20
0.0
 30
0.0
  0
INSERT
  5
9BA
  8
LAYER_1
  2
E3_NODE_23_
 10
0.0
 20
0.0
 30
0.0
  0
INSERT
  5
A44
  8
LAYER_1
  2
E3_NODE_24_
 10
0.0
 20
0.0
 30
0.0
  0
INSERT
  5
AFA
  8
LAYER_1
  2
E3_NODE_25_
 10
0.0
 20
0.0
 30
0.0
  0
INSERT
  5
B06
  8
LAYER_1
  2
E3_NODE_26_
 10
0.0
 20
0.0
 30
0.0
  0
INSERT
  5
B16
  8
LAYER_1
  2
E3_NODE_27_
 10
0.0
 20
0.0
 30
0.0
  0
ENDSEC
  0
EOF
