  0
SECTION
  2
HEADER
  9
$ACADVER
  1
AC1015
  9
$ACADMAINTVER
 70
     6
  9
$DWGCODEPAGE
  3
ANSI_1252
  9
$INSBASE
 10
0.0
 20
0.0
 30
0.0
  9
$EXTMIN
 10
0.0
 20
0.0
 30
0.0
  9
$EXTMAX
 10
1682.0
 20
2378.0
 30
0.0
  9
$LIMMIN
 10
0.0
 20
0.0
  9
$LIMMAX
 10
1682.0
 20
2378.0
  9
$ORTHOMODE
 70
     0
  9
$REGENMODE
 70
     1
  9
$FILLMODE
 70
     1
  9
$QTEXTMODE
 70
     0
  9
$MIRRTEXT
 70
     1
  9
$LTSCALE
 40
1.0
  9
$ATTMODE
 70
     1
  9
$TEXTSIZE
 40
2.5
  9
$TRACEWID
 40
1.0
  9
$TEXTSTYLE
  7
Standard
  9
$CLAYER
  8
0
  9
$CELTYPE
  6
ByLayer
  9
$CECOLOR
 62
   256
  9
$CELTSCALE
 40
1.0
  9
$DISPSILH
 70
     0
  9
$DIMSCALE
 40
1.0
  9
$DIMASZ
 40
2.5
  9
$DIMEXO
 40
0.625
  9
$DIMDLI
 40
3.75
  9
$DIMRND
 40
0.0
  9
$DIMDLE
 40
0.0
  9
$DIMEXE
 40
1.25
  9
$DIMTP
 40
0.0
  9
$DIMTM
 40
0.0
  9
$DIMTXT
 40
2.5
  9
$DIMCEN
 40
2.5
  9
$DIMTSZ
 40
0.0
  9
$DIMTOL
 70
     0
  9
$DIMLIM
 70
     0
  9
$DIMTIH
 70
     0
  9
$DIMTOH
 70
     0
  9
$DIMSE1
 70
     0
  9
$DIMSE2
 70
     0
  9
$DIMTAD
 70
     1
  9
$DIMZIN
 70
     8
  9
$DIMBLK
  1

  9
$DIMASO
 70
     1
  9
$DIMSHO
 70
     1
  9
$DIMPOST
  1

  9
$DIMAPOST
  1

  9
$DIMALT
 70
     0
  9
$DIMALTD
 70
     3
  9
$DIMALTF
 40
0.0393700787
  9
$DIMLFAC
 40
1.0
  9
$DIMTOFL
 70
     1
  9
$DIMTVP
 40
0.0
  9
$DIMTIX
 70
     0
  9
$DIMSOXD
 70
     0
  9
$DIMSAH
 70
     0
  9
$DIMBLK1
  1

  9
$DIMBLK2
  1

  9
$DIMSTYLE
  2
ISO-25
  9
$DIMCLRD
 70
     0
  9
$DIMCLRE
 70
     0
  9
$DIMCLRT
 70
     0
  9
$DIMTFAC
 40
1.0
  9
$DIMGAP
 40
0.625
  9
$DIMJUST
 70
     0
  9
$DIMSD1
 70
     0
  9
$DIMSD2
 70
     0
  9
$DIMTOLJ
 70
     0
  9
$DIMTZIN
 70
     8
  9
$DIMALTZ
 70
     0
  9
$DIMALTTZ
 70
     0
  9
$DIMUPT
 70
     0
  9
$DIMDEC
 70
     2
  9
$DIMTDEC
 70
     2
  9
$DIMALTU
 70
     2
  9
$DIMALTTD
 70
     3
  9
$DIMTXSTY
  7
Standard
  9
$DIMAUNIT
 70
     0
  9
$DIMADEC
 70
     0
  9
$DIMALTRND
 40
0.0
  9
$DIMAZIN
 70
     0
  9
$DIMDSEP
 70
    44
  9
$DIMATFIT
 70
     3
  9
$DIMFRAC
 70
     0
  9
$DIMLDRBLK
  1

  9
$DIMLUNIT
 70
     2
  9
$DIMLWD
 70
    -2
  9
$DIMLWE
 70
    -2
  9
$DIMTMOVE
 70
     0
  9
$LUNITS
 70
     2
  9
$LUPREC
 70
     4
  9
$SKETCHINC
 40
1.0
  9
$FILLETRAD
 40
10.0
  9
$AUNITS
 70
     0
  9
$AUPREC
 70
     0
  9
$MENU
  1
.
  9
$ELEVATION
 40
0.0
  9
$PELEVATION
 40
0.0
  9
$THICKNESS
 40
0.0
  9
$LIMCHECK
 70
     0
  9
$CHAMFERA
 40
10.0
  9
$CHAMFERB
 40
10.0
  9
$CHAMFERC
 40
20.0
  9
$CHAMFERD
 40
0.0
  9
$SKPOLY
 70
     0
  9
$TDCREATE
 40
2455307.488144919
  9
$TDUCREATE
 40
2455307.404811586
  9
$TDUPDATE
 40
2455307.48814493
  9
$TDUUPDATE
 40
2455307.404811597
  9
$TDINDWG
 40
0.0000000116
  9
$TDUSRTIMER
 40
0.0000000116
  9
$USRTIMER
 70
     1
  9
$ANGBASE
 50
0.0
  9
$ANGDIR
 70
     0
  9
$PDMODE
 70
     0
  9
$PDSIZE
 40
0.0
  9
$PLINEWID
 40
0.0
  9
$SPLFRAME
 70
     0
  9
$SPLINETYPE
 70
     6
  9
$SPLINESEGS
 70
     8
  9
$HANDSEED
  5
223
  9
$SURFTAB1
 70
     6
  9
$SURFTAB2
 70
     6
  9
$SURFTYPE
 70
     6
  9
$SURFU
 70
     6
  9
$SURFV
 70
     6
  9
$UCSBASE
  2

  9
$UCSNAME
  2

  9
$UCSORG
 10
0.0
 20
0.0
 30
0.0
  9
$UCSXDIR
 10
1.0
 20
0.0
 30
0.0
  9
$UCSYDIR
 10
0.0
 20
1.0
 30
0.0
  9
$UCSORTHOREF
  2

  9
$UCSORTHOVIEW
 70
     0
  9
$UCSORGTOP
 10
0.0
 20
0.0
 30
0.0
  9
$UCSORGBOTTOM
 10
0.0
 20
0.0
 30
0.0
  9
$UCSORGLEFT
 10
0.0
 20
0.0
 30
0.0
  9
$UCSORGRIGHT
 10
0.0
 20
0.0
 30
0.0
  9
$UCSORGFRONT
 10
0.0
 20
0.0
 30
0.0
  9
$UCSORGBACK
 10
0.0
 20
0.0
 30
0.0
  9
$PUCSBASE
  2

  9
$PUCSNAME
  2

  9
$PUCSORG
 10
0.0
 20
0.0
 30
0.0
  9
$PUCSXDIR
 10
1.0
 20
0.0
 30
0.0
  9
$PUCSYDIR
 10
0.0
 20
1.0
 30
0.0
  9
$PUCSORTHOREF
  2

  9
$PUCSORTHOVIEW
 70
     0
  9
$PUCSORGTOP
 10
0.0
 20
0.0
 30
0.0
  9
$PUCSORGBOTTOM
 10
0.0
 20
0.0
 30
0.0
  9
$PUCSORGLEFT
 10
0.0
 20
0.0
 30
0.0
  9
$PUCSORGRIGHT
 10
0.0
 20
0.0
 30
0.0
  9
$PUCSORGFRONT
 10
0.0
 20
0.0
 30
0.0
  9
$PUCSORGBACK
 10
0.0
 20
0.0
 30
0.0
  9
$USERI1
 70
     0
  9
$USERI2
 70
     0
  9
$USERI3
 70
     0
  9
$USERI4
 70
     0
  9
$USERI5
 70
     0
  9
$USERR1
 40
0.0
  9
$USERR2
 40
0.0
  9
$USERR3
 40
0.0
  9
$USERR4
 40
0.0
  9
$USERR5
 40
0.0
  9
$WORLDVIEW
 70
     1
  9
$SHADEDGE
 70
     3
  9
$SHADEDIF
 70
    70
  9
$TILEMODE
 70
     1
  9
$MAXACTVP
 70
    64
  9
$PINSBASE
 10
0.0
 20
0.0
 30
0.0
  9
$PLIMCHECK
 70
     0
  9
$PEXTMIN
 10
0.0
 20
0.0
 30
0.0
  9
$PEXTMAX
 10
1682.0
 20
2378.0
 30
0.0
  9
$PLIMMIN
 10
0.0
 20
0.0
  9
$PLIMMAX
 10
1682.0
 20
2378.0
  9
$UNITMODE
 70
     0
  9
$VISRETAIN
 70
     1
  9
$PLINEGEN
 70
     0
  9
$PSLTSCALE
 70
     1
  9
$TREEDEPTH
 70
  3020
  9
$CMLSTYLE
  2
Standard
  9
$CMLJUST
 70
     0
  9
$CMLSCALE
 40
20.0
  9
$PROXYGRAPHICS
 70
     1
  9
$MEASUREMENT
 70
     1
  9
$CELWEIGHT
370
    -1
  9
$ENDCAPS
280
     0
  9
$JOINSTYLE
280
     0
  9
$LWDISPLAY
290
     0
  9
$INSUNITS
 70
     4
  9
$HYPERLINKBASE
  1

  9
$STYLESHEET
  1

  9
$XEDIT
290
     1
  9
$CEPSNTYPE
380
     0
  9
$PSTYLEMODE
290
     1
  9
$FINGERPRINTGUID
  2
{66308A6A-6FA0-4089-A496-3B5E5C07B500}
  9
$VERSIONGUID
  2
{FAEB1C32-E019-11D5-929B-00C0DF256EC4}
  9
$EXTNAMES
290
     1
  9
$PSVPSCALE
 40
0.0
  9
$OLESTARTUP
290
     0
  0
ENDSEC
  0
SECTION
  2
CLASSES
  0
CLASS
  1
ACDBDICTIONARYWDFLT
  2
AcDbDictionaryWithDefault
  3
ObjectDBX Classes
 90
        0
280
     0
281
     0
  0
CLASS
  1
VISUALSTYLE
  2
AcDbVisualStyle
  3
ObjectDBX Classes
 90
     4095
280
     0
281
     0
  0
CLASS
  1
SCALE
  2
AcDbScale
  3
ObjectDBX Classes
 90
     1153
280
     0
281
     0
  0
CLASS
  1
DICTIONARYVAR
  2
AcDbDictionaryVar
  3
ObjectDBX Classes
 90
        0
280
     0
281
     0
  0
CLASS
  1
ACDBPLACEHOLDER
  2
AcDbPlaceHolder
  3
ObjectDBX Classes
 90
        0
280
     0
281
     0
  0
CLASS
  1
LAYOUT
  2
AcDbLayout
  3
ObjectDBX Classes
 90
        0
280
     0
281
     0
  0
ENDSEC
  0
SECTION
  2
TABLES
  0
TABLE
  2
VPORT
  5
8
330
0
100
AcDbSymbolTable
 70
     1
  0
VPORT
  5
29
330
8
100
AcDbSymbolTableRecord
100
AcDbViewportTableRecord
  2
*Active
 70
     0
 10
0.0
 20
0.0
 11
1.0
 21
1.0
 12
344.1869158879
 22
148.5
 13
0.0
 23
0.0
 14
10.0
 24
10.0
 15
10.0
 25
10.0
 16
0.0
 26
0.0
 36
1.0
 17
0.0
 27
0.0
 37
0.0
 40
297.0
 41
1.9729729729
 42
50.0
 43
0.0
 44
0.0
 50
0.0
 51
0.0
 71
     0
 72
   100
 73
     1
 74
     3
 75
     0
 76
     0
 77
     0
 78
     0
281
     0
 65
     1
110
0.0
120
0.0
130
0.0
111
1.0
121
0.0
131
0.0
112
0.0
122
1.0
132
0.0
 79
     0
146
0.0
  0
ENDTAB
  0
TABLE
  2
LTYPE
  5
5
330
0
100
AcDbSymbolTable
 70
     2
  0
LTYPE
  5
14
330
5
100
AcDbSymbolTableRecord
100
AcDbLinetypeTableRecord
  2
ByBlock
 70
     0
  3

 72
    65
 73
     0
 40
0.0
  0
LTYPE
  5
15
330
5
100
AcDbSymbolTableRecord
100
AcDbLinetypeTableRecord
  2
ByLayer
 70
     0
  3

 72
    65
 73
     0
 40
0.0
  0
LTYPE
  5
16
330
5
100
AcDbSymbolTableRecord
100
AcDbLinetypeTableRecord
  2
Continuous
 70
     0
  3
Solid line
 72
    65
 73
     0
 40
0.0
  0
LTYPE
  5
60
330
5
100
AcDbSymbolTableRecord
100
AcDbLinetypeTableRecord
  2
CENTER2
 70
     0
  3
Center (.5x) ___ _ ___ _ ___ _ ___ _ ___ _ ___
 72
    65
 73
     4
 40
28.575
 49
19.05
 74
     4
 75
     0
340
0
 46
0.0
 50
0.0
 44
0.0
 45
0.0
 49
-3.175
 74
     4
 75
     0
340
0
 46
0.0
 50
0.0
 44
0.0
 45
0.0
 49
3.175
 74
     4
 75
     0
340
0
 46
0.0
 50
0.0
 44
0.0
 45
0.0
 49
-3.175
 74
     4
 75
     0
340
0
 46
0.0
 50
0.0
 44
0.0
 45
0.0
  0
ENDTAB
  0
TABLE
  2
LAYER
  5
2
330
0
100
AcDbSymbolTable
 70
     8
  0
LAYER
  5
10
330
2
100
AcDbSymbolTableRecord
100
AcDbLayerTableRecord
  2
0
 70
     0
 62
     7
  6
Continuous
370
    -3
390
F
  0
LAYER
  5
5D
330
2
100
AcDbSymbolTableRecord
100
AcDbLayerTableRecord
  2
Default
 70
     0
 62
     7
  6
Continuous
370
    -3
390
F
  0
LAYER
  5
6B
330
2
100
AcDbSymbolTableRecord
100
AcDbLayerTableRecord
  2
$DDT_AUDIT_GENERATED_(6B)
 70
     0
 62
     7
  6
Continuous
370
    -3
390
F
  0
LAYER
  5
8D
330
2
100
AcDbSymbolTableRecord
100
AcDbLayerTableRecord
  2
02636038_GEHÄUSE
 70
     0
 62
     7
  6
Continuous
370
    -3
390
F
  0
LAYER
  5
9F
330
2
100
AcDbSymbolTableRecord
100
AcDbLayerTableRecord
  2
$DDT_AUDIT_GENERATED_(9F)
 70
     0
 62
     7
  6
Continuous
370
    -3
390
F
  0
LAYER
  5
14F
330
2
100
AcDbSymbolTableRecord
100
AcDbLayerTableRecord
  2
$DDT_AUDIT_GENERATED_(14F)
 70
     0
 62
     7
  6
Continuous
370
    -3
390
F
  0
LAYER
  5
182
330
2
100
AcDbSymbolTableRecord
100
AcDbLayerTableRecord
  2
$DDT_AUDIT_GENERATED_(182)
 70
     0
 62
     7
  6
Continuous
370
    -3
390
F
  0
LAYER
  5
1D0
330
2
100
AcDbSymbolTableRecord
100
AcDbLayerTableRecord
  2
$DDT_AUDIT_GENERATED_(1D0)
 70
     0
 62
     7
  6
Continuous
370
    -3
390
F
  0
ENDTAB
  0
TABLE
  2
STYLE
  5
3
330
0
100
AcDbSymbolTable
 70
     2
  0
STYLE
  5
11
330
3
100
AcDbSymbolTableRecord
100
AcDbTextStyleTableRecord
  2
Standard
 70
     0
 40
0.0
 41
1.0
 50
0.0
 71
     0
 42
2.5
  3
txt
  4

  0
STYLE
  5
212
330
3
100
AcDbSymbolTableRecord
100
AcDbTextStyleTableRecord
  2
SEACAD_seiso_ttf
 70
     0
 40
0.0
 41
1.0
 50
0.0
 71
     0
 42
0.2
  3
seiso.ttf
  4

  0
ENDTAB
  0
TABLE
  2
VIEW
  5
6
330
0
100
AcDbSymbolTable
 70
     0
  0
ENDTAB
  0
TABLE
  2
UCS
  5
7
330
0
100
AcDbSymbolTable
 70
     0
  0
ENDTAB
  0
TABLE
  2
APPID
  5
9
330
0
100
AcDbSymbolTable
 70
     1
  0
APPID
  5
12
330
9
100
AcDbSymbolTableRecord
100
AcDbRegAppTableRecord
  2
ACAD
 70
     0
  0
ENDTAB
  0
TABLE
  2
DIMSTYLE
  5
A
330
0
100
AcDbSymbolTable
 70
     1
100
AcDbDimStyleTable
  0
DIMSTYLE
105
27
330
A
100
AcDbSymbolTableRecord
100
AcDbDimStyleTableRecord
  2
ISO-25
 70
     0
 41
2.5
 42
0.625
 43
3.75
 44
1.25
 73
     0
 74
     0
 77
     1
 78
     8
140
2.5
141
2.5
143
0.0393700787
147
0.625
171
     3
172
     1
271
     2
272
     2
274
     3
278
    44
283
     0
284
     8
340
11
  0
ENDTAB
  0
TABLE
  2
BLOCK_RECORD
  5
1
330
0
100
AcDbSymbolTable
 70
     6
  0
BLOCK_RECORD
  5
1F
330
1
100
AcDbSymbolTableRecord
100
AcDbBlockTableRecord
  2
*Model_Space
340
22
  0
BLOCK_RECORD
  5
1B
330
1
100
AcDbSymbolTableRecord
100
AcDbBlockTableRecord
  2
*Paper_Space
340
1E
  0
BLOCK_RECORD
  5
5E
330
1
100
AcDbSymbolTableRecord
100
AcDbBlockTableRecord
  2
SEANNOT_GROUP
340
0
102
{BLKREFS
331
5F
102
}
  0
BLOCK_RECORD
  5
64
330
1
100
AcDbSymbolTableRecord
100
AcDbBlockTableRecord
  2
SEANNOT_GROUP1
340
0
102
{BLKREFS
331
65
102
}
  0
BLOCK_RECORD
  5
69
330
1
100
AcDbSymbolTableRecord
100
AcDbBlockTableRecord
  2
SE
340
0
102
{BLKREFS
331
6A
102
}
  0
BLOCK_RECORD
  5
18B
330
1
100
AcDbSymbolTableRecord
100
AcDbBlockTableRecord
  2
SE1
340
0
102
{BLKREFS
331
18C
102
}
  0
BLOCK_RECORD
  5
1D9
330
1
100
AcDbSymbolTableRecord
100
AcDbBlockTableRecord
  2
SE2
340
0
102
{BLKREFS
331
1DA
102
}
  0
ENDTAB
  0
ENDSEC
  0
SECTION
  2
BLOCKS
  0
BLOCK
  5
20
330
1F
100
AcDbEntity
  8
0
100
AcDbBlockBegin
  2
*Model_Space
 70
     0
 10
0.0
 20
0.0
 30
0.0
  3
*Model_Space
  1

  0
ENDBLK
  5
21
330
1F
100
AcDbEntity
  8
0
100
AcDbBlockEnd
  0
BLOCK
  5
1C
330
1B
100
AcDbEntity
 67
     1
  8
0
100
AcDbBlockBegin
  2
*Paper_Space
 70
     0
 10
0.0
 20
0.0
 30
0.0
  3
*Paper_Space
  1

  0
ENDBLK
  5
1D
330
1B
100
AcDbEntity
 67
     1
  8
0
100
AcDbBlockEnd
  0
BLOCK
  5
62
330
5E
100
AcDbEntity
  8
0
100
AcDbBlockBegin
  2
SEANNOT_GROUP
 70
     0
 10
0.0
 20
0.0
 30
0.0
  3
SEANNOT_GROUP
  1

  0
LINE
  5
61
330
5E
100
AcDbEntity
  8
Default
  6
CENTER2
 62
     7
100
AcDbLine
 10
34.0250919847
 20
436.420399634
 30
0.0
 11
34.0250919847
 21
414.5522690911
 31
0.0
  0
ENDBLK
  5
63
330
5E
100
AcDbEntity
  8
0
100
AcDbBlockEnd
  0
BLOCK
  5
67
330
64
100
AcDbEntity
  8
0
100
AcDbBlockBegin
  2
SEANNOT_GROUP1
 70
     0
 10
0.0
 20
0.0
 30
0.0
  3
SEANNOT_GROUP1
  1

  0
LINE
  5
66
330
64
100
AcDbEntity
  8
Default
  6
CENTER2
 62
     7
100
AcDbLine
 10
33.982721728
 20
235.4128145706
 30
0.0
 11
33.982721728
 21
326.3855147924
 31
0.0
  0
ENDBLK
  5
68
330
64
100
AcDbEntity
  8
0
100
AcDbBlockEnd
  0
BLOCK
  5
189
330
69
100
AcDbEntity
  8
0
100
AcDbBlockBegin
  2
SE
 70
     0
 10
0.0
 20
0.0
 30
0.0
  3
SE
  1

  0
LINE
  5
6C
330
69
100
AcDbEntity
  8
$DDT_AUDIT_GENERATED_(6B)
  6
Continuous
 62
     7
100
AcDbLine
 10
16.1454863403
 20
537.2842263457
 30
0.0
 11
16.1454863403
 21
530.4807181633
 31
0.0
  0
SPLINE
  5
6D
330
69
100
AcDbEntity
  8
$DDT_AUDIT_GENERATED_(6B)
  6
Continuous
 62
     7
100
AcDbSpline
210
0.0
220
0.0
230
1.0
 70
     8
 71
     3
 72
    24
 73
    20
 74
     0
 42
0.0000000003731568
 43
0.0000000001
 40
0.0
 40
0.0
 40
0.0
 40
0.0
 40
0.0673489911739451
 40
0.1414911146923277
 40
0.2495538598536993
 40
0.5040556150615451
 40
0.5674403611619616
 40
0.6304580637916772
 40
0.6617869571145882
 40
0.6929743073430764
 40
0.7549264753048998
 40
0.7857421387925052
 40
0.8164516511854796
 40
0.8470946296327005
 40
0.8777090864507917
 40
0.9082877339712007
 40
0.9388369099903774
 40
0.9685289296434658
 40
1.0
 40
1.0
 40
1.0
 40
1.0
 10
11.25931961724625
 20
547.7789897400692
 30
0.0
 10
11.37993215636676
 20
547.5349506368375
 30
0.0
 10
11.63314919589878
 20
547.0224585136642
 30
0.0
 10
12.17830533546502
 20
546.1490079337763
 30
0.0
 10
13.22705911970358
 20
544.6340311247967
 30
0.0
 10
14.37543221794485
 20
543.1717104018555
 30
0.0
 10
15.54506092440558
 20
541.7964631029463
 30
0.0
 10
16.05755661329855
 20
541.2054553357494
 30
0.0
 10
16.51404365456882
 20
540.7233998292639
 30
0.0
 10
17.04631628685564
 20
540.245547513972
 30
0.0
 10
17.74630849262999
 20
539.7750840464764
 30
0.0
 10
18.93412635033166
 20
539.3587305618225
 30
0.0
 10
20.22742348599114
 20
539.099610551148
 30
0.0
 10
21.95777522268822
 20
538.8932093315544
 30
0.0
 10
24.00620675098186
 20
538.7079969980979
 30
0.0
 10
26.2448491351596
 20
538.5067982190774
 30
0.0
 10
28.7000140163212
 20
538.3431058974497
 30
0.0
 10
31.3237812836343
 20
538.2344184780741
 30
0.0
 10
33.10736208041318
 20
538.219419070432
 30
0.0
 10
34.02509198472575
 20
538.2117012227375
 30
0.0
  0
LINE
  5
6E
330
69
100
AcDbEntity
  8
$DDT_AUDIT_GENERATED_(6B)
  6
Continuous
 62
     7
100
AcDbLine
 10
34.0250919847
 20
538.2117012227
 30
0.0
 11
34.0250919847
 21
535.735006153
 31
0.0
  0
ARC
  5
6F
330
69
100
AcDbEntity
  8
$DDT_AUDIT_GENERATED_(6B)
  6
Continuous
 62
     7
100
AcDbCircle
 10
9.9956157243
 20
486.0637240294
 30
0.0
 40
1.970676748255604
100
AcDbArc
 50
179.9804713608
 51
191.5850207423
  0
ARC
  5
70
330
69
100
AcDbEntity
  8
$DDT_AUDIT_GENERATED_(6B)
  6
Continuous
 62
     7
100
AcDbCircle
 10
281.0983988507
 20
507.9103884066
 30
0.0
 40
272.8236631202288
100
AcDbArc
 50
176.6844785021
 51
178.4246429777
  0
ARC
  5
71
330
69
100
AcDbEntity
  8
$DDT_AUDIT_GENERATED_(6B)
  6
Continuous
 62
     7
100
AcDbCircle
 10
18.9119044045
 20
530.3852072324
 30
0.0
 40
2.812167913686773
100
AcDbArc
 50
177.7908609247
 51
242.9519863842
  0
ARC
  5
72
330
69
100
AcDbEntity
  8
$DDT_AUDIT_GENERATED_(6B)
  6
Continuous
 62
     7
100
AcDbCircle
 10
9.5338913496
 20
501.7677890358
 30
0.0
 40
27.34002819202486
100
AcDbArc
 50
72.7680780713
 51
75.5406253531
  0
LINE
  5
73
330
69
100
AcDbEntity
  8
$DDT_AUDIT_GENERATED_(6B)
  6
Continuous
 62
     7
100
AcDbLine
 10
34.0250919847
 20
529.5406522498
 30
0.0
 11
34.0250919847
 21
527.1667736828
 31
0.0
  0
SPLINE
  5
74
330
69
100
AcDbEntity
  8
$DDT_AUDIT_GENERATED_(6B)
  6
Continuous
 62
     7
100
AcDbSpline
210
0.0
220
0.0
230
1.0
 70
     8
 71
     3
 72
    19
 73
    15
 74
     0
 42
0.0000000006088386
 43
0.0000000001
 40
0.0
 40
0.0
 40
0.0
 40
0.0
 40
0.0313522873894289
 40
0.0631342674815204
 40
0.1258977933994772
 40
0.2505952678048137
 40
0.3758530028775961
 40
0.5002729549262861
 40
0.6255264095992759
 40
0.750142283775436
 40
0.812960295872126
 40
0.8754549837265271
 40
0.9377014188373037
 40
1.0
 40
1.0
 40
1.0
 40
1.0
 10
34.02509198472773
 20
527.1667736827985
 30
0.0
 10
33.78669641193966
 20
527.1692165763016
 30
0.0
 10
33.30663798199203
 20
527.1741358439114
 30
0.0
 10
32.34995729775565
 20
527.1909966580215
 30
0.0
 10
30.6927704153457
 20
527.2318496313148
 30
0.0
 10
28.37718796281508
 20
527.2858571297645
 30
0.0
 10
25.7612697466505
 20
527.3357554015315
 30
0.0
 10
23.39007930024531
 20
527.3982462968274
 30
0.0
 10
21.36002884195951
 20
527.4764572185666
 30
0.0
 10
19.99253937581556
 20
527.5573702980724
 30
0.0
 10
19.09609319225403
 20
527.632722974988
 30
0.0
 10
18.51808303733371
 20
527.6986606879905
 30
0.0
 10
18.02571313443971
 20
527.7807025423243
 30
0.0
 10
17.76397411711782
 20
527.8472216913995
 30
0.0
 10
17.63310760427996
 20
527.8806180208376
 30
0.0
  0
ARC
  5
75
330
69
100
AcDbEntity
  8
$DDT_AUDIT_GENERATED_(6B)
  6
Continuous
 62
     7
100
AcDbCircle
 10
52.6199666961
 20
564.6125278603
 30
0.0
 40
44.65502359675363
100
AcDbArc
 50
177.704410095
 51
202.1460317051
  0
ARC
  5
76
330
69
100
AcDbEntity
  8
$DDT_AUDIT_GENERATED_(6B)
  6
Continuous
 62
     7
100
AcDbCircle
 10
33.2580544828
 20
530.3617134428
 30
0.0
 40
25.41814813752712
100
AcDbArc
 50
195.2195001037
 51
271.7292638395
  0
SPLINE
  5
77
330
69
100
AcDbEntity
  8
$DDT_AUDIT_GENERATED_(6B)
  6
Continuous
 62
     7
100
AcDbSpline
210
0.0
220
0.0
230
1.0
 70
     8
 71
     2
 72
    28
 73
    25
 74
     0
 42
0.0000000003645671
 43
0.0000000001
 40
0.0351822066454889
 40
0.0351822066454889
 40
0.0351822066454889
 40
0.125
 40
0.125
 40
0.1875
 40
0.1875
 40
0.25
 40
0.25
 40
0.375
 40
0.375
 40
0.4375
 40
0.4375
 40
0.5
 40
0.5
 40
0.625
 40
0.625
 40
0.75
 40
0.75
 40
0.875
 40
0.875
 40
0.9375
 40
0.9375
 40
0.96875
 40
0.96875
 40
1.0
 40
1.0
 40
1.0
 10
32.63632811086227
 20
478.8806615414641
 30
0.0
 10
30.86661722864581
 20
478.9068121582803
 30
0.0
 10
29.11221998430375
 20
478.9996678505658
 30
0.0
 10
27.89721422445201
 20
479.0639749516661
 30
0.0
 10
26.71070876320877
 20
479.1594912583255
 30
0.0
 10
25.52128094970366
 20
479.2552428207876
 30
0.0
 10
24.37539760291868
 20
479.3812279836624
 30
0.0
 10
22.08261997494395
 20
479.6333094574936
 30
0.0
 10
19.9889433817232
 20
480.0031950042214
 30
0.0
 10
18.94844623151966
 20
480.187017500264
 30
0.0
 10
17.97549716350844
 20
480.397101573457
 30
0.0
 10
17.00084931793594
 20
480.6075524552745
 30
0.0
 10
16.10635211893067
 20
480.8417702130571
 30
0.0
 10
14.31650168402954
 20
481.3104298758205
 30
0.0
 10
12.8739267635981
 20
481.8670139364004
 30
0.0
 10
11.43160094342921
 20
482.4235018874239
 30
0.0
 10
10.40074886322038
 20
483.0430788439664
 30
0.0
 10
9.376144533337953
 20
483.6589006913069
 30
0.0
 10
8.784374445404127
 20
484.3249835571094
 30
0.0
 10
8.491427171603002
 20
484.6547183031554
 30
0.0
 10
8.310855854338193
 20
484.9916867709467
 30
0.0
 10
8.220800234821649
 20
485.1597417233286
 30
0.0
 10
8.159478929528191
 20
485.3287594026988
 30
0.0
 10
8.100232226393983
 20
485.4920589317313
 30
0.0
 10
8.065086025662252
 20
485.6679691446894
 30
0.0
  0
SPLINE
  5
78
330
69
100
AcDbEntity
  8
$DDT_AUDIT_GENERATED_(6B)
  6
Continuous
 62
     7
100
AcDbSpline
210
0.0
220
0.0
230
1.0
 70
     8
 71
     3
 72
    35
 73
    31
 74
     0
 42
0.0000000008331268
 43
0.0000000001
 40
0.0
 40
0.0
 40
0.0
 40
0.0
 40
0.0313855805223449
 40
0.0627716299283073
 40
0.1255446818987792
 40
0.1883142348243156
 40
0.2197005063130162
 40
0.2510854535308684
 40
0.3138505391198683
 40
0.3766113001092237
 40
0.4393458775834977
 40
0.4705194972305322
 40
0.501648403522595
 40
0.5639413612965737
 40
0.5950857834470666
 40
0.6262280149899606
 40
0.688513641871428
 40
0.7507730151549908
 40
0.777436079852109
 40
0.8129963024244369
 40
0.8441550883387698
 40
0.8753132485198118
 40
0.8908928858238032
 40
0.9064802054725203
 40
0.9220702430556577
 40
0.9376592908292298
 40
0.9532463298350475
 40
0.9688369024901444
 40
0.984189620928533
 40
1.0
 40
1.0
 40
1.0
 40
1.0
 10
16.3605181265541
 20
528.2418198658436
 30
0.0
 10
16.24576385531889
 20
528.2703018202835
 30
0.0
 10
16.01618156001179
 20
528.3271497783302
 30
0.0
 10
15.59936721835581
 20
528.4177437582442
 30
0.0
 10
15.06282264446804
 20
528.5392397997635
 30
0.0
 10
14.49871976132551
 20
528.6911452735172
 30
0.0
 10
14.04542627462278
 20
528.822946250083
 30
0.0
 10
13.60046034094286
 20
528.9547966142934
 30
0.0
 10
13.0699069337054
 20
529.1036310409867
 30
0.0
 10
12.49668629062941
 20
529.2152335488463
 30
0.0
 10
12.06806551117091
 20
529.2420991181651
 30
0.0
 10
11.74192565359168
 20
529.2378769899155
 30
0.0
 10
11.42411486450794
 20
529.2215072772411
 30
0.0
 10
11.11334001167922
 20
529.1968990236646
 30
0.0
 10
10.81097797169424
 20
529.1608706937617
 30
0.0
 10
10.51767093073251
 20
529.1117107499559
 30
0.0
 10
10.17136200868664
 20
529.0103291820851
 30
0.0
 10
9.872273540098133
 20
528.7990044585797
 30
0.0
 10
9.650149508859705
 20
528.5062803071364
 30
0.0
 10
9.4941433726046
 20
528.2073902217597
 30
0.0
 10
9.343040806524279
 20
527.7830264912108
 30
0.0
 10
9.230596752574098
 20
527.3476327685129
 30
0.0
 10
9.140261913842835
 20
526.9303108516796
 30
0.0
 10
9.071532971115566
 20
526.5811853691494
 30
0.0
 10
9.00320002814511
 20
526.1952691004117
 30
0.0
 10
8.937476978291627
 20
525.7719623869999
 30
0.0
 10
8.875612282478258
 20
525.3106472372524
 30
0.0
 10
8.820156462867892
 20
524.8126361924799
 30
0.0
 10
8.771151155207091
 20
524.2757745526593
 30
0.0
 10
8.744848603374507
 20
523.8865116664308
 30
0.0
 10
8.731391847879179
 20
523.6890022445331
 30
0.0
  0
LINE
  5
79
330
69
100
AcDbEntity
  8
$DDT_AUDIT_GENERATED_(6B)
  6
Continuous
 62
     7
100
AcDbLine
 10
51.9046976291
 20
537.2842263457
 30
0.0
 11
51.9046976291
 21
530.4807181633
 31
0.0
  0
SPLINE
  5
7A
330
69
100
AcDbEntity
  8
$DDT_AUDIT_GENERATED_(6B)
  6
Continuous
 62
     7
100
AcDbSpline
210
0.0
220
0.0
230
1.0
 70
     8
 71
     3
 72
    48
 73
    44
 74
     0
 42
0.0000000003733882
 43
0.0000000001
 40
0.0
 40
0.0
 40
0.0
 40
0.0
 40
0.0022591002695268
 40
0.0081628925756243
 40
0.0199704771878193
 40
0.0317780618000142
 40
0.0553932310244041
 40
0.1026235694731839
 40
0.1498539079219637
 40
0.2443145848195233
 40
0.2915449232683031
 40
0.3387752617170829
 40
0.4332359386146425
 40
0.527696615512202
 40
0.5749269539609818
 40
0.6221572924097617
 40
0.6457724616341516
 40
0.6575800462463465
 40
0.6693876308585415
 40
0.6811952154707364
 40
0.6930028000829314
 40
0.7048103846951262
 40
0.7166179693073212
 40
0.7225217616134187
 40
0.7284255539195161
 40
0.7343293462256136
 40
0.7402331385317111
 40
0.7461369308378086
 40
0.7520407231439061
 40
0.763848307756101
 40
0.7874634769804909
 40
0.8110786462048808
 40
0.8346938154292707
 40
0.8465014000414657
 40
0.8524051923475632
 40
0.8583089846536606
 40
0.8701165692658556
 40
0.8819241538780506
 40
0.9055393231024405
 40
0.9291544923268303
 40
0.9527696615512202
 40
0.9763848307756101
 40
1.0
 40
1.0
 40
1.0
 40
1.0
 10
56.79086435220525
 20
547.7789897400692
 30
0.0
 10
56.78711444331857
 20
547.770872153774
 30
0.0
 10
56.77368522174213
 20
547.741539236013
 30
0.0
 10
56.74054381607565
 20
547.6703736086154
 30
0.0
 10
56.68984666238855
 20
547.5649884177221
 30
0.0
 10
56.60569530526495
 20
547.3971270094517
 30
0.0
 10
56.4507331252872
 20
547.1048737786122
 30
0.0
 10
56.20955987827254
 20
546.690408340117
 30
0.0
 10
55.7897162154926
 20
546.029895993683
 30
0.0
 10
55.331688553597
 20
545.3688622040773
 30
0.0
 10
54.8469699654605
 20
544.7053172827339
 30
0.0
 10
54.34490713967345
 20
544.0397259236847
 30
0.0
 10
53.68512466097975
 20
543.2033103718438
 30
0.0
 10
52.98053002778234
 20
542.3522873956128
 30
0.0
 10
52.38149912727189
 20
541.6537032012674
 30
0.0
 10
51.99005710579848
 20
541.2064652959778
 30
0.0
 10
51.6937131378855
 20
540.8890697981763
 30
0.0
 10
51.51111355523189
 20
540.7075534882149
 30
0.0
 10
51.36598985537439
 20
540.5715881586265
 30
0.0
 10
51.21096310351114
 20
540.4360543719404
 30
0.0
 10
51.0437725557784
 20
540.3012580786444
 30
0.0
 10
50.86201661931774
 20
540.1675240549807
 30
0.0
 10
50.69586893655004
 20
540.0572947736549
 30
0.0
 10
50.55249409138254
 20
539.9700592785366
 30
0.0
 10
50.43910272384469
 20
539.9051950896883
 30
0.0
 10
50.31926628486934
 20
539.8409747417498
 30
0.0
 10
50.19242931009474
 20
539.7774739763225
 30
0.0
 10
50.05788020040994
 20
539.7147985785293
 30
0.0
 10
49.86698297888343
 20
539.6325243581999
 30
0.0
 10
49.49980435777859
 20
539.4923933960358
 30
0.0
 10
48.86210875551542
 20
539.3061492964047
 30
0.0
 10
47.85766545286944
 20
539.1138956784849
 30
0.0
 10
46.81542657985862
 20
538.978345925736
 30
0.0
 10
45.99512325210272
 20
538.8915301760131
 30
0.0
 10
45.50447206392826
 20
538.8431701087501
 30
0.0
 10
45.00043848178719
 20
538.7953231304897
 30
0.0
 10
44.34795527135128
 20
538.7357332356688
 30
0.0
 10
43.26612088807991
 20
538.6378998632282
 30
0.0
 10
41.84023442035586
 20
538.5138170488989
 30
0.0
 10
39.99533026582764
 20
538.3838916723547
 30
0.0
 10
38.04915785806534
 20
538.2863575219716
 30
0.0
 10
36.0481351224504
 20
538.2264923781537
 30
0.0
 10
34.69965440622546
 20
538.2128171828422
 30
0.0
 10
34.02509198472575
 20
538.2117012227375
 30
0.0
  0
ARC
  5
7B
330
69
100
AcDbEntity
  8
$DDT_AUDIT_GENERATED_(6B)
  6
Continuous
 62
     7
100
AcDbCircle
 10
15.1379640961
 20
564.66366678
 30
0.0
 40
44.94503775157102
100
AcDbArc
 50
337.9340307037
 51
2.2155274962
  0
ARC
  5
7C
330
69
100
AcDbEntity
  8
$DDT_AUDIT_GENERATED_(6B)
  6
Continuous
 62
     7
100
AcDbCircle
 10
58.0542248125
 20
486.0636958582
 30
0.0
 40
1.971007529392815
100
AcDbArc
 50
348.4177863631
 51
0.0203366143
  0
ARC
  5
7D
330
69
100
AcDbEntity
  8
$DDT_AUDIT_GENERATED_(6B)
  6
Continuous
 62
     7
100
AcDbCircle
 10
-214.9842470929
 20
507.8277064678
 30
0.0
 40
274.7612382160776
100
AcDbArc
 50
1.5814931787
 51
3.3093853416
  0
SPLINE
  5
7E
330
69
100
AcDbEntity
  8
$DDT_AUDIT_GENERATED_(6B)
  6
Continuous
 62
     7
100
AcDbSpline
210
0.0
220
0.0
230
1.0
 70
     8
 71
     3
 72
    38
 73
    34
 74
     0
 42
0.0000000008335262
 43
0.0000000001
 40
0.0
 40
0.0
 40
0.0
 40
0.0
 40
0.0729478508842253
 40
0.0729478508842253
 40
0.1458957017684506
 40
0.1458957017684506
 40
0.2917914035369013
 40
0.2917914035369013
 40
0.3647392544211266
 40
0.3647392544211266
 40
0.4376871053053519
 40
0.4376871053053519
 40
0.5106349561895773
 40
0.5106349561895773
 40
0.5835828070738026
 40
0.5835828070738026
 40
0.6565306579580279
 40
0.6565306579580279
 40
0.7294785088422533
 40
0.7294785088422533
 40
0.7659524342843659
 40
0.7659524342843659
 40
0.8024263597264786
 40
0.8024263597264786
 40
0.8753742106107039
 40
0.8753742106107039
 40
0.9483220614949293
 40
0.9483220614949293
 40
0.9665590242159856
 40
0.9665590242159856
 40
0.984795986937042
 40
0.984795986937042
 40
1.0
 40
1.0
 40
1.0
 40
1.0
 10
51.6896658428974
 20
528.2418198658436
 30
0.0
 10
51.96715610307015
 20
528.3129986768794
 30
0.0
 10
52.2059745969079
 20
528.3644452350657
 30
0.0
 10
52.70120202959595
 20
528.4736362531681
 30
0.0
 10
52.95418522620335
 20
528.5344077329387
 30
0.0
 10
53.7366044824841
 20
528.7364504195089
 30
0.0
 10
54.28158858307565
 20
528.9119187222416
 30
0.0
 10
55.0083764583358
 20
529.1056763044036
 30
0.0
 10
55.23911659276661
 20
529.1561486463374
 30
0.0
 10
55.6688156904246
 20
529.2221799188281
 30
0.0
 10
55.87164513328231
 20
529.2363548375524
 30
0.0
 10
56.2578560506497
 20
529.2413384786926
 30
0.0
 10
56.4430088769893
 20
529.2320389530987
 30
0.0
 10
56.80959516686676
 20
529.2074867239226
 30
0.0
 10
56.98956585984891
 20
529.1913956407606
 30
0.0
 10
57.34042052461776
 20
529.1467268117442
 30
0.0
 10
57.50996819747981
 20
529.1172075736908
 30
0.0
 10
57.83192654851676
 20
529.0148616993138
 30
0.0
 10
57.98398779098792
 20
528.9420543051833
 30
0.0
 10
58.19453233424731
 20
528.7610636381268
 30
0.0
 10
58.26147491319505
 20
528.6891113923684
 30
0.0
 10
58.39081230419696
 20
528.5122984812856
 30
0.0
 10
58.45241467281812
 20
528.4075090044023
 30
0.0
 10
58.63192523584132
 20
528.0288472852449
 30
0.0
 10
58.73923260147856
 20
527.691562342341
 30
0.0
 10
58.94848833342237
 20
526.769394567067
 30
0.0
 10
59.06050510235597
 20
526.1797358975713
 30
0.0
 10
59.17895467305717
 20
525.2676785038368
 30
0.0
 10
59.20099922862152
 20
525.0764287149676
 30
0.0
 10
59.24250454194092
 20
524.6764108029867
 30
0.0
 10
59.26155178665763
 20
524.4681646161313
 30
0.0
 10
59.2935493740087
 20
524.0691307624916
 30
0.0
 10
59.30658507454496
 20
523.8819436003981
 30
0.0
 10
59.31879212157237
 20
523.6890022445331
 30
0.0
  0
ARC
  5
7F
330
69
100
AcDbEntity
  8
$DDT_AUDIT_GENERATED_(6B)
  6
Continuous
 62
     7
100
AcDbCircle
 10
49.138279565
 20
530.3852072324
 30
0.0
 40
2.812167913686781
100
AcDbArc
 50
297.0480136158
 51
2.2091390753
  0
ARC
  5
80
330
69
100
AcDbEntity
  8
$DDT_AUDIT_GENERATED_(6B)
  6
Continuous
 62
     7
100
AcDbCircle
 10
60.8544986762
 20
493.5298011484
 30
0.0
 40
35.90150977749494
100
AcDbArc
 50
104.7900044696
 51
106.901292106
  0
ARC
  5
81
330
69
100
AcDbEntity
  8
$DDT_AUDIT_GENERATED_(6B)
  6
Continuous
 62
     7
100
AcDbCircle
 10
37.7888197291
 20
629.3016405582
 30
0.0
 40
102.2041910989816
100
AcDbArc
 50
267.8895729932
 51
277.0975525399
  0
ARC
  5
82
330
69
100
AcDbEntity
  8
$DDT_AUDIT_GENERATED_(6B)
  6
Continuous
 62
     7
100
AcDbCircle
 10
34.6852324785
 20
530.5060414528
 30
0.0
 40
25.55942652434426
100
AcDbArc
 50
268.5200188069
 51
344.5312172499
  0
SPLINE
  5
83
330
69
100
AcDbEntity
  8
$DDT_AUDIT_GENERATED_(6B)
  6
Continuous
 62
     7
100
AcDbSpline
210
0.0
220
0.0
230
1.0
 70
     8
 71
     3
 72
    24
 73
    20
 74
     0
 42
0.0000000003735408
 43
0.0000000001
 40
0.0842492160937883
 40
0.0842492160937883
 40
0.0842492160937883
 40
0.0842492160937883
 40
0.2470679086129381
 40
0.2470679086129381
 40
0.493842892468592
 40
0.493842892468592
 40
0.617288076309883
 40
0.617288076309883
 40
0.7407220920194388
 40
0.7407220920194388
 40
0.8026288265438786
 40
0.8026288265438786
 40
0.8645108455349746
 40
0.8645108455349746
 40
0.9264710832834053
 40
0.9264710832834053
 40
0.9810875867056587
 40
0.9810875867056587
 40
1.0
 40
1.0
 40
1.0
 40
1.0
 10
37.34705906175095
 20
478.9293586704145
 30
0.0
 10
39.47559477228869
 20
479.0049989352754
 30
0.0
 10
41.57071122856161
 20
479.1528404055162
 30
0.0
 10
46.59274336805237
 20
479.6977730611015
 30
0.0
 10
49.38857081517534
 20
480.1848009218843
 30
0.0
 10
52.95623757717334
 20
481.1014585200003
 30
0.0
 10
54.03698406027034
 20
481.437305401637
 30
0.0
 10
55.9582435429264
 20
482.16055809351
 30
0.0
 10
56.79559528491635
 20
482.5468673694963
 30
0.0
 10
57.84479333297134
 20
483.154561287159
 30
0.0
 10
58.15841647853034
 20
483.3609725957949
 30
0.0
 10
58.71638315408735
 20
483.7833351138804
 30
0.0
 10
58.95789047293034
 20
483.9969245342673
 30
0.0
 10
59.37066883464934
 20
484.4319686526836
 30
0.0
 10
59.53962665196134
 20
484.6510913950355
 30
0.0
 10
59.78897370488939
 20
485.0687684569057
 30
0.0
 10
59.87638422791235
 20
485.2648300830287
 30
0.0
 10
59.95484214401685
 20
485.5309055456976
 30
0.0
 10
59.97140834785116
 20
485.599408822055
 30
0.0
 10
59.98509794378934
 20
485.6679691446895
 30
0.0
  0
SPLINE
  5
84
330
69
100
AcDbEntity
  8
$DDT_AUDIT_GENERATED_(6B)
  6
Continuous
 62
     7
100
AcDbSpline
210
0.0
220
0.0
230
1.0
 70
     8
 71
     3
 72
    18
 73
    14
 74
     0
 42
0.0000000004428667
 43
0.0000000001
 40
0.4155601203188546
 40
0.4155601203188546
 40
0.4155601203188546
 40
0.4155601203188546
 40
0.4374999999999992
 40
0.4374999999999992
 40
0.4999999999999988
 40
0.4999999999999988
 40
0.6249999999999991
 40
0.6249999999999991
 40
0.7499999999999993
 40
0.7499999999999993
 40
0.8749999999999997
 40
0.8749999999999997
 40
1.0
 40
1.0
 40
1.0
 40
1.0
 10
22.22018432037692
 20
525.3865541926383
 30
0.0
 10
22.14432362915873
 20
525.4470463736291
 30
0.0
 10
22.07785549260432
 20
525.5042532708632
 30
0.0
 10
21.86050182755057
 20
525.7096618238826
 30
0.0
 10
21.77858546865544
 20
525.8303819944468
 30
0.0
 10
21.76843002427985
 20
526.1143853232815
 30
0.0
 10
22.08009226187593
 20
526.2116283444191
 30
0.0
 10
23.30673205420204
 20
526.3635535133109
 30
0.0
 10
24.20571373124853
 20
526.40693013482
 30
0.0
 10
26.46695802045722
 20
526.467731078177
 30
0.0
 10
27.8285752485353
 20
526.4817782391999
 30
0.0
 10
30.78576708802972
 20
526.4777992964158
 30
0.0
 10
32.39820572219987
 20
526.4599095103474
 30
0.0
 10
34.02509198472575
 20
526.4598098546047
 30
0.0
  0
SPLINE
  5
85
330
69
100
AcDbEntity
  8
$DDT_AUDIT_GENERATED_(6B)
  6
Continuous
 62
     7
100
AcDbSpline
210
0.0
220
0.0
230
1.0
 70
     8
 71
     3
 72
    18
 73
    14
 74
     0
 42
0.0000000004429175
 43
0.0000000001
 40
0.0
 40
0.0
 40
0.0
 40
0.0
 40
0.1249999999999995
 40
0.1249999999999995
 40
0.2499999999999989
 40
0.2499999999999989
 40
0.3749999999999984
 40
0.3749999999999984
 40
0.4999999999999979
 40
0.4999999999999979
 40
0.5624999999999981
 40
0.5624999999999981
 40
0.5836198460158568
 40
0.5836198460158568
 40
0.5836198460158568
 40
0.5836198460158568
 10
34.02509198472575
 20
526.4598098546047
 30
0.0
 10
35.65126685671444
 20
526.4599094667716
 30
0.0
 10
37.24956226342314
 20
526.477728409174
 30
0.0
 10
40.22064089795325
 20
526.4818275666472
 30
0.0
 10
41.58176042659161
 20
526.4677021683783
 30
0.0
 10
43.83539269673178
 20
526.4072422103908
 30
0.0
 10
44.74409459799733
 20
526.3630789558904
 30
0.0
 10
45.95893658805864
 20
526.2134015087956
 30
0.0
 10
46.27816983582093
 20
526.1158635896171
 30
0.0
 10
46.27351874784539
 20
525.8345403078135
 30
0.0
 10
46.19093983132526
 20
525.7113436944319
 30
0.0
 10
45.97753059171266
 20
525.5090081769254
 30
0.0
 10
45.91502376671364
 20
525.4547691627114
 30
0.0
 10
45.84389323806405
 20
525.3975130850387
 30
0.0
  0
LINE
  5
86
330
69
100
AcDbEntity
  8
$DDT_AUDIT_GENERATED_(6B)
  6
Continuous
 62
     7
100
AcDbLine
 10
7.942030316
 20
558.7721331414
 30
0.0
 11
7.942030316
 21
513.9227605902
 31
0.0
  0
ARC
  5
87
330
69
100
AcDbEntity
  8
$DDT_AUDIT_GENERATED_(6B)
  6
Continuous
 62
     7
100
AcDbCircle
 10
-698.7172618887
 20
561.7958379413
 30
0.0
 40
706.6657849580045
100
AcDbArc
 50
359.7535038584
 51
0.6017209872
  0
ARC
  5
88
330
69
100
AcDbEntity
  8
$DDT_AUDIT_GENERATED_(6B)
  6
Continuous
 62
     7
100
AcDbCircle
 10
-1395.084316142
 20
495.8375113335
 30
0.0
 40
1403.143248130628
100
AcDbArc
 50
359.6009195995
 51
0.7395690474
  0
LINE
  5
89
330
69
100
AcDbEntity
  8
$DDT_AUDIT_GENERATED_(6B)
  6
Continuous
 62
     7
100
AcDbLine
 10
60.1081536535
 20
513.9227611067
 30
0.0
 11
60.1081536535
 21
558.772123859
 31
0.0
  0
ARC
  5
8A
330
69
100
AcDbEntity
  8
$DDT_AUDIT_GENERATED_(6B)
  6
Continuous
 62
     7
100
AcDbCircle
 10
718.0090796528
 20
562.0032867611
 30
0.0
 40
657.9088947430406
100
AcDbArc
 50
179.3714181263
 51
180.2828302689
  0
LINE
  5
8B
330
69
100
AcDbEntity
  8
$DDT_AUDIT_GENERATED_(6B)
  6
Continuous
 62
     7
100
AcDbLine
 10
60.1080776168
 20
513.8917650032
 30
0.0
 11
60.1081422002
 21
513.9486620659
 31
0.0
  0
ARC
  5
8C
330
69
100
AcDbEntity
  8
$DDT_AUDIT_GENERATED_(6B)
  6
Continuous
 62
     7
100
AcDbCircle
 10
1444.5435564949
 20
495.8591046406
 30
0.0
 40
1384.552914126551
100
AcDbArc
 50
179.2537486044
 51
180.4053325246
  0
ELLIPSE
  5
8E
330
69
100
AcDbEntity
  8
02636038_GEHÄUSE
  6
Continuous
 62
     7
100
AcDbEllipse
 10
34.0250919847
 20
518.7915306659
 30
0.0
 11
-10.05000000000001
 21
-1.387778780781446E-14
 31
0.0
210
0.0
220
0.0
230
1.0
 40
0.1684893796
 41
2.569155068978311
 42
6.283185307179578
  0
ELLIPSE
  5
8F
330
69
100
AcDbEntity
  8
02636038_GEHÄUSE
  6
Continuous
 62
     7
100
AcDbEllipse
 10
34.0250919847
 20
518.7915306659
 30
0.0
 11
-10.05000000000001
 21
-1.387778780781446E-14
 31
0.0
210
0.0
220
0.0
230
1.0
 40
0.1684893796
 41
0.0
 42
0.5724375846114805
  0
ELLIPSE
  5
90
330
69
100
AcDbEntity
  8
02636038_GEHÄUSE
  6
Continuous
 62
     7
100
AcDbEllipse
 10
34.0250919847
 20
518.7915306659
 30
0.0
 11
-10.75
 21
-1.387778780781446E-14
 31
0.0
210
0.0
220
0.0
230
1.0
 40
0.1684893796
 41
2.221258430416536
 42
6.283185307179579
  0
ELLIPSE
  5
91
330
69
100
AcDbEntity
  8
02636038_GEHÄUSE
  6
Continuous
 62
     7
100
AcDbEllipse
 10
34.0250919847
 20
518.7915306659
 30
0.0
 11
-10.75
 21
-1.387778780781446E-14
 31
0.0
210
0.0
220
0.0
230
1.0
 40
0.1684893796
 41
0.0
 42
0.9203342231732571
  0
LINE
  5
92
330
69
100
AcDbEntity
  8
02636038_GEHÄUSE
  6
Continuous
 62
     7
100
AcDbLine
 10
23.0250919847
 20
519.540331914
 30
0.0
 11
23.0250919847
 21
518.6687351973
 31
0.0
  0
ELLIPSE
  5
93
330
69
100
AcDbEntity
  8
02636038_GEHÄUSE
  6
Continuous
 62
     7
100
AcDbEllipse
 10
34.0250919847
 20
521.7486410732
 30
0.0
 11
11.79999999999987
 21
0.0
 31
0.0
210
0.0
220
0.0
230
1.0
 40
0.1684893796
 41
2.771250021498073
 42
3.511935285681512
  0
LINE
  5
94
330
69
100
AcDbEntity
  8
02636038_GEHÄUSE
  6
Continuous
 62
     7
100
AcDbLine
 10
23.0250919847
 20
522.4682307893
 30
0.0
 11
23.0250919847
 21
520.6777675166
 31
0.0
  0
LINE
  5
95
330
69
100
AcDbEntity
  8
02636038_GEHÄUSE
  6
Continuous
 62
     7
100
AcDbLine
 10
23.0250919847
 20
520.6777675166
 30
0.0
 11
23.0250919847
 21
519.540331914
 31
0.0
  0
LINE
  5
96
330
69
100
AcDbEntity
  8
02636038_GEHÄUSE
  6
Continuous
 62
     7
100
AcDbLine
 10
45.0250919847
 20
518.6687351973
 30
0.0
 11
45.0250919847
 21
519.540331914
 31
0.0
  0
ELLIPSE
  5
97
330
69
100
AcDbEntity
  8
02636038_GEHÄUSE
  6
Continuous
 62
     7
100
AcDbEllipse
 10
34.0250919847
 20
521.7486410732
 30
0.0
 11
-11.79999999999987
 21
0.0
 31
0.0
210
0.0
220
0.0
230
1.0
 40
0.1684893796
 41
2.771250021498074
 42
3.511935285681512
  0
LINE
  5
98
330
69
100
AcDbEntity
  8
02636038_GEHÄUSE
  6
Continuous
 62
     7
100
AcDbLine
 10
45.0250919847
 20
519.540331914
 30
0.0
 11
45.0250919847
 21
520.6777675166
 31
0.0
  0
LINE
  5
99
330
69
100
AcDbEntity
  8
02636038_GEHÄUSE
  6
Continuous
 62
     7
100
AcDbLine
 10
45.0250919847
 20
520.6777675166
 30
0.0
 11
45.0250919847
 21
522.4682307893
 31
0.0
  0
LINE
  5
9A
330
69
100
AcDbEntity
  8
02636038_GEHÄUSE
  6
Continuous
 62
     7
100
AcDbLine
 10
23.2316954384
 20
518.5408467777
 30
0.0
 11
23.7570377482
 21
518.25527997
 31
0.0
  0
LINE
  5
9B
330
69
100
AcDbEntity
  8
02636038_GEHÄUSE
  6
Continuous
 62
     7
100
AcDbLine
 10
44.2931462213
 20
518.25527997
 30
0.0
 11
44.8184885311
 21
518.5408467777
 31
0.0
  0
ARC
  5
9C
330
69
100
AcDbEntity
  8
02636038_GEHÄUSE
  6
Continuous
 62
     7
100
AcDbCircle
 10
44.143658214
 20
519.8787828565
 30
0.0
 40
1.497194529276139
100
AcDbArc
 50
294.2336452418
 51
306.0129795778
  0
LINE
  5
9D
330
69
100
AcDbEntity
  8
02636038_GEHÄUSE
  6
Continuous
 62
     7
100
AcDbLine
 10
22.2250919847
 20
526.2103011508
 30
0.0
 11
22.2250919847
 21
521.7486410732
 31
0.0
  0
LINE
  5
9E
330
69
100
AcDbEntity
  8
02636038_GEHÄUSE
  6
Continuous
 62
     7
100
AcDbLine
 10
45.8250919847
 20
521.7486410732
 30
0.0
 11
45.8250919847
 21
526.2046902822
 31
0.0
  0
ELLIPSE
  5
A0
330
69
100
AcDbEntity
  8
$DDT_AUDIT_GENERATED_(9F)
  6
Continuous
 62
     7
100
AcDbEllipse
 10
34.0250919847
 20
518.3972492783
 30
0.0
 11
-9.0
 21
0.0
 31
0.0
210
0.0
220
0.0
230
1.0
 40
0.1684893796
 41
0.0
 42
6.283185307179586
  0
ELLIPSE
  5
A1
330
69
100
AcDbEntity
  8
$DDT_AUDIT_GENERATED_(9F)
  6
Continuous
 62
     7
100
AcDbEllipse
 10
34.0250919847
 20
518.3972492783
 30
0.0
 11
-5.249999999999997
 21
-1.387778780781446E-14
 31
0.0
210
0.0
220
0.0
230
1.0
 40
0.1684893796
 41
0.0
 42
6.283185307179586
  0
ELLIPSE
  5
A2
330
69
100
AcDbEntity
  8
$DDT_AUDIT_GENERATED_(9F)
  6
Continuous
 62
     7
100
AcDbEllipse
 10
34.0250919847
 20
518.3972492783
 30
0.0
 11
-6.250000000000002
 21
-1.387778780781446E-14
 31
0.0
210
0.0
220
0.0
230
1.0
 40
0.1684893796
 41
0.0
 42
6.283185307179586
  0
ELLIPSE
  5
A3
330
69
100
AcDbEntity
  8
$DDT_AUDIT_GENERATED_(9F)
  6
Continuous
 62
     7
100
AcDbEllipse
 10
34.0250919847
 20
518.3972492783
 30
0.0
 11
-2.750000000000001
 21
0.0
 31
0.0
210
0.0
220
0.0
230
1.0
 40
0.1684893796
 41
0.0
 42
6.283185307179586
  0
ELLIPSE
  5
A4
330
69
100
AcDbEntity
  8
$DDT_AUDIT_GENERATED_(9F)
  6
Continuous
 62
     7
100
AcDbEllipse
 10
34.0250919847
 20
518.3972492783
 30
0.0
 11
-2.15
 21
0.0
 31
0.0
210
0.0
220
0.0
230
1.0
 40
0.1684893796
 41
0.0
 42
6.283185307179586
  0
ELLIPSE
  5
A5
330
69
100
AcDbEntity
  8
$DDT_AUDIT_GENERATED_(9F)
  6
Continuous
 62
     7
100
AcDbEllipse
 10
34.0250919847
 20
518.5943899721
 30
0.0
 11
0.5196299438963558
 21
0.0
 31
0.0
210
0.0
220
0.0
230
1.0
 40
0.1684893796
 41
0.0
 42
6.283185307179586
  0
ELLIPSE
  5
A6
330
69
100
AcDbEntity
  8
$DDT_AUDIT_GENERATED_(9F)
  6
Continuous
 62
     7
100
AcDbEllipse
 10
34.0250919847
 20
518.3972492783
 30
0.0
 11
-8.699999999999998
 21
0.0
 31
0.0
210
0.0
220
0.0
230
1.0
 40
0.1684893796
 41
0.0
 42
6.283185307179586
  0
ARC
  5
A7
330
69
100
AcDbEntity
  8
$DDT_AUDIT_GENERATED_(9F)
  6
Continuous
 62
     7
100
AcDbCircle
 10
42.2832167251
 20
518.5943899721
 30
0.0
 40
0.2418745645455919
100
AcDbArc
 50
356.0055515153
 51
3.9944484846
  0
ARC
  5
A8
330
69
100
AcDbEntity
  8
$DDT_AUDIT_GENERATED_(9F)
  6
Continuous
 62
     7
100
AcDbCircle
 10
40.096885452
 20
518.5943899721
 30
0.0
 40
0.1782047878052384
100
AcDbArc
 50
0.0
 51
5.4253152536
  0
ELLIPSE
  5
A9
330
69
100
AcDbEntity
  8
$DDT_AUDIT_GENERATED_(9F)
  6
Continuous
 62
     7
100
AcDbEllipse
 10
34.0250919847
 20
518.5943899721
 30
0.0
 11
8.50000000003242
 21
2.359223927328458E-13
 31
0.0
210
0.0
220
0.0
230
1.0
 40
0.1684893796
 41
0.0117649772880459
 42
0.1043067825418436
  0
LINE
  5
AA
330
69
100
AcDbEntity
  8
$DDT_AUDIT_GENERATED_(9F)
  6
Continuous
 62
     7
100
AcDbLine
 10
40.2750919847
 20
518.5775410341
 30
0.0
 11
42.5245037291
 21
518.5775410341
 31
0.0
  0
LINE
  5
AB
330
69
100
AcDbEntity
  8
$DDT_AUDIT_GENERATED_(9F)
  6
Continuous
 62
     7
100
AcDbLine
 10
40.2742919335
 20
518.61123891
 30
0.0
 11
42.5245037291
 21
518.61123891
 31
0.0
  0
LINE
  5
AC
330
69
100
AcDbEntity
  8
$DDT_AUDIT_GENERATED_(9F)
  6
Continuous
 62
     7
100
AcDbLine
 10
40.2742919335
 20
518.61123891
 30
0.0
 11
40.2742919335
 21
518.8590767558
 31
0.0
  0
LINE
  5
AD
330
69
100
AcDbEntity
  8
$DDT_AUDIT_GENERATED_(9F)
  6
Continuous
 62
     7
100
AcDbLine
 10
33.1738905105
 20
518.5054998416
 30
0.0
 11
33.5054620408
 21
518.6022630795
 31
0.0
  0
LINE
  5
AE
330
69
100
AcDbEntity
  8
$DDT_AUDIT_GENERATED_(9F)
  6
Continuous
 62
     7
100
AcDbLine
 10
32.7408778086
 20
518.5476221865
 30
0.0
 11
33.4160663068
 21
518.7446639084
 31
0.0
  0
ELLIPSE
  5
AF
330
69
100
AcDbEntity
  8
$DDT_AUDIT_GENERATED_(9F)
  6
Continuous
 62
     7
100
AcDbEllipse
 10
34.0250919847
 20
518.8381525013
 30
0.0
 11
-2.149999999996645
 21
5.967448757360216E-13
 31
0.0
210
0.0
220
0.0
230
1.0
 40
0.1684893796
 41
0.9306548427476595
 42
1.163740259646644
  0
LINE
  5
B0
330
69
100
AcDbEntity
  8
$DDT_AUDIT_GENERATED_(9F)
  6
Continuous
 62
     7
100
AcDbLine
 10
32.7408778086
 20
518.687779593
 30
0.0
 11
32.7408778086
 21
518.5476221865
 31
0.0
  0
ELLIPSE
  5
B1
330
69
100
AcDbEntity
  8
$DDT_AUDIT_GENERATED_(9F)
  6
Continuous
 62
     7
100
AcDbEllipse
 10
34.0250923749
 20
518.5943899545
 30
0.0
 11
8.499999609565679
 21
1.748538813739486E-8
 31
0.0
210
0.0
220
0.0
230
1.0
 40
0.168489383
 41
-0.2735643716551719
 42
-0.2500344165199433
  0
ELLIPSE
  5
B2
330
69
100
AcDbEntity
  8
$DDT_AUDIT_GENERATED_(9F)
  6
Continuous
 62
     7
100
AcDbEllipse
 10
34.0250919847
 20
518.5943899721
 30
0.0
 11
8.500000000028869
 21
-6.661338147750939E-13
 31
0.0
210
0.0
220
0.0
230
1.0
 40
0.1684893796
 41
6.033150896668961
 42
6.271420329891521
  0
LINE
  5
B3
330
69
100
AcDbEntity
  8
$DDT_AUDIT_GENERATED_(9F)
  6
Continuous
 62
     7
100
AcDbLine
 10
42.2607752014
 20
518.2400202364
 30
0.0
 11
42.2607752014
 21
518.5775410341
 31
0.0
  0
LINE
  5
B4
330
69
100
AcDbEntity
  8
$DDT_AUDIT_GENERATED_(9F)
  6
Continuous
 62
     7
100
AcDbLine
 10
40.246185156
 20
518.2960855054
 30
0.0
 11
42.2090113923
 21
518.2074705878
 31
0.0
  0
LINE
  5
B5
330
69
100
AcDbEntity
  8
$DDT_AUDIT_GENERATED_(9F)
  6
Continuous
 62
     7
100
AcDbLine
 10
40.2624251258
 20
518.3302389343
 30
0.0
 11
42.2607752014
 21
518.2400202364
 31
0.0
  0
ELLIPSE
  5
B6
330
69
100
AcDbEntity
  8
$DDT_AUDIT_GENERATED_(9F)
  6
Continuous
 62
     7
100
AcDbEllipse
 10
34.0250923646
 20
518.5943899351
 30
0.0
 11
8.499999616175627
 21
3.293326722442202E-8
 31
0.0
210
0.0
220
0.0
230
1.0
 40
0.1684893817
 41
-0.5353637650183636
 42
-0.5118338098351032
  0
ELLIPSE
  5
B7
330
69
100
AcDbEntity
  8
$DDT_AUDIT_GENERATED_(9F)
  6
Continuous
 62
     7
100
AcDbEllipse
 10
34.0250919847
 20
518.5943899721
 30
0.0
 11
8.500000000025153
 21
-2.123301534595612E-12
 31
0.0
210
0.0
220
0.0
230
1.0
 40
0.1684893796
 41
-0.5118337983094214
 42
-0.2735643650868269
  0
LINE
  5
B8
330
69
100
AcDbEntity
  8
$DDT_AUDIT_GENERATED_(9F)
  6
Continuous
 62
     7
100
AcDbLine
 10
41.4357984726
 20
517.8929512746
 30
0.0
 11
41.4357984726
 21
518.2423785169
 31
0.0
  0
LINE
  5
B9
330
69
100
AcDbEntity
  8
$DDT_AUDIT_GENERATED_(9F)
  6
Continuous
 62
     7
100
AcDbLine
 10
39.8362964287
 20
518.0096357011
 30
0.0
 11
41.3357984726
 21
517.863768058
 31
0.0
  0
LINE
  5
BA
330
69
100
AcDbEntity
  8
$DDT_AUDIT_GENERATED_(9F)
  6
Continuous
 62
     7
100
AcDbLine
 10
39.9078349335
 20
518.0415875777
 30
0.0
 11
41.4357984726
 21
517.8929512746
 31
0.0
  0
ELLIPSE
  5
BB
330
69
100
AcDbEntity
  8
$DDT_AUDIT_GENERATED_(9F)
  6
Continuous
 62
     7
100
AcDbEllipse
 10
34.0250923425
 20
518.5943899117
 30
0.0
 11
8.499999620514224
 21
4.391342844911605E-8
 31
0.0
210
0.0
220
0.0
230
1.0
 40
0.1684893796
 41
-0.7971631567844177
 42
-0.7736332015077858
  0
ELLIPSE
  5
BC
330
69
100
AcDbEntity
  8
$DDT_AUDIT_GENERATED_(9F)
  6
Continuous
 62
     7
100
AcDbEllipse
 10
34.0250919847
 20
518.5943899721
 30
0.0
 11
8.500000000013864
 21
-1.637578961322106E-12
 31
0.0
210
0.0
220
0.0
230
1.0
 40
0.1684893796
 41
-0.7736331861087198
 42
-0.5353637528859965
  0
LINE
  5
BD
330
69
100
AcDbEntity
  8
$DDT_AUDIT_GENERATED_(9F)
  6
Continuous
 62
     7
100
AcDbLine
 10
40.1057943434
 20
517.5936842009
 30
0.0
 11
40.1057943434
 21
517.9834196478
 31
0.0
  0
LINE
  5
BE
330
69
100
AcDbEntity
  8
$DDT_AUDIT_GENERATED_(9F)
  6
Continuous
 62
     7
100
AcDbLine
 10
38.928793937
 20
517.744340276
 30
0.0
 11
39.9643729871
 21
517.5698562043
 31
0.0
  0
LINE
  5
BF
330
69
100
AcDbEntity
  8
$DDT_AUDIT_GENERATED_(9F)
  6
Continuous
 62
     7
100
AcDbLine
 10
39.051325804
 20
517.7713509509
 30
0.0
 11
40.1057943434
 21
517.5936842009
 31
0.0
  0
ELLIPSE
  5
C0
330
69
100
AcDbEntity
  8
$DDT_AUDIT_GENERATED_(9F)
  6
Continuous
 62
     7
100
AcDbEllipse
 10
34.0250922206
 20
518.5943899033
 30
0.0
 11
8.499999705112552
 21
3.540556736680855E-8
 31
0.0
210
0.0
220
0.0
230
1.0
 40
0.1684893772
 41
-1.058962541533464
 42
-1.035432586304234
  0
ELLIPSE
  5
C1
330
69
100
AcDbEntity
  8
$DDT_AUDIT_GENERATED_(9F)
  6
Continuous
 62
     7
100
AcDbEllipse
 10
34.0250919847
 20
518.5943899721
 30
0.0
 11
8.49999999999296
 21
1.165734175856414E-12
 31
0.0
210
0.0
220
0.0
230
1.0
 40
0.1684893796
 41
-1.035432573908882
 42
-0.7971631406857638
  0
LINE
  5
C2
330
69
100
AcDbEntity
  8
$DDT_AUDIT_GENERATED_(9F)
  6
Continuous
 62
     7
100
AcDbLine
 10
38.3614003973
 20
517.3626135718
 30
0.0
 11
38.3614003973
 21
517.6388799219
 31
0.0
  0
LINE
  5
C3
330
69
100
AcDbEntity
  8
$DDT_AUDIT_GENERATED_(9F)
  6
Continuous
 62
     7
100
AcDbLine
 10
37.5607110278
 20
517.5288847329
 30
0.0
 11
38.1881953165
 21
517.3457646338
 31
0.0
  0
LINE
  5
C4
330
69
100
AcDbEntity
  8
$DDT_AUDIT_GENERATED_(9F)
  6
Continuous
 62
     7
100
AcDbLine
 10
37.7245132202
 20
517.5484777361
 30
0.0
 11
38.3614003973
 21
517.3626135718
 31
0.0
  0
ELLIPSE
  5
C5
330
69
100
AcDbEntity
  8
$DDT_AUDIT_GENERATED_(9F)
  6
Continuous
 62
     7
100
AcDbEllipse
 10
34.0250921029
 20
518.5943898978
 30
0.0
 11
8.499999756533988
 21
1.979552632924708E-8
 31
0.0
210
0.0
220
0.0
230
1.0
 40
0.1684893756
 41
-1.320761923708151
 42
-1.297231968500319
  0
ELLIPSE
  5
C6
330
69
100
AcDbEntity
  8
$DDT_AUDIT_GENERATED_(9F)
  6
Continuous
 62
     7
100
AcDbEllipse
 10
34.0250919847
 20
518.5943899721
 30
0.0
 11
8.500000000019194
 21
-2.206568261442499E-12
 31
0.0
210
0.0
220
0.0
230
1.0
 40
0.1684893796
 41
-1.297231961706691
 42
-1.058962528484203
  0
LINE
  5
C7
330
69
100
AcDbEntity
  8
$DDT_AUDIT_GENERATED_(9F)
  6
Continuous
 62
     7
100
AcDbLine
 10
36.321494199
 20
517.2154864687
 30
0.0
 11
36.321494199
 21
517.4178485166
 31
0.0
  0
LINE
  5
C8
330
69
100
AcDbEntity
  8
$DDT_AUDIT_GENERATED_(9F)
  6
Continuous
 62
     7
100
AcDbLine
 10
35.8377784256
 20
517.389453637
 30
0.0
 11
36.1283090337
 21
517.2067648166
 31
0.0
  0
LINE
  5
C9
330
69
100
AcDbEntity
  8
$DDT_AUDIT_GENERATED_(9F)
  6
Continuous
 62
     7
100
AcDbLine
 10
36.0284522108
 20
517.3997544723
 30
0.0
 11
36.321494199
 21
517.2154864687
 31
0.0
  0
ARC
  5
CA
330
69
100
AcDbEntity
  8
$DDT_AUDIT_GENERATED_(9F)
  6
Continuous
 62
     7
100
AcDbCircle
 10
34.0250919847
 20
567.6071215854
 30
0.0
 40
50.4448913429332
100
AcDbArc
 50
269.8864189901
 51
270.1135810099
  0
ELLIPSE
  5
CB
330
69
100
AcDbEntity
  8
$DDT_AUDIT_GENERATED_(9F)
  6
Continuous
 62
     7
100
AcDbEllipse
 10
34.0250919847
 20
518.5943899721
 30
0.0
 11
8.500000000005839
 21
-2.359223927328458E-13
 31
0.0
210
0.0
220
0.0
230
1.0
 40
0.1684893796
 41
4.724153957672949
 42
4.962423390895755
  0
LINE
  5
CC
330
69
100
AcDbEntity
  8
$DDT_AUDIT_GENERATED_(9F)
  6
Continuous
 62
     7
100
AcDbLine
 10
33.9250919847
 20
517.3443254561
 30
0.0
 11
33.9250919847
 21
517.1623293606
 31
0.0
  0
LINE
  5
CD
330
69
100
AcDbEntity
  8
$DDT_AUDIT_GENERATED_(9F)
  6
Continuous
 62
     7
100
AcDbLine
 10
34.1250919847
 20
517.3443254561
 30
0.0
 11
34.1250919847
 21
517.1623293606
 31
0.0
  0
ELLIPSE
  5
CE
330
69
100
AcDbEntity
  8
$DDT_AUDIT_GENERATED_(9F)
  6
Continuous
 62
     7
100
AcDbEllipse
 10
34.0250918715
 20
518.5943899008
 30
0.0
 11
-8.499999766431749
 21
1.897640378167864E-8
 31
0.0
210
0.0
220
0.0
230
1.0
 40
0.1684893758
 41
1.297231968209985
 42
1.320761923392282
  0
ELLIPSE
  5
CF
330
69
100
AcDbEntity
  8
$DDT_AUDIT_GENERATED_(9F)
  6
Continuous
 62
     7
100
AcDbEllipse
 10
34.0250919847
 20
518.5943899721
 30
0.0
 11
-8.499999999998746
 21
6.938893903907228E-14
 31
0.0
210
0.0
220
0.0
230
1.0
 40
0.1684893796
 41
1.320761916283845
 42
1.559031349506829
  0
LINE
  5
D0
330
69
100
AcDbEntity
  8
$DDT_AUDIT_GENERATED_(9F)
  6
Continuous
 62
     7
100
AcDbLine
 10
31.7286897705
 20
517.2154864687
 30
0.0
 11
31.7286897705
 21
517.4178485166
 31
0.0
  0
LINE
  5
D1
330
69
100
AcDbEntity
  8
$DDT_AUDIT_GENERATED_(9F)
  6
Continuous
 62
     7
100
AcDbLine
 10
32.0217317586
 20
517.3997544723
 30
0.0
 11
31.7286897705
 21
517.2154864687
 31
0.0
  0
LINE
  5
D2
330
69
100
AcDbEntity
  8
$DDT_AUDIT_GENERATED_(9F)
  6
Continuous
 62
     7
100
AcDbLine
 10
32.2124055438
 20
517.389453637
 30
0.0
 11
31.9218749357
 21
517.2067648166
 31
0.0
  0
ELLIPSE
  5
D3
330
69
100
AcDbEntity
  8
$DDT_AUDIT_GENERATED_(9F)
  6
Continuous
 62
     7
100
AcDbEllipse
 10
34.0250917488
 20
518.5943899032
 30
0.0
 11
-8.499999705149758
 21
3.545327920129182E-8
 31
0.0
210
0.0
220
0.0
230
1.0
 40
0.1684893772
 41
1.035432586303893
 42
1.058962541533061
  0
ELLIPSE
  5
D4
330
69
100
AcDbEntity
  8
$DDT_AUDIT_GENERATED_(9F)
  6
Continuous
 62
     7
100
AcDbEllipse
 10
34.0250919847
 20
518.5943899721
 30
0.0
 11
-8.500000000019339
 21
-1.887379141862766E-12
 31
0.0
210
0.0
220
0.0
230
1.0
 40
0.1684893796
 41
1.058962528484154
 42
1.297231961706657
  0
LINE
  5
D5
330
69
100
AcDbEntity
  8
$DDT_AUDIT_GENERATED_(9F)
  6
Continuous
 62
     7
100
AcDbLine
 10
29.6887835722
 20
517.3626135718
 30
0.0
 11
29.6887835722
 21
517.6388799219
 31
0.0
  0
LINE
  5
D6
330
69
100
AcDbEntity
  8
$DDT_AUDIT_GENERATED_(9F)
  6
Continuous
 62
     7
100
AcDbLine
 10
30.3256707493
 20
517.5484777361
 30
0.0
 11
29.6887835722
 21
517.3626135718
 31
0.0
  0
LINE
  5
D7
330
69
100
AcDbEntity
  8
$DDT_AUDIT_GENERATED_(9F)
  6
Continuous
 62
     7
100
AcDbLine
 10
30.4894729417
 20
517.5288847329
 30
0.0
 11
29.8619886529
 21
517.3457646338
 31
0.0
  0
ELLIPSE
  5
D8
330
69
100
AcDbEntity
  8
$DDT_AUDIT_GENERATED_(9F)
  6
Continuous
 62
     7
100
AcDbEllipse
 10
34.0250916505
 20
518.5943899158
 30
0.0
 11
-8.499999645559704
 21
4.094884153982292E-8
 31
0.0
210
0.0
220
0.0
230
1.0
 40
0.1684893796
 41
0.7736332004963956
 42
0.7971631557266653
  0
ELLIPSE
  5
D9
330
69
100
AcDbEntity
  8
$DDT_AUDIT_GENERATED_(9F)
  6
Continuous
 62
     7
100
AcDbEllipse
 10
34.0250919847
 20
518.5943899721
 30
0.0
 11
-8.500000000007928
 21
-1.262878690511116E-12
 31
0.0
210
0.0
220
0.0
230
1.0
 40
0.1684893796
 41
0.7971631406852566
 42
1.035432573908062
  0
LINE
  5
DA
330
69
100
AcDbEntity
  8
$DDT_AUDIT_GENERATED_(9F)
  6
Continuous
 62
     7
100
AcDbLine
 10
27.9443896261
 20
517.5936842009
 30
0.0
 11
27.9443896261
 21
517.9834196478
 31
0.0
  0
LINE
  5
DB
330
69
100
AcDbEntity
  8
$DDT_AUDIT_GENERATED_(9F)
  6
Continuous
 62
     7
100
AcDbLine
 10
28.9988581655
 20
517.7713509509
 30
0.0
 11
27.9443896261
 21
517.5936842009
 31
0.0
  0
LINE
  5
DC
330
69
100
AcDbEntity
  8
$DDT_AUDIT_GENERATED_(9F)
  6
Continuous
 62
     7
100
AcDbLine
 10
29.1213900325
 20
517.744340276
 30
0.0
 11
28.0858109823
 21
517.5698562043
 31
0.0
  0
ELLIPSE
  5
DD
330
69
100
AcDbEntity
  8
$DDT_AUDIT_GENERATED_(9F)
  6
Continuous
 62
     7
100
AcDbEllipse
 10
34.0250916055
 20
518.5943899352
 30
0.0
 11
-8.499999616873161
 21
3.287220495806764E-8
 31
0.0
210
0.0
220
0.0
230
1.0
 40
0.1684893817
 41
0.5118338098110079
 42
0.5353637649932818
  0
ELLIPSE
  5
DE
330
69
100
AcDbEntity
  8
$DDT_AUDIT_GENERATED_(9F)
  6
Continuous
 62
     7
100
AcDbEllipse
 10
34.0250919847
 20
518.5943899721
 30
0.0
 11
-8.499999999997495
 21
5.551115123125783E-14
 31
0.0
210
0.0
220
0.0
230
1.0
 40
0.1684893796
 41
0.5353637528864352
 42
0.7736331861094575
  0
LINE
  5
DF
330
69
100
AcDbEntity
  8
$DDT_AUDIT_GENERATED_(9F)
  6
Continuous
 62
     7
100
AcDbLine
 10
26.6143854969
 20
517.8929512746
 30
0.0
 11
26.6143854969
 21
518.2423785169
 31
0.0
  0
LINE
  5
E0
330
69
100
AcDbEntity
  8
$DDT_AUDIT_GENERATED_(9F)
  6
Continuous
 62
     7
100
AcDbLine
 10
28.1423490359
 20
518.0415875777
 30
0.0
 11
26.6143854969
 21
517.8929512746
 31
0.0
  0
LINE
  5
E1
330
69
100
AcDbEntity
  8
$DDT_AUDIT_GENERATED_(9F)
  6
Continuous
 62
     7
100
AcDbLine
 10
28.2138875408
 20
518.0096357011
 30
0.0
 11
26.7143854969
 21
517.863768058
 31
0.0
  0
ELLIPSE
  5
E2
330
69
100
AcDbEntity
  8
$DDT_AUDIT_GENERATED_(9F)
  6
Continuous
 62
     7
100
AcDbEllipse
 10
34.0250915287
 20
518.5943899515
 30
0.0
 11
-8.499999543723183
 21
2.048901326379138E-8
 31
0.0
210
0.0
220
0.0
230
1.0
 40
0.1684893836
 41
0.2500344175335341
 42
0.2735643727631271
  0
ELLIPSE
  5
E3
330
69
100
AcDbEntity
  8
$DDT_AUDIT_GENERATED_(9F)
  6
Continuous
 62
     7
100
AcDbEllipse
 10
34.0250919847
 20
518.5943899721
 30
0.0
 11
-8.500000000024084
 21
-2.040034807748725E-12
 31
0.0
210
0.0
220
0.0
230
1.0
 40
0.1684893796
 41
0.2735643650868319
 42
0.5118337983094463
  0
LINE
  5
E4
330
69
100
AcDbEntity
  8
$DDT_AUDIT_GENERATED_(9F)
  6
Continuous
 62
     7
100
AcDbLine
 10
25.7894087681
 20
518.2400202364
 30
0.0
 11
25.7894087681
 21
518.5775410341
 31
0.0
  0
LINE
  5
E5
330
69
100
AcDbEntity
  8
$DDT_AUDIT_GENERATED_(9F)
  6
Continuous
 62
     7
100
AcDbLine
 10
27.7877588437
 20
518.3302389343
 30
0.0
 11
25.7894087681
 21
518.2400202364
 31
0.0
  0
LINE
  5
E6
330
69
100
AcDbEntity
  8
$DDT_AUDIT_GENERATED_(9F)
  6
Continuous
 62
     7
100
AcDbLine
 10
27.8039988135
 20
518.2960855054
 30
0.0
 11
25.8411725771
 21
518.2074705878
 31
0.0
  0
ARC
  5
E7
330
69
100
AcDbEntity
  8
$DDT_AUDIT_GENERATED_(9F)
  6
Continuous
 62
     7
100
AcDbCircle
 10
25.7669672443
 20
518.5943899721
 30
0.0
 40
0.2418745645457476
100
AcDbArc
 50
176.0055515154
 51
183.9944484847
  0
ELLIPSE
  5
E8
330
69
100
AcDbEntity
  8
$DDT_AUDIT_GENERATED_(9F)
  6
Continuous
 62
     7
100
AcDbEllipse
 10
34.0250919848
 20
518.5943899721
 30
0.0
 11
-8.500000000030228
 21
-6.938893903907228E-13
 31
0.0
210
0.0
220
0.0
230
1.0
 40
0.1684893796
 41
0.0117649772880648
 42
0.2500344105106068
  0
ARC
  5
E9
330
69
100
AcDbEntity
  8
$DDT_AUDIT_GENERATED_(9F)
  6
Continuous
 62
     7
100
AcDbCircle
 10
27.9532985175
 20
518.5943899721
 30
0.0
 40
0.1782047878052384
100
AcDbArc
 50
174.5746847464
 51
180.0
  0
LINE
  5
EA
330
69
100
AcDbEntity
  8
$DDT_AUDIT_GENERATED_(9F)
  6
Continuous
 62
     7
100
AcDbLine
 10
27.7758920359
 20
518.61123891
 30
0.0
 11
27.7758920359
 21
518.8590767558
 31
0.0
  0
LINE
  5
EB
330
69
100
AcDbEntity
  8
$DDT_AUDIT_GENERATED_(9F)
  6
Continuous
 62
     7
100
AcDbLine
 10
27.7758920359
 20
518.61123891
 30
0.0
 11
25.5256802404
 21
518.61123891
 31
0.0
  0
LINE
  5
EC
330
69
100
AcDbEntity
  8
$DDT_AUDIT_GENERATED_(9F)
  6
Continuous
 62
     7
100
AcDbLine
 10
27.7750919847
 20
518.5775410341
 30
0.0
 11
25.5256802404
 21
518.5775410341
 31
0.0
  0
ELLIPSE
  5
ED
330
69
100
AcDbEntity
  8
$DDT_AUDIT_GENERATED_(9F)
  6
Continuous
 62
     7
100
AcDbEllipse
 10
34.0250919848
 20
518.5943899721
 30
0.0
 11
-8.500000000032939
 21
1.235123114895487E-12
 31
0.0
210
0.0
220
0.0
230
1.0
 40
0.1684893796
 41
6.178878524637765
 42
6.271420329891559
  0
ELLIPSE
  5
EE
330
69
100
AcDbEntity
  8
$DDT_AUDIT_GENERATED_(9F)
  6
Continuous
 62
     7
100
AcDbEllipse
 10
34.0250919637
 20
518.594389973
 30
0.0
 11
-6.249999978928312
 21
-9.234557563075897E-10
 31
0.0
210
0.0
220
0.0
230
1.0
 40
0.1684893798
 41
-0.2778000710333552
 42
-0.2457987054869033
  0
LINE
  5
EF
330
69
100
AcDbEntity
  8
$DDT_AUDIT_GENERATED_(9F)
  6
Continuous
 62
     7
100
AcDbLine
 10
28.0147102651
 20
518.8831815346
 30
0.0
 11
28.0147102651
 21
519.1596087328
 31
0.0
  0
LINE
  5
F0
330
69
100
AcDbEntity
  8
$DDT_AUDIT_GENERATED_(9F)
  6
Continuous
 62
     7
100
AcDbLine
 10
28.0147102651
 20
518.8831815346
 30
0.0
 11
26.0243655594
 21
518.9730388173
 31
0.0
  0
LINE
  5
F1
330
69
100
AcDbEntity
  8
$DDT_AUDIT_GENERATED_(9F)
  6
Continuous
 62
     7
100
AcDbLine
 10
27.962946456
 20
518.850631886
 30
0.0
 11
25.9472896914
 21
518.9416319219
 31
0.0
  0
ELLIPSE
  5
F2
330
69
100
AcDbEntity
  8
$DDT_AUDIT_GENERATED_(9F)
  6
Continuous
 62
     7
100
AcDbEllipse
 10
34.0250920464
 20
518.5943899661
 30
0.0
 11
-6.250000062300087
 21
5.354633403342746E-9
 31
0.0
210
0.0
220
0.0
230
1.0
 40
0.1684893791
 41
-0.5395994556398511
 42
-0.5075980903314257
  0
LINE
  5
F3
330
69
100
AcDbEntity
  8
$DDT_AUDIT_GENERATED_(9F)
  6
Continuous
 62
     7
100
AcDbLine
 10
28.6631260757
 20
519.1354434914
 30
0.0
 11
28.6631260757
 21
519.4739962848
 31
0.0
  0
LINE
  5
F4
330
69
100
AcDbEntity
  8
$DDT_AUDIT_GENERATED_(9F)
  6
Continuous
 62
     7
100
AcDbLine
 10
28.6631260757
 20
519.1354434914
 30
0.0
 11
27.109259102
 21
519.286599613
 31
0.0
  0
LINE
  5
F5
330
69
100
AcDbEntity
  8
$DDT_AUDIT_GENERATED_(9F)
  6
Continuous
 62
     7
100
AcDbLine
 10
28.5631260757
 20
519.1062602749
 30
0.0
 11
26.9889462419
 21
519.2593923784
 31
0.0
  0
ELLIPSE
  5
F6
330
69
100
AcDbEntity
  8
$DDT_AUDIT_GENERATED_(9F)
  6
Continuous
 62
     7
100
AcDbEllipse
 10
34.0250920257
 20
518.5943899652
 30
0.0
 11
-6.25000004348503
 21
5.032446681596525E-9
 31
0.0
210
0.0
220
0.0
230
1.0
 40
0.1684893796
 41
-0.8013988436127217
 42
-0.7693974782704958
  0
LINE
  5
F7
330
69
100
AcDbEntity
  8
$DDT_AUDIT_GENERATED_(9F)
  6
Continuous
 62
     7
100
AcDbLine
 10
29.6769510021
 20
519.3508335451
 30
0.0
 11
29.6769510021
 21
519.6668999889
 31
0.0
  0
LINE
  5
F8
330
69
100
AcDbEntity
  8
$DDT_AUDIT_GENERATED_(9F)
  6
Continuous
 62
     7
100
AcDbLine
 10
29.6769510021
 20
519.3508335451
 30
0.0
 11
28.5640455865
 21
519.5383462881
 31
0.0
  0
LINE
  5
F9
330
69
100
AcDbEntity
  8
$DDT_AUDIT_GENERATED_(9F)
  6
Continuous
 62
     7
100
AcDbLine
 10
29.5355296458
 20
519.3270055485
 30
0.0
 11
28.4091132633
 21
519.5167947459
 31
0.0
  0
ELLIPSE
  5
FA
330
69
100
AcDbEntity
  8
$DDT_AUDIT_GENERATED_(9F)
  6
Continuous
 62
     7
100
AcDbEllipse
 10
34.025091954
 20
518.5943899811
 30
0.0
 11
-6.249999961632539
 21
-4.624453597834588E-9
 31
0.0
210
0.0
220
0.0
230
1.0
 40
0.1684893791
 41
-1.063198236276134
 42
-1.031196870628354
  0
LINE
  5
FB
330
69
100
AcDbEntity
  8
$DDT_AUDIT_GENERATED_(9F)
  6
Continuous
 62
     7
100
AcDbLine
 10
30.9870945507
 20
519.5146732193
 30
0.0
 11
30.9870945507
 21
519.7708312027
 31
0.0
  0
LINE
  5
FC
330
69
100
AcDbEntity
  8
$DDT_AUDIT_GENERATED_(9F)
  6
Continuous
 62
     7
100
AcDbLine
 10
30.9870945507
 20
519.5146732193
 30
0.0
 11
30.2818456444
 21
519.7204875351
 31
0.0
  0
LINE
  5
FD
330
69
100
AcDbEntity
  8
$DDT_AUDIT_GENERATED_(9F)
  6
Continuous
 62
     7
100
AcDbLine
 10
30.81388947
 20
519.4978242813
 30
0.0
 11
30.1019004445
 21
519.7056055807
 31
0.0
  0
ELLIPSE
  5
FE
330
69
100
AcDbEntity
  8
$DDT_AUDIT_GENERATED_(9F)
  6
Continuous
 62
     7
100
AcDbEllipse
 10
34.0250919981
 20
518.5943899637
 30
0.0
 11
-6.250000027573415
 21
2.239444740759211E-9
 31
0.0
210
0.0
220
0.0
230
1.0
 40
0.1684893802
 41
-1.324997620582631
 42
-1.292996255224268
  0
LINE
  5
FF
330
69
100
AcDbEntity
  8
$DDT_AUDIT_GENERATED_(9F)
  6
Continuous
 62
     7
100
AcDbLine
 10
32.504272604
 20
519.615797111
 30
0.0
 11
32.504272604
 21
519.8405367034
 31
0.0
  0
LINE
  5
100
330
69
100
AcDbEntity
  8
$DDT_AUDIT_GENERATED_(9F)
  6
Continuous
 62
     7
100
AcDbLine
 10
32.504272604
 20
519.615797111
 30
0.0
 11
32.1648859676
 21
519.8292071358
 31
0.0
  0
LINE
  5
101
330
69
100
AcDbEntity
  8
$DDT_AUDIT_GENERATED_(9F)
  6
Continuous
 62
     7
100
AcDbLine
 10
32.3110874387
 20
519.607075459
 30
0.0
 11
31.9698977888
 21
519.8216192383
 31
0.0
  0
ARC
  5
102
330
69
100
AcDbEntity
  8
$DDT_AUDIT_GENERATED_(9F)
  6
Continuous
 62
     7
100
AcDbCircle
 10
34.0250919847
 20
482.5577360129
 30
0.0
 40
37.089712589821
100
AcDbArc
 50
89.8455209142
 51
90.1544790858
  0
LINE
  5
103
330
69
100
AcDbEntity
  8
$DDT_AUDIT_GENERATED_(9F)
  6
Continuous
 62
     7
100
AcDbLine
 10
34.1250919847
 20
519.6473137942
 30
0.0
 11
34.1250919847
 21
519.8630100443
 31
0.0
  0
LINE
  5
104
330
69
100
AcDbEntity
  8
$DDT_AUDIT_GENERATED_(9F)
  6
Continuous
 62
     7
100
AcDbLine
 10
33.9250919847
 20
519.6473137942
 30
0.0
 11
33.9250919847
 21
519.8630100443
 31
0.0
  0
ELLIPSE
  5
105
330
69
100
AcDbEntity
  8
$DDT_AUDIT_GENERATED_(9F)
  6
Continuous
 62
     7
100
AcDbEllipse
 10
34.0250919664
 20
518.5943899605
 30
0.0
 11
6.250000037972201
 21
3.079494992341836E-9
 31
0.0
210
0.0
220
0.0
230
1.0
 40
0.1684893804
 41
1.292996254843116
 42
1.324997620151467
  0
LINE
  5
106
330
69
100
AcDbEntity
  8
$DDT_AUDIT_GENERATED_(9F)
  6
Continuous
 62
     7
100
AcDbLine
 10
35.7390965308
 20
519.607075459
 30
0.0
 11
36.0802861806
 21
519.8216192383
 31
0.0
  0
LINE
  5
107
330
69
100
AcDbEntity
  8
$DDT_AUDIT_GENERATED_(9F)
  6
Continuous
 62
     7
100
AcDbLine
 10
35.5459113655
 20
519.615797111
 30
0.0
 11
35.8852980019
 21
519.8292071358
 31
0.0
  0
LINE
  5
108
330
69
100
AcDbEntity
  8
$DDT_AUDIT_GENERATED_(9F)
  6
Continuous
 62
     7
100
AcDbLine
 10
35.5459113655
 20
519.615797111
 30
0.0
 11
35.5459113655
 21
519.8405367034
 31
0.0
  0
ELLIPSE
  5
109
330
69
100
AcDbEntity
  8
$DDT_AUDIT_GENERATED_(9F)
  6
Continuous
 62
     7
100
AcDbEllipse
 10
34.025091956
 20
518.5943899637
 30
0.0
 11
6.250000035912473
 21
4.331826564119012E-9
 31
0.0
210
0.0
220
0.0
230
1.0
 40
0.16848938
 41
1.031196866419332
 42
1.063198231762788
  0
LINE
  5
10A
330
69
100
AcDbEntity
  8
$DDT_AUDIT_GENERATED_(9F)
  6
Continuous
 62
     7
100
AcDbLine
 10
37.2362944995
 20
519.4978242813
 30
0.0
 11
37.9482835249
 21
519.7056055807
 31
0.0
  0
LINE
  5
10B
330
69
100
AcDbEntity
  8
$DDT_AUDIT_GENERATED_(9F)
  6
Continuous
 62
     7
100
AcDbLine
 10
37.0630894187
 20
519.5146732193
 30
0.0
 11
37.768338325
 21
519.7204875351
 31
0.0
  0
LINE
  5
10C
330
69
100
AcDbEntity
  8
$DDT_AUDIT_GENERATED_(9F)
  6
Continuous
 62
     7
100
AcDbLine
 10
37.0630894187
 20
519.5146732193
 30
0.0
 11
37.0630894187
 21
519.7708312027
 31
0.0
  0
ELLIPSE
  5
10D
330
69
100
AcDbEntity
  8
$DDT_AUDIT_GENERATED_(9F)
  6
Continuous
 62
     7
100
AcDbEllipse
 10
34.0250919441
 20
518.5943899652
 30
0.0
 11
6.250000043116483
 21
4.989300639302030E-9
 31
0.0
210
0.0
220
0.0
230
1.0
 40
0.1684893796
 41
0.7693974782915878
 42
0.8013988436350536
  0
LINE
  5
10E
330
69
100
AcDbEntity
  8
$DDT_AUDIT_GENERATED_(9F)
  6
Continuous
 62
     7
100
AcDbLine
 10
38.5146543236
 20
519.3270055485
 30
0.0
 11
39.6410707061
 21
519.5167947459
 31
0.0
  0
LINE
  5
10F
330
69
100
AcDbEntity
  8
$DDT_AUDIT_GENERATED_(9F)
  6
Continuous
 62
     7
100
AcDbLine
 10
38.3732329674
 20
519.3508335451
 30
0.0
 11
39.486138383
 21
519.5383462881
 31
0.0
  0
LINE
  5
110
330
69
100
AcDbEntity
  8
$DDT_AUDIT_GENERATED_(9F)
  6
Continuous
 62
     7
100
AcDbLine
 10
38.3732329674
 20
519.3508335451
 30
0.0
 11
38.3732329674
 21
519.6668999889
 31
0.0
  0
ELLIPSE
  5
111
330
69
100
AcDbEntity
  8
$DDT_AUDIT_GENERATED_(9F)
  6
Continuous
 62
     7
100
AcDbEllipse
 10
34.0250919345
 20
518.5943899672
 30
0.0
 11
6.250000050775346
 21
4.365008354767497E-9
 31
0.0
210
0.0
220
0.0
230
1.0
 40
0.1684893792
 41
0.5075980907991499
 42
0.5395994561412434
  0
LINE
  5
112
330
69
100
AcDbEntity
  8
$DDT_AUDIT_GENERATED_(9F)
  6
Continuous
 62
     7
100
AcDbLine
 10
39.4870578937
 20
519.1062602749
 30
0.0
 11
41.0612377276
 21
519.2593923784
 31
0.0
  0
LINE
  5
113
330
69
100
AcDbEntity
  8
$DDT_AUDIT_GENERATED_(9F)
  6
Continuous
 62
     7
100
AcDbLine
 10
39.3870578937
 20
519.1354434914
 30
0.0
 11
40.9409248675
 21
519.286599613
 31
0.0
  0
LINE
  5
114
330
69
100
AcDbEntity
  8
$DDT_AUDIT_GENERATED_(9F)
  6
Continuous
 62
     7
100
AcDbLine
 10
39.3870578937
 20
519.1354434914
 30
0.0
 11
39.3870578937
 21
519.4739962848
 31
0.0
  0
ELLIPSE
  5
115
330
69
100
AcDbEntity
  8
$DDT_AUDIT_GENERATED_(9F)
  6
Continuous
 62
     7
100
AcDbEllipse
 10
34.0250919538
 20
518.5943899707
 30
0.0
 11
6.250000030936179
 21
1.382921555048711E-9
 31
0.0
210
0.0
220
0.0
230
1.0
 40
0.1684893792
 41
0.2457987044173139
 42
0.2778000698260331
  0
LINE
  5
116
330
69
100
AcDbEntity
  8
$DDT_AUDIT_GENERATED_(9F)
  6
Continuous
 62
     7
100
AcDbLine
 10
40.0872375134
 20
518.850631886
 30
0.0
 11
42.102894278
 21
518.9416319219
 31
0.0
  0
LINE
  5
117
330
69
100
AcDbEntity
  8
$DDT_AUDIT_GENERATED_(9F)
  6
Continuous
 62
     7
100
AcDbLine
 10
40.0354737044
 20
518.8831815346
 30
0.0
 11
42.0258184101
 21
518.9730388173
 31
0.0
  0
LINE
  5
118
330
69
100
AcDbEntity
  8
$DDT_AUDIT_GENERATED_(9F)
  6
Continuous
 62
     7
100
AcDbLine
 10
40.0354737044
 20
518.8831815346
 30
0.0
 11
40.0354737044
 21
519.1596087328
 31
0.0
  0
ELLIPSE
  5
119
330
69
100
AcDbEntity
  8
$DDT_AUDIT_GENERATED_(9F)
  6
Continuous
 62
     7
100
AcDbEllipse
 10
34.0250919847
 20
518.5943899721
 30
0.0
 11
-2.749999999997998
 21
1.762479051592436E-12
 31
0.0
210
0.0
220
0.0
230
1.0
 40
0.1684893796
 41
3.141592653589793
 42
3.205272045846927
  0
LINE
  5
11A
330
69
100
AcDbEntity
  8
$DDT_AUDIT_GENERATED_(9F)
  6
Continuous
 62
     7
100
AcDbLine
 10
36.7695181543
 20
518.8273134972
 30
0.0
 11
36.7695181543
 21
518.6238756135
 31
0.0
  0
LINE
  5
11B
330
69
100
AcDbEntity
  8
$DDT_AUDIT_GENERATED_(9F)
  6
Continuous
 62
     7
100
AcDbLine
 10
36.7750919847
 20
518.5649043307
 30
0.0
 11
39.1799323408
 21
518.5649043307
 31
0.0
  0
LINE
  5
11C
330
69
100
AcDbEntity
  8
$DDT_AUDIT_GENERATED_(9F)
  6
Continuous
 62
     7
100
AcDbLine
 10
36.7695181543
 20
518.6238756135
 30
0.0
 11
39.099867385
 21
518.6238756135
 31
0.0
  0
ELLIPSE
  5
11D
330
69
100
AcDbEntity
  8
$DDT_AUDIT_GENERATED_(9F)
  6
Continuous
 62
     7
100
AcDbEllipse
 10
34.0250919878
 20
518.5943899718
 30
0.0
 11
5.249999996943301
 21
2.683270272640925E-10
 31
0.0
210
0.0
220
0.0
230
1.0
 40
0.1684893796
 41
-0.5569382850233877
 42
-0.4902592664785876
  0
LINE
  5
11E
330
69
100
AcDbEntity
  8
$DDT_AUDIT_GENERATED_(9F)
  6
Continuous
 62
     7
100
AcDbLine
 10
36.7124585083
 20
518.2989228883
 30
0.0
 11
38.4816987451
 21
518.1268158182
 31
0.0
  0
LINE
  5
11F
330
69
100
AcDbEntity
  8
$DDT_AUDIT_GENERATED_(9F)
  6
Continuous
 62
     7
100
AcDbLine
 10
36.7669917867
 20
518.3617122054
 30
0.0
 11
38.6566987451
 21
518.1778864472
 31
0.0
  0
LINE
  5
120
330
69
100
AcDbEntity
  8
$DDT_AUDIT_GENERATED_(9F)
  6
Continuous
 62
     7
100
AcDbLine
 10
38.6566987451
 20
518.5649043307
 30
0.0
 11
38.6566987451
 21
518.1778864472
 31
0.0
  0
ELLIPSE
  5
121
330
69
100
AcDbEntity
  8
$DDT_AUDIT_GENERATED_(9F)
  6
Continuous
 62
     7
100
AcDbEllipse
 10
34.0250919866
 20
518.5943899715
 30
0.0
 11
5.249999997718347
 21
2.738365090237949E-10
 31
0.0
210
0.0
220
0.0
230
1.0
 40
0.1684893795
 41
-1.08053706062878
 42
-1.013858042082996
  0
LINE
  5
122
330
69
100
AcDbEntity
  8
$DDT_AUDIT_GENERATED_(9F)
  6
Continuous
 62
     7
100
AcDbLine
 10
35.7398137544
 20
518.0350077212
 30
0.0
 11
36.4970788004
 21
517.8140134226
 31
0.0
  0
LINE
  5
123
330
69
100
AcDbEntity
  8
$DDT_AUDIT_GENERATED_(9F)
  6
Continuous
 62
     7
100
AcDbLine
 10
36.0047367638
 20
518.0756372312
 30
0.0
 11
36.8001876917
 21
517.8434990641
 31
0.0
  0
LINE
  5
124
330
69
100
AcDbEntity
  8
$DDT_AUDIT_GENERATED_(9F)
  6
Continuous
 62
     7
100
AcDbLine
 10
36.8001876917
 20
518.2903888224
 30
0.0
 11
36.8001876917
 21
517.8434990641
 31
0.0
  0
ARC
  5
125
330
69
100
AcDbEntity
  8
$DDT_AUDIT_GENERATED_(9F)
  6
Continuous
 62
     7
100
AcDbCircle
 10
34.0250919847
 20
548.8522307706
 30
0.0
 40
31.14241017400802
100
AcDbArc
 50
269.6780334557
 51
270.3219665443
  0
LINE
  5
126
330
69
100
AcDbEntity
  8
$DDT_AUDIT_GENERATED_(9F)
  6
Continuous
 62
     7
100
AcDbLine
 10
33.8500919847
 20
517.9348426157
 30
0.0
 11
33.8500919847
 21
517.7103122933
 31
0.0
  0
LINE
  5
127
330
69
100
AcDbEntity
  8
$DDT_AUDIT_GENERATED_(9F)
  6
Continuous
 62
     7
100
AcDbLine
 10
34.2000919847
 20
517.9348426157
 30
0.0
 11
34.2000919847
 21
517.7103122933
 31
0.0
  0
ELLIPSE
  5
128
330
69
100
AcDbEntity
  8
$DDT_AUDIT_GENERATED_(9F)
  6
Continuous
 62
     7
100
AcDbEllipse
 10
34.0250919836
 20
518.5943899717
 30
0.0
 11
-5.249999998584446
 21
1.732919363561791E-10
 31
0.0
210
0.0
220
0.0
230
1.0
 40
0.1684893795
 41
1.013858042027542
 42
1.08053706056452
  0
LINE
  5
129
330
69
100
AcDbEntity
  8
$DDT_AUDIT_GENERATED_(9F)
  6
Continuous
 62
     7
100
AcDbLine
 10
32.0454472056
 20
518.0756372312
 30
0.0
 11
31.2499962777
 21
517.8434990641
 31
0.0
  0
LINE
  5
12A
330
69
100
AcDbEntity
  8
$DDT_AUDIT_GENERATED_(9F)
  6
Continuous
 62
     7
100
AcDbLine
 10
32.3103702151
 20
518.0350077212
 30
0.0
 11
31.553105169
 21
517.8140134226
 31
0.0
  0
LINE
  5
12B
330
69
100
AcDbEntity
  8
$DDT_AUDIT_GENERATED_(9F)
  6
Continuous
 62
     7
100
AcDbLine
 10
31.2499962777
 20
518.2903888224
 30
0.0
 11
31.2499962777
 21
517.8434990641
 31
0.0
  0
ELLIPSE
  5
12C
330
69
100
AcDbEntity
  8
$DDT_AUDIT_GENERATED_(9F)
  6
Continuous
 62
     7
100
AcDbEllipse
 10
34.0250919816
 20
518.5943899718
 30
0.0
 11
-5.249999996855449
 21
2.647881913730998E-10
 31
0.0
210
0.0
220
0.0
230
1.0
 40
0.1684893796
 41
0.4902592664824894
 42
0.5569382850279246
  0
LINE
  5
12D
330
69
100
AcDbEntity
  8
$DDT_AUDIT_GENERATED_(9F)
  6
Continuous
 62
     7
100
AcDbLine
 10
31.2831921828
 20
518.3617122054
 30
0.0
 11
29.3934852243
 21
518.1778864472
 31
0.0
  0
LINE
  5
12E
330
69
100
AcDbEntity
  8
$DDT_AUDIT_GENERATED_(9F)
  6
Continuous
 62
     7
100
AcDbLine
 10
31.3377254612
 20
518.2989228883
 30
0.0
 11
29.5684852243
 21
518.1268158182
 31
0.0
  0
LINE
  5
12F
330
69
100
AcDbEntity
  8
$DDT_AUDIT_GENERATED_(9F)
  6
Continuous
 62
     7
100
AcDbLine
 10
29.3934852243
 20
518.5649043307
 30
0.0
 11
29.3934852243
 21
518.1778864472
 31
0.0
  0
LINE
  5
130
330
69
100
AcDbEntity
  8
$DDT_AUDIT_GENERATED_(9F)
  6
Continuous
 62
     7
100
AcDbLine
 10
31.2806658152
 20
518.8273134972
 30
0.0
 11
31.2806658152
 21
518.6238756135
 31
0.0
  0
ELLIPSE
  5
131
330
69
100
AcDbEntity
  8
$DDT_AUDIT_GENERATED_(9F)
  6
Continuous
 62
     7
100
AcDbEllipse
 10
34.0250919848
 20
518.5943899721
 30
0.0
 11
2.750000000091852
 21
1.762479051592436E-12
 31
0.0
210
0.0
220
0.0
230
1.0
 40
0.1684893796
 41
3.07791326133371
 42
3.141592653589793
  0
LINE
  5
132
330
69
100
AcDbEntity
  8
$DDT_AUDIT_GENERATED_(9F)
  6
Continuous
 62
     7
100
AcDbLine
 10
31.2806658152
 20
518.6238756135
 30
0.0
 11
28.9503165845
 21
518.6238756135
 31
0.0
  0
LINE
  5
133
330
69
100
AcDbEntity
  8
$DDT_AUDIT_GENERATED_(9F)
  6
Continuous
 62
     7
100
AcDbLine
 10
31.2750919847
 20
518.5649043307
 30
0.0
 11
28.8702516286
 21
518.5649043307
 31
0.0
  0
LINE
  5
134
330
69
100
AcDbEntity
  8
$DDT_AUDIT_GENERATED_(9F)
  6
Continuous
 62
     7
100
AcDbLine
 10
31.7358492031
 20
519.1932945991
 30
0.0
 11
31.7358492031
 21
518.8511286179
 31
0.0
  0
ELLIPSE
  5
135
330
69
100
AcDbEntity
  8
$DDT_AUDIT_GENERATED_(9F)
  6
Continuous
 62
     7
100
AcDbEllipse
 10
34.0250919847
 20
518.5943899721
 30
0.0
 11
-2.74999999994379
 21
-6.522560269672795E-12
 31
0.0
210
0.0
220
0.0
230
1.0
 40
0.1684893796
 41
-0.5872781678615517
 42
-0.4599193833460129
  0
LINE
  5
136
330
69
100
AcDbEntity
  8
$DDT_AUDIT_GENERATED_(9F)
  6
Continuous
 62
     7
100
AcDbLine
 10
31.7358492031
 20
518.8511286179
 30
0.0
 11
30.1905982429
 21
519.0014465961
 31
0.0
  0
LINE
  5
137
330
69
100
AcDbEntity
  8
$DDT_AUDIT_GENERATED_(9F)
  6
Continuous
 62
     7
100
AcDbLine
 10
31.5608492031
 20
518.8000579888
 30
0.0
 11
29.955938974
 21
518.9561794649
 31
0.0
  0
LINE
  5
138
330
69
100
AcDbEntity
  8
$DDT_AUDIT_GENERATED_(9F)
  6
Continuous
 62
     7
100
AcDbLine
 10
32.8044333456
 20
519.257576781
 30
0.0
 11
32.8044333456
 21
519.0095887095
 31
0.0
  0
ELLIPSE
  5
139
330
69
100
AcDbEntity
  8
$DDT_AUDIT_GENERATED_(9F)
  6
Continuous
 62
     7
100
AcDbEllipse
 10
34.0250919847
 20
518.5943899721
 30
0.0
 11
-2.749999999991902
 21
-1.013078509970455E-12
 31
0.0
210
0.0
220
0.0
230
1.0
 40
0.1684893796
 41
-1.110876943454875
 42
-0.9835181589405471
  0
LINE
  5
13A
330
69
100
AcDbEntity
  8
$DDT_AUDIT_GENERATED_(9F)
  6
Continuous
 62
     7
100
AcDbLine
 10
32.8044333456
 20
519.0095887095
 30
0.0
 11
32.0859443111
 21
519.2192669206
 31
0.0
  0
LINE
  5
13B
330
69
100
AcDbEntity
  8
$DDT_AUDIT_GENERATED_(9F)
  6
Continuous
 62
     7
100
AcDbLine
 10
32.5013244543
 20
518.980103068
 30
0.0
 11
31.7632012158
 21
519.1955111715
 31
0.0
  0
ARC
  5
13C
330
69
100
AcDbEntity
  8
$DDT_AUDIT_GENERATED_(9F)
  6
Continuous
 62
     7
100
AcDbCircle
 10
34.0250919847
 20
502.7683743221
 30
0.0
 40
16.2893623703224
100
AcDbArc
 50
89.3844477106
 51
90.6155522894
  0
LINE
  5
13D
330
69
100
AcDbEntity
  8
$DDT_AUDIT_GENERATED_(9F)
  6
Continuous
 62
     7
100
AcDbLine
 10
34.2000919847
 20
519.0567966346
 30
0.0
 11
34.2000919847
 21
519.281326957
 31
0.0
  0
LINE
  5
13E
330
69
100
AcDbEntity
  8
$DDT_AUDIT_GENERATED_(9F)
  6
Continuous
 62
     7
100
AcDbLine
 10
33.8500919847
 20
519.0567966346
 30
0.0
 11
33.8500919847
 21
519.281326957
 31
0.0
  0
ELLIPSE
  5
13F
330
69
100
AcDbEntity
  8
$DDT_AUDIT_GENERATED_(9F)
  6
Continuous
 62
     7
100
AcDbEllipse
 10
34.0250919847
 20
518.5943899721
 30
0.0
 11
2.749999999993596
 21
1.387778780781446E-13
 31
0.0
210
0.0
220
0.0
230
1.0
 40
0.1684893796
 41
0.9835181589402844
 42
1.110876943454551
  0
LINE
  5
140
330
69
100
AcDbEntity
  8
$DDT_AUDIT_GENERATED_(9F)
  6
Continuous
 62
     7
100
AcDbLine
 10
35.2457506238
 20
519.257576781
 30
0.0
 11
35.2457506238
 21
519.0095887095
 31
0.0
  0
LINE
  5
141
330
69
100
AcDbEntity
  8
$DDT_AUDIT_GENERATED_(9F)
  6
Continuous
 62
     7
100
AcDbLine
 10
35.5488595152
 20
518.980103068
 30
0.0
 11
36.2869827537
 21
519.1955111715
 31
0.0
  0
LINE
  5
142
330
69
100
AcDbEntity
  8
$DDT_AUDIT_GENERATED_(9F)
  6
Continuous
 62
     7
100
AcDbLine
 10
35.2457506238
 20
519.0095887095
 30
0.0
 11
35.9642396584
 21
519.2192669206
 31
0.0
  0
ELLIPSE
  5
143
330
69
100
AcDbEntity
  8
$DDT_AUDIT_GENERATED_(9F)
  6
Continuous
 62
     7
100
AcDbEllipse
 10
34.0250919847
 20
518.5943899721
 30
0.0
 11
2.749999999987323
 21
2.359223927328458E-13
 31
0.0
210
0.0
220
0.0
230
1.0
 40
0.1684893796
 41
0.4599193833422896
 42
0.5872781678566337
  0
LINE
  5
144
330
69
100
AcDbEntity
  8
$DDT_AUDIT_GENERATED_(9F)
  6
Continuous
 62
     7
100
AcDbLine
 10
36.3143347663
 20
519.1932945991
 30
0.0
 11
36.3143347663
 21
518.8511286179
 31
0.0
  0
LINE
  5
145
330
69
100
AcDbEntity
  8
$DDT_AUDIT_GENERATED_(9F)
  6
Continuous
 62
     7
100
AcDbLine
 10
36.4893347663
 20
518.8000579888
 30
0.0
 11
38.0942449955
 21
518.9561794649
 31
0.0
  0
LINE
  5
146
330
69
100
AcDbEntity
  8
$DDT_AUDIT_GENERATED_(9F)
  6
Continuous
 62
     7
100
AcDbLine
 10
36.3143347663
 20
518.8511286179
 30
0.0
 11
37.8595857265
 21
519.0014465961
 31
0.0
  0
LINE
  5
147
330
69
100
AcDbEntity
  8
$DDT_AUDIT_GENERATED_(9F)
  6
Continuous
 62
     7
100
AcDbLine
 10
25.0250919847
 20
519.545085171
 30
0.0
 11
25.0250919847
 21
518.3972492783
 31
0.0
  0
LINE
  5
148
330
69
100
AcDbEntity
  8
$DDT_AUDIT_GENERATED_(9F)
  6
Continuous
 62
     7
100
AcDbLine
 10
43.0250919847
 20
518.3972492783
 30
0.0
 11
43.0250919847
 21
519.545085171
 31
0.0
  0
LINE
  5
149
330
69
100
AcDbEntity
  8
$DDT_AUDIT_GENERATED_(9F)
  6
Continuous
 62
     7
100
AcDbLine
 10
27.7750919847
 20
518.5943899721
 30
0.0
 11
27.7750919847
 21
518.3972492783
 31
0.0
  0
LINE
  5
14A
330
69
100
AcDbEntity
  8
$DDT_AUDIT_GENERATED_(9F)
  6
Continuous
 62
     7
100
AcDbLine
 10
40.2750919847
 20
518.3972492783
 30
0.0
 11
40.2750919847
 21
518.5943899721
 31
0.0
  0
LINE
  5
14B
330
69
100
AcDbEntity
  8
$DDT_AUDIT_GENERATED_(9F)
  6
Continuous
 62
     7
100
AcDbLine
 10
31.2750919847
 20
518.5943899721
 30
0.0
 11
31.2750919847
 21
518.3972492783
 31
0.0
  0
LINE
  5
14C
330
69
100
AcDbEntity
  8
$DDT_AUDIT_GENERATED_(9F)
  6
Continuous
 62
     7
100
AcDbLine
 10
36.7750919847
 20
518.3972492783
 30
0.0
 11
36.7750919847
 21
518.5943899721
 31
0.0
  0
LINE
  5
14D
330
69
100
AcDbEntity
  8
$DDT_AUDIT_GENERATED_(9F)
  6
Continuous
 62
     7
100
AcDbLine
 10
33.5054620408
 20
518.7487620901
 30
0.0
 11
33.5054620408
 21
518.5943899721
 31
0.0
  0
LINE
  5
14E
330
69
100
AcDbEntity
  8
$DDT_AUDIT_GENERATED_(9F)
  6
Continuous
 62
     7
100
AcDbLine
 10
34.5447219286
 20
518.5943899721
 30
0.0
 11
34.5447219286
 21
518.7487620901
 31
0.0
  0
ARC
  5
150
330
69
100
AcDbEntity
  8
$DDT_AUDIT_GENERATED_(14F)
  6
Continuous
 62
     7
100
AcDbCircle
 10
32.7913367841
 20
600.0012226395
 30
0.0
 40
2.53461254256293
100
AcDbArc
 50
199.218455235
 51
262.5458662736
  0
ARC
  5
151
330
69
100
AcDbEntity
  8
$DDT_AUDIT_GENERATED_(14F)
  6
Continuous
 62
     7
100
AcDbCircle
 10
34.0246137494
 20
610.6867177146
 30
0.0
 40
13.2908054140175
100
AcDbArc
 50
263.25029579
 51
270.0017909427
  0
SPLINE
  5
152
330
69
100
AcDbEntity
  8
$DDT_AUDIT_GENERATED_(14F)
  6
Continuous
 62
     7
100
AcDbSpline
210
0.0
220
0.0
230
1.0
 70
     8
 71
     3
 72
     8
 73
     4
 74
     0
 42
0.0000000236825947
 43
0.0000000001
 40
0.1633284072010767
 40
0.1633284072010767
 40
0.1633284072010767
 40
0.1633284072010767
 40
0.1675343319793634
 40
0.1675343319793634
 40
0.1675343319793634
 40
0.1675343319793634
 10
30.47696700881618
 20
613.3771292174365
 30
0.0
 10
30.47704243002201
 20
613.377877894332
 30
0.0
 10
30.4771129635581
 20
613.3784656720313
 30
0.0
 10
30.47717863759065
 20
613.3788921401459
 30
0.0
  0
SPLINE
  5
153
330
69
100
AcDbEntity
  8
$DDT_AUDIT_GENERATED_(14F)
  6
Continuous
 62
     7
100
AcDbSpline
210
0.0
220
0.0
230
1.0
 70
     8
 71
     3
 72
     8
 73
     4
 74
     0
 42
0.0000000007699964
 43
0.0000000001
 40
0.2251355557717875
 40
0.2251355557717875
 40
0.2251355557717875
 40
0.2251355557717875
 40
0.2278341185014059
 40
0.2278341185014059
 40
0.2278341185014059
 40
0.2278341185014059
 10
29.99055593166927
 20
591.7874577731528
 30
0.0
 10
29.98763499887169
 20
591.7987832010648
 30
0.0
 10
29.9847968758597
 20
591.8101073638471
 30
0.0
 10
29.98203950932131
 20
591.8214531088912
 30
0.0
  0
SPLINE
  5
154
330
69
100
AcDbEntity
  8
$DDT_AUDIT_GENERATED_(14F)
  6
Continuous
 62
     7
100
AcDbSpline
210
0.0
220
0.0
230
1.0
 70
     8
 71
     3
 72
    43
 73
    39
 74
     0
 42
0.0000000003427622
 43
0.0000000001
 40
0.2440464224671849
 40
0.2440464224671849
 40
0.2440464224671849
 40
0.2440464224671849
 40
0.2472753239239164
 40
0.2492597981794286
 40
0.2512479375715471
 40
0.2591945313711754
 40
0.2750908379692852
 40
0.2909935194162854
 40
0.3226881965268154
 40
0.358782243935913
 40
0.3857860990476127
 40
0.4171997360685847
 40
0.432813521163641
 40
0.4484389081045714
 40
0.4562615261780836
 40
0.4640533696686296
 40
0.4794485001742112
 40
0.4948487574102522
 40
0.5102469094496362
 40
0.5141004917689134
 40
0.5179506774975455
 40
0.5256525031751431
 40
0.5333551916441431
 40
0.5411896753203571
 40
0.5568724118925817
 40
0.5725411761841346
 40
0.6038932228811924
 40
0.6195574181014513
 40
0.6274023441554781
 40
0.6352492617274061
 40
0.6531757765829547
 40
0.6619097593607571
 40
0.6706224495495094
 40
0.6967995967410575
 40
0.705536140113662
 40
0.7142327959384603
 40
0.7273091846379629
 40
0.7471790434109233
 40
0.7471790434109233
 40
0.7471790434109233
 40
0.7471790434109233
 10
29.71374553867391
 20
599.3015985394834
 30
0.0
 10
29.70968821273081
 20
599.3189479828376
 30
0.0
 10
29.70319084467019
 20
599.3471470815632
 30
0.0
 10
29.69485146076481
 20
599.3864583021916
 30
0.0
 10
29.68161985361997
 20
599.4519771684458
 30
0.0
 10
29.6553157771419
 20
599.5965565078617
 30
0.0
 10
29.61226637159772
 20
599.8150946256218
 30
0.0
 10
29.54968172628298
 20
600.1637248919509
 30
0.0
 10
29.4807025375964
 20
600.6175728060758
 30
0.0
 10
29.4441403263144
 20
601.1148999202818
 30
0.0
 10
29.45389976215655
 20
601.5979221238592
 30
0.0
 10
29.44262142592112
 20
601.9856415096647
 30
0.0
 10
29.38218505966166
 20
602.3279171702669
 30
0.0
 10
29.31867872062958
 20
602.5486690810275
 30
0.0
 10
29.24925888554203
 20
602.7318437021457
 30
0.0
 10
29.17096203867445
 20
602.9179079025611
 30
0.0
 10
29.05365868138382
 20
603.1594870240535
 30
0.0
 10
28.88698300841858
 20
603.4696719521016
 30
0.0
 10
28.75439651884473
 20
603.7168084193291
 30
0.0
 10
28.66027247462723
 20
603.8914982868527
 30
0.0
 10
28.60184507046876
 20
604.0052444214975
 30
0.0
 10
28.53950418054127
 20
604.1387625771189
 30
0.0
 10
28.47231430497299
 20
604.2873216822547
 30
0.0
 10
28.37130486413482
 20
604.4814682333425
 30
0.0
 10
28.2139386417293
 20
604.7055446521206
 30
0.0
 10
27.90098341120004
 20
605.0002228459387
 30
0.0
 10
27.44646033471339
 20
605.1829995695095
 30
0.0
 10
26.85909879073132
 20
605.2150867807464
 30
0.0
 10
26.46032274936455
 20
605.19329649549
 30
0.0
 10
25.98480564712574
 20
605.1383421481926
 30
0.0
 10
25.45444673636643
 20
605.0290741321776
 30
0.0
 10
24.88296617611321
 20
604.8654840858344
 30
0.0
 10
24.15178766130714
 20
604.6186356498994
 30
0.0
 10
23.37664634914536
 20
604.2843211771446
 30
0.0
 10
22.56865217084641
 20
603.8604167535105
 30
0.0
 10
21.99141903913505
 20
603.5334631336677
 30
0.0
 10
21.18959815282726
 20
603.0269028269583
 30
0.0
 10
20.54169392355922
 20
602.5539023606461
 30
0.0
 10
20.14937140725567
 20
602.2399259912715
 30
0.0
  0
ARC
  5
155
330
69
100
AcDbEntity
  8
$DDT_AUDIT_GENERATED_(14F)
  6
Continuous
 62
     7
100
AcDbCircle
 10
35.2526929622
 20
600.0086361577
 30
0.0
 40
2.54275046662895
100
AcDbArc
 50
277.5671573692
 51
340.6685211222
  0
ARC
  5
156
330
69
100
AcDbEntity
  8
$DDT_AUDIT_GENERATED_(14F)
  6
Continuous
 62
     7
100
AcDbCircle
 10
34.0261199143
 20
610.675263502
 30
0.0
 40
13.27935123973057
100
AcDbArc
 50
269.9952939101
 51
276.7526193572
  0
SPLINE
  5
157
330
69
100
AcDbEntity
  8
$DDT_AUDIT_GENERATED_(14F)
  6
Continuous
 62
     7
100
AcDbSpline
210
0.0
220
0.0
230
1.0
 70
     8
 71
     3
 72
     8
 73
     4
 74
     0
 42
0.0000000007538852
 43
0.0000000001
 40
0.2210332488548988
 40
0.2210332488548988
 40
0.2210332488548988
 40
0.2210332488548988
 40
0.2236880662737006
 40
0.2236880662737006
 40
0.2236880662737006
 40
0.2236880662737006
 10
38.05921642102287
 20
591.7875461106003
 30
0.0
 10
38.06213093103442
 20
591.7989213188068
 30
0.0
 10
38.0649802497523
 20
591.8103081755756
 30
0.0
 10
38.06776184881947
 20
591.8217082909074
 30
0.0
  0
SPLINE
  5
158
330
69
100
AcDbEntity
  8
$DDT_AUDIT_GENERATED_(14F)
  6
Continuous
 62
     7
100
AcDbSpline
210
0.0
220
0.0
230
1.0
 70
     8
 71
     3
 72
    66
 73
    62
 74
     0
 42
0.0000000003443708
 43
0.0000000001
 40
0.2357725841398045
 40
0.2357725841398045
 40
0.2357725841398045
 40
0.2357725841398045
 40
0.2429816606601825
 40
0.2429816606601825
 40
0.251931026330822
 40
0.251931026330822
 40
0.2698297576721011
 40
0.2698297576721011
 40
0.2787791233427407
 40
0.2877284890133802
 40
0.2966778546840205
 40
0.3220660180295962
 40
0.3373457087587871
 40
0.3526253994879787
 40
0.3679050902171702
 40
0.3679050902171702
 40
0.3847079576724525
 40
0.3984644716755526
 40
0.4122209856786535
 40
0.4259774996817535
 40
0.4259774996817535
 40
0.4446360355176385
 40
0.4534905276879544
 40
0.4623450198582703
 40
0.4711995120285861
 40
0.4711995120285861
 40
0.4889084963692187
 40
0.4889084963692187
 40
0.4977629885395345
 40
0.4977629885395345
 40
0.5066174807098511
 40
0.5066174807098511
 40
0.515471972880167
 40
0.515471972880167
 40
0.5198992189653249
 40
0.524326465050483
 40
0.5287537111356408
 40
0.5394254700344077
 40
0.5394254700344077
 40
0.554524475018333
 40
0.554524475018333
 40
0.5847224849861833
 40
0.5847224849861833
 40
0.599821489970108
 40
0.599821489970108
 40
0.6149204949540334
 40
0.6149204949540334
 40
0.6300194999379582
 40
0.6300194999379582
 40
0.637569002429923
 40
0.637569002429923
 40
0.6413437536758997
 40
0.6451185049218829
 40
0.6488932561678663
 40
0.6796453807792636
 40
0.6796453807792636
 40
0.6969088187079507
 40
0.6969088187079507
 40
0.7141722566366443
 40
0.7141722566366443
 40
0.7406403953355308
 40
0.7406403953355308
 40
0.7406403953355308
 40
0.7406403953355308
 10
38.33703764303993
 20
599.3045497878877
 30
0.0
 10
38.34616121401061
 20
599.343803226488
 30
0.0
 10
38.35488163323394
 20
599.3836313079315
 30
0.0
 10
38.3725852670757
 20
599.4743981607268
 30
0.0
 10
38.38181189944028
 20
599.5250032052116
 30
0.0
 10
38.41021469964597
 20
599.6772526382578
 30
0.0
 10
38.42998891788999
 20
599.7759068545937
 30
0.0
 10
38.45763869390002
 20
599.9262870713018
 30
0.0
 10
38.47543384656457
 20
600.0256025258152
 30
0.0
 10
38.50063015219684
 20
600.1749666761018
 30
0.0
 10
38.53781217786546
 20
600.4125323494599
 30
0.0
 10
38.57204284290948
 20
600.6818307809541
 30
0.0
 10
38.59502140466158
 20
600.9800581848409
 30
0.0
 10
38.60133574550967
 20
601.2177412786942
 30
0.0
 10
38.60030918929753
 20
601.3754026606529
 30
0.0
 10
38.59962212386663
 20
601.5413849095952
 30
0.0
 10
38.59927444207964
 20
601.6999053618313
 30
0.0
 10
38.60989834274874
 20
601.9345371548578
 30
0.0
 10
38.63537059669651
 20
602.1548738852532
 30
0.0
 10
38.66652829603522
 20
602.3062757503048
 30
0.0
 10
38.71266096732471
 20
602.487284771686
 30
0.0
 10
38.76432718943742
 20
602.6445163231908
 30
0.0
 10
38.85531863966981
 20
602.862286165868
 30
0.0
 10
38.92957729770897
 20
603.0225400762647
 30
0.0
 10
38.98596182030427
 20
603.1343247664437
 30
0.0
 10
39.07379857630097
 20
603.3049135622562
 30
0.0
 10
39.13790940662822
 20
603.4227935656043
 30
0.0
 10
39.2367382806842
 20
603.6068988729512
 30
0.0
 10
39.26958562570142
 20
603.6684757287735
 30
0.0
 10
39.3383872281618
 20
603.7963371675373
 30
0.0
 10
39.37507454434363
 20
603.8632333889697
 30
0.0
 10
39.44144058141141
 20
603.9919230935305
 30
0.0
 10
39.47067153746831
 20
604.0535000431618
 30
0.0
 10
39.5115838548191
 20
604.1416919227946
 30
0.0
 10
39.53803693762778
 20
604.1993847788618
 30
0.0
 10
39.57627970200103
 20
604.281830598344
 30
0.0
 10
39.63747233882684
 20
604.4044381978275
 30
0.0
 10
39.6924123592884
 20
604.4954110074927
 30
0.0
 10
39.79476147279312
 20
604.6431899398277
 30
0.0
 10
39.86127282751407
 20
604.7229415750637
 30
0.0
 10
40.08528660152199
 20
604.9392298577116
 30
0.0
 10
40.27199898718326
 20
605.052185939815
 30
0.0
 10
40.64014101346082
 20
605.1580034284211
 30
0.0
 10
40.77779545710659
 20
605.1830599285345
 30
0.0
 10
41.08981831281674
 20
605.2095103536623
 30
0.0
 10
41.26119119837081
 20
605.2110344655798
 30
0.0
 10
41.64849362357189
 20
605.1885589934902
 30
0.0
 10
41.86477282060183
 20
605.1635522813912
 30
0.0
 10
42.20240552664511
 20
605.1062532752334
 30
0.0
 10
42.31912841035749
 20
605.0832560592087
 30
0.0
 10
42.49218273533101
 20
605.0449539693816
 30
0.0
 10
42.61060369420117
 20
605.0173919515929
 30
0.0
 10
42.79028762183072
 20
604.9714421956025
 30
0.0
 10
43.3877162974178
 20
604.8060132580808
 30
0.0
 10
43.96820925037547
 20
604.5899929854472
 30
0.0
 10
44.80579175490313
 20
604.2099640530575
 30
0.0
 10
45.11647121821773
 20
604.0545119762699
 30
0.0
 10
45.74481083549683
 20
603.7148381318854
 30
0.0
 10
46.06323114080983
 20
603.5293336570285
 30
0.0
 10
46.88512419507444
 20
603.0066843801029
 30
0.0
 10
47.39142392501521
 20
602.6474873549921
 30
0.0
 10
47.9006063870942
 20
602.2399004802915
 30
0.0
  0
SPLINE
  5
159
330
69
100
AcDbEntity
  8
$DDT_AUDIT_GENERATED_(14F)
  6
Continuous
 62
     7
100
AcDbSpline
210
0.0
220
0.0
230
1.0
 70
     8
 71
     3
 72
    13
 73
     9
 74
     0
 42
0.0000000001161213
 43
0.0000000001
 40
0.0
 40
0.0
 40
0.0
 40
0.0
 40
0.0100813226906552
 40
0.0219218400333924
 40
0.0575173015671696
 40
0.0931156176724613
 40
0.1109540108237832
 40
0.1119367308353407
 40
0.1119367308353407
 40
0.1119367308353407
 40
0.1119367308353407
 10
36.22233292370957
 20
579.8032049153312
 30
0.0
 10
36.23614390810985
 20
580.128540840034
 30
0.0
 10
36.26587230650605
 20
580.8361838112538
 30
0.0
 10
36.34231797477418
 20
582.6627162151209
 30
0.0
 10
36.44942570499676
 20
585.211621053244
 30
0.0
 10
36.55025440209342
 20
587.6926881331091
 30
0.0
 10
36.61038211717589
 20
588.9971434552699
 30
0.0
 10
36.62654739843568
 20
589.412716050694
 30
0.0
 10
36.62737883536882
 20
589.4343176801034
 30
0.0
  0
SPLINE
  5
15A
330
69
100
AcDbEntity
  8
$DDT_AUDIT_GENERATED_(14F)
  6
Continuous
 62
     7
100
AcDbSpline
210
0.0
220
0.0
230
1.0
 70
     8
 71
     3
 72
     8
 73
     4
 74
     0
 42
0.0000000031052568
 43
0.0000000001
 40
0.8026945061959517
 40
0.8026945061959517
 40
0.8026945061959517
 40
0.8026945061959517
 40
0.8097287451966
 40
0.8097287451966
 40
0.8097287451966
 40
0.8097287451966
 10
35.67283373691225
 20
589.025617852281
 30
0.0
 10
35.66890259260145
 20
589.0150273599828
 30
0.0
 10
35.66504352812031
 20
589.0088192974418
 30
0.0
 10
35.66123825930696
 20
589.0074434335872
 30
0.0
  0
ARC
  5
15B
330
69
100
AcDbEntity
  8
$DDT_AUDIT_GENERATED_(14F)
  6
Continuous
 62
     7
100
AcDbCircle
 10
34.0536555314
 20
575.5979078647
 30
0.0
 40
4.731562629391063
100
AcDbArc
 50
62.7197806884
 51
90.3462669605
  0
SPLINE
  5
15C
330
69
100
AcDbEntity
  8
$DDT_AUDIT_GENERATED_(14F)
  6
Continuous
 62
     7
100
AcDbSpline
210
0.0
220
0.0
230
1.0
 70
     8
 71
     3
 72
    15
 73
    11
 74
     0
 42
0.0000000001178784
 43
0.0000000001
 40
0.0
 40
0.0
 40
0.0
 40
0.0
 40
0.01480507137188
 40
0.036951037926164
 40
0.0590970044804471
 40
0.0590970044804471
 40
0.0968330797550009
 40
0.103388937589015
 40
0.1099447954230301
 40
0.1136118670294926
 40
0.1136118670294926
 40
0.1136118670294926
 40
0.1136118670294926
 10
31.82772214573679
 20
579.803114772873
 30
0.0
 10
31.80758957906076
 20
580.2813746474941
 30
0.0
 10
31.75787968164205
 20
581.4647611818901
 30
0.0
 10
31.68183947498766
 20
583.2784089324922
 30
0.0
 10
31.62721234323611
 20
584.5940126153378
 30
0.0
 10
31.55537281370285
 20
586.309196202965
 30
0.0
 10
31.50459066463132
 20
587.5206571688518
 30
0.0
 10
31.45318919496289
 20
588.7401033370404
 30
0.0
 10
31.43641904780315
 20
589.1267243206703
 30
0.0
 10
31.42595360963485
 20
589.3527867843967
 30
0.0
 10
31.42229855488483
 20
589.432640858121
 30
0.0
  0
SPLINE
  5
15D
330
69
100
AcDbEntity
  8
$DDT_AUDIT_GENERATED_(14F)
  6
Continuous
 62
     7
100
AcDbSpline
210
0.0
220
0.0
230
1.0
 70
     8
 71
     3
 72
     9
 73
     5
 74
     0
 42
0.0000000028749536
 43
0.0000000001
 40
0.8060948655212301
 40
0.8060948655212301
 40
0.8060948655212301
 40
0.8060948655212301
 40
0.8099476868391341
 40
0.8129977910650564
 40
0.8129977910650564
 40
0.8129977910650564
 40
0.8129977910650564
 10
32.37715797847825
 20
589.0242901278965
 30
0.0
 10
32.37932356671433
 20
589.0177381818759
 30
0.0
 10
32.38316789384113
 20
589.0085540098627
 30
0.0
 10
32.38693506219484
 20
589.0047138395056
 30
0.0
 10
32.38859652684932
 20
589.0040913344202
 30
0.0
  0
ARC
  5
15E
330
69
100
AcDbEntity
  8
$DDT_AUDIT_GENERATED_(14F)
  6
Continuous
 62
     7
100
AcDbCircle
 10
33.9964642
 20
575.598361769
 30
0.0
 40
4.731108741227559
100
AcDbArc
 50
89.6536841267
 51
117.2839351536
  0
SPLINE
  5
15F
330
69
100
AcDbEntity
  8
$DDT_AUDIT_GENERATED_(14F)
  6
Continuous
 62
     7
100
AcDbSpline
210
0.0
220
0.0
230
1.0
 70
     8
 71
     3
 72
     8
 73
     4
 74
     0
 42
0.0000000007089658
 43
0.0000000001
 40
0.6903870525259492
 40
0.6903870525259492
 40
0.6903870525259492
 40
0.6903870525259492
 40
0.7129731880254414
 40
0.7129731880254414
 40
0.7129731880254414
 40
0.7129731880254414
 10
61.61485358675276
 20
571.6782755771675
 30
0.0
 10
61.62173869319906
 20
571.7842295225081
 30
0.0
 10
61.62047415773528
 20
571.8902062714262
 30
0.0
 10
61.61106740187325
 20
571.9962066198351
 30
0.0
  0
ARC
  5
160
330
69
100
AcDbEntity
  8
$DDT_AUDIT_GENERATED_(14F)
  6
Continuous
 62
     7
100
AcDbCircle
 10
707.7997305639
 20
544.6212664396
 30
0.0
 40
672.4617133727502
100
AcDbArc
 50
177.6117728638
 51
178.3333914889
  0
ARC
  5
161
330
69
100
AcDbEntity
  8
$DDT_AUDIT_GENERATED_(14F)
  6
Continuous
 62
     7
100
AcDbCircle
 10
-636.0655274333
 20
544.7521287241
 30
0.0
 40
668.7753215524046
100
AcDbArc
 50
1.6645816366
 51
2.3892527666
  0
SPLINE
  5
162
330
69
100
AcDbEntity
  8
$DDT_AUDIT_GENERATED_(14F)
  6
Continuous
 62
     7
100
AcDbSpline
210
0.0
220
0.0
230
1.0
 70
     8
 71
     3
 72
     8
 73
     4
 74
     0
 42
0.000000000228886
 43
0.0000000001
 40
0.3336970874520055
 40
0.3336970874520055
 40
0.3336970874520055
 40
0.3336970874520055
 40
0.3346969899250566
 40
0.3346969899250566
 40
0.3346969899250566
 40
0.3346969899250566
 10
28.03886735623972
 20
606.6322305143976
 30
0.0
 10
28.05271338417789
 20
606.6368514066223
 30
0.0
 10
28.06653932142163
 20
606.641422194203
 30
0.0
 10
28.08034488385165
 20
606.6459431787418
 30
0.0
  0
SPLINE
  5
163
330
69
100
AcDbEntity
  8
$DDT_AUDIT_GENERATED_(14F)
  6
Continuous
 62
     7
100
AcDbSpline
210
0.0
220
0.0
230
1.0
 70
     8
 71
     3
 72
     8
 73
     4
 74
     0
 42
0.0000000007078602
 43
0.0000000001
 40
0.2867519724816045
 40
0.2867519724816045
 40
0.2867519724816045
 40
0.2867519724816045
 40
0.3092237877646689
 40
0.3092237877646689
 40
0.3092237877646689
 40
0.3092237877646689
 10
6.438985888095286
 20
571.9961713794951
 30
0.0
 10
6.429604745900281
 20
571.8904485316259
 30
0.0
 10
6.428331560211328
 20
571.7848425550284
 30
0.0
 10
6.435131137051079
 20
571.6793521478087
 30
0.0
  0
ARC
  5
164
330
69
100
AcDbEntity
  8
$DDT_AUDIT_GENERATED_(14F)
  6
Continuous
 62
     7
100
AcDbCircle
 10
78.7450477923
 20
605.2630850174
 30
0.0
 40
49.00321978785972
100
AcDbArc
 50
175.4813751867
 51
175.6561936584
  0
ARC
  5
165
330
69
100
AcDbEntity
  8
$DDT_AUDIT_GENERATED_(14F)
  6
Continuous
 62
     7
100
AcDbCircle
 10
78.7450477923
 20
605.2630850174
 30
0.0
 40
49.00321978785972
100
AcDbArc
 50
175.7250474695
 51
180.3946022449
  0
ARC
  5
166
330
69
100
AcDbEntity
  8
$DDT_AUDIT_GENERATED_(14F)
  6
Continuous
 62
     7
100
AcDbCircle
 10
33.2426324485
 20
612.9045797379
 30
0.0
 40
2.805739061445268
100
AcDbArc
 50
106.7693694325
 51
170.3058307274
  0
ARC
  5
167
330
69
100
AcDbEntity
  8
$DDT_AUDIT_GENERATED_(14F)
  6
Continuous
 62
     7
100
AcDbCircle
 10
34.0267408576
 20
606.838361077
 30
0.0
 40
8.896959475758228
100
AcDbArc
 50
90.0110229998
 51
100.3915450532
  0
ARC
  5
168
330
69
100
AcDbEntity
  8
$DDT_AUDIT_GENERATED_(14F)
  6
Continuous
 62
     7
100
AcDbCircle
 10
86.5967515367
 20
603.5316909381
 30
0.0
 40
56.97693756434452
100
AcDbArc
 50
170.0487042207
 51
174.3590977511
  0
SPLINE
  5
169
330
69
100
AcDbEntity
  8
$DDT_AUDIT_GENERATED_(14F)
  6
Continuous
 62
     7
100
AcDbSpline
210
0.0
220
0.0
230
1.0
 70
     8
 71
     3
 72
     8
 73
     4
 74
     0
 42
0.0000000049233976
 43
0.0000000001
 40
0.0
 40
0.0
 40
0.0
 40
0.0
 40
0.0600755526008396
 40
0.0600755526008396
 40
0.0600755526008396
 40
0.0600755526008396
 10
29.98190032031713
 20
591.822026131273
 30
0.0
 10
29.99284260763011
 20
591.7803478982723
 30
0.0
 10
30.00306889828595
 20
591.7415937851374
 30
0.0
 10
30.01320723230442
 20
591.7040908259615
 30
0.0
  0
SPLINE
  5
16A
330
69
100
AcDbEntity
  8
$DDT_AUDIT_GENERATED_(14F)
  6
Continuous
 62
     7
100
AcDbSpline
210
0.0
220
0.0
230
1.0
 70
     8
 71
     3
 72
    26
 73
    22
 74
     0
 42
0.0000000024597202
 43
0.0000000001
 40
0.0756358000042934
 40
0.0756358000042934
 40
0.0756358000042934
 40
0.0756358000042934
 40
0.1358683309516474
 40
0.2584691041010505
 40
0.3681306267477173
 40
0.4648987769259817
 40
0.5482180146096033
 40
0.6182437332691455
 40
0.6753588918474571
 40
0.7193981102743394
 40
0.7509064465994386
 40
0.7733423988686557
 40
0.7980518244743541
 40
0.8246081172544761
 40
0.8439076861001911
 40
0.866904037467757
 40
0.8939349466924231
 40
0.9171678091278889
 40
0.9423729033897382
 40
0.9696564093959751
 40
1.0
 40
1.0
 40
1.0
 40
1.0
 10
30.02107827252217
 20
591.6751724926132
 30
0.0
 10
30.03123965890444
 20
591.63810882994
 30
0.0
 10
30.06231209254202
 20
591.5280991469907
 30
0.0
 10
30.12245887954818
 20
591.33937105803
 30
0.0
 10
30.19686164539667
 20
591.1319267163697
 30
0.0
 10
30.27587682863571
 20
590.9327673407959
 30
0.0
 10
30.35052849477158
 20
590.7576384967634
 30
0.0
 10
30.4274693669518
 20
590.5907749812253
 30
0.0
 10
30.50489312297103
 20
590.437977449105
 30
0.0
 10
30.58006441815487
 20
590.305637062394
 30
0.0
 10
30.65824946435224
 20
590.1837398937653
 30
0.0
 10
30.75896698059168
 20
590.0466752513172
 30
0.0
 10
30.87646508758148
 20
589.9047866765388
 30
0.0
 10
31.00417527225233
 20
589.7687409346516
 30
0.0
 10
31.14353321817588
 20
589.63712250434
 30
0.0
 10
31.29673124141279
 20
589.5090007286799
 30
0.0
 10
31.47138002870435
 20
589.3834921207216
 30
0.0
 10
31.66503208046829
 20
589.2671237683601
 30
0.0
 10
31.8697126048868
 20
589.1670203251767
 30
0.0
 10
32.11201428603402
 20
589.0762474093209
 30
0.0
 10
32.27518469138674
 20
589.0437643231871
 30
0.0
 10
32.37716664350496
 20
589.0242639193116
 30
0.0
  0
ARC
  5
16B
330
69
100
AcDbEntity
  8
$DDT_AUDIT_GENERATED_(14F)
  6
Continuous
 62
     7
100
AcDbCircle
 10
36.1177052741
 20
582.8375629324
 30
0.0
 40
25.12857469131886
100
AcDbArc
 50
108.7455385192
 51
129.4864440875
  0
ARC
  5
16C
330
69
100
AcDbEntity
  8
$DDT_AUDIT_GENERATED_(14F)
  6
Continuous
 62
     7
100
AcDbCircle
 10
34.102078802
 20
588.9627706224
 30
0.0
 40
18.67954624852256
100
AcDbArc
 50
103.3826323649
 51
108.8305699783
  0
ARC
  5
16D
330
69
100
AcDbEntity
  8
$DDT_AUDIT_GENERATED_(14F)
  6
Continuous
 62
     7
100
AcDbCircle
 10
71.0288442089
 20
600.426319796
 30
0.0
 40
41.93744770098241
100
AcDbArc
 50
181.7126758334
 51
191.8879748733
  0
ARC
  5
16E
330
69
100
AcDbEntity
  8
$DDT_AUDIT_GENERATED_(14F)
  6
Continuous
 62
     7
100
AcDbCircle
 10
-1.6931420097
 20
601.2151068402
 30
0.0
 40
31.65596240289591
100
AcDbArc
 50
351.8700097726
 51
6.7520604924
  0
SPLINE
  5
16F
330
69
100
AcDbEntity
  8
$DDT_AUDIT_GENERATED_(14F)
  6
Continuous
 62
     7
100
AcDbSpline
210
0.0
220
0.0
230
1.0
 70
     8
 71
     3
 72
    64
 73
    60
 74
     0
 42
0.0000000002926861
 43
0.0000000001
 40
0.0
 40
0.0
 40
0.0
 40
0.0
 40
0.0031118007906281
 40
0.0158467651047927
 40
0.0262000253712159
 40
0.0366769547320216
 40
0.0488249849530517
 40
0.0620414341652864
 40
0.0741336790997025
 40
0.0931602749309412
 40
0.1095426478941881
 40
0.1258400903245011
 40
0.1397534401781148
 40
0.1573027339563298
 40
0.1757280848801052
 40
0.1897231973935402
 40
0.2021329210607642
 40
0.2150890669324175
 40
0.2322524431141641
 40
0.2555735032174275
 40
0.2738918744032698
 40
0.2896381061913007
 40
0.3052123395921933
 40
0.3160756944013294
 40
0.3288145510383436
 40
0.3439240723767418
 40
0.3587252563939783
 40
0.370233364516555
 40
0.3814728658807462
 40
0.3920520029008205
 40
0.4045333005219793
 40
0.4211219263651395
 40
0.4345652495644324
 40
0.4453524569663606
 40
0.4538683598954565
 40
0.4644489181724861
 40
0.5050979540528037
 40
0.5397790720738126
 40
0.5833853690004972
 40
0.6195116838023013
 40
0.6597820986325467
 40
0.6925869096427997
 40
0.7120100191983546
 40
0.7313309350481947
 40
0.7488165472256353
 40
0.7662682370643027
 40
0.7848095081404227
 40
0.8044150411786553
 40
0.8220592392588608
 40
0.8340847165904395
 40
0.8429365024190201
 40
0.8486324749483747
 40
0.8574892314952439
 40
0.869579011301238
 40
0.8883425817511614
 40
0.9117282534700697
 40
0.9397056441987209
 40
0.9722352934875089
 40
1.0
 40
1.0
 40
1.0
 40
1.0
 10
20.1418446902326
 20
602.2329761306553
 30
0.0
 10
20.11359866111249
 20
602.2106134530177
 30
0.0
 10
19.99068025023429
 20
602.1132660474058
 30
0.0
 10
19.77352890615276
 20
601.9343490028853
 30
0.0
 10
19.51801211144745
 20
601.720743472711
 30
0.0
 10
19.26725068349722
 20
601.5064315681883
 30
0.0
 10
18.99002167871915
 20
601.2643052481515
 30
0.0
 10
18.69888662258965
 20
601.003510769343
 30
0.0
 10
18.35629942870036
 20
600.6888608596021
 30
0.0
 10
17.99189403970819
 20
600.3437599510378
 30
0.0
 10
17.5995276691519
 20
599.9589666734844
 30
0.0
 10
17.25110070704406
 20
599.6061021127194
 30
0.0
 10
16.89931517894657
 20
599.2392210010167
 30
0.0
 10
16.53768966853635
 20
598.8506288308707
 30
0.0
 10
16.17941185570491
 20
598.4525113062367
 30
0.0
 10
15.86066473996387
 20
598.08749105937
 30
0.0
 10
15.58336335071273
 20
597.7619040795532
 30
0.0
 10
15.28645856694015
 20
597.4047592779667
 30
0.0
 10
14.91401785880456
 20
596.9434774141106
 30
0.0
 10
14.50993781687479
 20
596.4220143982858
 30
0.0
 10
14.11925603872485
 20
595.8939155634413
 30
0.0
 10
13.78783394855138
 20
595.4273860272478
 30
0.0
 10
13.51252885003843
 20
595.0249639024729
 30
0.0
 10
13.26207575592533
 20
594.6469268795178
 30
0.0
 10
13.01922123256029
 20
594.2695932863497
 30
0.0
 10
12.75752466394336
 20
593.8486741102918
 30
0.0
 10
12.50954013324568
 20
593.4344316106286
 30
0.0
 10
12.28996376891467
 20
593.0549577789479
 30
0.0
 10
12.09965615267418
 20
592.716117106539
 30
0.0
 10
11.90798662687358
 20
592.3650577347317
 30
0.0
 10
11.69280687834496
 20
591.9590912781437
 30
0.0
 10
11.46932965395357
 20
591.5217215075686
 30
0.0
 10
11.26072675346132
 20
591.0979987301062
 30
0.0
 10
11.09728288235332
 20
590.7560083098831
 30
0.0
 10
10.95154178890886
 20
590.4438624326184
 30
0.0
 10
10.66706840038212
 20
589.820623468945
 30
0.0
 10
10.27672504025304
 20
588.9112731696284
 30
0.0
 10
9.778212332376228
 20
587.6413675838438
 30
0.0
 10
9.334866000855978
 20
586.400709257378
 30
0.0
 10
8.908737392604106
 20
585.0882668311531
 30
0.0
 10
8.551014269609324
 20
583.8791737555506
 30
0.0
 10
8.272121835565489
 20
582.8460958223496
 30
0.0
 10
8.069093164544814
 20
582.0417736352224
 30
0.0
 10
7.916660775971946
 20
581.4061512186202
 30
0.0
 10
7.776266304173638
 20
580.7909517788335
 30
0.0
 10
7.643886202440834
 20
580.1823117126859
 30
0.0
 10
7.512421781727369
 20
579.5464368409771
 30
0.0
 10
7.387000149348875
 20
578.9052475766345
 30
0.0
 10
7.281738901604776
 20
578.3360335185224
 30
0.0
 10
7.202905270021268
 20
577.8895310622331
 30
0.0
 10
7.150201611419607
 20
577.5808575710948
 30
0.0
 10
7.104945668414333
 20
577.3094342835354
 30
0.0
 10
7.054671762843946
 20
577.0005563378238
 30
0.0
 10
6.982170991446931
 20
576.5390700781048
 30
0.0
 10
6.888027381290435
 20
575.9066858576069
 30
0.0
 10
6.774525420950556
 20
575.0834856562384
 30
0.0
 10
6.652029978679072
 20
574.0994481811897
 30
0.0
 10
6.533700597125019
 20
573.0299606248886
 30
0.0
 10
6.473735731539636
 20
572.3614760556183
 30
0.0
 10
6.4413830772296
 20
571.9968493683955
 30
0.0
  0
ARC
  5
170
330
69
100
AcDbEntity
  8
$DDT_AUDIT_GENERATED_(14F)
  6
Continuous
 62
     7
100
AcDbCircle
 10
-10.7421557843
 20
605.2613868189
 30
0.0
 40
49.05037339018065
100
AcDbArc
 50
359.6077608179
 51
4.5162617505
  0
ARC
  5
171
330
69
100
AcDbEntity
  8
$DDT_AUDIT_GENERATED_(14F)
  6
Continuous
 62
     7
100
AcDbCircle
 10
34.7976318787
 20
612.895926141
 30
0.0
 40
2.816858839014083
100
AcDbArc
 50
9.8341273545
 51
73.0906724857
  0
ARC
  5
172
330
69
100
AcDbEntity
  8
$DDT_AUDIT_GENERATED_(14F)
  6
Continuous
 62
     7
100
AcDbCircle
 10
34.0233175246
 20
606.8383610724
 30
0.0
 40
8.896959480304112
100
AcDbArc
 50
79.6084547972
 51
89.9889769972
  0
ARC
  5
173
330
69
100
AcDbEntity
  8
$DDT_AUDIT_GENERATED_(14F)
  6
Continuous
 62
     7
100
AcDbCircle
 10
-18.6613942594
 20
603.5136951458
 30
0.0
 40
57.09304445835451
100
AcDbArc
 50
5.6488161147
 51
9.9490038091
  0
SPLINE
  5
174
330
69
100
AcDbEntity
  8
$DDT_AUDIT_GENERATED_(14F)
  6
Continuous
 62
     7
100
AcDbSpline
210
0.0
220
0.0
230
1.0
 70
     8
 71
     3
 72
    25
 73
    21
 74
     0
 42
0.0000000025009861
 43
0.0000000001
 40
0.0
 40
0.0
 40
0.0
 40
0.0
 40
0.0303443403049837
 40
0.0576285204064827
 40
0.0828342374121459
 40
0.106067673863376
 40
0.1452044254728015
 40
0.1753715091018618
 40
0.2019284580099582
 40
0.226638494112964
 40
0.2490750007086353
 40
0.2805841155121381
 40
0.3246244220186987
 40
0.3817409917447543
 40
0.4517684405340512
 40
0.5350897367912203
 40
0.6318602778261496
 40
0.7415245098868241
 40
0.8641283121411028
 40
0.9547026701956585
 40
0.9547026701956585
 40
0.9547026701956585
 40
0.9547026701956585
 10
35.67289173924134
 20
589.0242639193115
 30
0.0
 10
35.77487369135957
 20
589.0437643231871
 30
0.0
 10
35.93804663050445
 20
589.0762491027532
 30
0.0
 10
36.18033812014598
 20
589.167015207227
 30
0.0
 10
36.38505158009582
 20
589.2671406625154
 30
0.0
 10
36.60962815487039
 20
589.4020828154951
 30
0.0
 10
36.82695007993802
 20
589.5649501490481
 30
0.0
 10
37.02629515164644
 20
589.7477837442806
 30
0.0
 10
37.17357480773163
 20
589.9047882454247
 30
0.0
 10
37.2910956584394
 20
590.0466748901191
 30
0.0
 10
37.39180733541026
 20
590.183740028101
 30
0.0
 10
37.46999465693872
 20
590.30563700364
 30
0.0
 10
37.54516498091318
 20
590.4379774727697
 30
0.0
 10
37.6225891187841
 20
590.5907749724856
 30
0.0
 10
37.69952985188647
 20
590.7576384998259
 30
0.0
 10
37.77418156629582
 20
590.932767339762
 30
0.0
 10
37.85319673337927
 20
591.1319267167067
 30
0.0
 10
37.92759950446652
 20
591.3393710579224
 30
0.0
 10
37.99398513133184
 20
591.5476753315832
 30
0.0
 10
38.02895146642707
 20
591.6743999064732
 30
0.0
 10
38.04435894465341
 20
591.7320215025508
 30
0.0
  0
ARC
  5
175
330
69
100
AcDbEntity
  8
$DDT_AUDIT_GENERATED_(14F)
  6
Continuous
 62
     7
100
AcDbCircle
 10
31.9023108945
 20
582.7836231592
 30
0.0
 40
25.18931022777439
100
AcDbArc
 50
50.5388364295
 51
71.2291809639
  0
ARC
  5
176
330
69
100
AcDbEntity
  8
$DDT_AUDIT_GENERATED_(14F)
  6
Continuous
 62
     7
100
AcDbCircle
 10
33.942936581
 20
588.9125118414
 30
0.0
 40
18.72982602756187
100
AcDbArc
 50
71.0541674076
 51
76.636461389
  0
ARC
  5
177
330
69
100
AcDbEntity
  8
$DDT_AUDIT_GENERATED_(14F)
  6
Continuous
 62
     7
100
AcDbCircle
 10
69.6551294853
 20
601.2140336831
 30
0.0
 40
31.56862491102866
100
AcDbArc
 50
173.2272373375
 51
188.1506484542
  0
ARC
  5
178
330
69
100
AcDbEntity
  8
$DDT_AUDIT_GENERATED_(14F)
  6
Continuous
 62
     7
100
AcDbCircle
 10
-3.2398973925
 20
600.4573816999
 30
0.0
 40
42.19937678122211
100
AcDbArc
 50
348.144177873
 51
358.2557915901
  0
SPLINE
  5
179
330
69
100
AcDbEntity
  8
$DDT_AUDIT_GENERATED_(14F)
  6
Continuous
 62
     7
100
AcDbSpline
210
0.0
220
0.0
230
1.0
 70
     8
 71
     3
 72
    72
 73
    68
 74
     0
 42
0.0000000002926936
 43
0.0000000001
 40
0.0
 40
0.0
 40
0.0
 40
0.0
 40
0.0277656545814396
 40
0.0602955257391041
 40
0.0882731094930637
 40
0.1116589451503845
 40
0.1304226502590826
 40
0.1425125198100403
 40
0.1513693456106006
 40
0.1570653673592929
 40
0.167425908233359
 40
0.1819237349730286
 40
0.2005058840635451
 40
0.2198406231844695
 40
0.2389368527287221
 40
0.2569042741448423
 40
0.2758784159244196
 40
0.2945249011776054
 40
0.3116890482966978
 40
0.3250606752807746
 40
0.3371467894014953
 40
0.3516575043065213
 40
0.3685350256325083
 40
0.3925382344859975
 40
0.414037177444943
 40
0.4409958998081896
 40
0.4667220199388309
 40
0.4883249243358045
 40
0.5072450035565874
 40
0.5355610051608166
 40
0.5454682305486179
 40
0.5532792422167855
 40
0.5628079358496996
 40
0.5746113535323784
 40
0.5875872852271193
 40
0.598586697064612
 40
0.6074116765046531
 40
0.6158190284333508
 40
0.624578521728209
 40
0.6343803619313613
 40
0.6473204259417034
 40
0.6629511189212738
 40
0.6804930453993062
 40
0.6946537110789818
 40
0.7073021290927717
 40
0.7195391974216995
 40
0.732839414979095
 40
0.7486784449211361
 40
0.7677612170754872
 40
0.7820405418347788
 40
0.7931574561446174
 40
0.8032172171902836
 40
0.8133792823481726
 40
0.8259287521272622
 40
0.841699626172009
 40
0.8594408140944915
 40
0.8735174106017484
 40
0.88587735167817
 40
0.8977491617834801
 40
0.9106186371430423
 40
0.9250687513909196
 40
0.941907323169985
 40
0.9596153756649816
 40
0.9714423614198546
 40
0.9823485002815572
 40
0.995790082612422
 40
1.0
 40
1.0
 40
1.0
 40
1.0
 10
61.60867783892055
 20
571.996822026153
 30
0.0
 10
61.57632433331329
 20
572.3614585518005
 30
0.0
 10
61.51635878062478
 20
573.0299510572162
 30
0.0
 10
61.3980285256179
 20
574.0994472347516
 30
0.0
 10
61.2755331218402
 20
575.0834844223444
 30
0.0
 10
61.16203116427232
 20
575.9066846976016
 30
0.0
 10
61.06788765936928
 20
576.5390683547888
 30
0.0
 10
60.9953866790491
 20
577.0005559432474
 30
0.0
 10
60.94511319191599
 20
577.3094313871668
 30
0.0
 10
60.89693871815249
 20
577.598358722371
 30
0.0
 10
60.83619132080581
 20
577.9532783586
 30
0.0
 10
60.74656814100568
 20
578.45650793197
 30
0.0
 10
60.6332055394846
 20
579.061243430017
 30
0.0
 10
60.5033800596292
 20
579.715665940162
 30
0.0
 10
60.36831617560651
 20
580.3598682185848
 30
0.0
 10
60.22770119785861
 20
580.9966630779772
 30
0.0
 10
60.08145399754776
 20
581.6263841428747
 30
0.0
 10
59.93045137512784
 20
582.2446301704225
 30
0.0
 10
59.78911984938041
 20
582.7966690130344
 30
0.0
 10
59.66229619941717
 20
583.2728860968313
 30
0.0
 10
59.53961068976574
 20
583.7188560231665
 30
0.0
 10
59.4020248442902
 20
584.2025018513382
 30
0.0
 10
59.22065884712495
 20
584.8156146803691
 30
0.0
 10
59.00757184245013
 20
585.5009145576659
 30
0.0
 10
58.74731519368154
 20
586.2930612593102
 30
0.0
 10
58.46635490597281
 20
587.0997527168182
 30
0.0
 10
58.16931642103489
 20
587.9002647725431
 30
0.0
 10
57.89145392237315
 20
588.607902771395
 30
0.0
 10
57.58995625612992
 20
589.3395882523569
 30
0.0
 10
57.3273735845378
 20
589.9421436246988
 30
0.0
 10
57.10829646579611
 20
590.4224932415112
 30
0.0
 10
56.97579576889176
 20
590.7069735052231
 30
0.0
 10
56.83096088258934
 20
591.0115039295163
 30
0.0
 10
56.65678960673118
 20
591.3683019662448
 30
0.0
 10
56.47085229327128
 20
591.737727911393
 30
0.0
 10
56.29626019503696
 20
592.0743632325613
 30
0.0
 10
56.14254237598601
 20
592.3634049683612
 30
0.0
 10
55.99782011636067
 20
592.6295837815647
 30
0.0
 10
55.84507067893993
 20
592.9043565671061
 30
0.0
 10
55.66311373137816
 20
593.223844053873
 30
0.0
 10
55.43650110068703
 20
593.6100936959107
 30
0.0
 10
55.15741050190086
 20
594.0687094461547
 30
0.0
 10
54.86323651355685
 20
594.5324265039781
 30
0.0
 10
54.58050658946752
 20
594.9610571558314
 30
0.0
 10
54.32632889086825
 20
595.3340393774554
 30
0.0
 10
54.07317628031066
 20
595.6945600320264
 30
0.0
 10
53.79389267257879
 20
596.0802811260837
 30
0.0
 10
53.46501327451485
 20
596.519362703784
 30
0.0
 10
53.12633476022701
 20
596.9545811087752
 30
0.0
 10
52.81668542037789
 20
597.3392184072335
 30
0.0
 10
52.56928385351754
 20
597.6390195519717
 30
0.0
 10
52.34950215279558
 20
597.8999872949055
 30
0.0
 10
52.11795663286349
 20
598.1696918436472
 30
0.0
 10
51.84394605056881
 20
598.4821016345994
 30
0.0
 10
51.51364421309759
 20
598.8489232106028
 30
0.0
 10
51.16891895324719
 20
599.2199925845043
 30
0.0
 10
50.84381808408726
 20
599.5595252024741
 30
0.0
 10
50.55805784859326
 20
599.8504119441706
 30
0.0
 10
50.27818282828959
 20
600.1286108739826
 30
0.0
 10
49.97972423910132
 20
600.4181464395423
 30
0.0
 10
49.64078837849726
 20
600.7382029572321
 30
0.0
 10
49.26171529681493
 20
601.0852980404587
 30
0.0
 10
48.90119594627003
 20
601.4042362545053
 30
0.0
 10
48.59121788342259
 20
601.6707041923918
 30
0.0
 10
48.31891640921641
 20
601.8992899941765
 30
0.0
 10
48.08310179766721
 20
602.094137155568
 30
0.0
 10
47.94654997567898
 20
602.2023322670933
 30
0.0
 10
47.90833689622555
 20
602.2325970510782
 30
0.0
  0
ARC
  5
17A
330
69
100
AcDbEntity
  8
$DDT_AUDIT_GENERATED_(14F)
  6
Continuous
 62
     7
100
AcDbCircle
 10
34.1034700673
 20
598.5350223872
 30
0.0
 40
9.64653036019107
100
AcDbArc
 50
269.5340925584
 51
279.2861693162
  0
ARC
  5
17B
330
69
100
AcDbEntity
  8
$DDT_AUDIT_GENERATED_(14F)
  6
Continuous
 62
     7
100
AcDbCircle
 10
33.9467544684
 20
598.5406445739
 30
0.0
 40
9.652151021435216
100
AcDbArc
 50
260.7091772572
 51
270.4646498008
  0
SPLINE
  5
17C
330
69
100
AcDbEntity
  8
$DDT_AUDIT_GENERATED_(14F)
  6
Continuous
 62
     7
100
AcDbSpline
210
0.0
220
0.0
230
1.0
 70
     8
 71
     3
 72
    41
 73
    37
 74
     0
 42
0.0000000004396487
 43
0.0000000001
 40
0.0
 40
0.0
 40
0.0
 40
0.0
 40
0.0271169126759966
 40
0.055772090099125
 40
0.0847105817560296
 40
0.1140271158511835
 40
0.1437325676724001
 40
0.1737602694411323
 40
0.203995140053244
 40
0.2343098645546329
 40
0.2645938457972956
 40
0.2950054537464187
 40
0.3256909430048071
 40
0.3564524406865445
 40
0.3871240279899462
 40
0.4175657808692595
 40
0.447688930488742
 40
0.4781183657640125
 40
0.5085398462250111
 40
0.5389205695941589
 40
0.5693109251943069
 40
0.5997479259842012
 40
0.6301613012828785
 40
0.6604411449918547
 40
0.6906146518570966
 40
0.7207574945881662
 40
0.7509336743692107
 40
0.7811946163764243
 40
0.8116243485355951
 40
0.8418890624365798
 40
0.8722240733406951
 40
0.9026053043931044
 40
0.932934262767168
 40
0.9631273834447397
 40
0.9900053262006359
 40
1.0
 40
1.0
 40
1.0
 40
1.0
 10
6.439763349374641
 20
571.6354826215073
 30
0.0
 10
6.450097682789445
 20
571.526029359447
 30
0.0
 10
6.469677143485838
 20
571.3363356904829
 30
0.0
 10
6.55200853931329
 20
571.0227795390716
 30
0.0
 10
6.672930709679389
 20
570.713800001199
 30
0.0
 10
6.836168894027644
 20
570.4045222868806
 30
0.0
 10
7.040764747683028
 20
570.0981156427355
 30
0.0
 10
7.287109507153833
 20
569.7946237120387
 30
0.0
 10
7.574654412424189
 20
569.4953176543246
 30
0.0
 10
7.902461885390719
 20
569.2012329735543
 30
0.0
 10
8.270360266979699
 20
568.9126606862702
 30
0.0
 10
8.678009234922609
 20
568.6291674787136
 30
0.0
 10
9.125492360540042
 20
568.3502256089736
 30
0.0
 10
9.611547881899684
 20
568.0765991812053
 30
0.0
 10
10.13300926993223
 20
567.8099248949114
 30
0.0
 10
10.68697148906879
 20
567.5514869632939
 30
0.0
 10
11.27470273592473
 20
567.3005319157163
 30
0.0
 10
11.8959472375407
 20
567.0564498236789
 30
0.0
 10
12.55248209204602
 20
566.818910571044
 30
0.0
 10
13.24129173031245
 20
566.5890094485782
 30
0.0
 10
13.96176162749105
 20
566.3668990057325
 30
0.0
 10
14.71292751798616
 20
566.1528227197938
 30
0.0
 10
15.49219129225339
 20
565.9473173310423
 30
0.0
 10
16.29708433365976
 20
565.7509598963048
 30
0.0
 10
17.12634280127709
 20
565.5640501531266
 30
0.0
 10
17.98015199133946
 20
565.3864752485484
 30
0.0
 10
18.85902370242363
 20
565.2181104131147
 30
0.0
 10
19.7635022674161
 20
565.0588037156825
 30
0.0
 10
20.69053666484537
 20
564.9092013190258
 30
0.0
 10
21.63871457786133
 20
564.7696848482655
 30
0.0
 10
22.60531597688031
 20
564.6404730601955
 30
0.0
 10
23.58920715716527
 20
564.5216953499845
 30
0.0
 10
24.59020271474655
 20
564.413503898389
 30
0.0
 10
25.5567273161566
 20
564.3208113680895
 30
0.0
 10
26.33405509354366
 20
564.2550668607323
 30
0.0
 10
26.7282383979167
 20
564.226089069751
 30
0.0
 10
26.85358992946172
 20
564.2169219196038
 30
0.0
  0
ARC
  5
17D
330
69
100
AcDbEntity
  8
$DDT_AUDIT_GENERATED_(14F)
  6
Continuous
 62
     7
100
AcDbCircle
 10
33.9660753429
 20
659.089398879
 30
0.0
 40
95.13997859902139
100
AcDbArc
 50
265.7120002348
 51
269.0810645874
  0
ARC
  5
17E
330
69
100
AcDbEntity
  8
$DDT_AUDIT_GENERATED_(14F)
  6
Continuous
 62
     7
100
AcDbCircle
 10
33.8580579662
 20
642.8026426489
 30
0.0
 40
78.85304419589896
100
AcDbArc
 50
268.9698537102
 51
270.1213253455
  0
ARC
  5
17F
330
69
100
AcDbEntity
  8
$DDT_AUDIT_GENERATED_(14F)
  6
Continuous
 62
     7
100
AcDbCircle
 10
34.1534010361
 20
644.5053281022
 30
0.0
 40
80.5562299753077
100
AcDbArc
 50
269.908701836
 51
271.0358417915
  0
ARC
  5
180
330
69
100
AcDbEntity
  8
$DDT_AUDIT_GENERATED_(14F)
  6
Continuous
 62
     7
100
AcDbCircle
 10
34.0854407904
 20
659.1258124885
 30
0.0
 40
95.17626864185215
100
AcDbArc
 50
270.9176903088
 51
274.2855329984
  0
SPLINE
  5
181
330
69
100
AcDbEntity
  8
$DDT_AUDIT_GENERATED_(14F)
  6
Continuous
 62
     7
100
AcDbSpline
210
0.0
220
0.0
230
1.0
 70
     8
 71
     3
 72
    41
 73
    37
 74
     0
 42
0.0000000004397105
 43
0.0000000001
 40
0.0
 40
0.0
 40
0.0
 40
0.0
 40
0.0296651005909989
 40
0.0582264788169363
 40
0.0884132789268395
 40
0.1185585564447752
 40
0.1488113332995604
 40
0.1790938139306764
 40
0.2093017366825387
 40
0.2393712128644958
 40
0.2695742201388661
 40
0.2998519802092039
 40
0.3301092511409673
 40
0.3604072414157203
 40
0.3908016000941142
 40
0.421238822093104
 40
0.4515375869117482
 40
0.4817751281526251
 40
0.512017959697953
 40
0.5423094130958841
 40
0.5727016489153688
 40
0.6032872770622847
 40
0.6336617844967334
 40
0.6641729856782524
 40
0.6948535636875635
 40
0.7255786761385402
 40
0.7561780913260356
 40
0.7866079505955942
 40
0.8168961219541987
 40
0.8472711830091566
 40
0.8776121829000091
 40
0.9077766132334625
 40
0.9376330663206908
 40
0.9670900726338858
 40
0.9961354932763484
 40
1.0
 40
1.0
 40
1.0
 40
1.0
 10
41.19928919081735
 20
564.2141578769581
 30
0.0
 10
41.56899071745028
 20
564.2436821037915
 30
0.0
 10
42.17968731255432
 20
564.2929766359374
 30
0.0
 10
43.18766212567393
 20
564.3862529958445
 30
0.0
 10
44.16331570279451
 20
564.488280483784
 30
0.0
 10
45.14904659931234
 20
564.6034679867482
 30
0.0
 10
46.1172383165979
 20
564.7290314185245
 30
0.0
 10
47.06837154497457
 20
564.864987540439
 30
0.0
 10
47.99776824526257
 20
565.0107634050277
 30
0.0
 10
48.90520642654496
 20
565.1663290795057
 30
0.0
 10
49.79119831792197
 20
565.3315543682809
 30
0.0
 10
50.65514738744163
 20
565.5066144682468
 30
0.0
 10
51.49472123377752
 20
565.6911268761546
 30
0.0
 10
52.30882083561698
 20
565.8848847652531
 30
0.0
 10
53.09679499351372
 20
566.0877390572201
 30
0.0
 10
53.85617427482589
 20
566.298956172051
 30
0.0
 10
54.58440108888168
 20
566.5179539721071
 30
0.0
 10
55.28014669733405
 20
566.7443362668766
 30
0.0
 10
55.94387947315838
 20
566.9782609696794
 30
0.0
 10
56.57579021005122
 20
567.2198757392127
 30
0.0
 10
57.17625016413731
 20
567.4693279738354
 30
0.0
 10
57.74252453923527
 20
567.7259163607581
 30
0.0
 10
58.27320575862922
 20
567.9893764697699
 30
0.0
 10
58.76833763096533
 20
568.2593236625953
 30
0.0
 10
59.22847034673772
 20
568.5363996644538
 30
0.0
 10
59.65136593167914
 20
568.8197985629967
 30
0.0
 10
60.03476031253942
 20
569.1086320793611
 30
0.0
 10
60.37684108934909
 20
569.4023699667524
 30
0.0
 10
60.67839580232224
 20
569.7014368800221
 30
0.0
 10
60.93979265902865
 20
570.0064207900131
 30
0.0
 10
61.16051640975836
 20
570.3174275879353
 30
0.0
 10
61.33876327917645
 20
570.6327683268249
 30
0.0
 10
61.47504708276055
 20
570.9520287976065
 30
0.0
 10
61.56357657925891
 20
571.2688809182648
 30
0.0
 10
61.60711211295799
 20
571.5044550502657
 30
0.0
 10
61.60853460379971
 20
571.6187117348932
 30
0.0
 10
61.60870838538677
 20
571.6343330765609
 30
0.0
  0
ELLIPSE
  5
183
330
69
100
AcDbEntity
  8
$DDT_AUDIT_GENERATED_(182)
  6
Continuous
 62
     7
100
AcDbEllipse
 10
34.0250919847
 20
486.0352799511
 30
0.0
 11
26.0
 21
2.081668171172169E-14
 31
0.0
210
0.0
220
0.0
230
1.0
 40
0.2756373558
 41
0.0
 42
0.0365958446091352
  0
ELLIPSE
  5
184
330
69
100
AcDbEntity
  8
$DDT_AUDIT_GENERATED_(182)
  6
Continuous
 62
     7
100
AcDbEllipse
 10
34.0250919847
 20
486.0352799511
 30
0.0
 11
26.0
 21
2.081668171172169E-14
 31
0.0
210
0.0
220
0.0
230
1.0
 40
0.2756373558
 41
3.12476600487591
 42
3.171047756206582
  0
ELLIPSE
  5
185
330
69
100
AcDbEntity
  8
$DDT_AUDIT_GENERATED_(182)
  6
Continuous
 62
     7
100
AcDbEllipse
 10
34.0250919847
 20
486.0352799511
 30
0.0
 11
26.0
 21
2.081668171172169E-14
 31
0.0
210
0.0
220
0.0
230
1.0
 40
0.2756373558
 41
3.192873190680783
 42
6.283185307179586
  0
LINE
  5
186
330
69
100
AcDbEntity
  8
$DDT_AUDIT_GENERATED_(182)
  6
Continuous
 62
     7
100
AcDbLine
 10
60.0250919847
 20
432.920399634
 30
0.0
 11
8.0250919847
 21
432.920399634
 31
0.0
  0
LINE
  5
187
330
69
100
AcDbEntity
  8
$DDT_AUDIT_GENERATED_(182)
  6
Continuous
 62
     7
100
AcDbLine
 10
8.0250919847
 20
486.0352799511
 30
0.0
 11
8.0250919847
 21
432.920399634
 31
0.0
  0
LINE
  5
188
330
69
100
AcDbEntity
  8
$DDT_AUDIT_GENERATED_(182)
  6
Continuous
 62
     7
100
AcDbLine
 10
60.0250919847
 20
432.920399634
 30
0.0
 11
60.0250919847
 21
486.0352799511
 31
0.0
  0
ENDBLK
  5
18A
330
69
100
AcDbEntity
  8
0
100
AcDbBlockEnd
  0
BLOCK
  5
1D7
330
18B
100
AcDbEntity
  8
0
100
AcDbBlockBegin
  2
SE1
 70
     0
 10
0.0
 20
0.0
 30
0.0
  3
SE1
  1

  0
LINE
  5
18D
330
18B
100
AcDbEntity
  8
$DDT_AUDIT_GENERATED_(6B)
  6
Continuous
 62
     7
100
AcDbLine
 10
269.9269442839
 20
493.2034972835
 30
0.0
 11
291.9049396115
 21
486.9014085351
 31
0.0
  0
LINE
  5
18E
330
18B
100
AcDbEntity
  8
$DDT_AUDIT_GENERATED_(6B)
  6
Continuous
 62
     7
100
AcDbLine
 10
427.1452520993
 20
535.735006153
 30
0.0
 11
425.3690496998
 21
529.5406522498
 31
0.0
  0
LINE
  5
18F
330
18B
100
AcDbEntity
  8
$DDT_AUDIT_GENERATED_(6B)
  6
Continuous
 62
     7
100
AcDbLine
 10
292.3674431475
 20
486.7687877802
 30
0.0
 11
291.9049396115
 21
486.9014085351
 31
0.0
  0
ARC
  5
190
330
18B
100
AcDbEntity
  8
$DDT_AUDIT_GENERATED_(6B)
  6
Continuous
 62
     7
100
AcDbCircle
 10
50.4343816625
 20
-2165.4007826685
 30
0.0
 40
2729.540195609523
100
AcDbArc
 50
82.0965018533
 51
83.7236477027
  0
SPLINE
  5
191
330
18B
100
AcDbEntity
  8
$DDT_AUDIT_GENERATED_(6B)
  6
Continuous
 62
     7
100
AcDbSpline
210
0.0
220
0.0
230
1.0
 70
     8
 71
     3
 72
    21
 73
    17
 74
     0
 42
0.000000003058417
 43
0.0000000001
 40
0.0
 40
0.0
 40
0.0
 40
0.0
 40
0.0625
 40
0.125
 40
0.1875
 40
0.25
 40
0.3125
 40
0.375
 40
0.5
 40
0.625
 40
0.6875
 40
0.75
 40
0.8125
 40
0.875
 40
0.9375
 40
1.0
 40
1.0
 40
1.0
 40
1.0
 10
425.7598622727856
 20
538.2117012227375
 30
0.0
 10
425.8252799099279
 20
538.1933286605326
 30
0.0
 10
425.9560752771459
 20
538.1563797350062
 30
0.0
 10
426.1491706517457
 20
538.0906647502051
 30
0.0
 10
426.3359938190421
 20
538.0085041479892
 30
0.0
 10
426.5131104931731
 20
537.9069393771986
 30
0.0
 10
426.6771563264109
 20
537.7853036178673
 30
0.0
 10
426.8750383651255
 20
537.5983071057941
 30
0.0
 10
427.0771416578773
 20
537.3221355531771
 30
0.0
 10
427.207843502241
 20
537.0058224367205
 30
0.0
 10
427.2640749705944
 20
536.7394194791104
 30
0.0
 10
427.2819068807632
 20
536.5359691315721
 30
0.0
 10
427.2754426461552
 20
536.3318911386765
 30
0.0
 10
427.2470990409576
 20
536.1297723821901
 30
0.0
 10
427.2013497590387
 20
535.9309977866367
 30
0.0
 10
427.1639812838322
 20
535.8003225816188
 30
0.0
 10
427.1452520993004
 20
535.7350061529613
 30
0.0
  0
LINE
  5
192
330
18B
100
AcDbEntity
  8
$DDT_AUDIT_GENERATED_(6B)
  6
Continuous
 62
     7
100
AcDbLine
 10
296.206453957
 20
485.6679691447
 30
0.0
 11
292.3674431475
 21
486.7687877802
 31
0.0
  0
ARC
  5
193
330
18B
100
AcDbEntity
  8
$DDT_AUDIT_GENERATED_(6B)
  6
Continuous
 62
     7
100
AcDbCircle
 10
340.1540614387
 20
488.8596872813
 30
0.0
 40
39.38738474431648
100
AcDbArc
 50
117.8374557963
 51
137.6155983817
  0
ARC
  5
194
330
18B
100
AcDbEntity
  8
$DDT_AUDIT_GENERATED_(6B)
  6
Continuous
 62
     7
100
AcDbCircle
 10
397.8823504485
 20
372.7844868565
 30
0.0
 40
155.540872125372
100
AcDbArc
 50
85.6661640583
 51
88.1220685164
  0
SPLINE
  5
195
330
18B
100
AcDbEntity
  8
$DDT_AUDIT_GENERATED_(6B)
  6
Continuous
 62
     7
100
AcDbSpline
210
0.0
220
0.0
230
1.0
 70
     8
 71
     5
 72
    12
 73
     6
 74
     0
 42
0.0000000025963492
 43
0.0000000001
 40
0.0
 40
0.0
 40
0.0
 40
0.0
 40
0.0
 40
0.0
 40
1.0
 40
1.0
 40
1.0
 40
1.0
 40
1.0
 40
1.0
 10
425.3690496998194
 20
529.5406522498264
 30
0.0
 10
425.1694049210652
 20
528.8444081647611
 30
0.0
 10
424.9697601423109
 20
528.1481640796961
 30
0.0
 10
424.278672464629
 20
527.4880016958945
 30
0.0
 10
423.5734444785298
 20
527.325902694186
 30
0.0
 10
422.867546973668
 20
527.1667736827985
 30
0.0
  0
SPLINE
  5
196
330
18B
100
AcDbEntity
  8
$DDT_AUDIT_GENERATED_(6B)
  6
Continuous
 62
     7
100
AcDbSpline
210
0.0
220
0.0
230
1.0
 70
     8
 71
     3
 72
    26
 73
    22
 74
     0
 42
0.0000000007530638
 43
0.0000000001
 40
0.0
 40
0.0
 40
0.0
 40
0.0
 40
0.0157061912605941
 40
0.0313468428226032
 40
0.0470962938978287
 40
0.0631230493863859
 40
0.0939745265202866
 40
0.1258874822703123
 40
0.1848541231686319
 40
0.2506611769622846
 40
0.3098772677515995
 40
0.3760042422710527
 40
0.5003913380920001
 40
0.6256117164298481
 40
0.7501946826400846
 40
0.8129961060556363
 40
0.8754742906108235
 40
0.9072991080805372
 40
0.9377126979858539
 40
0.9750636187019232
 40
1.0
 40
1.0
 40
1.0
 40
1.0
 10
422.867546973668
 20
527.1667736827985
 30
0.0
 10
422.8708677541543
 20
527.1678596681222
 30
0.0
 10
422.8774954579825
 20
527.1700271071071
 30
0.0
 10
422.8753811037864
 20
527.1748451985303
 30
0.0
 10
422.864077827994
 20
527.1805496893954
 30
0.0
 10
422.8367783145698
 20
527.1893434732846
 30
0.0
 10
422.7816214294519
 20
527.2024996780995
 30
0.0
 10
422.6523423656898
 20
527.2250331552119
 30
0.0
 10
422.4097892008153
 20
527.2539994957654
 30
0.0
 10
422.0133081351663
 20
527.2829142759745
 30
0.0
 10
421.4837259094882
 20
527.3094119214314
 30
0.0
 10
420.641577320205
 20
527.3461300240581
 30
0.0
 10
419.284431188276
 20
527.3980718974958
 30
0.0
 10
417.2685453868372
 20
527.4764991483243
 30
0.0
 10
415.3104225091822
 20
527.5573823002952
 30
0.0
 10
413.6347936225014
 20
527.6326926928177
 30
0.0
 10
412.5428679508936
 20
527.688063235073
 30
0.0
 10
411.659011406878
 20
527.739875005671
 30
0.0
 10
410.9448875284807
 20
527.786265379808
 30
0.0
 10
410.2734432240262
 20
527.833628477956
 30
0.0
 10
409.8183869471193
 20
527.8670964654118
 30
0.0
 10
409.6362008554398
 20
527.8806180208376
 30
0.0
  0
SPLINE
  5
197
330
18B
100
AcDbEntity
  8
$DDT_AUDIT_GENERATED_(6B)
  6
Continuous
 62
     7
100
AcDbSpline
210
0.0
220
0.0
230
1.0
 70
     8
 71
     3
 72
    16
 73
    12
 74
     0
 42
0.000000000142409
 43
0.0000000001
 40
0.0
 40
0.0
 40
0.0
 40
0.0
 40
0.25
 40
0.25
 40
0.5
 40
0.5
 40
0.75
 40
0.75
 40
0.875
 40
0.875
 40
1.0
 40
1.0
 40
1.0
 40
1.0
 10
356.6426711690522
 20
550.381822686661
 30
0.0
 10
362.4229641594219
 20
549.4551343721586
 30
0.0
 10
368.2114555792718
 20
548.5809247032738
 30
0.0
 10
379.790902785596
 20
546.8482890101646
 30
0.0
 10
385.5818837165475
 20
545.9901423621674
 30
0.0
 10
397.1478556959169
 20
544.1699330418885
 30
0.0
 10
402.924044093378
 20
543.2100192277467
 30
0.0
 10
411.5389014242584
 20
541.562251349706
 30
0.0
 10
414.4025499645315
 20
540.9778738720631
 30
0.0
 10
420.104482527117
 20
539.697352709422
 30
0.0
 10
422.9431237615138
 20
539.0027830436882
 30
0.0
 10
425.7598622727856
 20
538.2117012227375
 30
0.0
  0
SPLINE
  5
198
330
18B
100
AcDbEntity
  8
$DDT_AUDIT_GENERATED_(6B)
  6
Continuous
 62
     7
100
AcDbSpline
210
0.0
220
0.0
230
1.0
 70
     8
 71
     3
 72
     8
 73
     4
 74
     0
 42
0.0000000004659385
 43
0.0000000001
 40
0.0
 40
0.0
 40
0.0
 40
0.0
 40
1.0
 40
1.0
 40
1.0
 40
1.0
 10
343.127793219822
 20
559.8276403065773
 30
0.0
 10
341.5330955354141
 20
554.2662662102617
 30
0.0
 10
348.4495517680564
 20
551.6953412454897
 30
0.0
 10
356.6426711690522
 20
550.381822686661
 30
0.0
  0
LINE
  5
199
330
18B
100
AcDbEntity
  8
$DDT_AUDIT_GENERATED_(6B)
  6
Continuous
 62
     7
100
AcDbLine
 10
343.1277932198
 20
559.8276403066
 30
0.0
 11
344.285329437
 21
563.8644488295
 31
0.0
  0
SPLINE
  5
19A
330
18B
100
AcDbEntity
  8
$DDT_AUDIT_GENERATED_(6B)
  6
Continuous
 62
     7
100
AcDbSpline
210
0.0
220
0.0
230
1.0
 70
     8
 71
     3
 72
    22
 73
    18
 74
     0
 42
0.0000000002656185
 43
0.0000000001
 40
0.0
 40
0.0
 40
0.0
 40
0.0
 40
0.0317458345566946
 40
0.0634608050601762
 40
0.1267185539492039
 40
0.1478332934477818
 40
0.1899975545969879
 40
0.2215894070184209
 40
0.2531439148171756
 40
0.3160564966638793
 40
0.3788178003896778
 40
0.4413536583521228
 40
0.5036262092247332
 40
0.6275324758281936
 40
0.7511511693366162
 40
0.8471574200441709
 40
1.0
 40
1.0
 40
1.0
 40
1.0
 10
320.2016209287255
 20
566.4011796391126
 30
0.0
 10
320.1733152796276
 20
566.0026724510572
 30
0.0
 10
320.1167954016245
 20
565.2060369046421
 30
0.0
 10
320.1697113873866
 20
563.6109308008097
 30
0.0
 10
320.4651383949196
 20
562.1652458051242
 30
0.0
 10
321.0301302148506
 20
560.6795489393535
 30
0.0
 10
321.5581829883076
 20
559.6079207751031
 30
0.0
 10
322.278618548218
 20
558.4983268915579
 30
0.0
 10
323.2704122847286
 20
557.2649934148731
 30
0.0
 10
324.7313557739178
 20
555.9297580041391
 30
0.0
 10
326.6815599543532
 20
554.6119449775192
 30
0.0
 10
328.7291256245018
 20
553.4792408164551
 30
0.0
 10
331.5299269656875
 20
552.1462185480823
 30
0.0
 10
335.1422423253632
 20
550.7363809113733
 30
0.0
 10
339.2791954549983
 20
549.5234062085838
 30
0.0
 10
343.8429498093686
 20
548.4964822345753
 30
0.0
 10
346.9379080332389
 20
548.0520816687696
 30
0.0
 10
348.8388086418366
 20
547.7789897400692
 30
0.0
  0
ARC
  5
19B
330
18B
100
AcDbEntity
  8
$DDT_AUDIT_GENERATED_(6B)
  6
Continuous
 62
     7
100
AcDbCircle
 10
365.3949611775
 20
469.8505731255
 30
0.0
 40
70.90776100194584
100
AcDbArc
 50
140.0194351684
 51
165.9123864495
  0
LINE
  5
19C
330
18B
100
AcDbEntity
  8
$DDT_AUDIT_GENERATED_(6B)
  6
Continuous
 62
     7
100
AcDbLine
 10
422.8675469737
 20
527.1667736828
 30
0.0
 11
419.6266520325
 21
526.4598098546
 31
0.0
  0
SPLINE
  5
19D
330
18B
100
AcDbEntity
  8
$DDT_AUDIT_GENERATED_(6B)
  6
Continuous
 62
     7
100
AcDbSpline
210
0.0
220
0.0
230
1.0
 70
     8
 71
     5
 72
    12
 73
     6
 74
     0
 42
0.0000000003480128
 43
0.0000000001
 40
0.0
 40
0.0
 40
0.0
 40
0.0
 40
0.0
 40
0.0
 40
1.0
 40
1.0
 40
1.0
 40
1.0
 40
1.0
 40
1.0
 10
320.325817213099
 20
480.3123021800021
 30
0.0
 10
321.7819851852929
 20
485.3905633988892
 30
0.0
 10
323.2381531574866
 20
490.4688246177765
 30
0.0
 10
326.4684749426402
 20
500.2243241401203
 30
0.0
 10
329.5778129542804
 20
502.6570060493818
 30
0.0
 10
332.7836034406998
 20
504.9551412967844
 30
0.0
  0
LINE
  5
19E
330
18B
100
AcDbEntity
  8
$DDT_AUDIT_GENERATED_(6B)
  6
Continuous
 62
     7
100
AcDbLine
 10
319.9123611787
 20
478.8704096337
 30
0.0
 11
296.206453957
 21
485.6679691447
 31
0.0
  0
LINE
  5
19F
330
18B
100
AcDbEntity
  8
$DDT_AUDIT_GENERATED_(6B)
  6
Continuous
 62
     7
100
AcDbLine
 10
320.3258172131
 20
480.31230218
 30
0.0
 11
319.9123611787
 21
478.8704096337
 31
0.0
  0
SPLINE
  5
1A0
330
18B
100
AcDbEntity
  8
$DDT_AUDIT_GENERATED_(6B)
  6
Continuous
 62
     7
100
AcDbSpline
210
0.0
220
0.0
230
1.0
 70
     8
 71
     3
 72
    35
 73
    31
 74
     0
 42
0.0000000001219112
 43
0.0000000001
 40
0.0
 40
0.0
 40
0.0
 40
0.0
 40
0.0313855805223449
 40
0.0627716299283073
 40
0.1255446818987792
 40
0.1883142348243156
 40
0.2197005063130162
 40
0.2510854535308684
 40
0.3138505391198683
 40
0.3766113001092237
 40
0.4393458775834977
 40
0.4705194972305322
 40
0.501648403522595
 40
0.5639413612965737
 40
0.5950857834470666
 40
0.6262280149899606
 40
0.688513641871428
 40
0.7507730151549908
 40
0.777436079852109
 40
0.8129963024244369
 40
0.8441550883387698
 40
0.8753132485198118
 40
0.8908928858238032
 40
0.9064802054725203
 40
0.9220702430556577
 40
0.9376592908292298
 40
0.9532463298350475
 40
0.9688369024901444
 40
0.984189620928533
 40
1.0
 40
1.0
 40
1.0
 40
1.0
 10
402.9794589578282
 20
528.2418198658436
 30
0.0
 10
402.1254292450121
 20
528.2703018202835
 30
0.0
 10
400.4173629779123
 20
528.3271497783302
 30
0.0
 10
396.995072545512
 20
528.4177437582442
 30
0.0
 10
392.7194516431127
 20
528.5392397997635
 30
0.0
 10
388.4483243021056
 20
528.6911452735172
 30
0.0
 10
385.0321763926
 20
528.822946250083
 30
0.0
 10
381.6150601290207
 20
528.9547966142934
 30
0.0
 10
377.3399349365946
 20
529.1036310409867
 30
0.0
 10
372.2011449917115
 20
529.2152335488463
 30
0.0
 10
367.9187300457073
 20
529.2420991181651
 30
0.0
 10
364.4994732559636
 20
529.2378769899155
 30
0.0
 10
361.0916482387555
 20
529.2215072772411
 30
0.0
 10
357.6840232395391
 20
529.1968990236646
 30
0.0
 10
354.2753803405246
 20
529.1608706937617
 30
0.0
 10
350.8663072160294
 20
529.1117107499559
 30
0.0
 10
346.604640589584
 20
529.0103291820851
 30
0.0
 10
342.4658496197505
 20
528.7990044585797
 30
0.0
 10
339.0658295957188
 20
528.5062803071364
 30
0.0
 10
336.5221217886887
 20
528.2073902217597
 30
0.0
 10
333.8706685823656
 20
527.7830264912108
 30
0.0
 10
331.7775699677618
 20
527.3476327685129
 30
0.0
 10
330.1193817417846
 20
526.9303108516796
 30
0.0
 10
328.8850376554067
 20
526.5811853691494
 30
0.0
 10
327.6613980121037
 20
526.1952691004117
 30
0.0
 10
326.4500413499985
 20
525.7719623869999
 30
0.0
 10
325.252382974177
 20
525.3106472372524
 30
0.0
 10
324.076304356249
 20
524.8126361924799
 30
0.0
 10
322.9102145606965
 20
524.2757745526593
 30
0.0
 10
322.1481518501396
 20
523.8865116664308
 30
0.0
 10
321.7615386050566
 20
523.6890022445331
 30
0.0
  0
SPLINE
  5
1A1
330
18B
100
AcDbEntity
  8
$DDT_AUDIT_GENERATED_(6B)
  6
Continuous
 62
     7
100
AcDbSpline
210
0.0
220
0.0
230
1.0
 70
    12
 71
     3
 72
     8
 73
     4
 74
     0
 42
0.000000000421282
 43
0.0000000001
 40
0.039838918240388
 40
0.039838918240388
 40
0.039838918240388
 40
0.039838918240388
 40
1.0
 40
1.0
 40
1.0
 40
1.0
 10
294.4141966735698
 20
578.3208164915598
 30
0.0
 41
0.9807682894397848
 10
295.0926648518076
 20
578.1263150250337
 30
0.0
 41
0.8326771744137295
 10
303.7908102436581
 20
575.6321596398084
 30
0.0
 41
0.8390877446004679
 10
316.3227025064728
 20
572.0386486704887
 30
0.0
 41
1.0
  0
LINE
  5
1A2
330
18B
100
AcDbEntity
  8
$DDT_AUDIT_GENERATED_(6B)
  6
Continuous
 62
     7
100
AcDbLine
 10
344.2880388794
 20
564.0197079493
 30
0.0
 11
344.1957443586
 21
564.3898814043
 31
0.0
  0
ARC
  5
1A3
330
18B
100
AcDbEntity
  8
$DDT_AUDIT_GENERATED_(6B)
  6
Continuous
 62
     7
100
AcDbCircle
 10
294.5883096431
 20
578.1144516086
 30
0.0
 40
0.3013951909574638
100
AcDbArc
 50
134.0710464454
 51
163.9289463502
  0
ARC
  5
1A4
330
18B
100
AcDbEntity
  8
$DDT_AUDIT_GENERATED_(6B)
  6
Continuous
 62
     7
100
AcDbCircle
 10
343.9954336698
 20
563.9471607297
 30
0.0
 40
0.3014644494086405
100
AcDbArc
 50
344.0757042176
 51
13.9248537384
  0
ARC
  5
1A5
330
18B
100
AcDbEntity
  8
$DDT_AUDIT_GENERATED_(6B)
  6
Continuous
 62
     7
100
AcDbCircle
 10
319.8359005965
 20
570.9326700015
 30
0.0
 40
2.816466215714138
100
AcDbArc
 50
162.0718644778
 51
165.124125305
  0
LINE
  5
1A6
330
18B
100
AcDbEntity
  8
$DDT_AUDIT_GENERATED_(6B)
  6
Continuous
 62
     7
100
AcDbLine
 10
317.2641130071
 20
572.1124024253
 30
0.0
 11
317.1561932236
 21
571.7996487782
 31
0.0
  0
LINE
  5
1A7
330
18B
100
AcDbEntity
  8
$DDT_AUDIT_GENERATED_(6B)
  6
Continuous
 62
     7
100
AcDbLine
 10
294.6529896217
 20
578.5960377229
 30
0.0
 11
294.378605773
 21
578.3310683201
 31
0.0
  0
SPLINE
  5
1A8
330
18B
100
AcDbEntity
  8
$DDT_AUDIT_GENERATED_(6B)
  6
Continuous
 62
     7
100
AcDbSpline
210
0.0
220
0.0
230
1.0
 70
     8
 71
     3
 72
    16
 73
    12
 74
     0
 42
0.0000000001526924
 43
0.0000000001
 40
0.0
 40
0.0
 40
0.0
 40
0.0
 40
0.5000000000000001
 40
0.5000000000000001
 40
0.7500000000000002
 40
0.7500000000000002
 40
0.8750000000000003
 40
0.8750000000000003
 40
0.9375000000000002
 40
0.9375000000000002
 40
1.0
 40
1.0
 40
1.0
 40
1.0
 10
395.5484597401351
 20
521.9132780199344
 30
0.0
 10
384.8016959503973
 20
519.9910307514624
 30
0.0
 10
374.0443265975848
 20
518.1085263780569
 30
0.0
 10
358.0334565376747
 20
514.6798991278532
 30
0.0
 10
352.7092113985144
 20
513.4513087354771
 30
0.0
 10
344.8647484333467
 20
511.0974437054572
 30
0.0
 10
342.2723776489116
 20
510.2286943687997
 30
0.0
 10
338.5291633915686
 20
508.564633533172
 30
0.0
 10
337.3209035704416
 20
507.9398002770713
 30
0.0
 10
335.0044306394852
 20
506.527279611623
 30
0.0
 10
333.8898450719435
 20
505.748172811375
 30
0.0
 10
332.7836034406998
 20
504.9551412967844
 30
0.0
  0
SPLINE
  5
1A9
330
18B
100
AcDbEntity
  8
$DDT_AUDIT_GENERATED_(6B)
  6
Continuous
 62
     7
100
AcDbSpline
210
0.0
220
0.0
230
1.0
 70
     8
 71
     3
 72
    24
 73
    20
 74
     0
 42
0.0000000004020505
 43
0.0000000001
 40
0.0
 40
0.0
 40
0.0
 40
0.0
 40
0.1250000000000001
 40
0.1250000000000001
 40
0.2500000000000002
 40
0.2500000000000002
 40
0.3750000000000003
 40
0.3750000000000003
 40
0.4375000000000002
 40
0.4375000000000002
 40
0.5
 40
0.5
 40
0.625
 40
0.625
 40
0.75
 40
0.75
 40
0.875
 40
0.875
 40
1.0
 40
1.0
 40
1.0
 40
1.0
 10
395.5484597401351
 20
521.9132780199344
 30
0.0
 10
395.548432050819
 20
521.9134400090861
 30
0.0
 10
395.8455715606663
 20
522.0979840061942
 30
0.0
 10
396.9801173440368
 20
522.7315296861348
 30
0.0
 10
397.8189317950888
 20
523.1815205170361
 30
0.0
 10
399.9181441952219
 20
524.1221940989876
 30
0.0
 10
401.2038037869584
 20
524.6177231001985
 30
0.0
 10
403.3374755321557
 20
525.2224203943434
 30
0.0
 10
404.0980759592705
 20
525.4055866733212
 30
0.0
 10
405.6492973947898
 20
525.7096618238826
 30
0.0
 10
406.4377291886058
 20
525.8303819944468
 30
0.0
 10
408.8389056323182
 20
526.1143853232815
 30
0.0
 10
410.4473143791149
 20
526.2116283444191
 30
0.0
 10
413.4516104592246
 20
526.3635535133109
 30
0.0
 10
414.8144167878195
 20
526.4069301348198
 30
0.0
 10
417.1122721003785
 20
526.467731078177
 30
0.0
 10
418.0382108478494
 20
526.4817782391999
 30
0.0
 10
419.2909134092559
 20
526.4777992964158
 30
0.0
 10
419.6266349980638
 20
526.4599095103474
 30
0.0
 10
419.6266520325319
 20
526.4598098546047
 30
0.0
  0
LINE
  5
1AA
330
18B
100
AcDbEntity
  8
$DDT_AUDIT_GENERATED_(6B)
  6
Continuous
 62
     7
100
AcDbLine
 10
294.29869322
 20
578.1978865448
 30
0.0
 11
269.9269442839
 21
493.2034972835
 31
0.0
  0
LINE
  5
1AB
330
18B
100
AcDbEntity
  8
02636038_GEHÄUSE
  6
Continuous
 62
     7
100
AcDbLine
 10
397.9134301004
 20
516.9802698356
 30
0.0
 11
419.1060546858
 21
520.6027914962
 31
0.0
  0
SPLINE
  5
1AC
330
18B
100
AcDbEntity
  8
02636038_GEHÄUSE
  6
Continuous
 62
     7
100
AcDbSpline
210
0.0
220
0.0
230
1.0
 70
     8
 71
     3
 72
    10
 73
     6
 74
     0
 42
0.0000000019260148
 43
0.0000000001
 40
0.0
 40
0.0
 40
0.0
 40
0.0
 40
0.5
 40
0.5
 40
1.0
 40
1.0
 40
1.0
 40
1.0
 10
411.0057652343343
 20
519.5403319140439
 30
0.0
 10
410.175262266116
 20
519.2828013498647
 30
0.0
 10
409.3354834225495
 20
519.0791184491292
 30
0.0
 10
407.6358032528813
 20
518.7885662772655
 30
0.0
 10
406.7759016557214
 20
518.7016985796657
 30
0.0
 10
405.9067144242971
 20
518.6687351972872
 30
0.0
  0
LINE
  5
1AD
330
18B
100
AcDbEntity
  8
02636038_GEHÄUSE
  6
Continuous
 62
     7
100
AcDbLine
 10
412.2140474835
 20
522.4682307893
 30
0.0
 11
403.7945010253
 21
521.0290513571
 31
0.0
  0
LINE
  5
1AE
330
18B
100
AcDbEntity
  8
02636038_GEHÄUSE
  6
Continuous
 62
     7
100
AcDbLine
 10
412.2140474835
 20
522.4682307893
 30
0.0
 11
412.5200969754
 21
520.6777675166
 31
0.0
  0
SPLINE
  5
1AF
330
18B
100
AcDbEntity
  8
02636038_GEHÄUSE
  6
Continuous
 62
     7
100
AcDbSpline
210
0.0
220
0.0
230
1.0
 70
     8
 71
     3
 72
    14
 73
    10
 74
     0
 42
0.0000000049321089
 43
0.0000000001
 40
0.0
 40
0.0
 40
0.0
 40
0.0
 40
0.1250000000000004
 40
0.1250000000000004
 40
0.2500000000000009
 40
0.2500000000000009
 40
0.5000000000000008
 40
0.5000000000000008
 40
1.0
 40
1.0
 40
1.0
 40
1.0
 10
412.5200969754487
 20
520.6777675165956
 30
0.0
 10
412.5342907396384
 20
520.5947305760043
 30
0.0
 10
412.516794850992
 20
520.5063823775315
 30
0.0
 10
412.4458201931183
 20
520.3530336453192
 30
0.0
 10
412.3935392926187
 20
520.2842257517103
 30
0.0
 10
412.2195839404582
 20
520.1011782696128
 30
0.0
 10
412.0778553776177
 20
520.0045117958388
 30
0.0
 10
411.6426939965015
 20
519.7562706214534
 30
0.0
 10
411.3254269606734
 20
519.6394557797987
 30
0.0
 10
411.0057652343343
 20
519.5403319140439
 30
0.0
  0
SPLINE
  5
1B0
330
18B
100
AcDbEntity
  8
02636038_GEHÄUSE
  6
Continuous
 62
     7
100
AcDbSpline
210
0.0
220
0.0
230
1.0
 70
     8
 71
     3
 72
    18
 73
    14
 74
     0
 42
0.0000000049401632
 43
0.0000000001
 40
0.0
 40
0.0
 40
0.0
 40
0.0
 40
0.2499999999999998
 40
0.2499999999999998
 40
0.4999999999999997
 40
0.4999999999999997
 40
0.6249999999999992
 40
0.6249999999999992
 40
0.7499999999999989
 40
0.7499999999999989
 40
0.8749999999999994
 40
0.8749999999999994
 40
1.0
 40
1.0
 40
1.0
 40
1.0
 10
405.9067144242971
 20
518.6687351972872
 30
0.0
 10
405.73899554521
 20
518.6623745636472
 30
0.0
 10
405.5712480913649
 20
518.6611679058065
 30
0.0
 10
405.2356600899613
 20
518.6755457296781
 30
0.0
 10
405.0678957989738
 20
518.6909523147337
 30
0.0
 10
404.8213120392231
 20
518.7359789488027
 30
0.0
 10
404.7398262704059
 20
518.7546855466109
 30
0.0
 10
404.5790063178951
 20
518.8033230078408
 30
0.0
 10
404.4992195749957
 20
518.8334464276533
 30
0.0
 10
404.3502180963374
 20
518.9097307112319
 30
0.0
 10
404.2789407295484
 20
518.9564990230214
 30
0.0
 10
404.1602212113602
 20
519.0783973171573
 30
0.0
 10
404.1149986472009
 20
519.1540630427515
 30
0.0
 10
404.1005505172403
 20
519.2385880843942
 30
0.0
  0
LINE
  5
1B1
330
18B
100
AcDbEntity
  8
02636038_GEHÄUSE
  6
Continuous
 62
     7
100
AcDbLine
 10
404.1005505172
 20
519.2385880844
 30
0.0
 11
403.7945010253
 21
521.0290513571
 31
0.0
  0
LINE
  5
1B2
330
18B
100
AcDbEntity
  8
02636038_GEHÄUSE
  6
Continuous
 62
     7
100
AcDbLine
 10
397.3177906286
 20
517.2006035666
 30
0.0
 11
397.9134301004
 21
516.9802698356
 31
0.0
  0
LINE
  5
1B3
330
18B
100
AcDbEntity
  8
02636038_GEHÄUSE
  6
Continuous
 62
     7
100
AcDbLine
 10
419.1060546858
 20
520.6027914962
 30
0.0
 11
419.59468903
 21
521.0084635448
 31
0.0
  0
ARC
  5
1B4
330
18B
100
AcDbEntity
  8
02636038_GEHÄUSE
  6
Continuous
 62
     7
100
AcDbCircle
 10
397.6647262802
 20
518.1384925012
 30
0.0
 40
1.000000000000001
100
AcDbArc
 50
189.7
 51
249.7
  0
ARC
  5
1B5
330
18B
100
AcDbEntity
  8
02636038_GEHÄUSE
  6
Continuous
 62
     7
100
AcDbCircle
 10
418.9559212125
 20
521.7778630998
 30
0.0
 40
1.000000000000003
100
AcDbArc
 50
309.7
 51
9.7
  0
LINE
  5
1B6
330
18B
100
AcDbEntity
  8
02636038_GEHÄUSE
  6
Continuous
 62
     7
100
AcDbLine
 10
395.9631853887
 20
522.1578245286
 30
0.0
 11
396.6790228111
 21
517.9700031216
 31
0.0
  0
LINE
  5
1B7
330
18B
100
AcDbEntity
  8
02636038_GEHÄUSE
  6
Continuous
 62
     7
100
AcDbLine
 10
419.9416246816
 20
521.9463524794
 30
0.0
 11
419.1679000096
 21
526.4728282446
 31
0.0
  0
LINE
  5
1B8
330
18B
100
AcDbEntity
  8
$DDT_AUDIT_GENERATED_(9F)
  6
Continuous
 62
     7
100
AcDbLine
 10
399.7058069231
 20
516.8808448622
 30
0.0
 11
417.4484693667
 21
519.9136536943
 31
0.0
  0
LINE
  5
1B9
330
18B
100
AcDbEntity
  8
$DDT_AUDIT_GENERATED_(9F)
  6
Continuous
 62
     7
100
AcDbLine
 10
399.6384111713
 20
517.2751262498
 30
0.0
 11
399.7058069231
 21
516.8808448622
 31
0.0
  0
LINE
  5
1BA
330
18B
100
AcDbEntity
  8
$DDT_AUDIT_GENERATED_(9F)
  6
Continuous
 62
     7
100
AcDbLine
 10
417.4484693667
 20
519.9136536943
 30
0.0
 11
417.3810736149
 21
520.307935082
 31
0.0
  0
ARC
  5
1BB
330
18B
100
AcDbEntity
  8
$DDT_AUDIT_GENERATED_(14F)
  6
Continuous
 62
     7
100
AcDbCircle
 10
434.5154612338
 20
618.6105845594
 30
0.0
 40
25.07582087541114
100
AcDbArc
 50
302.2185017133
 51
311.5707652589
  0
LINE
  5
1BC
330
18B
100
AcDbEntity
  8
$DDT_AUDIT_GENERATED_(14F)
  6
Continuous
 62
     7
100
AcDbLine
 10
436.6161430646
 20
612.1161596003
 30
0.0
 11
439.9614426729
 21
614.472014087
 31
0.0
  0
SPLINE
  5
1BD
330
18B
100
AcDbEntity
  8
$DDT_AUDIT_GENERATED_(14F)
  6
Continuous
 62
     7
100
AcDbSpline
210
0.0
220
0.0
230
1.0
 70
     8
 71
     3
 72
    27
 73
    23
 74
     0
 42
0.0000000003718235
 43
0.0000000001
 40
0.0
 40
0.0
 40
0.0
 40
0.0
 40
0.0308776607097604
 40
0.0830037292757219
 40
0.1351297978416834
 40
0.1872558664076449
 40
0.2393819349736064
 40
0.291508003539564
 40
0.3436340721055255
 40
0.395760140671487
 40
0.4478862092374483
 40
0.5000122778034098
 40
0.5521383463693713
 40
0.604264414935329
 40
0.6563904835012904
 40
0.7085165520672527
 40
0.7606426206332133
 40
0.8127686891991741
 40
0.8648947577651351
 40
0.9170208263310958
 40
0.9691468948970565
 40
1.0
 40
1.0
 40
1.0
 40
1.0
 10
439.9614426728616
 20
614.4720140870236
 30
0.0
 10
440.2003766055576
 20
614.6113822494897
 30
0.0
 10
440.8595835819069
 20
614.9579563217387
 30
0.0
 10
441.9930010272803
 20
615.3877863537002
 30
0.0
 10
443.360697969048
 20
615.6828026814695
 30
0.0
 10
444.7599646864498
 20
615.7698343471619
 30
0.0
 10
446.1605119437086
 20
615.6446298860672
 30
0.0
 10
447.5161302409977
 20
615.3133018888105
 30
0.0
 10
448.8118701028098
 20
614.7815970096909
 30
0.0
 10
450.0192163733058
 20
614.0569309118457
 30
0.0
 10
451.1000504965443
 20
613.1609837964345
 30
0.0
 10
452.0300417907804
 20
612.1191997553617
 30
0.0
 10
452.7984130476523
 20
610.9409185642895
 30
0.0
 10
453.3769211717246
 20
609.6710317307226
 30
0.0
 10
453.7620211892086
 20
608.315318948125
 30
0.0
 10
453.9373317742144
 20
606.9283158669238
 30
0.0
 10
453.902483292806
 20
605.5228726286721
 30
0.0
 10
453.6585119255054
 20
604.1465634656118
 30
0.0
 10
453.2081628448759
 20
602.8151538997913
 30
0.0
 10
452.5677057320865
 20
601.5740047484518
 30
0.0
 10
451.855306094439
 20
600.5933644364096
 30
0.0
 10
451.3511192535137
 20
600.044560356334
 30
0.0
 10
451.1543859609797
 20
599.8504412630776
 30
0.0
  0
LINE
  5
1BE
330
18B
100
AcDbEntity
  8
$DDT_AUDIT_GENERATED_(14F)
  6
Continuous
 62
     7
100
AcDbLine
 10
353.2375515256
 20
584.1636227913
 30
0.0
 11
351.1903210297
 21
580.3293840872
 31
0.0
  0
LINE
  5
1BF
330
18B
100
AcDbEntity
  8
$DDT_AUDIT_GENERATED_(14F)
  6
Continuous
 62
     7
100
AcDbLine
 10
348.4251913559
 20
572.2797270577
 30
0.0
 11
346.0641049243
 21
564.165732253
 31
0.0
  0
ARC
  5
1C0
330
18B
100
AcDbEntity
  8
$DDT_AUDIT_GENERATED_(14F)
  6
Continuous
 62
     7
100
AcDbCircle
 10
379.1008723157
 20
569.7626872168
 30
0.0
 40
30.77877339839032
100
AcDbArc
 50
174.4584622191
 51
175.3092025743
  0
ARC
  5
1C1
330
18B
100
AcDbEntity
  8
$DDT_AUDIT_GENERATED_(14F)
  6
Continuous
 62
     7
100
AcDbCircle
 10
361.0449687945
 20
572.7049898497
 30
0.0
 40
12.4597540125703
100
AcDbArc
 50
144.1728710757
 51
145.2712890529
  0
ARC
  5
1C2
330
18B
100
AcDbEntity
  8
$DDT_AUDIT_GENERATED_(14F)
  6
Continuous
 62
     7
100
AcDbCircle
 10
361.0449687945
 20
572.7049898497
 30
0.0
 40
12.4597540125703
100
AcDbArc
 50
142.2714133223
 51
142.4919171741
  0
ARC
  5
1C3
330
18B
100
AcDbEntity
  8
$DDT_AUDIT_GENERATED_(14F)
  6
Continuous
 62
     7
100
AcDbCircle
 10
360.9801302071
 20
572.7543174793
 30
0.0
 40
12.37828735494876
100
AcDbArc
 50
142.2683490345
 51
145.2882223556
  0
ARC
  5
1C4
330
18B
100
AcDbEntity
  8
$DDT_AUDIT_GENERATED_(14F)
  6
Continuous
 62
     7
100
AcDbCircle
 10
362.721379017
 20
571.9388427799
 30
0.0
 40
14.27762539194209
100
AcDbArc
 50
146.5773366549
 51
176.8034919143
  0
ARC
  5
1C5
330
18B
100
AcDbEntity
  8
$DDT_AUDIT_GENERATED_(14F)
  6
Continuous
 62
     7
100
AcDbCircle
 10
379.1792173996
 20
569.7545667585
 30
0.0
 40
30.85752019251736
100
AcDbArc
 50
174.4573868004
 51
175.3060714389
  0
LINE
  5
1C6
330
18B
100
AcDbEntity
  8
$DDT_AUDIT_GENERATED_(14F)
  6
Continuous
 62
     7
100
AcDbLine
 10
344.7667220007
 20
564.2261562001
 30
0.0
 11
305.454127003
 21
575.4988614178
 31
0.0
  0
LINE
  5
1C7
330
18B
100
AcDbEntity
  8
$DDT_AUDIT_GENERATED_(14F)
  6
Continuous
 62
     7
100
AcDbLine
 10
305.454127003
 20
575.4988614178
 30
0.0
 11
297.1486812139
 21
577.8804096745
 31
0.0
  0
LINE
  5
1C8
330
18B
100
AcDbEntity
  8
$DDT_AUDIT_GENERATED_(14F)
  6
Continuous
 62
     7
100
AcDbLine
 10
345.6488596619
 20
563.9732072961
 30
0.0
 11
344.7667220007
 21
564.2261562001
 31
0.0
  0
LINE
  5
1C9
330
18B
100
AcDbEntity
  8
$DDT_AUDIT_GENERATED_(14F)
  6
Continuous
 62
     7
100
AcDbLine
 10
297.1486812139
 20
577.8804096745
 30
0.0
 11
293.1682830315
 21
579.0217704868
 31
0.0
  0
ARC
  5
1CA
330
18B
100
AcDbEntity
  8
$DDT_AUDIT_GENERATED_(14F)
  6
Continuous
 62
     7
100
AcDbCircle
 10
330.7545197574
 20
567.4914319841
 30
0.0
 40
39.62168314851321
100
AcDbArc
 50
129.8824628221
 51
162.5156950754
  0
SPLINE
  5
1CB
330
18B
100
AcDbEntity
  8
$DDT_AUDIT_GENERATED_(14F)
  6
Continuous
 62
     7
100
AcDbSpline
210
0.0
220
0.0
230
1.0
 70
     8
 71
     3
 72
    60
 73
    56
 74
     0
 42
0.0000000000641806
 43
0.0000000001
 40
0.0
 40
0.0
 40
0.0
 40
0.0
 40
0.0072507887678891
 40
0.0141387748460004
 40
0.0302002097598245
 40
0.0623769676872502
 40
0.0840593324921417
 40
0.1270949037189028
 40
0.1588666002833967
 40
0.174764514432181
 40
0.190658899648621
 40
0.222443739666191
 40
0.2545085808829827
 40
0.2866046141196667
 40
0.3026454599257423
 40
0.3186794109543969
 40
0.3507726042443701
 40
0.3823589673061514
 40
0.3901736089094497
 40
0.3980087920994771
 40
0.4136348450262606
 40
0.4449166441446628
 40
0.4605534500616089
 40
0.4761898308893023
 40
0.491959162439509
 40
0.4983232368070145
 40
0.5078696545284442
 40
0.5316220699580835
 40
0.5494345391194194
 40
0.580275725832631
 40
0.6517378101147117
 40
0.7049627565016764
 40
0.7579192392169437
 40
0.7656357062013467
 40
0.7733483736430736
 40
0.7810545571774503
 40
0.7887676000028128
 40
0.7926187685185482
 40
0.7963669490283128
 40
0.8038753852188398
 40
0.8188919447408555
 40
0.8263954473312614
 40
0.8339035772109913
 40
0.8414132413927832
 40
0.8489174333196083
 40
0.8640407025968313
 40
0.8716360192301007
 40
0.8792284396546926
 40
0.8944095970405435
 40
0.9020088916386093
 40
0.9095269591418964
 40
0.9244862793298478
 40
0.9394493731841116
 40
0.9695787367642439
 40
1.0
 40
1.0
 40
1.0
 40
1.0
 10
296.9874715982575
 20
578.2416342900019
 30
0.0
 10
297.1107932262787
 20
578.6004235426396
 30
0.0
 10
297.3512173053047
 20
579.3000698410342
 30
0.0
 10
297.9266450936312
 20
580.7728116242974
 30
0.0
 10
299.1086488503774
 20
583.4085303672945
 30
0.0
 10
300.9460889350106
 20
586.5912853265763
 30
0.0
 10
303.911184843244
 20
590.7097503623409
 30
0.0
 10
307.3184746711481
 20
594.4528860465604
 30
0.0
 10
310.9129246705474
 20
597.5024810047314
 30
0.0
 10
313.5816449826357
 20
599.3976607216199
 30
0.0
 10
316.3407680545589
 20
601.1154036285503
 30
0.0
 10
319.9548016771699
 20
602.8962188133232
 30
0.0
 10
324.4930840889562
 20
604.518619805935
 30
0.0
 10
328.3970067286151
 20
605.4868447728193
 30
0.0
 10
331.5660411953867
 20
606.0629791404358
 30
0.0
 10
334.7616421858783
 20
606.5166959032797
 30
0.0
 10
338.7753519057134
 20
606.8706917531428
 30
0.0
 10
342.416213906639
 20
606.9834834619754
 30
0.0
 10
344.8357066666237
 20
606.9893671885869
 30
0.0
 10
346.4447982568949
 20
606.9751112116099
 30
0.0
 10
349.2790353971645
 20
606.8999946539277
 30
0.0
 10
352.5423644350284
 20
606.7283927936137
 30
0.0
 10
355.8082783900865
 20
606.4999069016184
 30
0.0
 10
358.2641768379765
 20
606.3026185629691
 30
0.0
 10
360.2349393207985
 20
606.1302654525916
 30
0.0
 10
361.8869340783512
 20
605.9753814586353
 30
0.0
 10
363.9540820935435
 20
605.7691995728717
 30
0.0
 10
366.6175678947918
 20
605.5042934099466
 30
0.0
 10
370.3896646283025
 20
605.116926511146
 30
0.0
 10
376.6455244258108
 20
604.4588554866807
 30
0.0
 10
384.7414655228781
 20
603.5682977958608
 30
0.0
 10
393.9838555056521
 20
602.5106457991449
 30
0.0
 10
399.9072468522725
 20
601.8128410448938
 30
0.0
 10
403.4630058976066
 20
601.3864918864703
 30
0.0
 10
404.6658474577962
 20
601.2421706948909
 30
0.0
 10
405.8683682516411
 20
601.0975448452608
 30
0.0
 10
406.8702720469421
 20
600.9754710571176
 30
0.0
 10
407.6662710366004
 20
600.8775724345688
 30
0.0
 10
408.4516507527425
 20
600.7810373210402
 30
0.0
 10
409.8177228414741
 20
600.6158415957775
 30
0.0
 10
411.3782380912077
 20
600.4206673251665
 30
0.0
 10
412.9407783350541
 20
600.241767303265
 30
0.0
 10
414.1113816678991
 20
600.0980469815195
 30
0.0
 10
415.2893310419325
 20
600.0112478095178
 30
0.0
 10
416.869417138999
 20
600.0734302949126
 30
0.0
 10
418.4347805108756
 20
600.3699280504251
 30
0.0
 10
419.9466643298377
 20
600.8576801064602
 30
0.0
 10
421.4214209465583
 20
601.4568470018397
 30
0.0
 10
422.8336807849515
 20
602.1989600610029
 30
0.0
 10
424.174023037164
 20
603.0482364278113
 30
0.0
 10
425.4772933234143
 20
603.9328682461123
 30
0.0
 10
427.0768600636146
 20
605.0672841093748
 30
0.0
 10
429.6166977138147
 20
606.9223542547375
 30
0.0
 10
432.8354044774289
 20
609.2204446106712
 30
0.0
 10
435.4111818051894
 20
611.0703221508361
 30
0.0
 10
436.7052834845347
 20
611.999713629931
 30
0.0
  0
ARC
  5
1CC
330
18B
100
AcDbEntity
  8
$DDT_AUDIT_GENERATED_(14F)
  6
Continuous
 62
     7
100
AcDbCircle
 10
293.2509742382
 20
579.3101489958
 30
0.0
 40
0.3000000001377281
100
AcDbArc
 50
163.460839314
 51
254.0
  0
ARC
  5
1CD
330
18B
100
AcDbEntity
  8
$DDT_AUDIT_GENERATED_(14F)
  6
Continuous
 62
     7
100
AcDbCircle
 10
345.7758579894
 20
564.2488809427
 30
0.0
 40
0.3000000001519776
100
AcDbArc
 50
253.9999999995
 51
343.9090854074
  0
SPLINE
  5
1CE
330
18B
100
AcDbEntity
  8
$DDT_AUDIT_GENERATED_(14F)
  6
Continuous
 62
     7
100
AcDbSpline
210
0.0
220
0.0
230
1.0
 70
     8
 71
     3
 72
    40
 73
    36
 74
     0
 42
0.0000000000727715
 43
0.0000000001
 40
0.0
 40
0.0
 40
0.0
 40
0.0
 40
0.0625000000000002
 40
0.0625000000000002
 40
0.1250000000000004
 40
0.1250000000000004
 40
0.1875000000000006
 40
0.1875000000000006
 40
0.2500000000000008
 40
0.2500000000000008
 40
0.312500000000001
 40
0.312500000000001
 40
0.3750000000000012
 40
0.3750000000000012
 40
0.4375000000000014
 40
0.4375000000000014
 40
0.5000000000000017
 40
0.5000000000000017
 40
0.6250000000000019
 40
0.6250000000000019
 40
0.750000000000002
 40
0.750000000000002
 40
0.7812500000000022
 40
0.7812500000000022
 40
0.7968750000000021
 40
0.7968750000000021
 40
0.8125000000000021
 40
0.8125000000000021
 40
0.8437500000000017
 40
0.8437500000000017
 40
0.8750000000000012
 40
0.8750000000000012
 40
0.9375000000000007
 40
0.9375000000000007
 40
1.0
 40
1.0
 40
1.0
 40
1.0
 10
305.3485106578033
 20
597.8955842852562
 30
0.0
 10
307.6022559754161
 20
599.7955332247117
 30
0.0
 10
310.0690302297639
 20
601.4501073978895
 30
0.0
 10
315.3653687738202
 20
604.0473653824953
 30
0.0
 10
318.1452052229645
 20
604.9853159659115
 30
0.0
 10
323.8265889330789
 20
606.4208457726359
 30
0.0
 10
326.7166113872372
 20
606.895217012107
 30
0.0
 10
332.5554356151781
 20
607.498669939019
 30
0.0
 10
335.4456935289859
 20
607.6241100821854
 30
0.0
 10
341.2359740075949
 20
607.6567310975302
 30
0.0
 10
344.1364608999183
 20
607.565103568045
 30
0.0
 10
349.8585162307337
 20
607.2464040307694
 30
0.0
 10
352.7229298025185
 20
607.0355249549182
 30
0.0
 10
358.4422103155584
 20
606.5707972665574
 30
0.0
 10
361.2947723446875
 20
606.3129569333472
 30
0.0
 10
367.0082631907974
 20
605.7619349851927
 30
0.0
 10
369.8820197900994
 20
605.4670780059168
 30
0.0
 10
378.3555976875305
 20
604.5614499901342
 30
0.0
 10
383.9626194251141
 20
603.9147702787164
 30
0.0
 10
395.2059449316435
 20
602.5647079311917
 30
0.0
 10
400.8346717181331
 20
601.8468077030138
 30
0.0
 10
407.8512937555304
 20
600.965105299578
 30
0.0
 10
409.2277658728417
 20
600.7991188839002
 30
0.0
 10
411.3347001059062
 20
600.5402924648345
 30
0.0
 10
412.0267193743027
 20
600.4534523322214
 30
0.0
 10
413.417382825507
 20
600.2948430910977
 30
0.0
 10
414.1207440599727
 20
600.1975815951179
 30
0.0
 10
416.2197162217966
 20
600.080498190793
 30
0.0
 10
417.6343578917637
 20
600.2964244221837
 30
0.0
 10
420.3206179678069
 20
601.1364331629558
 30
0.0
 10
421.5934576871242
 20
601.7461839290974
 30
0.0
 10
425.2555092223006
 20
603.8386594749404
 30
0.0
 10
427.483185883041
 20
605.5719421735774
 30
0.0
 10
432.0430643628592
 20
608.8418611982542
 30
0.0
 10
434.3393924137503
 20
610.4851436969104
 30
0.0
 10
436.6161430645603
 20
612.116159600277
 30
0.0
  0
SPLINE
  5
1CF
330
18B
100
AcDbEntity
  8
$DDT_AUDIT_GENERATED_(14F)
  6
Continuous
 62
     7
100
AcDbSpline
210
0.0
220
0.0
230
1.0
 70
     8
 71
     3
 72
    46
 73
    42
 74
     0
 42
0.000000000099507
 43
0.0000000001
 40
0.0
 40
0.0
 40
0.0
 40
0.0
 40
0.0625
 40
0.0625
 40
0.0937500000000002
 40
0.0937500000000002
 40
0.1250000000000005
 40
0.1250000000000005
 40
0.1875000000000012
 40
0.1875000000000012
 40
0.2187500000000014
 40
0.2187500000000014
 40
0.2500000000000016
 40
0.2500000000000016
 40
0.2812500000000018
 40
0.2812500000000018
 40
0.312500000000002
 40
0.312500000000002
 40
0.3437500000000022
 40
0.3437500000000022
 40
0.3750000000000023
 40
0.3750000000000023
 40
0.4062500000000025
 40
0.4062500000000025
 40
0.4375000000000027
 40
0.4375000000000027
 40
0.4687500000000029
 40
0.4687500000000029
 40
0.5000000000000031
 40
0.5000000000000031
 40
0.6250000000000027
 40
0.6250000000000027
 40
0.7500000000000019
 40
0.7500000000000019
 40
0.8125000000000014
 40
0.8125000000000014
 40
0.8750000000000011
 40
0.8750000000000011
 40
0.9375000000000006
 40
0.9375000000000006
 40
1.0
 40
1.0
 40
1.0
 40
1.0
 10
447.8846225314155
 20
597.3959123070853
 30
0.0
 10
446.166051744756
 20
596.1790219648824
 30
0.0
 10
444.4531087065848
 20
594.9647599149911
 30
0.0
 10
441.8725164817155
 20
593.1391801998128
 30
0.0
 10
441.0219557013818
 20
592.5106090839848
 30
0.0
 10
439.2843979747651
 20
591.3559464452715
 30
0.0
 10
438.3474841786258
 20
590.8437111645742
 30
0.0
 10
435.4667766719386
 20
589.5773786059945
 30
0.0
 10
433.3864500008003
 20
589.067438240987
 30
0.0
 10
430.2373589199224
 20
588.8570802766045
 30
0.0
 10
429.1803304497408
 20
588.9000378240967
 30
0.0
 10
427.0917960677824
 20
589.0867103343246
 30
0.0
 10
426.0430526371827
 20
589.1863423229739
 30
0.0
 10
423.9452178653917
 20
589.380062642902
 30
0.0
 10
422.9030228442946
 20
589.4887540697339
 30
0.0
 10
420.8111185125471
 20
589.7165721172585
 30
0.0
 10
419.7533130288428
 20
589.8293475214583
 30
0.0
 10
417.6829427848502
 20
590.0443736563785
 30
0.0
 10
416.6226356248576
 20
590.1523765694604
 30
0.0
 10
414.5290809318599
 20
590.3618714105284
 30
0.0
 10
413.4859725476005
 20
590.464394554028
 30
0.0
 10
411.392097866248
 20
590.6670016217536
 30
0.0
 10
410.3500396988287
 20
590.7661581084616
 30
0.0
 10
408.246984044876
 20
590.9634704127753
 30
0.0
 10
407.2017349018937
 20
591.0591125116343
 30
0.0
 10
405.116012403194
 20
591.3253149054152
 30
0.0
 10
404.0747420256627
 20
591.3988125634418
 30
0.0
 10
401.9920637620914
 20
591.5909903951219
 30
0.0
 10
400.949382341338
 20
591.68321360799
 30
0.0
 10
395.7441347847511
 20
592.1466688060791
 30
0.0
 10
391.576194909898
 20
592.5183074794323
 30
0.0
 10
383.2373160528273
 20
593.1603682757401
 30
0.0
 10
379.0596302388442
 20
593.4488139044622
 30
0.0
 10
372.7889832044324
 20
593.4579881604309
 30
0.0
 10
370.7140636140418
 20
593.3844041293138
 30
0.0
 10
366.6202068632914
 20
592.9380623798212
 30
0.0
 10
364.5754068368821
 20
592.5606832753674
 30
0.0
 10
360.6663403307747
 20
591.2072129667334
 30
0.0
 10
358.8232132357505
 20
590.2238748399845
 30
0.0
 10
355.6580158948046
 20
587.55498931358
 30
0.0
 10
354.3444823056831
 20
585.9173668313854
 30
0.0
 10
353.2375515255579
 20
584.1636227912735
 30
0.0
  0
LINE
  5
1D1
330
18B
100
AcDbEntity
  8
$DDT_AUDIT_GENERATED_(1D0)
  6
Continuous
 62
     7
100
AcDbLine
 10
348.4525653562
 20
572.595673047
 30
0.0
 11
350.2950448511
 21
579.0211626499
 31
0.0
  0
LINE
  5
1D2
330
18B
100
AcDbEntity
  8
$DDT_AUDIT_GENERATED_(182)
  6
Continuous
 62
     7
100
AcDbLine
 10
291.9049396115
 20
486.9014085351
 30
0.0
 11
319.9182930398
 21
478.8687086998
 31
0.0
  0
LINE
  5
1D3
330
18B
100
AcDbEntity
  8
$DDT_AUDIT_GENERATED_(182)
  6
Continuous
 62
     7
100
AcDbLine
 10
306.7428274318
 20
432.920399634
 30
0.0
 11
252.647256767
 21
432.920399634
 31
0.0
  0
LINE
  5
1D4
330
18B
100
AcDbEntity
  8
$DDT_AUDIT_GENERATED_(182)
  6
Continuous
 62
     7
100
AcDbLine
 10
269.9326848511
 20
493.2018512023
 30
0.0
 11
252.647256767
 21
432.920399634
 31
0.0
  0
LINE
  5
1D5
330
18B
100
AcDbEntity
  8
$DDT_AUDIT_GENERATED_(182)
  6
Continuous
 62
     7
100
AcDbLine
 10
306.7428274318
 20
432.920399634
 30
0.0
 11
319.9182930398
 21
478.8687086998
 31
0.0
  0
ARC
  5
1D6
330
18B
100
AcDbEntity
  8
$DDT_AUDIT_GENERATED_(182)
  6
Continuous
 62
     7
100
AcDbCircle
 10
318.665454261
 20
479.7481041567
 30
0.0
 40
0.5000000000000048
100
AcDbArc
 50
174.6719292858
 51
254.0
  0
ENDBLK
  5
1D8
330
18B
100
AcDbEntity
  8
0
100
AcDbBlockEnd
  0
BLOCK
  5
210
330
1D9
100
AcDbEntity
  8
0
100
AcDbBlockBegin
  2
SE2
 70
     0
 10
0.0
 20
0.0
 30
0.0
  3
SE2
  1

  0
ELLIPSE
  5
1DB
330
1D9
100
AcDbEntity
  8
$DDT_AUDIT_GENERATED_(6B)
  6
Continuous
 62
     7
100
AcDbEllipse
 10
34.0250919847
 20
265.3624840109
 30
0.0
 11
-26.00597190878829
 21
7.997075224253080E-13
 31
0.0
210
0.0
220
0.0
230
1.0
 40
0.9612616959
 41
3.262717619570769
 42
6.162060341198669
  0
LINE
  5
1DC
330
1D9
100
AcDbEntity
  8
$DDT_AUDIT_GENERATED_(6B)
  6
Continuous
 62
     7
100
AcDbLine
 10
8.1553842298
 20
267.9205298088
 30
0.0
 11
8.2096571072
 21
268.3830333448
 31
0.0
  0
ARC
  5
1DD
330
1D9
100
AcDbEntity
  8
$DDT_AUDIT_GENERATED_(6B)
  6
Continuous
 62
     7
100
AcDbCircle
 10
31.264401838
 20
265.4564102377
 30
0.0
 40
23.24002108602185
100
AcDbArc
 50
173.9135367498
 51
180.4677653382
  0
LINE
  5
1DE
330
1D9
100
AcDbEntity
  8
$DDT_AUDIT_GENERATED_(6B)
  6
Continuous
 62
     7
100
AcDbLine
 10
59.8947997397
 20
267.9205298088
 30
0.0
 11
59.8405268623
 21
268.3830333448
 31
0.0
  0
ARC
  5
1DF
330
1D9
100
AcDbEntity
  8
$DDT_AUDIT_GENERATED_(6B)
  6
Continuous
 62
     7
100
AcDbCircle
 10
36.7824236724
 20
265.4563312426
 30
0.0
 40
23.24336899095133
100
AcDbArc
 50
359.5325000312
 51
5.2644272595
  0
LINE
  5
1E0
330
1D9
100
AcDbEntity
  8
$DDT_AUDIT_GENERATED_(6B)
  6
Continuous
 62
     7
100
AcDbLine
 10
7.942030316
 20
255.5884131463
 30
0.0
 11
7.942030316
 21
249.4440747157
 31
0.0
  0
SPLINE
  5
1E1
330
1D9
100
AcDbEntity
  8
$DDT_AUDIT_GENERATED_(6B)
  6
Continuous
 62
     7
100
AcDbSpline
210
0.0
220
0.0
230
1.0
 70
     8
 71
     3
 72
    66
 73
    62
 74
     0
 42
0.0000000000784645
 43
0.0000000001
 40
0.1446845858707841
 40
0.1446845858707841
 40
0.1446845858707841
 40
0.1446845858707841
 40
0.1534263230913522
 40
0.1643779995280613
 40
0.1761487133334906
 40
0.1887354430621777
 40
0.2014465377492669
 40
0.2148836542804906
 40
0.2286200420351692
 40
0.2417801585192129
 40
0.2543335862337447
 40
0.2662774444027725
 40
0.2795708140892085
 40
0.2920181083558172
 40
0.303622600469915
 40
0.3143916086141186
 40
0.3245268351608623
 40
0.3338066099485622
 40
0.3425450105996568
 40
0.3516379111442153
 40
0.3611408456432894
 40
0.3710526158229072
 40
0.3813721046237559
 40
0.4007668313367843
 40
0.4214479501761276
 40
0.443412476871222
 40
0.4666591636602774
 40
0.491189843835248
 40
0.5079724658689615
 40
0.525601498954
 40
0.5441586123889027
 40
0.5636480269094026
 40
0.5840759302141189
 40
0.6054506595867688
 40
0.6267469689848778
 40
0.648927511446968
 40
0.6720062175391878
 40
0.6959994288364693
 40
0.7115573399358791
 40
0.7274892889553146
 40
0.7438008752295621
 40
0.7604977578997568
 40
0.7775900112772164
 40
0.7899724718828085
 40
0.8025542497258014
 40
0.8153423510198181
 40
0.828340017422067
 40
0.8388873525715671
 40
0.84956799962361
 40
0.8603827019255287
 40
0.8713334745560087
 40
0.8824195559412522
 40
0.8917631829515252
 40
0.9011946178901636
 40
0.9107175967584563
 40
0.9203282736024448
 40
0.9300218340914341
 40
0.9397943440408015
 40
0.9496461797158121
 40
0.959573465201408
 40
0.96567771386041
 40
0.96567771386041
 40
0.96567771386041
 40
0.96567771386041
 10
8.393126158634555
 20
230.988963579252
 30
0.0
 10
8.408663900040986
 20
230.6395779961487
 30
0.0
 10
8.444198867183331
 20
229.8481878793057
 30
0.0
 10
8.502805002085084
 20
228.5713476601522
 30
0.0
 10
8.570879592294064
 20
227.1253009629532
 30
0.0
 10
8.644875439029532
 20
225.5955495512369
 30
0.0
 10
8.72490137068891
 20
223.9872851624117
 30
0.0
 10
8.810128303915494
 20
222.3227971600053
 30
0.0
 10
8.899263496234253
 20
220.632505181429
 30
0.0
 10
8.989317757031309
 20
218.9736535962726
 30
0.0
 10
9.077880075954544
 20
217.3859938360226
 30
0.0
 10
9.16924326651991
 20
215.7894437531961
 30
0.0
 10
9.262890799621601
 20
214.1945297327917
 30
0.0
 10
9.358241848442157
 20
212.6115897464985
 30
0.0
 10
9.449517535511431
 20
211.1341379159653
 30
0.0
 10
9.536800114833659
 20
209.7536218457601
 30
0.0
 10
9.619663801436664
 20
208.4709308892076
 30
0.0
 10
9.698577626134279
 20
207.2738005304071
 30
0.0
 10
9.77608289815559
 20
206.1204002479404
 30
0.0
 10
9.855518799116117
 20
204.9576088566002
 30
0.0
 10
9.939807981116509
 20
203.7448843021475
 30
0.0
 10
10.02927461854108
 20
202.4800269017879
 30
0.0
 10
10.15065208673487
 20
200.7944742720908
 30
0.0
 10
10.30899965120656
 20
198.6511029413816
 30
0.0
 10
10.51049744635257
 20
196.0131651067734
 30
0.0
 10
10.73193094312493
 20
193.2124383306554
 30
0.0
 10
10.97463326351747
 20
190.2495399871759
 30
0.0
 10
11.20750492698284
 20
187.5084943818802
 30
0.0
 10
11.42661396739724
 20
185.0075002009562
 30
0.0
 10
11.62868195195695
 20
182.7606787627392
 30
0.0
 10
11.84675532070484
 20
180.3996897860008
 30
0.0
 10
12.0820452352216
 20
177.920733526093
 30
0.0
 10
12.33553648119362
 20
175.3231267661096
 30
0.0
 10
12.60386823256692
 20
172.6498038884696
 30
0.0
 10
12.88740084324539
 20
169.903113948722
 30
0.0
 10
13.18653401494772
 20
167.0851503520361
 30
0.0
 10
13.50670949744246
 20
164.1539515853581
 30
0.0
 10
13.80458226976558
 20
161.5039053992875
 30
0.0
 10
14.07512731519413
 20
159.1568906562921
 30
0.0
 10
14.31163102337803
 20
157.1351051455351
 30
0.0
 10
14.56241553846643
 20
155.0659461260835
 30
0.0
 10
14.81268652652011
 20
152.9469353844746
 30
0.0
 10
15.09683429962488
 20
150.9994056770301
 30
0.0
 10
15.4667247143468
 20
149.2449490353761
 30
0.0
 10
15.83687275394193
 20
147.6786897336318
 30
0.0
 10
16.2598185094327
 20
146.0972745661952
 30
0.0
 10
16.77511356558613
 20
144.6329057471027
 30
0.0
 10
17.36319045489403
 20
143.293609822564
 30
0.0
 10
17.99843526653389
 20
142.079365015649
 30
0.0
 10
18.72720823051316
 20
140.8976054022731
 30
0.0
 10
19.55354758473429
 20
139.7596086508767
 30
0.0
 10
20.42830280798807
 20
138.7392651895881
 30
0.0
 10
21.3337711083056
 20
137.8364778777714
 30
0.0
 10
22.24819964276412
 20
137.0414992431524
 30
0.0
 10
23.22071899959034
 20
136.2996919784566
 30
0.0
 10
24.25219124838303
 20
135.6211997716174
 30
0.0
 10
25.33945964999694
 20
135.0133998311084
 30
0.0
 10
26.47870088893739
 20
134.4839661563364
 30
0.0
 10
27.66225599526467
 20
134.0329248701074
 30
0.0
 10
28.72279752769772
 20
133.7083889841265
 30
0.0
 10
29.39062762929879
 20
133.5436460412598
 30
0.0
 10
29.64586292181949
 20
133.4862511849965
 30
0.0
  0
LINE
  5
1E2
330
1D9
100
AcDbEntity
  8
$DDT_AUDIT_GENERATED_(6B)
  6
Continuous
 62
     7
100
AcDbLine
 10
7.9421317868
 20
255.6192433373
 30
0.0
 11
7.9420417859
 21
255.5816503244
 31
0.0
  0
ARC
  5
1E3
330
1D9
100
AcDbEntity
  8
$DDT_AUDIT_GENERATED_(6B)
  6
Continuous
 62
     7
100
AcDbCircle
 10
-105.1724065903
 20
261.4242451839
 30
0.0
 40
113.2633958465541
100
AcDbArc
 50
357.0852931061
 51
1.9440465856
  0
LINE
  5
1E4
330
1D9
100
AcDbEntity
  8
$DDT_AUDIT_GENERATED_(6B)
  6
Continuous
 62
     7
100
AcDbLine
 10
60.1081536535
 20
249.4419297132
 30
0.0
 11
60.1081536535
 21
255.5884129982
 31
0.0
  0
SPLINE
  5
1E5
330
1D9
100
AcDbEntity
  8
$DDT_AUDIT_GENERATED_(6B)
  6
Continuous
 62
     7
100
AcDbSpline
210
0.0
220
0.0
230
1.0
 70
     8
 71
     3
 72
    59
 73
    55
 74
     0
 42
0.00000000007855
 43
0.0000000001
 40
0.0343457487011982
 40
0.0343457487011982
 40
0.0343457487011982
 40
0.0343457487011982
 40
0.0374227399679076
 40
0.0496507610592023
 40
0.0617497062849742
 40
0.0737137209124523
 40
0.085541871744847
 40
0.0972251643055963
 40
0.1087567401208572
 40
0.1201388626133016
 40
0.1313631611764452
 40
0.1424308065661767
 40
0.1533418428187935
 40
0.1640979521402237
 40
0.1747003872924912
 40
0.1851504221518717
 40
0.2024145162096159
 40
0.2192516656939216
 40
0.2356656970985274
 40
0.2516573115568646
 40
0.2672359104827807
 40
0.2870216463233373
 40
0.3061206906192
 40
0.3245436195544462
 40
0.348218889968373
 40
0.3710162632905362
 40
0.3929907592903652
 40
0.4141549056309363
 40
0.4383079916145473
 40
0.461340964732694
 40
0.4832639371101468
 40
0.5040836266521561
 40
0.5238036893898742
 40
0.5424251494290637
 40
0.5525504969325993
 40
0.5627736096424603
 40
0.5736965446500251
 40
0.5853265994761039
 40
0.5976695572352377
 40
0.6149231181104615
 40
0.6334313928566094
 40
0.6532189343149045
 40
0.6692453302486188
 40
0.6860552127559776
 40
0.7036682622149973
 40
0.7215688682987971
 40
0.7389860400818449
 40
0.7558923577011394
 40
0.772264834673031
 40
0.7931115984717237
 40
0.8129390272882966
 40
0.8317425035405737
 40
0.8499276865840506
 40
0.8563601207793872
 40
0.8563601207793872
 40
0.8563601207793872
 40
0.8563601207793872
 10
38.40445243680792
 20
133.4862224065541
 30
0.0
 10
38.53264633984444
 20
133.5150441703584
 30
0.0
 10
39.16865296098656
 20
133.6650740889361
 30
0.0
 10
40.29718347085813
 20
133.9944111139331
 30
0.0
 10
41.74776543238238
 20
134.5510281755076
 30
0.0
 10
43.12879351520108
 20
135.2258471078139
 30
0.0
 10
44.42714558798346
 20
136.01353585539
 30
0.0
 10
45.63679419306028
 20
136.8997781061063
 30
0.0
 10
46.75823370138529
 20
137.8661140845957
 30
0.0
 10
47.78173050070951
 20
138.9084688466332
 30
0.0
 10
48.6985217965743
 20
140.0196786602341
 30
0.0
 10
49.51144184786352
 20
141.1837384351255
 30
0.0
 10
50.2240697754492
 20
142.3877727940472
 30
0.0
 10
50.84125713905939
 20
143.6202886799737
 30
0.0
 10
51.36425943514053
 20
144.8732968896512
 30
0.0
 10
51.89184389042346
 20
146.4203086718928
 30
0.0
 10
52.35842888410067
 20
148.2611433743213
 30
0.0
 10
52.83542936593697
 20
150.3588491623112
 30
0.0
 10
53.17602886391039
 20
152.4281847205876
 30
0.0
 10
53.41332329236297
 20
154.456033823905
 30
0.0
 10
53.67931535058634
 20
156.6245170738375
 30
0.0
 10
53.94883013629134
 20
158.9254702648451
 30
0.0
 10
54.22797634497946
 20
161.3468524274388
 30
0.0
 10
54.51884257003513
 20
163.9332187840288
 30
0.0
 10
54.81960855191548
 20
166.6765790647882
 30
0.0
 10
55.12769511237023
 20
169.5709158708472
 30
0.0
 10
55.41609319503489
 20
172.359861474487
 30
0.0
 10
55.70219553171227
 20
175.2069569963833
 30
0.0
 10
55.98402151145674
 20
178.0997075266012
 30
0.0
 10
56.25963700871748
 20
181.0254774891609
 30
0.0
 10
56.51340192023092
 20
183.8108926967946
 30
0.0
 10
56.74655081667368
 20
186.4567554222782
 30
0.0
 10
56.96016475645427
 20
188.9635422267442
 30
0.0
 10
57.12954014218652
 20
191.0176866140626
 30
0.0
 10
57.26206352979526
 20
192.6693528682916
 30
0.0
 10
57.36676558949669
 20
193.9950694281158
 30
0.0
 10
57.47557495592397
 20
195.3854824176921
 30
0.0
 10
57.58999600528426
 20
196.8664647951123
 30
0.0
 10
57.72331488606912
 20
198.616817796235
 30
0.0
 10
57.87593316526952
 20
200.6599811552191
 30
0.0
 10
58.04759769330679
 20
203.0200445045798
 30
0.0
 10
58.21019354308392
 20
205.3282563964934
 30
0.0
 10
58.36258395330178
 20
207.5641430952273
 30
0.0
 10
58.50399389104058
 20
209.707178356667
 30
0.0
 10
58.64552649198482
 20
211.9288922888165
 30
0.0
 10
58.78295687770822
 20
214.1744389201326
 30
0.0
 10
58.91326814081514
 20
216.3853623617431
 30
0.0
 10
59.03485210853786
 20
218.5260975122629
 30
0.0
 10
59.15955618669096
 20
220.803986482184
 30
0.0
 10
59.28495203483966
 20
223.1930279441202
 30
0.0
 10
59.40879710953782
 20
225.6645514795926
 30
0.0
 10
59.52054484780479
 20
227.9985021146823
 30
0.0
 10
59.60161612600721
 20
229.7594918784465
 30
0.0
 10
59.64582457865879
 20
230.7449147433119
 30
0.0
 10
59.65725666897002
 20
231.0014950989949
 30
0.0
  0
ARC
  5
1E6
330
1D9
100
AcDbEntity
  8
$DDT_AUDIT_GENERATED_(6B)
  6
Continuous
 62
     7
100
AcDbCircle
 10
188.262974175
 20
261.5327626672
 30
0.0
 40
128.2929331680747
100
AcDbArc
 50
182.4530528972
 51
182.6587280544
  0
ARC
  5
1E7
330
1D9
100
AcDbEntity
  8
$DDT_AUDIT_GENERATED_(6B)
  6
Continuous
 62
     7
100
AcDbCircle
 10
188.262974175
 20
261.5327626672
 30
0.0
 40
128.2929331680747
100
AcDbArc
 50
178.3322566226
 51
181.4663793575
  0
SPLINE
  5
1E8
330
1D9
100
AcDbEntity
  8
$DDT_AUDIT_GENERATED_(14F)
  6
Continuous
 62
     7
100
AcDbSpline
210
0.0
220
0.0
230
1.0
 70
     8
 71
     3
 72
    24
 73
    20
 74
     0
 42
0.0000000039156808
 43
0.0000000001
 40
0.0
 40
0.0
 40
0.0
 40
0.0
 40
0.0357142857142857
 40
0.0714285714285714
 40
0.1071428571428571
 40
0.1428571428571428
 40
0.1785714285714288
 40
0.2142857142857145
 40
0.2857142857142859
 40
0.4285714285714277
 40
0.5714285714285723
 40
0.7142857142857139
 40
0.7857142857142847
 40
0.8214285714285716
 40
0.8571428571428584
 40
0.8928571428571423
 40
0.9285714285714293
 40
0.9642857142857161
 40
1.0
 40
1.0
 40
1.0
 40
1.0
 10
32.40402162136645
 20
123.5826894717691
 30
0.0
 10
32.36709978438493
 20
123.5785975920387
 30
0.0
 10
32.29363898046007
 20
123.5689355906202
 30
0.0
 10
32.18496222014035
 20
123.5503014545502
 30
0.0
 10
32.07816574084152
 20
123.5278197764656
 30
0.0
 10
31.97361537801696
 20
123.5017841482946
 30
0.0
 10
31.87167696711996
 20
123.4724881619639
 30
0.0
 10
31.73927118794223
 20
123.4293527051929
 30
0.0
 10
31.51685777823077
 20
123.3438876656722
 30
0.0
 10
31.22612883850784
 20
123.1973812469718
 30
0.0
 10
30.92460258654243
 20
122.9923656925315
 30
0.0
 10
30.71536757844246
 20
122.8021663173407
 30
0.0
 10
30.59338302924096
 20
122.6600961946042
 30
0.0
 10
30.53148548977434
 20
122.5766487214692
 30
0.0
 10
30.48916970477019
 20
122.5130026043763
 30
0.0
 10
30.45116470034763
 20
122.4483677357268
 30
0.0
 10
30.41780891530048
 20
122.3828391614748
 30
0.0
 10
30.38944078842247
 20
122.3165119275712
 30
0.0
 10
30.37407943514573
 20
122.2718246958359
 30
0.0
 10
30.36734284780011
 20
122.2493796520107
 30
0.0
  0
ARC
  5
1E9
330
1D9
100
AcDbEntity
  8
$DDT_AUDIT_GENERATED_(14F)
  6
Continuous
 62
     7
100
AcDbCircle
 10
44.1348148375
 20
118.0538390813
 30
0.0
 40
14.39256216482807
100
AcDbArc
 50
180.2280472939
 51
180.2928144126
  0
ARC
  5
1EA
330
1D9
100
AcDbEntity
  8
$DDT_AUDIT_GENERATED_(14F)
  6
Continuous
 62
     7
100
AcDbCircle
 10
44.1348148375
 20
118.0538390813
 30
0.0
 40
14.39256216482807
100
AcDbArc
 50
163.0517674359
 51
180.2280472939
  0
ARC
  5
1EB
330
1D9
100
AcDbEntity
  8
$DDT_AUDIT_GENERATED_(14F)
  6
Continuous
 62
     7
100
AcDbCircle
 10
34.0223006699
 20
108.937965898
 30
0.0
 40
14.73386424634617
100
AcDbArc
 50
89.9893895611
 51
96.3057457175
  0
SPLINE
  5
1EC
330
1D9
100
AcDbEntity
  8
$DDT_AUDIT_GENERATED_(14F)
  6
Continuous
 62
     7
100
AcDbSpline
210
0.0
220
0.0
230
1.0
 70
     8
 71
     3
 72
     8
 73
     4
 74
     0
 42
0.0000000136375471
 43
0.0000000001
 40
0.7163113757975023
 40
0.7163113757975023
 40
0.7163113757975023
 40
0.7163113757975023
 40
0.7223200453751337
 40
0.7223200453751337
 40
0.7223200453751337
 40
0.7223200453751337
 10
30.47646312928062
 20
108.6557341467159
 30
0.0
 10
30.47677005867269
 20
108.653972927881
 30
0.0
 10
30.47706719490572
 20
108.6525354748205
 30
0.0
 10
30.47735439274821
 20
108.6514215323637
 30
0.0
  0
SPLINE
  5
1ED
330
1D9
100
AcDbEntity
  8
$DDT_AUDIT_GENERATED_(14F)
  6
Continuous
 62
     7
100
AcDbSpline
210
0.0
220
0.0
230
1.0
 70
     8
 71
     3
 72
    24
 73
    20
 74
     0
 42
0.0000000039168482
 43
0.0000000001
 40
0.0
 40
0.0
 40
0.0
 40
0.0
 40
0.0412549530190912
 40
0.0830242509820992
 40
0.1244773495217553
 40
0.1680610864830163
 40
0.213623464600555
 40
0.2590180103645536
 40
0.3044560843690258
 40
0.352492609821484
 40
0.4007679099453115
 40
0.4498090588103246
 40
0.5000871854165426
 40
0.5815110413701511
 40
0.6666686705490601
 40
0.7221767324857162
 40
0.7967687058805666
 40
0.8893048641148185
 40
1.0
 40
1.0
 40
1.0
 40
1.0
 10
35.64603676137984
 20
123.5826894717691
 30
0.0
 10
35.68859389038668
 20
123.5773949564043
 30
0.0
 10
35.774238728186
 20
123.5667399164564
 30
0.0
 10
35.89976949330041
 20
123.5436345534464
 30
0.0
 10
36.02503580077038
 20
123.5155029929109
 30
0.0
 10
36.15041002105651
 20
123.4811293752102
 30
0.0
 10
36.27593365607976
 20
123.4412480719146
 30
0.0
 10
36.39868647450994
 20
123.3959279043942
 30
0.0
 10
36.51918408543227
 20
123.3455361179227
 30
0.0
 10
36.63744642707208
 20
123.2902238493843
 30
0.0
 10
36.75331202889939
 20
123.2294110454997
 30
0.0
 10
36.86562944702273
 20
123.1640732927143
 30
0.0
 10
36.99611874755368
 20
123.0797932834886
 30
0.0
 10
37.14158145912071
 20
122.9725946393548
 30
0.0
 10
37.27511984266618
 20
122.8558973691495
 30
0.0
 10
37.39123040789737
 20
122.7374979844774
 30
0.0
 10
37.49725128464457
 20
122.6103891836081
 30
0.0
 10
37.60858100224748
 20
122.4453586312341
 30
0.0
 10
37.65657459431002
 20
122.3184847596483
 30
0.0
 10
37.68271553494618
 20
122.2493796520107
 30
0.0
  0
ARC
  5
1EE
330
1D9
100
AcDbEntity
  8
$DDT_AUDIT_GENERATED_(14F)
  6
Continuous
 62
     7
100
AcDbCircle
 10
23.8910326411
 20
118.0539264379
 30
0.0
 40
14.41569785737806
100
AcDbArc
 50
359.6905572615
 51
359.7720168264
  0
ARC
  5
1EF
330
1D9
100
AcDbEntity
  8
$DDT_AUDIT_GENERATED_(14F)
  6
Continuous
 62
     7
100
AcDbCircle
 10
23.8910326411
 20
118.0539264379
 30
0.0
 40
14.41569785737806
100
AcDbArc
 50
359.7720168264
 51
16.9198494768
  0
ARC
  5
1F0
330
1D9
100
AcDbEntity
  8
$DDT_AUDIT_GENERATED_(14F)
  6
Continuous
 62
     7
100
AcDbCircle
 10
34.0267317417
 20
108.919308738
 30
0.0
 40
14.75252125203644
100
AcDbArc
 50
83.6982523639
 51
90.0066123576
  0
ARC
  5
1F1
330
1D9
100
AcDbEntity
  8
$DDT_AUDIT_GENERATED_(14F)
  6
Continuous
 62
     7
100
AcDbCircle
 10
83.1102046985
 20
113.5882015574
 30
0.0
 40
45.80591780570622
100
AcDbArc
 50
186.1822863416
 51
186.1875206615
  0
ELLIPSE
  5
1F2
330
1D9
100
AcDbEntity
  8
$DDT_AUDIT_GENERATED_(14F)
  6
Continuous
 62
     7
100
AcDbEllipse
 10
34.025089922
 20
214.1141571218
 30
0.0
 11
-3.323499999999999
 21
0.0
 31
0.0
210
0.0
220
0.0
230
1.0
 40
0.2756373558
 41
3.141592653589793
 42
6.283185307179586
  0
ELLIPSE
  5
1F3
330
1D9
100
AcDbEntity
  8
$DDT_AUDIT_GENERATED_(14F)
  6
Continuous
 62
     7
100
AcDbEllipse
 10
34.025089922
 20
213.6335262738
 30
0.0
 11
3.82349999999999
 21
0.0
 31
0.0
210
0.0
220
0.0
230
1.0
 40
0.2756373558
 41
0.5190108722816879
 42
2.62258178130811
  0
ARC
  5
1F4
330
1D9
100
AcDbEntity
  8
$DDT_AUDIT_GENERATED_(14F)
  6
Continuous
 62
     7
100
AcDbCircle
 10
35.2613222822
 20
240.7444659186
 30
0.0
 40
26.27924888984458
100
AcDbArc
 50
336.1863059889
 51
21.3621649386
  0
SPLINE
  5
1F5
330
1D9
100
AcDbEntity
  8
$DDT_AUDIT_GENERATED_(14F)
  6
Continuous
 62
     7
100
AcDbSpline
210
0.0
220
0.0
230
1.0
 70
     8
 71
     3
 72
   152
 73
   148
 74
     0
 42
0.0000000000707971
 43
0.0000000001
 40
0.0
 40
0.0
 40
0.0
 40
0.0
 40
0.0016247334939285
 40
0.0016247334939285
 40
0.0051282755903114
 40
0.0051282755903114
 40
0.0121353597830773
 40
0.0121353597830773
 40
0.0261495281686091
 40
0.0261495281686091
 40
0.0401636965541409
 40
0.0541778649396661
 40
0.0681920333251977
 40
0.0829334628979685
 40
0.0829334628979685
 40
0.0985247201882607
 40
0.1116890608562642
 40
0.124853401524268
 40
0.138017742192265
 40
0.138017742192265
 40
0.1643464235282723
 40
0.1643464235282723
 40
0.1775107641962759
 40
0.1775107641962759
 40
0.1906751048642731
 40
0.1906751048642731
 40
0.2083713223478569
 40
0.2170037862002804
 40
0.2256362500526977
 40
0.2342687139051212
 40
0.2342687139051212
 40
0.2515336416099686
 40
0.2515336416099686
 40
0.2860634970196501
 40
0.2860634970196501
 40
0.3033284247244974
 40
0.3033284247244974
 40
0.3205933524293382
 40
0.3205933524293382
 40
0.3513481308448105
 40
0.3551232078390263
 40
0.3588982848332422
 40
0.3626733618274515
 40
0.3626733618274515
 40
0.3702235158158812
 40
0.3702235158158812
 40
0.385323823792736
 40
0.385323823792736
 40
0.4004241317695916
 40
0.4004241317695916
 40
0.4155244397464464
 40
0.4155244397464464
 40
0.4457250557001568
 40
0.4457250557001568
 40
0.4608253636770123
 40
0.4608253636770123
 40
0.4714980435123846
 40
0.4759256716538671
 40
0.4803532997953496
 40
0.4847809279368321
 40
0.4847809279368321
 40
0.4936361842197971
 40
0.4936361842197971
 40
0.5024914405027628
 40
0.5024914405027628
 40
0.5113466967857279
 40
0.5113466967857279
 40
0.5290572093516587
 40
0.5290572093516587
 40
0.5379124656346236
 40
0.5467677219175886
 40
0.5556229782005536
 40
0.5742831242048111
 40
0.5742831242048111
 40
0.5880408253484218
 40
0.6017985264920335
 40
0.6155562276356443
 40
0.6323605451214103
 40
0.6323605451214103
 40
0.647641554436099
 40
0.6629225637507878
 40
0.678203573065476
 40
0.7035939273234583
 40
0.7125440652940089
 40
0.7214942032645589
 40
0.730444341235109
 40
0.730444341235109
 40
0.7483446171762091
 40
0.7483446171762091
 40
0.7572947551467593
 40
0.7572947551467593
 40
0.7662448931173093
 40
0.7662448931173093
 40
0.7751950310878594
 40
0.7751950310878594
 40
0.7796701000731346
 40
0.7796701000731346
 40
0.7819076345657721
 40
0.7841451690584094
 40
0.7863827035510467
 40
0.7920464901339056
 40
0.7920464901339056
 40
0.7999478112094011
 40
0.7999478112094011
 40
0.8078491322848973
 40
0.8078491322848973
 40
0.8157504533603935
 40
0.8157504533603935
 40
0.8236517744358891
 40
0.8236517744358891
 40
0.8315530955113853
 40
0.8315530955113853
 40
0.8394544165868809
 40
0.8394544165868809
 40
0.8434050771246288
 40
0.8473557376623769
 40
0.8513063982001251
 40
0.8607613839488228
 40
0.8607613839488228
 40
0.8741670302352685
 40
0.8741670302352685
 40
0.8875726765217133
 40
0.8875726765217133
 40
0.8942754996649366
 40
0.8942754996649366
 40
0.8979570897453818
 40
0.9009783228081594
 40
0.9039995558709369
 40
0.9070207889337145
 40
0.9070207889337145
 40
0.9130632550592693
 40
0.9130632550592693
 40
0.9251481873103796
 40
0.9251481873103796
 40
0.9372331195614899
 40
0.9372331195614899
 40
0.9432755856870443
 40
0.9493180518125994
 40
0.9553605179381546
 40
0.9656817059325978
 40
0.9656817059325978
 40
0.9740905818852967
 40
0.9820453600525959
 40
0.9900001382198951
 40
0.9979549163871938
 40
0.9979549163871938
 40
1.0
 40
1.0
 40
1.0
 40
1.0
 10
48.64442479504807
 20
263.3004951397349
 30
0.0
 10
48.64867391784112
 20
263.2730367223885
 30
0.0
 10
48.65282973462805
 20
263.2452373173865
 30
0.0
 10
48.66589739759286
 20
263.155718673457
 30
0.0
 10
48.67424916877515
 20
263.0947983427409
 30
0.0
 10
48.6986238649577
 20
262.9022125097389
 30
0.0
 10
48.71297768015188
 20
262.7691357124416
 30
0.0
 10
48.75130435260339
 20
262.351330158147
 30
0.0
 10
48.77042763052794
 20
262.0506361917106
 30
0.0
 10
48.79604794615283
 20
261.4066600767301
 30
0.0
 10
48.80896146505393
 20
260.7190622868326
 30
0.0
 10
48.79000488402486
 20
259.5821703891284
 30
0.0
 10
48.72886065548598
 20
258.290628699083
 30
0.0
 10
48.65814177291447
 20
257.3585343830775
 30
0.0
 10
48.56615243968164
 20
256.3389991988761
 30
0.0
 10
48.46198866424783
 20
255.3416568608829
 30
0.0
 10
48.25842945692587
 20
253.7845469534721
 30
0.0
 10
48.0319383104173
 20
252.3063413110099
 30
0.0
 10
47.84856113869179
 20
251.2660620423265
 30
0.0
 10
47.55018714181644
 20
249.6853594967974
 30
0.0
 10
47.31900968720305
 20
248.5937437437921
 30
0.0
 10
46.9191549236677
 20
246.9065413727396
 30
0.0
 10
46.77425346869465
 20
246.3272447963561
 30
0.0
 10
46.46752193129065
 20
245.1760982554454
 30
0.0
 10
46.30147075514521
 20
244.5857200963348
 30
0.0
 10
45.8940414126114
 20
243.1964474880194
 30
0.0
 10
45.51940279667641
 20
241.9902360601079
 30
0.0
 10
44.99955569923859
 20
240.3586418024232
 30
0.0
 10
44.60517320126441
 20
239.1221197549538
 30
0.0
 10
44.33999364269376
 20
238.2897719654728
 30
0.0
 10
43.93917385402156
 20
237.0321998385149
 30
0.0
 10
43.67072055529817
 20
236.1908302549312
 30
0.0
 10
42.86110756913403
 20
233.6385945140379
 30
0.0
 10
42.31643616683539
 20
231.9046064498141
 30
0.0
 10
41.52093523421113
 20
229.2908504582412
 30
0.0
 10
41.25696546685172
 20
228.4094077287666
 30
0.0
 10
40.74089910686172
 20
226.6521457790619
 30
0.0
 10
40.4855964787831
 20
225.7649011374336
 30
0.0
 10
39.79341727294387
 20
223.2966343903731
 30
0.0
 10
39.31759879831315
 20
221.5051754006286
 30
0.0
 10
38.82632651949796
 20
219.5110407631254
 30
0.0
 10
38.68706330145024
 20
218.9345911595129
 30
0.0
 10
38.59722831090571
 20
218.5547554216824
 30
0.0
 10
38.46196844274679
 20
217.9761204290756
 30
0.0
 10
38.37346636719066
 20
217.5887737048132
 30
0.0
 10
38.11538348876993
 20
216.4354928095068
 30
0.0
 10
37.94831857542625
 20
215.6646474703002
 30
0.0
 10
37.65006014557304
 20
214.1067175380593
 30
0.0
 10
37.5198831417125
 20
213.3317387884902
 30
0.0
 10
37.29355691723706
 20
211.7686814398479
 30
0.0
 10
37.19744759329546
 20
210.9811925229205
 30
0.0
 10
36.95530837136073
 20
208.62885928133
 30
0.0
 10
36.85293011896531
 20
207.0511607987249
 30
0.0
 10
36.76219540791811
 20
204.6880996207482
 30
0.0
 10
36.74215722812048
 20
203.9037871651751
 30
0.0
 10
36.72039908714596
 20
202.5558317907756
 30
0.0
 10
36.71179651593837
 20
201.7717239907463
 30
0.0
 10
36.71046967263258
 20
200.7555422769697
 30
0.0
 10
36.71417588513096
 20
200.0468303917525
 30
0.0
 10
36.71741003316708
 20
199.5791971377882
 30
0.0
 10
36.7214225269955
 20
198.8725935958022
 30
0.0
 10
36.72289755572595
 20
198.4070369743737
 30
0.0
 10
36.71959474727214
 20
197.4665572318919
 30
0.0
 10
36.7145467871696
 20
196.9978452086251
 30
0.0
 10
36.70193018672067
 20
196.0629028916146
 30
0.0
 10
36.69507489496866
 20
195.58915316336
 30
0.0
 10
36.67491604006558
 20
194.18678406271
 30
0.0
 10
36.66092415382855
 20
193.2439695364049
 30
0.0
 10
36.63969951093021
 20
191.8397474028115
 30
0.0
 10
36.62541239308632
 20
190.9030098183537
 30
0.0
 10
36.60350340315218
 20
189.4912576795639
 30
0.0
 10
36.57356310318232
 20
187.5970927529158
 30
0.0
 10
36.55022237477986
 20
186.1591273605168
 30
0.0
 10
36.52232829723984
 20
184.467009797795
 30
0.0
 10
36.49839337112255
 20
183.031231843871
 30
0.0
 10
36.46165370863012
 20
180.8727610060258
 30
0.0
 10
36.42186593695122
 20
178.5793122707156
 30
0.0
 10
36.39386190023502
 20
176.9966027325762
 30
0.0
 10
36.36411925263472
 20
175.3318009133493
 30
0.0
 10
36.33568560223346
 20
173.7537320173714
 30
0.0
 10
36.29210106993984
 20
171.3708402766947
 30
0.0
 10
36.23884368673659
 20
168.4978175105916
 30
0.0
 10
36.19075603820439
 20
165.9420838600869
 30
0.0
 10
36.1485806416267
 20
163.7136916581926
 30
0.0
 10
36.12250323286106
 20
162.3379399791378
 30
0.0
 10
36.10510857978623
 20
161.4207156862085
 30
0.0
 10
36.07883467125462
 20
160.0468204526118
 30
0.0
 10
36.0603625014847
 20
159.1252829682989
 30
0.0
 10
36.03567205898613
 20
157.752856135169
 30
0.0
 10
36.02777269210256
 20
157.2940623991076
 30
0.0
 10
36.01023475994891
 20
156.3748334576349
 30
0.0
 10
36.00034345465585
 20
155.9170711465162
 30
0.0
 10
35.97873552134854
 20
155.0010231831536
 30
0.0
 10
35.96791043108362
 20
154.542294223701
 30
0.0
 10
35.95842371764418
 20
153.8565928750876
 30
0.0
 10
35.95634211322265
 20
153.6215264394698
 30
0.0
 10
35.95517114158407
 20
153.2821612800018
 30
0.0
 10
35.95512901627113
 20
153.0531651275134
 30
0.0
 10
35.95595709627695
 20
152.7050840191212
 30
0.0
 10
35.95746166486168
 20
152.2052902976066
 30
0.0
 10
35.95582190007819
 20
151.8066502453944
 30
0.0
 10
35.95016950645002
 20
151.1315826982239
 30
0.0
 10
35.9450117111293
 20
150.738252642058
 30
0.0
 10
35.93670280977194
 20
149.9504754176634
 30
0.0
 10
35.93287637912117
 20
149.5565946216606
 30
0.0
 10
35.92490725352231
 20
148.7684267875083
 30
0.0
 10
35.9207155649069
 20
148.3728941732776
 30
0.0
 10
35.91333862173828
 20
147.5860954504894
 30
0.0
 10
35.90999474367332
 20
147.1918235817795
 30
0.0
 10
35.90278366174334
 20
146.4003461402919
 30
0.0
 10
35.8986107861234
 20
146.0107673279462
 30
0.0
 10
35.88938866708089
 20
145.2146740458307
 30
0.0
 10
35.88521993351956
 20
144.8186051165999
 30
0.0
 10
35.88017014880212
 20
144.2232483746719
 30
0.0
 10
35.87718075310463
 20
143.8259815606734
 30
0.0
 10
35.87378633296107
 20
143.2379996962008
 30
0.0
 10
35.87007257091907
 20
142.3633049967667
 30
0.0
 10
35.86911238087848
 20
141.7014145824114
 30
0.0
 10
35.86813753799797
 20
140.5875465502321
 30
0.0
 10
35.86835375077787
 20
139.9464819558402
 30
0.0
 10
35.8643932040283
 20
138.7006957049848
 30
0.0
 10
35.86009192606349
 20
138.0899102901267
 30
0.0
 10
35.84618119789286
 20
137.2050444534059
 30
0.0
 10
35.84026045100035
 20
136.9097012038368
 30
0.0
 10
35.82911726849716
 20
136.4645139258091
 30
0.0
 10
35.82143750876879
 20
136.1784244291851
 30
0.0
 10
35.81047970085859
 20
135.7661297246471
 30
0.0
 10
35.8019950814176
 20
135.3910835435827
 30
0.0
 10
35.79710471577958
 20
135.1422078410174
 30
0.0
 10
35.7900728180189
 20
134.7675903207685
 30
0.0
 10
35.78580769837563
 20
134.5208822720864
 30
0.0
 10
35.77412062421453
 20
133.7780351151613
 30
0.0
 10
35.76782376838669
 20
133.2883924290767
 30
0.0
 10
35.75623048222753
 20
132.3085903389694
 30
0.0
 10
35.75103138750572
 20
131.8190533265368
 30
0.0
 10
35.74239674540576
 20
131.0842997219636
 30
0.0
 10
35.73626836299865
 20
130.5926612107992
 30
0.0
 10
35.72655378266256
 20
129.8588915574286
 30
0.0
 10
35.71447076604664
 20
128.9338917575712
 30
0.0
 10
35.70565944768929
 20
128.2621066166657
 30
0.0
 10
35.69556730348636
 20
127.4919493217577
 30
0.0
 10
35.68673610606361
 20
126.8178081456148
 30
0.0
 10
35.67364105467055
 20
125.8216008237393
 30
0.0
 10
35.66064428021476
 20
124.8274984736296
 30
0.0
 10
35.65264827655088
 20
124.1685560618115
 30
0.0
 10
35.6479429243531
 20
123.7524992535874
 30
0.0
 10
35.64698780459767
 20
123.6675604383816
 30
0.0
 10
35.64603676137984
 20
123.5826894717691
 30
0.0
  0
SPLINE
  5
1F6
330
1D9
100
AcDbEntity
  8
$DDT_AUDIT_GENERATED_(14F)
  6
Continuous
 62
     7
100
AcDbSpline
210
0.0
220
0.0
230
1.0
 70
     8
 71
     3
 72
    60
 73
    56
 74
     0
 42
0.0000000000707924
 43
0.0000000001
 40
0.0
 40
0.0
 40
0.0
 40
0.0
 40
0.0072507887678891
 40
0.0141387748460004
 40
0.0302002097598245
 40
0.0623769676872502
 40
0.0840593324921417
 40
0.1270949037189028
 40
0.1588666002833967
 40
0.174764514432181
 40
0.190658899648621
 40
0.222443739666191
 40
0.2545085808829827
 40
0.2866046141196667
 40
0.3026454599257423
 40
0.3186794109543969
 40
0.3507726042443701
 40
0.3823589673061514
 40
0.3901736089094497
 40
0.3980087920994771
 40
0.4136348450262606
 40
0.4449166441446628
 40
0.4605534500616089
 40
0.4761898308893023
 40
0.491959162439509
 40
0.4983232368070145
 40
0.5078696545284442
 40
0.5316220699580835
 40
0.5494345391194194
 40
0.580275725832631
 40
0.6517378101147117
 40
0.7049627565016764
 40
0.7579192392169437
 40
0.7656357062013467
 40
0.7733483736430736
 40
0.7810545571774503
 40
0.7887676000028128
 40
0.7926187685185482
 40
0.7963669490283128
 40
0.8038753852188398
 40
0.8188919447408555
 40
0.8263954473312614
 40
0.8339035772109913
 40
0.8414132413927832
 40
0.8489174333196083
 40
0.8640407025968313
 40
0.8716360192301007
 40
0.8792284396546926
 40
0.8944095970405435
 40
0.9020088916386093
 40
0.9095269591418964
 40
0.9244862793298478
 40
0.9394493731841116
 40
0.9695787367642439
 40
1.0
 40
1.0
 40
1.0
 40
1.0
 10
19.40564049674612
 20
263.3005013580465
 30
0.0
 10
19.3878870999234
 20
263.1771797300252
 30
0.0
 10
19.35334644604976
 20
262.9367556509991
 30
0.0
 10
19.29709295778277
 20
262.3613278626727
 30
0.0
 10
19.23185347072976
 20
261.1793241059265
 30
0.0
 10
19.25308151148991
 20
259.3418840212933
 30
0.0
 10
19.45193720359446
 20
256.3767881130599
 30
0.0
 10
19.87116539118761
 20
252.9694982851558
 30
0.0
 10
20.55076924684335
 20
249.3750482857565
 30
0.0
 10
21.17124742274558
 20
246.7063279736682
 30
0.0
 10
21.90888388638164
 20
243.947204901745
 30
0.0
 10
23.05735054388733
 20
240.333171279134
 30
0.0
 10
24.50791659947188
 20
235.7948888673477
 30
0.0
 10
25.73994660844052
 20
231.8909662276888
 30
0.0
 10
26.7020959436237
 20
228.7219317609172
 30
0.0
 10
27.64155337583581
 20
225.5263307704256
 30
0.0
 10
28.74788967253835
 20
221.5126210505905
 30
0.0
 10
29.62657191259668
 20
217.8717590496649
 30
0.0
 10
30.14367295918247
 20
215.4522662896803
 30
0.0
 10
30.45130037652782
 20
213.843174699409
 30
0.0
 10
30.88666275406218
 20
211.0089375591394
 30
0.0
 10
31.16969829493058
 20
207.7456085212754
 30
0.0
 10
31.29975236589573
 20
204.4796945662174
 30
0.0
 10
31.34295550946462
 20
202.0237961183274
 30
0.0
 10
31.33593100553531
 20
200.0530336355054
 30
0.0
 10
31.32564512678974
 20
198.4010388779527
 30
0.0
 10
31.33799188702832
 20
196.3338908627604
 30
0.0
 10
31.38398524274286
 20
193.6704050615121
 30
0.0
 10
31.4391539788237
 20
189.8983083280014
 30
0.0
 10
31.53995642221964
 20
183.6424485304931
 30
0.0
 10
31.6806185301776
 20
175.5465074334257
 30
0.0
 10
31.85029372552768
 20
166.3041174506518
 30
0.0
 10
31.96862283105325
 20
160.3807261040314
 30
0.0
 10
32.03048019802087
 20
156.8249670586973
 30
0.0
 10
32.05593607705276
 20
155.6221254985076
 30
0.0
 10
32.0860289627155
 20
154.4196047046628
 30
0.0
 10
32.09652120517779
 20
153.4177009093617
 30
0.0
 10
32.09358862774705
 20
152.6217019197035
 30
0.0
 10
32.09266600127322
 20
151.8363222035614
 30
0.0
 10
32.10782591186464
 20
150.4702501148298
 30
0.0
 10
32.1242251827512
 20
148.9097348650963
 30
0.0
 10
32.13886317452253
 20
147.3471946212499
 30
0.0
 10
32.14909395411171
 20
146.1765912884048
 30
0.0
 10
32.16354040631504
 20
144.9986419143714
 30
0.0
 10
32.17683563061966
 20
143.4185558173049
 30
0.0
 10
32.18135987892704
 20
141.8531924454284
 30
0.0
 10
32.18174204358602
 20
140.3413086264662
 30
0.0
 10
32.18369818575366
 20
138.8665520097456
 30
0.0
 10
32.19465514684943
 20
137.4542921713524
 30
0.0
 10
32.2308925552851
 20
136.1139499191399
 30
0.0
 10
32.26179244563498
 20
134.8106796328896
 30
0.0
 10
32.28404351265576
 20
133.2111128926893
 30
0.0
 10
32.31110595280258
 20
130.6712752424893
 30
0.0
 10
32.35600023340489
 20
127.452568478875
 30
0.0
 10
32.38796220739199
 20
124.8767911511146
 30
0.0
 10
32.40402162136645
 20
123.5826894717691
 30
0.0
  0
ARC
  5
1F7
330
1D9
100
AcDbEntity
  8
$DDT_AUDIT_GENERATED_(14F)
  6
Continuous
 62
     7
100
AcDbCircle
 10
32.7886424381
 20
240.7444270727
 30
0.0
 40
26.27919028145149
100
AcDbArc
 50
158.9999220641
 51
203.8135540943
  0
LINE
  5
1F8
330
1D9
100
AcDbEntity
  8
$DDT_AUDIT_GENERATED_(14F)
  6
Continuous
 62
     7
100
AcDbLine
 10
34.0250353939
 20
267.3245863303
 30
0.0
 11
34.0250317556
 21
267.3369987113
 31
0.0
  0
ARC
  5
1F9
330
1D9
100
AcDbEntity
  8
$DDT_AUDIT_GENERATED_(14F)
  6
Continuous
 62
     7
100
AcDbCircle
 10
111.0251246607
 20
117.6178285019
 30
0.0
 40
81.28333950093003
100
AcDbArc
 50
179.7340246218
 51
182.6146179706
  0
ARC
  5
1FA
330
1D9
100
AcDbEntity
  8
$DDT_AUDIT_GENERATED_(14F)
  6
Continuous
 62
     7
100
AcDbCircle
 10
33.1791350441
 20
109.1461386939
 30
0.0
 40
2.746704209439721
100
AcDbArc
 50
190.375264128
 51
254.7158043786
  0
ARC
  5
1FB
330
1D9
100
AcDbEntity
  8
$DDT_AUDIT_GENERATED_(14F)
  6
Continuous
 62
     7
100
AcDbCircle
 10
34.0240880581
 20
116.4729286843
 30
0.0
 40
10.09900241007336
100
AcDbArc
 50
260.9126435754
 51
270.0053394624
  0
ARC
  5
1FC
330
1D9
100
AcDbEntity
  8
$DDT_AUDIT_GENERATED_(14F)
  6
Continuous
 62
     7
100
AcDbCircle
 10
77.5184447291
 20
117.1422184421
 30
0.0
 40
47.80122884257253
100
AcDbArc
 50
183.8170898842
 51
190.2176277828
  0
SPLINE
  5
1FD
330
1D9
100
AcDbEntity
  8
$DDT_AUDIT_GENERATED_(14F)
  6
Continuous
 62
     7
100
AcDbSpline
210
0.0
220
0.0
230
1.0
 70
     8
 71
     3
 72
    70
 73
    66
 74
     0
 42
0.0000000000852045
 43
0.0000000001
 40
0.0
 40
0.0
 40
0.0
 40
0.0
 40
0.0133338892608343
 40
0.0246739430843506
 40
0.0327648754151865
 40
0.0411715403359087
 40
0.0532245343011895
 40
0.067037736233757
 40
0.0790758904600648
 40
0.0919761761245401
 40
0.1053256689177939
 40
0.1194585368197381
 40
0.1307532243477227
 40
0.1384348537034837
 40
0.1444720543278087
 40
0.1520816864658433
 40
0.1599985950708414
 40
0.1667211925552289
 40
0.1749246905511829
 40
0.1831439639650125
 40
0.1894437667291783
 40
0.1976835132695645
 40
0.2079502208842005
 40
0.2162371117522175
 40
0.2226921662446542
 40
0.2297245003108169
 40
0.2377683833115528
 40
0.2486934984435319
 40
0.2622790986697839
 40
0.2741904679842105
 40
0.287220815451079
 40
0.2973272366388266
 40
0.3034229434475897
 40
0.3085328807662482
 40
0.3164092784689585
 40
0.3257012870413281
 40
0.3357915003276187
 40
0.3437907666935517
 40
0.3507088650580191
 40
0.3614667131076248
 40
0.3761631468184422
 40
0.3861162318943909
 40
0.3952464320455117
 40
0.4038023697044886
 40
0.4090394831866607
 40
0.412897257994312
 40
0.4215550352599001
 40
0.4343157096306492
 40
0.457259193265774
 40
0.4924449892825961
 40
0.527877544799199
 40
0.5635178981702519
 40
0.6149823947792653
 40
0.6880775058288637
 40
0.7354997767261044
 40
0.7698356819309772
 40
0.7922621252758025
 40
0.8171797181431674
 40
0.839262884251829
 40
0.8623084063163087
 40
0.8871392534518792
 40
0.9143237659378798
 40
0.9436580706722766
 40
0.9748105316610036
 40
1.0
 40
1.0
 40
1.0
 40
1.0
 10
8.755446135613493
 20
230.1373436314801
 30
0.0
 10
8.843064807105234
 20
229.9444206539887
 30
0.0
 10
8.990566776244133
 20
229.6214823145707
 30
0.0
 10
9.27155656943189
 20
229.0218965614295
 30
0.0
 10
9.553543791866144
 20
228.4379473527123
 30
0.0
 10
9.895405232606944
 20
227.7495728558314
 30
0.0
 10
10.31632448467167
 20
226.9324182938433
 30
0.0
 10
10.84263841770721
 20
225.9555469894642
 30
0.0
 10
11.4346028080003
 20
224.9122288426957
 30
0.0
 10
12.07253057071118
 20
223.8442714781305
 30
0.0
 10
12.78764007684094
 20
222.7137137304279
 30
0.0
 10
13.4926795762067
 20
221.6582467182806
 30
0.0
 10
14.12284508996316
 20
220.7554250624322
 30
0.0
 10
14.61881180443418
 20
220.0680905368959
 30
0.0
 10
15.05225552244473
 20
219.4816001492328
 30
0.0
 10
15.47319849817857
 20
218.9223483122087
 30
0.0
 10
15.89889156285739
 20
218.3651367882225
 30
0.0
 10
16.30167704746052
 20
217.8398827465022
 30
0.0
 10
16.69412932666713
 20
217.3244056495978
 30
0.0
 10
17.08691401764412
 20
216.8030836925042
 30
0.0
 10
17.48694324854407
 20
216.2685896509474
 30
0.0
 10
17.91727777593101
 20
215.6859766468494
 30
0.0
 10
18.39093465408594
 20
215.0325282682872
 30
0.0
 10
18.840249103677
 20
214.3993273217526
 30
0.0
 10
19.23195847700142
 20
213.8332723865842
 30
0.0
 10
19.61974476293788
 20
213.2630355961169
 30
0.0
 10
20.09139802610528
 20
212.5471754508584
 30
0.0
 10
20.6918389721583
 20
211.5990331867886
 30
0.0
 10
21.38157763746105
 20
210.4637645846379
 30
0.0
 10
22.11620131183119
 20
209.2006887411093
 30
0.0
 10
22.79315555698577
 20
207.9971249995577
 30
0.0
 10
23.35510438538788
 20
206.9575964369596
 30
0.0
 10
23.75617077053342
 20
206.1782671908995
 30
0.0
 10
24.10727078150885
 20
205.4801843691204
 30
0.0
 10
24.50552496378408
 20
204.6554702948385
 30
0.0
 10
24.97782244089668
 20
203.6216212674766
 30
0.0
 10
25.43072557117448
 20
202.5597436139283
 30
0.0
 10
25.8244126222616
 20
201.5736471037847
 30
0.0
 10
26.2061101282074
 20
200.5496217581254
 30
0.0
 10
26.66237497753426
 20
199.2364248816021
 30
0.0
 10
27.09971630837021
 20
197.7643022744354
 30
0.0
 10
27.46850165398824
 20
196.3342217353362
 30
0.0
 10
27.75198427604433
 20
195.1638178898984
 30
0.0
 10
27.95871106906629
 20
194.1805289263847
 30
0.0
 10
28.10458359221111
 20
193.4201407550232
 30
0.0
 10
28.24244280290747
 20
192.6513258185206
 30
0.0
 10
28.42035787119048
 20
191.5523483918021
 30
0.0
 10
28.68164847341751
 20
189.6163012668626
 30
0.0
 10
28.96882579672402
 20
186.5069117427009
 30
0.0
 10
29.12214647856583
 20
182.3947822566588
 30
0.0
 10
29.1049317112782
 20
177.7279145046413
 30
0.0
 10
29.03921253556623
 20
172.3491529285531
 30
0.0
 10
29.0810522706641
 20
165.3254263868507
 30
0.0
 10
29.31407570694289
 20
157.7931525467089
 30
0.0
 10
29.41424261221594
 20
151.0179181627842
 30
0.0
 10
29.47521691774718
 20
146.4628764842942
 30
0.0
 10
29.52789888502602
 20
142.882076994002
 30
0.0
 10
29.55408419322661
 20
139.8145661202243
 30
0.0
 10
29.6056368297415
 20
136.7496461203133
 30
0.0
 10
29.64259262613009
 20
133.6944630110787
 30
0.0
 10
29.69317875562313
 20
130.5440016106377
 30
0.0
 10
29.71736905242224
 20
127.2236268285805
 30
0.0
 10
29.71797615339362
 20
124.0051721875083
 30
0.0
 10
29.73272660154317
 20
120.8693353074558
 30
0.0
 10
29.73877316032069
 20
118.979125036604
 30
0.0
 10
29.74297175418686
 20
117.9802706219732
 30
0.0
  0
ARC
  5
1FE
330
1D9
100
AcDbEntity
  8
$DDT_AUDIT_GENERATED_(14F)
  6
Continuous
 62
     7
100
AcDbCircle
 10
-42.7034583039
 20
117.6122609069
 30
0.0
 40
81.01176058664248
100
AcDbArc
 50
357.3805526437
 51
0.2708047639
  0
ARC
  5
1FF
330
1D9
100
AcDbEntity
  8
$DDT_AUDIT_GENERATED_(14F)
  6
Continuous
 62
     7
100
AcDbCircle
 10
34.869432141
 20
109.1475073065
 30
0.0
 40
2.748417715811508
100
AcDbArc
 50
285.3066617927
 51
349.6022697008
  0
ARC
  5
200
330
1D9
100
AcDbEntity
  8
$DDT_AUDIT_GENERATED_(14F)
  6
Continuous
 62
     7
100
AcDbCircle
 10
34.0259703247
 20
116.4729286833
 30
0.0
 40
10.09900240907112
100
AcDbArc
 50
269.9946605373
 51
279.0873565582
  0
ARC
  5
201
330
1D9
100
AcDbEntity
  8
$DDT_AUDIT_GENERATED_(14F)
  6
Continuous
 62
     7
100
AcDbCircle
 10
-9.4843874225
 20
117.1442973046
 30
0.0
 40
47.81733282453119
100
AcDbArc
 50
349.7833201113
 51
356.1817014763
  0
SPLINE
  5
202
330
1D9
100
AcDbEntity
  8
$DDT_AUDIT_GENERATED_(14F)
  6
Continuous
 62
     7
100
AcDbSpline
210
0.0
220
0.0
230
1.0
 70
     8
 71
     3
 72
    61
 73
    57
 74
     0
 42
0.0000000000851994
 43
0.0000000001
 40
0.0
 40
0.0
 40
0.0
 40
0.0
 40
0.0215194224287998
 40
0.0484211163441739
 40
0.0730487277483392
 40
0.0986858041642599
 40
0.1207233163870813
 40
0.1394320676804841
 40
0.1548428517790704
 40
0.1671237905438913
 40
0.1762177719600286
 40
0.1913364820605355
 40
0.2155928716135926
 40
0.2447891851015798
 40
0.2778301152815228
 40
0.3077333124647412
 40
0.3389792566271638
 40
0.3694631415063891
 40
0.4240032014820911
 40
0.4839522537462287
 40
0.5192217720013196
 40
0.5495098578216756
 40
0.5711836815741869
 40
0.5900788264725977
 40
0.6013675208263591
 40
0.6136237480031241
 40
0.6280710245154257
 40
0.6426995975836882
 40
0.6558363454689581
 40
0.6672911704285643
 40
0.6803459694429266
 40
0.6917185728415938
 40
0.7062640953223311
 40
0.7279017698270679
 40
0.7495347313213611
 40
0.7664323086571408
 40
0.7784641237331427
 40
0.7899717856350608
 40
0.8004260334327863
 40
0.8088643752847728
 40
0.8162027202743531
 40
0.8255611198489848
 40
0.8387911233141113
 40
0.8533736664237127
 40
0.8669916143387153
 40
0.8841385841390595
 40
0.9001769085575213
 40
0.9136113613505296
 40
0.9228839532066458
 40
0.9325369153306367
 40
0.9461468351482732
 40
0.9583371114826088
 40
0.9667999220805349
 40
0.9749624943227104
 40
0.9863882118791822
 40
1.0
 40
1.0
 40
1.0
 40
1.0
 10
38.30708555144878
 20
117.9760455137368
 30
0.0
 10
38.31067343121347
 20
118.8255293232726
 30
0.0
 10
38.31773131742558
 20
120.4370677491225
 30
0.0
 10
38.32510729761508
 20
123.1242319134452
 30
0.0
 10
38.33607222124172
 20
125.8646526564443
 30
0.0
 10
38.33501571159152
 20
128.7204173311834
 30
0.0
 10
38.3753589157391
 20
131.4347027159661
 30
0.0
 10
38.40514060604106
 20
133.8313266319658
 30
0.0
 10
38.43490433282408
 20
135.8437728349817
 30
0.0
 10
38.4568050993698
 20
137.4520566800155
 30
0.0
 10
38.48160953914502
 20
139.0537902254358
 30
0.0
 10
38.50907140510242
 20
141.1876670123713
 30
0.0
 10
38.53794278697669
 20
144.2115453994313
 30
0.0
 10
38.598218074774
 20
147.994771260356
 30
0.0
 10
38.65195433616162
 20
152.0261709012734
 30
0.0
 10
38.70491332309674
 20
156.1472982990367
 30
0.0
 10
38.82992492503165
 20
160.1617637876431
 30
0.0
 10
38.93318960112938
 20
165.2556140205566
 30
0.0
 10
39.03869804276648
 20
171.6139937968146
 30
0.0
 10
38.92332135881986
 20
178.1890015637835
 30
0.0
 10
38.95491727708582
 20
183.7027423937203
 30
0.0
 10
39.15946112297488
 20
187.5369548506109
 30
0.0
 10
39.48674480891393
 20
190.6424269400414
 30
0.0
 10
39.84005890164988
 20
192.8995177521904
 30
0.0
 10
40.19904556295764
 20
194.7336929119498
 30
0.0
 10
40.58001820736916
 20
196.3434646829082
 30
0.0
 10
41.03583277421296
 20
198.0871095802364
 30
0.0
 10
41.58291297112718
 20
199.8301110216914
 30
0.0
 10
42.1575410070664
 20
201.4096223994752
 30
0.0
 10
42.75215513114168
 20
202.8890691874502
 30
0.0
 10
43.3604915364161
 20
204.2681149563602
 30
0.0
 10
44.05337464435385
 20
205.7177374231082
 30
0.0
 10
44.95407859162906
 20
207.4607814041038
 30
0.0
 10
46.07014723844286
 20
209.4518044096879
 30
0.0
 10
47.21624301931711
 20
211.3823568399546
 30
0.0
 10
48.14176578959922
 20
212.835665396155
 30
0.0
 10
48.88133970912155
 20
213.9297596143854
 30
0.0
 10
49.48743404967125
 20
214.7938206606963
 30
0.0
 10
50.02840492576773
 20
215.5429342579525
 30
0.0
 10
50.48496679088585
 20
216.1637362462598
 30
0.0
 10
50.92865625047418
 20
216.7572480707444
 30
0.0
 10
51.44474836323928
 20
217.4427326387654
 30
0.0
 10
52.07544249716184
 20
218.2666384721356
 30
0.0
 10
52.87372166059088
 20
219.3096778614665
 30
0.0
 10
53.79807624367043
 20
220.5668595635647
 30
0.0
 10
54.68433655670023
 20
221.8395273300875
 30
0.0
 10
55.5245289759178
 20
223.1185934678598
 30
0.0
 10
56.19778486993756
 20
224.2085371833276
 30
0.0
 10
56.72386345040119
 20
225.1031545851678
 30
0.0
 10
57.2180130425572
 20
225.9761957833414
 30
0.0
 10
57.7132336142318
 20
226.893588168241
 30
0.0
 10
58.13547145020659
 20
227.7116273685534
 30
0.0
 10
58.48168567417405
 20
228.4076332372507
 30
0.0
 10
58.76885609090937
 20
229.001505049705
 30
0.0
 10
59.0552593007637
 20
229.612250368602
 30
0.0
 10
59.20514968487666
 20
229.9403677706649
 30
0.0
 10
59.29467041678001
 20
230.1374810950353
 30
0.0
  0
ARC
  5
203
330
1D9
100
AcDbEntity
  8
$DDT_AUDIT_GENERATED_(14F)
  6
Continuous
 62
     7
100
AcDbCircle
 10
32.4405077806
 20
240.6898765114
 30
0.0
 40
26.0202397454289
100
AcDbArc
 50
146.8607559254
 51
158.5870207855
  0
ARC
  5
204
330
1D9
100
AcDbEntity
  8
$DDT_AUDIT_GENERATED_(14F)
  6
Continuous
 62
     7
100
AcDbCircle
 10
33.6031384708
 20
239.7477022476
 30
0.0
 40
27.51468125918897
100
AcDbArc
 50
121.0598109008
 51
146.5410879387
  0
ARC
  5
205
330
1D9
100
AcDbEntity
  8
$DDT_AUDIT_GENERATED_(14F)
  6
Continuous
 62
     7
100
AcDbCircle
 10
33.982721728
 20
238.9128145706
 30
0.0
 40
28.42073087138532
100
AcDbArc
 50
89.9147041282
 51
120.8462912176
  0
ARC
  5
206
330
1D9
100
AcDbEntity
  8
$DDT_AUDIT_GENERATED_(14F)
  6
Continuous
 62
     7
100
AcDbCircle
 10
34.0694986159
 20
238.9213400494
 30
0.0
 40
28.41164106026753
100
AcDbArc
 50
59.1489176719
 51
90.0896745034
  0
ARC
  5
207
330
1D9
100
AcDbEntity
  8
$DDT_AUDIT_GENERATED_(14F)
  6
Continuous
 62
     7
100
AcDbCircle
 10
34.4192873357
 20
239.72674759
 30
0.0
 40
27.54919044838239
100
AcDbArc
 50
33.4636293158
 51
58.9130682501
  0
ARC
  5
208
330
1D9
100
AcDbEntity
  8
$DDT_AUDIT_GENERATED_(14F)
  6
Continuous
 62
     7
100
AcDbCircle
 10
35.9939581367
 20
240.8883766756
 30
0.0
 40
25.58773692841378
100
AcDbArc
 50
21.6861976907
 51
33.2377287653
  0
ELLIPSE
  5
209
330
1D9
100
AcDbEntity
  8
$DDT_AUDIT_GENERATED_(182)
  6
Continuous
 62
     7
100
AcDbEllipse
 10
34.0250919847
 20
265.3624840109
 30
0.0
 11
25.99999999999998
 21
3.278627369596165E-13
 31
0.0
210
0.0
220
0.0
230
1.0
 40
0.9612616959
 41
0.0
 42
0.1118063730600052
  0
ELLIPSE
  5
20A
330
1D9
100
AcDbEntity
  8
$DDT_AUDIT_GENERATED_(182)
  6
Continuous
 62
     7
100
AcDbEllipse
 10
34.0250919847
 20
265.3624840109
 30
0.0
 11
25.99999999999998
 21
3.278627369596165E-13
 31
0.0
210
0.0
220
0.0
230
1.0
 40
0.9612616959
 41
0.1676318178917413
 42
2.951355665395851
  0
ELLIPSE
  5
20B
330
1D9
100
AcDbEntity
  8
$DDT_AUDIT_GENERATED_(182)
  6
Continuous
 62
     7
100
AcDbEllipse
 10
34.0250919847
 20
265.3624840109
 30
0.0
 11
25.99999999999998
 21
3.278627369596165E-13
 31
0.0
210
0.0
220
0.0
230
1.0
 40
0.9612616959
 41
3.033513148650451
 42
3.155005189305081
  0
ELLIPSE
  5
20C
330
1D9
100
AcDbEntity
  8
$DDT_AUDIT_GENERATED_(182)
  6
Continuous
 62
     7
100
AcDbEllipse
 10
34.0250919847
 20
265.3624840109
 30
0.0
 11
25.99999999999998
 21
3.278627369596165E-13
 31
0.0
210
0.0
220
0.0
230
1.0
 40
0.9612616959
 41
6.270073456427577
 42
6.283185307179586
  0
ELLIPSE
  5
20D
330
1D9
100
AcDbEntity
  8
$DDT_AUDIT_GENERATED_(182)
  6
Continuous
 62
     7
100
AcDbEllipse
 10
34.0250919847
 20
280.5929308569
 30
0.0
 11
-2.706315873594371E-15
 21
-27.04778533240166
 31
0.0
210
0.0
220
0.0
230
1.0
 40
0.9612616959
 41
1.570796326794895
 42
4.712388980384688
  0
LINE
  5
20E
330
1D9
100
AcDbEntity
  8
$DDT_AUDIT_GENERATED_(182)
  6
Continuous
 62
     7
100
AcDbLine
 10
60.0250919847
 20
265.3624840109
 30
0.0
 11
60.0250919847
 21
280.5929308569
 31
0.0
  0
LINE
  5
20F
330
1D9
100
AcDbEntity
  8
$DDT_AUDIT_GENERATED_(182)
  6
Continuous
 62
     7
100
AcDbLine
 10
8.0250919847
 20
280.5929308569
 30
0.0
 11
8.0250919847
 21
265.3624840109
 31
0.0
  0
ENDBLK
  5
211
330
1D9
100
AcDbEntity
  8
0
100
AcDbBlockEnd
  0
ENDSEC
  0
SECTION
  2
ENTITIES
  0
INSERT
  5
5F
330
1F
100
AcDbEntity
  8
Default
100
AcDbBlockReference
  2
SEANNOT_GROUP
 10
0.0
 20
0.0
 30
0.0
  0
INSERT
  5
65
330
1F
100
AcDbEntity
  8
Default
100
AcDbBlockReference
  2
SEANNOT_GROUP1
 10
0.0
 20
0.0
 30
0.0
  0
INSERT
  5
6A
330
1F
100
AcDbEntity
  8
Default
100
AcDbBlockReference
  2
SE
 10
0.0
 20
0.0
 30
0.0
  0
INSERT
  5
18C
330
1F
100
AcDbEntity
  8
Default
100
AcDbBlockReference
  2
SE1
 10
0.0
 20
0.0
 30
0.0
  0
INSERT
  5
1DA
330
1F
100
AcDbEntity
  8
Default
100
AcDbBlockReference
  2
SE2
 10
0.0
 20
0.0
 30
0.0
  0
TEXT
  5
213
330
1F
100
AcDbEntity
  8
Default
  6
Continuous
 62
     7
100
AcDbText
 10
5.9362635081
 20
53.4225120485
 30
0.0
 40
10.0
  1
Grohe AG^J
  7
SEACAD_seiso_ttf
 11
5.9362635081
 21
63.4225120485
 31
0.0
100
AcDbText
 73
     3
  0
TEXT
  5
214
330
1F
100
AcDbEntity
  8
Default
  6
Continuous
 62
     7
100
AcDbText
 10
5.9362635081
 20
37.0588756849
 30
0.0
 40
10.0
  1
 
  7
SEACAD_seiso_ttf
 11
5.9362635081
 21
47.0588756849
 31
0.0
100
AcDbText
 73
     3
  0
TEXT
  5
215
330
1F
100
AcDbEntity
  8
Default
  6
Continuous
 62
     7
100
AcDbText
 10
5.9362635081
 20
20.6952393213
 30
0.0
 40
10.0
  1
ecn: 
  7
SEACAD_seiso_ttf
 11
5.9362635081
 21
30.6952393213
 31
0.0
100
AcDbText
 73
     3
  0
TEXT
  5
216
330
1F
100
AcDbEntity
  8
Default
  6
Continuous
 62
     7
100
AcDbText
 10
5.9362635081
 20
4.3316029576
 30
0.0
 40
10.0
  1
unit: mm
  7
SEACAD_seiso_ttf
 11
5.9362635081
 21
14.3316029576
 31
0.0
100
AcDbText
 73
     3
  0
LINE
  5
217
330
1F
100
AcDbEntity
  8
Default
  6
Continuous
 62
     7
100
AcDbLine
 10
0.0
 20
0.0
 30
0.0
 11
100.0
 21
0.0
 31
0.0
  0
LINE
  5
218
330
1F
100
AcDbEntity
  8
Default
  6
Continuous
 62
     7
100
AcDbLine
 10
0.0
 20
0.0
 30
0.0
 11
0.0
 21
100.0
 31
0.0
  0
TEXT
  5
219
330
1F
100
AcDbEntity
  8
Default
  6
Continuous
 62
     7
100
AcDbText
 10
24.3923665681
 20
-18.2375342018
 30
0.0
 40
10.0
  1
100 mm
  7
SEACAD_seiso_ttf
 11
24.3923665681
 21
-8.2375342018
 31
0.0
100
AcDbText
 73
     3
  0
TEXT
  5
21A
330
1F
100
AcDbEntity
  8
Default
  6
Continuous
 62
     7
100
AcDbText
 10
-7.6150308803
 20
24.6231930421
 30
0.0
 40
10.0
  1
100 mm
 50
90.0
  7
SEACAD_seiso_ttf
 11
-17.6150308803
 21
24.6231930421
 31
0.0
100
AcDbText
 73
     3
  0
TEXT
  5
21B
330
1F
100
AcDbEntity
  8
Default
  6
Continuous
 62
     7
100
AcDbText
 10
28.4878128572
 20
20.0907663715
 30
0.0
 40
10.0
  1
216969
  7
SEACAD_seiso_ttf
 11
28.4878128572
 21
30.0907663715
 31
0.0
100
AcDbText
 73
     3
  0
TEXT
  5
21C
330
1F
100
AcDbEntity
  8
Default
  6
Continuous
 62
     7
100
AcDbText
 10
5.9012241913
 20
36.7242780188
 30
0.0
 40
10.0
  1
32790000
  7
SEACAD_seiso_ttf
 11
5.9012241913
 21
46.7242780188
 31
0.0
100
AcDbText
 73
     3
  0
ENDSEC
  0
SECTION
  2
OBJECTS
  0
DICTIONARY
  5
C
330
0
100
AcDbDictionary
281
     1
  3
ACAD_GROUP
350
D
  3
ACAD_LAYOUT
350
1A
  3
ACAD_MLEADERSTYLE
350
220
  3
ACAD_MLINESTYLE
350
17
  3
ACAD_PLOTSETTINGS
350
19
  3
ACAD_PLOTSTYLENAME
350
E
  3
ACAD_SCALELIST
350
3B
  3
ACAD_TABLESTYLE
350
21F
  3
ACAD_VISUALSTYLE
350
2A
  3
AcDbVariableDictionary
350
21D
  0
DICTIONARY
  5
D
102
{ACAD_REACTORS
330
C
102
}
330
C
100
AcDbDictionary
281
     1
  0
DICTIONARY
  5
1A
102
{ACAD_REACTORS
330
C
102
}
330
C
100
AcDbDictionary
281
     1
  3
Layout1
350
1E
  3
Model
350
22
  0
DICTIONARY
  5
220
102
{ACAD_REACTORS
330
C
102
}
330
C
100
AcDbDictionary
281
     1
  0
DICTIONARY
  5
17
102
{ACAD_REACTORS
330
C
102
}
330
C
100
AcDbDictionary
281
     1
  3
Standard
350
18
  0
DICTIONARY
  5
19
102
{ACAD_REACTORS
330
C
102
}
330
C
100
AcDbDictionary
281
     1
  0
ACDBDICTIONARYWDFLT
  5
E
102
{ACAD_REACTORS
330
C
102
}
330
C
100
AcDbDictionary
281
     1
  3
Normal
350
F
100
AcDbDictionaryWithDefault
340
F
  0
DICTIONARY
  5
3B
102
{ACAD_REACTORS
330
C
102
}
330
C
100
AcDbDictionary
281
     1
  3
A0
350
3C
  3
A1
350
3D
  3
A2
350
3E
  3
A3
350
3F
  3
A4
350
40
  3
A5
350
41
  3
A6
350
42
  3
A7
350
43
  3
A8
350
44
  3
A9
350
45
  3
B0
350
46
  3
B1
350
47
  3
B2
350
48
  3
B3
350
49
  3
B4
350
4A
  3
B5
350
4B
  3
B6
350
4C
  3
B7
350
4D
  3
B8
350
4E
  3
B9
350
4F
  3
C0
350
50
  3
C1
350
51
  3
C2
350
52
  3
C3
350
53
  3
C4
350
54
  3
C5
350
55
  3
C6
350
56
  3
C7
350
57
  3
C8
350
58
  3
C9
350
59
  3
D0
350
5A
  3
D1
350
5B
  3
D2
350
5C
  0
DICTIONARY
  5
21F
102
{ACAD_REACTORS
330
C
102
}
330
C
100
AcDbDictionary
281
     1
  0
DICTIONARY
  5
2A
102
{ACAD_REACTORS
330
C
102
}
330
C
100
AcDbDictionary
281
     1
  3
2dWireframe
350
2F
  3
3D Hidden
350
31
  3
3dWireframe
350
30
  3
Basic
350
32
  3
Brighten
350
36
  3
ColorChange
350
3A
  3
Conceptual
350
34
  3
Dim
350
35
  3
Facepattern
350
39
  3
Flat
350
2B
  3
FlatWithEdges
350
2C
  3
Gouraud
350
2D
  3
GouraudWithEdges
350
2E
  3
Linepattern
350
38
  3
Realistic
350
33
  3
Thicken
350
37
  0
DICTIONARY
  5
21D
102
{ACAD_REACTORS
330
C
102
}
330
C
100
AcDbDictionary
281
     1
  3
CANNOSCALE
350
21E
  3
PSOLHEIGHT
350
222
  3
PSOLWIDTH
350
221
  0
LAYOUT
  5
1E
102
{ACAD_REACTORS
330
1A
102
}
330
1A
100
AcDbPlotSettings
  1

  2
none_device
  4

  6

 40
0.0
 41
0.0
 42
0.0
 43
0.0
 44
0.0
 45
0.0
 46
0.0
 47
0.0
 48
0.0
 49
0.0
140
0.0
141
0.0
142
1.0
143
1.0
 70
   688
 72
     0
 73
     0
 74
     5
  7

 75
    16
147
1.0
148
0.0
149
0.0
100
AcDbLayout
  1
Layout1
 70
     1
 71
     1
 10
0.0
 20
0.0
 11
1682.0
 21
2378.0
 12
0.0
 22
0.0
 32
0.0
 14
0.0
 24
0.0
 34
0.0
 15
1682.0
 25
2378.0
 35
0.0
146
0.0
 13
0.0
 23
0.0
 33
0.0
 16
1.0
 26
0.0
 36
0.0
 17
0.0
 27
1.0
 37
0.0
 76
     0
330
1B
  0
LAYOUT
  5
22
102
{ACAD_REACTORS
330
1A
102
}
330
1A
100
AcDbPlotSettings
  1

  2
none_device
  4

  6

 40
0.0
 41
0.0
 42
0.0
 43
0.0
 44
0.0
 45
0.0
 46
0.0
 47
0.0
 48
0.0
 49
0.0
140
0.0
141
0.0
142
1.0
143
1.0
 70
  1712
 72
     0
 73
     0
 74
     0
  7

 75
     0
147
1.0
148
0.0
149
0.0
100
AcDbLayout
  1
Model
 70
     1
 71
     0
 10
0.0
 20
0.0
 11
1682.0
 21
2378.0
 12
0.0
 22
0.0
 32
0.0
 14
0.0
 24
0.0
 34
0.0
 15
1682.0
 25
2378.0
 35
0.0
146
0.0
 13
0.0
 23
0.0
 33
0.0
 16
1.0
 26
0.0
 36
0.0
 17
0.0
 27
1.0
 37
0.0
 76
     0
330
1F
331
29
  0
MLINESTYLE
  5
18
102
{ACAD_REACTORS
330
17
102
}
330
17
100
AcDbMlineStyle
  2
Standard
 70
     0
  3

 62
   256
 51
90.0
 52
90.0
 71
     2
 49
0.5
 62
   256
  6
BYLAYER
 49
-0.5
 62
   256
  6
BYLAYER
  0
ACDBPLACEHOLDER
  5
F
102
{ACAD_REACTORS
330
E
102
}
330
E
  0
SCALE
  5
3C
102
{ACAD_REACTORS
330
3B
102
}
330
3B
100
AcDbScale
 70
     0
300
1:1
140
1.0
141
1.0
290
     1
  0
SCALE
  5
3D
102
{ACAD_REACTORS
330
3B
102
}
330
3B
100
AcDbScale
 70
     0
300
1:2
140
1.0
141
2.0
290
     0
  0
SCALE
  5
3E
102
{ACAD_REACTORS
330
3B
102
}
330
3B
100
AcDbScale
 70
     0
300
1:4
140
1.0
141
4.0
290
     0
  0
SCALE
  5
3F
102
{ACAD_REACTORS
330
3B
102
}
330
3B
100
AcDbScale
 70
     0
300
1:5
140
1.0
141
5.0
290
     0
  0
SCALE
  5
40
102
{ACAD_REACTORS
330
3B
102
}
330
3B
100
AcDbScale
 70
     0
300
1:8
140
1.0
141
8.0
290
     0
  0
SCALE
  5
41
102
{ACAD_REACTORS
330
3B
102
}
330
3B
100
AcDbScale
 70
     0
300
1:10
140
1.0
141
10.0
290
     0
  0
SCALE
  5
42
102
{ACAD_REACTORS
330
3B
102
}
330
3B
100
AcDbScale
 70
     0
300
1:16
140
1.0
141
16.0
290
     0
  0
SCALE
  5
43
102
{ACAD_REACTORS
330
3B
102
}
330
3B
100
AcDbScale
 70
     0
300
1:20
140
1.0
141
20.0
290
     0
  0
SCALE
  5
44
102
{ACAD_REACTORS
330
3B
102
}
330
3B
100
AcDbScale
 70
     0
300
1:30
140
1.0
141
30.0
290
     0
  0
SCALE
  5
45
102
{ACAD_REACTORS
330
3B
102
}
330
3B
100
AcDbScale
 70
     0
300
1:40
140
1.0
141
40.0
290
     0
  0
SCALE
  5
46
102
{ACAD_REACTORS
330
3B
102
}
330
3B
100
AcDbScale
 70
     0
300
1:50
140
1.0
141
50.0
290
     0
  0
SCALE
  5
47
102
{ACAD_REACTORS
330
3B
102
}
330
3B
100
AcDbScale
 70
     0
300
1:100
140
1.0
141
100.0
290
     0
  0
SCALE
  5
48
102
{ACAD_REACTORS
330
3B
102
}
330
3B
100
AcDbScale
 70
     0
300
2:1
140
2.0
141
1.0
290
     0
  0
SCALE
  5
49
102
{ACAD_REACTORS
330
3B
102
}
330
3B
100
AcDbScale
 70
     0
300
4:1
140
4.0
141
1.0
290
     0
  0
SCALE
  5
4A
102
{ACAD_REACTORS
330
3B
102
}
330
3B
100
AcDbScale
 70
     0
300
8:1
140
8.0
141
1.0
290
     0
  0
SCALE
  5
4B
102
{ACAD_REACTORS
330
3B
102
}
330
3B
100
AcDbScale
 70
     0
300
10:1
140
10.0
141
1.0
290
     0
  0
SCALE
  5
4C
102
{ACAD_REACTORS
330
3B
102
}
330
3B
100
AcDbScale
 70
     0
300
100:1
140
100.0
141
1.0
290
     0
  0
SCALE
  5
4D
102
{ACAD_REACTORS
330
3B
102
}
330
3B
100
AcDbScale
 70
     0
300
1/128" = 1'-0"
140
0.0078125
141
12.0
290
     0
  0
SCALE
  5
4E
102
{ACAD_REACTORS
330
3B
102
}
330
3B
100
AcDbScale
 70
     0
300
1/64" = 1'-0"
140
0.015625
141
12.0
290
     0
  0
SCALE
  5
4F
102
{ACAD_REACTORS
330
3B
102
}
330
3B
100
AcDbScale
 70
     0
300
1/32" = 1'-0"
140
0.03125
141
12.0
290
     0
  0
SCALE
  5
50
102
{ACAD_REACTORS
330
3B
102
}
330
3B
100
AcDbScale
 70
     0
300
1/16" = 1'-0"
140
0.0625
141
12.0
290
     0
  0
SCALE
  5
51
102
{ACAD_REACTORS
330
3B
102
}
330
3B
100
AcDbScale
 70
     0
300
3/32" = 1'-0"
140
0.09375
141
12.0
290
     0
  0
SCALE
  5
52
102
{ACAD_REACTORS
330
3B
102
}
330
3B
100
AcDbScale
 70
     0
300
1/8" = 1'-0"
140
0.125
141
12.0
290
     0
  0
SCALE
  5
53
102
{ACAD_REACTORS
330
3B
102
}
330
3B
100
AcDbScale
 70
     0
300
3/16" = 1'-0"
140
0.1875
141
12.0
290
     0
  0
SCALE
  5
54
102
{ACAD_REACTORS
330
3B
102
}
330
3B
100
AcDbScale
 70
     0
300
1/4" = 1'-0"
140
0.25
141
12.0
290
     0
  0
SCALE
  5
55
102
{ACAD_REACTORS
330
3B
102
}
330
3B
100
AcDbScale
 70
     0
300
3/8" = 1'-0"
140
0.375
141
12.0
290
     0
  0
SCALE
  5
56
102
{ACAD_REACTORS
330
3B
102
}
330
3B
100
AcDbScale
 70
     0
300
1/2" = 1'-0"
140
0.5
141
12.0
290
     0
  0
SCALE
  5
57
102
{ACAD_REACTORS
330
3B
102
}
330
3B
100
AcDbScale
 70
     0
300
3/4" = 1'-0"
140
0.75
141
12.0
290
     0
  0
SCALE
  5
58
102
{ACAD_REACTORS
330
3B
102
}
330
3B
100
AcDbScale
 70
     0
300
1" = 1'-0"
140
1.0
141
12.0
290
     0
  0
SCALE
  5
59
102
{ACAD_REACTORS
330
3B
102
}
330
3B
100
AcDbScale
 70
     0
300
1-1/2" = 1'-0"
140
1.5
141
12.0
290
     0
  0
SCALE
  5
5A
102
{ACAD_REACTORS
330
3B
102
}
330
3B
100
AcDbScale
 70
     0
300
3" = 1'-0"
140
3.0
141
12.0
290
     0
  0
SCALE
  5
5B
102
{ACAD_REACTORS
330
3B
102
}
330
3B
100
AcDbScale
 70
     0
300
6" = 1'-0"
140
6.0
141
12.0
290
     0
  0
SCALE
  5
5C
102
{ACAD_REACTORS
330
3B
102
}
330
3B
100
AcDbScale
 70
     0
300
1'-0" = 1'-0"
140
12.0
141
12.0
290
     0
  0
VISUALSTYLE
  5
2F
102
{ACAD_REACTORS
330
2A
102
}
330
2A
100
AcDbVisualStyle
  2
2dWireframe
 70
     4
 71
     0
 72
     2
 73
     0
 90
        0
 40
-0.6
 41
-30.0
 62
     5
 63
     7
 74
     1
 91
        4
 64
     7
 65
   257
 75
     1
175
     1
 42
1.0
 92
        0
 66
   257
 43
1.0
 76
     1
 77
     6
 78
     2
 67
     7
 79
     5
170
     0
171
     0
290
     0
174
     0
 93
        1
 44
0.0
173
     0
291
     0
 45
0.0
1001
ACAD
1000
AcDbSavedByObjectVersion
1070
     0
  0
VISUALSTYLE
  5
31
102
{ACAD_REACTORS
330
2A
102
}
330
2A
100
AcDbVisualStyle
  2
3D Hidden
 70
     6
 71
     1
 72
     2
 73
     2
 90
        0
 40
-0.6
 41
-30.0
 62
     5
 63
     7
 74
     2
 91
        2
 64
     7
 65
   257
 75
     2
175
     1
 42
40.0
 92
        0
 66
   257
 43
1.0
 76
     1
 77
     6
 78
     2
 67
     7
 79
     3
170
     0
171
     0
290
     0
174
     0
 93
        1
 44
0.0
173
     0
291
     0
 45
0.0
1001
ACAD
1000
AcDbSavedByObjectVersion
1070
     0
  0
VISUALSTYLE
  5
30
102
{ACAD_REACTORS
330
2A
102
}
330
2A
100
AcDbVisualStyle
  2
3dWireframe
 70
     5
 71
     0
 72
     2
 73
     0
 90
        0
 40
-0.6
 41
-30.0
 62
     5
 63
     7
 74
     1
 91
        4
 64
     7
 65
   257
 75
     1
175
     1
 42
1.0
 92
        0
 66
   257
 43
1.0
 76
     1
 77
     6
 78
     2
 67
     7
 79
     5
170
     0
171
     0
290
     0
174
     0
 93
        1
 44
0.0
173
     0
291
     0
 45
0.0
1001
ACAD
1000
AcDbSavedByObjectVersion
1070
     0
  0
VISUALSTYLE
  5
32
102
{ACAD_REACTORS
330
2A
102
}
330
2A
100
AcDbVisualStyle
  2
Basic
 70
     7
 71
     1
 72
     0
 73
     1
 90
        0
 40
-0.6
 41
-30.0
 62
     5
 63
     7
 74
     0
 91
        4
 64
     7
 65
   257
 75
     1
175
     1
 42
1.0
 92
        8
 66
     7
 43
1.0
 76
     1
 77
     6
 78
     2
 67
     7
 79
     5
170
     0
171
     0
290
     0
174
     0
 93
        1
 44
0.0
173
     0
291
     1
 45
0.0
1001
ACAD
1000
AcDbSavedByObjectVersion
1070
     0
  0
VISUALSTYLE
  5
36
102
{ACAD_REACTORS
330
2A
102
}
330
2A
100
AcDbVisualStyle
  2
Brighten
 70
    12
 71
     2
 72
     2
 73
     0
 90
        0
 40
-0.6
 41
-30.0
 62
     5
 63
     7
 74
     1
 91
        4
 64
     7
 65
   257
 75
     1
175
     1
 42
1.0
 92
        8
 66
     7
 43
1.0
 76
     1
 77
     6
 78
     2
 67
     7
 79
     5
170
     0
171
     0
290
     0
174
     0
 93
        1
 44
50.0
173
     0
291
     1
 45
0.0
1001
ACAD
1000
AcDbSavedByObjectVersion
1070
     0
  0
VISUALSTYLE
  5
3A
102
{ACAD_REACTORS
330
2A
102
}
330
2A
100
AcDbVisualStyle
  2
ColorChange
 70
    16
 71
     2
 72
     2
 73
     3
 90
        0
 40
-0.6
 41
-30.0
 62
     5
 63
     8
 74
     1
 91
        4
 64
     7
 65
   257
 75
     1
175
     1
 42
1.0
 92
        8
 66
     8
 43
1.0
 76
     1
 77
     6
 78
     2
 67
     7
 79
     5
170
     0
171
     0
290
     0
174
     0
 93
        1
 44
0.0
173
     0
291
     1
 45
0.0
1001
ACAD
1000
AcDbSavedByObjectVersion
1070
     0
  0
VISUALSTYLE
  5
34
102
{ACAD_REACTORS
330
2A
102
}
330
2A
100
AcDbVisualStyle
  2
Conceptual
 70
     9
 71
     3
 72
     2
 73
     0
 90
        0
 40
-0.6
 41
-30.0
 62
     5
 63
     7
 74
     2
 91
        2
 64
     7
 65
   257
 75
     1
175
     1
 42
40.0
 92
        8
 66
     7
 43
1.0
 76
     1
 77
     6
 78
     2
 67
     7
 79
     3
170
     0
171
     0
290
     0
174
     0
 93
        1
 44
0.0
173
     0
291
     0
 45
0.0
1001
ACAD
1000
AcDbSavedByObjectVersion
1070
     0
  0
VISUALSTYLE
  5
35
102
{ACAD_REACTORS
330
2A
102
}
330
2A
100
AcDbVisualStyle
  2
Dim
 70
    11
 71
     2
 72
     2
 73
     0
 90
        0
 40
-0.6
 41
-30.0
 62
     5
 63
     7
 74
     1
 91
        4
 64
     7
 65
   257
 75
     1
175
     1
 42
1.0
 92
        8
 66
     7
 43
1.0
 76
     1
 77
     6
 78
     2
 67
     7
 79
     5
170
     0
171
     0
290
     0
174
     0
 93
        1
 44
-50.0
173
     0
291
     1
 45
0.0
1001
ACAD
1000
AcDbSavedByObjectVersion
1070
     0
  0
VISUALSTYLE
  5
39
102
{ACAD_REACTORS
330
2A
102
}
330
2A
100
AcDbVisualStyle
  2
Facepattern
 70
    15
 71
     2
 72
     2
 73
     0
 90
        0
 40
-0.6
 41
-30.0
 62
     5
 63
     7
 74
     1
 91
        4
 64
     7
 65
   257
 75
     1
175
     1
 42
1.0
 92
        8
 66
     7
 43
1.0
 76
     1
 77
     6
 78
     2
 67
     7
 79
     5
170
     0
171
     0
290
     0
174
     0
 93
        1
 44
0.0
173
     0
291
     1
 45
0.0
1001
ACAD
1000
AcDbSavedByObjectVersion
1070
     0
  0
VISUALSTYLE
  5
2B
102
{ACAD_REACTORS
330
2A
102
}
330
2A
100
AcDbVisualStyle
  2
Flat
 70
     0
 71
     2
 72
     1
 73
     1
 90
        2
 40
-0.6
 41
30.0
 62
     5
 63
     7
 74
     0
 91
        4
 64
     7
 65
   257
 75
     1
175
     1
 42
1.0
 92
        8
 66
     7
 43
1.0
 76
     1
 77
     6
 78
     2
 67
     7
 79
     5
170
     0
171
     0
290
     0
174
     0
 93
       13
 44
0.0
173
     0
291
     1
 45
0.0
1001
ACAD
1000
AcDbSavedByObjectVersion
1070
     0
  0
VISUALSTYLE
  5
2C
102
{ACAD_REACTORS
330
2A
102
}
330
2A
100
AcDbVisualStyle
  2
FlatWithEdges
 70
     1
 71
     2
 72
     1
 73
     1
 90
        2
 40
-0.6
 41
30.0
 62
     5
 63
     7
 74
     1
 91
        4
 64
     7
 65
   257
 75
     1
175
     1
 42
1.0
 92
        0
 66
   257
 43
1.0
 76
     1
 77
     6
 78
     2
 67
     7
 79
     5
170
     0
171
     0
290
     0
174
     0
 93
       13
 44
0.0
173
     0
291
     1
 45
0.0
1001
ACAD
1000
AcDbSavedByObjectVersion
1070
     0
  0
VISUALSTYLE
  5
2D
102
{ACAD_REACTORS
330
2A
102
}
330
2A
100
AcDbVisualStyle
  2
Gouraud
 70
     2
 71
     2
 72
     2
 73
     1
 90
        2
 40
-0.6
 41
30.0
 62
     5
 63
     7
 74
     0
 91
        4
 64
     7
 65
   257
 75
     1
175
     1
 42
1.0
 92
        0
 66
     7
 43
1.0
 76
     1
 77
     6
 78
     2
 67
     7
 79
     5
170
     0
171
     0
290
     0
174
     0
 93
       13
 44
0.0
173
     0
291
     1
 45
0.0
1001
ACAD
1000
AcDbSavedByObjectVersion
1070
     0
  0
VISUALSTYLE
  5
2E
102
{ACAD_REACTORS
330
2A
102
}
330
2A
100
AcDbVisualStyle
  2
GouraudWithEdges
 70
     3
 71
     2
 72
     2
 73
     1
 90
        2
 40
-0.6
 41
30.0
 62
     5
 63
     7
 74
     1
 91
        4
 64
     7
 65
   257
 75
     1
175
     1
 42
1.0
 92
        0
 66
   257
 43
1.0
 76
     1
 77
     6
 78
     2
 67
     7
 79
     5
170
     0
171
     0
290
     0
174
     0
 93
       13
 44
0.0
173
     0
291
     1
 45
0.0
1001
ACAD
1000
AcDbSavedByObjectVersion
1070
     0
  0
VISUALSTYLE
  5
38
102
{ACAD_REACTORS
330
2A
102
}
330
2A
100
AcDbVisualStyle
  2
Linepattern
 70
    14
 71
     2
 72
     2
 73
     0
 90
        0
 40
-0.6
 41
-30.0
 62
     5
 63
     7
 74
     1
 91
        4
 64
     7
 65
   257
 75
     7
175
     7
 42
1.0
 92
        8
 66
     7
 43
1.0
 76
     1
 77
     6
 78
     2
 67
     7
 79
     5
170
     0
171
     0
290
     0
174
     0
 93
        1
 44
0.0
173
     0
291
     1
 45
0.0
1001
ACAD
1000
AcDbSavedByObjectVersion
1070
     0
  0
VISUALSTYLE
  5
33
102
{ACAD_REACTORS
330
2A
102
}
330
2A
100
AcDbVisualStyle
  2
Realistic
 70
     8
 71
     2
 72
     2
 73
     0
 90
        0
 40
-0.6
 41
-30.0
 62
     5
 63
     7
 74
     1
 91
        0
 64
     7
 65
   257
 75
     1
175
     1
 42
1.0
 92
        8
 66
     8
 43
1.0
 76
     1
 77
     6
 78
     2
 67
     7
 79
     5
170
     0
171
     0
290
     0
174
     0
 93
       13
 44
0.0
173
     0
291
     0
 45
0.0
1001
ACAD
1000
AcDbSavedByObjectVersion
1070
     0
  0
VISUALSTYLE
  5
37
102
{ACAD_REACTORS
330
2A
102
}
330
2A
100
AcDbVisualStyle
  2
Thicken
 70
    13
 71
     2
 72
     2
 73
     0
 90
        0
 40
-0.6
 41
-30.0
 62
     5
 63
     7
 74
     1
 91
        4
 64
     7
 65
   257
 75
     1
175
     1
 42
1.0
 92
       12
 66
     7
 43
1.0
 76
     1
 77
     6
 78
     2
 67
     7
 79
     5
170
     0
171
     0
290
     0
174
     0
 93
        1
 44
0.0
173
     0
291
     1
 45
0.0
1001
ACAD
1000
AcDbSavedByObjectVersion
1070
     0
  0
DICTIONARYVAR
  5
21E
102
{ACAD_REACTORS
330
21D
102
}
330
21D
100
DictionaryVariables
280
     0
  1
1:1
  0
DICTIONARYVAR
  5
222
102
{ACAD_REACTORS
330
21D
102
}
330
21D
100
DictionaryVariables
280
     0
  1
80.000000
  0
DICTIONARYVAR
  5
221
102
{ACAD_REACTORS
330
21D
102
}
330
21D
100
DictionaryVariables
280
     0
  1
5.000000
  0
ENDSEC
  0
EOF
