  0
SECTION
  2
HEADER
  9
$ACADVER
  1
AC1015
  9
$ACADMAINTVER
 70
     6
  9
$DWGCODEPAGE
  3
ANSI_1252
  9
$INSBASE
 10
0.0
 20
0.0
 30
0.0
  9
$EXTMIN
 10
0.0
 20
0.0
 30
0.0
  9
$EXTMAX
 10
1682.0
 20
2378.0
 30
0.0
  9
$LIMMIN
 10
0.0
 20
0.0
  9
$LIMMAX
 10
1682.0
 20
2378.0
  9
$ORTHOMODE
 70
     0
  9
$REGENMODE
 70
     1
  9
$FILLMODE
 70
     1
  9
$QTEXTMODE
 70
     0
  9
$MIRRTEXT
 70
     1
  9
$LTSCALE
 40
1.0
  9
$ATTMODE
 70
     1
  9
$TEXTSIZE
 40
2.5
  9
$TRACEWID
 40
1.0
  9
$TEXTSTYLE
  7
Standard
  9
$CLAYER
  8
0
  9
$CELTYPE
  6
ByLayer
  9
$CECOLOR
 62
   256
  9
$CELTSCALE
 40
1.0
  9
$DISPSILH
 70
     0
  9
$DIMSCALE
 40
1.0
  9
$DIMASZ
 40
2.5
  9
$DIMEXO
 40
0.625
  9
$DIMDLI
 40
3.75
  9
$DIMRND
 40
0.0
  9
$DIMDLE
 40
0.0
  9
$DIMEXE
 40
1.25
  9
$DIMTP
 40
0.0
  9
$DIMTM
 40
0.0
  9
$DIMTXT
 40
2.5
  9
$DIMCEN
 40
2.5
  9
$DIMTSZ
 40
0.0
  9
$DIMTOL
 70
     0
  9
$DIMLIM
 70
     0
  9
$DIMTIH
 70
     0
  9
$DIMTOH
 70
     0
  9
$DIMSE1
 70
     0
  9
$DIMSE2
 70
     0
  9
$DIMTAD
 70
     1
  9
$DIMZIN
 70
     8
  9
$DIMBLK
  1

  9
$DIMASO
 70
     1
  9
$DIMSHO
 70
     1
  9
$DIMPOST
  1

  9
$DIMAPOST
  1

  9
$DIMALT
 70
     0
  9
$DIMALTD
 70
     3
  9
$DIMALTF
 40
0.0393700787
  9
$DIMLFAC
 40
1.0
  9
$DIMTOFL
 70
     1
  9
$DIMTVP
 40
0.0
  9
$DIMTIX
 70
     0
  9
$DIMSOXD
 70
     0
  9
$DIMSAH
 70
     0
  9
$DIMBLK1
  1

  9
$DIMBLK2
  1

  9
$DIMSTYLE
  2
ISO-25
  9
$DIMCLRD
 70
     0
  9
$DIMCLRE
 70
     0
  9
$DIMCLRT
 70
     0
  9
$DIMTFAC
 40
1.0
  9
$DIMGAP
 40
0.625
  9
$DIMJUST
 70
     0
  9
$DIMSD1
 70
     0
  9
$DIMSD2
 70
     0
  9
$DIMTOLJ
 70
     0
  9
$DIMTZIN
 70
     8
  9
$DIMALTZ
 70
     0
  9
$DIMALTTZ
 70
     0
  9
$DIMUPT
 70
     0
  9
$DIMDEC
 70
     2
  9
$DIMTDEC
 70
     2
  9
$DIMALTU
 70
     2
  9
$DIMALTTD
 70
     3
  9
$DIMTXSTY
  7
Standard
  9
$DIMAUNIT
 70
     0
  9
$DIMADEC
 70
     0
  9
$DIMALTRND
 40
0.0
  9
$DIMAZIN
 70
     0
  9
$DIMDSEP
 70
    44
  9
$DIMATFIT
 70
     3
  9
$DIMFRAC
 70
     0
  9
$DIMLDRBLK
  1

  9
$DIMLUNIT
 70
     2
  9
$DIMLWD
 70
    -2
  9
$DIMLWE
 70
    -2
  9
$DIMTMOVE
 70
     0
  9
$LUNITS
 70
     2
  9
$LUPREC
 70
     4
  9
$SKETCHINC
 40
1.0
  9
$FILLETRAD
 40
10.0
  9
$AUNITS
 70
     0
  9
$AUPREC
 70
     0
  9
$MENU
  1
.
  9
$ELEVATION
 40
0.0
  9
$PELEVATION
 40
0.0
  9
$THICKNESS
 40
0.0
  9
$LIMCHECK
 70
     0
  9
$CHAMFERA
 40
10.0
  9
$CHAMFERB
 40
10.0
  9
$CHAMFERC
 40
20.0
  9
$CHAMFERD
 40
0.0
  9
$SKPOLY
 70
     0
  9
$TDCREATE
 40
2455307.451194908
  9
$TDUCREATE
 40
2455307.367861574
  9
$TDUPDATE
 40
2455307.451194919
  9
$TDUUPDATE
 40
2455307.367861586
  9
$TDINDWG
 40
0.0000000116
  9
$TDUSRTIMER
 40
0.0000000116
  9
$USRTIMER
 70
     1
  9
$ANGBASE
 50
0.0
  9
$ANGDIR
 70
     0
  9
$PDMODE
 70
     0
  9
$PDSIZE
 40
0.0
  9
$PLINEWID
 40
0.0
  9
$SPLFRAME
 70
     0
  9
$SPLINETYPE
 70
     6
  9
$SPLINESEGS
 70
     8
  9
$HANDSEED
  5
193
  9
$SURFTAB1
 70
     6
  9
$SURFTAB2
 70
     6
  9
$SURFTYPE
 70
     6
  9
$SURFU
 70
     6
  9
$SURFV
 70
     6
  9
$UCSBASE
  2

  9
$UCSNAME
  2

  9
$UCSORG
 10
0.0
 20
0.0
 30
0.0
  9
$UCSXDIR
 10
1.0
 20
0.0
 30
0.0
  9
$UCSYDIR
 10
0.0
 20
1.0
 30
0.0
  9
$UCSORTHOREF
  2

  9
$UCSORTHOVIEW
 70
     0
  9
$UCSORGTOP
 10
0.0
 20
0.0
 30
0.0
  9
$UCSORGBOTTOM
 10
0.0
 20
0.0
 30
0.0
  9
$UCSORGLEFT
 10
0.0
 20
0.0
 30
0.0
  9
$UCSORGRIGHT
 10
0.0
 20
0.0
 30
0.0
  9
$UCSORGFRONT
 10
0.0
 20
0.0
 30
0.0
  9
$UCSORGBACK
 10
0.0
 20
0.0
 30
0.0
  9
$PUCSBASE
  2

  9
$PUCSNAME
  2

  9
$PUCSORG
 10
0.0
 20
0.0
 30
0.0
  9
$PUCSXDIR
 10
1.0
 20
0.0
 30
0.0
  9
$PUCSYDIR
 10
0.0
 20
1.0
 30
0.0
  9
$PUCSORTHOREF
  2

  9
$PUCSORTHOVIEW
 70
     0
  9
$PUCSORGTOP
 10
0.0
 20
0.0
 30
0.0
  9
$PUCSORGBOTTOM
 10
0.0
 20
0.0
 30
0.0
  9
$PUCSORGLEFT
 10
0.0
 20
0.0
 30
0.0
  9
$PUCSORGRIGHT
 10
0.0
 20
0.0
 30
0.0
  9
$PUCSORGFRONT
 10
0.0
 20
0.0
 30
0.0
  9
$PUCSORGBACK
 10
0.0
 20
0.0
 30
0.0
  9
$USERI1
 70
     0
  9
$USERI2
 70
     0
  9
$USERI3
 70
     0
  9
$USERI4
 70
     0
  9
$USERI5
 70
     0
  9
$USERR1
 40
0.0
  9
$USERR2
 40
0.0
  9
$USERR3
 40
0.0
  9
$USERR4
 40
0.0
  9
$USERR5
 40
0.0
  9
$WORLDVIEW
 70
     1
  9
$SHADEDGE
 70
     3
  9
$SHADEDIF
 70
    70
  9
$TILEMODE
 70
     1
  9
$MAXACTVP
 70
    64
  9
$PINSBASE
 10
0.0
 20
0.0
 30
0.0
  9
$PLIMCHECK
 70
     0
  9
$PEXTMIN
 10
0.0
 20
0.0
 30
0.0
  9
$PEXTMAX
 10
1682.0
 20
2378.0
 30
0.0
  9
$PLIMMIN
 10
0.0
 20
0.0
  9
$PLIMMAX
 10
1682.0
 20
2378.0
  9
$UNITMODE
 70
     0
  9
$VISRETAIN
 70
     1
  9
$PLINEGEN
 70
     0
  9
$PSLTSCALE
 70
     1
  9
$TREEDEPTH
 70
  3020
  9
$CMLSTYLE
  2
Standard
  9
$CMLJUST
 70
     0
  9
$CMLSCALE
 40
20.0
  9
$PROXYGRAPHICS
 70
     1
  9
$MEASUREMENT
 70
     1
  9
$CELWEIGHT
370
    -1
  9
$ENDCAPS
280
     0
  9
$JOINSTYLE
280
     0
  9
$LWDISPLAY
290
     0
  9
$INSUNITS
 70
     4
  9
$HYPERLINKBASE
  1

  9
$STYLESHEET
  1

  9
$XEDIT
290
     1
  9
$CEPSNTYPE
380
     0
  9
$PSTYLEMODE
290
     1
  9
$FINGERPRINTGUID
  2
{1A170944-CA5C-422F-AB87-18ED0FAFD1D2}
  9
$VERSIONGUID
  2
{FAEB1C32-E019-11D5-929B-00C0DF256EC4}
  9
$EXTNAMES
290
     1
  9
$PSVPSCALE
 40
0.0
  9
$OLESTARTUP
290
     0
  0
ENDSEC
  0
SECTION
  2
CLASSES
  0
CLASS
  1
ACDBDICTIONARYWDFLT
  2
AcDbDictionaryWithDefault
  3
ObjectDBX Classes
 90
        0
280
     0
281
     0
  0
CLASS
  1
VISUALSTYLE
  2
AcDbVisualStyle
  3
ObjectDBX Classes
 90
     4095
280
     0
281
     0
  0
CLASS
  1
SCALE
  2
AcDbScale
  3
ObjectDBX Classes
 90
     1153
280
     0
281
     0
  0
CLASS
  1
DICTIONARYVAR
  2
AcDbDictionaryVar
  3
ObjectDBX Classes
 90
        0
280
     0
281
     0
  0
CLASS
  1
ACDBPLACEHOLDER
  2
AcDbPlaceHolder
  3
ObjectDBX Classes
 90
        0
280
     0
281
     0
  0
CLASS
  1
LAYOUT
  2
AcDbLayout
  3
ObjectDBX Classes
 90
        0
280
     0
281
     0
  0
ENDSEC
  0
SECTION
  2
TABLES
  0
TABLE
  2
VPORT
  5
8
330
0
100
AcDbSymbolTable
 70
     1
  0
VPORT
  5
29
330
8
100
AcDbSymbolTableRecord
100
AcDbViewportTableRecord
  2
*Active
 70
     0
 10
0.0
 20
0.0
 11
1.0
 21
1.0
 12
344.1869158879
 22
148.5
 13
0.0
 23
0.0
 14
10.0
 24
10.0
 15
10.0
 25
10.0
 16
0.0
 26
0.0
 36
1.0
 17
0.0
 27
0.0
 37
0.0
 40
297.0
 41
1.9729729729
 42
50.0
 43
0.0
 44
0.0
 50
0.0
 51
0.0
 71
     0
 72
   100
 73
     1
 74
     3
 75
     0
 76
     0
 77
     0
 78
     0
281
     0
 65
     1
110
0.0
120
0.0
130
0.0
111
1.0
121
0.0
131
0.0
112
0.0
122
1.0
132
0.0
 79
     0
146
0.0
  0
ENDTAB
  0
TABLE
  2
LTYPE
  5
5
330
0
100
AcDbSymbolTable
 70
     2
  0
LTYPE
  5
14
330
5
100
AcDbSymbolTableRecord
100
AcDbLinetypeTableRecord
  2
ByBlock
 70
     0
  3

 72
    65
 73
     0
 40
0.0
  0
LTYPE
  5
15
330
5
100
AcDbSymbolTableRecord
100
AcDbLinetypeTableRecord
  2
ByLayer
 70
     0
  3

 72
    65
 73
     0
 40
0.0
  0
LTYPE
  5
16
330
5
100
AcDbSymbolTableRecord
100
AcDbLinetypeTableRecord
  2
Continuous
 70
     0
  3
Solid line
 72
    65
 73
     0
 40
0.0
  0
LTYPE
  5
60
330
5
100
AcDbSymbolTableRecord
100
AcDbLinetypeTableRecord
  2
CENTER2
 70
     0
  3
Center (.5x) ___ _ ___ _ ___ _ ___ _ ___ _ ___
 72
    65
 73
     4
 40
28.575
 49
19.05
 74
     4
 75
     0
340
0
 46
0.0
 50
0.0
 44
0.0
 45
0.0
 49
-3.175
 74
     4
 75
     0
340
0
 46
0.0
 50
0.0
 44
0.0
 45
0.0
 49
3.175
 74
     4
 75
     0
340
0
 46
0.0
 50
0.0
 44
0.0
 45
0.0
 49
-3.175
 74
     4
 75
     0
340
0
 46
0.0
 50
0.0
 44
0.0
 45
0.0
  0
ENDTAB
  0
TABLE
  2
LAYER
  5
2
330
0
100
AcDbSymbolTable
 70
     7
  0
LAYER
  5
10
330
2
100
AcDbSymbolTableRecord
100
AcDbLayerTableRecord
  2
0
 70
     0
 62
     7
  6
Continuous
370
    -3
390
F
  0
LAYER
  5
5D
330
2
100
AcDbSymbolTableRecord
100
AcDbLayerTableRecord
  2
Default
 70
     0
 62
     7
  6
Continuous
370
    -3
390
F
  0
LAYER
  5
70
330
2
100
AcDbSymbolTableRecord
100
AcDbLayerTableRecord
  2
$DDT_AUDIT_GENERATED_(70)
 70
     0
 62
     7
  6
Continuous
370
    -3
390
F
  0
LAYER
  5
98
330
2
100
AcDbSymbolTableRecord
100
AcDbLayerTableRecord
  2
02636038_GEHÄUSE
 70
     0
 62
     7
  6
Continuous
370
    -3
390
F
  0
LAYER
  5
AD
330
2
100
AcDbSymbolTableRecord
100
AcDbLayerTableRecord
  2
$DDT_AUDIT_GENERATED_(AD)
 70
     0
 62
     7
  6
Continuous
370
    -3
390
F
  0
LAYER
  5
E7
330
2
100
AcDbSymbolTableRecord
100
AcDbLayerTableRecord
  2
$DDT_AUDIT_GENERATED_(E7)
 70
     0
 62
     7
  6
Continuous
370
    -3
390
F
  0
LAYER
  5
10C
330
2
100
AcDbSymbolTableRecord
100
AcDbLayerTableRecord
  2
$DDT_AUDIT_GENERATED_(10C)
 70
     0
 62
     7
  6
Continuous
370
    -3
390
F
  0
ENDTAB
  0
TABLE
  2
STYLE
  5
3
330
0
100
AcDbSymbolTable
 70
     2
  0
STYLE
  5
11
330
3
100
AcDbSymbolTableRecord
100
AcDbTextStyleTableRecord
  2
Standard
 70
     0
 40
0.0
 41
1.0
 50
0.0
 71
     0
 42
2.5
  3
txt
  4

  0
STYLE
  5
182
330
3
100
AcDbSymbolTableRecord
100
AcDbTextStyleTableRecord
  2
SEACAD_seiso_ttf
 70
     0
 40
0.0
 41
1.0
 50
0.0
 71
     0
 42
0.2
  3
seiso.ttf
  4

  0
ENDTAB
  0
TABLE
  2
VIEW
  5
6
330
0
100
AcDbSymbolTable
 70
     0
  0
ENDTAB
  0
TABLE
  2
UCS
  5
7
330
0
100
AcDbSymbolTable
 70
     0
  0
ENDTAB
  0
TABLE
  2
APPID
  5
9
330
0
100
AcDbSymbolTable
 70
     1
  0
APPID
  5
12
330
9
100
AcDbSymbolTableRecord
100
AcDbRegAppTableRecord
  2
ACAD
 70
     0
  0
ENDTAB
  0
TABLE
  2
DIMSTYLE
  5
A
330
0
100
AcDbSymbolTable
 70
     1
100
AcDbDimStyleTable
  0
DIMSTYLE
105
27
330
A
100
AcDbSymbolTableRecord
100
AcDbDimStyleTableRecord
  2
ISO-25
 70
     0
 41
2.5
 42
0.625
 43
3.75
 44
1.25
 73
     0
 74
     0
 77
     1
 78
     8
140
2.5
141
2.5
143
0.0393700787
147
0.625
171
     3
172
     1
271
     2
272
     2
274
     3
278
    44
283
     0
284
     8
340
11
  0
ENDTAB
  0
TABLE
  2
BLOCK_RECORD
  5
1
330
0
100
AcDbSymbolTable
 70
     7
  0
BLOCK_RECORD
  5
1F
330
1
100
AcDbSymbolTableRecord
100
AcDbBlockTableRecord
  2
*Model_Space
340
22
  0
BLOCK_RECORD
  5
1B
330
1
100
AcDbSymbolTableRecord
100
AcDbBlockTableRecord
  2
*Paper_Space
340
1E
  0
BLOCK_RECORD
  5
5E
330
1
100
AcDbSymbolTableRecord
100
AcDbBlockTableRecord
  2
SEANNOT_GROUP
340
0
102
{BLKREFS
331
5F
102
}
  0
BLOCK_RECORD
  5
64
330
1
100
AcDbSymbolTableRecord
100
AcDbBlockTableRecord
  2
SEANNOT_GROUP1
340
0
102
{BLKREFS
331
65
102
}
  0
BLOCK_RECORD
  5
69
330
1
100
AcDbSymbolTableRecord
100
AcDbBlockTableRecord
  2
SEANNOT_GROUP2
340
0
102
{BLKREFS
331
6A
102
}
  0
BLOCK_RECORD
  5
6E
330
1
100
AcDbSymbolTableRecord
100
AcDbBlockTableRecord
  2
SE
340
0
102
{BLKREFS
331
6F
102
}
  0
BLOCK_RECORD
  5
110
330
1
100
AcDbSymbolTableRecord
100
AcDbBlockTableRecord
  2
SE1
340
0
102
{BLKREFS
331
111
102
}
  0
BLOCK_RECORD
  5
155
330
1
100
AcDbSymbolTableRecord
100
AcDbBlockTableRecord
  2
SE2
340
0
102
{BLKREFS
331
156
102
}
  0
ENDTAB
  0
ENDSEC
  0
SECTION
  2
BLOCKS
  0
BLOCK
  5
20
330
1F
100
AcDbEntity
  8
0
100
AcDbBlockBegin
  2
*Model_Space
 70
     0
 10
0.0
 20
0.0
 30
0.0
  3
*Model_Space
  1

  0
ENDBLK
  5
21
330
1F
100
AcDbEntity
  8
0
100
AcDbBlockEnd
  0
BLOCK
  5
1C
330
1B
100
AcDbEntity
 67
     1
  8
0
100
AcDbBlockBegin
  2
*Paper_Space
 70
     0
 10
0.0
 20
0.0
 30
0.0
  3
*Paper_Space
  1

  0
ENDBLK
  5
1D
330
1B
100
AcDbEntity
 67
     1
  8
0
100
AcDbBlockEnd
  0
BLOCK
  5
62
330
5E
100
AcDbEntity
  8
0
100
AcDbBlockBegin
  2
SEANNOT_GROUP
 70
     0
 10
0.0
 20
0.0
 30
0.0
  3
SEANNOT_GROUP
  1

  0
LINE
  5
61
330
5E
100
AcDbEntity
  8
Default
  6
CENTER2
 62
     7
100
AcDbLine
 10
34.0250919847
 20
387.7727045783
 30
0.0
 11
34.0250919847
 21
368.9329436197
 31
0.0
  0
ENDBLK
  5
63
330
5E
100
AcDbEntity
  8
0
100
AcDbBlockEnd
  0
BLOCK
  5
67
330
64
100
AcDbEntity
  8
0
100
AcDbBlockBegin
  2
SEANNOT_GROUP1
 70
     0
 10
0.0
 20
0.0
 30
0.0
  3
SEANNOT_GROUP1
  1

  0
LINE
  5
66
330
64
100
AcDbEntity
  8
Default
  6
CENTER2
 62
     7
100
AcDbLine
 10
149.656880091
 20
387.7727045783
 30
0.0
 11
149.656880091
 21
369.6845826203
 31
0.0
  0
ENDBLK
  5
68
330
64
100
AcDbEntity
  8
0
100
AcDbBlockEnd
  0
BLOCK
  5
6C
330
69
100
AcDbEntity
  8
0
100
AcDbBlockBegin
  2
SEANNOT_GROUP2
 70
     0
 10
0.0
 20
0.0
 30
0.0
  3
SEANNOT_GROUP2
  1

  0
LINE
  5
6B
330
69
100
AcDbEntity
  8
Default
  6
CENTER2
 62
     7
100
AcDbLine
 10
34.0250291914
 20
250.4663362419
 30
0.0
 11
34.0250291914
 21
267.6969275321
 31
0.0
  0
ENDBLK
  5
6D
330
69
100
AcDbEntity
  8
0
100
AcDbBlockEnd
  0
BLOCK
  5
10E
330
6E
100
AcDbEntity
  8
0
100
AcDbBlockBegin
  2
SE
 70
     0
 10
0.0
 20
0.0
 30
0.0
  3
SE
  1

  0
LINE
  5
71
330
6E
100
AcDbEntity
  8
$DDT_AUDIT_GENERATED_(70)
  6
Continuous
 62
     7
100
AcDbLine
 10
16.1454863403
 20
466.27837913
 30
0.0
 11
16.1454863403
 21
459.2006934059
 31
0.0
  0
ARC
  5
72
330
6E
100
AcDbEntity
  8
$DDT_AUDIT_GENERATED_(70)
  6
Continuous
 62
     7
100
AcDbCircle
 10
677.6378383035
 20
400.7237797718
 30
0.0
 40
669.4568464568382
100
AcDbArc
 50
177.6764859174
 51
178.6104679678
  0
ARC
  5
73
330
6E
100
AcDbEntity
  8
$DDT_AUDIT_GENERATED_(70)
  6
Continuous
 62
     7
100
AcDbCircle
 10
19.7632509215
 20
459.0945686947
 30
0.0
 40
3.662221880584168
100
AcDbArc
 50
178.8042493253
 51
234.4330912395
  0
ARC
  5
74
330
6E
100
AcDbEntity
  8
$DDT_AUDIT_GENERATED_(70)
  6
Continuous
 62
     7
100
AcDbCircle
 10
20.4016302843
 20
452.4591352755
 30
0.0
 40
4.586319262452359
100
AcDbArc
 50
127.131619219
 51
151.7781487027
  0
SPLINE
  5
75
330
6E
100
AcDbEntity
  8
$DDT_AUDIT_GENERATED_(70)
  6
Continuous
 62
     7
100
AcDbSpline
210
0.0
220
0.0
230
1.0
 70
     8
 71
     3
 72
    19
 73
    15
 74
     0
 42
0.000000000592013
 43
0.0000000001
 40
0.0
 40
0.0
 40
0.0
 40
0.0
 40
0.0313522873894289
 40
0.0631342674815204
 40
0.1258977933994772
 40
0.2505952678048137
 40
0.3758530028775961
 40
0.5002729549262861
 40
0.6255264095992759
 40
0.750142283775436
 40
0.812960295872126
 40
0.8754549837265271
 40
0.9377014188373037
 40
1.0
 40
1.0
 40
1.0
 40
1.0
 10
34.02509198472771
 20
459.076444572028
 30
0.0
 10
33.78669641193964
 20
459.0801158263595
 30
0.0
 10
33.306637981992
 20
459.0875086506876
 30
0.0
 10
32.34995729775563
 20
459.0910460933185
 30
0.0
 10
30.69277041534568
 20
459.0767814484145
 30
0.0
 10
28.37718796281506
 20
458.9659450341983
 30
0.0
 10
25.76126974665048
 20
458.6952544629571
 30
0.0
 10
23.39007930024529
 20
458.3113322070747
 30
0.0
 10
21.36002884195948
 20
457.8308321024659
 30
0.0
 10
19.99253937581554
 20
457.3688827973682
 30
0.0
 10
19.096093192254
 20
456.9794559373859
 30
0.0
 10
18.51808303733369
 20
456.6835955002521
 30
0.0
 10
18.02571313443968
 20
456.3949904712873
 30
0.0
 10
17.7639741171178
 20
456.2086670512186
 30
0.0
 10
17.63310760427994
 20
456.1155825331194
 30
0.0
  0
SPLINE
  5
76
330
6E
100
AcDbEntity
  8
$DDT_AUDIT_GENERATED_(70)
  6
Continuous
 62
     7
100
AcDbSpline
210
0.0
220
0.0
230
1.0
 70
     8
 71
     3
 72
    19
 73
    15
 74
     0
 42
0.0000000005015683
 43
0.0000000001
 40
0.0
 40
0.0
 40
0.0
 40
0.0
 40
0.0317458345566946
 40
0.0634608050601762
 40
0.1267185539492039
 40
0.1478332934477818
 40
0.1899975545969879
 40
0.2215894070184209
 40
0.2531439148171756
 40
0.3160564966638793
 40
0.3788178003896778
 40
0.4413536583521228
 40
0.5036262092247332
 40
0.5563611301940496
 40
0.5563611301940496
 40
0.5563611301940496
 40
0.5563611301940496
 10
8.000779598587132
 20
468.4924117931953
 30
0.0
 10
8.010426847686206
 20
468.1015400034896
 30
0.0
 10
8.029587543278788
 20
467.3201857773741
 30
0.0
 10
8.079256786168685
 20
465.8014570011984
 30
0.0
 10
8.146832356946145
 20
464.4932061096465
 30
0.0
 10
8.244833706468945
 20
463.2207954721096
 30
0.0
 10
8.327193257076155
 20
462.3362314357345
 30
0.0
 10
8.430859601001206
 20
461.4682002902052
 30
0.0
 10
8.56897945596443
 20
460.5560194637973
 30
0.0
 10
8.775414739055638
 20
459.6751994087565
 30
0.0
 10
9.072526898169293
 20
458.9459853474567
 30
0.0
 10
9.392931217108817
 20
458.4215458117772
 30
0.0
 10
9.693227467793525
 20
458.0579298516203
 30
0.0
 10
9.871844140542322
 20
457.885440327504
 30
0.0
 10
9.949891623945124
 20
457.8191542774815
 30
0.0
  0
ARC
  5
77
330
6E
100
AcDbEntity
  8
$DDT_AUDIT_GENERATED_(70)
  6
Continuous
 62
     7
100
AcDbCircle
 10
1376.1009042829
 20
387.6459594214
 30
0.0
 40
1368.037106518499
100
AcDbArc
 50
178.7722752705
 51
180.0784551983
  0
SPLINE
  5
78
330
6E
100
AcDbEntity
  8
$DDT_AUDIT_GENERATED_(70)
  6
Continuous
 62
     7
100
AcDbSpline
210
0.0
220
0.0
230
1.0
 70
     8
 71
     3
 72
    24
 73
    20
 74
     0
 42
0.0000000003182775
 43
0.0000000001
 40
0.0
 40
0.0
 40
0.0
 40
0.0
 40
0.2478621894000503
 40
0.2478621894000503
 40
0.4954305123401603
 40
0.4954305123401603
 40
0.6192725511932456
 40
0.6192725511932456
 40
0.7431033860109783
 40
0.7431033860109783
 40
0.8052091400280813
 40
0.8052091400280813
 40
0.8672900990556568
 40
0.8672900990556568
 40
0.9294495283004052
 40
0.9294495283004052
 40
0.9842416143775302
 40
0.9842416143775302
 40
1.0
 40
1.0
 40
1.0
 40
1.0
 10
34.02509198472573
 20
412.8947531580943
 30
0.0
 10
31.06444993533462
 20
412.894988083037
 30
0.0
 10
28.10506411548135
 20
413.2793438585894
 30
0.0
 10
22.56665756823643
 20
414.7292603393045
 30
0.0
 10
19.99961657742191
 20
415.8022665514201
 30
0.0
 10
16.63091312285403
 20
417.8046810466913
 30
0.0
 10
15.58706967403638
 20
418.5369193079699
 30
0.0
 10
13.68847691043308
 20
420.1099045303442
 30
0.0
 10
12.83175890151128
 20
420.9507344119471
 30
0.0
 10
11.69856278059608
 20
422.2825961302091
 30
0.0
 10
11.34554724473668
 20
422.7390471354443
 30
0.0
 10
10.69307593139678
 20
423.672854983146
 30
0.0
 10
10.39365681589118
 20
424.1502489008243
 30
0.0
 10
9.849582053991481
 20
425.1244782425685
 30
0.0
 10
9.60626441253378
 20
425.6218105454878
 30
0.0
 10
9.19535075801383
 20
426.5706808089211
 30
0.0
 10
9.02175965149718
 20
427.0205008616492
 30
0.0
 10
8.818378073951784
 20
427.6036388152148
 30
0.0
 10
8.774234270676931
 20
427.7341406902057
 30
0.0
 10
8.731391847879133
 20
427.8648032972596
 30
0.0
  0
LINE
  5
79
330
6E
100
AcDbEntity
  8
$DDT_AUDIT_GENERATED_(70)
  6
Continuous
 62
     7
100
AcDbLine
 10
34.0250919847
 20
384.2727045783
 30
0.0
 11
8.0650860257
 21
384.2727045783
 31
0.0
  0
ARC
  5
7A
330
6E
100
AcDbEntity
  8
$DDT_AUDIT_GENERATED_(70)
  6
Continuous
 62
     7
100
AcDbCircle
 10
58.9081539878
 20
428.0303225063
 30
0.0
 40
50.17703514016748
100
AcDbArc
 50
147.9894359902
 51
180.1890021856
  0
LINE
  5
7B
330
6E
100
AcDbEntity
  8
$DDT_AUDIT_GENERATED_(70)
  6
Continuous
 62
     7
100
AcDbLine
 10
51.9046976291
 20
466.27837913
 30
0.0
 11
51.9046976291
 21
459.2006934059
 31
0.0
  0
SPLINE
  5
7C
330
6E
100
AcDbEntity
  8
$DDT_AUDIT_GENERATED_(70)
  6
Continuous
 62
     7
100
AcDbSpline
210
0.0
220
0.0
230
1.0
 70
     8
 71
     3
 72
    25
 73
    21
 74
     0
 42
0.000000000498796
 43
0.0000000001
 40
0.0
 40
0.0
 40
0.0
 40
0.0
 40
0.0081113024995022
 40
0.0346973104278536
 40
0.0612833183562049
 40
0.0878693262845563
 40
0.1144553342129077
 40
0.1410413421412591
 40
0.1676273500696105
 40
0.1942133579979618
 40
0.2207993659263132
 40
0.2473853738546646
 40
0.273971381783016
 40
0.3271433976397187
 40
0.3537294055680701
 40
0.3803154134964215
 40
0.4334874293531242
 40
0.486659445209827
 40
0.5398314610665298
 40
0.5530624012386018
 40
0.5530624012386018
 40
0.5530624012386018
 40
0.5530624012386018
 10
60.04940437086433
 20
468.4924117931953
 30
0.0
 10
60.0470942848792
 20
468.3905965533685
 30
0.0
 10
60.03655818663204
 20
467.9558053245532
 30
0.0
 10
60.01634748244528
 20
467.193970777345
 30
0.0
 10
59.98436887874873
 20
466.2249002548739
 30
0.0
 10
59.94395910160583
 20
465.2900663295125
 30
0.0
 10
59.89409588682598
 20
464.4020708828821
 30
0.0
 10
59.83372874188008
 20
463.5727715690836
 30
0.0
 10
59.76658494969943
 20
462.7959115945158
 30
0.0
 10
59.69304799009613
 20
462.0777141672784
 30
0.0
 10
59.61241251356918
 20
461.4241788327054
 30
0.0
 10
59.52399826176203
 20
460.8412303019743
 30
0.0
 10
59.39400626432503
 20
460.1621985468249
 30
0.0
 10
59.24370250095938
 20
459.6270174583861
 30
0.0
 10
59.07774688239543
 20
459.197730516852
 30
0.0
 10
58.90401200215578
 20
458.8279576680329
 30
0.0
 10
58.67744339759453
 20
458.4561142995698
 30
0.0
 10
58.40749302285643
 20
458.1151127380297
 30
0.0
 10
58.21834836761496
 20
457.9228266413242
 30
0.0
 10
58.11944170114852
 20
457.8362181441741
 30
0.0
 10
58.09998860071018
 20
457.8197522080704
 30
0.0
  0
ARC
  5
7D
330
6E
100
AcDbEntity
  8
$DDT_AUDIT_GENERATED_(70)
  6
Continuous
 62
     7
100
AcDbCircle
 10
-1302.11505928
 20
387.7054917566
 30
0.0
 40
1362.101534247777
100
AcDbArc
 50
359.9186987351
 51
1.2305707961
  0
ARC
  5
7E
330
6E
100
AcDbEntity
  8
$DDT_AUDIT_GENERATED_(70)
  6
Continuous
 62
     7
100
AcDbCircle
 10
-610.2831118445
 20
400.7012373617
 30
0.0
 40
670.1526461257588
100
AcDbArc
 50
1.3900169059
 51
2.3230292089
  0
ARC
  5
7F
330
6E
100
AcDbEntity
  8
$DDT_AUDIT_GENERATED_(70)
  6
Continuous
 62
     7
100
AcDbCircle
 10
8.9708746068
 20
427.9815327951
 30
0.0
 40
50.34805283080112
100
AcDbArc
 50
359.8671624186
 51
31.9543994056
  0
ARC
  5
80
330
6E
100
AcDbEntity
  8
$DDT_AUDIT_GENERATED_(70)
  6
Continuous
 62
     7
100
AcDbCircle
 10
48.286933048
 20
459.0945686947
 30
0.0
 40
3.662221880584168
100
AcDbArc
 50
305.5669087605
 51
1.1957506747
  0
ARC
  5
81
330
6E
100
AcDbEntity
  8
$DDT_AUDIT_GENERATED_(70)
  6
Continuous
 62
     7
100
AcDbCircle
 10
47.5912836241
 20
452.410143979
 30
0.0
 40
4.659976340503726
100
AcDbArc
 50
28.4196228267
 51
52.6706092516
  0
ARC
  5
82
330
6E
100
AcDbEntity
  8
$DDT_AUDIT_GENERATED_(70)
  6
Continuous
 62
     7
100
AcDbCircle
 10
37.0433004198
 20
428.9306622719
 30
0.0
 40
30.29649769601963
100
AcDbArc
 50
63.8048584153
 51
95.7174243954
  0
SPLINE
  5
83
330
6E
100
AcDbEntity
  8
$DDT_AUDIT_GENERATED_(70)
  6
Continuous
 62
     7
100
AcDbSpline
210
0.0
220
0.0
230
1.0
 70
     8
 71
     3
 72
    12
 73
     8
 74
     0
 42
0.0000000003149198
 43
0.0000000001
 40
0.0
 40
0.0
 40
0.0
 40
0.0
 40
0.0000004713640063
 40
0.2951669525035673
 40
0.5903334336431261
 40
0.8854999147826867
 40
1.0
 40
1.0
 40
1.0
 40
1.0
 10
34.02509198472573
 20
412.8947531580943
 30
0.0
 10
34.02509761418671
 20
412.8947531609089
 30
0.0
 10
37.55025150218454
 20
412.8965165194352
 30
0.0
 10
44.60075423995847
 20
413.9863064334445
 30
0.0
 10
53.24802965823858
 20
418.4639456488356
 30
0.0
 10
57.66291060451614
 20
423.5564858326908
 30
0.0
 10
59.00663676693521
 20
426.9156082751208
 30
0.0
 10
59.31879212157233
 20
427.8648032972596
 30
0.0
  0
LINE
  5
84
330
6E
100
AcDbEntity
  8
$DDT_AUDIT_GENERATED_(70)
  6
Continuous
 62
     7
100
AcDbLine
 10
34.0250919847
 20
384.2727045783
 30
0.0
 11
59.9850979438
 21
384.2727045783
 31
0.0
  0
SPLINE
  5
85
330
6E
100
AcDbEntity
  8
$DDT_AUDIT_GENERATED_(70)
  6
Continuous
 62
     7
100
AcDbSpline
210
0.0
220
0.0
230
1.0
 70
     8
 71
     3
 72
     8
 73
     4
 74
     0
 42
0.000000202535407
 43
0.0000000001
 40
0.2677801241086866
 40
0.2677801241086866
 40
0.2677801241086866
 40
0.2677801241086866
 40
0.2880336648090346
 40
0.2880336648090346
 40
0.2880336648090346
 40
0.2880336648090346
 10
7.890260701052181
 20
472.6913372768154
 30
0.0
 10
7.89030271361063
 20
472.6913934961348
 30
0.0
 10
7.89044688947051
 20
472.6914526012969
 30
0.0
 10
7.890689445651724
 20
472.6915137144966
 30
0.0
  0
SPLINE
  5
86
330
6E
100
AcDbEntity
  8
$DDT_AUDIT_GENERATED_(70)
  6
Continuous
 62
     7
100
AcDbSpline
210
0.0
220
0.0
230
1.0
 70
     8
 71
     3
 72
     8
 73
     4
 74
     0
 42
0.0000000896039252
 43
0.0000000001
 40
0.6105317001495921
 40
0.6105317001495921
 40
0.6105317001495921
 40
0.6105317001495921
 40
0.7044716775742914
 40
0.7044716775742914
 40
0.7044716775742914
 40
0.7044716775742914
 10
7.941666313087823
 20
472.8425428003547
 30
0.0
 10
7.936363468092421
 20
472.8422536075165
 30
0.0
 10
7.932760214572808
 20
472.841911996776
 30
0.0
 10
7.931236393528184
 20
472.8416083610442
 30
0.0
  0
SPLINE
  5
87
330
6E
100
AcDbEntity
  8
$DDT_AUDIT_GENERATED_(70)
  6
Continuous
 62
     7
100
AcDbSpline
210
0.0
220
0.0
230
1.0
 70
     8
 71
     3
 72
     8
 73
     4
 74
     0
 42
0.0000001326419074
 43
0.0000000001
 40
0.7213510187590975
 40
0.7213510187590975
 40
0.7213510187590975
 40
0.7213510187590975
 40
0.7346152094990205
 40
0.7346152094990205
 40
0.7346152094990205
 40
0.7346152094990205
 10
7.930618594265911
 20
472.8414488897735
 30
0.0
 10
7.930510678506784
 20
472.841408355833
 30
0.0
 10
7.930445581185768
 20
472.841368902819
 30
0.0
 10
7.930424371586104
 20
472.8413307851948
 30
0.0
  0
SPLINE
  5
88
330
6E
100
AcDbEntity
  8
$DDT_AUDIT_GENERATED_(70)
  6
Continuous
 62
     7
100
AcDbSpline
210
0.0
220
0.0
230
1.0
 70
     8
 71
     3
 72
    18
 73
    14
 74
     0
 42
0.0000000003830575
 43
0.0000000001
 40
0.4155601203188538
 40
0.4155601203188538
 40
0.4155601203188538
 40
0.4155601203188538
 40
0.4374999999999992
 40
0.4374999999999992
 40
0.4999999999999989
 40
0.4999999999999989
 40
0.6249999999999991
 40
0.6249999999999991
 40
0.7499999999999994
 40
0.7499999999999994
 40
0.8749999999999997
 40
0.8749999999999997
 40
1.0
 40
1.0
 40
1.0
 40
1.0
 10
22.22018432037691
 20
452.1822045481215
 30
0.0
 10
22.14432362915871
 20
452.3139713955735
 30
0.0
 10
22.07785549260429
 20
452.4434998304112
 30
0.0
 10
21.86050182755055
 20
452.9297859696355
 30
0.0
 10
21.77858546865541
 20
453.2631509004156
 30
0.0
 10
21.76843002427983
 20
454.1980063477383
 30
0.0
 10
22.0800922618759
 20
454.734819873195
 30
0.0
 10
23.30673205420202
 20
455.7089559463125
 30
0.0
 10
24.2057137312485
 20
456.126292563973
 30
0.0
 10
26.46695802045721
 20
456.8181129443029
 30
0.0
 10
27.82857524853528
 20
457.0868392501323
 30
0.0
 10
30.7857670880297
 20
457.4283060664948
 30
0.0
 10
32.39820572219985
 20
457.5036467114284
 30
0.0
 10
34.02509198472573
 20
457.503555611516
 30
0.0
  0
SPLINE
  5
89
330
6E
100
AcDbEntity
  8
$DDT_AUDIT_GENERATED_(70)
  6
Continuous
 62
     7
100
AcDbSpline
210
0.0
220
0.0
230
1.0
 70
     8
 71
     3
 72
    18
 73
    14
 74
     0
 42
0.0000000003832539
 43
0.0000000001
 40
0.0
 40
0.0
 40
0.0
 40
0.0
 40
0.1249999999999995
 40
0.1249999999999995
 40
0.2499999999999989
 40
0.2499999999999989
 40
0.3749999999999984
 40
0.3749999999999984
 40
0.4999999999999979
 40
0.4999999999999979
 40
0.5624999999999981
 40
0.5624999999999981
 40
0.5836198460158561
 40
0.5836198460158561
 40
0.5836198460158561
 40
0.5836198460158561
 10
34.02509198472573
 20
457.503555611516
 30
0.0
 10
35.65126685671441
 20
457.5036466715937
 30
0.0
 10
37.24956226342313
 20
457.4296327077075
 30
0.0
 10
40.22064089795323
 20
457.0873375610227
 30
0.0
 10
41.58176042659159
 20
456.8181112158022
 30
0.0
 10
43.83539269673176
 20
456.1295178073598
 30
0.0
 10
44.74409459799731
 20
455.7067547772598
 30
0.0
 10
45.95893658805862
 20
454.7453549062221
 30
0.0
 10
46.2781698358209
 20
454.2056653706262
 30
0.0
 10
46.27351874784537
 20
453.2754784233356
 30
0.0
 10
46.19093983132524
 20
452.934275311403
 30
0.0
 10
45.97753059171265
 20
452.4545906258198
 30
0.0
 10
45.91502376671362
 20
452.3312886278825
 30
0.0
 10
45.84389323806404
 20
452.2059460663455
 30
0.0
  0
ELLIPSE
  5
8A
330
6E
100
AcDbEntity
  8
$DDT_AUDIT_GENERATED_(70)
  6
Continuous
 62
     7
100
AcDbEllipse
 10
34.0250919847
 20
454.727251657
 30
0.0
 11
-12.24999999999999
 21
-1.387778780781446E-14
 31
0.0
210
0.0
220
0.0
230
1.0
 40
0.4336590846
 41
2.869703596476973
 42
3.032007649107953
  0
ELLIPSE
  5
8B
330
6E
100
AcDbEntity
  8
$DDT_AUDIT_GENERATED_(70)
  6
Continuous
 62
     7
100
AcDbEllipse
 10
34.0250919847
 20
454.727251657
 30
0.0
 11
-12.24999999999999
 21
-1.387778780781446E-14
 31
0.0
210
0.0
220
0.0
230
1.0
 40
0.4336590846
 41
0.1137846617146241
 42
0.271889057112813
  0
LINE
  5
8C
330
6E
100
AcDbEntity
  8
$DDT_AUDIT_GENERATED_(70)
  6
Continuous
 62
     7
100
AcDbLine
 10
7.942030316
 20
460.4307475253
 30
0.0
 11
7.942030316
 21
413.7739705616
 31
0.0
  0
SPLINE
  5
8D
330
6E
100
AcDbEntity
  8
$DDT_AUDIT_GENERATED_(70)
  6
Continuous
 62
     7
100
AcDbSpline
210
0.0
220
0.0
230
1.0
 70
     8
 71
     3
 72
    81
 73
    77
 74
     0
 42
0.000000000306048
 43
0.0000000001
 40
0.0
 40
0.0
 40
0.0
 40
0.0
 40
0.0161988175240472
 40
0.0315094308141597
 40
0.0459320491836372
 40
0.0594677348662343
 40
0.072115400940186
 40
0.0838757665813066
 40
0.0968150879097241
 40
0.1084802255892557
 40
0.1188650404433108
 40
0.1279674142326296
 40
0.1357851818335485
 40
0.1430110216809052
 40
0.1486183443091791
 40
0.152605626636089
 40
0.1558994337033308
 40
0.1601533640822635
 40
0.1672271304334259
 40
0.1759103239616821
 40
0.1847908919332817
 40
0.1957131418320188
 40
0.2063022851059136
 40
0.2171223169478659
 40
0.2282773053797069
 40
0.2390793163463287
 40
0.2488681233051624
 40
0.2573001966396848
 40
0.2652732383314825
 40
0.2728080676357973
 40
0.2809410760807457
 40
0.2903395291727383
 40
0.2997800328752561
 40
0.3102292547909229
 40
0.3213795067761507
 40
0.331978229556788
 40
0.3418909536502754
 40
0.3511163659081997
 40
0.3596537574086933
 40
0.3675028349665491
 40
0.3791655779237254
 40
0.3915445805171217
 40
0.4047101609937102
 40
0.4186610497203505
 40
0.4362912979827068
 40
0.4549645082458615
 40
0.4739715650068841
 40
0.4931197513224178
 40
0.5124094237735917
 40
0.5318414821749654
 40
0.5505242353913171
 40
0.5693394445890383
 40
0.5874878371031189
 40
0.6038191503385321
 40
0.6153712513366743
 40
0.6257979505507996
 40
0.6350994790263619
 40
0.6432799942259265
 40
0.6540738627622419
 40
0.6667241566935366
 40
0.6812330156237102
 40
0.6976035018768385
 40
0.7117747253532575
 40
0.7271004425705011
 40
0.7434015394031026
 40
0.7595757113517456
 40
0.7951731633727398
 40
0.8291528728790002
 40
0.8615045556184311
 40
0.8922992732935224
 40
0.9072572997011037
 40
0.9219154468354805
 40
0.9362476696821687
 40
0.9501249210828484
 40
0.9588630540706389
 40
0.9616097225185571
 40
0.9616097225185571
 40
0.9616097225185571
 40
0.9616097225185571
 10
34.02509198472573
 20
470.4895727637638
 30
0.0
 10
33.44250855274632
 20
470.4885930929077
 30
0.0
 10
32.4877806427043
 20
470.4862781190634
 30
0.0
 10
30.96373793705346
 20
470.4714441258778
 30
0.0
 10
29.57927645498557
 20
470.4448300321453
 30
0.0
 10
28.29783954897793
 20
470.4042783864932
 30
0.0
 10
27.13652620221671
 20
470.3497481200085
 30
0.0
 10
26.03208615957025
 20
470.2793153831523
 30
0.0
 10
25.00111313815412
 20
470.1932431119663
 30
0.0
 10
24.0505039930175
 20
470.0936781812338
 30
0.0
 10
23.23466863424778
 20
469.9916060257531
 30
0.0
 10
22.54467963653027
 20
469.892004875413
 30
0.0
 10
21.95807629783113
 20
469.7965514410818
 30
0.0
 10
21.47649426986518
 20
469.709758990071
 30
0.0
 10
21.09932159260193
 20
469.6356549599548
 30
0.0
 10
20.81925159342557
 20
469.5769970108715
 30
0.0
 10
20.57193343586443
 20
469.5226667589187
 30
0.0
 10
20.26479718359607
 20
469.4518028712913
 30
0.0
 10
19.86094798257575
 20
469.3515415646686
 30
0.0
 10
19.39708897524287
 20
469.2241040692813
 30
0.0
 10
18.8953954684278
 20
469.0703192913
 30
0.0
 10
18.39946622818987
 20
468.8986036567818
 30
0.0
 10
17.90767946472251
 20
468.7039138430298
 30
0.0
 10
17.46873577283244
 20
468.5055365682468
 30
0.0
 10
17.07870937511155
 20
468.3045744240749
 30
0.0
 10
16.7438602038925
 20
468.1078852357185
 30
0.0
 10
16.46245953969364
 20
467.9251421999174
 30
0.0
 10
16.222867045661
 20
467.7574205115466
 30
0.0
 10
16.01246345339317
 20
467.5997223064782
 30
0.0
 10
15.80999271670679
 20
467.4357174105788
 30
0.0
 10
15.62034790573388
 20
467.2678932390143
 30
0.0
 10
15.44916798735041
 20
467.0985361597345
 30
0.0
 10
15.28908676286256
 20
466.9222345922232
 30
0.0
 10
15.13535012151203
 20
466.7424107933691
 30
0.0
 10
14.98565633238748
 20
466.5616312581943
 30
0.0
 10
14.84355986810661
 20
466.383584156011
 30
0.0
 10
14.71433614103035
 20
466.2173374214829
 30
0.0
 10
14.59723914125826
 20
466.0636240092084
 30
0.0
 10
14.49173840948926
 20
465.9227300182955
 30
0.0
 10
14.37944501508878
 20
465.7705904055426
 30
0.0
 10
14.25606705529879
 20
465.6007990389273
 30
0.0
 10
14.11288468663362
 20
465.4003348389239
 30
0.0
 10
13.96288446162986
 20
465.1866201000881
 30
0.0
 10
13.79490195251672
 20
464.9429624236329
 30
0.0
 10
13.60884965424986
 20
464.667631255341
 30
0.0
 10
13.40716805338202
 20
464.3624749695741
 30
0.0
 10
13.20351825575949
 20
464.0473723111643
 30
0.0
 10
13.00117189571914
 20
463.7273277206301
 30
0.0
 10
12.80078026887067
 20
463.4034503562555
 30
0.0
 10
12.60534566611597
 20
463.0807760862227
 30
0.0
 10
12.41477342155352
 20
462.759466932385
 30
0.0
 10
12.23158095417769
 20
462.4441504094829
 30
0.0
 10
12.05913297827698
 20
462.1411773202971
 30
0.0
 10
11.91285169841886
 20
461.8791823106294
 30
0.0
 10
11.79296178326529
 20
461.6610386240185
 30
0.0
 10
11.69632156728258
 20
461.4829028908982
 30
0.0
 10
11.61121113655551
 20
461.3241270298752
 30
0.0
 10
11.5259549323267
 20
461.1633283859669
 30
0.0
 10
11.43265634435191
 20
460.9852038824561
 30
0.0
 10
11.32330004626377
 20
460.7733285818296
 30
0.0
 10
11.20052939373637
 20
460.5314672178058
 30
0.0
 10
11.07615941353106
 20
460.2818839935472
 30
0.0
 10
10.95198264269796
 20
460.0282705432963
 30
0.0
 10
10.83026185298642
 20
459.7755774397439
 30
0.0
 10
10.70567572452394
 20
459.5125621698234
 30
0.0
 10
10.53170789874961
 20
459.139257792537
 30
0.0
 10
10.31968317302145
 20
458.6726941994461
 30
0.0
 10
10.07963840078355
 20
458.1296634316816
 30
0.0
 10
9.863827114712842
 20
457.6312810219197
 30
0.0
 10
9.698378832960069
 20
457.2442392989406
 30
0.0
 10
9.592456157048678
 20
456.9938201165846
 30
0.0
 10
9.525704569566564
 20
456.833289714809
 30
0.0
 10
9.469938171610417
 20
456.707385514084
 30
0.0
 10
9.430767899589036
 20
456.6252010719587
 30
0.0
 10
9.418192418291959
 20
456.5996459391892
 30
0.0
 10
9.419403608771844
 20
456.5993885083397
 30
0.0
 10
9.41989826042056
 20
456.599685114885
 30
0.0
  0
ARC
  5
8E
330
6E
100
AcDbEntity
  8
$DDT_AUDIT_GENERATED_(70)
  6
Continuous
 62
     7
100
AcDbCircle
 10
-589.7411404684
 20
464.0475699912
 30
0.0
 40
597.6941708597744
100
AcDbArc
 50
359.6516449562
 51
0.8286521691
  0
ARC
  5
8F
330
6E
100
AcDbEntity
  8
$DDT_AUDIT_GENERATED_(70)
  6
Continuous
 62
     7
100
AcDbCircle
 10
-1668.4432130943
 20
394.2491430498
 30
0.0
 40
1676.499268155079
100
AcDbArc
 50
359.6590447706
 51
0.6682148884
  0
LINE
  5
90
330
6E
100
AcDbEntity
  8
$DDT_AUDIT_GENERATED_(70)
  6
Continuous
 62
     7
100
AcDbLine
 10
60.1081536535
 20
413.7739710989
 30
0.0
 11
60.1081536535
 21
460.4307378689
 31
0.0
  0
ARC
  5
91
330
6E
100
AcDbEntity
  8
$DDT_AUDIT_GENERATED_(70)
  6
Continuous
 62
     7
100
AcDbCircle
 10
912.7410322847
 20
462.9728782853
 30
0.0
 40
852.6366724897458
100
AcDbArc
 50
179.346906513
 51
180.1719764376
  0
SPLINE
  5
92
330
6E
100
AcDbEntity
  8
$DDT_AUDIT_GENERATED_(70)
  6
Continuous
 62
     7
100
AcDbSpline
210
0.0
220
0.0
230
1.0
 70
     8
 71
     3
 72
    85
 73
    81
 74
     0
 42
0.0000000003033017
 43
0.0000000001
 40
0.046962808194021
 40
0.046962808194021
 40
0.046962808194021
 40
0.046962808194021
 40
0.0481674100752743
 40
0.0540434415258609
 40
0.0596963975956369
 40
0.0651798216122342
 40
0.0768009986406726
 40
0.0875406036803138
 40
0.0987524851503093
 40
0.1112205425488045
 40
0.1249398198075733
 40
0.1396270443025549
 40
0.1555110032723429
 40
0.1725862560183828
 40
0.1908472973593324
 40
0.2101011225706399
 40
0.2283264898468195
 40
0.2454297465871993
 40
0.261414883296117
 40
0.276285389749039
 40
0.2900442157605126
 40
0.3026938273130907
 40
0.3142362596270413
 40
0.325018552180501
 40
0.3364165448524978
 40
0.34857237350578
 40
0.3614859639540876
 40
0.3751576096900531
 40
0.3895879594616151
 40
0.4102984370765647
 40
0.4305644074770481
 40
0.4502278472582258
 40
0.4692907695692782
 40
0.4867454507741996
 40
0.5040717043723849
 40
0.5221591684505661
 40
0.5410411670809803
 40
0.5607193739487556
 40
0.5811949374240468
 40
0.6019515995774705
 40
0.6235912393483489
 40
0.6439036404719968
 40
0.6628853750654028
 40
0.6808698647982191
 40
0.6983649067686936
 40
0.7060993661307954
 40
0.7148676479760485
 40
0.7249393721274714
 40
0.7363026986127535
 40
0.7456369568928225
 40
0.7538197718180691
 40
0.7607637751088205
 40
0.7664779369733679
 40
0.7722988487318364
 40
0.7797041537517543
 40
0.7889992741711489
 40
0.7988744368195795
 40
0.8082145309986923
 40
0.8170291483484826
 40
0.8240820882444216
 40
0.8300300207423965
 40
0.8346608406180002
 40
0.8379777524824674
 40
0.8394600868934279
 40
0.8410084150409622
 40
0.843543533111951
 40
0.8470716863930835
 40
0.8515920021381207
 40
0.8571032034825941
 40
0.865023559404517
 40
0.8743676231335152
 40
0.8851303231157801
 40
0.8973087938859838
 40
0.9108980579531145
 40
0.9232987431339146
 40
0.9366806692809904
 40
0.9510418161985646
 40
0.9663825610278849
 40
0.982702113487749
 40
1.0
 40
1.0
 40
1.0
 40
1.0
 10
58.63401499531169
 20
456.5964670161781
 30
0.0
 10
58.63409214765235
 20
456.5965000099554
 30
0.0
 10
58.63375595259564
 20
456.5980690282125
 30
0.0
 10
58.62438646183465
 20
456.6167364919605
 30
0.0
 10
58.61139961967301
 20
456.6439549196406
 30
0.0
 10
58.58920443146726
 20
456.6910916382062
 30
0.0
 10
58.5554171512227
 20
456.765345429003
 30
0.0
 10
58.49920128045306
 20
456.8949472980547
 30
0.0
 10
58.43538934852371
 20
457.046752186354
 30
0.0
 10
58.36358085683259
 20
457.2157405474042
 30
0.0
 10
58.28137892679059
 20
457.4086911185094
 30
0.0
 10
58.18884757668239
 20
457.6246831581977
 30
0.0
 10
58.08561870062623
 20
457.8639648193221
 30
0.0
 10
57.97078205732203
 20
458.1278198205997
 30
0.0
 10
57.8442919285794
 20
458.4153347115252
 30
0.0
 10
57.71109635381402
 20
458.7141079552226
 30
0.0
 10
57.57737315983267
 20
459.0095506526817
 30
0.0
 10
57.44869482314367
 20
459.2893348543402
 30
0.0
 10
57.32581219496446
 20
459.5522882658797
 30
0.0
 10
57.20915740025848
 20
459.798023596161
 30
0.0
 10
57.09913557744169
 20
460.0262691354881
 30
0.0
 10
56.99610741115627
 20
460.2368851360232
 30
0.0
 10
56.89946299587793
 20
460.4317105592813
 30
0.0
 10
56.80455101294859
 20
460.6205149994105
 30
0.0
 10
56.7059151897115
 20
460.8140895470202
 30
0.0
 10
56.59914709077955
 20
461.0205785115828
 30
0.0
 10
56.4835530602617
 20
461.2406080500687
 30
0.0
 10
56.35885806474084
 20
461.4739729985457
 30
0.0
 10
56.20766424861201
 20
461.7521246663848
 30
0.0
 10
56.03222075733474
 20
462.0683610908077
 30
0.0
 10
55.83643439925716
 20
462.4132852332533
 30
0.0
 10
55.64217493137222
 20
462.7480103632713
 30
0.0
 10
55.45368149162471
 20
463.06592601531
 30
0.0
 10
55.26977536025051
 20
463.3699129546284
 30
0.0
 10
55.08623663389674
 20
463.6675104331259
 30
0.0
 10
54.89516505024034
 20
463.9712201741134
 30
0.0
 10
54.69274036268273
 20
464.2862274538652
 30
0.0
 10
54.47833111995296
 20
464.6123878769031
 30
0.0
 10
54.25322387720084
 20
464.9465853372935
 30
0.0
 10
54.01648007460036
 20
465.2889771428359
 30
0.0
 10
53.77646609509005
 20
465.6264495423969
 30
0.0
 10
53.53804609537945
 20
465.9515307836943
 30
0.0
 10
53.31121015002686
 20
466.2506742548703
 30
0.0
 10
53.08163841975545
 20
466.5425955863317
 30
0.0
 10
52.86615342763631
 20
466.8028304288445
 30
0.0
 10
52.67464008147778
 20
467.0193650240689
 30
0.0
 10
52.50788450012894
 20
467.1937007481314
 30
0.0
 10
52.291133982564
 20
467.3940257415236
 30
0.0
 10
52.04095296774682
 20
467.5985361047966
 30
0.0
 10
51.78372623734074
 20
467.789036534351
 30
0.0
 10
51.55447073687764
 20
467.9468718380837
 30
0.0
 10
51.3496254399243
 20
468.078981157637
 30
0.0
 10
51.15991218663017
 20
468.1940684039538
 30
0.0
 10
50.95696435136367
 20
468.3097433789532
 30
0.0
 10
50.69127317616032
 20
468.4497895959209
 30
0.0
 10
50.34554038415659
 20
468.6144621390843
 30
0.0
 10
49.9386864808362
 20
468.7868955676159
 30
0.0
 10
49.50547906870162
 20
468.9501956869767
 30
0.0
 10
49.08391501598072
 20
469.0921751982543
 30
0.0
 10
48.69558075352197
 20
469.210624226917
 30
0.0
 10
48.36268535057729
 20
469.3041698916828
 30
0.0
 10
48.08807891150374
 20
469.3762247547721
 30
0.0
 10
47.89617305688883
 20
469.4240357364243
 30
0.0
 10
47.76543866840138
 20
469.4556097404979
 30
0.0
 10
47.65219889938216
 20
469.4824347518973
 30
0.0
 10
47.49585952220109
 20
469.5185167296045
 30
0.0
 10
47.27380262524453
 20
469.5678028355957
 30
0.0
 10
46.98087525410926
 20
469.6295041458253
 30
0.0
 10
46.57901983179372
 20
469.7086714305269
 30
0.0
 10
46.04659289851581
 20
469.8045062989588
 30
0.0
 10
45.35948789041358
 20
469.9144310171192
 30
0.0
 10
44.53156716026673
 20
470.0291580112158
 30
0.0
 10
43.55693395989213
 20
470.142727919088
 30
0.0
 10
42.49296491832859
 20
470.2421118987635
 30
0.0
 10
41.34412631080468
 20
470.324523672105
 30
0.0
 10
40.12558778678042
 20
470.3888973509461
 30
0.0
 10
38.77073988433793
 20
470.4370134795306
 30
0.0
 10
37.29811677620643
 20
470.4684962832777
 30
0.0
 10
35.67028113758294
 20
470.4857876660921
 30
0.0
 10
34.64885854823746
 20
470.4884637690125
 30
0.0
 10
34.02509198472573
 20
470.4895727637638
 30
0.0
  0
ARC
  5
93
330
6E
100
AcDbEntity
  8
$DDT_AUDIT_GENERATED_(70)
  6
Continuous
 62
     7
100
AcDbCircle
 10
1700.7451302086
 20
394.3512360619
 30
0.0
 40
1640.752271989241
100
AcDbArc
 50
179.3207914459
 51
180.3519488951
  0
LINE
  5
94
330
6E
100
AcDbEntity
  8
$DDT_AUDIT_GENERATED_(70)
  6
Continuous
 62
     7
100
AcDbLine
 10
60.1140118724
 20
472.8339862675
 30
0.0
 11
59.7626920357
 21
473.4427045783
 31
0.0
  0
LINE
  5
95
330
6E
100
AcDbEntity
  8
$DDT_AUDIT_GENERATED_(70)
  6
Continuous
 62
     7
100
AcDbLine
 10
8.2880216057
 20
473.4427045783
 30
0.0
 11
7.9414363282
 21
472.84217817
 31
0.0
  0
ARC
  5
96
330
6E
100
AcDbEntity
  8
$DDT_AUDIT_GENERATED_(70)
  6
Continuous
 62
     7
100
AcDbCircle
 10
59.9269845295
 20
472.7164600362
 30
0.0
 40
0.2291130649511022
100
AcDbArc
 50
353.7586366296
 51
33.6770503292
  0
ARC
  5
97
330
6E
100
AcDbEntity
  8
$DDT_AUDIT_GENERATED_(70)
  6
Continuous
 62
     7
100
AcDbCircle
 10
8.1018366911
 20
472.7200185898
 30
0.0
 40
0.2083895173024805
100
AcDbArc
 50
143.90635764
 51
187.843412099
  0
ELLIPSE
  5
99
330
6E
100
AcDbEntity
  8
02636038_GEHÄUSE
  6
Continuous
 62
     7
100
AcDbEllipse
 10
34.0250919847
 20
447.0680969758
 30
0.0
 11
10.05000000000001
 21
0.0
 31
0.0
210
0.0
220
0.0
230
1.0
 40
0.4336590846
 41
0.0
 42
6.283185307179586
  0
ELLIPSE
  5
9A
330
6E
100
AcDbEntity
  8
02636038_GEHÄUSE
  6
Continuous
 62
     7
100
AcDbEllipse
 10
34.0250919847
 20
447.0680969758
 30
0.0
 11
10.75000000000001
 21
0.0
 31
0.0
210
0.0
220
0.0
230
1.0
 40
0.4336590846
 41
0.0
 42
6.283185307179586
  0
LINE
  5
9B
330
6E
100
AcDbEntity
  8
02636038_GEHÄUSE
  6
Continuous
 62
     7
100
AcDbLine
 10
23.0250919847
 20
448.4758880695
 30
0.0
 11
23.0250919847
 21
446.2325666489
 31
0.0
  0
ELLIPSE
  5
9C
330
6E
100
AcDbEntity
  8
02636038_GEHÄUSE
  6
Continuous
 62
     7
100
AcDbEllipse
 10
34.0250919847
 20
449.7713280397
 30
0.0
 11
11.79999999999982
 21
-5.551115123125783E-14
 31
0.0
210
0.0
220
0.0
230
1.0
 40
0.4336590846
 41
2.771250021498072
 42
3.511935285681517
  0
LINE
  5
9D
330
6E
100
AcDbEntity
  8
02636038_GEHÄUSE
  6
Continuous
 62
     7
100
AcDbLine
 10
23.0250919847
 20
451.6234128321
 30
0.0
 11
23.0250919847
 21
449.9866677428
 31
0.0
  0
LINE
  5
9E
330
6E
100
AcDbEntity
  8
02636038_GEHÄUSE
  6
Continuous
 62
     7
100
AcDbLine
 10
23.0250919847
 20
449.9866677428
 30
0.0
 11
23.0250919847
 21
448.4758880695
 31
0.0
  0
LINE
  5
9F
330
6E
100
AcDbEntity
  8
02636038_GEHÄUSE
  6
Continuous
 62
     7
100
AcDbLine
 10
23.0250919847
 20
445.9945888151
 30
0.0
 11
23.0250919847
 21
446.2325666489
 31
0.0
  0
ELLIPSE
  5
A0
330
6E
100
AcDbEntity
  8
02636038_GEHÄUSE
  6
Continuous
 62
     7
100
AcDbEllipse
 10
34.0250919847
 20
447.3542273592
 30
0.0
 11
11.30000000000003
 21
2.775557561562891E-14
 31
0.0
210
0.0
220
0.0
230
1.0
 40
0.4336590846
 41
-0.9855567368657896
 42
-0.8600154094551762
  0
ELLIPSE
  5
A1
330
6E
100
AcDbEntity
  8
02636038_GEHÄUSE
  6
Continuous
 62
     7
100
AcDbEllipse
 10
34.0250919847
 20
447.3542273592
 30
0.0
 11
11.30000000000003
 21
2.775557561562891E-14
 31
0.0
210
0.0
220
0.0
230
1.0
 40
0.4336590846
 41
4.001145281848309
 42
4.127149390455575
  0
LINE
  5
A2
330
6E
100
AcDbEntity
  8
02636038_GEHÄUSE
  6
Continuous
 62
     7
100
AcDbLine
 10
45.0250919847
 20
446.2325666489
 30
0.0
 11
45.0250919847
 21
448.4758880695
 31
0.0
  0
ELLIPSE
  5
A3
330
6E
100
AcDbEntity
  8
02636038_GEHÄUSE
  6
Continuous
 62
     7
100
AcDbEllipse
 10
34.0250919847
 20
449.7713280397
 30
0.0
 11
-11.80000000000015
 21
0.0
 31
0.0
210
0.0
220
0.0
230
1.0
 40
0.4336590846
 41
2.77125002149808
 42
3.511935285681507
  0
LINE
  5
A4
330
6E
100
AcDbEntity
  8
02636038_GEHÄUSE
  6
Continuous
 62
     7
100
AcDbLine
 10
45.0250919847
 20
446.2325666489
 30
0.0
 11
45.0250919847
 21
445.9942239242
 31
0.0
  0
LINE
  5
A5
330
6E
100
AcDbEntity
  8
02636038_GEHÄUSE
  6
Continuous
 62
     7
100
AcDbLine
 10
45.0250919847
 20
448.4758880695
 30
0.0
 11
45.0250919847
 21
449.9866677428
 31
0.0
  0
LINE
  5
A6
330
6E
100
AcDbEntity
  8
02636038_GEHÄUSE
  6
Continuous
 62
     7
100
AcDbLine
 10
45.0250919847
 20
449.9866677428
 30
0.0
 11
45.0250919847
 21
451.6234128321
 31
0.0
  0
LINE
  5
A7
330
6E
100
AcDbEntity
  8
02636038_GEHÄUSE
  6
Continuous
 62
     7
100
AcDbLine
 10
27.7829819796
 20
443.2693967337
 30
0.0
 11
28.0868014931
 21
443.18208554
 31
0.0
  0
LINE
  5
A8
330
6E
100
AcDbEntity
  8
02636038_GEHÄUSE
  6
Continuous
 62
     7
100
AcDbLine
 10
39.9633824763
 20
443.18208554
 30
0.0
 11
40.2672019899
 21
443.2693967337
 31
0.0
  0
ARC
  5
A9
330
6E
100
AcDbEntity
  8
02636038_GEHÄUSE
  6
Continuous
 62
     7
100
AcDbCircle
 10
38.9504980829
 20
451.3705824706
 30
0.0
 40
8.106742871249567
100
AcDbArc
 50
287.7461275819
 51
318.531022484
  0
ARC
  5
AA
330
6E
100
AcDbEntity
  8
02636038_GEHÄUSE
  6
Continuous
 62
     7
100
AcDbCircle
 10
29.0954863443
 20
451.3667464236
 30
0.0
 40
8.101258258487924
100
AcDbArc
 50
221.4689045399
 51
252.2457243169
  0
LINE
  5
AB
330
6E
100
AcDbEntity
  8
02636038_GEHÄUSE
  6
Continuous
 62
     7
100
AcDbLine
 10
22.2250919847
 20
454.727251657
 30
0.0
 11
22.2250919847
 21
449.7713280397
 31
0.0
  0
LINE
  5
AC
330
6E
100
AcDbEntity
  8
02636038_GEHÄUSE
  6
Continuous
 62
     7
100
AcDbLine
 10
45.8250919847
 20
449.7713280397
 30
0.0
 11
45.8250919847
 21
454.727251657
 31
0.0
  0
ELLIPSE
  5
AE
330
6E
100
AcDbEntity
  8
$DDT_AUDIT_GENERATED_(AD)
  6
Continuous
 62
     7
100
AcDbEllipse
 10
34.0250919847
 20
446.7076661672
 30
0.0
 11
-9.000000000000004
 21
0.0
 31
0.0
210
0.0
220
0.0
230
1.0
 40
0.4336590846
 41
0.0
 42
6.283185307179586
  0
ELLIPSE
  5
AF
330
6E
100
AcDbEntity
  8
$DDT_AUDIT_GENERATED_(AD)
  6
Continuous
 62
     7
100
AcDbEllipse
 10
34.0250919847
 20
449.4888170591
 30
0.0
 11
-9.386474103794987
 21
4.163336342344337E-14
 31
0.0
210
0.0
220
0.0
230
1.0
 40
0.4336590846
 41
0.1751731079537371
 42
0.2879555481429259
  0
ELLIPSE
  5
B0
330
6E
100
AcDbEntity
  8
$DDT_AUDIT_GENERATED_(AD)
  6
Continuous
 62
     7
100
AcDbEllipse
 10
34.0250919847
 20
449.4888170591
 30
0.0
 11
9.386474103794338
 21
1.387778780781446E-13
 31
0.0
210
0.0
220
0.0
230
1.0
 40
0.4336590846
 41
-0.2879555481429446
 42
-0.1751731079537553
  0
ELLIPSE
  5
B1
330
6E
100
AcDbEntity
  8
$DDT_AUDIT_GENERATED_(AD)
  6
Continuous
 62
     7
100
AcDbEllipse
 10
34.0250919847
 20
446.7076661672
 30
0.0
 11
-5.249999999999998
 21
0.0
 31
0.0
210
0.0
220
0.0
230
1.0
 40
0.4336590846
 41
0.0
 42
6.283185307179586
  0
ELLIPSE
  5
B2
330
6E
100
AcDbEntity
  8
$DDT_AUDIT_GENERATED_(AD)
  6
Continuous
 62
     7
100
AcDbEllipse
 10
34.0250919847
 20
446.7076661672
 30
0.0
 11
-6.250000000000002
 21
0.0
 31
0.0
210
0.0
220
0.0
230
1.0
 40
0.4336590846
 41
0.0
 42
6.283185307179586
  0
ELLIPSE
  5
B3
330
6E
100
AcDbEntity
  8
$DDT_AUDIT_GENERATED_(AD)
  6
Continuous
 62
     7
100
AcDbEllipse
 10
34.0250919847
 20
446.7076661672
 30
0.0
 11
2.750000000000003
 21
0.0
 31
0.0
210
0.0
220
0.0
230
1.0
 40
0.4336590846
 41
0.0
 42
6.283185307179586
  0
ELLIPSE
  5
B4
330
6E
100
AcDbEntity
  8
$DDT_AUDIT_GENERATED_(AD)
  6
Continuous
 62
     7
100
AcDbEllipse
 10
34.0250919847
 20
446.7076661672
 30
0.0
 11
2.15
 21
0.0
 31
0.0
210
0.0
220
0.0
230
1.0
 40
0.4336590846
 41
0.0
 42
6.283185307179586
  0
ELLIPSE
  5
B5
330
6E
100
AcDbEntity
  8
$DDT_AUDIT_GENERATED_(AD)
  6
Continuous
 62
     7
100
AcDbEllipse
 10
34.0250919847
 20
446.8878815715
 30
0.0
 11
-0.5196299438963556
 21
0.0
 31
0.0
210
0.0
220
0.0
230
1.0
 40
0.4336590846
 41
0.0
 42
6.283185307179586
  0
ELLIPSE
  5
B6
330
6E
100
AcDbEntity
  8
$DDT_AUDIT_GENERATED_(AD)
  6
Continuous
 62
     7
100
AcDbEllipse
 10
34.0250919847
 20
446.7076661672
 30
0.0
 11
-8.700000000000001
 21
0.0
 31
0.0
210
0.0
220
0.0
230
1.0
 40
0.4336590846
 41
0.0
 42
6.283185307179586
  0
ARC
  5
B7
330
6E
100
AcDbEntity
  8
$DDT_AUDIT_GENERATED_(AD)
  6
Continuous
 62
     7
100
AcDbCircle
 10
40.9261026426
 20
446.8878815715
 30
0.0
 40
1.598989254300193
100
AcDbArc
 50
358.4459006084
 51
1.5540993916
  0
ARC
  5
B8
330
6E
100
AcDbEntity
  8
$DDT_AUDIT_GENERATED_(AD)
  6
Continuous
 62
     7
100
AcDbCircle
 10
39.099066131
 20
446.8878815715
 30
0.0
 40
1.176025632738875
100
AcDbArc
 50
0.0
 51
2.1132591859
  0
ELLIPSE
  5
B9
330
6E
100
AcDbEntity
  8
$DDT_AUDIT_GENERATED_(AD)
  6
Continuous
 62
     7
100
AcDbEllipse
 10
34.0250919847
 20
446.8878815715
 30
0.0
 11
8.50000000003423
 21
2.386979502944087E-12
 31
0.0
210
0.0
220
0.0
230
1.0
 40
0.4336590846
 41
0.0117649772879893
 42
0.250034410510439
  0
LINE
  5
BA
330
6E
100
AcDbEntity
  8
$DDT_AUDIT_GENERATED_(AD)
  6
Continuous
 62
     7
100
AcDbLine
 10
40.2742919335
 20
446.93124748
 30
0.0
 11
40.2742919335
 21
447.569134174
 31
0.0
  0
ELLIPSE
  5
BB
330
6E
100
AcDbEntity
  8
$DDT_AUDIT_GENERATED_(AD)
  6
Continuous
 62
     7
100
AcDbEllipse
 10
34.0250919847
 20
447.1107161466
 30
0.0
 11
-0.519629943896352
 21
0.0
 31
0.0
210
0.0
220
0.0
230
1.0
 40
0.4336590846
 41
3.141592653589793
 42
3.64351493461405
  0
ELLIPSE
  5
BC
330
6E
100
AcDbEntity
  8
$DDT_AUDIT_GENERATED_(AD)
  6
Continuous
 62
     7
100
AcDbEllipse
 10
34.0250924408
 20
446.8878815185
 30
0.0
 11
8.499999543637298
 21
6.301822952359259E-8
 31
0.0
210
0.0
220
0.0
230
1.0
 40
0.433659095
 41
-0.2735643755733657
 42
-0.2500344203436535
  0
ELLIPSE
  5
BD
330
6E
100
AcDbEntity
  8
$DDT_AUDIT_GENERATED_(AD)
  6
Continuous
 62
     7
100
AcDbEllipse
 10
34.0250919847
 20
446.8878815715
 30
0.0
 11
8.500000000029582
 21
-2.386979502944087E-12
 31
0.0
210
0.0
220
0.0
230
1.0
 40
0.4336590846
 41
6.033150896669079
 42
6.271420329891541
  0
ELLIPSE
  5
BE
330
6E
100
AcDbEntity
  8
$DDT_AUDIT_GENERATED_(AD)
  6
Continuous
 62
     7
100
AcDbEllipse
 10
34.0250923636
 20
446.8878814767
 30
0.0
 11
8.499999617178771
 21
1.011421779661958E-7
 31
0.0
210
0.0
220
0.0
230
1.0
 40
0.4336590902
 41
-0.5353637694956035
 42
-0.5118338143139338
  0
ELLIPSE
  5
BF
330
6E
100
AcDbEntity
  8
$DDT_AUDIT_GENERATED_(AD)
  6
Continuous
 62
     7
100
AcDbEllipse
 10
34.0250919847
 20
446.8878815715
 30
0.0
 11
8.50000000002629
 21
-5.245803791353865E-12
 31
0.0
210
0.0
220
0.0
230
1.0
 40
0.4336590846
 41
-0.511833798309155
 42
-0.2735643650865889
  0
ELLIPSE
  5
C0
330
6E
100
AcDbEntity
  8
$DDT_AUDIT_GENERATED_(AD)
  6
Continuous
 62
     7
100
AcDbEllipse
 10
34.0250922709
 20
446.8878814476
 30
0.0
 11
8.49999969656877
 21
1.079894645927837E-7
 31
0.0
210
0.0
220
0.0
230
1.0
 40
0.4336590846
 41
-0.7971631583822552
 42
-0.7736332032462636
  0
ELLIPSE
  5
C1
330
6E
100
AcDbEntity
  8
$DDT_AUDIT_GENERATED_(AD)
  6
Continuous
 62
     7
100
AcDbEllipse
 10
34.0250919847
 20
446.8878815715
 30
0.0
 11
8.500000000001922
 21
-5.551115123125783E-13
 31
0.0
210
0.0
220
0.0
230
1.0
 40
0.4336590846
 41
-0.7736331861092385
 42
-0.5353637528863011
  0
ELLIPSE
  5
C2
330
6E
100
AcDbEntity
  8
$DDT_AUDIT_GENERATED_(AD)
  6
Continuous
 62
     7
100
AcDbEllipse
 10
34.0250922122
 20
446.8878814006
 30
0.0
 11
8.499999715629182
 21
1.052361808806523E-7
 31
0.0
210
0.0
220
0.0
230
1.0
 40
0.4336590788
 41
-1.058962545761388
 42
-1.035432590555467
  0
ELLIPSE
  5
C3
330
6E
100
AcDbEntity
  8
$DDT_AUDIT_GENERATED_(AD)
  6
Continuous
 62
     7
100
AcDbEllipse
 10
34.0250919847
 20
446.8878815715
 30
0.0
 11
8.500000000006207
 21
-2.414735078559715E-12
 31
0.0
210
0.0
220
0.0
230
1.0
 40
0.4336590846
 41
-1.035432573908062
 42
-0.7971631406852211
  0
ELLIPSE
  5
C4
330
6E
100
AcDbEntity
  8
$DDT_AUDIT_GENERATED_(AD)
  6
Continuous
 62
     7
100
AcDbEllipse
 10
34.0250921051
 20
446.8878813767
 30
0.0
 11
8.499999751882898
 21
6.211410552570129E-8
 31
0.0
210
0.0
220
0.0
230
1.0
 40
0.4336590743
 41
-1.320761926615975
 42
-1.297231971396062
  0
ELLIPSE
  5
C5
330
6E
100
AcDbEntity
  8
$DDT_AUDIT_GENERATED_(AD)
  6
Continuous
 62
     7
100
AcDbEllipse
 10
34.0250919847
 20
446.8878815715
 30
0.0
 11
8.500000000007926
 21
-2.553512956637860E-12
 31
0.0
210
0.0
220
0.0
230
1.0
 40
0.4336590846
 41
-1.297231961707151
 42
-1.058962528484379
  0
ARC
  5
C6
330
6E
100
AcDbEntity
  8
$DDT_AUDIT_GENERATED_(AD)
  6
Continuous
 62
     7
100
AcDbCircle
 10
34.0250919847
 20
462.8013281085
 30
0.0
 40
19.59954876311763
100
AcDbArc
 50
269.7076665958
 51
270.2923334042
  0
ELLIPSE
  5
C7
330
6E
100
AcDbEntity
  8
$DDT_AUDIT_GENERATED_(AD)
  6
Continuous
 62
     7
100
AcDbEllipse
 10
34.0250919847
 20
446.8878815715
 30
0.0
 11
8.500000000008244
 21
-9.992007221626409E-13
 31
0.0
210
0.0
220
0.0
230
1.0
 40
0.4336590846
 41
4.72415395767305
 42
4.962423390895795
  0
ELLIPSE
  5
C8
330
6E
100
AcDbEntity
  8
$DDT_AUDIT_GENERATED_(AD)
  6
Continuous
 62
     7
100
AcDbEllipse
 10
34.0250918668
 20
446.8878813806
 30
0.0
 11
-8.499999756909682
 21
6.084557857555239E-8
 31
0.0
210
0.0
220
0.0
230
1.0
 40
0.4336590745
 41
1.297231971194547
 42
1.320761926401425
  0
ELLIPSE
  5
C9
330
6E
100
AcDbEntity
  8
$DDT_AUDIT_GENERATED_(AD)
  6
Continuous
 62
     7
100
AcDbEllipse
 10
34.0250919847
 20
446.8878815715
 30
0.0
 11
-8.499999999993928
 21
8.881784197001252E-13
 31
0.0
210
0.0
220
0.0
230
1.0
 40
0.4336590846
 41
1.320761916283906
 42
1.559031349507045
  0
ELLIPSE
  5
CA
330
6E
100
AcDbEntity
  8
$DDT_AUDIT_GENERATED_(AD)
  6
Continuous
 62
     7
100
AcDbEllipse
 10
34.0250917573
 20
446.8878814007
 30
0.0
 11
-8.499999715676324
 21
1.052024301007037E-7
 31
0.0
210
0.0
220
0.0
230
1.0
 40
0.4336590788
 41
1.035432590546462
 42
1.05896254575235
  0
ELLIPSE
  5
CB
330
6E
100
AcDbEntity
  8
$DDT_AUDIT_GENERATED_(AD)
  6
Continuous
 62
     7
100
AcDbEllipse
 10
34.0250919847
 20
446.8878815715
 30
0.0
 11
-8.500000000007848
 21
-2.817190924986335E-12
 31
0.0
210
0.0
220
0.0
230
1.0
 40
0.4336590846
 41
1.058962528484342
 42
1.297231961707122
  0
ELLIPSE
  5
CC
330
6E
100
AcDbEntity
  8
$DDT_AUDIT_GENERATED_(AD)
  6
Continuous
 62
     7
100
AcDbEllipse
 10
34.0250916757
 20
446.8878814374
 30
0.0
 11
-8.49999967217523
 21
1.167398677726084E-7
 31
0.0
210
0.0
220
0.0
230
1.0
 40
0.4336590846
 41
0.7736332046160783
 42
0.7971631597973341
  0
ELLIPSE
  5
CD
330
6E
100
AcDbEntity
  8
$DDT_AUDIT_GENERATED_(AD)
  6
Continuous
 62
     7
100
AcDbEllipse
 10
34.0250919847
 20
446.8878815715
 30
0.0
 11
-8.499999999998121
 21
6.522560269672795E-13
 31
0.0
210
0.0
220
0.0
230
1.0
 40
0.4336590846
 41
0.7971631406856222
 42
1.035432573908632
  0
ELLIPSE
  5
CE
330
6E
100
AcDbEntity
  8
$DDT_AUDIT_GENERATED_(AD)
  6
Continuous
 62
     7
100
AcDbEllipse
 10
34.0250916054
 20
446.8878814765
 30
0.0
 11
-8.499999616731175
 21
1.013374523184396E-7
 31
0.0
210
0.0
220
0.0
230
1.0
 40
0.4336590902
 41
0.5118338143335207
 42
0.5353637695160238
  0
ELLIPSE
  5
CF
330
6E
100
AcDbEntity
  8
$DDT_AUDIT_GENERATED_(AD)
  6
Continuous
 62
     7
100
AcDbEllipse
 10
34.0250919848
 20
446.8878815715
 30
0.0
 11
-8.500000000025581
 21
-8.312794896880860E-12
 31
0.0
210
0.0
220
0.0
230
1.0
 40
0.4336590846
 41
0.5353637528852818
 42
0.773633186107814
  0
ELLIPSE
  5
D0
330
6E
100
AcDbEntity
  8
$DDT_AUDIT_GENERATED_(AD)
  6
Continuous
 62
     7
100
AcDbEllipse
 10
34.0250915618
 20
446.8878815223
 30
0.0
 11
-8.499999576802397
 21
5.852521245408582E-8
 31
0.0
210
0.0
220
0.0
230
1.0
 40
0.4336590943
 41
0.2500344196332766
 42
0.2735643748155147
  0
ELLIPSE
  5
D1
330
6E
100
AcDbEntity
  8
$DDT_AUDIT_GENERATED_(AD)
  6
Continuous
 62
     7
100
AcDbEllipse
 10
34.0250919848
 20
446.8878815715
 30
0.0
 11
-8.500000000028148
 21
-5.911937606128959E-12
 31
0.0
210
0.0
220
0.0
230
1.0
 40
0.4336590846
 41
0.2735643650865195
 42
0.5118337983090626
  0
ARC
  5
D2
330
6E
100
AcDbEntity
  8
$DDT_AUDIT_GENERATED_(AD)
  6
Continuous
 62
     7
100
AcDbCircle
 10
27.1240813269
 20
446.8878815715
 30
0.0
 40
1.598989254301372
100
AcDbArc
 50
178.4459006084
 51
181.5540993916
  0
ELLIPSE
  5
D3
330
6E
100
AcDbEntity
  8
$DDT_AUDIT_GENERATED_(AD)
  6
Continuous
 62
     7
100
AcDbEllipse
 10
34.0250919848
 20
446.8878815715
 30
0.0
 11
-8.500000000026414
 21
-1.887379141862766E-12
 31
0.0
210
0.0
220
0.0
230
1.0
 40
0.4336590846
 41
0.0117649772879704
 42
0.250034410510575
  0
ARC
  5
D4
330
6E
100
AcDbEntity
  8
$DDT_AUDIT_GENERATED_(AD)
  6
Continuous
 62
     7
100
AcDbCircle
 10
28.9511178384
 20
446.8878815715
 30
0.0
 40
1.176025632738759
100
AcDbArc
 50
177.8867408141
 51
180.0
  0
LINE
  5
D5
330
6E
100
AcDbEntity
  8
$DDT_AUDIT_GENERATED_(AD)
  6
Continuous
 62
     7
100
AcDbLine
 10
27.7758920359
 20
446.93124748
 30
0.0
 11
27.7758920359
 21
447.569134174
 31
0.0
  0
ELLIPSE
  5
D6
330
6E
100
AcDbEntity
  8
$DDT_AUDIT_GENERATED_(AD)
  6
Continuous
 62
     7
100
AcDbEllipse
 10
34.025091529
 20
446.8878816245
 30
0.0
 11
-8.499999544034065
 21
-6.305259092620474E-8
 31
0.0
210
0.0
220
0.0
230
1.0
 40
0.433659095
 41
-0.2735643755688271
 42
-0.2500344203396727
  0
ELLIPSE
  5
D7
330
6E
100
AcDbEntity
  8
$DDT_AUDIT_GENERATED_(AD)
  6
Continuous
 62
     7
100
AcDbEllipse
 10
34.0250919847
 20
446.8878815715
 30
0.0
 11
-8.499999999997817
 21
-7.216449660063518E-13
 31
0.0
210
0.0
220
0.0
230
1.0
 40
0.4336590846
 41
6.033150896668452
 42
6.271420329891408
  0
ELLIPSE
  5
D8
330
6E
100
AcDbEntity
  8
$DDT_AUDIT_GENERATED_(AD)
  6
Continuous
 62
     7
100
AcDbEllipse
 10
34.0250919847
 20
446.8878815715
 30
0.0
 11
-8.500000000024004
 21
5.120903701083535E-12
 31
0.0
210
0.0
220
0.0
230
1.0
 40
0.4336590846
 41
-0.4807950295249537
 42
-0.2735643650866173
  0
ELLIPSE
  5
D9
330
6E
100
AcDbEntity
  8
$DDT_AUDIT_GENERATED_(AD)
  6
Continuous
 62
     7
100
AcDbEllipse
 10
34.0250924077
 20
446.8878816207
 30
0.0
 11
8.499999576749154
 21
-5.853263707056300E-8
 31
0.0
210
0.0
220
0.0
230
1.0
 40
0.4336590943
 41
0.2500344196344234
 42
0.2735643748167376
  0
ELLIPSE
  5
DA
330
6E
100
AcDbEntity
  8
$DDT_AUDIT_GENERATED_(AD)
  6
Continuous
 62
     7
100
AcDbEllipse
 10
34.0250919847
 20
446.8878815715
 30
0.0
 11
8.500000000029102
 21
5.564992910933597E-12
 31
0.0
210
0.0
220
0.0
230
1.0
 40
0.4336590846
 41
0.2735643650865142
 42
0.480795029524779
  0
ELLIPSE
  5
DB
330
6E
100
AcDbEntity
  8
$DDT_AUDIT_GENERATED_(AD)
  6
Continuous
 62
     7
100
AcDbEllipse
 10
34.0250919847
 20
446.8878815715
 30
0.0
 11
-2.750000000001061
 21
0.0
 31
0.0
210
0.0
220
0.0
230
1.0
 40
0.4336590846
 41
3.141592653589793
 42
3.205272045846749
  0
LINE
  5
DC
330
6E
100
AcDbEntity
  8
$DDT_AUDIT_GENERATED_(AD)
  6
Continuous
 62
     7
100
AcDbLine
 10
36.7695181543
 20
447.4873816879
 30
0.0
 11
36.7695181543
 21
446.9637719113
 31
0.0
  0
LINE
  5
DD
330
6E
100
AcDbEntity
  8
$DDT_AUDIT_GENERATED_(AD)
  6
Continuous
 62
     7
100
AcDbLine
 10
31.2806658152
 20
447.4873816879
 30
0.0
 11
31.2806658152
 21
446.9637719113
 31
0.0
  0
ELLIPSE
  5
DE
330
6E
100
AcDbEntity
  8
$DDT_AUDIT_GENERATED_(AD)
  6
Continuous
 62
     7
100
AcDbEllipse
 10
34.0250919847
 20
446.8878815715
 30
0.0
 11
2.750000000002709
 21
2.109423746787797E-12
 31
0.0
210
0.0
220
0.0
230
1.0
 40
0.4336590846
 41
3.077913261332485
 42
3.141592653589788
  0
LINE
  5
DF
330
6E
100
AcDbEntity
  8
$DDT_AUDIT_GENERATED_(AD)
  6
Continuous
 62
     7
100
AcDbLine
 10
25.0250919847
 20
449.0076005678
 30
0.0
 11
25.0250919847
 21
446.7076661672
 31
0.0
  0
LINE
  5
E0
330
6E
100
AcDbEntity
  8
$DDT_AUDIT_GENERATED_(AD)
  6
Continuous
 62
     7
100
AcDbLine
 10
43.0250919847
 20
446.7076661672
 30
0.0
 11
43.0250919847
 21
449.0076005678
 31
0.0
  0
LINE
  5
E1
330
6E
100
AcDbEntity
  8
$DDT_AUDIT_GENERATED_(AD)
  6
Continuous
 62
     7
100
AcDbLine
 10
27.7750919847
 20
446.8878815715
 30
0.0
 11
27.7750919847
 21
446.7076661672
 31
0.0
  0
LINE
  5
E2
330
6E
100
AcDbEntity
  8
$DDT_AUDIT_GENERATED_(AD)
  6
Continuous
 62
     7
100
AcDbLine
 10
40.2750919847
 20
446.7076661672
 30
0.0
 11
40.2750919847
 21
446.8878815715
 31
0.0
  0
LINE
  5
E3
330
6E
100
AcDbEntity
  8
$DDT_AUDIT_GENERATED_(AD)
  6
Continuous
 62
     7
100
AcDbLine
 10
31.2750919847
 20
446.8878815715
 30
0.0
 11
31.2750919847
 21
446.7076661672
 31
0.0
  0
LINE
  5
E4
330
6E
100
AcDbEntity
  8
$DDT_AUDIT_GENERATED_(AD)
  6
Continuous
 62
     7
100
AcDbLine
 10
36.7750919847
 20
446.7076661672
 30
0.0
 11
36.7750919847
 21
446.8878815715
 31
0.0
  0
LINE
  5
E5
330
6E
100
AcDbEntity
  8
$DDT_AUDIT_GENERATED_(AD)
  6
Continuous
 62
     7
100
AcDbLine
 10
33.5054620408
 20
447.2841908232
 30
0.0
 11
33.5054620408
 21
446.8878815715
 31
0.0
  0
LINE
  5
E6
330
6E
100
AcDbEntity
  8
$DDT_AUDIT_GENERATED_(AD)
  6
Continuous
 62
     7
100
AcDbLine
 10
34.5447219286
 20
446.8878815715
 30
0.0
 11
34.5447219286
 21
447.1107161466
 31
0.0
  0
SPLINE
  5
E8
330
6E
100
AcDbEntity
  8
$DDT_AUDIT_GENERATED_(E7)
  6
Continuous
 62
     7
100
AcDbSpline
210
0.0
220
0.0
230
1.0
 70
     8
 71
     3
 72
    24
 73
    20
 74
     0
 42
0.000000003943883
 43
0.0000000001
 40
0.0
 40
0.0
 40
0.0
 40
0.0
 40
0.0277777777777778
 40
0.0555555555555554
 40
0.0833333333333334
 40
0.1111111111111111
 40
0.2222222222222223
 40
0.3333333333333344
 40
0.4444444444444459
 40
0.5555555555555574
 40
0.6666666666666656
 40
0.777777777777777
 40
0.8333333333333346
 40
0.8611111111111099
 40
0.8888888888888886
 40
0.9166666666666673
 40
0.944444444444446
 40
0.9722222222222213
 40
1.0
 40
1.0
 40
1.0
 40
1.0
 10
30.39797720552057
 20
535.0793668575454
 30
0.0
 10
30.40329334087873
 20
535.0624379736008
 30
0.0
 10
30.41513461811537
 20
535.0287001287628
 30
0.0
 10
30.43632874915671
 20
534.9785273043973
 30
0.0
 10
30.4607602910098
 20
534.9288625966608
 30
0.0
 10
30.51570858759028
 20
534.8306977619212
 30
0.0
 10
30.61948954793097
 20
534.6883739905935
 30
0.0
 10
30.79622837314302
 20
534.5096637392342
 30
0.0
 10
31.00555681974079
 20
534.3444351440052
 30
0.0
 10
31.24496125688098
 20
534.1938849981035
 30
0.0
 10
31.51165660660082
 20
534.0612344686913
 30
0.0
 10
31.75639414884701
 20
533.9679382137406
 30
0.0
 10
31.93809344192779
 20
533.9144317466715
 30
0.0
 10
32.04470455863209
 20
533.8876331536416
 30
0.0
 10
32.12600846426046
 20
533.8695236848836
 30
0.0
 10
32.20861203147434
 20
533.8535049026499
 30
0.0
 10
32.29233506305668
 20
533.8397115293857
 30
0.0
 10
32.37699736179043
 20
533.8282782875364
 30
0.0
 10
32.43394494090252
 20
533.82231936221
 30
0.0
 10
32.46251520924478
 20
533.8197781622645
 30
0.0
  0
ARC
  5
E9
330
6E
100
AcDbEntity
  8
$DDT_AUDIT_GENERATED_(E7)
  6
Continuous
 62
     7
100
AcDbCircle
 10
43.5790930865
 20
539.2885404441
 30
0.0
 40
13.83686952129193
100
AcDbArc
 50
179.7465862372
 51
197.7100312498
  0
ARC
  5
EA
330
6E
100
AcDbEntity
  8
$DDT_AUDIT_GENERATED_(E7)
  6
Continuous
 62
     7
100
AcDbCircle
 10
34.0240874257
 20
551.4268916928
 30
0.0
 40
17.67622569057718
100
AcDbArc
 50
264.9317071608
 51
270.0030526426
  0
SPLINE
  5
EB
330
6E
100
AcDbEntity
  8
$DDT_AUDIT_GENERATED_(E7)
  6
Continuous
 62
     7
100
AcDbSpline
210
0.0
220
0.0
230
1.0
 70
     8
 71
     3
 72
     8
 73
     4
 74
     0
 42
0.000000014098993
 43
0.0000000001
 40
0.2826685048064115
 40
0.2826685048064115
 40
0.2826685048064115
 40
0.2826685048064115
 40
0.2884070666626912
 40
0.2884070666626912
 40
0.2884070666626912
 40
0.2884070666626912
 10
30.47203202717486
 20
548.4973516098504
 30
0.0
 10
30.4717682851426
 20
548.4963245650022
 30
0.0
 10
30.4714952559202
 20
548.4949960412818
 30
0.0
 10
30.47121319732195
 20
548.4933667402736
 30
0.0
  0
SPLINE
  5
EC
330
6E
100
AcDbEntity
  8
$DDT_AUDIT_GENERATED_(E7)
  6
Continuous
 62
     7
100
AcDbSpline
210
0.0
220
0.0
230
1.0
 70
     8
 71
     3
 72
   136
 73
   132
 74
     0
 42
0.0000000001625674
 43
0.0000000001
 40
0.0
 40
0.0
 40
0.0
 40
0.0
 40
0.0158386162278621
 40
0.0292474679428774
 40
0.0426563196578928
 40
0.0560651713729082
 40
0.0560651713729082
 40
0.0627695972304159
 40
0.0627695972304159
 40
0.0694740230879235
 40
0.0694740230879235
 40
0.0761784489454313
 40
0.0761784489454313
 40
0.0795306618741809
 40
0.0828828748029389
 40
0.0862350877316886
 40
0.0936855293936411
 40
0.0936855293936411
 40
0.1044881839843434
 40
0.1044881839843434
 40
0.1152908385750456
 40
0.1152908385750456
 40
0.120692165870405
 40
0.120692165870405
 40
0.1260934931657561
 40
0.1260934931657561
 40
0.1368961477564583
 40
0.1368961477564583
 40
0.1476988023471605
 40
0.1476988023471605
 40
0.1585014569378709
 40
0.1585014569378709
 40
0.1641243086752557
 40
0.1693041115285731
 40
0.1744839143818908
 40
0.1796637172352164
 40
0.1796637172352164
 40
0.1900233229418549
 40
0.1900233229418549
 40
0.2107425343551374
 40
0.2107425343551374
 40
0.2211021400617789
 40
0.2211021400617789
 40
0.2314617457684198
 40
0.2314617457684198
 40
0.2460616804477429
 40
0.2521809571817031
 40
0.2583002339156625
 40
0.264419510649622
 40
0.264419510649622
 40
0.2766580641175419
 40
0.2766580641175419
 40
0.3011351710533815
 40
0.3011351710533815
 40
0.3256122779892212
 40
0.3256122779892212
 40
0.3378508314571408
 40
0.3378508314571408
 40
0.3439701081911003
 40
0.3439701081911003
 40
0.3472372424564111
 40
0.3500893849250607
 40
0.3529415273937103
 40
0.3557936698623598
 40
0.3557936698623598
 40
0.3614979547996597
 40
0.3614979547996597
 40
0.3729065246742589
 40
0.3729065246742589
 40
0.3843150945488579
 40
0.3843150945488579
 40
0.3957236644234563
 40
0.3957236644234563
 40
0.419635340524569
 40
0.4413579439218527
 40
0.4630805473191363
 40
0.48480315071642
 40
0.5028026584121765
 40
0.5208021661079332
 40
0.5388016738036897
 40
0.5388016738036897
 40
0.5673640048522481
 40
0.5748006891952023
 40
0.5822373735381571
 40
0.5896740578811119
 40
0.5896740578811119
 40
0.6045474265670218
 40
0.6045474265670218
 40
0.6194207952529309
 40
0.6194207952529309
 40
0.6268574795958858
 40
0.6342941639388406
 40
0.6417308482817956
 40
0.6595096872864638
 40
0.6595096872864638
 40
0.681888926850009
 40
0.684725210634087
 40
0.6875614944181648
 40
0.6903977782022426
 40
0.6903977782022426
 40
0.6960703457703974
 40
0.6960703457703974
 40
0.7074154809067088
 40
0.7074154809067088
 40
0.7301057511793299
 40
0.7301057511793299
 40
0.7527960214519517
 40
0.7527960214519517
 40
0.7641411565882622
 40
0.7641411565882622
 40
0.7698137241564179
 40
0.7754862917245735
 40
0.7811588592927284
 40
0.8138106406723157
 40
0.8138106406723157
 40
0.8329728151461862
 40
0.8521349896200572
 40
0.8712971640939283
 40
0.8927590230233263
 40
0.8927590230233263
 40
0.913071039724961
 40
0.913071039724961
 40
0.926097768704995
 40
0.9333830564265955
 40
0.9406683441481958
 40
0.9479536318697959
 40
0.9479536318697959
 40
0.9552389195913963
 40
0.9625242073129966
 40
0.9698094950345969
 40
1.0
 40
1.0
 40
1.0
 40
1.0
 10
30.39797720552057
 20
535.0793668575454
 30
0.0
 10
30.39772142783525
 20
534.5792081925094
 30
0.0
 10
30.39732251439753
 20
533.6554324241239
 30
0.0
 10
30.39681340220625
 20
532.3053118491015
 30
0.0
 10
30.39646633964987
 20
531.0454353187071
 30
0.0
 10
30.39633850745938
 20
530.2024639438176
 30
0.0
 10
30.39622535756309
 20
529.5700647087027
 30
0.0
 10
30.39620507588245
 20
529.3602376434415
 30
0.0
 10
30.3960991023231
 20
528.9377074449435
 30
0.0
 10
30.39608076535041
 20
528.7291511966827
 30
0.0
 10
30.39632002528356
 20
528.3053864832026
 30
0.0
 10
30.39656892278317
 20
528.0980345359834
 30
0.0
 10
30.39691238695167
 20
527.7876161567084
 30
0.0
 10
30.39710808721994
 20
527.5858375216022
 30
0.0
 10
30.39707483968101
 20
527.2859559917008
 30
0.0
 10
30.39659053550787
 20
526.8775559371499
 30
0.0
 10
30.3957778666458
 20
526.5778249718985
 30
0.0
 10
30.39384154748416
 20
526.0847653114788
 30
0.0
 10
30.39243741344564
 20
525.8080887938346
 30
0.0
 10
30.38785873881067
 20
525.2745499437784
 30
0.0
 10
30.38496110838236
 20
525.0248080960188
 30
0.0
 10
30.38205727182163
 20
524.6685774490156
 30
0.0
 10
30.37999355959
 20
524.55154179787
 30
0.0
 10
30.37262125759037
 20
524.3317243869459
 30
0.0
 10
30.36715666367036
 20
524.2207878022012
 30
0.0
 10
30.35105272804032
 20
523.9118644327176
 30
0.0
 10
30.34027150790965
 20
523.7161665592791
 30
0.0
 10
30.3166588956093
 20
523.3626522239753
 30
0.0
 10
30.30422245081741
 20
523.2014335427067
 30
0.0
 10
30.27754151239194
 20
522.908936127525
 30
0.0
 10
30.26323062835343
 20
522.7801754344779
 30
0.0
 10
30.23969676886305
 20
522.6112513928406
 30
0.0
 10
30.22387684398593
 20
522.5100179378373
 30
0.0
 10
30.20012391493427
 20
522.3781846694073
 30
0.0
 10
30.17801728946117
 20
522.2609754419585
 30
0.0
 10
30.16440403721354
 20
522.1834808303179
 30
0.0
 10
30.14464601575095
 20
522.0675463742131
 30
0.0
 10
30.13220560216244
 20
521.9893759232965
 30
0.0
 10
30.09397872176
 20
521.7521997749564
 30
0.0
 10
30.06805109510863
 20
521.5954805549922
 30
0.0
 10
30.02890915341142
 20
521.3743185139174
 30
0.0
 10
30.0163963056152
 20
521.3025951623147
 30
0.0
 10
29.99203393776144
 20
521.1576122294548
 30
0.0
 10
29.9811183852848
 20
521.0862733990033
 30
0.0
 10
29.95758881243259
 20
520.9129748106511
 30
0.0
 10
29.94104740762728
 20
520.7701210388308
 30
0.0
 10
29.92235610174901
 20
520.5860125751689
 30
0.0
 10
29.91056609845739
 20
520.46230487138
 30
0.0
 10
29.90275454250203
 20
520.3796854111105
 30
0.0
 10
29.89094370249219
 20
520.2568147396067
 30
0.0
 10
29.88254934513071
 20
520.1744576498946
 30
0.0
 10
29.85989655459635
 20
519.9293312464124
 30
0.0
 10
29.84859572914396
 20
519.766082442288
 30
0.0
 10
29.822734410765
 20
519.437828899278
 30
0.0
 10
29.81168311897963
 20
519.273214680763
 30
0.0
 10
29.7935572406744
 20
519.0240769905422
 30
0.0
 10
29.7878542662095
 20
518.9415031212676
 30
0.0
 10
29.77833167705714
 20
518.8148624773293
 30
0.0
 10
29.77462496546812
 20
518.7723099518367
 30
0.0
 10
29.77083244254979
 20
518.7097738644833
 30
0.0
 10
29.76913336410376
 20
518.6701260945297
 30
0.0
 10
29.76858332589293
 20
518.6152708410964
 30
0.0
 10
29.76811021210588
 20
518.5616274766376
 30
0.0
 10
29.76733649891747
 20
518.5253098631667
 30
0.0
 10
29.76577499645566
 20
518.4701366839425
 30
0.0
 10
29.76405196432867
 20
518.4318150710562
 30
0.0
 10
29.7559133801285
 20
518.312264403821
 30
0.0
 10
29.74631393424096
 20
518.2285557691063
 30
0.0
 10
29.72627596118693
 20
518.0646611592623
 30
0.0
 10
29.71566341110636
 20
517.9834699602193
 30
0.0
 10
29.69539492149465
 20
517.8192856262681
 30
0.0
 10
29.68567494518166
 20
517.7370360175615
 30
0.0
 10
29.65547949333029
 20
517.4796634099428
 30
0.0
 10
29.61660478270133
 20
517.1443874276699
 30
0.0
 10
29.56526242777361
 20
516.6378470313037
 30
0.0
 10
29.5227623541013
 20
516.1329428784119
 30
0.0
 10
29.49261652897432
 20
515.645796295737
 30
0.0
 10
29.47457991748771
 20
515.1777983424993
 30
0.0
 10
29.46869754817791
 20
514.7247026280415
 30
0.0
 10
29.47174392540594
 20
514.4155189568933
 30
0.0
 10
29.47452998653257
 20
514.0086354609659
 30
0.0
 10
29.47655922713665
 20
513.6848908252463
 30
0.0
 10
29.46635112568609
 20
513.2826790481084
 30
0.0
 10
29.45787318880818
 20
513.0697543866228
 30
0.0
 10
29.44962193885181
 20
512.926897525593
 30
0.0
 10
29.43497857256756
 20
512.7092877775616
 30
0.0
 10
29.4224287343447
 20
512.5614351061744
 30
0.0
 10
29.39038082306506
 20
512.2457544231272
 30
0.0
 10
29.37089909138185
 20
512.0785598006635
 30
0.0
 10
29.33619260404341
 20
511.8129648024506
 30
0.0
 10
29.31099093605651
 20
511.6294436612038
 30
0.0
 10
29.2673567634024
 20
511.3458921399069
 30
0.0
 10
29.18750336434127
 20
510.8759960151376
 30
0.0
 10
29.11430473189297
 20
510.4806463576808
 30
0.0
 10
28.98606468213529
 20
509.7941856393066
 30
0.0
 10
28.89606195566504
 20
509.3238423344384
 30
0.0
 10
28.79235070724746
 20
508.7313830738997
 30
0.0
 10
28.7628043071015
 20
508.5579364497277
 30
0.0
 10
28.7425286986888
 20
508.4388453866979
 30
0.0
 10
28.71136173181331
 20
508.2576987492703
 30
0.0
 10
28.68979812256073
 20
508.1363119651934
 30
0.0
 10
28.62060514476676
 20
507.7524258168986
 30
0.0
 10
28.57655560550569
 20
507.4886780985169
 30
0.0
 10
28.44000940736492
 20
506.657604553931
 30
0.0
 10
28.35312851094196
 20
506.058785899173
 30
0.0
 10
28.19575236866357
 20
504.7678648944565
 30
0.0
 10
28.12629373607115
 20
504.0784591493128
 30
0.0
 10
28.02987776161009
 20
502.9784076129232
 30
0.0
 10
28.00308294008361
 20
502.5998523497783
 30
0.0
 10
27.96873164623726
 20
502.0161492198613
 30
0.0
 10
27.94695424242171
 20
501.6198636949046
 30
0.0
 10
27.9145068363855
 20
501.0151821942337
 30
0.0
 10
27.83036469617753
 20
499.3995722357641
 30
0.0
 10
27.76204822791219
 20
497.9138143125903
 30
0.0
 10
27.66501432611151
 20
495.8546260483968
 30
0.0
 10
27.59456492761531
 20
494.3158874074642
 30
0.0
 10
27.48753712215098
 20
491.9614540664596
 30
0.0
 10
27.37996978125837
 20
489.5359953629209
 30
0.0
 10
27.3093832111565
 20
487.8712429286356
 30
0.0
 10
27.23899368134382
 20
486.1575418271286
 30
0.0
 10
27.20616329071134
 20
485.3291557291271
 30
0.0
 10
27.15331650885426
 20
483.958704541048
 30
0.0
 10
27.12178569313362
 20
483.1254571274532
 30
0.0
 10
27.07960886221839
 20
481.9972717836399
 30
0.0
 10
27.04598265654479
 20
481.0878559062353
 30
0.0
 10
27.0239742460179
 20
480.4848426544585
 30
0.0
 10
27.00208574024547
 20
479.8810286905149
 30
0.0
 10
26.98035664829536
 20
479.2778739924628
 30
0.0
 10
26.94816560158632
 20
478.3694507643563
 30
0.0
 10
26.88436296072755
 20
476.5334184243206
 30
0.0
 10
26.83374063120056
 20
474.9929393698828
 30
0.0
 10
26.79548915015699
 20
473.7529431976245
 30
0.0
  0
SPLINE
  5
ED
330
6E
100
AcDbEntity
  8
$DDT_AUDIT_GENERATED_(E7)
  6
Continuous
 62
     7
100
AcDbSpline
210
0.0
220
0.0
230
1.0
 70
     8
 71
     3
 72
     9
 73
     5
 74
     0
 42
0.0000000004271212
 43
0.0000000001
 40
0.5052713559487593
 40
0.5052713559487593
 40
0.5052713559487593
 40
0.5052713559487593
 40
0.5102469094496362
 40
0.5130852125560839
 40
0.5130852125560839
 40
0.5130852125560839
 40
0.5130852125560839
 10
28.76633309880606
 20
516.8932924296138
 30
0.0
 10
28.74689982142329
 20
516.859149390481
 30
0.0
 10
28.71595281726801
 20
516.8062974236234
 30
0.0
 10
28.68421908072871
 20
516.7548288066185
 30
0.0
 10
28.67288173522964
 20
516.7360390320611
 30
0.0
  0
SPLINE
  5
EE
330
6E
100
AcDbEntity
  8
$DDT_AUDIT_GENERATED_(E7)
  6
Continuous
 62
     7
100
AcDbSpline
210
0.0
220
0.0
230
1.0
 70
     8
 71
     3
 72
    33
 73
    29
 74
     0
 42
0.0000000039473278
 43
0.0000000001
 40
0.0
 40
0.0
 40
0.0
 40
0.0
 40
0.0483012449239255
 40
0.0952246943987359
 40
0.1417754923252131
 40
0.1866242588348226
 40
0.2311391921435961
 40
0.2754832052780584
 40
0.3189322694625362
 40
0.3616362554350455
 40
0.4034181259454562
 40
0.444370225050192
 40
0.4851530385267516
 40
0.5240838981954192
 40
0.5634591844317262
 40
0.6004345736054133
 40
0.6383633725132983
 40
0.6754466426369291
 40
0.7106519128366018
 40
0.7465154813175612
 40
0.7805450223730239
 40
0.8146664025397432
 40
0.8474945848682429
 40
0.8785710475610689
 40
0.9092263620734659
 40
0.9405517475710033
 40
0.9712242740472741
 40
1.0
 40
1.0
 40
1.0
 40
1.0
 10
37.65208117722578
 20
535.0793668575454
 30
0.0
 10
37.64179175741255
 20
535.0500175161878
 30
0.0
 10
37.62150642400557
 20
534.9921560249155
 30
0.0
 10
37.57868922145105
 20
534.9079096188577
 30
0.0
 10
37.52964246468651
 20
534.827152678198
 30
0.0
 10
37.47376093358189
 20
534.7496773517721
 30
0.0
 10
37.41237048344501
 20
534.675190840591
 30
0.0
 10
37.34562162415159
 20
534.6033181509475
 30
0.0
 10
37.27430414089542
 20
534.5343587435435
 30
0.0
 10
37.19938763647829
 20
534.4686764440619
 30
0.0
 10
37.12134474085626
 20
534.4062284228303
 30
0.0
 10
37.04024904611324
 20
534.3467234826427
 30
0.0
 10
36.95707938612368
 20
534.2905179620963
 30
0.0
 10
36.87121701168309
 20
534.2372223597804
 30
0.0
 10
36.78476676936167
 20
534.1874872050893
 30
0.0
 10
36.69570983655431
 20
534.1404864194354
 30
0.0
 10
36.60539301182307
 20
534.0964376932917
 30
0.0
 10
36.51360162970894
 20
534.0553022477361
 30
0.0
 10
36.42063711606664
 20
534.0174098474278
 30
0.0
 10
36.32785508508827
 20
533.9827091575154
 30
0.0
 10
36.23348475514815
 20
533.9509919877141
 30
0.0
 10
36.13967141396007
 20
533.9225880024907
 30
0.0
 10
36.04653726464634
 20
533.8976050210963
 30
0.0
 10
35.95490699497328
 20
533.8760639701335
 30
0.0
 10
35.86317223286736
 20
533.8573579292188
 30
0.0
 10
35.77032119159165
 20
533.8416077372057
 30
0.0
 10
35.67823568221285
 20
533.8286552968488
 30
0.0
 10
35.6171240519035
 20
533.8226735881648
 30
0.0
 10
35.58754317350157
 20
533.8197781622645
 30
0.0
  0
ARC
  5
EF
330
6E
100
AcDbEntity
  8
$DDT_AUDIT_GENERATED_(E7)
  6
Continuous
 62
     7
100
AcDbCircle
 10
24.4459873875
 20
539.2886324
 30
0.0
 40
13.86069369079769
100
AcDbArc
 50
342.3210155493
 51
0.2525835425
  0
ARC
  5
F0
330
6E
100
AcDbEntity
  8
$DDT_AUDIT_GENERATED_(E7)
  6
Continuous
 62
     7
100
AcDbCircle
 10
34.0270370965
 20
551.4027879997
 30
0.0
 40
17.6521220865567
100
AcDbArc
 50
269.9934826823
 51
275.0717575142
  0
SPLINE
  5
F1
330
6E
100
AcDbEntity
  8
$DDT_AUDIT_GENERATED_(E7)
  6
Continuous
 62
     7
100
AcDbSpline
210
0.0
220
0.0
230
1.0
 70
     8
 71
     3
 72
     8
 73
     4
 74
     0
 42
0.0000000140444784
 43
0.0000000001
 40
0.2826611889904607
 40
0.2826611889904607
 40
0.2826611889904607
 40
0.2826611889904607
 40
0.2888212147761978
 40
0.2888212147761978
 40
0.2888212147761978
 40
0.2888212147761978
 10
37.57803295234602
 20
548.4973082933469
 30
0.0
 10
37.57831416530531
 20
548.4962216511435
 30
0.0
 10
37.57860543762369
 20
548.4947897611389
 30
0.0
 10
37.5789067522593
 20
548.4930126964433
 30
0.0
  0
SPLINE
  5
F2
330
6E
100
AcDbEntity
  8
$DDT_AUDIT_GENERATED_(E7)
  6
Continuous
 62
     7
100
AcDbSpline
210
0.0
220
0.0
230
1.0
 70
     8
 71
     3
 72
    62
 73
    58
 74
     0
 42
0.0000000001625558
 43
0.0000000001
 40
0.0
 40
0.0
 40
0.0
 40
0.0
 40
0.061745975931112
 40
0.0694411268396689
 40
0.0771346590076146
 40
0.0924855093681656
 40
0.1047470771418355
 40
0.1139243869868252
 40
0.1231460567403126
 40
0.1384675306789745
 40
0.1537904716065677
 40
0.1614478285476711
 40
0.169124318894605
 40
0.176833896791598
 40
0.1845095428523447
 40
0.1999108032388761
 40
0.2076039274025986
 40
0.2152891957980891
 40
0.2306750190575529
 40
0.2460698438730473
 40
0.2613340272001521
 40
0.2765836786732103
 40
0.3070995252955498
 40
0.3223434546708448
 40
0.3376026051216971
 40
0.3452808136548967
 40
0.3530924347525439
 40
0.3687079655938948
 40
0.4059889072817369
 40
0.4476981025288831
 40
0.4938217957430993
 40
0.5253606918982381
 40
0.5569174646559519
 40
0.5886745349568744
 40
0.6205293498399096
 40
0.6861755594731723
 40
0.6901308272556869
 40
0.6940886552107552
 40
0.702008599993855
 40
0.7178355987958769
 40
0.7336634536025809
 40
0.7494868343538471
 40
0.7653132478339496
 40
0.7811727924729966
 40
0.7970706244194834
 40
0.8050209656291556
 40
0.8129780517419745
 40
0.820931625118131
 40
0.8288835633718104
 40
0.8448001657409752
 40
0.8605998047172199
 40
0.8763126159727104
 40
0.9077628962169703
 40
0.9230516669872333
 40
0.9393019195064358
 40
0.968111147937244
 40
1.0
 40
1.0
 40
1.0
 40
1.0
 10
37.65208117722578
 20
535.0793668575454
 30
0.0
 10
37.6528554510645
 20
533.1084553366825
 30
0.0
 10
37.65371123719777
 20
530.8919188381747
 30
0.0
 10
37.65399721782554
 20
528.41989532717
 30
0.0
 10
37.65252232361126
 20
527.4462582026675
 30
0.0
 10
37.65356742543803
 20
526.416474890362
 30
0.0
 10
37.66116023247121
 20
525.4549914501722
 30
0.0
 10
37.66465180370442
 20
524.7340382358341
 30
0.0
 10
37.6888374792381
 20
524.0227335644022
 30
0.0
 10
37.73453404133853
 20
523.3131674113755
 30
0.0
 10
37.78211064712471
 20
522.7935622356979
 30
0.0
 10
37.82847700607559
 20
522.4929046602402
 30
0.0
 10
37.8633889955194
 20
522.308102689252
 30
0.0
 10
37.8944444597711
 20
522.1352853633218
 30
0.0
 10
37.93255445074165
 20
521.8976991206123
 30
0.0
 10
37.97144268295961
 20
521.6584720128
 30
0.0
 10
38.01073959800846
 20
521.4316272233989
 30
0.0
 10
38.04964836288234
 20
521.2131157797753
 30
0.0
 10
38.09077807718174
 20
520.9408553892989
 30
0.0
 10
38.12505576780242
 20
520.6183472374526
 30
0.0
 10
38.15472720026346
 20
520.3007273778009
 30
0.0
 10
38.19544209511183
 20
519.8819908852388
 30
0.0
 10
38.22611356230506
 20
519.4617366031265
 30
0.0
 10
38.25346805845489
 20
519.0428417942757
 30
0.0
 10
38.2800153679085
 20
518.7634635449975
 30
0.0
 10
38.28153617051139
 20
518.5708587482361
 30
0.0
 10
38.28633049406087
 20
518.3690056673595
 30
0.0
 10
38.34187218146641
 20
517.9199751387251
 30
0.0
 10
38.4246994290101
 20
517.2418696228556
 30
0.0
 10
38.52021259737623
 20
516.2898886982194
 30
0.0
 10
38.57827863756891
 20
515.3402247964044
 30
0.0
 10
38.58051596243102
 20
514.4283024797027
 30
0.0
 10
38.56984715567314
 20
513.5867267785654
 30
0.0
 10
38.60457464866896
 20
512.7138702406013
 30
0.0
 10
38.75748432416507
 20
511.3247439502393
 30
0.0
 10
39.08202228012696
 20
509.7549941570361
 30
0.0
 10
39.34805280410276
 20
508.2034807160729
 30
0.0
 10
39.41094038073138
 20
507.8552863859307
 30
0.0
 10
39.51988193727503
 20
507.2179659516094
 30
0.0
 10
39.67619544994885
 20
506.2252496418049
 30
0.0
 10
39.84014430948642
 20
504.9027097786761
 30
0.0
 10
39.98702116171115
 20
503.4543906157317
 30
0.0
 10
40.09356831265418
 20
501.875456497039
 30
0.0
 10
40.17939601427524
 20
500.1714857739449
 30
0.0
 10
40.25234334348729
 20
498.681577207817
 30
0.0
 10
40.30947094477468
 20
497.4593096069033
 30
0.0
 10
40.35347192489293
 20
496.5301094028992
 30
0.0
 10
40.39698256376433
 20
495.5914510730454
 30
0.0
 10
40.45486911215352
 20
494.3288464545324
 30
0.0
 10
40.52710507060926
 20
492.7388798692253
 30
0.0
 10
40.61353235811158
 20
490.8221565663359
 30
0.0
 10
40.72476588662389
 20
488.2641833900282
 30
0.0
 10
40.82984382941812
 20
485.7129404565002
 30
0.0
 10
40.92799436941042
 20
483.1408675361698
 30
0.0
 10
41.01964565047893
 20
480.6763878326366
 30
0.0
 10
41.13320739260217
 20
477.5338388452588
 30
0.0
 10
41.2127696119264
 20
475.055160152408
 30
0.0
 10
41.25456930656369
 20
473.752940765167
 30
0.0
  0
SPLINE
  5
F3
330
6E
100
AcDbEntity
  8
$DDT_AUDIT_GENERATED_(E7)
  6
Continuous
 62
     7
100
AcDbSpline
210
0.0
220
0.0
230
1.0
 70
     8
 71
     3
 72
    10
 73
     6
 74
     0
 42
0.0000000004341766
 43
0.0000000001
 40
0.4958629121311467
 40
0.4958629121311467
 40
0.4958629121311467
 40
0.4958629121311467
 40
0.4977629885395345
 40
0.4977629885395345
 40
0.5039276204579328
 40
0.5039276204579328
 40
0.5039276204579328
 40
0.5039276204579328
 10
39.28203863619619
 20
516.8955511291824
 30
0.0
 10
39.28929389572573
 20
516.8827367715203
 30
0.0
 10
39.29660439421989
 20
516.8699852801789
 30
0.0
 10
39.32793678717849
 20
516.8161062260447
 30
0.0
 10
39.35299545686009
 20
516.7762658726715
 30
0.0
 10
39.3772082315724
 20
516.7360641947492
 30
0.0
  0
LINE
  5
F4
330
6E
100
AcDbEntity
  8
$DDT_AUDIT_GENERATED_(E7)
  6
Continuous
 62
     7
100
AcDbLine
 10
26.8746432966
 20
473.4427045783
 30
0.0
 11
6.7307790236
 21
473.4427045783
 31
0.0
  0
LINE
  5
F5
330
6E
100
AcDbEntity
  8
$DDT_AUDIT_GENERATED_(E7)
  6
Continuous
 62
     7
100
AcDbLine
 10
32.4450674678
 20
473.4427045783
 30
0.0
 11
26.8746432966
 21
473.4427045783
 31
0.0
  0
LINE
  5
F6
330
6E
100
AcDbEntity
  8
$DDT_AUDIT_GENERATED_(E7)
  6
Continuous
 62
     7
100
AcDbLine
 10
34.0250346936
 20
473.4427045783
 30
0.0
 11
32.4450676991
 21
473.4427045783
 31
0.0
  0
LINE
  5
F7
330
6E
100
AcDbEntity
  8
$DDT_AUDIT_GENERATED_(E7)
  6
Continuous
 62
     7
100
AcDbLine
 10
35.6049819514
 20
473.4427045783
 30
0.0
 11
34.0250346936
 21
473.4427045783
 31
0.0
  0
LINE
  5
F8
330
6E
100
AcDbEntity
  8
$DDT_AUDIT_GENERATED_(E7)
  6
Continuous
 62
     7
100
AcDbLine
 10
41.1754145338
 20
473.4427045783
 30
0.0
 11
35.6049819514
 21
473.4427045783
 31
0.0
  0
LINE
  5
F9
330
6E
100
AcDbEntity
  8
$DDT_AUDIT_GENERATED_(E7)
  6
Continuous
 62
     7
100
AcDbLine
 10
61.3197114605
 20
473.4427045783
 30
0.0
 11
41.1754145338
 21
473.4427045783
 31
0.0
  0
SPLINE
  5
FA
330
6E
100
AcDbEntity
  8
$DDT_AUDIT_GENERATED_(E7)
  6
Continuous
 62
     7
100
AcDbSpline
210
0.0
220
0.0
230
1.0
 70
     8
 71
     3
 72
     8
 73
     4
 74
     0
 42
0.0000000059264716
 43
0.0000000001
 40
0.6998738933558671
 40
0.6998738933558671
 40
0.6998738933558671
 40
0.6998738933558671
 40
0.70046654051914
 40
0.70046654051914
 40
0.70046654051914
 40
0.70046654051914
 10
61.61921658379072
 20
473.7686619245368
 30
0.0
 10
61.6192176395985
 20
473.7686521213725
 30
0.0
 10
61.61921308646443
 20
473.7686423135112
 30
0.0
 10
61.61920292452258
 20
473.7686325009684
 30
0.0
  0
SPLINE
  5
FB
330
6E
100
AcDbEntity
  8
$DDT_AUDIT_GENERATED_(E7)
  6
Continuous
 62
     7
100
AcDbSpline
210
0.0
220
0.0
230
1.0
 70
     8
 71
     3
 72
     8
 73
     4
 74
     0
 42
0.0000000060693643
 43
0.0000000001
 40
0.2992260432295199
 40
0.2992260432295199
 40
0.2992260432295199
 40
0.2992260432295199
 40
0.2998329796563142
 40
0.2998329796563142
 40
0.2998329796563142
 40
0.2998329796563142
 10
6.430852514067751
 20
473.7686320639619
 30
0.0
 10
6.430841965575338
 20
473.7686421271397
 30
0.0
 10
6.430837317379059
 20
473.76865218516
 30
0.0
 10
6.430838568785513
 20
473.7686622380069
 30
0.0
  0
ARC
  5
FC
330
6E
100
AcDbEntity
  8
$DDT_AUDIT_GENERATED_(E7)
  6
Continuous
 62
     7
100
AcDbCircle
 10
107.9822017012
 20
539.6183613637
 30
0.0
 40
78.23998799227537
100
AcDbArc
 50
177.3594462295
 51
180.1966560506
  0
ARC
  5
FD
330
6E
100
AcDbEntity
  8
$DDT_AUDIT_GENERATED_(E7)
  6
Continuous
 62
     7
100
AcDbCircle
 10
33.2340828677
 20
548.0147526148
 30
0.0
 40
2.803900997579346
100
AcDbArc
 50
106.529019978
 51
170.0906666697
  0
ARC
  5
FE
330
6E
100
AcDbEntity
  8
$DDT_AUDIT_GENERATED_(E7)
  6
Continuous
 62
     7
100
AcDbCircle
 10
34.0245569106
 20
541.8079214695
 30
0.0
 40
9.03545094122099
100
AcDbArc
 50
89.9970051524
 51
100.2090165788
  0
ARC
  5
FF
330
6E
100
AcDbEntity
  8
$DDT_AUDIT_GENERATED_(E7)
  6
Continuous
 62
     7
100
AcDbCircle
 10
77.8071343224
 20
540.0180304365
 30
0.0
 40
48.08858588516107
100
AcDbArc
 50
169.8530044172
 51
176.2374723085
  0
ARC
  5
100
330
6E
100
AcDbEntity
  8
$DDT_AUDIT_GENERATED_(E7)
  6
Continuous
 62
     7
100
AcDbCircle
 10
24.026707761
 20
519.5925685678
 30
0.0
 40
5.454017564341771
100
AcDbArc
 50
328.4109680658
 51
337.5069953629
  0
SPLINE
  5
101
330
6E
100
AcDbEntity
  8
$DDT_AUDIT_GENERATED_(E7)
  6
Continuous
 62
     7
100
AcDbSpline
210
0.0
220
0.0
230
1.0
 70
     8
 71
     3
 72
    96
 73
    92
 74
     0
 42
0.0000000002004724
 43
0.0000000001
 40
0.0
 40
0.0
 40
0.0
 40
0.0
 40
0.0093967645277129
 40
0.0183427542397328
 40
0.0259999565325478
 40
0.0323963050861702
 40
0.0373768305961309
 40
0.0454993225516858
 40
0.055395076812509
 40
0.0663791839634204
 40
0.0777382449190238
 40
0.0894664101859889
 40
0.1015511067083336
 40
0.1218402158594876
 40
0.1438494073722618
 40
0.1675422076266083
 40
0.1894869575050976
 40
0.209293250006669
 40
0.2270365212841969
 40
0.2449964971397862
 40
0.2535307758097485
 40
0.2621981452413832
 40
0.2698002785611143
 40
0.2761026367873529
 40
0.281960506264521
 40
0.2896224666415212
 40
0.2992104294586757
 40
0.3145445916895956
 40
0.3278894622147029
 40
0.3396392782219696
 40
0.3515114852119045
 40
0.3635876385177817
 40
0.3755113083547104
 40
0.386834497410913
 40
0.3992402998395962
 40
0.4128439677970921
 40
0.4273755807164218
 40
0.4406623850152877
 40
0.4510896607588332
 40
0.46035361189899
 40
0.4691603678210481
 40
0.4780227948865766
 40
0.4895136149340852
 40
0.5034582567159442
 40
0.5171259638202352
 40
0.5298944999467138
 40
0.5418920466482544
 40
0.5538878985875856
 40
0.565609181461154
 40
0.5763794531627399
 40
0.5887194925382946
 40
0.6011489697083013
 40
0.614477004979808
 40
0.6293457815130964
 40
0.6459081823211472
 40
0.6622127316608669
 40
0.6769808055789508
 40
0.6905488398257584
 40
0.7047663169615882
 40
0.7241362606495708
 40
0.7438506400036402
 40
0.7515842826932791
 40
0.7590180133490497
 40
0.7651029096887554
 40
0.7697495093468288
 40
0.7753770083045984
 40
0.7824119599089002
 40
0.7910197184296871
 40
0.8011952111768684
 40
0.8128462093013437
 40
0.8253994362675288
 40
0.8422704254763328
 40
0.8603860179624476
 40
0.8797249215593137
 40
0.891682252177316
 40
0.9040514895605009
 40
0.9158209836641117
 40
0.9255639198971428
 40
0.9296747212356918
 40
0.9332793181667186
 40
0.9363782606010941
 40
0.9389720886573806
 40
0.9410613146465948
 40
0.942646428528858
 40
0.9443648913757874
 40
0.9476434867124236
 40
0.9540504328333789
 40
0.9629952045086205
 40
0.9744650690119546
 40
0.9884416781337961
 40
1.0
 40
1.0
 40
1.0
 40
1.0
 10
28.76792784413979
 20
516.8963935831958
 30
0.0
 10
28.74037090363045
 20
516.8470261881897
 30
0.0
 10
28.69454877687481
 20
516.7649398646199
 30
0.0
 10
28.60722234683152
 20
516.6220062741663
 30
0.0
 10
28.52320761717304
 20
516.4834722682214
 30
0.0
 10
28.44897654946484
 20
516.3585441077128
 30
0.0
 10
28.34922742104453
 20
516.1894305807583
 30
0.0
 10
28.24971686674541
 20
516.0214482906044
 30
0.0
 10
28.14561326647793
 20
515.8465946560462
 30
0.0
 10
28.03487592314236
 20
515.6664802821044
 30
0.0
 10
27.90966090237211
 20
515.4794732102146
 30
0.0
 10
27.77520605899046
 20
515.291909557462
 30
0.0
 10
27.60198309588021
 20
515.0624493938365
 30
0.0
 10
27.36788732585133
 20
514.7669951811083
 30
0.0
 10
27.04482972788669
 20
514.3869547578157
 30
0.0
 10
26.66843858515997
 20
513.9706373525224
 30
0.0
 10
26.26348068847066
 20
513.5443067477019
 30
0.0
 10
25.86314608889839
 20
513.1382822727468
 30
0.0
 10
25.46409107909333
 20
512.7443043988279
 30
0.0
 10
25.12639740670772
 20
512.4177962187821
 30
0.0
 10
24.84589614382289
 20
512.149653775297
 30
0.0
 10
24.64367934620143
 20
511.9574572908649
 30
0.0
 10
24.44945161613504
 20
511.7733657226977
 30
0.0
 10
24.26951333386661
 20
511.6029494080792
 30
0.0
 10
24.07593445332898
 20
511.4190122539881
 30
0.0
 10
23.84280121946616
 20
511.1958647700667
 30
0.0
 10
23.506123224943
 20
510.8682943236669
 30
0.0
 10
23.10385010631272
 20
510.467798100648
 30
0.0
 10
22.67775405495023
 20
510.0346953682894
 30
0.0
 10
22.29177320006929
 20
509.6345216222
 30
0.0
 10
21.92061885582708
 20
509.2425348562759
 30
0.0
 10
21.54858760423748
 20
508.8427220398574
 30
0.0
 10
21.18180439146019
 20
508.4419084351377
 30
0.0
 10
20.81255985463432
 20
508.0322132659889
 30
0.0
 10
20.42447937360554
 20
507.5944504939274
 30
0.0
 10
20.00083797775303
 20
507.1069492232437
 30
0.0
 10
19.5673199248864
 20
506.6029824857085
 30
0.0
 10
19.15981301244617
 20
506.1237610689961
 30
0.0
 10
18.80213752878212
 20
505.6952275039437
 30
0.0
 10
18.48686424222914
 20
505.3113250324719
 30
0.0
 10
18.18896955147249
 20
504.9433540520798
 30
0.0
 10
17.86583676542846
 20
504.5387282180548
 30
0.0
 10
17.48301277278912
 20
504.0512707361628
 30
0.0
 10
17.04553986368774
 20
503.4815888395907
 30
0.0
 10
16.59352952919106
 20
502.8776920479874
 30
0.0
 10
16.16291499537103
 20
502.2873910264458
 30
0.0
 10
15.75166373978665
 20
501.7092925918345
 30
0.0
 10
15.35375247161222
 20
501.1355778468013
 30
0.0
 10
14.97201130306067
 20
500.5702983732216
 30
0.0
 10
14.59013892129288
 20
499.9896507035076
 30
0.0
 10
14.20483944939589
 20
499.3879765948671
 30
0.0
 10
13.79343403185274
 20
498.7270580158272
 30
0.0
 10
13.35815766044889
 20
498.0046503319281
 30
0.0
 10
12.88588529024762
 20
497.1893421242049
 30
0.0
 10
12.39663622579529
 20
496.296838586853
 30
0.0
 10
11.92828506271192
 20
495.385260953577
 30
0.0
 10
11.5089419590297
 20
494.5147459060312
 30
0.0
 10
11.12751383243007
 20
493.6708362977563
 30
0.0
 10
10.72571622973285
 20
492.7255457834603
 30
0.0
 10
10.29737893668123
 20
491.6433766812441
 30
0.0
 10
9.945116783193042
 20
490.6803931828857
 30
0.0
 10
9.694886753423484
 20
489.9572328817629
 30
0.0
 10
9.546468483426017
 20
489.5147753800246
 30
0.0
 10
9.422597027874659
 20
489.1350731259581
 30
0.0
 10
9.313194417185096
 20
488.7921954074085
 30
0.0
 10
9.199879598563262
 20
488.4294103097963
 30
0.0
 10
9.064170227757879
 20
487.9833692341822
 30
0.0
 10
8.90422653183085
 20
487.4402975712296
 30
0.0
 10
8.722183049983927
 20
486.79743293763
 30
0.0
 10
8.524751979641719
 20
486.067496855734
 30
0.0
 10
8.299321660499862
 20
485.1897827227627
 30
0.0
 10
8.053002700387834
 20
484.1667176201637
 30
0.0
 10
7.791047292553401
 20
482.9889056134589
 30
0.0
 10
7.57141130844146
 20
481.9102729269686
 30
0.0
 10
7.390835917639227
 20
480.9526930692307
 30
0.0
 10
7.250207867046776
 20
480.158632310201
 30
0.0
 10
7.126269685979278
 20
479.4114085686671
 30
0.0
 10
7.037963563258254
 20
478.8453176063292
 30
0.0
 10
6.980166675484532
 20
478.4592614721241
 30
0.0
 10
6.945179698845942
 20
478.220010558424
 30
0.0
 10
6.915707073951519
 20
478.0142407197486
 30
0.0
 10
6.891467628942022
 20
477.8419518275323
 30
0.0
 10
6.872226849238571
 20
477.7031381993926
 30
0.0
 10
6.855862675747587
 20
477.583674598194
 30
0.0
 10
6.836098772549919
 20
477.437837183129
 30
0.0
 10
6.802401818228144
 20
477.1850793917477
 30
0.0
 10
6.749098725968204
 20
476.7720539568426
 30
0.0
 10
6.676152404413049
 20
476.1760464324283
 30
0.0
 10
6.590065476501837
 20
475.4164576851009
 30
0.0
 10
6.50306648851328
 20
474.576509246524
 30
0.0
 10
6.457052238987848
 20
474.0505697438041
 30
0.0
 10
6.43259303808099
 20
473.7687473773676
 30
0.0
  0
ARC
  5
102
330
6E
100
AcDbEntity
  8
$DDT_AUDIT_GENERATED_(E7)
  6
Continuous
 62
     7
100
AcDbCircle
 10
-138.1052392425
 20
532.6041742002
 30
0.0
 40
167.983760644398
100
AcDbArc
 50
354.5080978818
 51
2.3026357155
  0
ARC
  5
103
330
6E
100
AcDbEntity
  8
$DDT_AUDIT_GENERATED_(E7)
  6
Continuous
 62
     7
100
AcDbCircle
 10
-39.9321433184
 20
539.6183613637
 30
0.0
 40
78.23998799227209
100
AcDbArc
 50
359.8033439494
 51
2.6405537705
  0
ARC
  5
104
330
6E
100
AcDbEntity
  8
$DDT_AUDIT_GENERATED_(E7)
  6
Continuous
 62
     7
100
AcDbCircle
 10
34.8068726724
 20
548.0066450827
 30
0.0
 40
2.814270582335526
100
AcDbArc
 50
10.0400398331
 51
73.3402735192
  0
ARC
  5
105
330
6E
100
AcDbEntity
  8
$DDT_AUDIT_GENERATED_(E7)
  6
Continuous
 62
     7
100
AcDbCircle
 10
34.0255014721
 20
541.8079214701
 30
0.0
 40
9.035450940711883
100
AcDbArc
 50
79.7909832713
 51
90.0029948477
  0
ARC
  5
106
330
6E
100
AcDbEntity
  8
$DDT_AUDIT_GENERATED_(E7)
  6
Continuous
 62
     7
100
AcDbCircle
 10
-9.778893214
 20
540.0156805321
 30
0.0
 40
48.11051034536644
100
AcDbArc
 50
3.7636148015
 51
10.1452089196
  0
ARC
  5
107
330
6E
100
AcDbEntity
  8
$DDT_AUDIT_GENERATED_(E7)
  6
Continuous
 62
     7
100
AcDbCircle
 10
44.0233506217
 20
519.5925685678
 30
0.0
 40
5.454017564342254
100
AcDbArc
 50
202.4717459444
 51
211.5890319342
  0
ARC
  5
108
330
6E
100
AcDbEntity
  8
$DDT_AUDIT_GENERATED_(E7)
  6
Continuous
 62
     7
100
AcDbCircle
 10
199.4328325843
 20
532.4149815645
 30
0.0
 40
161.2750610480168
100
AcDbArc
 50
177.5339565255
 51
185.6542279386
  0
SPLINE
  5
109
330
6E
100
AcDbEntity
  8
$DDT_AUDIT_GENERATED_(E7)
  6
Continuous
 62
     7
100
AcDbSpline
210
0.0
220
0.0
230
1.0
 70
     8
 71
     3
 72
   105
 73
   101
 74
     0
 42
0.0000000002004632
 43
0.0000000001
 40
0.0
 40
0.0
 40
0.0
 40
0.0
 40
0.0099823053493636
 40
0.0228741113688713
 40
0.0337481862864333
 40
0.0425901450898161
 40
0.0493894403048425
 40
0.0540719421520336
 40
0.0567725768328928
 40
0.0583656823298479
 40
0.0605363545582221
 40
0.0659554198761055
 40
0.0733559739648604
 40
0.0827426130786714
 40
0.0941237914522101
 40
0.1158069656856611
 40
0.1362008475405535
 40
0.1552729967186688
 40
0.1729968692895031
 40
0.1879316500976365
 40
0.2015091996002112
 40
0.2129442412611905
 40
0.2221637827843893
 40
0.2291774695238201
 40
0.2340643935399585
 40
0.2407705599730985
 40
0.2491475963116775
 40
0.257847455316496
 40
0.2665555294186746
 40
0.2752718285457678
 40
0.2839847249312859
 40
0.2924829413541989
 40
0.3069776383880937
 40
0.3206477032714423
 40
0.335279231685583
 40
0.3514720823420925
 40
0.3680795772003896
 40
0.3828147827971224
 40
0.3960145312960941
 40
0.408278341231549
 40
0.4200804196373894
 40
0.4333864967209915
 40
0.4482078371447337
 40
0.4640178646235506
 40
0.4808834593177758
 40
0.5000906851677881
 40
0.5180786821376524
 40
0.5336067505376795
 40
0.5470366916129847
 40
0.5587638286365789
 40
0.5679015491215884
 40
0.5780789242046797
 40
0.5893444464992675
 40
0.601935007628722
 40
0.6164064860511996
 40
0.6327665584785194
 40
0.6455101142492323
 40
0.6564499662324778
 40
0.6668018270027833
 40
0.6775898313108608
 40
0.6888263528462455
 40
0.6991670046703465
 40
0.7034617243803911
 40
0.7073256295772496
 40
0.7107569009371557
 40
0.7137671768999042
 40
0.7174729296985796
 40
0.7245244316695645
 40
0.7341272198460185
 40
0.7443146684988299
 40
0.7560822803289973
 40
0.7656840447242984
 40
0.7731303290707774
 40
0.7784132231060958
 40
0.7815698219234096
 40
0.7834013271544445
 40
0.7864834899948562
 40
0.7909789282021831
 40
0.7968907888842032
 40
0.8042170853751097
 40
0.8129547810818765
 40
0.8244109715958552
 40
0.8376393368490013
 40
0.8510148885418957
 40
0.8636831444566455
 40
0.8756560734935003
 40
0.8902677056601576
 40
0.9036797426126799
 40
0.9162784668091825
 40
0.9254576003410292
 40
0.9342081839795869
 40
0.9425420626649679
 40
0.9502867263482143
 40
0.9571070574106684
 40
0.9628828433666811
 40
0.9686186542058972
 40
0.9761092874186068
 40
0.9851178604489952
 40
0.9959182771400054
 40
1.0
 40
1.0
 40
1.0
 40
1.0
 10
61.61762952453266
 20
473.7693294789672
 30
0.0
 10
61.5965779396255
 20
474.0127573463791
 30
0.0
 10
61.55550551250959
 20
474.4843516730925
 30
0.0
 10
61.47749942006684
 20
475.2508257976887
 30
0.0
 10
61.39769812719845
 20
475.9710639873609
 30
0.0
 10
61.32723319444322
 20
476.5605600017418
 30
0.0
 10
61.27029627864325
 20
477.0113532963588
 30
0.0
 10
61.22899002903668
 20
477.3258499156757
 30
0.0
 10
61.20221480878823
 20
477.5247877809861
 30
0.0
 10
61.18266384719647
 20
477.6680312683961
 30
0.0
 10
61.15456119370521
 20
477.8714461401075
 30
0.0
 10
61.10758795379416
 20
478.2033477043894
 30
0.0
 10
61.03523291476126
 20
478.6946618923439
 30
0.0
 10
60.93881937416702
 20
479.3172131798666
 30
0.0
 10
60.78484897299893
 20
480.2538640848633
 30
0.0
 10
60.57350968588476
 20
481.4295454765126
 30
0.0
 10
60.30641071649652
 20
482.7663422627555
 30
0.0
 10
60.03395728180582
 20
484.0079283685473
 30
0.0
 10
59.76800346728208
 20
485.1224123682262
 30
0.0
 10
59.51456108627021
 20
486.1108063585748
 30
0.0
 10
59.28359490339182
 20
486.958347158145
 30
0.0
 10
59.07620403448027
 20
487.6804556718019
 30
0.0
 10
58.90198375395615
 20
488.2614740630406
 30
0.0
 10
58.76471494971006
 20
488.7040917794467
 30
0.0
 10
58.64067749838099
 20
489.0942874235814
 30
0.0
 10
58.50469754537798
 20
489.5119122159507
 30
0.0
 10
58.33839004320501
 20
490.0070625356208
 30
0.0
 10
58.15254717943431
 20
490.5413591454534
 30
0.0
 10
57.95845086717172
 20
491.0799320375423
 30
0.0
 10
57.75834929304676
 20
491.6158530384369
 30
0.0
 10
57.55393565215854
 20
492.1443872379975
 30
0.0
 10
57.29653263524758
 20
492.7868509678516
 30
0.0
 10
56.98688071535304
 20
493.5233575548441
 30
0.0
 10
56.60644720631785
 20
494.3740783469486
 30
0.0
 10
56.19149552068652
 20
495.244444250375
 30
0.0
 10
55.72843327204011
 20
496.1547943690786
 30
0.0
 10
55.24405192362461
 20
497.0471076833365
 30
0.0
 10
54.77581575217533
 20
497.8621040292703
 30
0.0
 10
54.34584381196745
 20
498.5808229874283
 30
0.0
 10
53.94357246535382
 20
499.2315360348641
 30
0.0
 10
53.53914223491619
 20
499.8676385803449
 30
0.0
 10
53.10218508091202
 20
500.5354560061141
 30
0.0
 10
52.61538083079531
 20
501.2551586023958
 30
0.0
 10
52.08525227669261
 20
502.0126555860074
 30
0.0
 10
51.50337569352415
 20
502.8164897062497
 30
0.0
 10
50.89852480916269
 20
503.6230369874997
 30
0.0
 10
50.30912535824783
 20
504.3826152804764
 30
0.0
 10
49.78683968181971
 20
505.0369216428459
 30
0.0
 10
49.3384774881639
 20
505.586272437373
 30
0.0
 10
48.96548247278352
 20
506.0339952052501
 30
0.0
 10
48.63352553696185
 20
506.4259987341686
 30
0.0
 10
48.30964529611703
 20
506.8042656054865
 30
0.0
 10
47.95270109659891
 20
507.2184006695231
 30
0.0
 10
47.55318272011564
 20
507.6769482218062
 30
0.0
 10
47.09971691102282
 20
508.1866236474476
 30
0.0
 10
46.64828040896791
 20
508.6835824266376
 30
0.0
 10
46.23363619852235
 20
509.1312624434494
 30
0.0
 10
45.86821807329518
 20
509.518973224244
 30
0.0
 10
45.52239865204562
 20
509.8796304384589
 30
0.0
 10
45.18265001613943
 20
510.2279359385615
 30
0.0
 10
44.85160365132391
 20
510.5619165308511
 30
0.0
 10
44.59032270935901
 20
510.8215059838479
 30
0.0
 10
44.40256503689893
 20
511.0056596156131
 30
0.0
 10
44.28416224711199
 20
511.120901400298
 30
0.0
 10
44.1787599997632
 20
511.2227460470314
 30
0.0
 10
44.07132112491871
 20
511.3259532808856
 30
0.0
 10
43.93816120444024
 20
511.4532029616282
 30
0.0
 10
43.75833889107786
 20
511.6239638010875
 30
0.0
 10
43.53641036459553
 20
511.8339411658934
 30
0.0
 10
43.28614723959312
 20
512.0711855176496
 30
0.0
 10
43.0421462143341
 20
512.3038403622156
 30
0.0
 10
42.82507741974543
 20
512.5126237736747
 30
0.0
 10
42.65960164147112
 20
512.6731049990123
 30
0.0
 10
42.53998059973136
 20
512.7900239424547
 30
0.0
 10
42.4613118096819
 20
512.8673608514931
 30
0.0
 10
42.38336228706527
 20
512.9445054952528
 30
0.0
 10
42.30868126239245
 20
513.0184983972488
 30
0.0
 10
42.20384385337699
 20
513.1229371903756
 30
0.0
 10
42.07410220436264
 20
513.2531735859714
 30
0.0
 10
41.91981490563619
 20
513.4096655793097
 30
0.0
 10
41.73566440271434
 20
513.598990400592
 30
0.0
 10
41.52415014799857
 20
513.8206015834116
 30
0.0
 10
41.29908393958609
 20
514.0625606240125
 30
0.0
 10
41.08175173461383
 20
514.3031707516296
 30
0.0
 10
40.88545836351138
 20
514.5278660474104
 30
0.0
 10
40.69661050538651
 20
514.7519164969821
 30
0.0
 10
40.51871980097209
 20
514.9726788398655
 30
0.0
 10
40.35365237498008
 20
515.1862859801621
 30
0.0
 10
40.21637664010716
 20
515.3723595623112
 30
0.0
 10
40.10193538492975
 20
515.5362851689594
 30
0.0
 10
40.00672803848468
 20
515.6808179905389
 30
0.0
 10
39.92072738179853
 20
515.8199813602679
 30
0.0
 10
39.84027942382125
 20
515.9543331922173
 30
0.0
 10
39.76157822174221
 20
516.0868416970881
 30
0.0
 10
39.67645541540137
 20
516.2306998038849
 30
0.0
 10
39.58275273396374
 20
516.3896914675734
 30
0.0
 10
39.49886796928101
 20
516.5299389094588
 30
0.0
 10
39.40305540850743
 20
516.6870971681731
 30
0.0
 10
39.32646398327061
 20
516.8141412326872
 30
0.0
 10
39.29213541691667
 20
516.8786377305802
 30
0.0
 10
39.28116533807606
 20
516.8992736784022
 30
0.0
  0
ARC
  5
10A
330
6E
100
AcDbEntity
  8
$DDT_AUDIT_GENERATED_(E7)
  6
Continuous
 62
     7
100
AcDbCircle
 10
6.7298835416
 20
473.7427046086
 30
0.0
 40
0.3000000302865594
100
AcDbArc
 50
175.0011142617
 51
270.0059245942
  0
ARC
  5
10B
330
6E
100
AcDbEntity
  8
$DDT_AUDIT_GENERATED_(E7)
  6
Continuous
 62
     7
100
AcDbCircle
 10
61.3201751311
 20
473.7427046095
 30
0.0
 40
0.2999998259437056
100
AcDbArc
 50
269.9941861798
 51
5.2531726934
  0
CIRCLE
  5
10D
330
6E
100
AcDbEntity
  8
$DDT_AUDIT_GENERATED_(10C)
  6
Continuous
 62
     7
100
AcDbCircle
 10
34.0250919847
 20
486.4427045783
 30
0.0
 40
4.35
  0
ENDBLK
  5
10F
330
6E
100
AcDbEntity
  8
0
100
AcDbBlockEnd
  0
BLOCK
  5
153
330
110
100
AcDbEntity
  8
0
100
AcDbBlockBegin
  2
SE1
 70
     0
 10
0.0
 20
0.0
 30
0.0
  3
SE1
  1

  0
LINE
  5
112
330
110
100
AcDbEntity
  8
$DDT_AUDIT_GENERATED_(70)
  6
Continuous
 62
     7
100
AcDbLine
 10
126.3120417827
 20
384.2727045783
 30
0.0
 11
149.1757379233
 21
384.2727045783
 31
0.0
  0
LINE
  5
113
330
110
100
AcDbEntity
  8
$DDT_AUDIT_GENERATED_(70)
  6
Continuous
 62
     7
100
AcDbLine
 10
265.7167063422
 20
468.4918535773
 30
0.0
 11
265.7167063422
 21
462.0478707063
 31
0.0
  0
LINE
  5
114
330
110
100
AcDbEntity
  8
$DDT_AUDIT_GENERATED_(70)
  6
Continuous
 62
     7
100
AcDbLine
 10
149.656880091
 20
384.2727045783
 30
0.0
 11
149.1757379233
 21
384.2727045783
 31
0.0
  0
ARC
  5
115
330
110
100
AcDbEntity
  8
$DDT_AUDIT_GENERATED_(70)
  6
Continuous
 62
     7
100
AcDbCircle
 10
648.1329026811
 20
-2231.8421039795
 30
0.0
 40
2729.540195609392
100
AcDbArc
 50
98.0965018533
 51
99.7236477027
  0
SPLINE
  5
116
330
110
100
AcDbEntity
  8
$DDT_AUDIT_GENERATED_(70)
  6
Continuous
 62
     7
100
AcDbSpline
210
0.0
220
0.0
230
1.0
 70
     8
 71
     3
 72
    21
 73
    17
 74
     0
 42
0.000000003058417
 43
0.0000000001
 40
0.0
 40
0.0
 40
0.0
 40
0.0
 40
0.0625
 40
0.125
 40
0.1875
 40
0.25
 40
0.3125
 40
0.375
 40
0.5
 40
0.625
 40
0.6875
 40
0.75
 40
0.8125
 40
0.875
 40
0.9375
 40
1.0
 40
1.0
 40
1.0
 40
1.0
 10
263.7023144878059
 20
470.4907404918233
 30
0.0
 10
263.7702621210954
 20
470.4911111960454
 30
0.0
 10
263.9061752017406
 20
470.4916456984038
 30
0.0
 10
264.1099038936543
 20
470.4817006991404
 30
0.0
 10
264.3121363794373
 20
470.4542183031542
 30
0.0
 10
264.5103868988563
 20
470.4054079510648
 30
0.0
 10
264.7016052338009
 20
470.3337013144697
 30
0.0
 10
264.9433648820663
 20
470.2084924120548
 30
0.0
 10
265.2137622325269
 20
469.9987264942322
 30
0.0
 10
265.4265886201325
 20
469.7306931222404
 30
0.0
 10
265.5540723835845
 20
469.4901096566557
 30
0.0
 10
265.6272920316307
 20
469.29945577111
 30
0.0
 10
265.6773297288507
 20
469.1015016290208
 30
0.0
 10
265.7057955864483
 20
468.8994000539887
 30
0.0
 10
265.7166082580449
 20
468.6957154380589
 30
0.0
 10
265.7167063421753
 20
468.5598022211694
 30
0.0
 10
265.7167063421753
 20
468.4918535772846
 30
0.0
  0
LINE
  5
117
330
110
100
AcDbEntity
  8
$DDT_AUDIT_GENERATED_(70)
  6
Continuous
 62
     7
100
AcDbLine
 10
153.6506008704
 20
384.2727045783
 30
0.0
 11
149.656880091
 21
384.2727045783
 31
0.0
  0
ARC
  5
118
330
110
100
AcDbEntity
  8
$DDT_AUDIT_GENERATED_(70)
  6
Continuous
 62
     7
100
AcDbCircle
 10
195.015995823
 20
399.454383288
 30
0.0
 40
39.38738474431624
100
AcDbArc
 50
133.8374557963
 51
153.6155983817
  0
ARC
  5
119
330
110
100
AcDbEntity
  8
$DDT_AUDIT_GENERATED_(70)
  6
Continuous
 62
     7
100
AcDbCircle
 10
282.5026501411
 20
303.7878122098
 30
0.0
 40
155.5408721253832
100
AcDbArc
 50
101.6661640583
 51
104.1220685164
  0
SPLINE
  5
11A
330
110
100
AcDbEntity
  8
$DDT_AUDIT_GENERATED_(70)
  6
Continuous
 62
     7
100
AcDbSpline
210
0.0
220
0.0
230
1.0
 70
     8
 71
     5
 72
    12
 73
     6
 74
     0
 42
0.0000000025963492
 43
0.0000000001
 40
0.0
 40
0.0
 40
0.0
 40
0.0
 40
0.0
 40
0.0
 40
1.0
 40
1.0
 40
1.0
 40
1.0
 40
1.0
 40
1.0
 10
265.7167063421753
 20
462.0478707063263
 30
0.0
 10
265.7167063421753
 20
461.323568377411
 30
0.0
 10
265.7167063421753
 20
460.5992660484958
 30
0.0
 10
265.2343556429657
 20
459.774187655734
 30
0.0
 10
264.6011275332363
 20
459.4239809171052
 30
0.0
 10
263.9664372004869
 20
459.076444572028
 30
0.0
  0
SPLINE
  5
11B
330
110
100
AcDbEntity
  8
$DDT_AUDIT_GENERATED_(70)
  6
Continuous
 62
     7
100
AcDbSpline
210
0.0
220
0.0
230
1.0
 70
     8
 71
     3
 72
    19
 73
    15
 74
     0
 42
0.0000000007526284
 43
0.0000000001
 40
0.0
 40
0.0
 40
0.0
 40
0.0
 40
0.0313522873894289
 40
0.0631342674815204
 40
0.1258977933994772
 40
0.2505952678048137
 40
0.3758530028775961
 40
0.5002729549262861
 40
0.6255264095992759
 40
0.750142283775436
 40
0.812960295872126
 40
0.8754549837265271
 40
0.9377014188373037
 40
1.0
 40
1.0
 40
1.0
 40
1.0
 10
263.9664372004869
 20
459.076444572028
 30
0.0
 10
263.9703776774903
 20
459.0801158263595
 30
0.0
 10
263.978312636941
 20
459.0875086506876
 30
0.0
 10
263.9294788859156
 20
459.0910460933185
 30
0.0
 10
263.7315193971367
 20
459.0767814484145
 30
0.0
 10
263.1490500962145
 20
458.9659450341983
 30
0.0
 10
262.0240111898088
 20
458.6952544629571
 30
0.0
 10
260.4584009958829
 20
458.3113322070747
 30
0.0
 10
258.4989522644398
 20
457.8308321024659
 30
0.0
 10
256.5943945516232
 20
457.3688827973682
 30
0.0
 10
254.962925553333
 20
456.9794559373859
 30
0.0
 10
253.6919185175696
 20
456.6835955002521
 30
0.0
 10
252.3877889925006
 20
456.3949904712873
 30
0.0
 10
251.4966735081158
 20
456.2086670512186
 30
0.0
 10
251.0508888255299
 20
456.1155825331194
 30
0.0
  0
SPLINE
  5
11C
330
110
100
AcDbEntity
  8
$DDT_AUDIT_GENERATED_(70)
  6
Continuous
 62
     7
100
AcDbSpline
210
0.0
220
0.0
230
1.0
 70
     8
 71
     3
 72
    16
 73
    12
 74
     0
 42
0.000000000142409
 43
0.0000000001
 40
0.0
 40
0.0
 40
0.0
 40
0.0
 40
0.25
 40
0.25
 40
0.5
 40
0.5
 40
0.75
 40
0.75
 40
0.875
 40
0.875
 40
1.0
 40
1.0
 40
1.0
 40
1.0
 10
193.9080660486506
 20
463.1381322926786
 30
0.0
 10
199.7198702082697
 20
463.8406069875868
 30
0.0
 10
205.5250901290001
 20
464.5957871878056
 30
0.0
 10
217.1335483096223
 20
466.1219990727781
 30
0.0
 10
222.9367337334124
 20
466.8933062419546
 30
0.0
 10
234.5563772575512
 20
468.3316226776275
 30
0.0
 10
240.3733940180961
 20
469.001027593268
 30
0.0
 10
249.1087127671482
 20
469.7916679437345
 30
0.0
 10
252.022504682279
 20
470.0192567701373
 30
0.0
 10
257.8565135148539
 20
470.3600064402499
 30
0.0
 10
260.7766399480842
 20
470.4747787893816
 30
0.0
 10
263.7023144878059
 20
470.4907404918233
 30
0.0
  0
SPLINE
  5
11D
330
110
100
AcDbEntity
  8
$DDT_AUDIT_GENERATED_(70)
  6
Continuous
 62
     7
100
AcDbSpline
210
0.0
220
0.0
230
1.0
 70
     8
 71
     3
 72
     8
 73
     4
 74
     0
 42
0.0000000005868701
 43
0.0000000001
 40
0.0
 40
0.0
 40
0.0
 40
0.0
 40
0.0210115315514504
 40
0.0210115315514504
 40
0.0210115315514504
 40
0.0210115315514504
 10
178.3131113584908
 20
468.4928297354081
 30
0.0
 10
178.3131113721481
 20
468.3712676425635
 30
0.0
 10
178.3163594605848
 20
468.2520103617877
 30
0.0
 10
178.3227955456321
 20
468.1350239419198
 30
0.0
  0
SPLINE
  5
11E
330
110
100
AcDbEntity
  8
$DDT_AUDIT_GENERATED_(70)
  6
Continuous
 62
     7
100
AcDbSpline
210
0.0
220
0.0
230
1.0
 70
     8
 71
     3
 72
     8
 73
     4
 74
     0
 42
0.0000000004709852
 43
0.0000000001
 40
0.0252657340089654
 40
0.0252657340089654
 40
0.0252657340089654
 40
0.0252657340089654
 40
1.0
 40
1.0
 40
1.0
 40
1.0
 10
178.3270964539854
 20
468.0642442532417
 30
0.0
 10
178.6854426277577
 20
462.6797866781072
 30
0.0
 10
185.8784131417391
 20
462.1675945597949
 30
0.0
 10
193.9080660486506
 20
463.1381322926786
 30
0.0
  0
LINE
  5
11F
330
110
100
AcDbEntity
  8
$DDT_AUDIT_GENERATED_(70)
  6
Continuous
 62
     7
100
AcDbLine
 10
178.3131113585
 20
468.4928297354
 30
0.0
 11
178.3131113585
 21
472.6923193644
 31
0.0
  0
SPLINE
  5
120
330
110
100
AcDbEntity
  8
$DDT_AUDIT_GENERATED_(70)
  6
Continuous
 62
     7
100
AcDbSpline
210
0.0
220
0.0
230
1.0
 70
     8
 71
     3
 72
    22
 73
    18
 74
     0
 42
0.0000000002656185
 43
0.0000000001
 40
0.0
 40
0.0
 40
0.0
 40
0.0
 40
0.0317458345566946
 40
0.0634608050601762
 40
0.1267185539492039
 40
0.1478332934477818
 40
0.1899975545969879
 40
0.2215894070184209
 40
0.2531439148171756
 40
0.3160564966638793
 40
0.3788178003896778
 40
0.4413536583521228
 40
0.5036262092247332
 40
0.6275324758281936
 40
0.7511511693366162
 40
0.8471574200441709
 40
1.0
 40
1.0
 40
1.0
 40
1.0
 10
154.4631471005983
 20
468.4924117931953
 30
0.0
 10
154.5457814319314
 20
468.1015400034896
 30
0.0
 10
154.7110335537116
 20
467.3201857773741
 30
0.0
 10
155.2015704926355
 20
465.8014570011984
 30
0.0
 10
155.8840379484777
 20
464.4932061096465
 30
0.0
 10
156.8366564991225
 20
463.2207954721096
 30
0.0
 10
157.6396341572937
 20
462.3362314357345
 30
0.0
 10
158.6380067895186
 20
461.4682002902052
 30
0.0
 10
159.9313328970518
 20
460.5560194637973
 30
0.0
 10
161.7037226711477
 20
459.6751994087565
 30
0.0
 10
163.9416177471778
 20
458.9459853474567
 30
0.0
 10
166.2220797756885
 20
458.4215458117772
 30
0.0
 10
169.2818135562024
 20
457.9121680412108
 30
0.0
 10
173.142797863422
 20
457.5526341776684
 30
0.0
 10
177.4538335845823
 20
457.5269468795261
 30
0.0
 10
182.123854443931
 20
457.7977453815079
 30
0.0
 10
185.221412631949
 20
458.2236462411373
 30
0.0
 10
187.1239499119017
 20
458.4850926480324
 30
0.0
  0
ARC
  5
121
330
110
100
AcDbEntity
  8
$DDT_AUDIT_GENERATED_(70)
  6
Continuous
 62
     7
100
AcDbCircle
 10
224.5187278752
 20
388.1389848388
 30
0.0
 40
70.90776100194596
100
AcDbArc
 50
156.0194351684
 51
181.9123864495
  0
LINE
  5
122
330
110
100
AcDbEntity
  8
$DDT_AUDIT_GENERATED_(70)
  6
Continuous
 62
     7
100
AcDbLine
 10
263.9664372005
 20
459.076444572
 30
0.0
 11
261.0459546733
 21
457.5035556115
 31
0.0
  0
SPLINE
  5
123
330
110
100
AcDbEntity
  8
$DDT_AUDIT_GENERATED_(70)
  6
Continuous
 62
     7
100
AcDbSpline
210
0.0
220
0.0
230
1.0
 70
     8
 71
     5
 72
    12
 73
     6
 74
     0
 42
0.0000000003480128
 43
0.0000000001
 40
0.0
 40
0.0
 40
0.0
 40
0.0
 40
0.0
 40
0.0
 40
1.0
 40
1.0
 40
1.0
 40
1.0
 40
1.0
 40
1.0
 10
178.3118427796273
 20
385.7727045808517
 30
0.0
 10
178.3118427796273
 20
391.0556168620179
 30
0.0
 10
178.3118427796273
 20
396.3385291431841
 30
0.0
 10
178.7280472842377
 20
406.6065145140556
 30
0.0
 10
181.0463968055398
 20
409.8020081597005
 30
0.0
 10
183.4945484824343
 20
412.8947531580943
 30
0.0
  0
LINE
  5
124
330
110
100
AcDbEntity
  8
$DDT_AUDIT_GENERATED_(70)
  6
Continuous
 62
     7
100
AcDbLine
 10
178.3118427796
 20
384.2727045783
 30
0.0
 11
153.6506008704
 21
384.2727045783
 31
0.0
  0
LINE
  5
125
330
110
100
AcDbEntity
  8
$DDT_AUDIT_GENERATED_(70)
  6
Continuous
 62
     7
100
AcDbLine
 10
178.3118427796
 20
385.7727045809
 30
0.0
 11
178.3118427796
 21
384.2727045783
 31
0.0
  0
SPLINE
  5
126
330
110
100
AcDbEntity
  8
$DDT_AUDIT_GENERATED_(70)
  6
Continuous
 62
     7
100
AcDbSpline
210
0.0
220
0.0
230
1.0
 70
     8
 71
     3
 72
    35
 73
    31
 74
     0
 42
0.0000000001219112
 43
0.0000000001
 40
0.0
 40
0.0
 40
0.0
 40
0.0
 40
0.0313855805223449
 40
0.0627716299283073
 40
0.1255446818987792
 40
0.1883142348243156
 40
0.2197005063130162
 40
0.2510854535308684
 40
0.3138505391198683
 40
0.3766113001092237
 40
0.4393458775834977
 40
0.4705194972305322
 40
0.501648403522595
 40
0.5639413612965737
 40
0.5950857834470666
 40
0.6262280149899606
 40
0.688513641871428
 40
0.7507730151549908
 40
0.777436079852109
 40
0.8129963024244369
 40
0.8441550883387698
 40
0.8753132485198118
 40
0.8908928858238032
 40
0.9064802054725203
 40
0.9220702430556577
 40
0.9376592908292298
 40
0.9532463298350475
 40
0.9688369024901444
 40
0.984189620928533
 40
1.0
 40
1.0
 40
1.0
 40
1.0
 10
244.5524570981344
 20
454.6279452962121
 30
0.0
 10
243.7236603574008
 20
454.419921416211
 30
0.0
 10
242.0660922598738
 20
454.0037603113498
 30
0.0
 10
238.7514044697547
 20
453.1475337484993
 30
0.0
 10
234.6079250222985
 20
452.0858023994066
 30
0.0
 10
230.4603830877939
 20
451.0545410660965
 30
0.0
 10
227.1402416820517
 20
450.2396183195006
 30
0.0
 10
223.8191558215506
 20
449.4244761327992
 30
0.0
 10
219.6686174009022
 20
448.3891607623895
 30
0.0
 10
214.6981336432441
 20
447.0799975058589
 30
0.0
 10
210.5742070350469
 20
445.9254288163569
 30
0.0
 10
207.2885702307559
 20
444.9788953458111
 30
0.0
 10
204.0172706795705
 20
444.0238358912134
 30
0.0
 10
200.7484342476491
 20
443.0609121752464
 30
0.0
 10
197.4817671472833
 20
442.0867302061334
 30
0.0
 10
194.218306050976
 20
441.0998067333556
 30
0.0
 10
190.1496737094118
 20
439.8276779952004
 30
0.0
 10
186.2294614706212
 20
438.4837342338856
 30
0.0
 10
183.0418381671838
 20
437.2651771904783
 30
0.0
 10
180.6790545594397
 20
436.2767247062092
 30
0.0
 10
178.2472846502217
 20
435.1379605560235
 30
0.0
 10
176.3552799006452
 20
434.1424970801484
 30
0.0
 10
174.8763565840378
 20
433.2842828885657
 30
0.0
 10
173.7860609190477
 20
432.6084505949958
 30
0.0
 10
172.7161959401905
 20
431.900203272266
 30
0.0
 10
171.6684443239735
 20
431.1593995957358
 30
0.0
 10
170.6443368905513
 20
430.3858356246439
 30
0.0
 10
169.6510880112739
 20
429.5829454826713
 30
0.0
 10
168.6781496796244
 20
428.7454630444018
 30
0.0
 10
168.0529033787408
 20
428.1612265917154
 30
0.0
 10
167.735707849901
 20
427.8648032972596
 30
0.0
  0
LINE
  5
127
330
110
100
AcDbEntity
  8
$DDT_AUDIT_GENERATED_(70)
  6
Continuous
 62
     7
100
AcDbLine
 10
178.2729206285
 20
472.8423108328
 30
0.0
 11
177.9262833159
 21
473.4427045783
 31
0.0
  0
ARC
  5
128
330
110
100
AcDbEntity
  8
$DDT_AUDIT_GENERATED_(70)
  6
Continuous
 62
     7
100
AcDbCircle
 10
126.613436742
 20
472.6919460751
 30
0.0
 40
0.3013951909576492
100
AcDbArc
 50
150.0710464454
 51
179.9289463502
  0
ARC
  5
129
330
110
100
AcDbEntity
  8
$DDT_AUDIT_GENERATED_(70)
  6
Continuous
 62
     7
100
AcDbCircle
 10
178.0116471722
 20
472.6919210432
 30
0.0
 40
0.3014644494085991
100
AcDbArc
 50
0.0757042176
 51
29.9248537384
  0
LINE
  5
12A
330
110
100
AcDbEntity
  8
$DDT_AUDIT_GENERATED_(70)
  6
Continuous
 62
     7
100
AcDbLine
 10
126.6987525775
 20
473.4427045783
 30
0.0
 11
126.3521487865
 21
472.8423692023
 31
0.0
  0
SPLINE
  5
12B
330
110
100
AcDbEntity
  8
$DDT_AUDIT_GENERATED_(70)
  6
Continuous
 62
     7
100
AcDbSpline
210
0.0
220
0.0
230
1.0
 70
     8
 71
     3
 72
    16
 73
    12
 74
     0
 42
0.0000000001526924
 43
0.0000000001
 40
0.0
 40
0.0
 40
0.0
 40
0.0
 40
0.5000000000000001
 40
0.5000000000000001
 40
0.7500000000000002
 40
0.7500000000000002
 40
0.8750000000000003
 40
0.8750000000000003
 40
0.9375000000000002
 40
0.9375000000000002
 40
1.0
 40
1.0
 40
1.0
 40
1.0
 10
239.1537047282021
 20
446.4962994531537
 30
0.0
 10
229.3530954961384
 20
441.6863072292562
 30
0.0
 10
219.5313369160183
 20
436.9115950387092
 30
0.0
 10
205.0857585581094
 20
429.2025931057947
 30
0.0
 10
200.3064110531855
 20
426.5540353697263
 30
0.0
 10
193.4146424123878
 20
422.1291280494361
 30
0.0
 10
191.1621554456648
 20
420.5794783604165
 30
0.0
 10
188.0226242890419
 20
417.9481107392659
 30
0.0
 10
187.0333977907892
 20
417.0144409215926
 30
0.0
 10
185.196004553844
 20
415.0181324376654
 30
0.0
 10
184.3393470792398
 20
413.9619854948729
 30
0.0
 10
183.4945484824343
 20
412.8947531580943
 30
0.0
  0
SPLINE
  5
12C
330
110
100
AcDbEntity
  8
$DDT_AUDIT_GENERATED_(70)
  6
Continuous
 62
     7
100
AcDbSpline
210
0.0
220
0.0
230
1.0
 70
     8
 71
     3
 72
    24
 73
    20
 74
     0
 42
0.0000000004020505
 43
0.0000000001
 40
0.0
 40
0.0
 40
0.0
 40
0.0
 40
0.1250000000000001
 40
0.1250000000000001
 40
0.2500000000000002
 40
0.2500000000000002
 40
0.3750000000000003
 40
0.3750000000000003
 40
0.4375000000000002
 40
0.4375000000000002
 40
0.5
 40
0.5
 40
0.625
 40
0.625
 40
0.75
 40
0.75
 40
0.875
 40
0.875
 40
1.0
 40
1.0
 40
1.0
 40
1.0
 10
239.1537047282021
 20
446.4962994531537
 30
0.0
 10
239.1536334612616
 20
446.4964475349105
 30
0.0
 10
239.3883950710329
 20
446.7557453593489
 30
0.0
 10
240.3043616188673
 20
447.6774717538846
 30
0.0
 10
240.9866475378916
 20
448.3412393004626
 30
0.0
 10
242.7452552309622
 20
449.8240941384446
 30
0.0
 10
243.8445242468898
 20
450.6548029968821
 30
0.0
 10
245.728864004026
 20
451.8241949814089
 30
0.0
 10
246.4095125917136
 20
452.2099155999409
 30
0.0
 10
247.8168278691263
 20
452.9297859696355
 30
0.0
 10
248.5414421637734
 20
453.2631509004156
 30
0.0
 10
250.7713191777004
 20
454.1980063477383
 30
0.0
 10
252.2906170881902
 20
454.734819873195
 30
0.0
 10
255.1366555814218
 20
455.7089559463125
 30
0.0
 10
256.4347128868255
 20
456.126292563973
 30
0.0
 10
258.6267941703387
 20
456.8181129443029
 30
0.0
 10
259.5129916987465
 20
457.0868392501323
 30
0.0
 10
260.7182634326983
 20
457.4283060664948
 30
0.0
 10
261.0459108298468
 20
457.5036467114284
 30
0.0
 10
261.045954673274
 20
457.503555611516
 30
0.0
  0
LINE
  5
12D
330
110
100
AcDbEntity
  8
$DDT_AUDIT_GENERATED_(70)
  6
Continuous
 62
     7
100
AcDbLine
 10
126.3120417827
 20
472.6923197783
 30
0.0
 11
126.3120417827
 21
384.2727045783
 31
0.0
  0
LINE
  5
12E
330
110
100
AcDbEntity
  8
$DDT_AUDIT_GENERATED_(70)
  6
Continuous
 62
     7
100
AcDbLine
 10
178.3441525534
 20
468.1362441491
 30
0.0
 11
178.3130907518
 21
468.4928297354
 31
0.0
  0
LINE
  5
12F
330
110
100
AcDbEntity
  8
$DDT_AUDIT_GENERATED_(70)
  6
Continuous
 62
     7
100
AcDbLine
 10
178.3502871471
 20
468.0658197903
 30
0.0
 11
178.3130907518
 21
468.4928297354
 31
0.0
  0
LINE
  5
130
330
110
100
AcDbEntity
  8
02636038_GEHÄUSE
  6
Continuous
 62
     7
100
AcDbLine
 10
242.7867814797
 20
442.4062618165
 30
0.0
 11
262.1599374381
 21
451.7299321351
 31
0.0
  0
SPLINE
  5
131
330
110
100
AcDbEntity
  8
02636038_GEHÄUSE
  6
Continuous
 62
     7
100
AcDbSpline
210
0.0
220
0.0
230
1.0
 70
     8
 71
     3
 72
    10
 73
     6
 74
     0
 42
0.0000000019260148
 43
0.0000000001
 40
0.0
 40
0.0
 40
0.0
 40
0.0
 40
0.5
 40
0.5
 40
1.0
 40
1.0
 40
1.0
 40
1.0
 10
254.6662930123165
 20
448.4758880695118
 30
0.0
 10
253.9389473643577
 20
447.9994161604751
 30
0.0
 10
253.1878427451618
 20
447.5721491699687
 30
0.0
 10
251.6340923350932
 20
446.8243571487826
 30
0.0
 10
250.8314458499394
 20
446.5038335559616
 30
0.0
 10
250.0050153973302
 20
446.2325666489328
 30
0.0
  0
LINE
  5
132
330
110
100
AcDbEntity
  8
02636038_GEHÄUSE
  6
Continuous
 62
     7
100
AcDbLine
 10
255.0207301522
 20
451.6234128321
 30
0.0
 11
247.324034258
 21
447.9192432474
 31
0.0
  0
LINE
  5
133
330
110
100
AcDbEntity
  8
02636038_GEHÄUSE
  6
Continuous
 62
     7
100
AcDbLine
 10
255.0207301522
 20
451.6234128321
 30
0.0
 11
255.8084423681
 21
449.9866677428
 31
0.0
  0
SPLINE
  5
134
330
110
100
AcDbEntity
  8
02636038_GEHÄUSE
  6
Continuous
 62
     7
100
AcDbSpline
210
0.0
220
0.0
230
1.0
 70
     8
 71
     3
 72
    14
 73
    10
 74
     0
 42
0.0000000049321089
 43
0.0000000001
 40
0.0
 40
0.0
 40
0.0
 40
0.0
 40
0.1250000000000004
 40
0.1250000000000004
 40
0.2500000000000009
 40
0.2500000000000009
 40
0.5000000000000008
 40
0.5000000000000008
 40
1.0
 40
1.0
 40
1.0
 40
1.0
 10
255.808442368094
 20
449.9866677427918
 30
0.0
 10
255.8449743726705
 20
449.9107598440838
 30
0.0
 10
255.8525083088965
 20
449.8210115845027
 30
0.0
 10
255.826551727965
 20
449.65404005508
 30
0.0
 10
255.7952621267393
 20
449.573487093402
 30
0.0
 10
255.6785002338583
 20
449.3495819670239
 30
0.0
 10
255.5689068864065
 20
449.2175945021984
 30
0.0
 10
255.2190274601004
 20
448.8590230374625
 30
0.0
 10
254.9462493452489
 20
448.6592827578193
 30
0.0
 10
254.6662930123165
 20
448.4758880695118
 30
0.0
  0
SPLINE
  5
135
330
110
100
AcDbEntity
  8
02636038_GEHÄUSE
  6
Continuous
 62
     7
100
AcDbSpline
210
0.0
220
0.0
230
1.0
 70
     8
 71
     3
 72
    18
 73
    14
 74
     0
 42
0.0000000049401632
 43
0.0000000001
 40
0.0
 40
0.0
 40
0.0
 40
0.0
 40
0.2499999999999998
 40
0.2499999999999998
 40
0.4999999999999997
 40
0.4999999999999997
 40
0.6249999999999992
 40
0.6249999999999992
 40
0.7499999999999989
 40
0.7499999999999989
 40
0.8749999999999994
 40
0.8749999999999994
 40
1.0
 40
1.0
 40
1.0
 40
1.0
 10
250.0050153973302
 20
446.2325666489328
 30
0.0
 10
249.8455468914159
 20
446.1802228271006
 30
0.0
 10
249.6846302894201
 20
446.1328254485152
 30
0.0
 10
249.3580793326998
 20
446.0541457105232
 30
0.0
 10
249.1925673154605
 20
446.0227133650342
 30
0.0
 10
248.9431247700155
 20
445.9980280481366
 30
0.0
 10
248.8596393845312
 20
445.9935494622174
 30
0.0
 10
248.6916430230329
 20
445.9959748042128
 30
0.0
 10
248.6066439434547
 20
446.0029390869871
 30
0.0
 10
248.4423877311664
 20
446.0351978732031
 30
0.0
 10
248.360980434887
 20
446.0605077549986
 30
0.0
 10
248.2132601860183
 20
446.1449603818746
 30
0.0
 10
248.1489331667712
 20
446.2052299175756
 30
0.0
 10
248.1117464738833
 20
446.2824981581155
 30
0.0
  0
LINE
  5
136
330
110
100
AcDbEntity
  8
02636038_GEHÄUSE
  6
Continuous
 62
     7
100
AcDbLine
 10
248.1117464739
 20
446.2824981581
 30
0.0
 11
247.324034258
 21
447.9192432474
 31
0.0
  0
LINE
  5
137
330
110
100
AcDbEntity
  8
02636038_GEHÄUSE
  6
Continuous
 62
     7
100
AcDbLine
 10
242.1534838639
 20
442.4538797034
 30
0.0
 11
242.7867814797
 21
442.4062618165
 31
0.0
  0
LINE
  5
138
330
110
100
AcDbEntity
  8
02636038_GEHÄUSE
  6
Continuous
 62
     7
100
AcDbLine
 10
262.1599374381
 20
451.7299321351
 30
0.0
 11
262.5178245458
 21
452.2545750151
 31
0.0
  0
ARC
  5
139
330
110
100
AcDbEntity
  8
02636038_GEHÄUSE
  6
Continuous
 62
     7
100
AcDbCircle
 10
242.2284625907
 20
443.4510648369
 30
0.0
 40
0.9999999999999911
100
AcDbArc
 50
205.7
 51
265.7
  0
ARC
  5
13A
330
110
100
AcDbEntity
  8
02636038_GEHÄUSE
  6
Continuous
 62
     7
100
AcDbCircle
 10
261.6917262513
 20
452.818101064
 30
0.0
 40
1.000000000000007
100
AcDbArc
 50
325.7
 51
25.7
  0
LINE
  5
13B
330
110
100
AcDbEntity
  8
02636038_GEHÄUSE
  6
Continuous
 62
     7
100
AcDbLine
 10
239.4849584555
 20
446.8456865259
 30
0.0
 11
241.3273855694
 21
443.0174057523
 31
0.0
  0
LINE
  5
13C
330
110
100
AcDbEntity
  8
02636038_GEHÄUSE
  6
Continuous
 62
     7
100
AcDbLine
 10
262.5928032726
 20
453.2517601486
 30
0.0
 11
260.6013855711
 21
457.3896204966
 31
0.0
  0
LINE
  5
13D
330
110
100
AcDbEntity
  8
$DDT_AUDIT_GENERATED_(AD)
  6
Continuous
 62
     7
100
AcDbLine
 10
244.5371299008
 20
442.804734406
 30
0.0
 11
260.7565162846
 21
450.6105979285
 31
0.0
  0
LINE
  5
13E
330
110
100
AcDbEntity
  8
$DDT_AUDIT_GENERATED_(AD)
  6
Continuous
 62
     7
100
AcDbLine
 10
244.363666267
 20
443.1651652145
 30
0.0
 11
244.5371299008
 21
442.804734406
 31
0.0
  0
LINE
  5
13F
330
110
100
AcDbEntity
  8
$DDT_AUDIT_GENERATED_(AD)
  6
Continuous
 62
     7
100
AcDbLine
 10
260.7565162846
 20
450.6105979285
 30
0.0
 11
260.5830526508
 21
450.9710287371
 31
0.0
  0
ARC
  5
140
330
110
100
AcDbEntity
  8
$DDT_AUDIT_GENERATED_(E7)
  6
Continuous
 62
     7
100
AcDbCircle
 10
249.9578007805
 20
550.4584775858
 30
0.0
 40
25.07582087541279
100
AcDbArc
 50
318.2185017133
 51
327.5707652589
  0
ARC
  5
141
330
110
100
AcDbEntity
  8
$DDT_AUDIT_GENERATED_(E7)
  6
Continuous
 62
     7
100
AcDbCircle
 10
288.5714782507
 20
519.3922921799
 30
0.0
 40
43.08848281058155
100
AcDbArc
 50
138.4329256311
 51
143.8756515682
  0
SPLINE
  5
142
330
110
100
AcDbEntity
  8
$DDT_AUDIT_GENERATED_(E7)
  6
Continuous
 62
     7
100
AcDbSpline
210
0.0
220
0.0
230
1.0
 70
     8
 71
     3
 72
    27
 73
    23
 74
     0
 42
0.0000000003718235
 43
0.0000000001
 40
0.0
 40
0.0
 40
0.0
 40
0.0
 40
0.0308776607097604
 40
0.0830037292757219
 40
0.1351297978416834
 40
0.1872558664076449
 40
0.2393819349736064
 40
0.291508003539564
 40
0.3436340721055255
 40
0.395760140671487
 40
0.4478862092374483
 40
0.5000122778034098
 40
0.5521383463693713
 40
0.604264414935329
 40
0.6563904835012904
 40
0.7085165520672527
 40
0.7606426206332133
 40
0.8127686891991741
 40
0.8648947577651351
 40
0.9170208263310958
 40
0.9691468948970565
 40
1.0
 40
1.0
 40
1.0
 40
1.0
 10
256.3335587564983
 20
547.9813442384334
 30
0.0
 10
256.5248217220717
 20
548.1811726320685
 30
0.0
 10
257.0629633772621
 20
548.696023080424
 30
0.0
 10
258.0339969395473
 20
549.421614413592
 30
0.0
 10
259.2673941008113
 20
550.0821906777409
 30
0.0
 10
260.5884664204473
 20
550.5515410623723
 30
0.0
 10
261.9692698787943
 20
550.8172299524488
 30
0.0
 10
263.3637001953633
 20
550.8723960828557
 30
0.0
 10
264.7558030193793
 20
550.7184428583513
 30
0.0
 10
266.1161237900013
 20
550.3546388297025
 30
0.0
 10
267.4020447261773
 20
549.7913174458777
 30
0.0
 10
268.5831643332963
 20
549.0462306930305
 30
0.0
 10
269.6465485027033
 20
548.1253859385383
 30
0.0
 10
270.5526744521543
 20
547.0641508168918
 30
0.0
 10
271.2965414347094
 20
545.8671039988312
 30
0.0
 10
271.8473706467803
 20
544.5821532108218
 30
0.0
 10
272.2012647943833
 20
543.2215489168053
 30
0.0
 10
272.3461066825843
 20
541.8313080140088
 30
0.0
 10
272.2801895738064
 20
540.4273419670004
 30
0.0
 10
272.0066497536403
 20
539.0577389237878
 30
0.0
 10
271.5921483723883
 20
537.9187230019227
 30
0.0
 10
271.2587637801043
 20
537.2522059335007
 30
0.0
 10
271.1231580752543
 20
537.0113796401479
 30
0.0
  0
ARC
  5
143
330
110
100
AcDbEntity
  8
$DDT_AUDIT_GENERATED_(E7)
  6
Continuous
 62
     7
100
AcDbCircle
 10
211.6610702406
 20
486.2166059815
 30
0.0
 40
31.56775801003715
100
AcDbArc
 50
163.9530828456
 51
171.8483662068
  0
LINE
  5
144
330
110
100
AcDbEntity
  8
$DDT_AUDIT_GENERATED_(E7)
  6
Continuous
 62
     7
100
AcDbLine
 10
179.9730370084
 20
482.1927045787
 30
0.0
 11
179.939935134
 21
473.742228551
 31
0.0
  0
ARC
  5
145
330
110
100
AcDbEntity
  8
$DDT_AUDIT_GENERATED_(E7)
  6
Continuous
 62
     7
100
AcDbCircle
 10
191.9108039719
 20
486.1095203196
 30
0.0
 40
12.37828735492311
100
AcDbArc
 50
158.2683490345
 51
161.2882223556
  0
ARC
  5
146
330
110
100
AcDbEntity
  8
$DDT_AUDIT_GENERATED_(E7)
  6
Continuous
 62
     7
100
AcDbCircle
 10
193.9934175619
 20
485.7981661933
 30
0.0
 40
14.45552667751282
100
AcDbArc
 50
162.767682353
 51
166.6685769871
  0
SPLINE
  5
147
330
110
100
AcDbEntity
  8
$DDT_AUDIT_GENERATED_(E7)
  6
Continuous
 62
     7
100
AcDbSpline
210
0.0
220
0.0
230
1.0
 70
     8
 71
     3
 72
    10
 73
     6
 74
     0
 42
0.0000000262616879
 43
0.0000000001
 40
0.1744572343500693
 40
0.1744572343500693
 40
0.1744572343500693
 40
0.1744572343500693
 40
0.5
 40
0.5
 40
1.0
 40
1.0
 40
1.0
 40
1.0
 10
179.9129447343403
 20
482.5012482061931
 30
0.0
 10
179.9280361253892
 20
482.4215218613604
 30
0.0
 10
179.9407617064253
 20
482.356176895521
 30
0.0
 10
179.9652784204479
 20
482.2312194435851
 30
0.0
 10
179.9730480549173
 20
482.1927094650515
 30
0.0
 10
179.9730370083532
 20
482.1927045787421
 30
0.0
  0
LINE
  5
148
330
110
100
AcDbEntity
  8
$DDT_AUDIT_GENERATED_(E7)
  6
Continuous
 62
     7
100
AcDbLine
 10
178.6761555275
 20
473.4427045783
 30
0.0
 11
137.7792851292
 21
473.4427045783
 31
0.0
  0
LINE
  5
149
330
110
100
AcDbEntity
  8
$DDT_AUDIT_GENERATED_(E7)
  6
Continuous
 62
     7
100
AcDbLine
 10
137.7792851292
 20
473.4427045783
 30
0.0
 11
129.1391345602
 21
473.4427045783
 31
0.0
  0
LINE
  5
14A
330
110
100
AcDbEntity
  8
$DDT_AUDIT_GENERATED_(E7)
  6
Continuous
 62
     7
100
AcDbLine
 10
179.5938428388
 20
473.4427045783
 30
0.0
 11
178.6761555275
 21
473.4427045783
 31
0.0
  0
LINE
  5
14B
330
110
100
AcDbEntity
  8
$DDT_AUDIT_GENERATED_(E7)
  6
Continuous
 62
     7
100
AcDbLine
 10
129.1391345602
 20
473.4427045783
 30
0.0
 11
124.9983285765
 21
473.4427045783
 31
0.0
  0
ARC
  5
14C
330
110
100
AcDbEntity
  8
$DDT_AUDIT_GENERATED_(E7)
  6
Continuous
 62
     7
100
AcDbCircle
 10
164.3067302522
 20
472.7192027407
 30
0.0
 40
39.62168314851306
100
AcDbArc
 50
145.8824628221
 51
178.5156950754
  0
SPLINE
  5
14D
330
110
100
AcDbEntity
  8
$DDT_AUDIT_GENERATED_(E7)
  6
Continuous
 62
     7
100
AcDbSpline
210
0.0
220
0.0
230
1.0
 70
     8
 71
     3
 72
    60
 73
    56
 74
     0
 42
0.0000000000641806
 43
0.0000000001
 40
0.0
 40
0.0
 40
0.0
 40
0.0
 40
0.0072507887678891
 40
0.0141387748460004
 40
0.0302002097598245
 40
0.0623769676872502
 40
0.0840593324921417
 40
0.1270949037189028
 40
0.1588666002833967
 40
0.174764514432181
 40
0.190658899648621
 40
0.222443739666191
 40
0.2545085808829827
 40
0.2866046141196667
 40
0.3026454599257423
 40
0.3186794109543969
 40
0.3507726042443701
 40
0.3823589673061514
 40
0.3901736089094497
 40
0.3980087920994771
 40
0.4136348450262606
 40
0.4449166441446628
 40
0.4605534500616089
 40
0.4761898308893023
 40
0.491959162439509
 40
0.4983232368070145
 40
0.5078696545284442
 40
0.5316220699580835
 40
0.5494345391194194
 40
0.580275725832631
 40
0.6517378101147117
 40
0.7049627565016764
 40
0.7579192392169437
 40
0.7656357062013467
 40
0.7733483736430736
 40
0.7810545571774503
 40
0.7887676000028128
 40
0.7926187685185482
 40
0.7963669490283128
 40
0.8038753852188398
 40
0.8188919447408555
 40
0.8263954473312614
 40
0.8339035772109913
 40
0.8414132413927832
 40
0.8489174333196083
 40
0.8640407025968313
 40
0.8716360192301007
 40
0.8792284396546926
 40
0.8944095970405435
 40
0.9020088916386093
 40
0.9095269591418964
 40
0.9244862793298478
 40
0.9394493731841116
 40
0.9695787367642439
 40
1.0
 40
1.0
 40
1.0
 40
1.0
 10
128.8846029337849
 20
473.7455005725988
 30
0.0
 10
128.9042515701899
 20
474.1243829855366
 30
0.0
 10
128.9425133724422
 20
474.8631960303058
 30
0.0
 10
129.0897074131991
 20
476.4374956886027
 30
0.0
 10
129.4994198040174
 20
479.2969155475876
 30
0.0
 10
130.3883944147671
 20
482.8628431039035
 30
0.0
 10
132.1034247236524
 20
487.6390569847344
 30
0.0
 10
134.3469738997143
 20
492.1763662993401
 30
0.0
 10
136.9615987115193
 20
496.0985898142073
 30
0.0
 10
139.0045549987411
 20
498.6559524932107
 30
0.0
 10
141.1833202093208
 20
501.0676703410313
 30
0.0
 10
144.1664931098405
 20
503.775662437269
 30
0.0
 10
148.0817758379628
 20
506.5861345308546
 30
0.0
 10
151.5675881656653
 20
508.5929190182812
 30
0.0
 10
154.4550554579961
 20
510.0202391984985
 30
0.0
 10
157.401802996858
 20
511.3372067506908
 30
0.0
 10
161.1624539291244
 20
512.7838177358776
 30
0.0
 10
164.6311855024309
 20
513.8957976600276
 30
0.0
 10
166.9553294413586
 20
514.5683560478292
 30
0.0
 10
168.5060170321414
 20
514.9981780744329
 30
0.0
 10
171.2511655616259
 20
515.7071930359044
 30
0.0
 10
174.435378649998
 20
516.4417341277903
 30
0.0
 10
177.6377558843368
 20
517.122307278651
 30
0.0
 10
180.0528970274067
 20
517.6095989099836
 30
0.0
 10
181.994822469547
 20
517.9871382265102
 30
0.0
 10
183.6255135664258
 20
518.2936056426015
 30
0.0
 10
185.6694152030744
 20
518.6651941064106
 30
0.0
 10
188.3027401157783
 20
519.144706142485
 30
0.0
 10
192.0354850067926
 20
519.8120759499043
 30
0.0
 10
198.2303923624211
 20
520.903846133826
 30
0.0
 10
206.2581813987049
 20
522.2793309344634
 30
0.0
 10
215.4340652678189
 20
523.8101985186689
 30
0.0
 10
221.3203355367159
 20
524.7721334654157
 30
0.0
 10
224.8558682616644
 20
525.3424003715056
 30
0.0
 10
226.0518940913927
 20
525.5352180052458
 30
0.0
 10
227.2476955558599
 20
525.7276543676842
 30
0.0
 10
228.2444353934764
 20
525.8864716239839
 30
0.0
 10
229.0365832496979
 20
526.0117724847851
 30
0.0
 10
229.8181473710287
 20
526.1354569661066
 30
0.0
 10
231.1768342567206
 20
526.3532011414723
 30
0.0
 10
232.7306951120918
 20
526.5957238882497
 30
0.0
 10
234.282016725856
 20
526.8544486109647
 30
0.0
 10
235.4468875603208
 20
527.0389577781189
 30
0.0
 10
236.6031302675913
 20
527.2802079095794
 30
0.0
 10
238.1048666931337
 20
527.7755123047062
 30
0.0
 10
239.5278646854082
 20
528.4919968607289
 30
0.0
 10
240.8467380022657
 20
529.3775858874719
 30
0.0
 10
242.0992122700153
 20
530.360040087781
 30
0.0
 10
243.2522094760297
 20
531.4626765131915
 30
0.0
 10
244.3065368504244
 20
532.6485017481596
 30
0.0
 10
245.3154830807833
 20
533.8580944057177
 30
0.0
 10
246.5403979292882
 20
535.3894652690582
 30
0.0
 10
248.4705199466047
 20
537.8727472771797
 30
0.0
 10
250.9310999197866
 20
540.9690093316168
 30
0.0
 10
252.8972006484726
 20
543.4572062049513
 30
0.0
 10
253.8849960136603
 20
544.7072973993899
 30
0.0
  0
ARC
  5
14E
330
110
100
AcDbEntity
  8
$DDT_AUDIT_GENERATED_(E7)
  6
Continuous
 62
     7
100
AcDbCircle
 10
124.9983285765
 20
473.7427045785
 30
0.0
 40
0.3000000001377318
100
AcDbArc
 50
179.4608393141
 51
270.0
  0
ARC
  5
14F
330
110
100
AcDbEntity
  8
$DDT_AUDIT_GENERATED_(E7)
  6
Continuous
 62
     7
100
AcDbCircle
 10
179.6399355115
 20
473.7427045785
 30
0.0
 40
0.3000000001519838
100
AcDbArc
 50
269.9999999995
 51
359.9090854074
  0
SPLINE
  5
150
330
110
100
AcDbEntity
  8
$DDT_AUDIT_GENERATED_(E7)
  6
Continuous
 62
     7
100
AcDbSpline
210
0.0
220
0.0
230
1.0
 70
     8
 71
     3
 72
    40
 73
    36
 74
     0
 42
0.0000000000727715
 43
0.0000000001
 40
0.0
 40
0.0
 40
0.0
 40
0.0
 40
0.0625000000000002
 40
0.0625000000000002
 40
0.1250000000000004
 40
0.1250000000000004
 40
0.1875000000000006
 40
0.1875000000000006
 40
0.2500000000000008
 40
0.2500000000000008
 40
0.312500000000001
 40
0.312500000000001
 40
0.3750000000000012
 40
0.3750000000000012
 40
0.4375000000000014
 40
0.4375000000000014
 40
0.5000000000000017
 40
0.5000000000000017
 40
0.6250000000000019
 40
0.6250000000000019
 40
0.750000000000002
 40
0.750000000000002
 40
0.7812500000000022
 40
0.7812500000000022
 40
0.7968750000000021
 40
0.7968750000000021
 40
0.8125000000000021
 40
0.8125000000000021
 40
0.8437500000000017
 40
0.8437500000000017
 40
0.8750000000000012
 40
0.8750000000000012
 40
0.9375000000000007
 40
0.9375000000000007
 40
1.0
 40
1.0
 40
1.0
 40
1.0
 10
131.5043867119191
 20
494.9427045751796
 30
0.0
 10
133.1471288562818
 20
497.3902691149487
 30
0.0
 10
135.0622820094153
 20
499.6606830235792
 30
0.0
 10
139.437548057287
 20
503.617196390446
 30
0.0
 10
141.8511641381228
 20
505.2850391274129
 30
0.0
 10
146.9167750384616
 20
508.2309605272325
 30
0.0
 10
149.5640884899223
 20
509.4835535769067
 30
0.0
 10
155.0103924004243
 20
511.673027832119
 30
0.0
 10
157.7541106349748
 20
512.590271685869
 30
0.0
 10
163.3110938973873
 20
514.2176466189652
 30
0.0
 10
166.1244768164963
 20
514.9290511221593
 30
0.0
 10
171.7127149258035
 20
516.1999096656879
 30
0.0
 10
174.5242921245509
 20
516.7867390704901
 30
0.0
 10
180.1501137212574
 20
517.916461502417
 30
0.0
 10
182.9632427628162
 20
518.4548821214472
 30
0.0
 10
188.6072848960623
 20
519.5000573383712
 30
0.0
 10
191.4509906365331
 20
520.0087372887066
 30
0.0
 10
199.8459414085073
 20
521.4738263723233
 30
0.0
 10
205.4140057188556
 20
522.397702581953
 30
0.0
 10
216.5939114789084
 20
524.1990198733586
 30
0.0
 10
222.2024710562982
 20
525.0604172505501
 30
0.0
 10
229.1903111748255
 20
526.146913648066
 30
0.0
 10
230.5592131534429
 20
526.3667643994004
 30
0.0
 10
232.6558705573159
 20
526.6987142577377
 30
0.0
 10
233.3450185574089
 20
526.8059845259019
 30
0.0
 10
234.7255286968246
 20
527.0368383343091
 30
0.0
 10
235.428451811499
 20
527.1372172145863
 30
0.0
 10
237.4783859114793
 20
527.6032245593973
 30
0.0
 10
238.7787094268249
 20
528.2007142641198
 30
0.0
 10
241.129370555084
 20
529.7486161152747
 30
0.0
 10
242.1848325334458
 20
530.6855883454472
 30
0.0
 10
245.1282579761951
 20
533.7064031393753
 30
0.0
 10
246.791880761165
 20
535.9865723101896
 30
0.0
 10
250.2738054482502
 20
540.386693064455
 30
0.0
 10
252.0282276020904
 20
542.5992713780552
 30
0.0
 10
253.7672118830173
 20
544.7946620206716
 30
0.0
  0
SPLINE
  5
151
330
110
100
AcDbEntity
  8
$DDT_AUDIT_GENERATED_(E7)
  6
Continuous
 62
     7
100
AcDbSpline
210
0.0
220
0.0
230
1.0
 70
     8
 71
     3
 72
    46
 73
    42
 74
     0
 42
0.000000000099507
 43
0.0000000001
 40
0.0
 40
0.0
 40
0.0
 40
0.0
 40
0.0625
 40
0.0625
 40
0.0937500000000002
 40
0.0937500000000002
 40
0.1250000000000005
 40
0.1250000000000005
 40
0.1875000000000012
 40
0.1875000000000012
 40
0.2187500000000014
 40
0.2187500000000014
 40
0.2500000000000016
 40
0.2500000000000016
 40
0.2812500000000018
 40
0.2812500000000018
 40
0.312500000000002
 40
0.312500000000002
 40
0.3437500000000022
 40
0.3437500000000022
 40
0.3750000000000023
 40
0.3750000000000023
 40
0.4062500000000025
 40
0.4062500000000025
 40
0.4375000000000027
 40
0.4375000000000027
 40
0.4687500000000029
 40
0.4687500000000029
 40
0.5000000000000031
 40
0.5000000000000031
 40
0.6250000000000027
 40
0.6250000000000027
 40
0.7500000000000019
 40
0.7500000000000019
 40
0.8125000000000014
 40
0.8125000000000014
 40
0.8750000000000011
 40
0.8750000000000011
 40
0.9375000000000006
 40
0.9375000000000006
 40
1.0
 40
1.0
 40
1.0
 40
1.0
 10
268.6566196068404
 20
533.7506660273087
 30
0.0
 10
267.34004377411
 20
532.1072136457727
 30
0.0
 10
266.0281532248929
 20
530.4678389586741
 30
0.0
 10
264.0507267318146
 20
528.0016714882863
 30
0.0
 10
263.4063729139222
 20
527.1630038270148
 30
0.0
 10
262.0543933834394
 20
525.5741350433447
 30
0.0
 10
261.2949652171422
 20
524.8234944473058
 30
0.0
 10
258.8748999917938
 20
522.812186864398
 30
0.0
 10
257.0157202616246
 20
521.7485849814356
 30
0.0
 10
254.0466021416331
 20
520.678368789079
 30
0.0
 10
253.0186804569281
 20
520.4283057014904
 30
0.0
 10
250.9595984377784
 20
520.0320687406812
 30
0.0
 10
249.9240192511698
 20
519.838768288919
 30
0.0
 10
247.8540544838866
 20
519.4467425827535
 30
0.0
 10
246.8222729129165
 20
519.263955608183
 30
0.0
 10
244.7486102430131
 20
518.9063413922868
 30
0.0
 10
243.7006972355598
 20
518.7231773620911
 30
0.0
 10
241.6512603883383
 20
518.3592023695993
 30
0.0
 10
240.6022580921258
 20
518.1707611710605
 30
0.0
 10
238.532059553346
 20
517.7950786574396
 30
0.0
 10
237.501100210661
 20
517.6061105913652
 30
0.0
 10
235.432492606964
 20
517.2237189243159
 30
0.0
 10
234.4034707738759
 20
517.0318040990172
 30
0.0
 10
232.3274972874735
 20
516.6417921596999
 30
0.0
 10
231.296376788378
 20
516.4456195359106
 30
0.0
 10
229.2180763180873
 20
516.1266066659095
 30
0.0
 10
228.1968842889341
 20
515.9102441357584
 30
0.0
 10
226.1419140598287
 20
515.5209133945729
 30
0.0
 10
225.114204186452
 20
515.322162086803
 30
0.0
 10
219.9828535270875
 20
514.3329031436392
 30
0.0
 10
215.8739350731749
 20
513.5413052387543
 30
0.0
 10
207.6811143006348
 20
511.8599871700673
 30
0.0
 10
203.5857585595901
 20
510.9857326331182
 30
0.0
 10
197.555496989004
 20
509.2661269261427
 30
0.0
 10
195.581238772377
 20
508.6234680661689
 30
0.0
 10
191.768999548843
 20
507.0659969892131
 30
0.0
 10
189.9074313860943
 20
506.1396136388002
 30
0.0
 10
186.5228624639465
 20
503.7610897190643
 30
0.0
 10
185.0221797078848
 20
502.3078097647576
 30
0.0
 10
182.715241293424
 20
498.8698657116836
 30
0.0
 10
181.9039816986917
 20
496.9336230218602
 30
0.0
 10
181.3233289096986
 20
494.9427045783144
 30
0.0
  0
LINE
  5
152
330
110
100
AcDbEntity
  8
$DDT_AUDIT_GENERATED_(10C)
  6
Continuous
 62
     7
100
AcDbLine
 10
179.9122640692
 20
482.4970936076
 30
0.0
 11
179.9122640692
 21
489.1722428851
 31
0.0
  0
ENDBLK
  5
154
330
110
100
AcDbEntity
  8
0
100
AcDbBlockEnd
  0
BLOCK
  5
180
330
155
100
AcDbEntity
  8
0
100
AcDbBlockBegin
  2
SE2
 70
     0
 10
0.0
 20
0.0
 30
0.0
  3
SE2
  1

  0
ARC
  5
157
330
155
100
AcDbEntity
  8
$DDT_AUDIT_GENERATED_(70)
  6
Continuous
 62
     7
100
AcDbCircle
 10
978.9647487904
 20
251.102753354
 30
0.0
 40
971.4061630418303
100
AcDbArc
 50
183.7325687228
 51
183.9795686834
  0
ARC
  5
158
330
155
100
AcDbEntity
  8
$DDT_AUDIT_GENERATED_(70)
  6
Continuous
 62
     7
100
AcDbCircle
 10
978.9647487904
 20
251.102753354
 30
0.0
 40
971.4061630418303
100
AcDbArc
 50
185.6888614918
 51
186.8263340434
  0
ARC
  5
159
330
155
100
AcDbEntity
  8
$DDT_AUDIT_GENERATED_(70)
  6
Continuous
 62
     7
100
AcDbCircle
 10
33.635871322
 20
131.0783394874
 30
0.0
 40
18.13454514192748
100
AcDbArc
 50
219.7041520357
 51
257.9316787359
  0
ARC
  5
15A
330
155
100
AcDbEntity
  8
$DDT_AUDIT_GENERATED_(70)
  6
Continuous
 62
     7
100
AcDbCircle
 10
980.4675398378
 20
251.2179059953
 30
0.0
 40
972.9116560100059
100
AcDbArc
 50
186.8371182072
 51
186.9549772603
  0
ARC
  5
15B
330
155
100
AcDbEntity
  8
$DDT_AUDIT_GENERATED_(70)
  6
Continuous
 62
     7
100
AcDbCircle
 10
34.3979241831
 20
131.1003052126
 30
0.0
 40
18.15616188708719
100
AcDbArc
 50
325.6718605787
 51
344.6293291443
  0
ARC
  5
15C
330
155
100
AcDbEntity
  8
$DDT_AUDIT_GENERATED_(70)
  6
Continuous
 62
     7
100
AcDbCircle
 10
34.3979241831
 20
131.1003052126
 30
0.0
 40
18.15616188708719
100
AcDbArc
 50
282.1094033943
 51
320.828345343
  0
ARC
  5
15D
330
155
100
AcDbEntity
  8
$DDT_AUDIT_GENERATED_(70)
  6
Continuous
 62
     7
100
AcDbCircle
 10
-912.2382979973
 20
251.2030036998
 30
0.0
 40
972.732280072866
100
AcDbArc
 50
356.0199488129
 51
356.2661917372
  0
ARC
  5
15E
330
155
100
AcDbEntity
  8
$DDT_AUDIT_GENERATED_(70)
  6
Continuous
 62
     7
100
AcDbCircle
 10
-912.2382979973
 20
251.2030036998
 30
0.0
 40
972.732280072866
100
AcDbArc
 50
353.1770585026
 51
354.3130249102
  0
ARC
  5
15F
330
155
100
AcDbEntity
  8
$DDT_AUDIT_GENERATED_(70)
  6
Continuous
 62
     7
100
AcDbCircle
 10
41.9838165282
 20
135.6709238621
 30
0.0
 40
27.53780605159253
100
AcDbArc
 50
180.0613731723
 51
216.0019400402
  0
ARC
  5
160
330
155
100
AcDbEntity
  8
$DDT_AUDIT_GENERATED_(70)
  6
Continuous
 62
     7
100
AcDbCircle
 10
1081.7500940298
 20
259.9792892772
 30
0.0
 40
1074.56106828494
100
AcDbArc
 50
184.071253446
 51
185.6240627695
  0
ARC
  5
161
330
155
100
AcDbEntity
  8
$DDT_AUDIT_GENERATED_(70)
  6
Continuous
 62
     7
100
AcDbCircle
 10
979.852855317
 20
251.1366211441
 30
0.0
 40
972.2954319005102
100
AcDbArc
 50
182.0259559864
 51
183.7318867321
  0
ARC
  5
162
330
155
100
AcDbEntity
  8
$DDT_AUDIT_GENERATED_(70)
  6
Continuous
 62
     7
100
AcDbCircle
 10
-909.6890618525
 20
251.0355778457
 30
0.0
 40
970.1797282325119
100
AcDbArc
 50
356.2659434633
 51
357.9782674392
  0
ARC
  5
163
330
155
100
AcDbEntity
  8
$DDT_AUDIT_GENERATED_(70)
  6
Continuous
 62
     7
100
AcDbCircle
 10
-1013.3084073968
 20
259.9460859243
 30
0.0
 40
1074.168196241713
100
AcDbArc
 50
354.3756532316
 51
355.9290305382
  0
SPLINE
  5
164
330
155
100
AcDbEntity
  8
$DDT_AUDIT_GENERATED_(70)
  6
Continuous
 62
     7
100
AcDbSpline
210
0.0
220
0.0
230
1.0
 70
     8
 71
     3
 72
    20
 73
    16
 74
     0
 42
0.0000000005817605
 43
0.0000000001
 40
0.0
 40
0.0
 40
0.0
 40
0.0
 40
0.0942816259503057
 40
0.1915433681050996
 40
0.2879806477004176
 40
0.383601337394487
 40
0.4784167091560038
 40
0.5724241646312007
 40
0.6522664719600842
 40
0.7270735873268764
 40
0.7949621125915584
 40
0.8560543649953509
 40
0.9104945074736905
 40
0.9584313074108984
 40
1.0
 40
1.0
 40
1.0
 40
1.0
 10
48.38374711477178
 20
119.5367673754081
 30
0.0
 10
48.75333870681006
 20
120.0105731303923
 30
0.0
 10
49.3821751908485
 20
120.8268496193003
 30
0.0
 10
50.26148858882713
 20
122.2830785995012
 30
0.0
 10
50.99994190187814
 20
123.7732278162109
 30
0.0
 10
51.60611133721791
 20
125.3169901974244
 30
0.0
 10
52.0737365535643
 20
126.8872441658139
 30
0.0
 10
52.43908041313708
 20
128.3881370523888
 30
0.0
 10
52.75381260631011
 20
129.7805278700116
 30
0.0
 10
52.9968650873726
 20
131.032241921701
 30
0.0
 10
53.17509446694206
 20
132.1811798626805
 30
0.0
 10
53.30788981976426
 20
133.2162404138284
 30
0.0
 10
53.42027624830639
 20
134.1258921917927
 30
0.0
 10
53.52051597249202
 20
134.9411093206559
 30
0.0
 10
53.57450353147765
 20
135.3930885817295
 30
0.0
 10
53.60415769462703
 20
135.6414263639543
 30
0.0
  0
LINE
  5
165
330
155
100
AcDbEntity
  8
$DDT_AUDIT_GENERATED_(70)
  6
Continuous
 62
     7
100
AcDbLine
 10
48.3443724438
 20
119.4838532423
 30
0.0
 11
48.3837471148
 21
119.5367673754
 31
0.0
  0
SPLINE
  5
166
330
155
100
AcDbEntity
  8
$DDT_AUDIT_GENERATED_(70)
  6
Continuous
 62
     7
100
AcDbSpline
210
0.0
220
0.0
230
1.0
 70
     8
 71
     3
 72
    23
 73
    19
 74
     0
 42
0.0000000016040066
 43
0.0000000001
 40
0.0
 40
0.0
 40
0.0
 40
0.0
 40
0.0209136093958887
 40
0.0306870843361543
 40
0.0401920060245679
 40
0.0503770009088959
 40
0.062765057739529
 40
0.0789467696296561
 40
0.1002957127321869
 40
0.1388012080179552
 40
0.1909943336878428
 40
0.2583247642493757
 40
0.3415105204753688
 40
0.441191940237661
 40
0.5579468376705333
 40
0.6923098862307936
 40
0.8447607056881246
 40
1.0
 40
1.0
 40
1.0
 40
1.0
 10
58.88325902811157
 20
195.1899809427663
 30
0.0
 10
58.88159720242441
 20
195.1598504948173
 30
0.0
 10
58.87964777555124
 20
195.1243938574694
 30
0.0
 10
58.87813477625141
 20
195.0907016888134
 30
0.0
 10
58.87810054664462
 20
195.0847597046454
 30
0.0
 10
58.87956271634698
 20
195.1056021879672
 30
0.0
 10
58.88278625794804
 20
195.1586128080186
 30
0.0
 10
58.8879408117612
 20
195.2466024576082
 30
0.0
 10
58.8965825902995
 20
195.3963397850002
 30
0.0
 10
58.91005867645305
 20
195.6317551029683
 30
0.0
 10
58.92954807252769
 20
195.97409450943
 30
0.0
 10
58.95466745537396
 20
196.4186600108402
 30
0.0
 10
58.98545144890164
 20
196.9691067869045
 30
0.0
 10
59.02181134960014
 20
197.627206835053
 30
0.0
 10
59.0637089791713
 20
198.3955355561257
 30
0.0
 10
59.11059771075963
 20
199.2677700264562
 30
0.0
 10
59.16198099687326
 20
200.2383550972518
 30
0.0
 10
59.19324662159794
 20
200.8428954611849
 30
0.0
 10
59.21193310158088
 20
201.2046811778803
 30
0.0
  0
ARC
  5
167
330
155
100
AcDbEntity
  8
$DDT_AUDIT_GENERATED_(E7)
  6
Continuous
 62
     7
100
AcDbCircle
 10
32.8197894961
 20
122.240899145
 30
0.0
 40
2.572602114794238
100
AcDbArc
 50
99.3005764547
 51
162.4196268531
  0
ARC
  5
168
330
155
100
AcDbEntity
  8
$DDT_AUDIT_GENERATED_(E7)
  6
Continuous
 62
     7
100
AcDbCircle
 10
54.6403141173
 20
117.4749084071
 30
0.0
 40
24.8978371527083
100
AcDbArc
 50
167.1363939255
 51
180.3158658204
  0
ARC
  5
169
330
155
100
AcDbEntity
  8
$DDT_AUDIT_GENERATED_(E7)
  6
Continuous
 62
     7
100
AcDbCircle
 10
34.0236471674
 20
113.7030120431
 30
0.0
 40
11.19445423794436
100
AcDbArc
 50
89.9929264849
 51
98.3188107319
  0
SPLINE
  5
16A
330
155
100
AcDbEntity
  8
$DDT_AUDIT_GENERATED_(E7)
  6
Continuous
 62
     7
100
AcDbSpline
210
0.0
220
0.0
230
1.0
 70
     8
 71
     3
 72
     8
 73
     4
 74
     0
 42
0.0000000189100455
 43
0.0000000001
 40
0.838189847685379
 40
0.838189847685379
 40
0.838189847685379
 40
0.838189847685379
 40
0.845580967199501
 40
0.845580967199501
 40
0.845580967199501
 40
0.845580967199501
 10
30.48253643035843
 20
108.6149326991992
 30
0.0
 10
30.48240734522877
 20
108.6157332540101
 30
0.0
 10
30.48226239206593
 20
108.6170286240043
 30
0.0
 10
30.48210139272203
 20
108.618815603661
 30
0.0
  0
ARC
  5
16B
330
155
100
AcDbEntity
  8
$DDT_AUDIT_GENERATED_(E7)
  6
Continuous
 62
     7
100
AcDbCircle
 10
35.2239598773
 20
122.2336055688
 30
0.0
 40
2.580824368504103
100
AcDbArc
 50
17.6924268242
 51
80.5873698681
  0
ARC
  5
16C
330
155
100
AcDbEntity
  8
$DDT_AUDIT_GENERATED_(E7)
  6
Continuous
 62
     7
100
AcDbCircle
 10
13.396864383
 20
117.474943578
 30
0.0
 40
24.91038612515415
100
AcDbArc
 50
359.6833817364
 51
12.8569318333
  0
ARC
  5
16D
330
155
100
AcDbEntity
  8
$DDT_AUDIT_GENERATED_(E7)
  6
Continuous
 62
     7
100
AcDbCircle
 10
34.0259221378
 20
113.6962810986
 30
0.0
 40
11.2011851327237
100
AcDbArc
 50
81.6836952255
 51
90.0045675578
  0
ARC
  5
16E
330
155
100
AcDbEntity
  8
$DDT_AUDIT_GENERATED_(E7)
  6
Continuous
 62
     7
100
AcDbCircle
 10
33.9601124035
 20
226.3735662977
 30
0.0
 40
27.65363943343738
100
AcDbArc
 50
294.5250421024
 51
32.0413843128
  0
SPLINE
  5
16F
330
155
100
AcDbEntity
  8
$DDT_AUDIT_GENERATED_(E7)
  6
Continuous
 62
     7
100
AcDbSpline
210
0.0
220
0.0
230
1.0
 70
     8
 71
     3
 72
   152
 73
   148
 74
     0
 42
0.0000000000788785
 43
0.0000000001
 40
0.0
 40
0.0
 40
0.0
 40
0.0
 40
0.0016247334939285
 40
0.0016247334939285
 40
0.0051282755903114
 40
0.0051282755903114
 40
0.0121353597830773
 40
0.0121353597830773
 40
0.0261495281686091
 40
0.0261495281686091
 40
0.0401636965541409
 40
0.0541778649396661
 40
0.0681920333251977
 40
0.0829334628979685
 40
0.0829334628979685
 40
0.0985247201882607
 40
0.1116890608562642
 40
0.124853401524268
 40
0.138017742192265
 40
0.138017742192265
 40
0.1643464235282723
 40
0.1643464235282723
 40
0.1775107641962759
 40
0.1775107641962759
 40
0.1906751048642731
 40
0.1906751048642731
 40
0.2083713223478569
 40
0.2170037862002804
 40
0.2256362500526977
 40
0.2342687139051212
 40
0.2342687139051212
 40
0.2515336416099686
 40
0.2515336416099686
 40
0.2860634970196501
 40
0.2860634970196501
 40
0.3033284247244974
 40
0.3033284247244974
 40
0.3205933524293382
 40
0.3205933524293382
 40
0.3513481308448105
 40
0.3551232078390263
 40
0.3588982848332422
 40
0.3626733618274515
 40
0.3626733618274515
 40
0.3702235158158812
 40
0.3702235158158812
 40
0.385323823792736
 40
0.385323823792736
 40
0.4004241317695916
 40
0.4004241317695916
 40
0.4155244397464464
 40
0.4155244397464464
 40
0.4457250557001568
 40
0.4457250557001568
 40
0.4608253636770123
 40
0.4608253636770123
 40
0.4714980435123846
 40
0.4759256716538671
 40
0.4803532997953496
 40
0.4847809279368321
 40
0.4847809279368321
 40
0.4936361842197971
 40
0.4936361842197971
 40
0.5024914405027628
 40
0.5024914405027628
 40
0.5113466967857279
 40
0.5113466967857279
 40
0.5290572093516587
 40
0.5290572093516587
 40
0.5379124656346236
 40
0.5467677219175886
 40
0.5556229782005536
 40
0.5742831242048111
 40
0.5742831242048111
 40
0.5880408253484218
 40
0.6017985264920335
 40
0.6155562276356443
 40
0.6323605451214103
 40
0.6323605451214103
 40
0.647641554436099
 40
0.6629225637507878
 40
0.678203573065476
 40
0.7035939273234583
 40
0.7125440652940089
 40
0.7214942032645589
 40
0.730444341235109
 40
0.730444341235109
 40
0.7483446171762091
 40
0.7483446171762091
 40
0.7572947551467593
 40
0.7572947551467593
 40
0.7662448931173093
 40
0.7662448931173093
 40
0.7751950310878594
 40
0.7751950310878594
 40
0.7796701000731346
 40
0.7796701000731346
 40
0.7819076345657721
 40
0.7841451690584094
 40
0.7863827035510467
 40
0.7920464901339056
 40
0.7920464901339056
 40
0.7999478112094011
 40
0.7999478112094011
 40
0.8078491322848973
 40
0.8078491322848973
 40
0.8157504533603935
 40
0.8157504533603935
 40
0.8236517744358891
 40
0.8236517744358891
 40
0.8315530955113853
 40
0.8315530955113853
 40
0.8394544165868809
 40
0.8394544165868809
 40
0.8434050771246288
 40
0.8473557376623769
 40
0.8513063982001251
 40
0.8607613839488228
 40
0.8607613839488228
 40
0.8741670302352685
 40
0.8741670302352685
 40
0.8875726765217133
 40
0.8875726765217133
 40
0.8942754996649366
 40
0.8942754996649366
 40
0.8979570897453818
 40
0.9009783228081594
 40
0.9039995558709369
 40
0.9070207889337145
 40
0.9070207889337145
 40
0.9130632550592693
 40
0.9130632550592693
 40
0.9251481873103796
 40
0.9251481873103796
 40
0.9372331195614899
 40
0.9372331195614899
 40
0.9432755856870443
 40
0.9493180518125994
 40
0.9553605179381546
 40
0.9656817059325978
 40
0.9656817059325978
 40
0.9740905818852967
 40
0.9820453600525959
 40
0.9900001382198951
 40
0.9979549163871938
 40
0.9979549163871938
 40
1.0
 40
1.0
 40
1.0
 40
1.0
 10
48.64442479504807
 20
249.7800707727737
 30
0.0
 10
48.64867391784111
 20
249.7764641669131
 30
0.0
 10
48.65282973462805
 20
249.7725068992217
 30
0.0
 10
48.66589739759286
 20
249.7587362816826
 30
0.0
 10
48.67424916877515
 20
249.748009075453
 30
0.0
 10
48.6986238649577
 20
249.710204150984
 30
0.0
 10
48.71297768015188
 20
249.6789696769184
 30
0.0
 10
48.75130435260339
 20
249.5668686352407
 30
0.0
 10
48.77042763052794
 20
249.4679680970546
 30
0.0
 10
48.79604794615283
 20
249.224306674058
 30
0.0
 10
48.80896146505393
 20
248.9341322551743
 30
0.0
 10
48.79000488402486
 20
248.3762879133671
 30
0.0
 10
48.72886065548598
 20
247.6720123418898
 30
0.0
 10
48.65814177291447
 20
247.1207389091922
 30
0.0
 10
48.56615243968165
 20
246.4973988875936
 30
0.0
 10
48.46198866424784
 20
245.8679888080979
 30
0.0
 10
48.25842945692587
 20
244.8337029044019
 30
0.0
 10
48.03193831041731
 20
243.8125764978889
 30
0.0
 10
47.84856113869181
 20
243.0693906666814
 30
0.0
 10
47.55018714181645
 20
241.921815529951
 30
0.0
 10
47.31900968720306
 20
241.1059376161401
 30
0.0
 10
46.9191549236677
 20
239.8093585463913
 30
0.0
 10
46.77425346869466
 20
239.3582155281752
 30
0.0
 10
46.46752193129067
 20
238.4500525395492
 30
0.0
 10
46.30147075514522
 20
237.9784173764178
 30
0.0
 10
45.89404141261141
 20
236.8547793422252
 30
0.0
 10
45.51940279667642
 20
235.8633579323454
 30
0.0
 10
44.99955569923861
 20
234.4941885731526
 30
0.0
 10
44.60517320126443
 20
233.4442310303466
 30
0.0
 10
44.33999364269378
 20
232.7293337870182
 30
0.0
 10
43.93917385402158
 20
231.6433755940771
 30
0.0
 10
43.67072055529819
 20
230.9090956973451
 30
0.0
 10
42.86110756913406
 20
228.6610056431264
 30
0.0
 10
42.31643616683541
 20
227.1058742830313
 30
0.0
 10
41.52093523421115
 20
224.7278356938993
 30
0.0
 10
41.25696546685173
 20
223.920284295119
 30
0.0
 10
40.74089910686173
 20
222.3001268406607
 30
0.0
 10
40.48559647878312
 20
221.476969492873
 30
0.0
 10
39.79341727294388
 20
219.1744796605594
 30
0.0
 10
39.31759879831316
 20
217.4869753198997
 30
0.0
 10
38.82632651949798
 20
215.5921970191315
 30
0.0
 10
38.68706330145026
 20
215.0434612270106
 30
0.0
 10
38.59722831090573
 20
214.681252869513
 30
0.0
 10
38.4619684427468
 20
214.1289920607626
 30
0.0
 10
38.37346636719067
 20
213.7586605737177
 30
0.0
 10
38.11538348876995
 20
212.6542353014807
 30
0.0
 10
37.94831857542626
 20
211.9137911325564
 30
0.0
 10
37.65006014557306
 20
210.4125411052972
 30
0.0
 10
37.51988314171251
 20
209.6633044673931
 30
0.0
 10
37.29355691723708
 20
208.1479628210204
 30
0.0
 10
37.19744759329547
 20
207.3824741432256
 30
0.0
 10
36.95530837136074
 20
205.0913035534022
 30
0.0
 10
36.85293011896533
 20
203.5484171436759
 30
0.0
 10
36.76219540791813
 20
201.2307314321318
 30
0.0
 10
36.7421572281205
 20
200.4604137504112
 30
0.0
 10
36.72039908714598
 20
199.1347330714297
 30
0.0
 10
36.71179651593839
 20
198.3629568030894
 30
0.0
 10
36.7104696726326
 20
197.3618609316588
 30
0.0
 10
36.71417588513098
 20
196.6632572088121
 30
0.0
 10
36.71741003316711
 20
196.201984980035
 30
0.0
 10
36.72142252699553
 20
195.5047137938704
 30
0.0
 10
36.72289755572596
 20
195.0448484022453
 30
0.0
 10
36.71959474727216
 20
194.1152179578897
 30
0.0
 10
36.71454678716962
 20
193.6517555441487
 30
0.0
 10
36.70193018672068
 20
192.7274001082069
 30
0.0
 10
36.69507489496868
 20
192.2590328633414
 30
0.0
 10
36.6749160400656
 20
190.8722859480766
 30
0.0
 10
36.66092415382857
 20
189.9396973923839
 30
0.0
 10
36.63969951093024
 20
188.5502929401985
 30
0.0
 10
36.62541239308634
 20
187.6233051935656
 30
0.0
 10
36.6035034031522
 20
186.2258580542451
 30
0.0
 10
36.57356310318234
 20
184.3503806136358
 30
0.0
 10
36.55022237477988
 20
182.9260336000154
 30
0.0
 10
36.52232829723985
 20
181.2495455331856
 30
0.0
 10
36.49839337112257
 20
179.8267809422065
 30
0.0
 10
36.46165370863014
 20
177.6871568827116
 30
0.0
 10
36.42186593695124
 20
175.4130201060518
 30
0.0
 10
36.39386190023504
 20
173.8431219468361
 30
0.0
 10
36.36411925263474
 20
172.1915079162247
 30
0.0
 10
36.33568560223348
 20
170.6256964783474
 30
0.0
 10
36.29210106993986
 20
168.260594522642
 30
0.0
 10
36.23884368673661
 20
165.4081968209389
 30
0.0
 10
36.19075603820441
 20
162.8698699050169
 30
0.0
 10
36.14858064162672
 20
160.6559680787861
 30
0.0
 10
36.12250323286108
 20
159.2889484913025
 30
0.0
 10
36.10510857978624
 20
158.3774058165506
 30
0.0
 10
36.07883467125463
 20
157.0119160681624
 30
0.0
 10
36.06036250148471
 20
156.0959122229846
 30
0.0
 10
36.03567205898615
 20
154.7314180380353
 30
0.0
 10
36.02777269210258
 20
154.275238888868
 30
0.0
 10
36.01023475994891
 20
153.3612259050535
 30
0.0
 10
36.00034345465586
 20
152.9060544978302
 30
0.0
 10
35.97873552134855
 20
151.9951562847469
 30
0.0
 10
35.96791043108363
 20
151.5389615339516
 30
0.0
 10
35.9584237176442
 20
150.8568639183954
 30
0.0
 10
35.95634211322267
 20
150.6230024445067
 30
0.0
 10
35.9551711415841
 20
150.2853333993455
 30
0.0
 10
35.95512901627114
 20
150.0574645882
 30
0.0
 10
35.95595709627697
 20
149.71107300128
 30
0.0
 10
35.95746166486169
 20
149.2136986496295
 30
0.0
 10
35.95582190007821
 20
148.8170685401634
 30
0.0
 10
35.95016950645004
 20
148.1454883433146
 30
0.0
 10
35.94501171112933
 20
147.7542317396596
 30
0.0
 10
35.93670280977196
 20
146.9705707181136
 30
0.0
 10
35.93287637912119
 20
146.5788230422909
 30
0.0
 10
35.92490725352233
 20
145.794563033526
 30
0.0
 10
35.92071556490692
 20
145.4008914815134
 30
0.0
 10
35.9133386217383
 20
144.6194949406557
 30
0.0
 10
35.90999474367334
 20
144.2278567978386
 30
0.0
 10
35.90278366174335
 20
143.4418469241144
 30
0.0
 10
35.89861078612341
 20
143.0550222322519
 30
0.0
 10
35.8893886670809
 20
142.2749038490932
 30
0.0
 10
35.88521993351958
 20
141.8923455662121
 30
0.0
 10
35.88017014880213
 20
141.325981912058
 30
0.0
 10
35.87718075310465
 20
140.9509312335585
 30
0.0
 10
35.87378633296109
 20
140.4039041248543
 30
0.0
 10
35.87007257091909
 20
139.6019345928284
 30
0.0
 10
35.8691123808785
 20
139.0102317975697
 30
0.0
 10
35.868137537998
 20
138.0303648058981
 30
0.0
 10
35.86835375077789
 20
137.4800700043391
 30
0.0
 10
35.86439320402832
 20
136.4332447531292
 30
0.0
 10
35.8600919260635
 20
135.9318406055359
 30
0.0
 10
35.84618119789288
 20
135.220000635082
 30
0.0
 10
35.84026045100036
 20
134.984948333611
 30
0.0
 10
35.82911726849718
 20
134.6342678612981
 30
0.0
 10
35.8214375087688
 20
134.4101173274081
 30
0.0
 10
35.81047970085861
 20
134.0895134486685
 30
0.0
 10
35.80199508141762
 20
133.7989324462024
 30
0.0
 10
35.7971047157796
 20
133.6066824805369
 30
0.0
 10
35.79007281801892
 20
133.3177554870098
 30
0.0
 10
35.78580769837566
 20
133.1280959253728
 30
0.0
 10
35.77412062421455
 20
132.5584555161137
 30
0.0
 10
35.76782376838671
 20
132.1848223729382
 30
0.0
 10
35.75623048222755
 20
131.4384701527345
 30
0.0
 10
35.75103138750574
 20
131.0663251903576
 30
0.0
 10
35.74239674540578
 20
130.5066484745497
 30
0.0
 10
35.73626836299867
 20
130.1317051988538
 30
0.0
 10
35.72655378266258
 20
129.5713783489818
 30
0.0
 10
35.71447076604666
 20
128.8652351312736
 30
0.0
 10
35.70565944768931
 20
128.3523556727686
 30
0.0
 10
35.69556730348638
 20
127.7643951917444
 30
0.0
 10
35.68673610606363
 20
127.2497386197259
 30
0.0
 10
35.67364105467058
 20
126.4892060578323
 30
0.0
 10
35.66064428021479
 20
125.7302974774937
 30
0.0
 10
35.6526482765509
 20
125.2271452632927
 30
0.0
 10
35.64794292435312
 20
124.9093810724603
 30
0.0
 10
35.6469878045977
 20
124.8445060552484
 30
0.0
 10
35.64603676137987
 20
124.779682065131
 30
0.0
  0
ARC
  5
170
330
155
100
AcDbEntity
  8
$DDT_AUDIT_GENERATED_(E7)
  6
Continuous
 62
     7
100
AcDbCircle
 10
34.0239767157
 20
226.3671665232
 30
0.0
 40
27.60292715350795
100
AcDbArc
 50
32.1229742305
 51
58.0168253943
  0
ARC
  5
171
330
155
100
AcDbEntity
  8
$DDT_AUDIT_GENERATED_(E7)
  6
Continuous
 62
     7
100
AcDbCircle
 10
34.0222480539
 20
226.336356108
 30
0.0
 40
27.62998027380679
100
AcDbArc
 50
58.0476259981
 51
89.9942328066
  0
SPLINE
  5
172
330
155
100
AcDbEntity
  8
$DDT_AUDIT_GENERATED_(E7)
  6
Continuous
 62
     7
100
AcDbSpline
210
0.0
220
0.0
230
1.0
 70
     8
 71
     3
 72
    60
 73
    56
 74
     0
 42
0.0000000000788707
 43
0.0000000001
 40
0.0
 40
0.0
 40
0.0
 40
0.0
 40
0.0072507887678891
 40
0.0141387748460004
 40
0.0302002097598245
 40
0.0623769676872502
 40
0.0840593324921417
 40
0.1270949037189028
 40
0.1588666002833967
 40
0.174764514432181
 40
0.190658899648621
 40
0.222443739666191
 40
0.2545085808829827
 40
0.2866046141196667
 40
0.3026454599257423
 40
0.3186794109543969
 40
0.3507726042443701
 40
0.3823589673061514
 40
0.3901736089094497
 40
0.3980087920994771
 40
0.4136348450262606
 40
0.4449166441446628
 40
0.4605534500616089
 40
0.4761898308893023
 40
0.491959162439509
 40
0.4983232368070145
 40
0.5078696545284442
 40
0.5316220699580835
 40
0.5494345391194194
 40
0.580275725832631
 40
0.6517378101147117
 40
0.7049627565016764
 40
0.7579192392169437
 40
0.7656357062013467
 40
0.7733483736430736
 40
0.7810545571774503
 40
0.7887676000028128
 40
0.7926187685185482
 40
0.7963669490283128
 40
0.8038753852188398
 40
0.8188919447408555
 40
0.8263954473312614
 40
0.8339035772109913
 40
0.8414132413927832
 40
0.8489174333196083
 40
0.8640407025968313
 40
0.8716360192301007
 40
0.8792284396546926
 40
0.8944095970405435
 40
0.9020088916386093
 40
0.9095269591418964
 40
0.9244862793298478
 40
0.9394493731841116
 40
0.9695787367642439
 40
1.0
 40
1.0
 40
1.0
 40
1.0
 10
19.40564049674612
 20
249.7800751450064
 30
0.0
 10
19.38788709992339
 20
249.7604265086014
 30
0.0
 10
19.35334644604975
 20
249.722164706349
 30
0.0
 10
19.29709295778277
 20
249.5749706655922
 30
0.0
 10
19.23185347072976
 20
249.1652582747739
 30
0.0
 10
19.25308151148992
 20
248.2762836640242
 30
0.0
 10
19.45193720359447
 20
246.5612533551389
 30
0.0
 10
19.87116539118762
 20
244.317704179077
 30
0.0
 10
20.55076924684336
 20
241.703079367272
 30
0.0
 10
21.17124742274559
 20
239.6601230800502
 30
0.0
 10
21.90888388638165
 20
237.4813578694705
 30
0.0
 10
23.05735054388735
 20
234.4981849689508
 30
0.0
 10
24.50791659947189
 20
230.5829022408285
 30
0.0
 10
25.73994660844054
 20
227.0970899131259
 30
0.0
 10
26.70209594362371
 20
224.2096226207952
 30
0.0
 10
27.64155337583582
 20
221.2628750819333
 30
0.0
 10
28.74788967253837
 20
217.5022241496669
 30
0.0
 10
29.62657191259669
 20
214.0334925763604
 30
0.0
 10
30.14367295918249
 20
211.7093486374327
 30
0.0
 10
30.45130037652784
 20
210.1586610466499
 30
0.0
 10
30.8866627540622
 20
207.4135125171654
 30
0.0
 10
31.16969829493059
 20
204.2292994287933
 30
0.0
 10
31.29975236589575
 20
201.0269221944545
 30
0.0
 10
31.34295550946464
 20
198.6117810513847
 30
0.0
 10
31.33593100553533
 20
196.6698556092443
 30
0.0
 10
31.32564512678977
 20
195.0391645123655
 30
0.0
 10
31.33799188702834
 20
192.995262875717
 30
0.0
 10
31.38398524274287
 20
190.361937963013
 30
0.0
 10
31.43915397882372
 20
186.6291930719987
 30
0.0
 10
31.53995642221966
 20
180.4342857163702
 30
0.0
 10
31.68061853017762
 20
172.4064966800864
 30
0.0
 10
31.8502937255277
 20
163.2306128109724
 30
0.0
 10
31.96862283105326
 20
157.3443425420755
 30
0.0
 10
32.03048019802088
 20
153.8088098171269
 30
0.0
 10
32.05593607705278
 20
152.6127839873986
 30
0.0
 10
32.08602896271551
 20
151.4169825229314
 30
0.0
 10
32.09652120517781
 20
150.4202426853149
 30
0.0
 10
32.09358862774706
 20
149.6280948290934
 30
0.0
 10
32.09266600127324
 20
148.8465307077626
 30
0.0
 10
32.10782591186467
 20
147.4878438220707
 30
0.0
 10
32.12422518275121
 20
145.9339829666995
 30
0.0
 10
32.13886317452254
 20
144.3826613529353
 30
0.0
 10
32.14909395411173
 20
143.2177905184705
 30
0.0
 10
32.16354040631506
 20
142.0615478112
 30
0.0
 10
32.17683563061967
 20
140.5598113856576
 30
0.0
 10
32.18135987892705
 20
139.1368133933831
 30
0.0
 10
32.18174204358604
 20
137.8179400765256
 30
0.0
 10
32.18369818575368
 20
136.565465808776
 30
0.0
 10
32.19465514684946
 20
135.4124686027616
 30
0.0
 10
32.23089255528512
 20
134.3581412283669
 30
0.0
 10
32.261792445635
 20
133.349194998008
 30
0.0
 10
32.28404351265578
 20
132.1242801495031
 30
0.0
 10
32.3111059528026
 20
130.1941581321866
 30
0.0
 10
32.35600023340491
 20
127.7335781590047
 30
0.0
 10
32.38796220739201
 20
125.7674774303186
 30
0.0
 10
32.40402162136647
 20
124.779682065131
 30
0.0
  0
ARC
  5
173
330
155
100
AcDbEntity
  8
$DDT_AUDIT_GENERATED_(E7)
  6
Continuous
 62
     7
100
AcDbCircle
 10
34.0278291668
 20
226.336289969
 30
0.0
 40
27.63004641472425
100
AcDbArc
 50
90.0058062434
 51
121.9523176103
  0
ARC
  5
174
330
155
100
AcDbEntity
  8
$DDT_AUDIT_GENERATED_(E7)
  6
Continuous
 62
     7
100
AcDbCircle
 10
34.0257495002
 20
226.3674990924
 30
0.0
 40
27.60246917747843
100
AcDbArc
 50
121.9829384494
 51
147.876956935
  0
ARC
  5
175
330
155
100
AcDbEntity
  8
$DDT_AUDIT_GENERATED_(E7)
  6
Continuous
 62
     7
100
AcDbCircle
 10
34.0899452656
 20
226.3735660627
 30
0.0
 40
27.6536389354638
100
AcDbArc
 50
147.9583281701
 51
245.4606744334
  0
ARC
  5
176
330
155
100
AcDbEntity
  8
$DDT_AUDIT_GENERATED_(E7)
  6
Continuous
 62
     7
100
AcDbCircle
 10
79.5749475091
 20
116.7949596412
 30
0.0
 40
49.83504884123671
100
AcDbArc
 50
179.3716051064
 51
184.5555299072
  0
ARC
  5
177
330
155
100
AcDbEntity
  8
$DDT_AUDIT_GENERATED_(E7)
  6
Continuous
 62
     7
100
AcDbCircle
 10
33.1705225216
 20
109.1094338107
 30
0.0
 40
2.732811989429127
100
AcDbArc
 50
190.3400421985
 51
254.8906122649
  0
ARC
  5
178
330
155
100
AcDbEntity
  8
$DDT_AUDIT_GENERATED_(E7)
  6
Continuous
 62
     7
100
AcDbCircle
 10
34.0232866652
 20
116.6222093856
 30
0.0
 40
10.27094310329225
100
AcDbArc
 50
261.0773907823
 51
270.0097205985
  0
ARC
  5
179
330
155
100
AcDbEntity
  8
$DDT_AUDIT_GENERATED_(E7)
  6
Continuous
 62
     7
100
AcDbCircle
 10
84.4621161082
 20
118.241534776
 30
0.0
 40
54.83118676592331
100
AcDbArc
 50
185.6648405859
 51
190.106677815
  0
SPLINE
  5
17A
330
155
100
AcDbEntity
  8
$DDT_AUDIT_GENERATED_(E7)
  6
Continuous
 62
     7
100
AcDbSpline
210
0.0
220
0.0
230
1.0
 70
     8
 71
     3
 72
    47
 73
    43
 74
     0
 42
0.0000000001024602
 43
0.0000000001
 40
0.1079751478339842
 40
0.1079751478339842
 40
0.1079751478339842
 40
0.1079751478339842
 40
0.1160547330003599
 40
0.1260391796199166
 40
0.1355245123068377
 40
0.1473977303257214
 40
0.1571270472280492
 40
0.1666241799079383
 40
0.1761660357489571
 40
0.1951086338281229
 40
0.2197543792406844
 40
0.2430397985887404
 40
0.2606626881748059
 40
0.2754334783054649
 40
0.2942358874333686
 40
0.3135110839185099
 40
0.331270507622879
 40
0.3482724476309661
 40
0.3626815903988433
 40
0.3768977684337258
 40
0.3890870855006333
 40
0.3963393643179727
 40
0.4032740487054369
 40
0.4128095462029658
 40
0.4258510893394032
 40
0.4438569907952885
 40
0.4855278179099342
 40
0.5624992642030517
 40
0.6358857950560786
 40
0.7115393072175851
 40
0.7473637261656813
 40
0.7779975807946414
 40
0.805778127416793
 40
0.8301709888605449
 40
0.8485674073344202
 40
0.8615113019866889
 40
0.8757422181798025
 40
0.8954005998848902
 40
0.9173744970233958
 40
0.9435919012124915
 40
0.9740764207353794
 40
1.0
 40
1.0
 40
1.0
 40
1.0
 10
21.4297411075606
 20
202.6377563007455
 30
0.0
 10
21.42977469816597
 20
202.6376725176483
 30
0.0
 10
21.44381605230247
 20
202.6250471860527
 30
0.0
 10
21.51596648004236
 20
202.5570217398123
 30
0.0
 10
21.65469958230172
 20
202.4146188245572
 30
0.0
 10
21.85016524370779
 20
202.1995542958987
 30
0.0
 10
22.10243814372477
 20
201.8985320183782
 30
0.0
 10
22.40628046604627
 20
201.5149350186038
 30
0.0
 10
22.86021926253284
 20
200.903084501628
 30
0.0
 10
23.59197589754975
 20
199.8488639019233
 30
0.0
 10
24.56818449395654
 20
198.2469990435424
 30
0.0
 10
25.47621752464637
 20
196.4884570520238
 30
0.0
 10
26.19334844434036
 20
194.852593499154
 30
0.0
 10
26.79639200174669
 20
193.2833226135321
 30
0.0
 10
27.34079186551733
 20
191.5478456378145
 30
0.0
 10
27.82371073359446
 20
189.6914438117989
 30
0.0
 10
28.22079600077574
 20
187.7818228076469
 30
0.0
 10
28.50489546478078
 20
186.0142524933139
 30
0.0
 10
28.71333357581885
 20
184.3519680490189
 30
0.0
 10
28.85572720335571
 20
182.8535169467042
 30
0.0
 10
28.9432523536969
 20
181.6131149209818
 30
0.0
 10
28.99703316080223
 20
180.6347573549552
 30
0.0
 10
29.03625084923895
 20
179.7454404588901
 30
0.0
 10
29.07336684814399
 20
178.6339162724202
 30
0.0
 10
29.1029925113582
 20
177.1008289429381
 30
0.0
 10
29.11942763243639
 20
174.3490909438913
 30
0.0
 10
29.04272651050839
 20
169.1708624477018
 30
0.0
 10
29.05946677705483
 20
161.8746907733108
 30
0.0
 10
29.31563914922533
 20
153.2644182425578
 30
0.0
 10
29.41776781824645
 20
146.2141766087817
 30
0.0
 10
29.49907851099711
 20
140.7804964349164
 30
0.0
 10
29.53999197004461
 20
137.2269494283232
 30
0.0
 10
29.57951754772738
 20
134.1929307342677
 30
0.0
 10
29.62192190531022
 20
131.6936077170322
 30
0.0
 10
29.65018135212719
 20
129.7815315795739
 30
0.0
 10
29.67178591073373
 20
128.3046163165
 30
0.0
 10
29.69648453119083
 20
126.8299074783928
 30
0.0
 10
29.71349583480615
 20
125.1798130341644
 30
0.0
 10
29.7149008410202
 20
123.271423179495
 30
0.0
 10
29.72441167090049
 20
121.3739682121089
 30
0.0
 10
29.73225046781627
 20
119.2986435531677
 30
0.0
 10
29.73941825142181
 20
118.0213944381426
 30
0.0
 10
29.74323353207724
 20
117.3220191028897
 30
0.0
  0
ARC
  5
17B
330
155
100
AcDbEntity
  8
$DDT_AUDIT_GENERATED_(E7)
  6
Continuous
 62
     7
100
AcDbCircle
 10
-13.2372095485
 20
116.8536650763
 30
0.0
 40
51.54668066927444
100
AcDbArc
 50
355.5305932888
 51
0.5422716977
  0
ARC
  5
17C
330
155
100
AcDbEntity
  8
$DDT_AUDIT_GENERATED_(E7)
  6
Continuous
 62
     7
100
AcDbCircle
 10
34.885281153
 20
109.1041479067
 30
0.0
 40
2.726214423657974
100
AcDbArc
 50
285.0217728494
 51
349.7475726871
  0
ARC
  5
17D
330
155
100
AcDbEntity
  8
$DDT_AUDIT_GENERATED_(E7)
  6
Continuous
 62
     7
100
AcDbCircle
 10
34.0267717176
 20
116.6222093849
 30
0.0
 40
10.27094310253086
100
AcDbArc
 50
269.9902794012
 51
278.9226093487
  0
ARC
  5
17E
330
155
100
AcDbEntity
  8
$DDT_AUDIT_GENERATED_(E7)
  6
Continuous
 62
     7
100
AcDbCircle
 10
-17.7317232209
 20
118.4242170199
 30
0.0
 40
56.16244245692088
100
AcDbArc
 50
349.9462133426
 51
354.2830544852
  0
SPLINE
  5
17F
330
155
100
AcDbEntity
  8
$DDT_AUDIT_GENERATED_(E7)
  6
Continuous
 62
     7
100
AcDbSpline
210
0.0
220
0.0
230
1.0
 70
     8
 71
     3
 72
    66
 73
    62
 74
     0
 42
0.0000000001025734
 43
0.0000000001
 40
0.0
 40
0.0
 40
0.0
 40
0.0
 40
0.0161503737695325
 40
0.0391247299506837
 40
0.0598919209226996
 40
0.0785683334488124
 40
0.0950685399345692
 40
0.1101169705972272
 40
0.1237192196393099
 40
0.13428732265688
 40
0.1433774255945633
 40
0.1527254742730043
 40
0.1663835788047891
 40
0.1842636790459626
 40
0.2038809150850532
 40
0.2252430548218595
 40
0.2480981667796747
 40
0.2714385969693133
 40
0.306906367563719
 40
0.3417338081479552
 40
0.3792289883942283
 40
0.4271509476534939
 40
0.4766197356782012
 40
0.5281585843966116
 40
0.550936985892922
 40
0.564503530229608
 40
0.5764275754280962
 40
0.586326816267084
 40
0.5946016643982561
 40
0.599172305918773
 40
0.6027600653454858
 40
0.6060542701251094
 40
0.6110732212683312
 40
0.6177965938503082
 40
0.6261350410135459
 40
0.6345580740414684
 40
0.644114641179926
 40
0.6569640823906375
 40
0.6698212092836897
 40
0.6830710767748651
 40
0.6976199939109399
 40
0.71146492752774
 40
0.723308156967091
 40
0.7328635578920034
 40
0.7410114486183668
 40
0.7519449989472522
 40
0.7629270280768436
 40
0.7738852149854418
 40
0.785481852267904
 40
0.796131985838382
 40
0.805683942066094
 40
0.8161672144762747
 40
0.8277545361158969
 40
0.8383938860736954
 40
0.848478847410135
 40
0.8565142694681449
 40
0.8639602887963388
 40
0.8721977599433492
 40
0.881761904214897
 40
0.8909874529905247
 40
0.8929733846744656
 40
0.8929733846744656
 40
0.8929733846744656
 40
0.8929733846744656
 10
38.30682609999349
 20
117.3220208187309
 30
0.0
 10
38.30920363550277
 20
117.7576980188677
 30
0.0
 10
38.3140400301092
 20
118.6404589635284
 30
0.0
 10
38.32103273048594
 20
120.162495846613
 30
0.0
 10
38.32786989265737
 20
121.6515816554202
 30
0.0
 10
38.33210454330975
 20
123.0416147881701
 30
0.0
 10
38.33842234318243
 20
124.3943666028461
 30
0.0
 10
38.33869981941555
 20
125.6869670375745
 30
0.0
 10
38.35598900348716
 20
126.8637744958907
 30
0.0
 10
38.37175086914669
 20
127.8993636385463
 30
0.0
 10
38.38537575785393
 20
128.8264519398535
 30
0.0
 10
38.40111320961616
 20
129.8792534202736
 30
0.0
 10
38.42366647823831
 20
131.2758005720784
 30
0.0
 10
38.44887720030504
 20
133.0706461059627
 30
0.0
 10
38.48666307027613
 20
135.1880683820564
 30
0.0
 10
38.51170168000148
 20
137.5459111481475
 30
0.0
 10
38.54438269420802
 20
140.0831343395027
 30
0.0
 10
38.58348074095329
 20
143.2034815277082
 30
0.0
 10
38.64969562675499
 20
146.7732370191249
 30
0.0
 10
38.6819558096381
 20
150.8920742273239
 30
0.0
 10
38.82131863125285
 20
155.4708742480025
 30
0.0
 10
38.93251107412183
 20
160.610005464585
 30
0.0
 10
39.01512705943387
 20
166.2725170378149
 30
0.0
 10
38.97635491909064
 20
170.9705077289471
 30
0.0
 10
38.93777296083178
 20
174.299555804441
 30
0.0
 10
38.94120865300069
 20
176.1268808068751
 30
0.0
 10
38.95310822316089
 20
177.4651170456891
 30
0.0
 10
38.97744735547601
 20
178.6019051175483
 30
0.0
 10
39.00372125767043
 20
179.4588660486745
 30
0.0
 10
39.02842448224211
 20
180.0760782946305
 30
0.0
 10
39.04778638435977
 20
180.5049698414954
 30
0.0
 10
39.07022073563405
 20
180.9482113805459
 30
0.0
 10
39.10184163514089
 20
181.505065891831
 30
0.0
 10
39.15107988488274
 20
182.2465379069096
 30
0.0
 10
39.2195732379141
 20
183.1093078050045
 30
0.0
 10
39.31201467075812
 20
184.076230742789
 30
0.0
 10
39.44026161411789
 20
185.2006680275882
 30
0.0
 10
39.61748118397981
 20
186.4830987218346
 30
0.0
 10
39.85380269762641
 20
187.8750667674592
 30
0.0
 10
40.14686416378783
 20
189.3203318860218
 30
0.0
 10
40.4916909005031
 20
190.7213845399112
 30
0.0
 10
40.86679891507014
 20
192.0595081199661
 30
0.0
 10
41.23561075435229
 20
193.1997324181666
 30
0.0
 10
41.57705086275061
 20
194.1242577751912
 30
0.0
 10
41.9209121862958
 20
194.9896338950483
 30
0.0
 10
42.3047099823869
 20
195.8748498094733
 30
0.0
 10
42.74383576081525
 20
196.8038897709784
 30
0.0
 10
43.2082093609251
 20
197.7096997638792
 30
0.0
 10
43.67668464072834
 20
198.5475203275734
 30
0.0
 10
44.13300230575942
 20
199.3127189501105
 30
0.0
 10
44.57061332882506
 20
199.995704932706
 30
0.0
 10
45.01335233568651
 20
200.6503503320646
 30
0.0
 10
45.43732608565679
 20
201.2414592167344
 30
0.0
 10
45.80501241631426
 20
201.7222101208578
 30
0.0
 10
46.07394844966998
 20
202.050828924361
 30
0.0
 10
46.25786248161252
 20
202.2634936718861
 30
0.0
 10
46.39921408702694
 20
202.417915598481
 30
0.0
 10
46.51443578436754
 20
202.536949088242
 30
0.0
 10
46.58938542161732
 20
202.6098249289142
 30
0.0
 10
46.61874157684932
 20
202.6362336639227
 30
0.0
 10
46.62118764005705
 20
202.6383934483797
 30
0.0
 10
46.62116273354054
 20
202.6383750723379
 30
0.0
  0
ENDBLK
  5
181
330
155
100
AcDbEntity
  8
0
100
AcDbBlockEnd
  0
ENDSEC
  0
SECTION
  2
ENTITIES
  0
INSERT
  5
5F
330
1F
100
AcDbEntity
  8
Default
100
AcDbBlockReference
  2
SEANNOT_GROUP
 10
0.0
 20
0.0
 30
0.0
  0
INSERT
  5
65
330
1F
100
AcDbEntity
  8
Default
100
AcDbBlockReference
  2
SEANNOT_GROUP1
 10
0.0
 20
0.0
 30
0.0
  0
INSERT
  5
6A
330
1F
100
AcDbEntity
  8
Default
100
AcDbBlockReference
  2
SEANNOT_GROUP2
 10
0.0
 20
0.0
 30
0.0
  0
INSERT
  5
6F
330
1F
100
AcDbEntity
  8
Default
100
AcDbBlockReference
  2
SE
 10
0.0
 20
0.0
 30
0.0
  0
INSERT
  5
111
330
1F
100
AcDbEntity
  8
Default
100
AcDbBlockReference
  2
SE1
 10
0.0
 20
0.0
 30
0.0
  0
INSERT
  5
156
330
1F
100
AcDbEntity
  8
Default
100
AcDbBlockReference
  2
SE2
 10
0.0
 20
0.0
 30
0.0
  0
TEXT
  5
183
330
1F
100
AcDbEntity
  8
Default
  6
Continuous
 62
     7
100
AcDbText
 10
5.9362635081
 20
53.4225120485
 30
0.0
 40
10.0
  1
Grohe AG^J
  7
SEACAD_seiso_ttf
 11
5.9362635081
 21
63.4225120485
 31
0.0
100
AcDbText
 73
     3
  0
TEXT
  5
184
330
1F
100
AcDbEntity
  8
Default
  6
Continuous
 62
     7
100
AcDbText
 10
5.9362635081
 20
37.0588756849
 30
0.0
 40
10.0
  1
 
  7
SEACAD_seiso_ttf
 11
5.9362635081
 21
47.0588756849
 31
0.0
100
AcDbText
 73
     3
  0
TEXT
  5
185
330
1F
100
AcDbEntity
  8
Default
  6
Continuous
 62
     7
100
AcDbText
 10
5.9362635081
 20
20.6952393213
 30
0.0
 40
10.0
  1
ecn: 
  7
SEACAD_seiso_ttf
 11
5.9362635081
 21
30.6952393213
 31
0.0
100
AcDbText
 73
     3
  0
TEXT
  5
186
330
1F
100
AcDbEntity
  8
Default
  6
Continuous
 62
     7
100
AcDbText
 10
5.9362635081
 20
4.3316029576
 30
0.0
 40
10.0
  1
unit: mm
  7
SEACAD_seiso_ttf
 11
5.9362635081
 21
14.3316029576
 31
0.0
100
AcDbText
 73
     3
  0
LINE
  5
187
330
1F
100
AcDbEntity
  8
Default
  6
Continuous
 62
     7
100
AcDbLine
 10
0.0
 20
0.0
 30
0.0
 11
100.0
 21
0.0
 31
0.0
  0
LINE
  5
188
330
1F
100
AcDbEntity
  8
Default
  6
Continuous
 62
     7
100
AcDbLine
 10
0.0
 20
0.0
 30
0.0
 11
0.0
 21
100.0
 31
0.0
  0
TEXT
  5
189
330
1F
100
AcDbEntity
  8
Default
  6
Continuous
 62
     7
100
AcDbText
 10
24.3923665681
 20
-18.2375342018
 30
0.0
 40
10.0
  1
100 mm
  7
SEACAD_seiso_ttf
 11
24.3923665681
 21
-8.2375342018
 31
0.0
100
AcDbText
 73
     3
  0
TEXT
  5
18A
330
1F
100
AcDbEntity
  8
Default
  6
Continuous
 62
     7
100
AcDbText
 10
-7.6150308803
 20
24.6231930421
 30
0.0
 40
10.0
  1
100 mm
 50
90.0
  7
SEACAD_seiso_ttf
 11
-17.6150308803
 21
24.6231930421
 31
0.0
100
AcDbText
 73
     3
  0
TEXT
  5
18B
330
1F
100
AcDbEntity
  8
Default
  6
Continuous
 62
     7
100
AcDbText
 10
28.4878128572
 20
20.0907663715
 30
0.0
 40
10.0
  1
216969
  7
SEACAD_seiso_ttf
 11
28.4878128572
 21
30.0907663715
 31
0.0
100
AcDbText
 73
     3
  0
TEXT
  5
18C
330
1F
100
AcDbEntity
  8
Default
  6
Continuous
 62
     7
100
AcDbText
 10
5.9012241913
 20
36.7242780188
 30
0.0
 40
10.0
  1
32789000
  7
SEACAD_seiso_ttf
 11
5.9012241913
 21
46.7242780188
 31
0.0
100
AcDbText
 73
     3
  0
ENDSEC
  0
SECTION
  2
OBJECTS
  0
DICTIONARY
  5
C
330
0
100
AcDbDictionary
281
     1
  3
ACAD_GROUP
350
D
  3
ACAD_LAYOUT
350
1A
  3
ACAD_MLEADERSTYLE
350
190
  3
ACAD_MLINESTYLE
350
17
  3
ACAD_PLOTSETTINGS
350
19
  3
ACAD_PLOTSTYLENAME
350
E
  3
ACAD_SCALELIST
350
3B
  3
ACAD_TABLESTYLE
350
18F
  3
ACAD_VISUALSTYLE
350
2A
  3
AcDbVariableDictionary
350
18D
  0
DICTIONARY
  5
D
102
{ACAD_REACTORS
330
C
102
}
330
C
100
AcDbDictionary
281
     1
  0
DICTIONARY
  5
1A
102
{ACAD_REACTORS
330
C
102
}
330
C
100
AcDbDictionary
281
     1
  3
Layout1
350
1E
  3
Model
350
22
  0
DICTIONARY
  5
190
102
{ACAD_REACTORS
330
C
102
}
330
C
100
AcDbDictionary
281
     1
  0
DICTIONARY
  5
17
102
{ACAD_REACTORS
330
C
102
}
330
C
100
AcDbDictionary
281
     1
  3
Standard
350
18
  0
DICTIONARY
  5
19
102
{ACAD_REACTORS
330
C
102
}
330
C
100
AcDbDictionary
281
     1
  0
ACDBDICTIONARYWDFLT
  5
E
102
{ACAD_REACTORS
330
C
102
}
330
C
100
AcDbDictionary
281
     1
  3
Normal
350
F
100
AcDbDictionaryWithDefault
340
F
  0
DICTIONARY
  5
3B
102
{ACAD_REACTORS
330
C
102
}
330
C
100
AcDbDictionary
281
     1
  3
A0
350
3C
  3
A1
350
3D
  3
A2
350
3E
  3
A3
350
3F
  3
A4
350
40
  3
A5
350
41
  3
A6
350
42
  3
A7
350
43
  3
A8
350
44
  3
A9
350
45
  3
B0
350
46
  3
B1
350
47
  3
B2
350
48
  3
B3
350
49
  3
B4
350
4A
  3
B5
350
4B
  3
B6
350
4C
  3
B7
350
4D
  3
B8
350
4E
  3
B9
350
4F
  3
C0
350
50
  3
C1
350
51
  3
C2
350
52
  3
C3
350
53
  3
C4
350
54
  3
C5
350
55
  3
C6
350
56
  3
C7
350
57
  3
C8
350
58
  3
C9
350
59
  3
D0
350
5A
  3
D1
350
5B
  3
D2
350
5C
  0
DICTIONARY
  5
18F
102
{ACAD_REACTORS
330
C
102
}
330
C
100
AcDbDictionary
281
     1
  0
DICTIONARY
  5
2A
102
{ACAD_REACTORS
330
C
102
}
330
C
100
AcDbDictionary
281
     1
  3
2dWireframe
350
2F
  3
3D Hidden
350
31
  3
3dWireframe
350
30
  3
Basic
350
32
  3
Brighten
350
36
  3
ColorChange
350
3A
  3
Conceptual
350
34
  3
Dim
350
35
  3
Facepattern
350
39
  3
Flat
350
2B
  3
FlatWithEdges
350
2C
  3
Gouraud
350
2D
  3
GouraudWithEdges
350
2E
  3
Linepattern
350
38
  3
Realistic
350
33
  3
Thicken
350
37
  0
DICTIONARY
  5
18D
102
{ACAD_REACTORS
330
C
102
}
330
C
100
AcDbDictionary
281
     1
  3
CANNOSCALE
350
18E
  3
PSOLHEIGHT
350
192
  3
PSOLWIDTH
350
191
  0
LAYOUT
  5
1E
102
{ACAD_REACTORS
330
1A
102
}
330
1A
100
AcDbPlotSettings
  1

  2
none_device
  4

  6

 40
0.0
 41
0.0
 42
0.0
 43
0.0
 44
0.0
 45
0.0
 46
0.0
 47
0.0
 48
0.0
 49
0.0
140
0.0
141
0.0
142
1.0
143
1.0
 70
   688
 72
     0
 73
     0
 74
     5
  7

 75
    16
147
1.0
148
0.0
149
0.0
100
AcDbLayout
  1
Layout1
 70
     1
 71
     1
 10
0.0
 20
0.0
 11
1682.0
 21
2378.0
 12
0.0
 22
0.0
 32
0.0
 14
0.0
 24
0.0
 34
0.0
 15
1682.0
 25
2378.0
 35
0.0
146
0.0
 13
0.0
 23
0.0
 33
0.0
 16
1.0
 26
0.0
 36
0.0
 17
0.0
 27
1.0
 37
0.0
 76
     0
330
1B
  0
LAYOUT
  5
22
102
{ACAD_REACTORS
330
1A
102
}
330
1A
100
AcDbPlotSettings
  1

  2
none_device
  4

  6

 40
0.0
 41
0.0
 42
0.0
 43
0.0
 44
0.0
 45
0.0
 46
0.0
 47
0.0
 48
0.0
 49
0.0
140
0.0
141
0.0
142
1.0
143
1.0
 70
  1712
 72
     0
 73
     0
 74
     0
  7

 75
     0
147
1.0
148
0.0
149
0.0
100
AcDbLayout
  1
Model
 70
     1
 71
     0
 10
0.0
 20
0.0
 11
1682.0
 21
2378.0
 12
0.0
 22
0.0
 32
0.0
 14
0.0
 24
0.0
 34
0.0
 15
1682.0
 25
2378.0
 35
0.0
146
0.0
 13
0.0
 23
0.0
 33
0.0
 16
1.0
 26
0.0
 36
0.0
 17
0.0
 27
1.0
 37
0.0
 76
     0
330
1F
331
29
  0
MLINESTYLE
  5
18
102
{ACAD_REACTORS
330
17
102
}
330
17
100
AcDbMlineStyle
  2
Standard
 70
     0
  3

 62
   256
 51
90.0
 52
90.0
 71
     2
 49
0.5
 62
   256
  6
BYLAYER
 49
-0.5
 62
   256
  6
BYLAYER
  0
ACDBPLACEHOLDER
  5
F
102
{ACAD_REACTORS
330
E
102
}
330
E
  0
SCALE
  5
3C
102
{ACAD_REACTORS
330
3B
102
}
330
3B
100
AcDbScale
 70
     0
300
1:1
140
1.0
141
1.0
290
     1
  0
SCALE
  5
3D
102
{ACAD_REACTORS
330
3B
102
}
330
3B
100
AcDbScale
 70
     0
300
1:2
140
1.0
141
2.0
290
     0
  0
SCALE
  5
3E
102
{ACAD_REACTORS
330
3B
102
}
330
3B
100
AcDbScale
 70
     0
300
1:4
140
1.0
141
4.0
290
     0
  0
SCALE
  5
3F
102
{ACAD_REACTORS
330
3B
102
}
330
3B
100
AcDbScale
 70
     0
300
1:5
140
1.0
141
5.0
290
     0
  0
SCALE
  5
40
102
{ACAD_REACTORS
330
3B
102
}
330
3B
100
AcDbScale
 70
     0
300
1:8
140
1.0
141
8.0
290
     0
  0
SCALE
  5
41
102
{ACAD_REACTORS
330
3B
102
}
330
3B
100
AcDbScale
 70
     0
300
1:10
140
1.0
141
10.0
290
     0
  0
SCALE
  5
42
102
{ACAD_REACTORS
330
3B
102
}
330
3B
100
AcDbScale
 70
     0
300
1:16
140
1.0
141
16.0
290
     0
  0
SCALE
  5
43
102
{ACAD_REACTORS
330
3B
102
}
330
3B
100
AcDbScale
 70
     0
300
1:20
140
1.0
141
20.0
290
     0
  0
SCALE
  5
44
102
{ACAD_REACTORS
330
3B
102
}
330
3B
100
AcDbScale
 70
     0
300
1:30
140
1.0
141
30.0
290
     0
  0
SCALE
  5
45
102
{ACAD_REACTORS
330
3B
102
}
330
3B
100
AcDbScale
 70
     0
300
1:40
140
1.0
141
40.0
290
     0
  0
SCALE
  5
46
102
{ACAD_REACTORS
330
3B
102
}
330
3B
100
AcDbScale
 70
     0
300
1:50
140
1.0
141
50.0
290
     0
  0
SCALE
  5
47
102
{ACAD_REACTORS
330
3B
102
}
330
3B
100
AcDbScale
 70
     0
300
1:100
140
1.0
141
100.0
290
     0
  0
SCALE
  5
48
102
{ACAD_REACTORS
330
3B
102
}
330
3B
100
AcDbScale
 70
     0
300
2:1
140
2.0
141
1.0
290
     0
  0
SCALE
  5
49
102
{ACAD_REACTORS
330
3B
102
}
330
3B
100
AcDbScale
 70
     0
300
4:1
140
4.0
141
1.0
290
     0
  0
SCALE
  5
4A
102
{ACAD_REACTORS
330
3B
102
}
330
3B
100
AcDbScale
 70
     0
300
8:1
140
8.0
141
1.0
290
     0
  0
SCALE
  5
4B
102
{ACAD_REACTORS
330
3B
102
}
330
3B
100
AcDbScale
 70
     0
300
10:1
140
10.0
141
1.0
290
     0
  0
SCALE
  5
4C
102
{ACAD_REACTORS
330
3B
102
}
330
3B
100
AcDbScale
 70
     0
300
100:1
140
100.0
141
1.0
290
     0
  0
SCALE
  5
4D
102
{ACAD_REACTORS
330
3B
102
}
330
3B
100
AcDbScale
 70
     0
300
1/128" = 1'-0"
140
0.0078125
141
12.0
290
     0
  0
SCALE
  5
4E
102
{ACAD_REACTORS
330
3B
102
}
330
3B
100
AcDbScale
 70
     0
300
1/64" = 1'-0"
140
0.015625
141
12.0
290
     0
  0
SCALE
  5
4F
102
{ACAD_REACTORS
330
3B
102
}
330
3B
100
AcDbScale
 70
     0
300
1/32" = 1'-0"
140
0.03125
141
12.0
290
     0
  0
SCALE
  5
50
102
{ACAD_REACTORS
330
3B
102
}
330
3B
100
AcDbScale
 70
     0
300
1/16" = 1'-0"
140
0.0625
141
12.0
290
     0
  0
SCALE
  5
51
102
{ACAD_REACTORS
330
3B
102
}
330
3B
100
AcDbScale
 70
     0
300
3/32" = 1'-0"
140
0.09375
141
12.0
290
     0
  0
SCALE
  5
52
102
{ACAD_REACTORS
330
3B
102
}
330
3B
100
AcDbScale
 70
     0
300
1/8" = 1'-0"
140
0.125
141
12.0
290
     0
  0
SCALE
  5
53
102
{ACAD_REACTORS
330
3B
102
}
330
3B
100
AcDbScale
 70
     0
300
3/16" = 1'-0"
140
0.1875
141
12.0
290
     0
  0
SCALE
  5
54
102
{ACAD_REACTORS
330
3B
102
}
330
3B
100
AcDbScale
 70
     0
300
1/4" = 1'-0"
140
0.25
141
12.0
290
     0
  0
SCALE
  5
55
102
{ACAD_REACTORS
330
3B
102
}
330
3B
100
AcDbScale
 70
     0
300
3/8" = 1'-0"
140
0.375
141
12.0
290
     0
  0
SCALE
  5
56
102
{ACAD_REACTORS
330
3B
102
}
330
3B
100
AcDbScale
 70
     0
300
1/2" = 1'-0"
140
0.5
141
12.0
290
     0
  0
SCALE
  5
57
102
{ACAD_REACTORS
330
3B
102
}
330
3B
100
AcDbScale
 70
     0
300
3/4" = 1'-0"
140
0.75
141
12.0
290
     0
  0
SCALE
  5
58
102
{ACAD_REACTORS
330
3B
102
}
330
3B
100
AcDbScale
 70
     0
300
1" = 1'-0"
140
1.0
141
12.0
290
     0
  0
SCALE
  5
59
102
{ACAD_REACTORS
330
3B
102
}
330
3B
100
AcDbScale
 70
     0
300
1-1/2" = 1'-0"
140
1.5
141
12.0
290
     0
  0
SCALE
  5
5A
102
{ACAD_REACTORS
330
3B
102
}
330
3B
100
AcDbScale
 70
     0
300
3" = 1'-0"
140
3.0
141
12.0
290
     0
  0
SCALE
  5
5B
102
{ACAD_REACTORS
330
3B
102
}
330
3B
100
AcDbScale
 70
     0
300
6" = 1'-0"
140
6.0
141
12.0
290
     0
  0
SCALE
  5
5C
102
{ACAD_REACTORS
330
3B
102
}
330
3B
100
AcDbScale
 70
     0
300
1'-0" = 1'-0"
140
12.0
141
12.0
290
     0
  0
VISUALSTYLE
  5
2F
102
{ACAD_REACTORS
330
2A
102
}
330
2A
100
AcDbVisualStyle
  2
2dWireframe
 70
     4
 71
     0
 72
     2
 73
     0
 90
        0
 40
-0.6
 41
-30.0
 62
     5
 63
     7
 74
     1
 91
        4
 64
     7
 65
   257
 75
     1
175
     1
 42
1.0
 92
        0
 66
   257
 43
1.0
 76
     1
 77
     6
 78
     2
 67
     7
 79
     5
170
     0
171
     0
290
     0
174
     0
 93
        1
 44
0.0
173
     0
291
     0
 45
0.0
1001
ACAD
1000
AcDbSavedByObjectVersion
1070
     0
  0
VISUALSTYLE
  5
31
102
{ACAD_REACTORS
330
2A
102
}
330
2A
100
AcDbVisualStyle
  2
3D Hidden
 70
     6
 71
     1
 72
     2
 73
     2
 90
        0
 40
-0.6
 41
-30.0
 62
     5
 63
     7
 74
     2
 91
        2
 64
     7
 65
   257
 75
     2
175
     1
 42
40.0
 92
        0
 66
   257
 43
1.0
 76
     1
 77
     6
 78
     2
 67
     7
 79
     3
170
     0
171
     0
290
     0
174
     0
 93
        1
 44
0.0
173
     0
291
     0
 45
0.0
1001
ACAD
1000
AcDbSavedByObjectVersion
1070
     0
  0
VISUALSTYLE
  5
30
102
{ACAD_REACTORS
330
2A
102
}
330
2A
100
AcDbVisualStyle
  2
3dWireframe
 70
     5
 71
     0
 72
     2
 73
     0
 90
        0
 40
-0.6
 41
-30.0
 62
     5
 63
     7
 74
     1
 91
        4
 64
     7
 65
   257
 75
     1
175
     1
 42
1.0
 92
        0
 66
   257
 43
1.0
 76
     1
 77
     6
 78
     2
 67
     7
 79
     5
170
     0
171
     0
290
     0
174
     0
 93
        1
 44
0.0
173
     0
291
     0
 45
0.0
1001
ACAD
1000
AcDbSavedByObjectVersion
1070
     0
  0
VISUALSTYLE
  5
32
102
{ACAD_REACTORS
330
2A
102
}
330
2A
100
AcDbVisualStyle
  2
Basic
 70
     7
 71
     1
 72
     0
 73
     1
 90
        0
 40
-0.6
 41
-30.0
 62
     5
 63
     7
 74
     0
 91
        4
 64
     7
 65
   257
 75
     1
175
     1
 42
1.0
 92
        8
 66
     7
 43
1.0
 76
     1
 77
     6
 78
     2
 67
     7
 79
     5
170
     0
171
     0
290
     0
174
     0
 93
        1
 44
0.0
173
     0
291
     1
 45
0.0
1001
ACAD
1000
AcDbSavedByObjectVersion
1070
     0
  0
VISUALSTYLE
  5
36
102
{ACAD_REACTORS
330
2A
102
}
330
2A
100
AcDbVisualStyle
  2
Brighten
 70
    12
 71
     2
 72
     2
 73
     0
 90
        0
 40
-0.6
 41
-30.0
 62
     5
 63
     7
 74
     1
 91
        4
 64
     7
 65
   257
 75
     1
175
     1
 42
1.0
 92
        8
 66
     7
 43
1.0
 76
     1
 77
     6
 78
     2
 67
     7
 79
     5
170
     0
171
     0
290
     0
174
     0
 93
        1
 44
50.0
173
     0
291
     1
 45
0.0
1001
ACAD
1000
AcDbSavedByObjectVersion
1070
     0
  0
VISUALSTYLE
  5
3A
102
{ACAD_REACTORS
330
2A
102
}
330
2A
100
AcDbVisualStyle
  2
ColorChange
 70
    16
 71
     2
 72
     2
 73
     3
 90
        0
 40
-0.6
 41
-30.0
 62
     5
 63
     8
 74
     1
 91
        4
 64
     7
 65
   257
 75
     1
175
     1
 42
1.0
 92
        8
 66
     8
 43
1.0
 76
     1
 77
     6
 78
     2
 67
     7
 79
     5
170
     0
171
     0
290
     0
174
     0
 93
        1
 44
0.0
173
     0
291
     1
 45
0.0
1001
ACAD
1000
AcDbSavedByObjectVersion
1070
     0
  0
VISUALSTYLE
  5
34
102
{ACAD_REACTORS
330
2A
102
}
330
2A
100
AcDbVisualStyle
  2
Conceptual
 70
     9
 71
     3
 72
     2
 73
     0
 90
        0
 40
-0.6
 41
-30.0
 62
     5
 63
     7
 74
     2
 91
        2
 64
     7
 65
   257
 75
     1
175
     1
 42
40.0
 92
        8
 66
     7
 43
1.0
 76
     1
 77
     6
 78
     2
 67
     7
 79
     3
170
     0
171
     0
290
     0
174
     0
 93
        1
 44
0.0
173
     0
291
     0
 45
0.0
1001
ACAD
1000
AcDbSavedByObjectVersion
1070
     0
  0
VISUALSTYLE
  5
35
102
{ACAD_REACTORS
330
2A
102
}
330
2A
100
AcDbVisualStyle
  2
Dim
 70
    11
 71
     2
 72
     2
 73
     0
 90
        0
 40
-0.6
 41
-30.0
 62
     5
 63
     7
 74
     1
 91
        4
 64
     7
 65
   257
 75
     1
175
     1
 42
1.0
 92
        8
 66
     7
 43
1.0
 76
     1
 77
     6
 78
     2
 67
     7
 79
     5
170
     0
171
     0
290
     0
174
     0
 93
        1
 44
-50.0
173
     0
291
     1
 45
0.0
1001
ACAD
1000
AcDbSavedByObjectVersion
1070
     0
  0
VISUALSTYLE
  5
39
102
{ACAD_REACTORS
330
2A
102
}
330
2A
100
AcDbVisualStyle
  2
Facepattern
 70
    15
 71
     2
 72
     2
 73
     0
 90
        0
 40
-0.6
 41
-30.0
 62
     5
 63
     7
 74
     1
 91
        4
 64
     7
 65
   257
 75
     1
175
     1
 42
1.0
 92
        8
 66
     7
 43
1.0
 76
     1
 77
     6
 78
     2
 67
     7
 79
     5
170
     0
171
     0
290
     0
174
     0
 93
        1
 44
0.0
173
     0
291
     1
 45
0.0
1001
ACAD
1000
AcDbSavedByObjectVersion
1070
     0
  0
VISUALSTYLE
  5
2B
102
{ACAD_REACTORS
330
2A
102
}
330
2A
100
AcDbVisualStyle
  2
Flat
 70
     0
 71
     2
 72
     1
 73
     1
 90
        2
 40
-0.6
 41
30.0
 62
     5
 63
     7
 74
     0
 91
        4
 64
     7
 65
   257
 75
     1
175
     1
 42
1.0
 92
        8
 66
     7
 43
1.0
 76
     1
 77
     6
 78
     2
 67
     7
 79
     5
170
     0
171
     0
290
     0
174
     0
 93
       13
 44
0.0
173
     0
291
     1
 45
0.0
1001
ACAD
1000
AcDbSavedByObjectVersion
1070
     0
  0
VISUALSTYLE
  5
2C
102
{ACAD_REACTORS
330
2A
102
}
330
2A
100
AcDbVisualStyle
  2
FlatWithEdges
 70
     1
 71
     2
 72
     1
 73
     1
 90
        2
 40
-0.6
 41
30.0
 62
     5
 63
     7
 74
     1
 91
        4
 64
     7
 65
   257
 75
     1
175
     1
 42
1.0
 92
        0
 66
   257
 43
1.0
 76
     1
 77
     6
 78
     2
 67
     7
 79
     5
170
     0
171
     0
290
     0
174
     0
 93
       13
 44
0.0
173
     0
291
     1
 45
0.0
1001
ACAD
1000
AcDbSavedByObjectVersion
1070
     0
  0
VISUALSTYLE
  5
2D
102
{ACAD_REACTORS
330
2A
102
}
330
2A
100
AcDbVisualStyle
  2
Gouraud
 70
     2
 71
     2
 72
     2
 73
     1
 90
        2
 40
-0.6
 41
30.0
 62
     5
 63
     7
 74
     0
 91
        4
 64
     7
 65
   257
 75
     1
175
     1
 42
1.0
 92
        0
 66
     7
 43
1.0
 76
     1
 77
     6
 78
     2
 67
     7
 79
     5
170
     0
171
     0
290
     0
174
     0
 93
       13
 44
0.0
173
     0
291
     1
 45
0.0
1001
ACAD
1000
AcDbSavedByObjectVersion
1070
     0
  0
VISUALSTYLE
  5
2E
102
{ACAD_REACTORS
330
2A
102
}
330
2A
100
AcDbVisualStyle
  2
GouraudWithEdges
 70
     3
 71
     2
 72
     2
 73
     1
 90
        2
 40
-0.6
 41
30.0
 62
     5
 63
     7
 74
     1
 91
        4
 64
     7
 65
   257
 75
     1
175
     1
 42
1.0
 92
        0
 66
   257
 43
1.0
 76
     1
 77
     6
 78
     2
 67
     7
 79
     5
170
     0
171
     0
290
     0
174
     0
 93
       13
 44
0.0
173
     0
291
     1
 45
0.0
1001
ACAD
1000
AcDbSavedByObjectVersion
1070
     0
  0
VISUALSTYLE
  5
38
102
{ACAD_REACTORS
330
2A
102
}
330
2A
100
AcDbVisualStyle
  2
Linepattern
 70
    14
 71
     2
 72
     2
 73
     0
 90
        0
 40
-0.6
 41
-30.0
 62
     5
 63
     7
 74
     1
 91
        4
 64
     7
 65
   257
 75
     7
175
     7
 42
1.0
 92
        8
 66
     7
 43
1.0
 76
     1
 77
     6
 78
     2
 67
     7
 79
     5
170
     0
171
     0
290
     0
174
     0
 93
        1
 44
0.0
173
     0
291
     1
 45
0.0
1001
ACAD
1000
AcDbSavedByObjectVersion
1070
     0
  0
VISUALSTYLE
  5
33
102
{ACAD_REACTORS
330
2A
102
}
330
2A
100
AcDbVisualStyle
  2
Realistic
 70
     8
 71
     2
 72
     2
 73
     0
 90
        0
 40
-0.6
 41
-30.0
 62
     5
 63
     7
 74
     1
 91
        0
 64
     7
 65
   257
 75
     1
175
     1
 42
1.0
 92
        8
 66
     8
 43
1.0
 76
     1
 77
     6
 78
     2
 67
     7
 79
     5
170
     0
171
     0
290
     0
174
     0
 93
       13
 44
0.0
173
     0
291
     0
 45
0.0
1001
ACAD
1000
AcDbSavedByObjectVersion
1070
     0
  0
VISUALSTYLE
  5
37
102
{ACAD_REACTORS
330
2A
102
}
330
2A
100
AcDbVisualStyle
  2
Thicken
 70
    13
 71
     2
 72
     2
 73
     0
 90
        0
 40
-0.6
 41
-30.0
 62
     5
 63
     7
 74
     1
 91
        4
 64
     7
 65
   257
 75
     1
175
     1
 42
1.0
 92
       12
 66
     7
 43
1.0
 76
     1
 77
     6
 78
     2
 67
     7
 79
     5
170
     0
171
     0
290
     0
174
     0
 93
        1
 44
0.0
173
     0
291
     1
 45
0.0
1001
ACAD
1000
AcDbSavedByObjectVersion
1070
     0
  0
DICTIONARYVAR
  5
18E
102
{ACAD_REACTORS
330
18D
102
}
330
18D
100
DictionaryVariables
280
     0
  1
1:1
  0
DICTIONARYVAR
  5
192
102
{ACAD_REACTORS
330
18D
102
}
330
18D
100
DictionaryVariables
280
     0
  1
80.000000
  0
DICTIONARYVAR
  5
191
102
{ACAD_REACTORS
330
18D
102
}
330
18D
100
DictionaryVariables
280
     0
  1
5.000000
  0
ENDSEC
  0
EOF
