  0
SECTION
  2
HEADER
  9
$ACADVER
  1
AC1015
  9
$ACADMAINTVER
 70
     6
  9
$DWGCODEPAGE
  3
ANSI_1252
  9
$INSBASE
 10
0.0
 20
0.0
 30
0.0
  9
$EXTMIN
 10
0.0
 20
0.0
 30
0.0
  9
$EXTMAX
 10
1682.0
 20
2378.0
 30
0.0
  9
$LIMMIN
 10
0.0
 20
0.0
  9
$LIMMAX
 10
1682.0
 20
2378.0
  9
$ORTHOMODE
 70
     0
  9
$REGENMODE
 70
     1
  9
$FILLMODE
 70
     1
  9
$QTEXTMODE
 70
     0
  9
$MIRRTEXT
 70
     1
  9
$LTSCALE
 40
1.0
  9
$ATTMODE
 70
     1
  9
$TEXTSIZE
 40
2.5
  9
$TRACEWID
 40
1.0
  9
$TEXTSTYLE
  7
Standard
  9
$CLAYER
  8
0
  9
$CELTYPE
  6
ByLayer
  9
$CECOLOR
 62
   256
  9
$CELTSCALE
 40
1.0
  9
$DISPSILH
 70
     0
  9
$DIMSCALE
 40
1.0
  9
$DIMASZ
 40
2.5
  9
$DIMEXO
 40
0.625
  9
$DIMDLI
 40
3.75
  9
$DIMRND
 40
0.0
  9
$DIMDLE
 40
0.0
  9
$DIMEXE
 40
1.25
  9
$DIMTP
 40
0.0
  9
$DIMTM
 40
0.0
  9
$DIMTXT
 40
2.5
  9
$DIMCEN
 40
2.5
  9
$DIMTSZ
 40
0.0
  9
$DIMTOL
 70
     0
  9
$DIMLIM
 70
     0
  9
$DIMTIH
 70
     0
  9
$DIMTOH
 70
     0
  9
$DIMSE1
 70
     0
  9
$DIMSE2
 70
     0
  9
$DIMTAD
 70
     1
  9
$DIMZIN
 70
     8
  9
$DIMBLK
  1

  9
$DIMASO
 70
     1
  9
$DIMSHO
 70
     1
  9
$DIMPOST
  1

  9
$DIMAPOST
  1

  9
$DIMALT
 70
     0
  9
$DIMALTD
 70
     3
  9
$DIMALTF
 40
0.0393700787
  9
$DIMLFAC
 40
1.0
  9
$DIMTOFL
 70
     1
  9
$DIMTVP
 40
0.0
  9
$DIMTIX
 70
     0
  9
$DIMSOXD
 70
     0
  9
$DIMSAH
 70
     0
  9
$DIMBLK1
  1

  9
$DIMBLK2
  1

  9
$DIMSTYLE
  2
ISO-25
  9
$DIMCLRD
 70
     0
  9
$DIMCLRE
 70
     0
  9
$DIMCLRT
 70
     0
  9
$DIMTFAC
 40
1.0
  9
$DIMGAP
 40
0.625
  9
$DIMJUST
 70
     0
  9
$DIMSD1
 70
     0
  9
$DIMSD2
 70
     0
  9
$DIMTOLJ
 70
     0
  9
$DIMTZIN
 70
     8
  9
$DIMALTZ
 70
     0
  9
$DIMALTTZ
 70
     0
  9
$DIMUPT
 70
     0
  9
$DIMDEC
 70
     2
  9
$DIMTDEC
 70
     2
  9
$DIMALTU
 70
     2
  9
$DIMALTTD
 70
     3
  9
$DIMTXSTY
  7
Standard
  9
$DIMAUNIT
 70
     0
  9
$DIMADEC
 70
     0
  9
$DIMALTRND
 40
0.0
  9
$DIMAZIN
 70
     0
  9
$DIMDSEP
 70
    44
  9
$DIMATFIT
 70
     3
  9
$DIMFRAC
 70
     0
  9
$DIMLDRBLK
  1

  9
$DIMLUNIT
 70
     2
  9
$DIMLWD
 70
    -2
  9
$DIMLWE
 70
    -2
  9
$DIMTMOVE
 70
     0
  9
$LUNITS
 70
     2
  9
$LUPREC
 70
     4
  9
$SKETCHINC
 40
1.0
  9
$FILLETRAD
 40
10.0
  9
$AUNITS
 70
     0
  9
$AUPREC
 70
     0
  9
$MENU
  1
.
  9
$ELEVATION
 40
0.0
  9
$PELEVATION
 40
0.0
  9
$THICKNESS
 40
0.0
  9
$LIMCHECK
 70
     0
  9
$CHAMFERA
 40
10.0
  9
$CHAMFERB
 40
10.0
  9
$CHAMFERC
 40
20.0
  9
$CHAMFERD
 40
0.0
  9
$SKPOLY
 70
     0
  9
$TDCREATE
 40
2455307.433357072
  9
$TDUCREATE
 40
2455307.350023739
  9
$TDUPDATE
 40
2455307.433357083
  9
$TDUUPDATE
 40
2455307.35002375
  9
$TDINDWG
 40
0.0000000116
  9
$TDUSRTIMER
 40
0.0000000116
  9
$USRTIMER
 70
     1
  9
$ANGBASE
 50
0.0
  9
$ANGDIR
 70
     0
  9
$PDMODE
 70
     0
  9
$PDSIZE
 40
0.0
  9
$PLINEWID
 40
0.0
  9
$SPLFRAME
 70
     0
  9
$SPLINETYPE
 70
     6
  9
$SPLINESEGS
 70
     8
  9
$HANDSEED
  5
1B6
  9
$SURFTAB1
 70
     6
  9
$SURFTAB2
 70
     6
  9
$SURFTYPE
 70
     6
  9
$SURFU
 70
     6
  9
$SURFV
 70
     6
  9
$UCSBASE
  2

  9
$UCSNAME
  2

  9
$UCSORG
 10
0.0
 20
0.0
 30
0.0
  9
$UCSXDIR
 10
1.0
 20
0.0
 30
0.0
  9
$UCSYDIR
 10
0.0
 20
1.0
 30
0.0
  9
$UCSORTHOREF
  2

  9
$UCSORTHOVIEW
 70
     0
  9
$UCSORGTOP
 10
0.0
 20
0.0
 30
0.0
  9
$UCSORGBOTTOM
 10
0.0
 20
0.0
 30
0.0
  9
$UCSORGLEFT
 10
0.0
 20
0.0
 30
0.0
  9
$UCSORGRIGHT
 10
0.0
 20
0.0
 30
0.0
  9
$UCSORGFRONT
 10
0.0
 20
0.0
 30
0.0
  9
$UCSORGBACK
 10
0.0
 20
0.0
 30
0.0
  9
$PUCSBASE
  2

  9
$PUCSNAME
  2

  9
$PUCSORG
 10
0.0
 20
0.0
 30
0.0
  9
$PUCSXDIR
 10
1.0
 20
0.0
 30
0.0
  9
$PUCSYDIR
 10
0.0
 20
1.0
 30
0.0
  9
$PUCSORTHOREF
  2

  9
$PUCSORTHOVIEW
 70
     0
  9
$PUCSORGTOP
 10
0.0
 20
0.0
 30
0.0
  9
$PUCSORGBOTTOM
 10
0.0
 20
0.0
 30
0.0
  9
$PUCSORGLEFT
 10
0.0
 20
0.0
 30
0.0
  9
$PUCSORGRIGHT
 10
0.0
 20
0.0
 30
0.0
  9
$PUCSORGFRONT
 10
0.0
 20
0.0
 30
0.0
  9
$PUCSORGBACK
 10
0.0
 20
0.0
 30
0.0
  9
$USERI1
 70
     0
  9
$USERI2
 70
     0
  9
$USERI3
 70
     0
  9
$USERI4
 70
     0
  9
$USERI5
 70
     0
  9
$USERR1
 40
0.0
  9
$USERR2
 40
0.0
  9
$USERR3
 40
0.0
  9
$USERR4
 40
0.0
  9
$USERR5
 40
0.0
  9
$WORLDVIEW
 70
     1
  9
$SHADEDGE
 70
     3
  9
$SHADEDIF
 70
    70
  9
$TILEMODE
 70
     1
  9
$MAXACTVP
 70
    64
  9
$PINSBASE
 10
0.0
 20
0.0
 30
0.0
  9
$PLIMCHECK
 70
     0
  9
$PEXTMIN
 10
0.0
 20
0.0
 30
0.0
  9
$PEXTMAX
 10
1682.0
 20
2378.0
 30
0.0
  9
$PLIMMIN
 10
0.0
 20
0.0
  9
$PLIMMAX
 10
1682.0
 20
2378.0
  9
$UNITMODE
 70
     0
  9
$VISRETAIN
 70
     1
  9
$PLINEGEN
 70
     0
  9
$PSLTSCALE
 70
     1
  9
$TREEDEPTH
 70
  3020
  9
$CMLSTYLE
  2
Standard
  9
$CMLJUST
 70
     0
  9
$CMLSCALE
 40
20.0
  9
$PROXYGRAPHICS
 70
     1
  9
$MEASUREMENT
 70
     1
  9
$CELWEIGHT
370
    -1
  9
$ENDCAPS
280
     0
  9
$JOINSTYLE
280
     0
  9
$LWDISPLAY
290
     0
  9
$INSUNITS
 70
     4
  9
$HYPERLINKBASE
  1

  9
$STYLESHEET
  1

  9
$XEDIT
290
     1
  9
$CEPSNTYPE
380
     0
  9
$PSTYLEMODE
290
     1
  9
$FINGERPRINTGUID
  2
{BADE588C-F9FA-47DF-BE83-4F20CE4C6EB5}
  9
$VERSIONGUID
  2
{FAEB1C32-E019-11D5-929B-00C0DF256EC4}
  9
$EXTNAMES
290
     1
  9
$PSVPSCALE
 40
0.0
  9
$OLESTARTUP
290
     0
  0
ENDSEC
  0
SECTION
  2
CLASSES
  0
CLASS
  1
ACDBDICTIONARYWDFLT
  2
AcDbDictionaryWithDefault
  3
ObjectDBX Classes
 90
        0
280
     0
281
     0
  0
CLASS
  1
VISUALSTYLE
  2
AcDbVisualStyle
  3
ObjectDBX Classes
 90
     4095
280
     0
281
     0
  0
CLASS
  1
SCALE
  2
AcDbScale
  3
ObjectDBX Classes
 90
     1153
280
     0
281
     0
  0
CLASS
  1
DICTIONARYVAR
  2
AcDbDictionaryVar
  3
ObjectDBX Classes
 90
        0
280
     0
281
     0
  0
CLASS
  1
ACDBPLACEHOLDER
  2
AcDbPlaceHolder
  3
ObjectDBX Classes
 90
        0
280
     0
281
     0
  0
CLASS
  1
LAYOUT
  2
AcDbLayout
  3
ObjectDBX Classes
 90
        0
280
     0
281
     0
  0
ENDSEC
  0
SECTION
  2
TABLES
  0
TABLE
  2
VPORT
  5
8
330
0
100
AcDbSymbolTable
 70
     1
  0
VPORT
  5
29
330
8
100
AcDbSymbolTableRecord
100
AcDbViewportTableRecord
  2
*Active
 70
     0
 10
0.0
 20
0.0
 11
1.0
 21
1.0
 12
344.1869158879
 22
148.5
 13
0.0
 23
0.0
 14
10.0
 24
10.0
 15
10.0
 25
10.0
 16
0.0
 26
0.0
 36
1.0
 17
0.0
 27
0.0
 37
0.0
 40
297.0
 41
1.9729729729
 42
50.0
 43
0.0
 44
0.0
 50
0.0
 51
0.0
 71
     0
 72
   100
 73
     1
 74
     3
 75
     0
 76
     0
 77
     0
 78
     0
281
     0
 65
     1
110
0.0
120
0.0
130
0.0
111
1.0
121
0.0
131
0.0
112
0.0
122
1.0
132
0.0
 79
     0
146
0.0
  0
ENDTAB
  0
TABLE
  2
LTYPE
  5
5
330
0
100
AcDbSymbolTable
 70
     2
  0
LTYPE
  5
14
330
5
100
AcDbSymbolTableRecord
100
AcDbLinetypeTableRecord
  2
ByBlock
 70
     0
  3

 72
    65
 73
     0
 40
0.0
  0
LTYPE
  5
15
330
5
100
AcDbSymbolTableRecord
100
AcDbLinetypeTableRecord
  2
ByLayer
 70
     0
  3

 72
    65
 73
     0
 40
0.0
  0
LTYPE
  5
16
330
5
100
AcDbSymbolTableRecord
100
AcDbLinetypeTableRecord
  2
Continuous
 70
     0
  3
Solid line
 72
    65
 73
     0
 40
0.0
  0
LTYPE
  5
60
330
5
100
AcDbSymbolTableRecord
100
AcDbLinetypeTableRecord
  2
CENTER2
 70
     0
  3
Center (.5x) ___ _ ___ _ ___ _ ___ _ ___ _ ___
 72
    65
 73
     4
 40
28.575
 49
19.05
 74
     4
 75
     0
340
0
 46
0.0
 50
0.0
 44
0.0
 45
0.0
 49
-3.175
 74
     4
 75
     0
340
0
 46
0.0
 50
0.0
 44
0.0
 45
0.0
 49
3.175
 74
     4
 75
     0
340
0
 46
0.0
 50
0.0
 44
0.0
 45
0.0
 49
-3.175
 74
     4
 75
     0
340
0
 46
0.0
 50
0.0
 44
0.0
 45
0.0
  0
ENDTAB
  0
TABLE
  2
LAYER
  5
2
330
0
100
AcDbSymbolTable
 70
     8
  0
LAYER
  5
10
330
2
100
AcDbSymbolTableRecord
100
AcDbLayerTableRecord
  2
0
 70
     0
 62
     7
  6
Continuous
370
    -3
390
F
  0
LAYER
  5
5D
330
2
100
AcDbSymbolTableRecord
100
AcDbLayerTableRecord
  2
Default
 70
     0
 62
     7
  6
Continuous
370
    -3
390
F
  0
LAYER
  5
70
330
2
100
AcDbSymbolTableRecord
100
AcDbLayerTableRecord
  2
$DDT_AUDIT_GENERATED_(70)
 70
     0
 62
     7
  6
Continuous
370
    -3
390
F
  0
LAYER
  5
99
330
2
100
AcDbSymbolTableRecord
100
AcDbLayerTableRecord
  2
02636038_GEHÄUSE
 70
     0
 62
     7
  6
Continuous
370
    -3
390
F
  0
LAYER
  5
AE
330
2
100
AcDbSymbolTableRecord
100
AcDbLayerTableRecord
  2
$DDT_AUDIT_GENERATED_(AE)
 70
     0
 62
     7
  6
Continuous
370
    -3
390
F
  0
LAYER
  5
E9
330
2
100
AcDbSymbolTableRecord
100
AcDbLayerTableRecord
  2
$DDT_AUDIT_GENERATED_(E9)
 70
     0
 62
     7
  6
Continuous
370
    -3
390
F
  0
LAYER
  5
112
330
2
100
AcDbSymbolTableRecord
100
AcDbLayerTableRecord
  2
$DDT_AUDIT_GENERATED_(112)
 70
     0
 62
     7
  6
Continuous
370
    -3
390
F
  0
LAYER
  5
15B
330
2
100
AcDbSymbolTableRecord
100
AcDbLayerTableRecord
  2
$DDT_AUDIT_GENERATED_(15B)
 70
     0
 62
     7
  6
Continuous
370
    -3
390
F
  0
ENDTAB
  0
TABLE
  2
STYLE
  5
3
330
0
100
AcDbSymbolTable
 70
     2
  0
STYLE
  5
11
330
3
100
AcDbSymbolTableRecord
100
AcDbTextStyleTableRecord
  2
Standard
 70
     0
 40
0.0
 41
1.0
 50
0.0
 71
     0
 42
2.5
  3
txt
  4

  0
STYLE
  5
1A5
330
3
100
AcDbSymbolTableRecord
100
AcDbTextStyleTableRecord
  2
SEACAD_seiso_ttf
 70
     0
 40
0.0
 41
1.0
 50
0.0
 71
     0
 42
0.2
  3
seiso.ttf
  4

  0
ENDTAB
  0
TABLE
  2
VIEW
  5
6
330
0
100
AcDbSymbolTable
 70
     0
  0
ENDTAB
  0
TABLE
  2
UCS
  5
7
330
0
100
AcDbSymbolTable
 70
     0
  0
ENDTAB
  0
TABLE
  2
APPID
  5
9
330
0
100
AcDbSymbolTable
 70
     1
  0
APPID
  5
12
330
9
100
AcDbSymbolTableRecord
100
AcDbRegAppTableRecord
  2
ACAD
 70
     0
  0
ENDTAB
  0
TABLE
  2
DIMSTYLE
  5
A
330
0
100
AcDbSymbolTable
 70
     1
100
AcDbDimStyleTable
  0
DIMSTYLE
105
27
330
A
100
AcDbSymbolTableRecord
100
AcDbDimStyleTableRecord
  2
ISO-25
 70
     0
 41
2.5
 42
0.625
 43
3.75
 44
1.25
 73
     0
 74
     0
 77
     1
 78
     8
140
2.5
141
2.5
143
0.0393700787
147
0.625
171
     3
172
     1
271
     2
272
     2
274
     3
278
    44
283
     0
284
     8
340
11
  0
ENDTAB
  0
TABLE
  2
BLOCK_RECORD
  5
1
330
0
100
AcDbSymbolTable
 70
     7
  0
BLOCK_RECORD
  5
1F
330
1
100
AcDbSymbolTableRecord
100
AcDbBlockTableRecord
  2
*Model_Space
340
22
  0
BLOCK_RECORD
  5
1B
330
1
100
AcDbSymbolTableRecord
100
AcDbBlockTableRecord
  2
*Paper_Space
340
1E
  0
BLOCK_RECORD
  5
5E
330
1
100
AcDbSymbolTableRecord
100
AcDbBlockTableRecord
  2
SEANNOT_GROUP
340
0
102
{BLKREFS
331
5F
102
}
  0
BLOCK_RECORD
  5
64
330
1
100
AcDbSymbolTableRecord
100
AcDbBlockTableRecord
  2
SEANNOT_GROUP1
340
0
102
{BLKREFS
331
65
102
}
  0
BLOCK_RECORD
  5
69
330
1
100
AcDbSymbolTableRecord
100
AcDbBlockTableRecord
  2
SEANNOT_GROUP2
340
0
102
{BLKREFS
331
6A
102
}
  0
BLOCK_RECORD
  5
6E
330
1
100
AcDbSymbolTableRecord
100
AcDbBlockTableRecord
  2
SE
340
0
102
{BLKREFS
331
6F
102
}
  0
BLOCK_RECORD
  5
116
330
1
100
AcDbSymbolTableRecord
100
AcDbBlockTableRecord
  2
SE1
340
0
102
{BLKREFS
331
117
102
}
  0
BLOCK_RECORD
  5
169
330
1
100
AcDbSymbolTableRecord
100
AcDbBlockTableRecord
  2
SE2
340
0
102
{BLKREFS
331
16A
102
}
  0
ENDTAB
  0
ENDSEC
  0
SECTION
  2
BLOCKS
  0
BLOCK
  5
20
330
1F
100
AcDbEntity
  8
0
100
AcDbBlockBegin
  2
*Model_Space
 70
     0
 10
0.0
 20
0.0
 30
0.0
  3
*Model_Space
  1

  0
ENDBLK
  5
21
330
1F
100
AcDbEntity
  8
0
100
AcDbBlockEnd
  0
BLOCK
  5
1C
330
1B
100
AcDbEntity
 67
     1
  8
0
100
AcDbBlockBegin
  2
*Paper_Space
 70
     0
 10
0.0
 20
0.0
 30
0.0
  3
*Paper_Space
  1

  0
ENDBLK
  5
1D
330
1B
100
AcDbEntity
 67
     1
  8
0
100
AcDbBlockEnd
  0
BLOCK
  5
62
330
5E
100
AcDbEntity
  8
0
100
AcDbBlockBegin
  2
SEANNOT_GROUP
 70
     0
 10
0.0
 20
0.0
 30
0.0
  3
SEANNOT_GROUP
  1

  0
LINE
  5
61
330
5E
100
AcDbEntity
  8
Default
  6
CENTER2
 62
     7
100
AcDbLine
 10
34.0250919847
 20
387.5955699162
 30
0.0
 11
34.0250919847
 21
366.9887040715
 31
0.0
  0
ENDBLK
  5
63
330
5E
100
AcDbEntity
  8
0
100
AcDbBlockEnd
  0
BLOCK
  5
67
330
64
100
AcDbEntity
  8
0
100
AcDbBlockBegin
  2
SEANNOT_GROUP1
 70
     0
 10
0.0
 20
0.0
 30
0.0
  3
SEANNOT_GROUP1
  1

  0
LINE
  5
66
330
64
100
AcDbEntity
  8
Default
  6
CENTER2
 62
     7
100
AcDbLine
 10
34.0250291914
 20
250.4663362419
 30
0.0
 11
34.0250291914
 21
286.4018621163
 31
0.0
  0
ENDBLK
  5
68
330
64
100
AcDbEntity
  8
0
100
AcDbBlockEnd
  0
BLOCK
  5
6C
330
69
100
AcDbEntity
  8
0
100
AcDbBlockBegin
  2
SEANNOT_GROUP2
 70
     0
 10
0.0
 20
0.0
 30
0.0
  3
SEANNOT_GROUP2
  1

  0
LINE
  5
6B
330
69
100
AcDbEntity
  8
Default
  6
CENTER2
 62
     7
100
AcDbLine
 10
168.3428880892
 20
387.5955699162
 30
0.0
 11
168.3428880892
 21
367.7202993654
 31
0.0
  0
ENDBLK
  5
6D
330
69
100
AcDbEntity
  8
0
100
AcDbBlockEnd
  0
BLOCK
  5
114
330
6E
100
AcDbEntity
  8
0
100
AcDbBlockBegin
  2
SE
 70
     0
 10
0.0
 20
0.0
 30
0.0
  3
SE
  1

  0
LINE
  5
71
330
6E
100
AcDbEntity
  8
$DDT_AUDIT_GENERATED_(70)
  6
Continuous
 62
     7
100
AcDbLine
 10
16.1454863403
 20
466.1012444679
 30
0.0
 11
16.1454863403
 21
459.0235587438
 31
0.0
  0
ARC
  5
72
330
6E
100
AcDbEntity
  8
$DDT_AUDIT_GENERATED_(70)
  6
Continuous
 62
     7
100
AcDbCircle
 10
677.6378383035
 20
400.5466451096
 30
0.0
 40
669.4568464568382
100
AcDbArc
 50
177.6764859174
 51
178.6104679678
  0
ARC
  5
73
330
6E
100
AcDbEntity
  8
$DDT_AUDIT_GENERATED_(70)
  6
Continuous
 62
     7
100
AcDbCircle
 10
19.7632509215
 20
458.9174340326
 30
0.0
 40
3.662221880584168
100
AcDbArc
 50
178.8042493253
 51
234.4330912395
  0
ARC
  5
74
330
6E
100
AcDbEntity
  8
$DDT_AUDIT_GENERATED_(70)
  6
Continuous
 62
     7
100
AcDbCircle
 10
20.4016302843
 20
452.2820006134
 30
0.0
 40
4.586319262452359
100
AcDbArc
 50
127.131619219
 51
151.7781487027
  0
SPLINE
  5
75
330
6E
100
AcDbEntity
  8
$DDT_AUDIT_GENERATED_(70)
  6
Continuous
 62
     7
100
AcDbSpline
210
0.0
220
0.0
230
1.0
 70
     8
 71
     3
 72
    19
 73
    15
 74
     0
 42
0.000000000592013
 43
0.0000000001
 40
0.0
 40
0.0
 40
0.0
 40
0.0
 40
0.0313522873894289
 40
0.0631342674815204
 40
0.1258977933994772
 40
0.2505952678048137
 40
0.3758530028775961
 40
0.5002729549262861
 40
0.6255264095992759
 40
0.750142283775436
 40
0.812960295872126
 40
0.8754549837265271
 40
0.9377014188373037
 40
1.0
 40
1.0
 40
1.0
 40
1.0
 10
34.02509198472771
 20
458.8993099098793
 30
0.0
 10
33.78669641193964
 20
458.9029811642108
 30
0.0
 10
33.30663798199201
 20
458.9103739885388
 30
0.0
 10
32.34995729775564
 20
458.9139114311698
 30
0.0
 10
30.69277041534568
 20
458.8996467862657
 30
0.0
 10
28.37718796281506
 20
458.7888103720496
 30
0.0
 10
25.76126974665048
 20
458.5181198008084
 30
0.0
 10
23.39007930024529
 20
458.134197544926
 30
0.0
 10
21.36002884195949
 20
457.6536974403173
 30
0.0
 10
19.99253937581554
 20
457.1917481352194
 30
0.0
 10
19.09609319225401
 20
456.8023212752372
 30
0.0
 10
18.51808303733369
 20
456.5064608381034
 30
0.0
 10
18.02571313443969
 20
456.2178558091386
 30
0.0
 10
17.7639741171178
 20
456.0315323890699
 30
0.0
 10
17.63310760427994
 20
455.9384478709707
 30
0.0
  0
SPLINE
  5
76
330
6E
100
AcDbEntity
  8
$DDT_AUDIT_GENERATED_(70)
  6
Continuous
 62
     7
100
AcDbSpline
210
0.0
220
0.0
230
1.0
 70
     8
 71
     3
 72
    19
 73
    15
 74
     0
 42
0.0000000005015683
 43
0.0000000001
 40
0.0
 40
0.0
 40
0.0
 40
0.0
 40
0.0317458345566946
 40
0.0634608050601762
 40
0.1267185539492039
 40
0.1478332934477818
 40
0.1899975545969879
 40
0.2215894070184209
 40
0.2531439148171756
 40
0.3160564966638793
 40
0.3788178003896778
 40
0.4413536583521228
 40
0.5036262092247332
 40
0.5563611301940496
 40
0.5563611301940496
 40
0.5563611301940496
 40
0.5563611301940496
 10
8.000779598587132
 20
468.3152771310466
 30
0.0
 10
8.010426847686206
 20
467.9244053413409
 30
0.0
 10
8.029587543278788
 20
467.1430511152254
 30
0.0
 10
8.079256786168685
 20
465.6243223390497
 30
0.0
 10
8.146832356946152
 20
464.3160714474978
 30
0.0
 10
8.244833706468953
 20
463.0436608099608
 30
0.0
 10
8.327193257076155
 20
462.1590967735858
 30
0.0
 10
8.430859601001206
 20
461.2910656280566
 30
0.0
 10
8.568979455964437
 20
460.3788848016486
 30
0.0
 10
8.775414739055645
 20
459.4980647466078
 30
0.0
 10
9.072526898169293
 20
458.768850685308
 30
0.0
 10
9.392931217108817
 20
458.2444111496284
 30
0.0
 10
9.693227467793529
 20
457.8807951894715
 30
0.0
 10
9.87184414054233
 20
457.7083056653553
 30
0.0
 10
9.949891623945131
 20
457.6420196153329
 30
0.0
  0
ARC
  5
77
330
6E
100
AcDbEntity
  8
$DDT_AUDIT_GENERATED_(70)
  6
Continuous
 62
     7
100
AcDbCircle
 10
1376.1009042829
 20
387.4688247592
 30
0.0
 40
1368.037106518499
100
AcDbArc
 50
178.7722752705
 51
180.0784551983
  0
SPLINE
  5
78
330
6E
100
AcDbEntity
  8
$DDT_AUDIT_GENERATED_(70)
  6
Continuous
 62
     7
100
AcDbSpline
210
0.0
220
0.0
230
1.0
 70
     8
 71
     3
 72
    24
 73
    20
 74
     0
 42
0.0000000003182775
 43
0.0000000001
 40
0.0
 40
0.0
 40
0.0
 40
0.0
 40
0.2478621894000503
 40
0.2478621894000503
 40
0.4954305123401603
 40
0.4954305123401603
 40
0.6192725511932456
 40
0.6192725511932456
 40
0.7431033860109783
 40
0.7431033860109783
 40
0.8052091400280813
 40
0.8052091400280813
 40
0.8672900990556568
 40
0.8672900990556568
 40
0.9294495283004052
 40
0.9294495283004052
 40
0.9842416143775302
 40
0.9842416143775302
 40
1.0
 40
1.0
 40
1.0
 40
1.0
 10
34.02509198472573
 20
412.7176184959455
 30
0.0
 10
31.06444993533463
 20
412.7178534208883
 30
0.0
 10
28.10506411548135
 20
413.1022091964407
 30
0.0
 10
22.56665756823643
 20
414.5521256771558
 30
0.0
 10
19.99961657742191
 20
415.6251318892713
 30
0.0
 10
16.63091312285403
 20
417.6275463845426
 30
0.0
 10
15.58706967403638
 20
418.3597846458213
 30
0.0
 10
13.68847691043308
 20
419.9327698681955
 30
0.0
 10
12.83175890151128
 20
420.7735997497983
 30
0.0
 10
11.69856278059608
 20
422.1054614680604
 30
0.0
 10
11.34554724473669
 20
422.5619124732956
 30
0.0
 10
10.69307593139678
 20
423.4957203209972
 30
0.0
 10
10.39365681589118
 20
423.9731142386756
 30
0.0
 10
9.849582053991487
 20
424.9473435804197
 30
0.0
 10
9.60626441253378
 20
425.4446758833391
 30
0.0
 10
9.19535075801383
 20
426.3935461467724
 30
0.0
 10
9.021759651497186
 20
426.8433661995005
 30
0.0
 10
8.818378073951784
 20
427.426504153066
 30
0.0
 10
8.774234270676931
 20
427.5570060280569
 30
0.0
 10
8.731391847879133
 20
427.6876686351109
 30
0.0
  0
LINE
  5
79
330
6E
100
AcDbEntity
  8
$DDT_AUDIT_GENERATED_(70)
  6
Continuous
 62
     7
100
AcDbLine
 10
34.0250919847
 20
384.0955699162
 30
0.0
 11
8.0650860257
 21
384.0955699162
 31
0.0
  0
ARC
  5
7A
330
6E
100
AcDbEntity
  8
$DDT_AUDIT_GENERATED_(70)
  6
Continuous
 62
     7
100
AcDbCircle
 10
58.9081539878
 20
427.8531878442
 30
0.0
 40
50.17703514016748
100
AcDbArc
 50
147.9894359902
 51
180.1890021856
  0
SPLINE
  5
7B
330
6E
100
AcDbEntity
  8
$DDT_AUDIT_GENERATED_(70)
  6
Continuous
 62
     7
100
AcDbSpline
210
0.0
220
0.0
230
1.0
 70
     8
 71
     3
 72
    10
 73
     6
 74
     0
 42
0.0000000003075
 43
0.0000000001
 40
0.0
 40
0.0
 40
0.0
 40
0.0
 40
0.0623114754492121
 40
0.1252287643751139
 40
0.1556902589168803
 40
0.1556902589168803
 40
0.1556902589168803
 40
0.1556902589168803
 10
60.06843435133099
 20
418.6527530546234
 30
0.0
 10
60.07766686691944
 20
417.990393798268
 30
0.0
 10
60.09622759819615
 20
416.6592342747011
 30
0.0
 10
60.1067823257988
 20
414.9593506963541
 30
0.0
 10
60.10816329132107
 20
413.9276855904812
 30
0.0
 10
60.10813483529756
 20
413.5898828251152
 30
0.0
  0
LINE
  5
7C
330
6E
100
AcDbEntity
  8
$DDT_AUDIT_GENERATED_(70)
  6
Continuous
 62
     7
100
AcDbLine
 10
51.9046976291
 20
466.1012444679
 30
0.0
 11
51.9046976291
 21
459.0235587438
 31
0.0
  0
SPLINE
  5
7D
330
6E
100
AcDbEntity
  8
$DDT_AUDIT_GENERATED_(70)
  6
Continuous
 62
     7
100
AcDbSpline
210
0.0
220
0.0
230
1.0
 70
     8
 71
     3
 72
    25
 73
    21
 74
     0
 42
0.000000000498796
 43
0.0000000001
 40
0.0
 40
0.0
 40
0.0
 40
0.0
 40
0.0081113024995022
 40
0.0346973104278536
 40
0.0612833183562049
 40
0.0878693262845563
 40
0.1144553342129077
 40
0.1410413421412591
 40
0.1676273500696105
 40
0.1942133579979618
 40
0.2207993659263132
 40
0.2473853738546646
 40
0.273971381783016
 40
0.3271433976397187
 40
0.3537294055680701
 40
0.3803154134964215
 40
0.4334874293531242
 40
0.486659445209827
 40
0.5398314610665298
 40
0.5530624012386018
 40
0.5530624012386018
 40
0.5530624012386018
 40
0.5530624012386018
 10
60.04940437086433
 20
468.3152771310466
 30
0.0
 10
60.0470942848792
 20
468.2134618912198
 30
0.0
 10
60.03655818663204
 20
467.7786706624045
 30
0.0
 10
60.01634748244528
 20
467.0168361151963
 30
0.0
 10
59.98436887874874
 20
466.0477655927252
 30
0.0
 10
59.94395910160583
 20
465.1129316673638
 30
0.0
 10
59.89409588682598
 20
464.2249362207334
 30
0.0
 10
59.83372874188008
 20
463.3956369069349
 30
0.0
 10
59.76658494969944
 20
462.6187769323671
 30
0.0
 10
59.69304799009613
 20
461.9005795051297
 30
0.0
 10
59.61241251356918
 20
461.2470441705567
 30
0.0
 10
59.52399826176204
 20
460.6640956398256
 30
0.0
 10
59.39400626432504
 20
459.9850638846762
 30
0.0
 10
59.24370250095938
 20
459.4498827962374
 30
0.0
 10
59.07774688239544
 20
459.0205958547033
 30
0.0
 10
58.90401200215578
 20
458.6508230058842
 30
0.0
 10
58.67744339759454
 20
458.2789796374211
 30
0.0
 10
58.40749302285644
 20
457.937978075881
 30
0.0
 10
58.21834836761497
 20
457.7456919791755
 30
0.0
 10
58.11944170114852
 20
457.6590834820254
 30
0.0
 10
58.09998860071018
 20
457.6426175459217
 30
0.0
  0
ARC
  5
7E
330
6E
100
AcDbEntity
  8
$DDT_AUDIT_GENERATED_(70)
  6
Continuous
 62
     7
100
AcDbCircle
 10
-1302.11505928
 20
387.5283570945
 30
0.0
 40
1362.101534247777
100
AcDbArc
 50
359.9186987351
 51
1.2305707961
  0
ARC
  5
7F
330
6E
100
AcDbEntity
  8
$DDT_AUDIT_GENERATED_(70)
  6
Continuous
 62
     7
100
AcDbCircle
 10
-610.2831118445
 20
400.5241026996
 30
0.0
 40
670.1526461257588
100
AcDbArc
 50
1.3900169059
 51
2.3230292089
  0
ARC
  5
80
330
6E
100
AcDbEntity
  8
$DDT_AUDIT_GENERATED_(70)
  6
Continuous
 62
     7
100
AcDbCircle
 10
8.9708746068
 20
427.804398133
 30
0.0
 40
50.34805283080112
100
AcDbArc
 50
359.8671624186
 51
31.9543994056
  0
ARC
  5
81
330
6E
100
AcDbEntity
  8
$DDT_AUDIT_GENERATED_(70)
  6
Continuous
 62
     7
100
AcDbCircle
 10
48.286933048
 20
458.9174340326
 30
0.0
 40
3.662221880584168
100
AcDbArc
 50
305.5669087605
 51
1.1957506747
  0
ARC
  5
82
330
6E
100
AcDbEntity
  8
$DDT_AUDIT_GENERATED_(70)
  6
Continuous
 62
     7
100
AcDbCircle
 10
47.5912836241
 20
452.2330093168
 30
0.0
 40
4.659976340503726
100
AcDbArc
 50
28.4196228267
 51
52.6706092516
  0
ARC
  5
83
330
6E
100
AcDbEntity
  8
$DDT_AUDIT_GENERATED_(70)
  6
Continuous
 62
     7
100
AcDbCircle
 10
37.0433004198
 20
428.7535276097
 30
0.0
 40
30.29649769601963
100
AcDbArc
 50
63.8048584153
 51
95.7174243954
  0
SPLINE
  5
84
330
6E
100
AcDbEntity
  8
$DDT_AUDIT_GENERATED_(70)
  6
Continuous
 62
     7
100
AcDbSpline
210
0.0
220
0.0
230
1.0
 70
     8
 71
     3
 72
    12
 73
     8
 74
     0
 42
0.0000000003149198
 43
0.0000000001
 40
0.0
 40
0.0
 40
0.0
 40
0.0
 40
0.0000004713640063
 40
0.2951669525035673
 40
0.5903334336431261
 40
0.8854999147826867
 40
1.0
 40
1.0
 40
1.0
 40
1.0
 10
34.02509198472573
 20
412.7176184959455
 30
0.0
 10
34.02509761418671
 20
412.7176184987602
 30
0.0
 10
37.55025150218454
 20
412.7193818572865
 30
0.0
 10
44.60075423995848
 20
413.8091717712957
 30
0.0
 10
53.24802965823859
 20
418.2868109866869
 30
0.0
 10
57.66291060451614
 20
423.3793511705421
 30
0.0
 10
59.00663676693522
 20
426.7384736129721
 30
0.0
 10
59.31879212157233
 20
427.6876686351109
 30
0.0
  0
LINE
  5
85
330
6E
100
AcDbEntity
  8
$DDT_AUDIT_GENERATED_(70)
  6
Continuous
 62
     7
100
AcDbLine
 10
34.0250919847
 20
384.0955699162
 30
0.0
 11
59.9850979438
 21
384.0955699162
 31
0.0
  0
SPLINE
  5
86
330
6E
100
AcDbEntity
  8
$DDT_AUDIT_GENERATED_(70)
  6
Continuous
 62
     7
100
AcDbSpline
210
0.0
220
0.0
230
1.0
 70
     8
 71
     3
 72
     8
 73
     4
 74
     0
 42
0.000000202535407
 43
0.0000000001
 40
0.2677801241086866
 40
0.2677801241086866
 40
0.2677801241086866
 40
0.2677801241086866
 40
0.2880336648090346
 40
0.2880336648090346
 40
0.2880336648090346
 40
0.2880336648090346
 10
7.890260701052185
 20
472.5142026146667
 30
0.0
 10
7.890302713610634
 20
472.514258833986
 30
0.0
 10
7.890446889470513
 20
472.5143179391481
 30
0.0
 10
7.890689445651726
 20
472.5143790523478
 30
0.0
  0
SPLINE
  5
87
330
6E
100
AcDbEntity
  8
$DDT_AUDIT_GENERATED_(70)
  6
Continuous
 62
     7
100
AcDbSpline
210
0.0
220
0.0
230
1.0
 70
     8
 71
     3
 72
     8
 73
     4
 74
     0
 42
0.0000000896039252
 43
0.0000000001
 40
0.6105317001495921
 40
0.6105317001495921
 40
0.6105317001495921
 40
0.6105317001495921
 40
0.7044716775742914
 40
0.7044716775742914
 40
0.7044716775742914
 40
0.7044716775742914
 10
7.941666313087826
 20
472.665408138206
 30
0.0
 10
7.936363468092424
 20
472.6651189453678
 30
0.0
 10
7.932760214572815
 20
472.6647773346273
 30
0.0
 10
7.931236393528191
 20
472.6644736988954
 30
0.0
  0
SPLINE
  5
88
330
6E
100
AcDbEntity
  8
$DDT_AUDIT_GENERATED_(70)
  6
Continuous
 62
     7
100
AcDbSpline
210
0.0
220
0.0
230
1.0
 70
     8
 71
     3
 72
     8
 73
     4
 74
     0
 42
0.0000001326419074
 43
0.0000000001
 40
0.7213510187590975
 40
0.7213510187590975
 40
0.7213510187590975
 40
0.7213510187590975
 40
0.7346152094990205
 40
0.7346152094990205
 40
0.7346152094990205
 40
0.7346152094990205
 10
7.930618594265915
 20
472.6643142276248
 30
0.0
 10
7.930510678506788
 20
472.6642736936844
 30
0.0
 10
7.930445581185771
 20
472.6642342406703
 30
0.0
 10
7.930424371586107
 20
472.6641961230461
 30
0.0
  0
SPLINE
  5
89
330
6E
100
AcDbEntity
  8
$DDT_AUDIT_GENERATED_(70)
  6
Continuous
 62
     7
100
AcDbSpline
210
0.0
220
0.0
230
1.0
 70
     8
 71
     3
 72
    18
 73
    14
 74
     0
 42
0.0000000003830575
 43
0.0000000001
 40
0.4155601203188538
 40
0.4155601203188538
 40
0.4155601203188538
 40
0.4155601203188538
 40
0.4374999999999992
 40
0.4374999999999992
 40
0.4999999999999989
 40
0.4999999999999989
 40
0.6249999999999991
 40
0.6249999999999991
 40
0.7499999999999994
 40
0.7499999999999994
 40
0.8749999999999997
 40
0.8749999999999997
 40
1.0
 40
1.0
 40
1.0
 40
1.0
 10
22.22018432037691
 20
452.0050698859728
 30
0.0
 10
22.14432362915871
 20
452.1368367334247
 30
0.0
 10
22.0778554926043
 20
452.2663651682625
 30
0.0
 10
21.86050182755055
 20
452.7526513074868
 30
0.0
 10
21.77858546865542
 20
453.0860162382668
 30
0.0
 10
21.76843002427983
 20
454.0208716855896
 30
0.0
 10
22.0800922618759
 20
454.5576852110463
 30
0.0
 10
23.30673205420203
 20
455.5318212841638
 30
0.0
 10
24.20571373124851
 20
455.9491579018242
 30
0.0
 10
26.46695802045721
 20
456.6409782821542
 30
0.0
 10
27.82857524853528
 20
456.9097045879836
 30
0.0
 10
30.7857670880297
 20
457.2511714043461
 30
0.0
 10
32.39820572219985
 20
457.3265120492796
 30
0.0
 10
34.02509198472573
 20
457.3264209493673
 30
0.0
  0
SPLINE
  5
8A
330
6E
100
AcDbEntity
  8
$DDT_AUDIT_GENERATED_(70)
  6
Continuous
 62
     7
100
AcDbSpline
210
0.0
220
0.0
230
1.0
 70
     8
 71
     3
 72
    18
 73
    14
 74
     0
 42
0.0000000003832539
 43
0.0000000001
 40
0.0
 40
0.0
 40
0.0
 40
0.0
 40
0.1249999999999995
 40
0.1249999999999995
 40
0.2499999999999989
 40
0.2499999999999989
 40
0.3749999999999984
 40
0.3749999999999984
 40
0.4999999999999979
 40
0.4999999999999979
 40
0.5624999999999981
 40
0.5624999999999981
 40
0.5836198460158561
 40
0.5836198460158561
 40
0.5836198460158561
 40
0.5836198460158561
 10
34.02509198472573
 20
457.3264209493673
 30
0.0
 10
35.65126685671441
 20
457.3265120094451
 30
0.0
 10
37.24956226342313
 20
457.2524980455588
 30
0.0
 10
40.22064089795324
 20
456.910202898874
 30
0.0
 10
41.5817604265916
 20
456.6409765536535
 30
0.0
 10
43.83539269673177
 20
455.9523831452111
 30
0.0
 10
44.74409459799732
 20
455.5296201151112
 30
0.0
 10
45.95893658805862
 20
454.5682202440734
 30
0.0
 10
46.27816983582091
 20
454.0285307084775
 30
0.0
 10
46.27351874784537
 20
453.0983437611869
 30
0.0
 10
46.19093983132524
 20
452.7571406492542
 30
0.0
 10
45.97753059171265
 20
452.2774559636711
 30
0.0
 10
45.91502376671362
 20
452.1541539657339
 30
0.0
 10
45.84389323806404
 20
452.0288114041967
 30
0.0
  0
ELLIPSE
  5
8B
330
6E
100
AcDbEntity
  8
$DDT_AUDIT_GENERATED_(70)
  6
Continuous
 62
     7
100
AcDbEllipse
 10
34.0250919847
 20
454.5501169949
 30
0.0
 11
-12.24999999999999
 21
-1.387778780781446E-14
 31
0.0
210
0.0
220
0.0
230
1.0
 40
0.4336590846
 41
2.869703596476975
 42
3.032007649107953
  0
ELLIPSE
  5
8C
330
6E
100
AcDbEntity
  8
$DDT_AUDIT_GENERATED_(70)
  6
Continuous
 62
     7
100
AcDbEllipse
 10
34.0250919847
 20
454.5501169949
 30
0.0
 11
-12.24999999999999
 21
-1.387778780781446E-14
 31
0.0
210
0.0
220
0.0
230
1.0
 40
0.4336590846
 41
0.1137846617146251
 42
0.2718890571128143
  0
LINE
  5
8D
330
6E
100
AcDbEntity
  8
$DDT_AUDIT_GENERATED_(70)
  6
Continuous
 62
     7
100
AcDbLine
 10
7.942030316
 20
460.2536128632
 30
0.0
 11
7.942030316
 21
413.5968358994
 31
0.0
  0
SPLINE
  5
8E
330
6E
100
AcDbEntity
  8
$DDT_AUDIT_GENERATED_(70)
  6
Continuous
 62
     7
100
AcDbSpline
210
0.0
220
0.0
230
1.0
 70
     8
 71
     3
 72
    81
 73
    77
 74
     0
 42
0.000000000306048
 43
0.0000000001
 40
0.0
 40
0.0
 40
0.0
 40
0.0
 40
0.0161988175240472
 40
0.0315094308141597
 40
0.0459320491836372
 40
0.0594677348662343
 40
0.072115400940186
 40
0.0838757665813066
 40
0.0968150879097241
 40
0.1084802255892557
 40
0.1188650404433108
 40
0.1279674142326296
 40
0.1357851818335485
 40
0.1430110216809052
 40
0.1486183443091791
 40
0.152605626636089
 40
0.1558994337033308
 40
0.1601533640822635
 40
0.1672271304334259
 40
0.1759103239616821
 40
0.1847908919332817
 40
0.1957131418320188
 40
0.2063022851059136
 40
0.2171223169478659
 40
0.2282773053797069
 40
0.2390793163463287
 40
0.2488681233051624
 40
0.2573001966396848
 40
0.2652732383314825
 40
0.2728080676357973
 40
0.2809410760807457
 40
0.2903395291727383
 40
0.2997800328752561
 40
0.3102292547909229
 40
0.3213795067761507
 40
0.331978229556788
 40
0.3418909536502754
 40
0.3511163659081997
 40
0.3596537574086933
 40
0.3675028349665491
 40
0.3791655779237254
 40
0.3915445805171217
 40
0.4047101609937102
 40
0.4186610497203505
 40
0.4362912979827068
 40
0.4549645082458615
 40
0.4739715650068841
 40
0.4931197513224178
 40
0.5124094237735917
 40
0.5318414821749654
 40
0.5505242353913171
 40
0.5693394445890383
 40
0.5874878371031189
 40
0.6038191503385321
 40
0.6153712513366743
 40
0.6257979505507996
 40
0.6350994790263619
 40
0.6432799942259265
 40
0.6540738627622419
 40
0.6667241566935366
 40
0.6812330156237102
 40
0.6976035018768385
 40
0.7117747253532575
 40
0.7271004425705011
 40
0.7434015394031026
 40
0.7595757113517456
 40
0.7951731633727398
 40
0.8291528728790002
 40
0.8615045556184311
 40
0.8922992732935224
 40
0.9072572997011037
 40
0.9219154468354805
 40
0.9362476696821687
 40
0.9501249210828484
 40
0.9588630540706389
 40
0.9616097225185571
 40
0.9616097225185571
 40
0.9616097225185571
 40
0.9616097225185571
 10
34.02509198472573
 20
470.312438101615
 30
0.0
 10
33.44250855274633
 20
470.3114584307589
 30
0.0
 10
32.4877806427043
 20
470.3091434569147
 30
0.0
 10
30.96373793705346
 20
470.2943094637291
 30
0.0
 10
29.57927645498558
 20
470.2676953699966
 30
0.0
 10
28.29783954897794
 20
470.2271437243445
 30
0.0
 10
27.13652620221672
 20
470.1726134578597
 30
0.0
 10
26.03208615957026
 20
470.1021807210036
 30
0.0
 10
25.00111313815412
 20
470.0161084498176
 30
0.0
 10
24.0505039930175
 20
469.9165435190851
 30
0.0
 10
23.23466863424778
 20
469.8144713636044
 30
0.0
 10
22.54467963653027
 20
469.7148702132643
 30
0.0
 10
21.95807629783113
 20
469.6194167789331
 30
0.0
 10
21.47649426986519
 20
469.5326243279223
 30
0.0
 10
21.09932159260193
 20
469.4585202978061
 30
0.0
 10
20.81925159342558
 20
469.3998623487228
 30
0.0
 10
20.57193343586443
 20
469.34553209677
 30
0.0
 10
20.26479718359607
 20
469.2746682091426
 30
0.0
 10
19.86094798257575
 20
469.1744069025199
 30
0.0
 10
19.39708897524287
 20
469.0469694071326
 30
0.0
 10
18.8953954684278
 20
468.8931846291512
 30
0.0
 10
18.39946622818987
 20
468.7214689946331
 30
0.0
 10
17.90767946472251
 20
468.526779180881
 30
0.0
 10
17.46873577283244
 20
468.3284019060981
 30
0.0
 10
17.07870937511155
 20
468.1274397619262
 30
0.0
 10
16.74386020389251
 20
467.9307505735698
 30
0.0
 10
16.46245953969364
 20
467.7480075377687
 30
0.0
 10
16.222867045661
 20
467.5802858493978
 30
0.0
 10
16.01246345339317
 20
467.4225876443295
 30
0.0
 10
15.80999271670679
 20
467.2585827484301
 30
0.0
 10
15.62034790573388
 20
467.0907585768655
 30
0.0
 10
15.44916798735042
 20
466.9214014975857
 30
0.0
 10
15.28908676286256
 20
466.7450999300744
 30
0.0
 10
15.13535012151203
 20
466.5652761312204
 30
0.0
 10
14.98565633238748
 20
466.3844965960456
 30
0.0
 10
14.84355986810661
 20
466.2064494938622
 30
0.0
 10
14.71433614103035
 20
466.0402027593341
 30
0.0
 10
14.59723914125826
 20
465.8864893470598
 30
0.0
 10
14.49173840948927
 20
465.7455953561468
 30
0.0
 10
14.37944501508878
 20
465.5934557433939
 30
0.0
 10
14.2560670552988
 20
465.4236643767786
 30
0.0
 10
14.11288468663362
 20
465.2232001767752
 30
0.0
 10
13.96288446162986
 20
465.0094854379394
 30
0.0
 10
13.79490195251672
 20
464.7658277614842
 30
0.0
 10
13.60884965424986
 20
464.4904965931922
 30
0.0
 10
13.40716805338203
 20
464.1853403074254
 30
0.0
 10
13.20351825575949
 20
463.8702376490156
 30
0.0
 10
13.00117189571914
 20
463.5501930584815
 30
0.0
 10
12.80078026887068
 20
463.2263156941067
 30
0.0
 10
12.60534566611598
 20
462.903641424074
 30
0.0
 10
12.41477342155353
 20
462.5823322702362
 30
0.0
 10
12.23158095417769
 20
462.2670157473341
 30
0.0
 10
12.05913297827699
 20
461.9640426581485
 30
0.0
 10
11.91285169841886
 20
461.7020476484807
 30
0.0
 10
11.7929617832653
 20
461.4839039618697
 30
0.0
 10
11.69632156728258
 20
461.3057682287495
 30
0.0
 10
11.61121113655551
 20
461.1469923677265
 30
0.0
 10
11.52595493232671
 20
460.9861937238181
 30
0.0
 10
11.43265634435191
 20
460.8080692203073
 30
0.0
 10
11.32330004626377
 20
460.5961939196809
 30
0.0
 10
11.20052939373638
 20
460.354332555657
 30
0.0
 10
11.07615941353106
 20
460.1047493313986
 30
0.0
 10
10.95198264269796
 20
459.8511358811476
 30
0.0
 10
10.83026185298643
 20
459.5984427775951
 30
0.0
 10
10.70567572452394
 20
459.3354275076746
 30
0.0
 10
10.53170789874961
 20
458.9621231303883
 30
0.0
 10
10.31968317302145
 20
458.4955595372974
 30
0.0
 10
10.07963840078356
 20
457.952528769533
 30
0.0
 10
9.86382711471285
 20
457.454146359771
 30
0.0
 10
9.698378832960069
 20
457.0671046367918
 30
0.0
 10
9.592456157048678
 20
456.8166854544359
 30
0.0
 10
9.525704569566564
 20
456.6561550526602
 30
0.0
 10
9.469938171610425
 20
456.5302508519353
 30
0.0
 10
9.430767899589036
 20
456.44806640981
 30
0.0
 10
9.418192418291966
 20
456.4225112770405
 30
0.0
 10
9.419403608771852
 20
456.422253846191
 30
0.0
 10
9.419898260420567
 20
456.4225504527363
 30
0.0
  0
ARC
  5
8F
330
6E
100
AcDbEntity
  8
$DDT_AUDIT_GENERATED_(70)
  6
Continuous
 62
     7
100
AcDbCircle
 10
-589.7411404684
 20
463.870435329
 30
0.0
 40
597.6941708597744
100
AcDbArc
 50
359.6516449562
 51
0.8286521691
  0
ARC
  5
90
330
6E
100
AcDbEntity
  8
$DDT_AUDIT_GENERATED_(70)
  6
Continuous
 62
     7
100
AcDbCircle
 10
-1668.4432130943
 20
394.0720083877
 30
0.0
 40
1676.499268155079
100
AcDbArc
 50
359.6590447706
 51
0.6682148884
  0
LINE
  5
91
330
6E
100
AcDbEntity
  8
$DDT_AUDIT_GENERATED_(70)
  6
Continuous
 62
     7
100
AcDbLine
 10
60.1081536535
 20
413.5968364368
 30
0.0
 11
60.1081536535
 21
460.2536032068
 31
0.0
  0
ARC
  5
92
330
6E
100
AcDbEntity
  8
$DDT_AUDIT_GENERATED_(70)
  6
Continuous
 62
     7
100
AcDbCircle
 10
912.7410322847
 20
462.7957436232
 30
0.0
 40
852.6366724897458
100
AcDbArc
 50
179.346906513
 51
180.1719764376
  0
SPLINE
  5
93
330
6E
100
AcDbEntity
  8
$DDT_AUDIT_GENERATED_(70)
  6
Continuous
 62
     7
100
AcDbSpline
210
0.0
220
0.0
230
1.0
 70
     8
 71
     3
 72
    85
 73
    81
 74
     0
 42
0.0000000003033017
 43
0.0000000001
 40
0.046962808194021
 40
0.046962808194021
 40
0.046962808194021
 40
0.046962808194021
 40
0.0481674100752743
 40
0.0540434415258609
 40
0.0596963975956369
 40
0.0651798216122342
 40
0.0768009986406726
 40
0.0875406036803138
 40
0.0987524851503093
 40
0.1112205425488045
 40
0.1249398198075733
 40
0.1396270443025549
 40
0.1555110032723429
 40
0.1725862560183828
 40
0.1908472973593324
 40
0.2101011225706399
 40
0.2283264898468195
 40
0.2454297465871993
 40
0.261414883296117
 40
0.276285389749039
 40
0.2900442157605126
 40
0.3026938273130907
 40
0.3142362596270413
 40
0.325018552180501
 40
0.3364165448524978
 40
0.34857237350578
 40
0.3614859639540876
 40
0.3751576096900531
 40
0.3895879594616151
 40
0.4102984370765647
 40
0.4305644074770481
 40
0.4502278472582258
 40
0.4692907695692782
 40
0.4867454507741996
 40
0.5040717043723849
 40
0.5221591684505661
 40
0.5410411670809803
 40
0.5607193739487556
 40
0.5811949374240468
 40
0.6019515995774705
 40
0.6235912393483489
 40
0.6439036404719968
 40
0.6628853750654028
 40
0.6808698647982191
 40
0.6983649067686936
 40
0.7060993661307954
 40
0.7148676479760485
 40
0.7249393721274714
 40
0.7363026986127535
 40
0.7456369568928225
 40
0.7538197718180691
 40
0.7607637751088205
 40
0.7664779369733679
 40
0.7722988487318364
 40
0.7797041537517543
 40
0.7889992741711489
 40
0.7988744368195795
 40
0.8082145309986923
 40
0.8170291483484826
 40
0.8240820882444216
 40
0.8300300207423965
 40
0.8346608406180002
 40
0.8379777524824674
 40
0.8394600868934279
 40
0.8410084150409622
 40
0.843543533111951
 40
0.8470716863930835
 40
0.8515920021381207
 40
0.8571032034825941
 40
0.865023559404517
 40
0.8743676231335152
 40
0.8851303231157801
 40
0.8973087938859838
 40
0.9108980579531145
 40
0.9232987431339146
 40
0.9366806692809904
 40
0.9510418161985646
 40
0.9663825610278849
 40
0.982702113487749
 40
1.0
 40
1.0
 40
1.0
 40
1.0
 10
58.63401499531169
 20
456.4193323540293
 30
0.0
 10
58.63409214765235
 20
456.4193653478067
 30
0.0
 10
58.63375595259564
 20
456.4209343660638
 30
0.0
 10
58.62438646183465
 20
456.4396018298118
 30
0.0
 10
58.61139961967302
 20
456.466820257492
 30
0.0
 10
58.58920443146726
 20
456.5139569760574
 30
0.0
 10
58.5554171512227
 20
456.5882107668543
 30
0.0
 10
58.49920128045307
 20
456.717812635906
 30
0.0
 10
58.43538934852371
 20
456.8696175242052
 30
0.0
 10
58.36358085683259
 20
457.0386058852555
 30
0.0
 10
58.28137892679059
 20
457.2315564563606
 30
0.0
 10
58.1888475766824
 20
457.447548496049
 30
0.0
 10
58.08561870062623
 20
457.6868301571733
 30
0.0
 10
57.97078205732203
 20
457.950685158451
 30
0.0
 10
57.84429192857941
 20
458.2382000493765
 30
0.0
 10
57.71109635381403
 20
458.5369732930739
 30
0.0
 10
57.57737315983267
 20
458.832415990533
 30
0.0
 10
57.44869482314368
 20
459.1122001921914
 30
0.0
 10
57.32581219496446
 20
459.375153603731
 30
0.0
 10
57.20915740025849
 20
459.6208889340124
 30
0.0
 10
57.09913557744169
 20
459.8491344733393
 30
0.0
 10
56.99610741115627
 20
460.0597504738745
 30
0.0
 10
56.89946299587794
 20
460.2545758971327
 30
0.0
 10
56.80455101294859
 20
460.4433803372618
 30
0.0
 10
56.70591518971151
 20
460.6369548848716
 30
0.0
 10
56.59914709077955
 20
460.8434438494341
 30
0.0
 10
56.48355306026171
 20
461.06347338792
 30
0.0
 10
56.35885806474084
 20
461.2968383363969
 30
0.0
 10
56.20766424861201
 20
461.5749900042361
 30
0.0
 10
56.03222075733475
 20
461.891226428659
 30
0.0
 10
55.83643439925716
 20
462.2361505711046
 30
0.0
 10
55.64217493137223
 20
462.5708757011226
 30
0.0
 10
55.45368149162471
 20
462.8887913531613
 30
0.0
 10
55.26977536025051
 20
463.1927782924796
 30
0.0
 10
55.08623663389674
 20
463.4903757709772
 30
0.0
 10
54.89516505024034
 20
463.7940855119647
 30
0.0
 10
54.69274036268274
 20
464.1090927917165
 30
0.0
 10
54.47833111995296
 20
464.4352532147544
 30
0.0
 10
54.25322387720084
 20
464.7694506751448
 30
0.0
 10
54.01648007460037
 20
465.1118424806871
 30
0.0
 10
53.77646609509005
 20
465.4493148802482
 30
0.0
 10
53.53804609537945
 20
465.7743961215456
 30
0.0
 10
53.31121015002686
 20
466.0735395927216
 30
0.0
 10
53.08163841975545
 20
466.365460924183
 30
0.0
 10
52.86615342763632
 20
466.6256957666957
 30
0.0
 10
52.67464008147778
 20
466.8422303619202
 30
0.0
 10
52.50788450012895
 20
467.0165660859827
 30
0.0
 10
52.29113398256401
 20
467.216891079375
 30
0.0
 10
52.04095296774683
 20
467.4214014426478
 30
0.0
 10
51.78372623734074
 20
467.6119018722022
 30
0.0
 10
51.55447073687764
 20
467.7697371759349
 30
0.0
 10
51.3496254399243
 20
467.9018464954883
 30
0.0
 10
51.15991218663017
 20
468.0169337418051
 30
0.0
 10
50.95696435136367
 20
468.1326087168044
 30
0.0
 10
50.69127317616032
 20
468.2726549337722
 30
0.0
 10
50.34554038415659
 20
468.4373274769355
 30
0.0
 10
49.9386864808362
 20
468.6097609054672
 30
0.0
 10
49.50547906870162
 20
468.7730610248279
 30
0.0
 10
49.08391501598073
 20
468.9150405361056
 30
0.0
 10
48.69558075352197
 20
469.0334895647683
 30
0.0
 10
48.36268535057729
 20
469.1270352295341
 30
0.0
 10
48.08807891150374
 20
469.1990900926235
 30
0.0
 10
47.89617305688883
 20
469.2469010742756
 30
0.0
 10
47.76543866840138
 20
469.2784750783492
 30
0.0
 10
47.65219889938216
 20
469.3053000897486
 30
0.0
 10
47.4958595222011
 20
469.3413820674558
 30
0.0
 10
47.27380262524454
 20
469.390668173447
 30
0.0
 10
46.98087525410926
 20
469.4523694836766
 30
0.0
 10
46.57901983179372
 20
469.5315367683782
 30
0.0
 10
46.04659289851581
 20
469.62737163681
 30
0.0
 10
45.35948789041358
 20
469.7372963549705
 30
0.0
 10
44.53156716026673
 20
469.8520233490671
 30
0.0
 10
43.55693395989214
 20
469.9655932569392
 30
0.0
 10
42.49296491832859
 20
470.0649772366148
 30
0.0
 10
41.34412631080469
 20
470.1473890099563
 30
0.0
 10
40.12558778678042
 20
470.2117626887974
 30
0.0
 10
38.77073988433793
 20
470.2598788173818
 30
0.0
 10
37.29811677620643
 20
470.2913616211289
 30
0.0
 10
35.67028113758294
 20
470.3086530039433
 30
0.0
 10
34.64885854823747
 20
470.3113291068638
 30
0.0
 10
34.02509198472573
 20
470.312438101615
 30
0.0
  0
ARC
  5
94
330
6E
100
AcDbEntity
  8
$DDT_AUDIT_GENERATED_(70)
  6
Continuous
 62
     7
100
AcDbCircle
 10
1700.7451302086
 20
394.1741013998
 30
0.0
 40
1640.752271989241
100
AcDbArc
 50
179.3207914459
 51
180.3519488951
  0
LINE
  5
95
330
6E
100
AcDbEntity
  8
$DDT_AUDIT_GENERATED_(70)
  6
Continuous
 62
     7
100
AcDbLine
 10
60.1140118724
 20
472.6568516054
 30
0.0
 11
59.7626920357
 21
473.2655699162
 31
0.0
  0
LINE
  5
96
330
6E
100
AcDbEntity
  8
$DDT_AUDIT_GENERATED_(70)
  6
Continuous
 62
     7
100
AcDbLine
 10
8.2880216057
 20
473.2655699162
 30
0.0
 11
7.9414363282
 21
472.6650435079
 31
0.0
  0
ARC
  5
97
330
6E
100
AcDbEntity
  8
$DDT_AUDIT_GENERATED_(70)
  6
Continuous
 62
     7
100
AcDbCircle
 10
59.9269845295
 20
472.539325374
 30
0.0
 40
0.2291130649511022
100
AcDbArc
 50
353.7586366296
 51
33.6770503292
  0
ARC
  5
98
330
6E
100
AcDbEntity
  8
$DDT_AUDIT_GENERATED_(70)
  6
Continuous
 62
     7
100
AcDbCircle
 10
8.1018366911
 20
472.5428839277
 30
0.0
 40
0.2083895173024805
100
AcDbArc
 50
143.90635764
 51
187.843412099
  0
ELLIPSE
  5
9A
330
6E
100
AcDbEntity
  8
02636038_GEHÄUSE
  6
Continuous
 62
     7
100
AcDbEllipse
 10
34.0250919847
 20
446.8909623136
 30
0.0
 11
10.05000000000001
 21
0.0
 31
0.0
210
0.0
220
0.0
230
1.0
 40
0.4336590846
 41
0.0
 42
6.283185307179586
  0
ELLIPSE
  5
9B
330
6E
100
AcDbEntity
  8
02636038_GEHÄUSE
  6
Continuous
 62
     7
100
AcDbEllipse
 10
34.0250919847
 20
446.8909623136
 30
0.0
 11
10.75000000000001
 21
0.0
 31
0.0
210
0.0
220
0.0
230
1.0
 40
0.4336590846
 41
0.0
 42
6.283185307179586
  0
LINE
  5
9C
330
6E
100
AcDbEntity
  8
02636038_GEHÄUSE
  6
Continuous
 62
     7
100
AcDbLine
 10
23.0250919847
 20
448.2987534074
 30
0.0
 11
23.0250919847
 21
446.0554319868
 31
0.0
  0
ELLIPSE
  5
9D
330
6E
100
AcDbEntity
  8
02636038_GEHÄUSE
  6
Continuous
 62
     7
100
AcDbEllipse
 10
34.0250919847
 20
449.5941933776
 30
0.0
 11
11.79999999999982
 21
-5.551115123125783E-14
 31
0.0
210
0.0
220
0.0
230
1.0
 40
0.4336590846
 41
2.771250021498071
 42
3.511935285681512
  0
LINE
  5
9E
330
6E
100
AcDbEntity
  8
02636038_GEHÄUSE
  6
Continuous
 62
     7
100
AcDbLine
 10
23.0250919847
 20
451.4462781699
 30
0.0
 11
23.0250919847
 21
449.8095330806
 31
0.0
  0
LINE
  5
9F
330
6E
100
AcDbEntity
  8
02636038_GEHÄUSE
  6
Continuous
 62
     7
100
AcDbLine
 10
23.0250919847
 20
449.8095330806
 30
0.0
 11
23.0250919847
 21
448.2987534074
 31
0.0
  0
LINE
  5
A0
330
6E
100
AcDbEntity
  8
02636038_GEHÄUSE
  6
Continuous
 62
     7
100
AcDbLine
 10
23.0250919847
 20
445.817454153
 30
0.0
 11
23.0250919847
 21
446.0554319868
 31
0.0
  0
ELLIPSE
  5
A1
330
6E
100
AcDbEntity
  8
02636038_GEHÄUSE
  6
Continuous
 62
     7
100
AcDbEllipse
 10
34.0250919847
 20
447.1770926971
 30
0.0
 11
11.30000000000003
 21
2.775557561562891E-14
 31
0.0
210
0.0
220
0.0
230
1.0
 40
0.4336590846
 41
-0.9855567368657905
 42
-0.8600154094551762
  0
ELLIPSE
  5
A2
330
6E
100
AcDbEntity
  8
02636038_GEHÄUSE
  6
Continuous
 62
     7
100
AcDbEllipse
 10
34.0250919847
 20
447.1770926971
 30
0.0
 11
11.30000000000003
 21
2.775557561562891E-14
 31
0.0
210
0.0
220
0.0
230
1.0
 40
0.4336590846
 41
4.001145281848308
 42
4.127149390455575
  0
LINE
  5
A3
330
6E
100
AcDbEntity
  8
02636038_GEHÄUSE
  6
Continuous
 62
     7
100
AcDbLine
 10
45.0250919847
 20
446.0554319868
 30
0.0
 11
45.0250919847
 21
448.2987534074
 31
0.0
  0
ELLIPSE
  5
A4
330
6E
100
AcDbEntity
  8
02636038_GEHÄUSE
  6
Continuous
 62
     7
100
AcDbEllipse
 10
34.0250919847
 20
449.5941933776
 30
0.0
 11
-11.80000000000015
 21
0.0
 31
0.0
210
0.0
220
0.0
230
1.0
 40
0.4336590846
 41
2.77125002149808
 42
3.511935285681507
  0
LINE
  5
A5
330
6E
100
AcDbEntity
  8
02636038_GEHÄUSE
  6
Continuous
 62
     7
100
AcDbLine
 10
45.0250919847
 20
446.0554319868
 30
0.0
 11
45.0250919847
 21
445.8170892621
 31
0.0
  0
LINE
  5
A6
330
6E
100
AcDbEntity
  8
02636038_GEHÄUSE
  6
Continuous
 62
     7
100
AcDbLine
 10
45.0250919847
 20
448.2987534074
 30
0.0
 11
45.0250919847
 21
449.8095330806
 31
0.0
  0
LINE
  5
A7
330
6E
100
AcDbEntity
  8
02636038_GEHÄUSE
  6
Continuous
 62
     7
100
AcDbLine
 10
45.0250919847
 20
449.8095330806
 30
0.0
 11
45.0250919847
 21
451.4462781699
 31
0.0
  0
LINE
  5
A8
330
6E
100
AcDbEntity
  8
02636038_GEHÄUSE
  6
Continuous
 62
     7
100
AcDbLine
 10
27.7829819796
 20
443.0922620715
 30
0.0
 11
28.0868014931
 21
443.0049508778
 31
0.0
  0
LINE
  5
A9
330
6E
100
AcDbEntity
  8
02636038_GEHÄUSE
  6
Continuous
 62
     7
100
AcDbLine
 10
39.9633824763
 20
443.0049508778
 30
0.0
 11
40.2672019899
 21
443.0922620715
 31
0.0
  0
ARC
  5
AA
330
6E
100
AcDbEntity
  8
02636038_GEHÄUSE
  6
Continuous
 62
     7
100
AcDbCircle
 10
38.9504980829
 20
451.1934478085
 30
0.0
 40
8.106742871249567
100
AcDbArc
 50
287.7461275819
 51
318.531022484
  0
ARC
  5
AB
330
6E
100
AcDbEntity
  8
02636038_GEHÄUSE
  6
Continuous
 62
     7
100
AcDbCircle
 10
29.0954863443
 20
451.1896117614
 30
0.0
 40
8.101258258487924
100
AcDbArc
 50
221.4689045399
 51
252.2457243169
  0
LINE
  5
AC
330
6E
100
AcDbEntity
  8
02636038_GEHÄUSE
  6
Continuous
 62
     7
100
AcDbLine
 10
22.2250919847
 20
454.5501169949
 30
0.0
 11
22.2250919847
 21
449.5941933776
 31
0.0
  0
LINE
  5
AD
330
6E
100
AcDbEntity
  8
02636038_GEHÄUSE
  6
Continuous
 62
     7
100
AcDbLine
 10
45.8250919847
 20
449.5941933776
 30
0.0
 11
45.8250919847
 21
454.5501169949
 31
0.0
  0
ELLIPSE
  5
AF
330
6E
100
AcDbEntity
  8
$DDT_AUDIT_GENERATED_(AE)
  6
Continuous
 62
     7
100
AcDbEllipse
 10
34.0250919847
 20
446.5305315051
 30
0.0
 11
-9.000000000000004
 21
0.0
 31
0.0
210
0.0
220
0.0
230
1.0
 40
0.4336590846
 41
0.0
 42
6.283185307179586
  0
ELLIPSE
  5
B0
330
6E
100
AcDbEntity
  8
$DDT_AUDIT_GENERATED_(AE)
  6
Continuous
 62
     7
100
AcDbEllipse
 10
34.0250919847
 20
449.3116823969
 30
0.0
 11
-9.386474103794987
 21
4.163336342344337E-14
 31
0.0
210
0.0
220
0.0
230
1.0
 40
0.4336590846
 41
0.1751731079537371
 42
0.2879555481429286
  0
ELLIPSE
  5
B1
330
6E
100
AcDbEntity
  8
$DDT_AUDIT_GENERATED_(AE)
  6
Continuous
 62
     7
100
AcDbEllipse
 10
34.0250919847
 20
449.3116823969
 30
0.0
 11
9.386474103794338
 21
1.387778780781446E-13
 31
0.0
210
0.0
220
0.0
230
1.0
 40
0.4336590846
 41
-0.2879555481429446
 42
-0.1751731079537553
  0
ELLIPSE
  5
B2
330
6E
100
AcDbEntity
  8
$DDT_AUDIT_GENERATED_(AE)
  6
Continuous
 62
     7
100
AcDbEllipse
 10
34.0250919847
 20
446.5305315051
 30
0.0
 11
-5.249999999999998
 21
0.0
 31
0.0
210
0.0
220
0.0
230
1.0
 40
0.4336590846
 41
0.0
 42
6.283185307179586
  0
ELLIPSE
  5
B3
330
6E
100
AcDbEntity
  8
$DDT_AUDIT_GENERATED_(AE)
  6
Continuous
 62
     7
100
AcDbEllipse
 10
34.0250919847
 20
446.5305315051
 30
0.0
 11
-6.250000000000002
 21
0.0
 31
0.0
210
0.0
220
0.0
230
1.0
 40
0.4336590846
 41
0.0
 42
6.283185307179586
  0
ELLIPSE
  5
B4
330
6E
100
AcDbEntity
  8
$DDT_AUDIT_GENERATED_(AE)
  6
Continuous
 62
     7
100
AcDbEllipse
 10
34.0250919847
 20
446.5305315051
 30
0.0
 11
2.750000000000003
 21
0.0
 31
0.0
210
0.0
220
0.0
230
1.0
 40
0.4336590846
 41
0.0
 42
6.283185307179586
  0
ELLIPSE
  5
B5
330
6E
100
AcDbEntity
  8
$DDT_AUDIT_GENERATED_(AE)
  6
Continuous
 62
     7
100
AcDbEllipse
 10
34.0250919847
 20
446.5305315051
 30
0.0
 11
2.15
 21
0.0
 31
0.0
210
0.0
220
0.0
230
1.0
 40
0.4336590846
 41
0.0
 42
6.283185307179586
  0
ELLIPSE
  5
B6
330
6E
100
AcDbEntity
  8
$DDT_AUDIT_GENERATED_(AE)
  6
Continuous
 62
     7
100
AcDbEllipse
 10
34.0250919847
 20
446.7107469094
 30
0.0
 11
-0.5196299438963556
 21
0.0
 31
0.0
210
0.0
220
0.0
230
1.0
 40
0.4336590846
 41
0.0
 42
6.283185307179586
  0
ELLIPSE
  5
B7
330
6E
100
AcDbEntity
  8
$DDT_AUDIT_GENERATED_(AE)
  6
Continuous
 62
     7
100
AcDbEllipse
 10
34.0250919847
 20
446.5305315051
 30
0.0
 11
-8.700000000000001
 21
0.0
 31
0.0
210
0.0
220
0.0
230
1.0
 40
0.4336590846
 41
0.0
 42
6.283185307179586
  0
ARC
  5
B8
330
6E
100
AcDbEntity
  8
$DDT_AUDIT_GENERATED_(AE)
  6
Continuous
 62
     7
100
AcDbCircle
 10
40.9261026426
 20
446.7107469094
 30
0.0
 40
1.598989254300193
100
AcDbArc
 50
358.4459006084
 51
1.5540993916
  0
ARC
  5
B9
330
6E
100
AcDbEntity
  8
$DDT_AUDIT_GENERATED_(AE)
  6
Continuous
 62
     7
100
AcDbCircle
 10
39.099066131
 20
446.7107469094
 30
0.0
 40
1.176025632738875
100
AcDbArc
 50
0.0
 51
2.1132591859
  0
ELLIPSE
  5
BA
330
6E
100
AcDbEntity
  8
$DDT_AUDIT_GENERATED_(AE)
  6
Continuous
 62
     7
100
AcDbEllipse
 10
34.0250919847
 20
446.7107469094
 30
0.0
 11
8.50000000003423
 21
2.386979502944087E-12
 31
0.0
210
0.0
220
0.0
230
1.0
 40
0.4336590846
 41
0.0117649772879232
 42
0.2500344105104358
  0
LINE
  5
BB
330
6E
100
AcDbEntity
  8
$DDT_AUDIT_GENERATED_(AE)
  6
Continuous
 62
     7
100
AcDbLine
 10
40.2742919335
 20
446.7541128178
 30
0.0
 11
40.2742919335
 21
447.3919995119
 31
0.0
  0
ELLIPSE
  5
BC
330
6E
100
AcDbEntity
  8
$DDT_AUDIT_GENERATED_(AE)
  6
Continuous
 62
     7
100
AcDbEllipse
 10
34.0250919847
 20
446.9335814845
 30
0.0
 11
-0.519629943896352
 21
0.0
 31
0.0
210
0.0
220
0.0
230
1.0
 40
0.4336590846
 41
3.141592653589793
 42
3.643514934614135
  0
LINE
  5
BD
330
6E
100
AcDbEntity
  8
$DDT_AUDIT_GENERATED_(AE)
  6
Continuous
 62
     7
100
AcDbLine
 10
34.4806304338
 20
447.0419962556
 30
0.0
 11
34.4806304338
 21
447.4417301206
 31
0.0
  0
ELLIPSE
  5
BE
330
6E
100
AcDbEntity
  8
$DDT_AUDIT_GENERATED_(AE)
  6
Continuous
 62
     7
100
AcDbEllipse
 10
34.0250924408
 20
446.7107468564
 30
0.0
 11
8.499999543637298
 21
6.301822952359259E-8
 31
0.0
210
0.0
220
0.0
230
1.0
 40
0.433659095
 41
-0.2735643755733754
 42
-0.2500344203436633
  0
ELLIPSE
  5
BF
330
6E
100
AcDbEntity
  8
$DDT_AUDIT_GENERATED_(AE)
  6
Continuous
 62
     7
100
AcDbEllipse
 10
34.0250919847
 20
446.7107469094
 30
0.0
 11
8.500000000029582
 21
-2.386979502944087E-12
 31
0.0
210
0.0
220
0.0
230
1.0
 40
0.4336590846
 41
6.033150896669089
 42
6.271420329891606
  0
ELLIPSE
  5
C0
330
6E
100
AcDbEntity
  8
$DDT_AUDIT_GENERATED_(AE)
  6
Continuous
 62
     7
100
AcDbEllipse
 10
34.0250923636
 20
446.7107468145
 30
0.0
 11
8.499999617178771
 21
1.011421779661958E-7
 31
0.0
210
0.0
220
0.0
230
1.0
 40
0.4336590902
 41
-0.5353637694956035
 42
-0.511833814313932
  0
ELLIPSE
  5
C1
330
6E
100
AcDbEntity
  8
$DDT_AUDIT_GENERATED_(AE)
  6
Continuous
 62
     7
100
AcDbEllipse
 10
34.0250919847
 20
446.7107469094
 30
0.0
 11
8.50000000002629
 21
-5.245803791353865E-12
 31
0.0
210
0.0
220
0.0
230
1.0
 40
0.4336590846
 41
-0.5118337983091514
 42
-0.2735643650865853
  0
ELLIPSE
  5
C2
330
6E
100
AcDbEntity
  8
$DDT_AUDIT_GENERATED_(AE)
  6
Continuous
 62
     7
100
AcDbEllipse
 10
34.0250922709
 20
446.7107467854
 30
0.0
 11
8.49999969656877
 21
1.079894645927837E-7
 31
0.0
210
0.0
220
0.0
230
1.0
 40
0.4336590846
 41
-0.7971631583822525
 42
-0.7736332032462636
  0
ELLIPSE
  5
C3
330
6E
100
AcDbEntity
  8
$DDT_AUDIT_GENERATED_(AE)
  6
Continuous
 62
     7
100
AcDbEllipse
 10
34.0250919847
 20
446.7107469094
 30
0.0
 11
8.500000000001922
 21
-5.551115123125783E-13
 31
0.0
210
0.0
220
0.0
230
1.0
 40
0.4336590846
 41
-0.7736331861092394
 42
-0.5353637528863011
  0
ELLIPSE
  5
C4
330
6E
100
AcDbEntity
  8
$DDT_AUDIT_GENERATED_(AE)
  6
Continuous
 62
     7
100
AcDbEllipse
 10
34.0250922122
 20
446.7107467385
 30
0.0
 11
8.499999715629182
 21
1.052361808806523E-7
 31
0.0
210
0.0
220
0.0
230
1.0
 40
0.4336590788
 41
-1.058962545761389
 42
-1.035432590555468
  0
ELLIPSE
  5
C5
330
6E
100
AcDbEntity
  8
$DDT_AUDIT_GENERATED_(AE)
  6
Continuous
 62
     7
100
AcDbEllipse
 10
34.0250919847
 20
446.7107469094
 30
0.0
 11
8.500000000006207
 21
-2.414735078559715E-12
 31
0.0
210
0.0
220
0.0
230
1.0
 40
0.4336590846
 41
-1.035432573908052
 42
-0.7971631406852087
  0
ELLIPSE
  5
C6
330
6E
100
AcDbEntity
  8
$DDT_AUDIT_GENERATED_(AE)
  6
Continuous
 62
     7
100
AcDbEllipse
 10
34.0250921051
 20
446.7107467145
 30
0.0
 11
8.499999751882898
 21
6.211410552570129E-8
 31
0.0
210
0.0
220
0.0
230
1.0
 40
0.4336590743
 41
-1.320761926615975
 42
-1.297231971396061
  0
ELLIPSE
  5
C7
330
6E
100
AcDbEntity
  8
$DDT_AUDIT_GENERATED_(AE)
  6
Continuous
 62
     7
100
AcDbEllipse
 10
34.0250919847
 20
446.7107469094
 30
0.0
 11
8.500000000007926
 21
-2.553512956637860E-12
 31
0.0
210
0.0
220
0.0
230
1.0
 40
0.4336590846
 41
-1.297231961707151
 42
-1.058962528484375
  0
ARC
  5
C8
330
6E
100
AcDbEntity
  8
$DDT_AUDIT_GENERATED_(AE)
  6
Continuous
 62
     7
100
AcDbCircle
 10
34.0250919847
 20
462.6241934463
 30
0.0
 40
19.59954876311763
100
AcDbArc
 50
269.7076665958
 51
270.2923334042
  0
ELLIPSE
  5
C9
330
6E
100
AcDbEntity
  8
$DDT_AUDIT_GENERATED_(AE)
  6
Continuous
 62
     7
100
AcDbEllipse
 10
34.0250919847
 20
446.7107469094
 30
0.0
 11
8.500000000008244
 21
-9.992007221626409E-13
 31
0.0
210
0.0
220
0.0
230
1.0
 40
0.4336590846
 41
4.72415395767305
 42
4.962423390895795
  0
ELLIPSE
  5
CA
330
6E
100
AcDbEntity
  8
$DDT_AUDIT_GENERATED_(AE)
  6
Continuous
 62
     7
100
AcDbEllipse
 10
34.0250918668
 20
446.7107467185
 30
0.0
 11
-8.499999756909682
 21
6.084557857555239E-8
 31
0.0
210
0.0
220
0.0
230
1.0
 40
0.4336590745
 41
1.297231971194551
 42
1.320761926401427
  0
ELLIPSE
  5
CB
330
6E
100
AcDbEntity
  8
$DDT_AUDIT_GENERATED_(AE)
  6
Continuous
 62
     7
100
AcDbEllipse
 10
34.0250919847
 20
446.7107469094
 30
0.0
 11
-8.499999999993928
 21
8.881784197001252E-13
 31
0.0
210
0.0
220
0.0
230
1.0
 40
0.4336590846
 41
1.320761916283904
 42
1.559031349507044
  0
ELLIPSE
  5
CC
330
6E
100
AcDbEntity
  8
$DDT_AUDIT_GENERATED_(AE)
  6
Continuous
 62
     7
100
AcDbEllipse
 10
34.0250917573
 20
446.7107467385
 30
0.0
 11
-8.499999715676324
 21
1.052024301007037E-7
 31
0.0
210
0.0
220
0.0
230
1.0
 40
0.4336590788
 41
1.035432590546459
 42
1.058962545752347
  0
ELLIPSE
  5
CD
330
6E
100
AcDbEntity
  8
$DDT_AUDIT_GENERATED_(AE)
  6
Continuous
 62
     7
100
AcDbEllipse
 10
34.0250919847
 20
446.7107469094
 30
0.0
 11
-8.500000000007848
 21
-2.817190924986335E-12
 31
0.0
210
0.0
220
0.0
230
1.0
 40
0.4336590846
 41
1.058962528484338
 42
1.29723196170712
  0
ELLIPSE
  5
CE
330
6E
100
AcDbEntity
  8
$DDT_AUDIT_GENERATED_(AE)
  6
Continuous
 62
     7
100
AcDbEllipse
 10
34.0250916757
 20
446.7107467753
 30
0.0
 11
-8.49999967217523
 21
1.167398677726084E-7
 31
0.0
210
0.0
220
0.0
230
1.0
 40
0.4336590846
 41
0.7736332046160783
 42
0.7971631597973347
  0
ELLIPSE
  5
CF
330
6E
100
AcDbEntity
  8
$DDT_AUDIT_GENERATED_(AE)
  6
Continuous
 62
     7
100
AcDbEllipse
 10
34.0250919847
 20
446.7107469094
 30
0.0
 11
-8.499999999998121
 21
6.522560269672795E-13
 31
0.0
210
0.0
220
0.0
230
1.0
 40
0.4336590846
 41
0.7971631406856217
 42
1.035432573908631
  0
ELLIPSE
  5
D0
330
6E
100
AcDbEntity
  8
$DDT_AUDIT_GENERATED_(AE)
  6
Continuous
 62
     7
100
AcDbEllipse
 10
34.0250916054
 20
446.7107468143
 30
0.0
 11
-8.499999616731175
 21
1.013374523184396E-7
 31
0.0
210
0.0
220
0.0
230
1.0
 40
0.4336590902
 41
0.5118338143335216
 42
0.5353637695160173
  0
ELLIPSE
  5
D1
330
6E
100
AcDbEntity
  8
$DDT_AUDIT_GENERATED_(AE)
  6
Continuous
 62
     7
100
AcDbEllipse
 10
34.0250919848
 20
446.7107469094
 30
0.0
 11
-8.500000000025581
 21
-8.312794896880860E-12
 31
0.0
210
0.0
220
0.0
230
1.0
 40
0.4336590846
 41
0.5353637528852809
 42
0.7736331861078181
  0
ELLIPSE
  5
D2
330
6E
100
AcDbEntity
  8
$DDT_AUDIT_GENERATED_(AE)
  6
Continuous
 62
     7
100
AcDbEllipse
 10
34.0250915618
 20
446.7107468602
 30
0.0
 11
-8.499999576802397
 21
5.852521245408582E-8
 31
0.0
210
0.0
220
0.0
230
1.0
 40
0.4336590943
 41
0.2500344196332734
 42
0.2735643748155118
  0
ELLIPSE
  5
D3
330
6E
100
AcDbEntity
  8
$DDT_AUDIT_GENERATED_(AE)
  6
Continuous
 62
     7
100
AcDbEllipse
 10
34.0250919848
 20
446.7107469094
 30
0.0
 11
-8.500000000028148
 21
-5.911937606128959E-12
 31
0.0
210
0.0
220
0.0
230
1.0
 40
0.4336590846
 41
0.2735643650865129
 42
0.5118337983090574
  0
ARC
  5
D4
330
6E
100
AcDbEntity
  8
$DDT_AUDIT_GENERATED_(AE)
  6
Continuous
 62
     7
100
AcDbCircle
 10
27.1240813269
 20
446.7107469094
 30
0.0
 40
1.598989254301372
100
AcDbArc
 50
178.4459006084
 51
181.5540993916
  0
ELLIPSE
  5
D5
330
6E
100
AcDbEntity
  8
$DDT_AUDIT_GENERATED_(AE)
  6
Continuous
 62
     7
100
AcDbEllipse
 10
34.0250919848
 20
446.7107469094
 30
0.0
 11
-8.500000000026414
 21
-1.887379141862766E-12
 31
0.0
210
0.0
220
0.0
230
1.0
 40
0.4336590846
 41
0.0117649772879327
 42
0.2500344105105669
  0
ARC
  5
D6
330
6E
100
AcDbEntity
  8
$DDT_AUDIT_GENERATED_(AE)
  6
Continuous
 62
     7
100
AcDbCircle
 10
28.9511178384
 20
446.7107469094
 30
0.0
 40
1.176025632738759
100
AcDbArc
 50
177.8867408141
 51
180.0
  0
LINE
  5
D7
330
6E
100
AcDbEntity
  8
$DDT_AUDIT_GENERATED_(AE)
  6
Continuous
 62
     7
100
AcDbLine
 10
27.7758920359
 20
446.7541128178
 30
0.0
 11
27.7758920359
 21
447.3919995119
 31
0.0
  0
ELLIPSE
  5
D8
330
6E
100
AcDbEntity
  8
$DDT_AUDIT_GENERATED_(AE)
  6
Continuous
 62
     7
100
AcDbEllipse
 10
34.025091529
 20
446.7107469624
 30
0.0
 11
-8.499999544034065
 21
-6.305259092620474E-8
 31
0.0
210
0.0
220
0.0
230
1.0
 40
0.433659095
 41
-0.2735643755688173
 42
-0.2500344203396665
  0
ELLIPSE
  5
D9
330
6E
100
AcDbEntity
  8
$DDT_AUDIT_GENERATED_(AE)
  6
Continuous
 62
     7
100
AcDbEllipse
 10
34.0250919847
 20
446.7107469094
 30
0.0
 11
-8.499999999997817
 21
-7.216449660063518E-13
 31
0.0
210
0.0
220
0.0
230
1.0
 40
0.4336590846
 41
6.033150896668458
 42
6.271420329891408
  0
ELLIPSE
  5
DA
330
6E
100
AcDbEntity
  8
$DDT_AUDIT_GENERATED_(AE)
  6
Continuous
 62
     7
100
AcDbEllipse
 10
34.0250919847
 20
446.7107469094
 30
0.0
 11
-8.500000000024004
 21
5.120903701083535E-12
 31
0.0
210
0.0
220
0.0
230
1.0
 40
0.4336590846
 41
-0.4807950295249528
 42
-0.2735643650866173
  0
ELLIPSE
  5
DB
330
6E
100
AcDbEntity
  8
$DDT_AUDIT_GENERATED_(AE)
  6
Continuous
 62
     7
100
AcDbEllipse
 10
34.0250924077
 20
446.7107469586
 30
0.0
 11
8.499999576749154
 21
-5.853263707056300E-8
 31
0.0
210
0.0
220
0.0
230
1.0
 40
0.4336590943
 41
0.2500344196344328
 42
0.2735643748167405
  0
ELLIPSE
  5
DC
330
6E
100
AcDbEntity
  8
$DDT_AUDIT_GENERATED_(AE)
  6
Continuous
 62
     7
100
AcDbEllipse
 10
34.0250919847
 20
446.7107469094
 30
0.0
 11
8.500000000029102
 21
5.564992910933597E-12
 31
0.0
210
0.0
220
0.0
230
1.0
 40
0.4336590846
 41
0.273564365086517
 42
0.4807950295247807
  0
ELLIPSE
  5
DD
330
6E
100
AcDbEntity
  8
$DDT_AUDIT_GENERATED_(AE)
  6
Continuous
 62
     7
100
AcDbEllipse
 10
34.0250919847
 20
446.7107469094
 30
0.0
 11
-2.750000000001061
 21
0.0
 31
0.0
210
0.0
220
0.0
230
1.0
 40
0.4336590846
 41
3.141592653589793
 42
3.205272045846789
  0
LINE
  5
DE
330
6E
100
AcDbEntity
  8
$DDT_AUDIT_GENERATED_(AE)
  6
Continuous
 62
     7
100
AcDbLine
 10
36.7695181543
 20
447.3102470258
 30
0.0
 11
36.7695181543
 21
446.7866372492
 31
0.0
  0
LINE
  5
DF
330
6E
100
AcDbEntity
  8
$DDT_AUDIT_GENERATED_(AE)
  6
Continuous
 62
     7
100
AcDbLine
 10
31.2806658152
 20
447.3102470258
 30
0.0
 11
31.2806658152
 21
446.7866372492
 31
0.0
  0
ELLIPSE
  5
E0
330
6E
100
AcDbEntity
  8
$DDT_AUDIT_GENERATED_(AE)
  6
Continuous
 62
     7
100
AcDbEllipse
 10
34.0250919847
 20
446.7107469094
 30
0.0
 11
2.750000000002709
 21
2.109423746787797E-12
 31
0.0
210
0.0
220
0.0
230
1.0
 40
0.4336590846
 41
3.077913261332485
 42
3.141592653589788
  0
LINE
  5
E1
330
6E
100
AcDbEntity
  8
$DDT_AUDIT_GENERATED_(AE)
  6
Continuous
 62
     7
100
AcDbLine
 10
25.0250919847
 20
448.8304659056
 30
0.0
 11
25.0250919847
 21
446.5305315051
 31
0.0
  0
LINE
  5
E2
330
6E
100
AcDbEntity
  8
$DDT_AUDIT_GENERATED_(AE)
  6
Continuous
 62
     7
100
AcDbLine
 10
43.0250919847
 20
446.5305315051
 30
0.0
 11
43.0250919847
 21
448.8304659056
 31
0.0
  0
LINE
  5
E3
330
6E
100
AcDbEntity
  8
$DDT_AUDIT_GENERATED_(AE)
  6
Continuous
 62
     7
100
AcDbLine
 10
27.7750919847
 20
446.7107469094
 30
0.0
 11
27.7750919847
 21
446.5305315051
 31
0.0
  0
LINE
  5
E4
330
6E
100
AcDbEntity
  8
$DDT_AUDIT_GENERATED_(AE)
  6
Continuous
 62
     7
100
AcDbLine
 10
40.2750919847
 20
446.5305315051
 30
0.0
 11
40.2750919847
 21
446.7107469094
 31
0.0
  0
LINE
  5
E5
330
6E
100
AcDbEntity
  8
$DDT_AUDIT_GENERATED_(AE)
  6
Continuous
 62
     7
100
AcDbLine
 10
31.2750919847
 20
446.7107469094
 30
0.0
 11
31.2750919847
 21
446.5305315051
 31
0.0
  0
LINE
  5
E6
330
6E
100
AcDbEntity
  8
$DDT_AUDIT_GENERATED_(AE)
  6
Continuous
 62
     7
100
AcDbLine
 10
36.7750919847
 20
446.5305315051
 30
0.0
 11
36.7750919847
 21
446.7107469094
 31
0.0
  0
LINE
  5
E7
330
6E
100
AcDbEntity
  8
$DDT_AUDIT_GENERATED_(AE)
  6
Continuous
 62
     7
100
AcDbLine
 10
33.5054620408
 20
447.107056161
 30
0.0
 11
33.5054620408
 21
446.7107469094
 31
0.0
  0
LINE
  5
E8
330
6E
100
AcDbEntity
  8
$DDT_AUDIT_GENERATED_(AE)
  6
Continuous
 62
     7
100
AcDbLine
 10
34.5447219286
 20
446.7107469094
 30
0.0
 11
34.5447219286
 21
446.9335814845
 31
0.0
  0
ARC
  5
EA
330
6E
100
AcDbEntity
  8
$DDT_AUDIT_GENERATED_(E9)
  6
Continuous
 62
     7
100
AcDbCircle
 10
155.771129266
 20
534.7557117482
 30
0.0
 40
125.3732376778131
100
AcDbArc
 50
178.4312487466
 51
179.9330398951
  0
SPLINE
  5
EB
330
6E
100
AcDbEntity
  8
$DDT_AUDIT_GENERATED_(E9)
  6
Continuous
 62
     7
100
AcDbSpline
210
0.0
220
0.0
230
1.0
 70
     8
 71
     3
 72
    24
 73
    20
 74
     0
 42
0.000000003943883
 43
0.0000000001
 40
0.0
 40
0.0
 40
0.0
 40
0.0
 40
0.0277777777777778
 40
0.0555555555555554
 40
0.0833333333333334
 40
0.1111111111111111
 40
0.2222222222222223
 40
0.3333333333333344
 40
0.4444444444444459
 40
0.5555555555555574
 40
0.6666666666666656
 40
0.777777777777777
 40
0.8333333333333346
 40
0.8611111111111099
 40
0.8888888888888886
 40
0.9166666666666673
 40
0.944444444444446
 40
0.9722222222222213
 40
1.0
 40
1.0
 40
1.0
 40
1.0
 10
30.39797720552057
 20
534.9022321953926
 30
0.0
 10
30.40329334087873
 20
534.8853033114481
 30
0.0
 10
30.41513461811537
 20
534.8515654666099
 30
0.0
 10
30.43632874915671
 20
534.8013926422444
 30
0.0
 10
30.4607602910098
 20
534.751727934508
 30
0.0
 10
30.51570858759028
 20
534.6535630997686
 30
0.0
 10
30.61948954793097
 20
534.5112393284406
 30
0.0
 10
30.79622837314302
 20
534.3325290770813
 30
0.0
 10
31.00555681974079
 20
534.1673004818523
 30
0.0
 10
31.24496125688098
 20
534.0167503359507
 30
0.0
 10
31.51165660660082
 20
533.8840998065385
 30
0.0
 10
31.75639414884701
 20
533.7908035515878
 30
0.0
 10
31.93809344192779
 20
533.7372970845187
 30
0.0
 10
32.04470455863209
 20
533.7104984914887
 30
0.0
 10
32.12600846426046
 20
533.6923890227307
 30
0.0
 10
32.20861203147434
 20
533.676370240497
 30
0.0
 10
32.29233506305668
 20
533.6625768672329
 30
0.0
 10
32.37699736179043
 20
533.6511436253835
 30
0.0
 10
32.43394494090252
 20
533.6451847000571
 30
0.0
 10
32.46251520924478
 20
533.6426435001116
 30
0.0
  0
ARC
  5
EC
330
6E
100
AcDbEntity
  8
$DDT_AUDIT_GENERATED_(E9)
  6
Continuous
 62
     7
100
AcDbCircle
 10
43.5790930865
 20
539.1114057819
 30
0.0
 40
13.83686952129201
100
AcDbArc
 50
179.7465862372
 51
197.7100312498
  0
ARC
  5
ED
330
6E
100
AcDbEntity
  8
$DDT_AUDIT_GENERATED_(E9)
  6
Continuous
 62
     7
100
AcDbCircle
 10
34.0240874257
 20
551.2497570306
 30
0.0
 40
17.67622569055596
100
AcDbArc
 50
264.9317071608
 51
270.0030526426
  0
SPLINE
  5
EE
330
6E
100
AcDbEntity
  8
$DDT_AUDIT_GENERATED_(E9)
  6
Continuous
 62
     7
100
AcDbSpline
210
0.0
220
0.0
230
1.0
 70
     8
 71
     3
 72
     8
 73
     4
 74
     0
 42
0.000000014098993
 43
0.0000000001
 40
0.2826685048064117
 40
0.2826685048064117
 40
0.2826685048064117
 40
0.2826685048064117
 40
0.288407066662691
 40
0.288407066662691
 40
0.288407066662691
 40
0.288407066662691
 10
30.47203202717486
 20
548.3202169476975
 30
0.0
 10
30.4717682851426
 20
548.3191899028494
 30
0.0
 10
30.4714952559202
 20
548.3178613791289
 30
0.0
 10
30.47121319732195
 20
548.3162320781207
 30
0.0
  0
SPLINE
  5
EF
330
6E
100
AcDbEntity
  8
$DDT_AUDIT_GENERATED_(E9)
  6
Continuous
 62
     7
100
AcDbSpline
210
0.0
220
0.0
230
1.0
 70
     8
 71
     3
 72
    28
 73
    24
 74
     0
 42
0.0000000007024584
 43
0.0000000001
 40
0.288407066662691
 40
0.288407066662691
 40
0.288407066662691
 40
0.288407066662691
 40
0.3497488088795179
 40
0.3497488088795179
 40
0.4248412707727918
 40
0.4248412707727918
 40
0.4999337326660704
 40
0.4999337326660704
 40
0.5750261945593489
 40
0.5750261945593489
 40
0.650118656452623
 40
0.650118656452623
 40
0.7252111183459012
 40
0.7252111183459012
 40
0.8003035802391779
 40
0.8003035802391779
 40
0.8753960421324547
 40
0.8753960421324547
 40
0.9504885040257315
 40
0.9504885040257315
 40
0.9880347349723702
 40
0.9880347349723702
 40
1.0
 40
1.0
 40
1.0
 40
1.0
 10
30.47121319732195
 20
548.3162320781208
 30
0.0
 10
30.46819816215159
 20
548.298815839535
 30
0.0
 10
30.46415140232418
 20
548.2470318496431
 30
0.0
 10
30.45355639011515
 20
548.0573220226765
 30
0.0
 10
30.44650993855899
 20
547.9019549760478
 30
0.0
 10
30.4346076767545
 20
547.4991272623173
 30
0.0
 10
30.42980167487357
 20
547.2473456276608
 30
0.0
 10
30.43046653093595
 20
546.6691357962382
 30
0.0
 10
30.43604122356109
 20
546.3272451885914
 30
0.0
 10
30.44907496282895
 20
545.5961637073935
 30
0.0
 10
30.45663624673946
 20
545.1911970058756
 30
0.0
 10
30.46926035784071
 20
544.3316821969366
 30
0.0
 10
30.47429275881376
 20
543.8881795937571
 30
0.0
 10
30.48123130148254
 20
542.9430811196776
 30
0.0
 10
30.4830009386462
 20
542.4658949494939
 30
0.0
 10
30.48358838935936
 20
541.4875496681699
 30
0.0
 10
30.48233844408869
 20
540.9926595937098
 30
0.0
 10
30.47637755881104
 20
540.0296705040255
 30
0.0
 10
30.47141431146085
 20
539.5374166979766
 30
0.0
 10
30.45988556676568
 20
538.8447468328012
 30
0.0
 10
30.45545159378797
 20
538.6230460316834
 30
0.0
 10
30.4484296208405
 20
538.3280684939434
 30
0.0
 10
30.4466867135298
 20
538.2576957942325
 30
0.0
 10
30.44488214824251
 20
538.1879863876463
 30
0.0
  0
SPLINE
  5
F0
330
6E
100
AcDbEntity
  8
$DDT_AUDIT_GENERATED_(E9)
  6
Continuous
 62
     7
100
AcDbSpline
210
0.0
220
0.0
230
1.0
 70
     8
 71
     3
 72
   136
 73
   132
 74
     0
 42
0.0000000001625674
 43
0.0000000001
 40
0.0
 40
0.0
 40
0.0
 40
0.0
 40
0.0158386162278621
 40
0.0292474679428774
 40
0.0426563196578928
 40
0.0560651713729082
 40
0.0560651713729082
 40
0.0627695972304159
 40
0.0627695972304159
 40
0.0694740230879235
 40
0.0694740230879235
 40
0.0761784489454313
 40
0.0761784489454313
 40
0.0795306618741809
 40
0.0828828748029389
 40
0.0862350877316886
 40
0.0936855293936411
 40
0.0936855293936411
 40
0.1044881839843434
 40
0.1044881839843434
 40
0.1152908385750456
 40
0.1152908385750456
 40
0.120692165870405
 40
0.120692165870405
 40
0.1260934931657561
 40
0.1260934931657561
 40
0.1368961477564583
 40
0.1368961477564583
 40
0.1476988023471605
 40
0.1476988023471605
 40
0.1585014569378709
 40
0.1585014569378709
 40
0.1641243086752557
 40
0.1693041115285731
 40
0.1744839143818908
 40
0.1796637172352164
 40
0.1796637172352164
 40
0.1900233229418549
 40
0.1900233229418549
 40
0.2107425343551374
 40
0.2107425343551374
 40
0.2211021400617789
 40
0.2211021400617789
 40
0.2314617457684198
 40
0.2314617457684198
 40
0.2460616804477429
 40
0.2521809571817031
 40
0.2583002339156625
 40
0.264419510649622
 40
0.264419510649622
 40
0.2766580641175419
 40
0.2766580641175419
 40
0.3011351710533815
 40
0.3011351710533815
 40
0.3256122779892212
 40
0.3256122779892212
 40
0.3378508314571408
 40
0.3378508314571408
 40
0.3439701081911003
 40
0.3439701081911003
 40
0.3472372424564111
 40
0.3500893849250607
 40
0.3529415273937103
 40
0.3557936698623598
 40
0.3557936698623598
 40
0.3614979547996597
 40
0.3614979547996597
 40
0.3729065246742589
 40
0.3729065246742589
 40
0.3843150945488579
 40
0.3843150945488579
 40
0.3957236644234563
 40
0.3957236644234563
 40
0.419635340524569
 40
0.4413579439218527
 40
0.4630805473191363
 40
0.48480315071642
 40
0.5028026584121765
 40
0.5208021661079332
 40
0.5388016738036897
 40
0.5388016738036897
 40
0.5673640048522481
 40
0.5748006891952023
 40
0.5822373735381571
 40
0.5896740578811119
 40
0.5896740578811119
 40
0.6045474265670218
 40
0.6045474265670218
 40
0.6194207952529309
 40
0.6194207952529309
 40
0.6268574795958858
 40
0.6342941639388406
 40
0.6417308482817956
 40
0.6595096872864638
 40
0.6595096872864638
 40
0.681888926850009
 40
0.684725210634087
 40
0.6875614944181648
 40
0.6903977782022426
 40
0.6903977782022426
 40
0.6960703457703974
 40
0.6960703457703974
 40
0.7074154809067088
 40
0.7074154809067088
 40
0.7301057511793299
 40
0.7301057511793299
 40
0.7527960214519517
 40
0.7527960214519517
 40
0.7641411565882622
 40
0.7641411565882622
 40
0.7698137241564179
 40
0.7754862917245735
 40
0.7811588592927284
 40
0.8138106406723157
 40
0.8138106406723157
 40
0.8329728151461862
 40
0.8521349896200572
 40
0.8712971640939283
 40
0.8927590230233263
 40
0.8927590230233263
 40
0.913071039724961
 40
0.913071039724961
 40
0.926097768704995
 40
0.9333830564265955
 40
0.9406683441481958
 40
0.9479536318697959
 40
0.9479536318697959
 40
0.9552389195913963
 40
0.9625242073129966
 40
0.9698094950345969
 40
1.0
 40
1.0
 40
1.0
 40
1.0
 10
30.39797720552057
 20
534.9022321953926
 30
0.0
 10
30.39772142783525
 20
534.4020735303567
 30
0.0
 10
30.39732251439753
 20
533.478297761971
 30
0.0
 10
30.39681340220625
 20
532.1281771869486
 30
0.0
 10
30.39646633964987
 20
530.8683006565543
 30
0.0
 10
30.39633850745938
 20
530.0253292816648
 30
0.0
 10
30.39622535756309
 20
529.39293004655
 30
0.0
 10
30.39620507588245
 20
529.1831029812887
 30
0.0
 10
30.3960991023231
 20
528.7605727827906
 30
0.0
 10
30.39608076535041
 20
528.5520165345299
 30
0.0
 10
30.39632002528356
 20
528.1282518210497
 30
0.0
 10
30.39656892278317
 20
527.9208998738305
 30
0.0
 10
30.39691238695167
 20
527.6104814945555
 30
0.0
 10
30.39710808721994
 20
527.4087028594494
 30
0.0
 10
30.39707483968101
 20
527.108821329548
 30
0.0
 10
30.39659053550787
 20
526.7004212749971
 30
0.0
 10
30.3957778666458
 20
526.4006903097456
 30
0.0
 10
30.39384154748416
 20
525.907630649326
 30
0.0
 10
30.39243741344564
 20
525.6309541316817
 30
0.0
 10
30.38785873881068
 20
525.0974152816257
 30
0.0
 10
30.38496110838236
 20
524.8476734338659
 30
0.0
 10
30.38205727182163
 20
524.4914427868628
 30
0.0
 10
30.37999355959
 20
524.3744071357172
 30
0.0
 10
30.37262125759037
 20
524.154589724793
 30
0.0
 10
30.36715666367036
 20
524.0436531400485
 30
0.0
 10
30.35105272804032
 20
523.7347297705647
 30
0.0
 10
30.34027150790965
 20
523.5390318971263
 30
0.0
 10
30.3166588956093
 20
523.1855175618225
 30
0.0
 10
30.30422245081741
 20
523.0242988805538
 30
0.0
 10
30.27754151239194
 20
522.7318014653722
 30
0.0
 10
30.26323062835343
 20
522.6030407723251
 30
0.0
 10
30.23969676886305
 20
522.4341167306877
 30
0.0
 10
30.22387684398593
 20
522.3328832756846
 30
0.0
 10
30.20012391493428
 20
522.2010500072546
 30
0.0
 10
30.17801728946117
 20
522.0838407798057
 30
0.0
 10
30.16440403721354
 20
522.006346168165
 30
0.0
 10
30.14464601575095
 20
521.8904117120602
 30
0.0
 10
30.13220560216244
 20
521.8122412611436
 30
0.0
 10
30.09397872176
 20
521.5750651128036
 30
0.0
 10
30.06805109510863
 20
521.4183458928394
 30
0.0
 10
30.02890915341142
 20
521.1971838517646
 30
0.0
 10
30.0163963056152
 20
521.1254605001618
 30
0.0
 10
29.99203393776144
 20
520.9804775673019
 30
0.0
 10
29.98111838528481
 20
520.9091387368505
 30
0.0
 10
29.95758881243259
 20
520.7358401484983
 30
0.0
 10
29.94104740762728
 20
520.5929863766779
 30
0.0
 10
29.92235610174901
 20
520.408877913016
 30
0.0
 10
29.91056609845739
 20
520.2851702092271
 30
0.0
 10
29.90275454250203
 20
520.2025507489576
 30
0.0
 10
29.89094370249219
 20
520.0796800774539
 30
0.0
 10
29.88254934513071
 20
519.9973229877419
 30
0.0
 10
29.85989655459635
 20
519.7521965842595
 30
0.0
 10
29.84859572914396
 20
519.5889477801353
 30
0.0
 10
29.82273441076501
 20
519.2606942371252
 30
0.0
 10
29.81168311897963
 20
519.0960800186102
 30
0.0
 10
29.7935572406744
 20
518.8469423283893
 30
0.0
 10
29.7878542662095
 20
518.7643684591147
 30
0.0
 10
29.77833167705714
 20
518.6377278151765
 30
0.0
 10
29.77462496546812
 20
518.595175289684
 30
0.0
 10
29.77083244254979
 20
518.5326392023304
 30
0.0
 10
29.76913336410376
 20
518.4929914323768
 30
0.0
 10
29.76858332589293
 20
518.4381361789436
 30
0.0
 10
29.76811021210588
 20
518.3844928144847
 30
0.0
 10
29.76733649891747
 20
518.3481752010139
 30
0.0
 10
29.76577499645566
 20
518.2930020217899
 30
0.0
 10
29.76405196432867
 20
518.2546804089035
 30
0.0
 10
29.7559133801285
 20
518.1351297416683
 30
0.0
 10
29.74631393424096
 20
518.0514211069535
 30
0.0
 10
29.72627596118693
 20
517.8875264971094
 30
0.0
 10
29.71566341110636
 20
517.8063352980664
 30
0.0
 10
29.69539492149466
 20
517.6421509641153
 30
0.0
 10
29.68567494518167
 20
517.5599013554088
 30
0.0
 10
29.6554794933303
 20
517.30252874779
 30
0.0
 10
29.61660478270134
 20
516.9672527655171
 30
0.0
 10
29.56526242777361
 20
516.4607123691509
 30
0.0
 10
29.52276235410131
 20
515.9558082162591
 30
0.0
 10
29.49261652897432
 20
515.4686616335841
 30
0.0
 10
29.47457991748771
 20
515.0006636803464
 30
0.0
 10
29.46869754817791
 20
514.5475679658888
 30
0.0
 10
29.47174392540594
 20
514.2383842947404
 30
0.0
 10
29.47452998653257
 20
513.8315007988132
 30
0.0
 10
29.47655922713666
 20
513.5077561630934
 30
0.0
 10
29.4663511256861
 20
513.1055443859557
 30
0.0
 10
29.45787318880818
 20
512.8926197244699
 30
0.0
 10
29.44962193885182
 20
512.7497628634402
 30
0.0
 10
29.43497857256757
 20
512.5321531154087
 30
0.0
 10
29.4224287343447
 20
512.3843004440216
 30
0.0
 10
29.39038082306506
 20
512.0686197609745
 30
0.0
 10
29.37089909138185
 20
511.9014251385107
 30
0.0
 10
29.33619260404341
 20
511.6358301402978
 30
0.0
 10
29.31099093605651
 20
511.452308999051
 30
0.0
 10
29.2673567634024
 20
511.168757477754
 30
0.0
 10
29.18750336434127
 20
510.6988613529848
 30
0.0
 10
29.11430473189297
 20
510.303511695528
 30
0.0
 10
28.9860646821353
 20
509.617050977154
 30
0.0
 10
28.89606195566504
 20
509.1467076722856
 30
0.0
 10
28.79235070724746
 20
508.5542484117469
 30
0.0
 10
28.7628043071015
 20
508.3808017875749
 30
0.0
 10
28.74252869868881
 20
508.2617107245451
 30
0.0
 10
28.71136173181331
 20
508.0805640871174
 30
0.0
 10
28.68979812256073
 20
507.9591773030405
 30
0.0
 10
28.62060514476676
 20
507.5752911547457
 30
0.0
 10
28.57655560550569
 20
507.3115434363641
 30
0.0
 10
28.44000940736492
 20
506.4804698917783
 30
0.0
 10
28.35312851094197
 20
505.8816512370202
 30
0.0
 10
28.19575236866357
 20
504.5907302323036
 30
0.0
 10
28.12629373607116
 20
503.90132448716
 30
0.0
 10
28.02987776161009
 20
502.8012729507705
 30
0.0
 10
28.00308294008361
 20
502.4227176876255
 30
0.0
 10
27.96873164623726
 20
501.8390145577087
 30
0.0
 10
27.94695424242171
 20
501.4427290327519
 30
0.0
 10
27.9145068363855
 20
500.8380475320809
 30
0.0
 10
27.83036469617754
 20
499.2224375736113
 30
0.0
 10
27.76204822791219
 20
497.7366796504375
 30
0.0
 10
27.66501432611151
 20
495.677491386244
 30
0.0
 10
27.59456492761531
 20
494.1387527453115
 30
0.0
 10
27.48753712215098
 20
491.7843194043068
 30
0.0
 10
27.37996978125837
 20
489.358860700768
 30
0.0
 10
27.3093832111565
 20
487.6941082664828
 30
0.0
 10
27.23899368134382
 20
485.9804071649758
 30
0.0
 10
27.20616329071134
 20
485.1520210669744
 30
0.0
 10
27.15331650885426
 20
483.7815698788952
 30
0.0
 10
27.12178569313362
 20
482.9483224653004
 30
0.0
 10
27.07960886221839
 20
481.8201371214871
 30
0.0
 10
27.04598265654479
 20
480.9107212440825
 30
0.0
 10
27.0239742460179
 20
480.3077079923056
 30
0.0
 10
27.00208574024547
 20
479.7038940283621
 30
0.0
 10
26.98035664829536
 20
479.10073933031
 30
0.0
 10
26.94816560158633
 20
478.1923161022034
 30
0.0
 10
26.88436296072755
 20
476.3562837621678
 30
0.0
 10
26.83374063120056
 20
474.81580470773
 30
0.0
 10
26.79548915015699
 20
473.5758085354717
 30
0.0
  0
SPLINE
  5
F1
330
6E
100
AcDbEntity
  8
$DDT_AUDIT_GENERATED_(E9)
  6
Continuous
 62
     7
100
AcDbSpline
210
0.0
220
0.0
230
1.0
 70
     8
 71
     3
 72
     9
 73
     5
 74
     0
 42
0.0000000004271212
 43
0.0000000001
 40
0.5052713559487593
 40
0.5052713559487593
 40
0.5052713559487593
 40
0.5052713559487593
 40
0.5102469094496362
 40
0.5130852125560839
 40
0.5130852125560839
 40
0.5130852125560839
 40
0.5130852125560839
 10
28.76633309880607
 20
516.716157767461
 30
0.0
 10
28.74689982142329
 20
516.6820147283281
 30
0.0
 10
28.71595281726801
 20
516.6291627614705
 30
0.0
 10
28.68421908072871
 20
516.5776941444658
 30
0.0
 10
28.67288173522965
 20
516.5589043699084
 30
0.0
  0
SPLINE
  5
F2
330
6E
100
AcDbEntity
  8
$DDT_AUDIT_GENERATED_(E9)
  6
Continuous
 62
     7
100
AcDbSpline
210
0.0
220
0.0
230
1.0
 70
     8
 71
     3
 72
    33
 73
    29
 74
     0
 42
0.0000000039473278
 43
0.0000000001
 40
0.0
 40
0.0
 40
0.0
 40
0.0
 40
0.0483012449239255
 40
0.0952246943987359
 40
0.1417754923252131
 40
0.1866242588348226
 40
0.2311391921435961
 40
0.2754832052780584
 40
0.3189322694625362
 40
0.3616362554350455
 40
0.4034181259454562
 40
0.444370225050192
 40
0.4851530385267516
 40
0.5240838981954192
 40
0.5634591844317262
 40
0.6004345736054133
 40
0.6383633725132983
 40
0.6754466426369291
 40
0.7106519128366018
 40
0.7465154813175612
 40
0.7805450223730239
 40
0.8146664025397432
 40
0.8474945848682429
 40
0.8785710475610689
 40
0.9092263620734659
 40
0.9405517475710033
 40
0.9712242740472741
 40
1.0
 40
1.0
 40
1.0
 40
1.0
 10
37.65208117722578
 20
534.9022321953926
 30
0.0
 10
37.64179175741255
 20
534.872882854035
 30
0.0
 10
37.62150642400557
 20
534.8150213627629
 30
0.0
 10
37.57868922145105
 20
534.730774956705
 30
0.0
 10
37.52964246468651
 20
534.6500180160452
 30
0.0
 10
37.47376093358189
 20
534.5725426896194
 30
0.0
 10
37.41237048344501
 20
534.4980561784382
 30
0.0
 10
37.34562162415159
 20
534.4261834887947
 30
0.0
 10
37.27430414089542
 20
534.3572240813908
 30
0.0
 10
37.19938763647829
 20
534.2915417819091
 30
0.0
 10
37.12134474085626
 20
534.2290937606775
 30
0.0
 10
37.04024904611324
 20
534.1695888204898
 30
0.0
 10
36.95707938612368
 20
534.1133832999434
 30
0.0
 10
36.87121701168309
 20
534.0600876976276
 30
0.0
 10
36.78476676936167
 20
534.0103525429364
 30
0.0
 10
36.69570983655431
 20
533.9633517572826
 30
0.0
 10
36.60539301182307
 20
533.9193030311388
 30
0.0
 10
36.51360162970894
 20
533.8781675855834
 30
0.0
 10
36.42063711606664
 20
533.840275185275
 30
0.0
 10
36.32785508508827
 20
533.8055744953625
 30
0.0
 10
36.23348475514815
 20
533.7738573255614
 30
0.0
 10
36.13967141396007
 20
533.7454533403378
 30
0.0
 10
36.04653726464634
 20
533.7204703589435
 30
0.0
 10
35.95490699497328
 20
533.6989293079808
 30
0.0
 10
35.86317223286736
 20
533.680223267066
 30
0.0
 10
35.77032119159165
 20
533.6644730750528
 30
0.0
 10
35.67823568221286
 20
533.651520634696
 30
0.0
 10
35.6171240519035
 20
533.6455389260119
 30
0.0
 10
35.58754317350157
 20
533.6426435001116
 30
0.0
  0
ARC
  5
F3
330
6E
100
AcDbEntity
  8
$DDT_AUDIT_GENERATED_(E9)
  6
Continuous
 62
     7
100
AcDbCircle
 10
-87.7210708831
 20
534.7557117482
 30
0.0
 40
125.3732376777219
100
AcDbArc
 50
0.0669601049
 51
1.5687512534
  0
ARC
  5
F4
330
6E
100
AcDbEntity
  8
$DDT_AUDIT_GENERATED_(E9)
  6
Continuous
 62
     7
100
AcDbCircle
 10
24.4459873875
 20
539.1114977379
 30
0.0
 40
13.86069369079772
100
AcDbArc
 50
342.3210155493
 51
0.2525835425
  0
ARC
  5
F5
330
6E
100
AcDbEntity
  8
$DDT_AUDIT_GENERATED_(E9)
  6
Continuous
 62
     7
100
AcDbCircle
 10
34.0270370965
 20
551.2256533375
 30
0.0
 40
17.65212208654103
100
AcDbArc
 50
269.9934826823
 51
275.0717575142
  0
SPLINE
  5
F6
330
6E
100
AcDbEntity
  8
$DDT_AUDIT_GENERATED_(E9)
  6
Continuous
 62
     7
100
AcDbSpline
210
0.0
220
0.0
230
1.0
 70
     8
 71
     3
 72
     8
 73
     4
 74
     0
 42
0.0000000140444784
 43
0.0000000001
 40
0.2826611889904608
 40
0.2826611889904608
 40
0.2826611889904608
 40
0.2826611889904608
 40
0.2888212147761977
 40
0.2888212147761977
 40
0.2888212147761977
 40
0.2888212147761977
 10
37.57803295234602
 20
548.3201736311943
 30
0.0
 10
37.57831416530531
 20
548.3190869889906
 30
0.0
 10
37.57860543762369
 20
548.3176550989862
 30
0.0
 10
37.5789067522593
 20
548.3158780342906
 30
0.0
  0
SPLINE
  5
F7
330
6E
100
AcDbEntity
  8
$DDT_AUDIT_GENERATED_(E9)
  6
Continuous
 62
     7
100
AcDbSpline
210
0.0
220
0.0
230
1.0
 70
     8
 71
     3
 72
    22
 73
    18
 74
     0
 42
0.0000000007020733
 43
0.0000000001
 40
0.2888212147761977
 40
0.2888212147761977
 40
0.2888212147761977
 40
0.2888212147761977
 40
0.3126079065033832
 40
0.375128055630881
 40
0.4375722878098647
 40
0.4999644404909342
 40
0.5312641484040966
 40
0.5627065958197399
 40
0.6250986030467958
 40
0.687555886128512
 40
0.7500887687530947
 40
0.8124971214585209
 40
0.8748829412313192
 40
0.9061737132577086
 40
0.9376989309959632
 40
0.9686665002469083
 40
1.0
 40
1.0
 40
1.0
 40
1.0
 10
37.5789067522593
 20
548.3158780342904
 30
0.0
 10
37.58007026660151
 20
548.3090159704675
 30
0.0
 10
37.58483523388184
 20
548.2654432072501
 30
0.0
 10
37.59642307405024
 20
548.0736575535022
 30
0.0
 10
37.613605007154
 20
547.6269001562713
 30
0.0
 10
37.62175204772725
 20
547.0929835489657
 30
0.0
 10
37.61772418164536
 20
546.577156631958
 30
0.0
 10
37.60864751713873
 20
546.0081783275378
 30
0.0
 10
37.59330024246812
 20
545.2027982641422
 30
0.0
 10
37.57755976809091
 20
544.1212112288154
 30
0.0
 10
37.56830347474843
 20
542.9547427832125
 30
0.0
 10
37.56570531574885
 20
541.7402420501056
 30
0.0
 10
37.56871789854186
 20
540.7178083402232
 30
0.0
 10
37.57508337275247
 20
539.9117306480498
 30
0.0
 10
37.58206656956128
 20
539.3189228374935
 30
0.0
 10
37.59177174854433
 20
538.7398798734171
 30
0.0
 10
37.60070249600199
 20
538.3726691292378
 30
0.0
 10
37.60517623450384
 20
538.1879863876463
 30
0.0
  0
SPLINE
  5
F8
330
6E
100
AcDbEntity
  8
$DDT_AUDIT_GENERATED_(E9)
  6
Continuous
 62
     7
100
AcDbSpline
210
0.0
220
0.0
230
1.0
 70
     8
 71
     3
 72
    62
 73
    58
 74
     0
 42
0.0000000001625558
 43
0.0000000001
 40
0.0
 40
0.0
 40
0.0
 40
0.0
 40
0.061745975931112
 40
0.0694411268396689
 40
0.0771346590076146
 40
0.0924855093681656
 40
0.1047470771418355
 40
0.1139243869868252
 40
0.1231460567403126
 40
0.1384675306789745
 40
0.1537904716065677
 40
0.1614478285476711
 40
0.169124318894605
 40
0.176833896791598
 40
0.1845095428523447
 40
0.1999108032388761
 40
0.2076039274025986
 40
0.2152891957980891
 40
0.2306750190575529
 40
0.2460698438730473
 40
0.2613340272001521
 40
0.2765836786732103
 40
0.3070995252955498
 40
0.3223434546708448
 40
0.3376026051216971
 40
0.3452808136548967
 40
0.3530924347525439
 40
0.3687079655938948
 40
0.4059889072817369
 40
0.4476981025288831
 40
0.4938217957430993
 40
0.5253606918982381
 40
0.5569174646559519
 40
0.5886745349568744
 40
0.6205293498399096
 40
0.6861755594731723
 40
0.6901308272556869
 40
0.6940886552107552
 40
0.702008599993855
 40
0.7178355987958769
 40
0.7336634536025809
 40
0.7494868343538471
 40
0.7653132478339496
 40
0.7811727924729966
 40
0.7970706244194834
 40
0.8050209656291556
 40
0.8129780517419745
 40
0.820931625118131
 40
0.8288835633718104
 40
0.8448001657409752
 40
0.8605998047172199
 40
0.8763126159727104
 40
0.9077628962169703
 40
0.9230516669872333
 40
0.9393019195064358
 40
0.968111147937244
 40
1.0
 40
1.0
 40
1.0
 40
1.0
 10
37.65208117722578
 20
534.9022321953926
 30
0.0
 10
37.6528554510645
 20
532.9313206745297
 30
0.0
 10
37.65371123719777
 20
530.7147841760219
 30
0.0
 10
37.65399721782554
 20
528.2427606650173
 30
0.0
 10
37.65252232361126
 20
527.2691235405147
 30
0.0
 10
37.65356742543803
 20
526.2393402282091
 30
0.0
 10
37.66116023247121
 20
525.2778567880194
 30
0.0
 10
37.66465180370442
 20
524.5569035736813
 30
0.0
 10
37.6888374792381
 20
523.8455989022493
 30
0.0
 10
37.73453404133853
 20
523.1360327492227
 30
0.0
 10
37.78211064712471
 20
522.616427573545
 30
0.0
 10
37.82847700607559
 20
522.3157699980874
 30
0.0
 10
37.8633889955194
 20
522.1309680270991
 30
0.0
 10
37.89444445977111
 20
521.9581507011691
 30
0.0
 10
37.93255445074165
 20
521.7205644584595
 30
0.0
 10
37.97144268295961
 20
521.4813373506472
 30
0.0
 10
38.01073959800846
 20
521.254492561246
 30
0.0
 10
38.04964836288234
 20
521.0359811176226
 30
0.0
 10
38.09077807718174
 20
520.7637207271462
 30
0.0
 10
38.12505576780242
 20
520.4412125752998
 30
0.0
 10
38.15472720026346
 20
520.1235927156481
 30
0.0
 10
38.19544209511183
 20
519.704856223086
 30
0.0
 10
38.22611356230506
 20
519.2846019409736
 30
0.0
 10
38.25346805845489
 20
518.8657071321228
 30
0.0
 10
38.28001536790851
 20
518.5863288828448
 30
0.0
 10
38.28153617051139
 20
518.3937240860832
 30
0.0
 10
38.28633049406087
 20
518.1918710052067
 30
0.0
 10
38.34187218146641
 20
517.7428404765723
 30
0.0
 10
38.4246994290101
 20
517.0647349607027
 30
0.0
 10
38.52021259737623
 20
516.1127540360666
 30
0.0
 10
38.57827863756891
 20
515.1630901342517
 30
0.0
 10
38.58051596243102
 20
514.2511678175498
 30
0.0
 10
38.56984715567314
 20
513.4095921164127
 30
0.0
 10
38.60457464866896
 20
512.5367355784484
 30
0.0
 10
38.75748432416507
 20
511.1476092880865
 30
0.0
 10
39.08202228012696
 20
509.5778594948833
 30
0.0
 10
39.34805280410276
 20
508.0263460539201
 30
0.0
 10
39.41094038073138
 20
507.6781517237779
 30
0.0
 10
39.51988193727503
 20
507.0408312894567
 30
0.0
 10
39.67619544994885
 20
506.0481149796521
 30
0.0
 10
39.84014430948643
 20
504.7255751165234
 30
0.0
 10
39.98702116171115
 20
503.2772559535788
 30
0.0
 10
40.09356831265418
 20
501.6983218348861
 30
0.0
 10
40.17939601427524
 20
499.9943511117921
 30
0.0
 10
40.25234334348729
 20
498.5044425456642
 30
0.0
 10
40.30947094477468
 20
497.2821749447505
 30
0.0
 10
40.35347192489294
 20
496.3529747407463
 30
0.0
 10
40.39698256376433
 20
495.4143164108926
 30
0.0
 10
40.45486911215352
 20
494.1517117923796
 30
0.0
 10
40.52710507060926
 20
492.5617452070725
 30
0.0
 10
40.61353235811158
 20
490.6450219041831
 30
0.0
 10
40.7247658866239
 20
488.0870487278754
 30
0.0
 10
40.82984382941813
 20
485.5358057943474
 30
0.0
 10
40.92799436941042
 20
482.963732874017
 30
0.0
 10
41.01964565047893
 20
480.4992531704838
 30
0.0
 10
41.13320739260217
 20
477.356704183106
 30
0.0
 10
41.2127696119264
 20
474.8780254902552
 30
0.0
 10
41.25456930656369
 20
473.5758061030141
 30
0.0
  0
SPLINE
  5
F9
330
6E
100
AcDbEntity
  8
$DDT_AUDIT_GENERATED_(E9)
  6
Continuous
 62
     7
100
AcDbSpline
210
0.0
220
0.0
230
1.0
 70
     8
 71
     3
 72
    10
 73
     6
 74
     0
 42
0.0000000004341766
 43
0.0000000001
 40
0.4958629121311466
 40
0.4958629121311466
 40
0.4958629121311466
 40
0.4958629121311466
 40
0.4977629885395345
 40
0.4977629885395345
 40
0.5039276204579328
 40
0.5039276204579328
 40
0.5039276204579328
 40
0.5039276204579328
 10
39.2820386361962
 20
516.7184164670297
 30
0.0
 10
39.28929389572573
 20
516.7056021093674
 30
0.0
 10
39.29660439421989
 20
516.692850618026
 30
0.0
 10
39.32793678717849
 20
516.6389715638918
 30
0.0
 10
39.35299545686009
 20
516.5991312105187
 30
0.0
 10
39.3772082315724
 20
516.5589295325965
 30
0.0
  0
LINE
  5
FA
330
6E
100
AcDbEntity
  8
$DDT_AUDIT_GENERATED_(E9)
  6
Continuous
 62
     7
100
AcDbLine
 10
26.8746432966
 20
473.2655699162
 30
0.0
 11
6.7307790236
 21
473.2655699162
 31
0.0
  0
LINE
  5
FB
330
6E
100
AcDbEntity
  8
$DDT_AUDIT_GENERATED_(E9)
  6
Continuous
 62
     7
100
AcDbLine
 10
32.4450674678
 20
473.2655699162
 30
0.0
 11
26.8746432966
 21
473.2655699162
 31
0.0
  0
LINE
  5
FC
330
6E
100
AcDbEntity
  8
$DDT_AUDIT_GENERATED_(E9)
  6
Continuous
 62
     7
100
AcDbLine
 10
34.0250346936
 20
473.2655699162
 30
0.0
 11
32.4450676991
 21
473.2655699162
 31
0.0
  0
LINE
  5
FD
330
6E
100
AcDbEntity
  8
$DDT_AUDIT_GENERATED_(E9)
  6
Continuous
 62
     7
100
AcDbLine
 10
35.6049819514
 20
473.2655699162
 30
0.0
 11
34.0250346936
 21
473.2655699162
 31
0.0
  0
LINE
  5
FE
330
6E
100
AcDbEntity
  8
$DDT_AUDIT_GENERATED_(E9)
  6
Continuous
 62
     7
100
AcDbLine
 10
41.1754145338
 20
473.2655699162
 30
0.0
 11
35.6049819514
 21
473.2655699162
 31
0.0
  0
LINE
  5
FF
330
6E
100
AcDbEntity
  8
$DDT_AUDIT_GENERATED_(E9)
  6
Continuous
 62
     7
100
AcDbLine
 10
61.3197114605
 20
473.2655699162
 30
0.0
 11
41.1754145338
 21
473.2655699162
 31
0.0
  0
SPLINE
  5
100
330
6E
100
AcDbEntity
  8
$DDT_AUDIT_GENERATED_(E9)
  6
Continuous
 62
     7
100
AcDbSpline
210
0.0
220
0.0
230
1.0
 70
     8
 71
     3
 72
     8
 73
     4
 74
     0
 42
0.0000000059264716
 43
0.0000000001
 40
0.6998738933558671
 40
0.6998738933558671
 40
0.6998738933558671
 40
0.6998738933558671
 40
0.7004665405191399
 40
0.7004665405191399
 40
0.7004665405191399
 40
0.7004665405191399
 10
61.61921658379072
 20
473.591527262384
 30
0.0
 10
61.6192176395985
 20
473.5915174592197
 30
0.0
 10
61.61921308646443
 20
473.5915076513584
 30
0.0
 10
61.61920292452258
 20
473.5914978388156
 30
0.0
  0
SPLINE
  5
101
330
6E
100
AcDbEntity
  8
$DDT_AUDIT_GENERATED_(E9)
  6
Continuous
 62
     7
100
AcDbSpline
210
0.0
220
0.0
230
1.0
 70
     8
 71
     3
 72
     8
 73
     4
 74
     0
 42
0.0000000060693643
 43
0.0000000001
 40
0.2992260432295199
 40
0.2992260432295199
 40
0.2992260432295199
 40
0.2992260432295199
 40
0.2998329796563142
 40
0.2998329796563142
 40
0.2998329796563142
 40
0.2998329796563142
 10
6.430852514067751
 20
473.5914974018091
 30
0.0
 10
6.430841965575338
 20
473.5915074649869
 30
0.0
 10
6.430837317379059
 20
473.5915175230072
 30
0.0
 10
6.430838568785513
 20
473.5915275758541
 30
0.0
  0
ARC
  5
102
330
6E
100
AcDbEntity
  8
$DDT_AUDIT_GENERATED_(E9)
  6
Continuous
 62
     7
100
AcDbCircle
 10
107.9822017012
 20
539.4412267016
 30
0.0
 40
78.23998799227455
100
AcDbArc
 50
177.3594462295
 51
180.1966560506
  0
ARC
  5
103
330
6E
100
AcDbEntity
  8
$DDT_AUDIT_GENERATED_(E9)
  6
Continuous
 62
     7
100
AcDbCircle
 10
33.2340828677
 20
547.8376179526
 30
0.0
 40
2.803900997579465
100
AcDbArc
 50
106.529019978
 51
170.0906666697
  0
ARC
  5
104
330
6E
100
AcDbEntity
  8
$DDT_AUDIT_GENERATED_(E9)
  6
Continuous
 62
     7
100
AcDbCircle
 10
34.0245569106
 20
541.6307868074
 30
0.0
 40
9.03545094121573
100
AcDbArc
 50
89.9970051524
 51
100.2090165788
  0
ARC
  5
105
330
6E
100
AcDbEntity
  8
$DDT_AUDIT_GENERATED_(E9)
  6
Continuous
 62
     7
100
AcDbCircle
 10
77.8071343224
 20
539.8408957744
 30
0.0
 40
48.08858588515811
100
AcDbArc
 50
169.8530044172
 51
176.2374723085
  0
ARC
  5
106
330
6E
100
AcDbEntity
  8
$DDT_AUDIT_GENERATED_(E9)
  6
Continuous
 62
     7
100
AcDbCircle
 10
24.026707761
 20
519.4154339056
 30
0.0
 40
5.454017564341008
100
AcDbArc
 50
328.4109680658
 51
337.5069953629
  0
SPLINE
  5
107
330
6E
100
AcDbEntity
  8
$DDT_AUDIT_GENERATED_(E9)
  6
Continuous
 62
     7
100
AcDbSpline
210
0.0
220
0.0
230
1.0
 70
     8
 71
     3
 72
    96
 73
    92
 74
     0
 42
0.0000000002004724
 43
0.0000000001
 40
0.0
 40
0.0
 40
0.0
 40
0.0
 40
0.0093967645277129
 40
0.0183427542397328
 40
0.0259999565325478
 40
0.0323963050861702
 40
0.0373768305961309
 40
0.0454993225516858
 40
0.055395076812509
 40
0.0663791839634204
 40
0.0777382449190239
 40
0.0894664101859889
 40
0.1015511067083335
 40
0.1218402158594877
 40
0.1438494073722619
 40
0.1675422076266084
 40
0.1894869575050978
 40
0.2092932500066691
 40
0.2270365212841969
 40
0.2449964971397862
 40
0.2535307758097485
 40
0.2621981452413832
 40
0.2698002785611141
 40
0.2761026367873529
 40
0.281960506264521
 40
0.2896224666415212
 40
0.2992104294586757
 40
0.3145445916895956
 40
0.3278894622147029
 40
0.3396392782219696
 40
0.3515114852119045
 40
0.3635876385177817
 40
0.3755113083547104
 40
0.386834497410913
 40
0.3992402998395962
 40
0.4128439677970921
 40
0.4273755807164218
 40
0.4406623850152877
 40
0.4510896607588332
 40
0.46035361189899
 40
0.4691603678210481
 40
0.4780227948865766
 40
0.4895136149340852
 40
0.5034582567159442
 40
0.5171259638202352
 40
0.5298944999467138
 40
0.5418920466482544
 40
0.5538878985875856
 40
0.565609181461154
 40
0.5763794531627399
 40
0.5887194925382946
 40
0.6011489697083013
 40
0.614477004979808
 40
0.6293457815130964
 40
0.6459081823211472
 40
0.6622127316608669
 40
0.6769808055789508
 40
0.6905488398257584
 40
0.7047663169615882
 40
0.7241362606495708
 40
0.7438506400036402
 40
0.7515842826932791
 40
0.7590180133490497
 40
0.7651029096887554
 40
0.7697495093468288
 40
0.7753770083045984
 40
0.7824119599089002
 40
0.7910197184296871
 40
0.8011952111768684
 40
0.8128462093013437
 40
0.8253994362675288
 40
0.8422704254763328
 40
0.8603860179624476
 40
0.8797249215593137
 40
0.891682252177316
 40
0.9040514895605009
 40
0.9158209836641117
 40
0.9255639198971428
 40
0.9296747212356918
 40
0.9332793181667186
 40
0.9363782606010941
 40
0.9389720886573806
 40
0.9410613146465948
 40
0.942646428528858
 40
0.9443648913757874
 40
0.9476434867124236
 40
0.9540504328333789
 40
0.9629952045086205
 40
0.9744650690119546
 40
0.9884416781337961
 40
1.0
 40
1.0
 40
1.0
 40
1.0
 10
28.76792784413979
 20
516.719258921043
 30
0.0
 10
28.74037090363045
 20
516.669891526037
 30
0.0
 10
28.69454877687481
 20
516.5878052024672
 30
0.0
 10
28.60722234683152
 20
516.4448716120135
 30
0.0
 10
28.52320761717305
 20
516.3063376060686
 30
0.0
 10
28.44897654946484
 20
516.18140944556
 30
0.0
 10
28.34922742104453
 20
516.0122959186056
 30
0.0
 10
28.24971686674541
 20
515.8443136284516
 30
0.0
 10
28.14561326647793
 20
515.6694599938935
 30
0.0
 10
28.03487592314237
 20
515.4893456199518
 30
0.0
 10
27.90966090237211
 20
515.3023385480616
 30
0.0
 10
27.77520605899046
 20
515.1147748953092
 30
0.0
 10
27.6019830958802
 20
514.8853147316836
 30
0.0
 10
27.36788732585133
 20
514.5898605189553
 30
0.0
 10
27.04482972788671
 20
514.2098200956626
 30
0.0
 10
26.66843858515996
 20
513.7935026903698
 30
0.0
 10
26.26348068847068
 20
513.3671720855491
 30
0.0
 10
25.86314608889839
 20
512.961147610594
 30
0.0
 10
25.46409107909334
 20
512.5671697366752
 30
0.0
 10
25.12639740670772
 20
512.2406615566294
 30
0.0
 10
24.84589614382288
 20
511.9725191131442
 30
0.0
 10
24.64367934620145
 20
511.7803226287119
 30
0.0
 10
24.44945161613504
 20
511.5962310605451
 30
0.0
 10
24.26951333386661
 20
511.4258147459263
 30
0.0
 10
24.07593445332897
 20
511.2418775918355
 30
0.0
 10
23.84280121946617
 20
511.0187301079139
 30
0.0
 10
23.50612322494299
 20
510.6911596615141
 30
0.0
 10
23.10385010631272
 20
510.2906634384953
 30
0.0
 10
22.67775405495022
 20
509.8575607061366
 30
0.0
 10
22.2917732000693
 20
509.4573869600472
 30
0.0
 10
21.92061885582709
 20
509.0654001941231
 30
0.0
 10
21.54858760423746
 20
508.6655873777048
 30
0.0
 10
21.18180439146019
 20
508.2647737729847
 30
0.0
 10
20.81255985463432
 20
507.8550786038363
 30
0.0
 10
20.42447937360555
 20
507.4173158317745
 30
0.0
 10
20.00083797775303
 20
506.9298145610911
 30
0.0
 10
19.56731992488641
 20
506.4258478235557
 30
0.0
 10
19.15981301244615
 20
505.9466264068433
 30
0.0
 10
18.80213752878213
 20
505.5180928417909
 30
0.0
 10
18.48686424222915
 20
505.1341903703191
 30
0.0
 10
18.18896955147249
 20
504.7662193899271
 30
0.0
 10
17.86583676542845
 20
504.3615935559019
 30
0.0
 10
17.48301277278911
 20
503.87413607401
 30
0.0
 10
17.04553986368774
 20
503.3044541774378
 30
0.0
 10
16.59352952919105
 20
502.7005573858345
 30
0.0
 10
16.16291499537101
 20
502.110256364293
 30
0.0
 10
15.75166373978665
 20
501.5321579296817
 30
0.0
 10
15.35375247161222
 20
500.9584431846486
 30
0.0
 10
14.97201130306067
 20
500.3931637110687
 30
0.0
 10
14.59013892129286
 20
499.8125160413548
 30
0.0
 10
14.20483944939589
 20
499.2108419327141
 30
0.0
 10
13.79343403185275
 20
498.5499233536744
 30
0.0
 10
13.35815766044889
 20
497.8275156697752
 30
0.0
 10
12.88588529024763
 20
497.0122074620519
 30
0.0
 10
12.39663622579529
 20
496.1197039247003
 30
0.0
 10
11.9282850627119
 20
495.208126291424
 30
0.0
 10
11.50894195902973
 20
494.3376112438787
 30
0.0
 10
11.12751383243004
 20
493.4937016356034
 30
0.0
 10
10.72571622973285
 20
492.5484111213075
 30
0.0
 10
10.29737893668124
 20
491.4662420190914
 30
0.0
 10
9.945116783193022
 20
490.5032585207329
 30
0.0
 10
9.69488675342349
 20
489.7800982196101
 30
0.0
 10
9.546468483426002
 20
489.3376407178718
 30
0.0
 10
9.422597027874707
 20
488.9579384638053
 30
0.0
 10
9.313194417185075
 20
488.6150607452556
 30
0.0
 10
9.199879598563255
 20
488.2522756476436
 30
0.0
 10
9.064170227757891
 20
487.8062345720293
 30
0.0
 10
8.904226531830817
 20
487.2631629090769
 30
0.0
 10
8.722183049983935
 20
486.6202982754772
 30
0.0
 10
8.524751979641726
 20
485.8903621935811
 30
0.0
 10
8.299321660499833
 20
485.0126480606098
 30
0.0
 10
8.053002700387827
 20
483.989582958011
 30
0.0
 10
7.791047292553428
 20
482.811770951306
 30
0.0
 10
7.571411308441432
 20
481.7331382648158
 30
0.0
 10
7.390835917639234
 20
480.7755584070779
 30
0.0
 10
7.250207867046776
 20
479.9814976480482
 30
0.0
 10
7.126269685979264
 20
479.2342739065143
 30
0.0
 10
7.037963563258247
 20
478.6681829441762
 30
0.0
 10
6.980166675484539
 20
478.2821268099713
 30
0.0
 10
6.945179698845942
 20
478.0428758962713
 30
0.0
 10
6.915707073951498
 20
477.8371060575957
 30
0.0
 10
6.891467628942056
 20
477.6648171653796
 30
0.0
 10
6.872226849238563
 20
477.5260035372399
 30
0.0
 10
6.855862675747601
 20
477.4065399360413
 30
0.0
 10
6.836098772549905
 20
477.2607025209761
 30
0.0
 10
6.802401818228172
 20
477.0079447295951
 30
0.0
 10
6.749098725968218
 20
476.5949192946897
 30
0.0
 10
6.676152404413043
 20
475.9989117702755
 30
0.0
 10
6.590065476501844
 20
475.2393230229482
 30
0.0
 10
6.50306648851328
 20
474.3993745843712
 30
0.0
 10
6.457052238987848
 20
473.8734350816513
 30
0.0
 10
6.43259303808099
 20
473.5916127152148
 30
0.0
  0
ARC
  5
108
330
6E
100
AcDbEntity
  8
$DDT_AUDIT_GENERATED_(E9)
  6
Continuous
 62
     7
100
AcDbCircle
 10
-138.1052392425
 20
532.4270395381
 30
0.0
 40
167.9837606443974
100
AcDbArc
 50
354.5080978818
 51
2.3026357155
  0
ARC
  5
109
330
6E
100
AcDbEntity
  8
$DDT_AUDIT_GENERATED_(E9)
  6
Continuous
 62
     7
100
AcDbCircle
 10
-39.9321433184
 20
539.4412267016
 30
0.0
 40
78.23998799227269
100
AcDbArc
 50
359.8033439494
 51
2.6405537705
  0
ARC
  5
10A
330
6E
100
AcDbEntity
  8
$DDT_AUDIT_GENERATED_(E9)
  6
Continuous
 62
     7
100
AcDbCircle
 10
34.8068726724
 20
547.8295104205
 30
0.0
 40
2.814270582335155
100
AcDbArc
 50
10.0400398331
 51
73.3402735192
  0
ARC
  5
10B
330
6E
100
AcDbEntity
  8
$DDT_AUDIT_GENERATED_(E9)
  6
Continuous
 62
     7
100
AcDbCircle
 10
34.0255014721
 20
541.6307868079
 30
0.0
 40
9.035450940693707
100
AcDbArc
 50
79.7909832713
 51
90.0029948478
  0
ARC
  5
10C
330
6E
100
AcDbEntity
  8
$DDT_AUDIT_GENERATED_(E9)
  6
Continuous
 62
     7
100
AcDbCircle
 10
-9.778893214
 20
539.8385458699
 30
0.0
 40
48.11051034536714
100
AcDbArc
 50
3.7636148015
 51
10.1452089196
  0
ARC
  5
10D
330
6E
100
AcDbEntity
  8
$DDT_AUDIT_GENERATED_(E9)
  6
Continuous
 62
     7
100
AcDbCircle
 10
44.0233506217
 20
519.4154339056
 30
0.0
 40
5.454017564341282
100
AcDbArc
 50
202.4717459444
 51
211.5890319342
  0
ARC
  5
10E
330
6E
100
AcDbEntity
  8
$DDT_AUDIT_GENERATED_(E9)
  6
Continuous
 62
     7
100
AcDbCircle
 10
199.4328325843
 20
532.2378469024
 30
0.0
 40
161.2750610480181
100
AcDbArc
 50
177.5339565255
 51
185.6542279386
  0
SPLINE
  5
10F
330
6E
100
AcDbEntity
  8
$DDT_AUDIT_GENERATED_(E9)
  6
Continuous
 62
     7
100
AcDbSpline
210
0.0
220
0.0
230
1.0
 70
     8
 71
     3
 72
   105
 73
   101
 74
     0
 42
0.0000000002004632
 43
0.0000000001
 40
0.0
 40
0.0
 40
0.0
 40
0.0
 40
0.0099823053493636
 40
0.0228741113688713
 40
0.0337481862864333
 40
0.0425901450898161
 40
0.0493894403048425
 40
0.0540719421520336
 40
0.0567725768328928
 40
0.0583656823298479
 40
0.0605363545582221
 40
0.0659554198761055
 40
0.0733559739648604
 40
0.0827426130786714
 40
0.0941237914522101
 40
0.1158069656856611
 40
0.1362008475405535
 40
0.1552729967186688
 40
0.1729968692895031
 40
0.1879316500976365
 40
0.2015091996002112
 40
0.2129442412611905
 40
0.2221637827843893
 40
0.2291774695238201
 40
0.2340643935399585
 40
0.2407705599730985
 40
0.2491475963116775
 40
0.257847455316496
 40
0.2665555294186746
 40
0.2752718285457678
 40
0.2839847249312859
 40
0.2924829413541989
 40
0.3069776383880937
 40
0.3206477032714423
 40
0.335279231685583
 40
0.3514720823420925
 40
0.3680795772003896
 40
0.3828147827971224
 40
0.3960145312960941
 40
0.408278341231549
 40
0.4200804196373894
 40
0.4333864967209915
 40
0.4482078371447337
 40
0.4640178646235506
 40
0.4808834593177758
 40
0.5000906851677881
 40
0.5180786821376524
 40
0.5336067505376795
 40
0.5470366916129847
 40
0.5587638286365789
 40
0.5679015491215884
 40
0.5780789242046797
 40
0.5893444464992675
 40
0.601935007628722
 40
0.6164064860511996
 40
0.6327665584785194
 40
0.6455101142492323
 40
0.6564499662324778
 40
0.6668018270027833
 40
0.6775898313108608
 40
0.6888263528462453
 40
0.6991670046703465
 40
0.7034617243803911
 40
0.7073256295772499
 40
0.7107569009371556
 40
0.7137671768999044
 40
0.7174729296985798
 40
0.7245244316695647
 40
0.7341272198460185
 40
0.7443146684988299
 40
0.756082280328997
 40
0.7656840447242983
 40
0.7731303290707773
 40
0.7784132231060957
 40
0.7815698219234095
 40
0.7834013271544444
 40
0.7864834899948561
 40
0.790978928202183
 40
0.7968907888842032
 40
0.8042170853751096
 40
0.8129547810818764
 40
0.8244109715958551
 40
0.8376393368490012
 40
0.8510148885418956
 40
0.8636831444566454
 40
0.8756560734935002
 40
0.8902677056601576
 40
0.9036797426126798
 40
0.9162784668091823
 40
0.925457600341029
 40
0.9342081839795867
 40
0.9425420626649677
 40
0.9502867263482143
 40
0.9571070574106684
 40
0.9628828433666811
 40
0.9686186542058972
 40
0.9761092874186068
 40
0.9851178604489952
 40
0.9959182771400054
 40
1.0
 40
1.0
 40
1.0
 40
1.0
 10
61.61762952453266
 20
473.5921948168144
 30
0.0
 10
61.5965779396255
 20
473.8356226842263
 30
0.0
 10
61.55550551250958
 20
474.3072170109398
 30
0.0
 10
61.47749942006686
 20
475.0736911355359
 30
0.0
 10
61.39769812719845
 20
475.7939293252081
 30
0.0
 10
61.3272331944432
 20
476.3834253395889
 30
0.0
 10
61.27029627864324
 20
476.834218634206
 30
0.0
 10
61.22899002903668
 20
477.148715253523
 30
0.0
 10
61.20221480878824
 20
477.3476531188332
 30
0.0
 10
61.18266384719648
 20
477.4908966062433
 30
0.0
 10
61.15456119370519
 20
477.6943114779547
 30
0.0
 10
61.10758795379416
 20
478.0262130422366
 30
0.0
 10
61.03523291476129
 20
478.517527230191
 30
0.0
 10
60.93881937416697
 20
479.1400785177139
 30
0.0
 10
60.78484897299898
 20
480.0767294227104
 30
0.0
 10
60.57350968588472
 20
481.2524108143599
 30
0.0
 10
60.30641071649652
 20
482.5892076006026
 30
0.0
 10
60.03395728180582
 20
483.8307937063946
 30
0.0
 10
59.76800346728208
 20
484.9452777060733
 30
0.0
 10
59.51456108627021
 20
485.9336716964221
 30
0.0
 10
59.28359490339181
 20
486.7812124959923
 30
0.0
 10
59.07620403448027
 20
487.5033210096491
 30
0.0
 10
58.90198375395615
 20
488.0843394008877
 30
0.0
 10
58.76471494971009
 20
488.5269571172938
 30
0.0
 10
58.64067749838098
 20
488.9171527614287
 30
0.0
 10
58.50469754537801
 20
489.3347775537978
 30
0.0
 10
58.338390043205
 20
489.8299278734679
 30
0.0
 10
58.15254717943431
 20
490.3642244833006
 30
0.0
 10
57.95845086717171
 20
490.9027973753895
 30
0.0
 10
57.75834929304678
 20
491.4387183762842
 30
0.0
 10
57.55393565215853
 20
491.9672525758445
 30
0.0
 10
57.29653263524759
 20
492.6097163056991
 30
0.0
 10
56.98688071535306
 20
493.3462228926911
 30
0.0
 10
56.60644720631781
 20
494.1969436847958
 30
0.0
 10
56.19149552068657
 20
495.0673095882222
 30
0.0
 10
55.72843327204009
 20
495.9776597069257
 30
0.0
 10
55.24405192362462
 20
496.8699730211839
 30
0.0
 10
54.77581575217533
 20
497.6849693671174
 30
0.0
 10
54.34584381196746
 20
498.4036883252755
 30
0.0
 10
53.94357246535382
 20
499.0544013727113
 30
0.0
 10
53.53914223491619
 20
499.6905039181921
 30
0.0
 10
53.10218508091202
 20
500.3583213439613
 30
0.0
 10
52.61538083079532
 20
501.078023940243
 30
0.0
 10
52.08525227669261
 20
501.8355209238545
 30
0.0
 10
51.50337569352414
 20
502.639355044097
 30
0.0
 10
50.89852480916271
 20
503.4459023253469
 30
0.0
 10
50.30912535824781
 20
504.2054806183237
 30
0.0
 10
49.78683968181972
 20
504.8597869806928
 30
0.0
 10
49.3384774881639
 20
505.4091377752204
 30
0.0
 10
48.96548247278353
 20
505.8568605430972
 30
0.0
 10
48.63352553696183
 20
506.2488640720157
 30
0.0
 10
48.30964529611705
 20
506.6271309433337
 30
0.0
 10
47.95270109659889
 20
507.0412660073703
 30
0.0
 10
47.55318272011566
 20
507.4998135596533
 30
0.0
 10
47.0997169110228
 20
508.0094889852948
 30
0.0
 10
46.64828040896791
 20
508.506447764485
 30
0.0
 10
46.23363619852235
 20
508.9541277812964
 30
0.0
 10
45.86821807329517
 20
509.3418385620913
 30
0.0
 10
45.52239865204561
 20
509.7024957763061
 30
0.0
 10
45.18265001613945
 20
510.0508012764088
 30
0.0
 10
44.8516036513239
 20
510.3847818686983
 30
0.0
 10
44.59032270935902
 20
510.644371321695
 30
0.0
 10
44.40256503689893
 20
510.8285249534603
 30
0.0
 10
44.28416224711199
 20
510.9437667381449
 30
0.0
 10
44.1787599997632
 20
511.0456113848789
 30
0.0
 10
44.0713211249187
 20
511.1488186187328
 30
0.0
 10
43.93816120444026
 20
511.2760682994756
 30
0.0
 10
43.75833889107786
 20
511.4468291389348
 30
0.0
 10
43.53641036459553
 20
511.6568065037407
 30
0.0
 10
43.28614723959313
 20
511.8940508554966
 30
0.0
 10
43.04214621433408
 20
512.1267057000628
 30
0.0
 10
42.82507741974543
 20
512.335489111522
 30
0.0
 10
42.65960164147112
 20
512.4959703368594
 30
0.0
 10
42.53998059973137
 20
512.612889280302
 30
0.0
 10
42.46131180968188
 20
512.69022618934
 30
0.0
 10
42.38336228706527
 20
512.7673708331002
 30
0.0
 10
42.30868126239244
 20
512.8413637350958
 30
0.0
 10
42.20384385337699
 20
512.9458025282228
 30
0.0
 10
42.07410220436267
 20
513.0760389238187
 30
0.0
 10
41.91981490563618
 20
513.2325309171569
 30
0.0
 10
41.73566440271436
 20
513.4218557384393
 30
0.0
 10
41.52415014799856
 20
513.643466921259
 30
0.0
 10
41.2990839395861
 20
513.8854259618598
 30
0.0
 10
41.08175173461382
 20
514.1260360894768
 30
0.0
 10
40.88545836351138
 20
514.3507313852575
 30
0.0
 10
40.69661050538651
 20
514.5747818348292
 30
0.0
 10
40.51871980097208
 20
514.7955441777126
 30
0.0
 10
40.35365237498009
 20
515.0091513180095
 30
0.0
 10
40.21637664010716
 20
515.1952249001581
 30
0.0
 10
40.10193538492975
 20
515.3591505068067
 30
0.0
 10
40.00672803848468
 20
515.503683328386
 30
0.0
 10
39.92072738179853
 20
515.642846698115
 30
0.0
 10
39.84027942382125
 20
515.7771985300645
 30
0.0
 10
39.76157822174221
 20
515.9097070349352
 30
0.0
 10
39.67645541540137
 20
516.0535651417322
 30
0.0
 10
39.58275273396374
 20
516.2125568054207
 30
0.0
 10
39.49886796928101
 20
516.352804247306
 30
0.0
 10
39.40305540850744
 20
516.5099625060202
 30
0.0
 10
39.32646398327061
 20
516.6370065705344
 30
0.0
 10
39.29213541691667
 20
516.7015030684274
 30
0.0
 10
39.28116533807606
 20
516.7221390162495
 30
0.0
  0
ARC
  5
110
330
6E
100
AcDbEntity
  8
$DDT_AUDIT_GENERATED_(E9)
  6
Continuous
 62
     7
100
AcDbCircle
 10
6.7298835416
 20
473.5655699464
 30
0.0
 40
0.3000000302865594
100
AcDbArc
 50
175.0011142617
 51
270.0059245942
  0
ARC
  5
111
330
6E
100
AcDbEntity
  8
$DDT_AUDIT_GENERATED_(E9)
  6
Continuous
 62
     7
100
AcDbCircle
 10
61.3201751311
 20
473.5655699474
 30
0.0
 40
0.2999998259437021
100
AcDbArc
 50
269.9941861798
 51
5.2531726934
  0
CIRCLE
  5
113
330
6E
100
AcDbEntity
  8
$DDT_AUDIT_GENERATED_(112)
  6
Continuous
 62
     7
100
AcDbCircle
 10
34.0250919847
 20
486.2655699161
 30
0.0
 40
4.35
  0
ENDBLK
  5
115
330
6E
100
AcDbEntity
  8
0
100
AcDbBlockEnd
  0
BLOCK
  5
167
330
116
100
AcDbEntity
  8
0
100
AcDbBlockBegin
  2
SE1
 70
     0
 10
0.0
 20
0.0
 30
0.0
  3
SE1
  1

  0
LINE
  5
118
330
116
100
AcDbEntity
  8
$DDT_AUDIT_GENERATED_(70)
  6
Continuous
 62
     7
100
AcDbLine
 10
145.4791919485
 20
384.0955699162
 30
0.0
 11
168.3428880892
 21
384.0955699162
 31
0.0
  0
LINE
  5
119
330
116
100
AcDbEntity
  8
$DDT_AUDIT_GENERATED_(70)
  6
Continuous
 62
     7
100
AcDbLine
 10
284.883856508
 20
468.3147189151
 30
0.0
 11
284.883856508
 21
461.8707360442
 31
0.0
  0
LINE
  5
11A
330
116
100
AcDbEntity
  8
$DDT_AUDIT_GENERATED_(70)
  6
Continuous
 62
     7
100
AcDbLine
 10
168.8240302568
 20
384.0955699162
 30
0.0
 11
168.3428880892
 21
384.0955699162
 31
0.0
  0
ARC
  5
11B
330
116
100
AcDbEntity
  8
$DDT_AUDIT_GENERATED_(70)
  6
Continuous
 62
     7
100
AcDbCircle
 10
667.300052847
 20
-2232.0192386417
 30
0.0
 40
2729.540195609392
100
AcDbArc
 50
98.0965018533
 51
99.7236477027
  0
SPLINE
  5
11C
330
116
100
AcDbEntity
  8
$DDT_AUDIT_GENERATED_(70)
  6
Continuous
 62
     7
100
AcDbSpline
210
0.0
220
0.0
230
1.0
 70
     8
 71
     3
 72
    21
 73
    17
 74
     0
 42
0.000000003058417
 43
0.0000000001
 40
0.0
 40
0.0
 40
0.0
 40
0.0
 40
0.0625
 40
0.125
 40
0.1875
 40
0.25
 40
0.3125
 40
0.375
 40
0.5
 40
0.625
 40
0.6875
 40
0.75
 40
0.8125
 40
0.875
 40
0.9375
 40
1.0
 40
1.0
 40
1.0
 40
1.0
 10
282.8694646536678
 20
470.3136058296747
 30
0.0
 10
282.9374122869572
 20
470.3139765338966
 30
0.0
 10
283.0733253676024
 20
470.3145110362551
 30
0.0
 10
283.2770540595163
 20
470.3045660369917
 30
0.0
 10
283.4792865452993
 20
470.2770836410054
 30
0.0
 10
283.6775370647182
 20
470.2282732889162
 30
0.0
 10
283.8687553996629
 20
470.156566652321
 30
0.0
 10
284.1105150479283
 20
470.0313577499061
 30
0.0
 10
284.3809123983889
 20
469.8215918320835
 30
0.0
 10
284.5937387859944
 20
469.5535584600916
 30
0.0
 10
284.7212225494465
 20
469.312974994507
 30
0.0
 10
284.7944421974926
 20
469.1223211089613
 30
0.0
 10
284.8444798947126
 20
468.9243669668721
 30
0.0
 10
284.8729457523103
 20
468.72226539184
 30
0.0
 10
284.8837584239068
 20
468.5185807759103
 30
0.0
 10
284.8838565080373
 20
468.3826675590207
 30
0.0
 10
284.8838565080373
 20
468.3147189151359
 30
0.0
  0
LINE
  5
11D
330
116
100
AcDbEntity
  8
$DDT_AUDIT_GENERATED_(70)
  6
Continuous
 62
     7
100
AcDbLine
 10
172.8177510362
 20
384.0955699162
 30
0.0
 11
168.8240302568
 21
384.0955699162
 31
0.0
  0
ARC
  5
11E
330
116
100
AcDbEntity
  8
$DDT_AUDIT_GENERATED_(70)
  6
Continuous
 62
     7
100
AcDbCircle
 10
214.1831459888
 20
399.2772486258
 30
0.0
 40
39.38738474431624
100
AcDbArc
 50
133.8374557963
 51
153.6155983817
  0
ARC
  5
11F
330
116
100
AcDbEntity
  8
$DDT_AUDIT_GENERATED_(70)
  6
Continuous
 62
     7
100
AcDbCircle
 10
301.669800307
 20
303.6106775477
 30
0.0
 40
155.5408721253832
100
AcDbArc
 50
101.6661640583
 51
104.1220685164
  0
SPLINE
  5
120
330
116
100
AcDbEntity
  8
$DDT_AUDIT_GENERATED_(70)
  6
Continuous
 62
     7
100
AcDbSpline
210
0.0
220
0.0
230
1.0
 70
     8
 71
     5
 72
    12
 73
     6
 74
     0
 42
0.0000000025963492
 43
0.0000000001
 40
0.0
 40
0.0
 40
0.0
 40
0.0
 40
0.0
 40
0.0
 40
1.0
 40
1.0
 40
1.0
 40
1.0
 40
1.0
 40
1.0
 10
284.8838565080373
 20
461.8707360441775
 30
0.0
 10
284.8838565080373
 20
461.1464337152623
 30
0.0
 10
284.8838565080373
 20
460.4221313863471
 30
0.0
 10
284.4015058088276
 20
459.5970529935854
 30
0.0
 10
283.7682776990982
 20
459.2468462549565
 30
0.0
 10
283.1335873663489
 20
458.8993099098793
 30
0.0
  0
SPLINE
  5
121
330
116
100
AcDbEntity
  8
$DDT_AUDIT_GENERATED_(70)
  6
Continuous
 62
     7
100
AcDbSpline
210
0.0
220
0.0
230
1.0
 70
     8
 71
     3
 72
    19
 73
    15
 74
     0
 42
0.0000000007526284
 43
0.0000000001
 40
0.0
 40
0.0
 40
0.0
 40
0.0
 40
0.0313522873894289
 40
0.0631342674815204
 40
0.1258977933994772
 40
0.2505952678048137
 40
0.3758530028775961
 40
0.5002729549262861
 40
0.6255264095992759
 40
0.750142283775436
 40
0.812960295872126
 40
0.8754549837265271
 40
0.9377014188373037
 40
1.0
 40
1.0
 40
1.0
 40
1.0
 10
283.1335873663489
 20
458.8993099098793
 30
0.0
 10
283.1375278433522
 20
458.9029811642108
 30
0.0
 10
283.145462802803
 20
458.9103739885388
 30
0.0
 10
283.0966290517775
 20
458.9139114311698
 30
0.0
 10
282.8986695629986
 20
458.8996467862657
 30
0.0
 10
282.3162002620764
 20
458.7888103720496
 30
0.0
 10
281.1911613556707
 20
458.5181198008084
 30
0.0
 10
279.6255511617448
 20
458.134197544926
 30
0.0
 10
277.6661024303016
 20
457.6536974403173
 30
0.0
 10
275.7615447174852
 20
457.1917481352194
 30
0.0
 10
274.1300757191948
 20
456.8023212752372
 30
0.0
 10
272.8590686834316
 20
456.5064608381034
 30
0.0
 10
271.5549391583625
 20
456.2178558091386
 30
0.0
 10
270.6638236739778
 20
456.0315323890699
 30
0.0
 10
270.2180389913918
 20
455.9384478709707
 30
0.0
  0
SPLINE
  5
122
330
116
100
AcDbEntity
  8
$DDT_AUDIT_GENERATED_(70)
  6
Continuous
 62
     7
100
AcDbSpline
210
0.0
220
0.0
230
1.0
 70
     8
 71
     3
 72
    16
 73
    12
 74
     0
 42
0.000000000142409
 43
0.0000000001
 40
0.0
 40
0.0
 40
0.0
 40
0.0
 40
0.25
 40
0.25
 40
0.5
 40
0.5
 40
0.75
 40
0.75
 40
0.875
 40
0.875
 40
1.0
 40
1.0
 40
1.0
 40
1.0
 10
213.0752162145125
 20
462.9609976305299
 30
0.0
 10
218.8870203741317
 20
463.663472325438
 30
0.0
 10
224.692240294862
 20
464.418652525657
 30
0.0
 10
236.3006984754842
 20
465.9448644106294
 30
0.0
 10
242.1038838992743
 20
466.7161715798059
 30
0.0
 10
253.7235274234132
 20
468.1544880154788
 30
0.0
 10
259.540544183958
 20
468.8238929311192
 30
0.0
 10
268.2758629330102
 20
469.6145332815858
 30
0.0
 10
271.1896548481409
 20
469.8421221079886
 30
0.0
 10
277.0236636807159
 20
470.1828717781012
 30
0.0
 10
279.9437901139461
 20
470.2976441272328
 30
0.0
 10
282.8694646536678
 20
470.3136058296747
 30
0.0
  0
SPLINE
  5
123
330
116
100
AcDbEntity
  8
$DDT_AUDIT_GENERATED_(70)
  6
Continuous
 62
     7
100
AcDbSpline
210
0.0
220
0.0
230
1.0
 70
     8
 71
     3
 72
     8
 73
     4
 74
     0
 42
0.0000000005868701
 43
0.0000000001
 40
0.0
 40
0.0
 40
0.0
 40
0.0
 40
0.0210115315514504
 40
0.0210115315514504
 40
0.0210115315514504
 40
0.0210115315514504
 10
197.4802615243527
 20
468.3156950732594
 30
0.0
 10
197.4802615380101
 20
468.1941329804148
 30
0.0
 10
197.4835096264468
 20
468.0748756996389
 30
0.0
 10
197.489945711494
 20
467.957889279771
 30
0.0
  0
SPLINE
  5
124
330
116
100
AcDbEntity
  8
$DDT_AUDIT_GENERATED_(70)
  6
Continuous
 62
     7
100
AcDbSpline
210
0.0
220
0.0
230
1.0
 70
     8
 71
     3
 72
     8
 73
     4
 74
     0
 42
0.0000000004709852
 43
0.0000000001
 40
0.0252657340089654
 40
0.0252657340089654
 40
0.0252657340089654
 40
0.0252657340089654
 40
1.0
 40
1.0
 40
1.0
 40
1.0
 10
197.4942466198474
 20
467.8871095910929
 30
0.0
 10
197.8525927936197
 20
462.5026520159585
 30
0.0
 10
205.045563307601
 20
461.9904598976462
 30
0.0
 10
213.0752162145125
 20
462.9609976305299
 30
0.0
  0
LINE
  5
125
330
116
100
AcDbEntity
  8
$DDT_AUDIT_GENERATED_(70)
  6
Continuous
 62
     7
100
AcDbLine
 10
197.4802615244
 20
468.3156950733
 30
0.0
 11
197.4802615244
 21
472.5151847023
 31
0.0
  0
SPLINE
  5
126
330
116
100
AcDbEntity
  8
$DDT_AUDIT_GENERATED_(70)
  6
Continuous
 62
     7
100
AcDbSpline
210
0.0
220
0.0
230
1.0
 70
     8
 71
     3
 72
    22
 73
    18
 74
     0
 42
0.0000000002656185
 43
0.0000000001
 40
0.0
 40
0.0
 40
0.0
 40
0.0
 40
0.0317458345566946
 40
0.0634608050601762
 40
0.1267185539492039
 40
0.1478332934477818
 40
0.1899975545969879
 40
0.2215894070184209
 40
0.2531439148171756
 40
0.3160564966638793
 40
0.3788178003896778
 40
0.4413536583521228
 40
0.5036262092247332
 40
0.6275324758281936
 40
0.7511511693366162
 40
0.8471574200441709
 40
1.0
 40
1.0
 40
1.0
 40
1.0
 10
173.6302972664602
 20
468.3152771310466
 30
0.0
 10
173.7129315977933
 20
467.9244053413409
 30
0.0
 10
173.8781837195736
 20
467.1430511152254
 30
0.0
 10
174.3687206584974
 20
465.6243223390497
 30
0.0
 10
175.0511881143397
 20
464.3160714474978
 30
0.0
 10
176.0038066649844
 20
463.0436608099608
 30
0.0
 10
176.8067843231556
 20
462.1590967735858
 30
0.0
 10
177.8051569553805
 20
461.2910656280566
 30
0.0
 10
179.0984830629137
 20
460.3788848016486
 30
0.0
 10
180.8708728370096
 20
459.4980647466078
 30
0.0
 10
183.1087679130397
 20
458.768850685308
 30
0.0
 10
185.3892299415504
 20
458.2444111496284
 30
0.0
 10
188.4489637220643
 20
457.7350333790621
 30
0.0
 10
192.309948029284
 20
457.3754995155197
 30
0.0
 10
196.6209837504443
 20
457.3498122173773
 30
0.0
 10
201.2910046097929
 20
457.6206107193591
 30
0.0
 10
204.3885627978109
 20
458.0465115789886
 30
0.0
 10
206.2911000777637
 20
458.3079579858837
 30
0.0
  0
ARC
  5
127
330
116
100
AcDbEntity
  8
$DDT_AUDIT_GENERATED_(70)
  6
Continuous
 62
     7
100
AcDbCircle
 10
243.6858780411
 20
387.9618501767
 30
0.0
 40
70.90776100194596
100
AcDbArc
 50
156.0194351684
 51
181.9123864495
  0
LINE
  5
128
330
116
100
AcDbEntity
  8
$DDT_AUDIT_GENERATED_(70)
  6
Continuous
 62
     7
100
AcDbLine
 10
283.1335873663
 20
458.8993099099
 30
0.0
 11
280.2131048391
 21
457.3264209494
 31
0.0
  0
SPLINE
  5
129
330
116
100
AcDbEntity
  8
$DDT_AUDIT_GENERATED_(70)
  6
Continuous
 62
     7
100
AcDbSpline
210
0.0
220
0.0
230
1.0
 70
     8
 71
     5
 72
    12
 73
     6
 74
     0
 42
0.0000000003480128
 43
0.0000000001
 40
0.0
 40
0.0
 40
0.0
 40
0.0
 40
0.0
 40
0.0
 40
1.0
 40
1.0
 40
1.0
 40
1.0
 40
1.0
 40
1.0
 10
197.4789929454892
 20
385.5955699187029
 30
0.0
 10
197.4789929454892
 20
390.8784821998692
 30
0.0
 10
197.4789929454892
 20
396.1613944810354
 30
0.0
 10
197.8951974500996
 20
406.4293798519068
 30
0.0
 10
200.2135469714017
 20
409.6248734975518
 30
0.0
 10
202.6616986482962
 20
412.7176184959455
 30
0.0
  0
LINE
  5
12A
330
116
100
AcDbEntity
  8
$DDT_AUDIT_GENERATED_(70)
  6
Continuous
 62
     7
100
AcDbLine
 10
197.4789929455
 20
384.0955699162
 30
0.0
 11
172.8177510362
 21
384.0955699162
 31
0.0
  0
LINE
  5
12B
330
116
100
AcDbEntity
  8
$DDT_AUDIT_GENERATED_(70)
  6
Continuous
 62
     7
100
AcDbLine
 10
197.4789929455
 20
385.5955699187
 30
0.0
 11
197.4789929455
 21
384.0955699162
 31
0.0
  0
SPLINE
  5
12C
330
116
100
AcDbEntity
  8
$DDT_AUDIT_GENERATED_(70)
  6
Continuous
 62
     7
100
AcDbSpline
210
0.0
220
0.0
230
1.0
 70
     8
 71
     3
 72
    35
 73
    31
 74
     0
 42
0.0000000001219112
 43
0.0000000001
 40
0.0
 40
0.0
 40
0.0
 40
0.0
 40
0.0313855805223449
 40
0.0627716299283073
 40
0.1255446818987792
 40
0.1883142348243156
 40
0.2197005063130162
 40
0.2510854535308684
 40
0.3138505391198683
 40
0.3766113001092237
 40
0.4393458775834977
 40
0.4705194972305322
 40
0.501648403522595
 40
0.5639413612965737
 40
0.5950857834470666
 40
0.6262280149899606
 40
0.688513641871428
 40
0.7507730151549908
 40
0.777436079852109
 40
0.8129963024244369
 40
0.8441550883387698
 40
0.8753132485198118
 40
0.8908928858238032
 40
0.9064802054725203
 40
0.9220702430556577
 40
0.9376592908292298
 40
0.9532463298350475
 40
0.9688369024901444
 40
0.984189620928533
 40
1.0
 40
1.0
 40
1.0
 40
1.0
 10
263.7196072639964
 20
454.4508106340634
 30
0.0
 10
262.8908105232627
 20
454.2427867540623
 30
0.0
 10
261.2332424257357
 20
453.826625649201
 30
0.0
 10
257.9185546356167
 20
452.9703990863505
 30
0.0
 10
253.7750751881604
 20
451.9086677372579
 30
0.0
 10
249.6275332536558
 20
450.8774064039478
 30
0.0
 10
246.3073918479137
 20
450.0624836573518
 30
0.0
 10
242.9863059874125
 20
449.2473414706506
 30
0.0
 10
238.8357675667641
 20
448.2120261002407
 30
0.0
 10
233.865283809106
 20
446.9028628437102
 30
0.0
 10
229.7413572009088
 20
445.7482941542082
 30
0.0
 10
226.4557203966178
 20
444.8017606836623
 30
0.0
 10
223.1844208454324
 20
443.8467012290646
 30
0.0
 10
219.915584413511
 20
442.8837775130976
 30
0.0
 10
216.6489173131452
 20
441.9095955439847
 30
0.0
 10
213.3854562168379
 20
440.9226720712069
 30
0.0
 10
209.3168238752737
 20
439.6505433330517
 30
0.0
 10
205.3966116364831
 20
438.306599571737
 30
0.0
 10
202.2089883330458
 20
437.0880425283295
 30
0.0
 10
199.8462047253016
 20
436.0995900440604
 30
0.0
 10
197.4144348160836
 20
434.9608258938748
 30
0.0
 10
195.5224300665072
 20
433.9653624179996
 30
0.0
 10
194.0435067498997
 20
433.1071482264169
 30
0.0
 10
192.9532110849097
 20
432.4313159328471
 30
0.0
 10
191.8833461060524
 20
431.7230686101173
 30
0.0
 10
190.8355944898355
 20
430.9822649335871
 30
0.0
 10
189.8114870564132
 20
430.2087009624952
 30
0.0
 10
188.8182381771358
 20
429.4058108205226
 30
0.0
 10
187.8452998454864
 20
428.5683283822531
 30
0.0
 10
187.2200535446027
 20
427.9840919295667
 30
0.0
 10
186.9028580157629
 20
427.6876686351109
 30
0.0
  0
LINE
  5
12D
330
116
100
AcDbEntity
  8
$DDT_AUDIT_GENERATED_(70)
  6
Continuous
 62
     7
100
AcDbLine
 10
197.4400707944
 20
472.6651761707
 30
0.0
 11
197.0934334817
 21
473.2655699162
 31
0.0
  0
ARC
  5
12E
330
116
100
AcDbEntity
  8
$DDT_AUDIT_GENERATED_(70)
  6
Continuous
 62
     7
100
AcDbCircle
 10
145.7805869079
 20
472.5148114129
 30
0.0
 40
0.3013951909576492
100
AcDbArc
 50
150.0710464454
 51
179.9289463502
  0
ARC
  5
12F
330
116
100
AcDbEntity
  8
$DDT_AUDIT_GENERATED_(70)
  6
Continuous
 62
     7
100
AcDbCircle
 10
197.1787973381
 20
472.5147863811
 30
0.0
 40
0.3014644494088229
100
AcDbArc
 50
0.0757042176
 51
29.9248537384
  0
LINE
  5
130
330
116
100
AcDbEntity
  8
$DDT_AUDIT_GENERATED_(70)
  6
Continuous
 62
     7
100
AcDbLine
 10
145.8659027433
 20
473.2655699162
 30
0.0
 11
145.5192989524
 21
472.6652345402
 31
0.0
  0
SPLINE
  5
131
330
116
100
AcDbEntity
  8
$DDT_AUDIT_GENERATED_(70)
  6
Continuous
 62
     7
100
AcDbSpline
210
0.0
220
0.0
230
1.0
 70
     8
 71
     3
 72
    16
 73
    12
 74
     0
 42
0.0000000001526924
 43
0.0000000001
 40
0.0
 40
0.0
 40
0.0
 40
0.0
 40
0.5000000000000001
 40
0.5000000000000001
 40
0.7500000000000002
 40
0.7500000000000002
 40
0.8750000000000003
 40
0.8750000000000003
 40
0.9375000000000002
 40
0.9375000000000002
 40
1.0
 40
1.0
 40
1.0
 40
1.0
 10
258.3208548940641
 20
446.319164791005
 30
0.0
 10
248.5202456620003
 20
441.5091725671075
 30
0.0
 10
238.6984870818802
 20
436.7344603765604
 30
0.0
 10
224.2529087239713
 20
429.025458443646
 30
0.0
 10
219.4735612190474
 20
426.3769007075775
 30
0.0
 10
212.5817925782497
 20
421.9519933872875
 30
0.0
 10
210.3293056115267
 20
420.4023436982678
 30
0.0
 10
207.1897744549038
 20
417.7709760771172
 30
0.0
 10
206.2005479566511
 20
416.8373062594439
 30
0.0
 10
204.3631547197059
 20
414.8409977755167
 30
0.0
 10
203.5064972451017
 20
413.7848508327241
 30
0.0
 10
202.6616986482962
 20
412.7176184959455
 30
0.0
  0
SPLINE
  5
132
330
116
100
AcDbEntity
  8
$DDT_AUDIT_GENERATED_(70)
  6
Continuous
 62
     7
100
AcDbSpline
210
0.0
220
0.0
230
1.0
 70
     8
 71
     3
 72
    24
 73
    20
 74
     0
 42
0.0000000004020505
 43
0.0000000001
 40
0.0
 40
0.0
 40
0.0
 40
0.0
 40
0.1250000000000001
 40
0.1250000000000001
 40
0.2500000000000002
 40
0.2500000000000002
 40
0.3750000000000003
 40
0.3750000000000003
 40
0.4375000000000002
 40
0.4375000000000002
 40
0.5
 40
0.5
 40
0.625
 40
0.625
 40
0.75
 40
0.75
 40
0.875
 40
0.875
 40
1.0
 40
1.0
 40
1.0
 40
1.0
 10
258.3208548940641
 20
446.319164791005
 30
0.0
 10
258.3207836271235
 20
446.3193128727618
 30
0.0
 10
258.5555452368949
 20
446.5786106972002
 30
0.0
 10
259.4715117847293
 20
447.5003370917358
 30
0.0
 10
260.1537977037535
 20
448.1641046383139
 30
0.0
 10
261.9124053968242
 20
449.6469594762959
 30
0.0
 10
263.0116744127517
 20
450.4776683347334
 30
0.0
 10
264.896014169888
 20
451.6470603192602
 30
0.0
 10
265.5766627575755
 20
452.0327809377922
 30
0.0
 10
266.9839780349882
 20
452.7526513074868
 30
0.0
 10
267.7085923296354
 20
453.0860162382669
 30
0.0
 10
269.9384693435624
 20
454.0208716855895
 30
0.0
 10
271.4577672540521
 20
454.5576852110463
 30
0.0
 10
274.3038057472837
 20
455.5318212841639
 30
0.0
 10
275.6018630526874
 20
455.9491579018242
 30
0.0
 10
277.7939443362006
 20
456.6409782821542
 30
0.0
 10
278.6801418646085
 20
456.9097045879836
 30
0.0
 10
279.8854135985602
 20
457.2511714043461
 30
0.0
 10
280.2130609957088
 20
457.3265120492796
 30
0.0
 10
280.2131048391359
 20
457.3264209493673
 30
0.0
  0
SPLINE
  5
133
330
116
100
AcDbEntity
  8
$DDT_AUDIT_GENERATED_(70)
  6
Continuous
 62
     7
100
AcDbSpline
210
0.0
220
0.0
230
1.0
 70
     8
 71
     3
 72
    24
 73
    20
 74
     0
 42
0.0000000003805321
 43
0.0000000001
 40
0.0
 40
0.0
 40
0.0
 40
0.0
 40
0.0312499999999997
 40
0.0312499999999997
 40
0.0624999999999995
 40
0.0624999999999995
 40
0.1249999999999996
 40
0.1249999999999996
 40
0.2500000000000005
 40
0.2500000000000005
 40
0.3750000000000014
 40
0.3750000000000014
 40
0.4375000000000015
 40
0.4375000000000015
 40
0.4687500000000013
 40
0.4687500000000013
 40
0.500000000000001
 40
0.500000000000001
 40
0.5007479111462959
 40
0.5007479111462959
 40
0.5007479111462959
 40
0.5007479111462959
 10
145.479191948595
 20
427.781482663539
 30
0.0
 10
145.479191948595
 20
427.781482663539
 30
0.0
 10
145.4849796422284
 20
427.5707109819646
 30
0.0
 10
145.4970691342155
 20
427.1017950302405
 30
0.0
 10
145.5037854756589
 20
426.828725866752
 30
0.0
 10
145.5228264403338
 20
425.9983374307898
 30
0.0
 10
145.5346978144673
 20
425.403169303263
 30
0.0
 10
145.563796540443
 20
423.6180810013069
 30
0.0
 10
145.575152439945
 20
422.4107169215079
 30
0.0
 10
145.5779668081902
 20
419.9731697197159
 30
0.0
 10
145.5691308744151
 20
418.7397309734768
 30
0.0
 10
145.5398847544774
 20
416.9481935592751
 30
0.0
 10
145.5275641891535
 20
416.3657925036002
 30
0.0
 10
145.5066749155885
 20
415.5462710033036
 30
0.0
 10
145.4991227368369
 20
415.2762828431389
 30
0.0
 10
145.4855933692932
 20
414.8220409415682
 30
0.0
 10
145.4794683451598
 20
414.6329444490241
 30
0.0
 10
145.4791951171381
 20
414.6244612343946
 30
0.0
 10
145.4791921941472
 20
414.6243694467406
 30
0.0
 10
145.479192663762
 20
414.6243822200915
 30
0.0
  0
LINE
  5
134
330
116
100
AcDbEntity
  8
$DDT_AUDIT_GENERATED_(70)
  6
Continuous
 62
     7
100
AcDbLine
 10
145.4791919485
 20
414.6359853878
 30
0.0
 11
145.4791919485
 21
384.0955699162
 31
0.0
  0
LINE
  5
135
330
116
100
AcDbEntity
  8
$DDT_AUDIT_GENERATED_(70)
  6
Continuous
 62
     7
100
AcDbLine
 10
145.4791919485
 20
472.5151851161
 30
0.0
 11
145.4791919485
 21
427.7814826635
 31
0.0
  0
LINE
  5
136
330
116
100
AcDbEntity
  8
$DDT_AUDIT_GENERATED_(70)
  6
Continuous
 62
     7
100
AcDbLine
 10
197.5113027192
 20
467.959109487
 30
0.0
 11
197.4802409176
 21
468.3156950733
 31
0.0
  0
LINE
  5
137
330
116
100
AcDbEntity
  8
$DDT_AUDIT_GENERATED_(70)
  6
Continuous
 62
     7
100
AcDbLine
 10
197.517437313
 20
467.8886851281
 30
0.0
 11
197.4802409176
 21
468.3156950733
 31
0.0
  0
LINE
  5
138
330
116
100
AcDbEntity
  8
02636038_GEHÄUSE
  6
Continuous
 62
     7
100
AcDbLine
 10
261.9539316455
 20
442.2291271543
 30
0.0
 11
281.327087604
 21
451.5527974729
 31
0.0
  0
SPLINE
  5
139
330
116
100
AcDbEntity
  8
02636038_GEHÄUSE
  6
Continuous
 62
     7
100
AcDbSpline
210
0.0
220
0.0
230
1.0
 70
     8
 71
     3
 72
    10
 73
     6
 74
     0
 42
0.0000000019260148
 43
0.0000000001
 40
0.0
 40
0.0
 40
0.0
 40
0.0
 40
0.5
 40
0.5
 40
1.0
 40
1.0
 40
1.0
 40
1.0
 10
273.8334431781785
 20
448.2987534073631
 30
0.0
 10
273.1060975302196
 20
447.8222814983264
 30
0.0
 10
272.3549929110237
 20
447.39501450782
 30
0.0
 10
270.801242500955
 20
446.6472224866338
 30
0.0
 10
269.9985960158013
 20
446.3266988938128
 30
0.0
 10
269.1721655631921
 20
446.0554319867841
 30
0.0
  0
LINE
  5
13A
330
116
100
AcDbEntity
  8
02636038_GEHÄUSE
  6
Continuous
 62
     7
100
AcDbLine
 10
274.1878803181
 20
451.4462781699
 30
0.0
 11
266.4911844239
 21
447.7421085853
 31
0.0
  0
LINE
  5
13B
330
116
100
AcDbEntity
  8
02636038_GEHÄUSE
  6
Continuous
 62
     7
100
AcDbLine
 10
274.1878803181
 20
451.4462781699
 30
0.0
 11
274.975592534
 21
449.8095330806
 31
0.0
  0
SPLINE
  5
13C
330
116
100
AcDbEntity
  8
02636038_GEHÄUSE
  6
Continuous
 62
     7
100
AcDbSpline
210
0.0
220
0.0
230
1.0
 70
     8
 71
     3
 72
    14
 73
    10
 74
     0
 42
0.0000000049321089
 43
0.0000000001
 40
0.0
 40
0.0
 40
0.0
 40
0.0
 40
0.1250000000000004
 40
0.1250000000000004
 40
0.2500000000000009
 40
0.2500000000000009
 40
0.5000000000000008
 40
0.5000000000000008
 40
1.0
 40
1.0
 40
1.0
 40
1.0
 10
274.9755925339559
 20
449.8095330806431
 30
0.0
 10
275.0121245385324
 20
449.7336251819351
 30
0.0
 10
275.0196584747584
 20
449.643876922354
 30
0.0
 10
274.9937018938269
 20
449.4769053929313
 30
0.0
 10
274.9624122926012
 20
449.3963524312533
 30
0.0
 10
274.8456503997202
 20
449.1724473048752
 30
0.0
 10
274.7360570522684
 20
449.0404598400497
 30
0.0
 10
274.3861776259623
 20
448.6818883753137
 30
0.0
 10
274.1133995111108
 20
448.4821480956705
 30
0.0
 10
273.8334431781785
 20
448.2987534073631
 30
0.0
  0
SPLINE
  5
13D
330
116
100
AcDbEntity
  8
02636038_GEHÄUSE
  6
Continuous
 62
     7
100
AcDbSpline
210
0.0
220
0.0
230
1.0
 70
     8
 71
     3
 72
    18
 73
    14
 74
     0
 42
0.0000000049401632
 43
0.0000000001
 40
0.0
 40
0.0
 40
0.0
 40
0.0
 40
0.2499999999999998
 40
0.2499999999999998
 40
0.4999999999999997
 40
0.4999999999999997
 40
0.6249999999999992
 40
0.6249999999999992
 40
0.7499999999999989
 40
0.7499999999999989
 40
0.8749999999999994
 40
0.8749999999999994
 40
1.0
 40
1.0
 40
1.0
 40
1.0
 10
269.1721655631921
 20
446.0554319867841
 30
0.0
 10
269.0126970572778
 20
446.0030881649518
 30
0.0
 10
268.851780455282
 20
445.9556907863665
 30
0.0
 10
268.5252294985618
 20
445.8770110483745
 30
0.0
 10
268.3597174813224
 20
445.8455787028855
 30
0.0
 10
268.1102749358774
 20
445.8208933859879
 30
0.0
 10
268.0267895503932
 20
445.8164148000687
 30
0.0
 10
267.8587931888948
 20
445.8188401420641
 30
0.0
 10
267.7737941093167
 20
445.8258044248383
 30
0.0
 10
267.6095378970284
 20
445.8580632110544
 30
0.0
 10
267.528130600749
 20
445.8833730928499
 30
0.0
 10
267.3804103518802
 20
445.9678257197258
 30
0.0
 10
267.3160833326331
 20
446.0280952554269
 30
0.0
 10
267.2788966397453
 20
446.1053634959667
 30
0.0
  0
LINE
  5
13E
330
116
100
AcDbEntity
  8
02636038_GEHÄUSE
  6
Continuous
 62
     7
100
AcDbLine
 10
267.2788966397
 20
446.105363496
 30
0.0
 11
266.4911844239
 21
447.7421085853
 31
0.0
  0
LINE
  5
13F
330
116
100
AcDbEntity
  8
02636038_GEHÄUSE
  6
Continuous
 62
     7
100
AcDbLine
 10
261.3206340297
 20
442.2767450412
 30
0.0
 11
261.9539316455
 21
442.2291271543
 31
0.0
  0
LINE
  5
140
330
116
100
AcDbEntity
  8
02636038_GEHÄUSE
  6
Continuous
 62
     7
100
AcDbLine
 10
281.327087604
 20
451.5527974729
 30
0.0
 11
281.6849747116
 21
452.0774403529
 31
0.0
  0
ARC
  5
141
330
116
100
AcDbEntity
  8
02636038_GEHÄUSE
  6
Continuous
 62
     7
100
AcDbCircle
 10
261.3956127566
 20
443.2739301748
 30
0.0
 40
0.9999999999999911
100
AcDbArc
 50
205.7
 51
265.7
  0
ARC
  5
142
330
116
100
AcDbEntity
  8
02636038_GEHÄUSE
  6
Continuous
 62
     7
100
AcDbCircle
 10
280.8588764171
 20
452.6409664019
 30
0.0
 40
1.000000000000007
100
AcDbArc
 50
325.7
 51
25.7
  0
LINE
  5
143
330
116
100
AcDbEntity
  8
02636038_GEHÄUSE
  6
Continuous
 62
     7
100
AcDbLine
 10
258.6521086213
 20
446.6685518638
 30
0.0
 11
260.4945357352
 21
442.8402710902
 31
0.0
  0
LINE
  5
144
330
116
100
AcDbEntity
  8
02636038_GEHÄUSE
  6
Continuous
 62
     7
100
AcDbLine
 10
281.7599534385
 20
453.0746254864
 30
0.0
 11
279.768535737
 21
457.2124858345
 31
0.0
  0
LINE
  5
145
330
116
100
AcDbEntity
  8
$DDT_AUDIT_GENERATED_(AE)
  6
Continuous
 62
     7
100
AcDbLine
 10
263.7042800667
 20
442.6275997438
 30
0.0
 11
279.9236664505
 21
450.4334632664
 31
0.0
  0
LINE
  5
146
330
116
100
AcDbEntity
  8
$DDT_AUDIT_GENERATED_(AE)
  6
Continuous
 62
     7
100
AcDbLine
 10
263.5308164329
 20
442.9880305523
 30
0.0
 11
263.7042800667
 21
442.6275997438
 31
0.0
  0
LINE
  5
147
330
116
100
AcDbEntity
  8
$DDT_AUDIT_GENERATED_(AE)
  6
Continuous
 62
     7
100
AcDbLine
 10
279.9236664505
 20
450.4334632664
 30
0.0
 11
279.7502028167
 21
450.7938940749
 31
0.0
  0
ARC
  5
148
330
116
100
AcDbEntity
  8
$DDT_AUDIT_GENERATED_(E9)
  6
Continuous
 62
     7
100
AcDbCircle
 10
269.1249509464
 20
550.2813429237
 30
0.0
 40
25.07582087540777
100
AcDbArc
 50
318.2185017133
 51
327.5707652589
  0
ARC
  5
149
330
116
100
AcDbEntity
  8
$DDT_AUDIT_GENERATED_(E9)
  6
Continuous
 62
     7
100
AcDbCircle
 10
307.7386284166
 20
519.2151575178
 30
0.0
 40
43.08848281058155
100
AcDbArc
 50
138.4329256311
 51
143.8756515682
  0
SPLINE
  5
14A
330
116
100
AcDbEntity
  8
$DDT_AUDIT_GENERATED_(E9)
  6
Continuous
 62
     7
100
AcDbSpline
210
0.0
220
0.0
230
1.0
 70
     8
 71
     3
 72
    27
 73
    23
 74
     0
 42
0.0000000003718235
 43
0.0000000001
 40
0.0
 40
0.0
 40
0.0
 40
0.0
 40
0.0308776607097604
 40
0.0830037292757219
 40
0.1351297978416834
 40
0.1872558664076449
 40
0.2393819349736064
 40
0.291508003539564
 40
0.3436340721055255
 40
0.395760140671487
 40
0.4478862092374483
 40
0.5000122778034098
 40
0.5521383463693713
 40
0.604264414935329
 40
0.6563904835012904
 40
0.7085165520672527
 40
0.7606426206332133
 40
0.8127686891991741
 40
0.8648947577651351
 40
0.9170208263310958
 40
0.9691468948970565
 40
1.0
 40
1.0
 40
1.0
 40
1.0
 10
275.5007089223602
 20
547.8042095762805
 30
0.0
 10
275.6919718879336
 20
548.0040379699158
 30
0.0
 10
276.230113543124
 20
548.5188884182712
 30
0.0
 10
277.2011471054092
 20
549.2444797514393
 30
0.0
 10
278.4345442666732
 20
549.9050560155881
 30
0.0
 10
279.7556165863092
 20
550.3744064002194
 30
0.0
 10
281.1364200446562
 20
550.6400952902959
 30
0.0
 10
282.5308503612252
 20
550.695261420703
 30
0.0
 10
283.9229531852412
 20
550.5413081961984
 30
0.0
 10
285.2832739558633
 20
550.1775041675497
 30
0.0
 10
286.5691948920393
 20
549.6141827837248
 30
0.0
 10
287.7503144991582
 20
548.8690960308777
 30
0.0
 10
288.8136986685653
 20
547.9482512763855
 30
0.0
 10
289.7198246180163
 20
546.8870161547391
 30
0.0
 10
290.4636916005713
 20
545.6899693366785
 30
0.0
 10
291.0145208126422
 20
544.405018548669
 30
0.0
 10
291.3684149602452
 20
543.0444142546526
 30
0.0
 10
291.5132568484462
 20
541.6541733518561
 30
0.0
 10
291.4473397396682
 20
540.2502073048475
 30
0.0
 10
291.1737999195022
 20
538.880604261635
 30
0.0
 10
290.7592985382502
 20
537.7415883397698
 30
0.0
 10
290.4259139459663
 20
537.0750712713481
 30
0.0
 10
290.2903082411162
 20
536.8342449779951
 30
0.0
  0
ARC
  5
14B
330
116
100
AcDbEntity
  8
$DDT_AUDIT_GENERATED_(E9)
  6
Continuous
 62
     7
100
AcDbCircle
 10
230.8282204064
 20
486.0394713193
 30
0.0
 40
31.56775801003715
100
AcDbArc
 50
163.9530828456
 51
171.8483662068
  0
LINE
  5
14C
330
116
100
AcDbEntity
  8
$DDT_AUDIT_GENERATED_(E9)
  6
Continuous
 62
     7
100
AcDbLine
 10
199.1401871742
 20
482.0155699166
 30
0.0
 11
199.1070852998
 21
473.5650938889
 31
0.0
  0
ARC
  5
14D
330
116
100
AcDbEntity
  8
$DDT_AUDIT_GENERATED_(E9)
  6
Continuous
 62
     7
100
AcDbCircle
 10
211.0779541378
 20
485.9323856575
 30
0.0
 40
12.37828735492311
100
AcDbArc
 50
158.2683490345
 51
161.2882223556
  0
ARC
  5
14E
330
116
100
AcDbEntity
  8
$DDT_AUDIT_GENERATED_(E9)
  6
Continuous
 62
     7
100
AcDbCircle
 10
212.9765252118
 20
485.6284542828
 30
0.0
 40
14.27762539194207
100
AcDbArc
 50
162.5773366549
 51
192.8034919143
  0
SPLINE
  5
14F
330
116
100
AcDbEntity
  8
$DDT_AUDIT_GENERATED_(E9)
  6
Continuous
 62
     7
100
AcDbSpline
210
0.0
220
0.0
230
1.0
 70
     8
 71
     3
 72
    10
 73
     6
 74
     0
 42
0.0000000262616879
 43
0.0000000001
 40
0.174457234349999
 40
0.174457234349999
 40
0.174457234349999
 40
0.174457234349999
 40
0.5
 40
0.5
 40
1.0
 40
1.0
 40
1.0
 40
1.0
 10
199.0800949002022
 20
482.3241135440404
 30
0.0
 10
199.0951862912511
 20
482.2443871992076
 30
0.0
 10
199.1079118722873
 20
482.1790422333682
 30
0.0
 10
199.1324285863098
 20
482.0540847814324
 30
0.0
 10
199.1401982207792
 20
482.0155748028986
 30
0.0
 10
199.1401871742151
 20
482.0155699165893
 30
0.0
  0
LINE
  5
150
330
116
100
AcDbEntity
  8
$DDT_AUDIT_GENERATED_(E9)
  6
Continuous
 62
     7
100
AcDbLine
 10
197.8433056933
 20
473.2655699162
 30
0.0
 11
156.946435295
 21
473.2655699162
 31
0.0
  0
LINE
  5
151
330
116
100
AcDbEntity
  8
$DDT_AUDIT_GENERATED_(E9)
  6
Continuous
 62
     7
100
AcDbLine
 10
156.946435295
 20
473.2655699162
 30
0.0
 11
148.306284726
 21
473.2655699162
 31
0.0
  0
LINE
  5
152
330
116
100
AcDbEntity
  8
$DDT_AUDIT_GENERATED_(E9)
  6
Continuous
 62
     7
100
AcDbLine
 10
198.7609930046
 20
473.2655699162
 30
0.0
 11
197.8433056933
 21
473.2655699162
 31
0.0
  0
LINE
  5
153
330
116
100
AcDbEntity
  8
$DDT_AUDIT_GENERATED_(E9)
  6
Continuous
 62
     7
100
AcDbLine
 10
148.306284726
 20
473.2655699162
 30
0.0
 11
144.1654787423
 21
473.2655699162
 31
0.0
  0
ARC
  5
154
330
116
100
AcDbEntity
  8
$DDT_AUDIT_GENERATED_(E9)
  6
Continuous
 62
     7
100
AcDbCircle
 10
183.473880418
 20
472.5420680785
 30
0.0
 40
39.62168314851306
100
AcDbArc
 50
145.8824628221
 51
178.5156950754
  0
SPLINE
  5
155
330
116
100
AcDbEntity
  8
$DDT_AUDIT_GENERATED_(E9)
  6
Continuous
 62
     7
100
AcDbSpline
210
0.0
220
0.0
230
1.0
 70
     8
 71
     3
 72
    60
 73
    56
 74
     0
 42
0.0000000000641806
 43
0.0000000001
 40
0.0
 40
0.0
 40
0.0
 40
0.0
 40
0.0072507887678891
 40
0.0141387748460004
 40
0.0302002097598245
 40
0.0623769676872502
 40
0.0840593324921417
 40
0.1270949037189028
 40
0.1588666002833967
 40
0.174764514432181
 40
0.190658899648621
 40
0.222443739666191
 40
0.2545085808829827
 40
0.2866046141196667
 40
0.3026454599257423
 40
0.3186794109543969
 40
0.3507726042443701
 40
0.3823589673061514
 40
0.3901736089094497
 40
0.3980087920994771
 40
0.4136348450262606
 40
0.4449166441446628
 40
0.4605534500616089
 40
0.4761898308893023
 40
0.491959162439509
 40
0.4983232368070145
 40
0.5078696545284442
 40
0.5316220699580835
 40
0.5494345391194194
 40
0.580275725832631
 40
0.6517378101147117
 40
0.7049627565016764
 40
0.7579192392169437
 40
0.7656357062013467
 40
0.7733483736430736
 40
0.7810545571774503
 40
0.7887676000028128
 40
0.7926187685185482
 40
0.7963669490283128
 40
0.8038753852188398
 40
0.8188919447408555
 40
0.8263954473312614
 40
0.8339035772109913
 40
0.8414132413927832
 40
0.8489174333196083
 40
0.8640407025968313
 40
0.8716360192301007
 40
0.8792284396546926
 40
0.8944095970405435
 40
0.9020088916386093
 40
0.9095269591418964
 40
0.9244862793298478
 40
0.9394493731841116
 40
0.9695787367642439
 40
1.0
 40
1.0
 40
1.0
 40
1.0
 10
148.0517530996468
 20
473.5683659104459
 30
0.0
 10
148.0714017360519
 20
473.9472483233838
 30
0.0
 10
148.1096635383042
 20
474.686061368153
 30
0.0
 10
148.256857579061
 20
476.2603610264499
 30
0.0
 10
148.6665699698793
 20
479.1197808854348
 30
0.0
 10
149.555544580629
 20
482.6857084417508
 30
0.0
 10
151.2705748895143
 20
487.4619223225816
 30
0.0
 10
153.5141240655763
 20
491.9992316371873
 30
0.0
 10
156.1287488773812
 20
495.9214551520545
 30
0.0
 10
158.1717051646031
 20
498.4788178310578
 30
0.0
 10
160.3504703751828
 20
500.8905356788785
 30
0.0
 10
163.3336432757024
 20
503.5985277751163
 30
0.0
 10
167.2489260038247
 20
506.4089998687018
 30
0.0
 10
170.7347383315273
 20
508.4157843561283
 30
0.0
 10
173.622205623858
 20
509.8431045363457
 30
0.0
 10
176.56895316272
 20
511.1600720885381
 30
0.0
 10
180.3296040949864
 20
512.6066830737249
 30
0.0
 10
183.7983356682928
 20
513.7186629978747
 30
0.0
 10
186.1224796072205
 20
514.3912213856763
 30
0.0
 10
187.6731671980033
 20
514.82104341228
 30
0.0
 10
190.4183157274878
 20
515.5300583737516
 30
0.0
 10
193.6025288158599
 20
516.2645994656375
 30
0.0
 10
196.8049060501987
 20
516.9451726164982
 30
0.0
 10
199.2200471932686
 20
517.4324642478307
 30
0.0
 10
201.1619726354089
 20
517.8100035643574
 30
0.0
 10
202.7926637322878
 20
518.1164709804486
 30
0.0
 10
204.8365653689363
 20
518.4880594442578
 30
0.0
 10
207.4698902816402
 20
518.9675714803321
 30
0.0
 10
211.2026351726545
 20
519.6349412877514
 30
0.0
 10
217.397542528283
 20
520.7267114716732
 30
0.0
 10
225.4253315645668
 20
522.1021962723105
 30
0.0
 10
234.6012154336808
 20
523.6330638565161
 30
0.0
 10
240.4874857025778
 20
524.5949988032628
 30
0.0
 10
244.0230184275263
 20
525.1652657093529
 30
0.0
 10
245.2190442572546
 20
525.358083343093
 30
0.0
 10
246.4148457217218
 20
525.5505197055313
 30
0.0
 10
247.4115855593383
 20
525.709336961831
 30
0.0
 10
248.2037334155599
 20
525.8346378226322
 30
0.0
 10
248.9852975368907
 20
525.9583223039539
 30
0.0
 10
250.3439844225825
 20
526.1760664793194
 30
0.0
 10
251.8978452779537
 20
526.418589226097
 30
0.0
 10
253.4491668917179
 20
526.6773139488118
 30
0.0
 10
254.6140377261827
 20
526.8618231159661
 30
0.0
 10
255.7702804334532
 20
527.1030732474266
 30
0.0
 10
257.2720168589956
 20
527.5983776425534
 30
0.0
 10
258.6950148512702
 20
528.3148621985761
 30
0.0
 10
260.0138881681276
 20
529.2004512253191
 30
0.0
 10
261.2663624358772
 20
530.1829054256282
 30
0.0
 10
262.4193596418917
 20
531.2855418510387
 30
0.0
 10
263.4736870162864
 20
532.4713670860068
 30
0.0
 10
264.4826332466452
 20
533.6809597435648
 30
0.0
 10
265.7075480951501
 20
535.2123306069054
 30
0.0
 10
267.6376701124666
 20
537.6956126150269
 30
0.0
 10
270.0982500856485
 20
540.791874669464
 30
0.0
 10
272.0643508143346
 20
543.2800715427985
 30
0.0
 10
273.0521461795223
 20
544.530162737237
 30
0.0
  0
ARC
  5
156
330
116
100
AcDbEntity
  8
$DDT_AUDIT_GENERATED_(E9)
  6
Continuous
 62
     7
100
AcDbCircle
 10
144.1654787423
 20
473.5655699163
 30
0.0
 40
0.3000000001377318
100
AcDbArc
 50
179.4608393141
 51
270.0
  0
ARC
  5
157
330
116
100
AcDbEntity
  8
$DDT_AUDIT_GENERATED_(E9)
  6
Continuous
 62
     7
100
AcDbCircle
 10
198.8070856773
 20
473.5655699164
 30
0.0
 40
0.3000000001519838
100
AcDbArc
 50
269.9999999995
 51
359.9090854074
  0
SPLINE
  5
158
330
116
100
AcDbEntity
  8
$DDT_AUDIT_GENERATED_(E9)
  6
Continuous
 62
     7
100
AcDbSpline
210
0.0
220
0.0
230
1.0
 70
     8
 71
     3
 72
    40
 73
    36
 74
     0
 42
0.0000000000727715
 43
0.0000000001
 40
0.0
 40
0.0
 40
0.0
 40
0.0
 40
0.0625000000000002
 40
0.0625000000000002
 40
0.1250000000000004
 40
0.1250000000000004
 40
0.1875000000000006
 40
0.1875000000000006
 40
0.2500000000000008
 40
0.2500000000000008
 40
0.312500000000001
 40
0.312500000000001
 40
0.3750000000000012
 40
0.3750000000000012
 40
0.4375000000000014
 40
0.4375000000000014
 40
0.5000000000000017
 40
0.5000000000000017
 40
0.6250000000000019
 40
0.6250000000000019
 40
0.750000000000002
 40
0.750000000000002
 40
0.7812500000000022
 40
0.7812500000000022
 40
0.7968750000000021
 40
0.7968750000000021
 40
0.8125000000000021
 40
0.8125000000000021
 40
0.8437500000000017
 40
0.8437500000000017
 40
0.8750000000000012
 40
0.8750000000000012
 40
0.9375000000000007
 40
0.9375000000000007
 40
1.0
 40
1.0
 40
1.0
 40
1.0
 10
150.6715368777811
 20
494.7655699130268
 30
0.0
 10
152.3142790221437
 20
497.2131344527959
 30
0.0
 10
154.2294321752772
 20
499.4835483614265
 30
0.0
 10
158.6046982231489
 20
503.4400617282932
 30
0.0
 10
161.0183143039847
 20
505.10790446526
 30
0.0
 10
166.0839252043236
 20
508.0538258650797
 30
0.0
 10
168.7312386557843
 20
509.3064189147539
 30
0.0
 10
174.1775425662863
 20
511.4958931699662
 30
0.0
 10
176.9212608008367
 20
512.4131370237162
 30
0.0
 10
182.4782440632493
 20
514.0405119568123
 30
0.0
 10
185.2916269823582
 20
514.7519164600067
 30
0.0
 10
190.8798650916654
 20
516.022775003535
 30
0.0
 10
193.6914422904128
 20
516.6096044083374
 30
0.0
 10
199.3172638871193
 20
517.7393268402641
 30
0.0
 10
202.1303929286781
 20
518.2777474592945
 30
0.0
 10
207.7744350619242
 20
519.3229226762185
 30
0.0
 10
210.618140802395
 20
519.8316026265538
 30
0.0
 10
219.0130915743692
 20
521.2966917101705
 30
0.0
 10
224.5811558847176
 20
522.2205679198003
 30
0.0
 10
235.7610616447703
 20
524.0218852112058
 30
0.0
 10
241.3696212221601
 20
524.8832825883974
 30
0.0
 10
248.3574613406874
 20
525.9697789859132
 30
0.0
 10
249.7263633193048
 20
526.1896297372475
 30
0.0
 10
251.8230207231778
 20
526.521579595585
 30
0.0
 10
252.5121687232709
 20
526.6288498637491
 30
0.0
 10
253.8926788626865
 20
526.8597036721563
 30
0.0
 10
254.5956019773609
 20
526.9600825524334
 30
0.0
 10
256.6455360773412
 20
527.4260898972447
 30
0.0
 10
257.9458595926868
 20
528.023579601967
 30
0.0
 10
260.2965207209459
 20
529.5714814531219
 30
0.0
 10
261.3519826993077
 20
530.5084536832944
 30
0.0
 10
264.2954081420571
 20
533.5292684772224
 30
0.0
 10
265.959030927027
 20
535.8094376480367
 30
0.0
 10
269.4409556141121
 20
540.2095584023023
 30
0.0
 10
271.1953777679523
 20
542.4221367159023
 30
0.0
 10
272.9343620488792
 20
544.6175273585187
 30
0.0
  0
SPLINE
  5
159
330
116
100
AcDbEntity
  8
$DDT_AUDIT_GENERATED_(E9)
  6
Continuous
 62
     7
100
AcDbSpline
210
0.0
220
0.0
230
1.0
 70
     8
 71
     3
 72
    46
 73
    42
 74
     0
 42
0.000000000099507
 43
0.0000000001
 40
0.0
 40
0.0
 40
0.0
 40
0.0
 40
0.0625
 40
0.0625
 40
0.0937500000000002
 40
0.0937500000000002
 40
0.1250000000000005
 40
0.1250000000000005
 40
0.1875000000000012
 40
0.1875000000000012
 40
0.2187500000000014
 40
0.2187500000000014
 40
0.2500000000000016
 40
0.2500000000000016
 40
0.2812500000000018
 40
0.2812500000000018
 40
0.312500000000002
 40
0.312500000000002
 40
0.3437500000000022
 40
0.3437500000000022
 40
0.3750000000000023
 40
0.3750000000000023
 40
0.4062500000000025
 40
0.4062500000000025
 40
0.4375000000000027
 40
0.4375000000000027
 40
0.4687500000000029
 40
0.4687500000000029
 40
0.5000000000000031
 40
0.5000000000000031
 40
0.6250000000000027
 40
0.6250000000000027
 40
0.7500000000000019
 40
0.7500000000000019
 40
0.8125000000000014
 40
0.8125000000000014
 40
0.8750000000000011
 40
0.8750000000000011
 40
0.9375000000000006
 40
0.9375000000000006
 40
1.0
 40
1.0
 40
1.0
 40
1.0
 10
287.8237697727022
 20
533.573531365156
 30
0.0
 10
286.507193939972
 20
531.9300789836199
 30
0.0
 10
285.1953033907548
 20
530.2907042965212
 30
0.0
 10
283.2178768976765
 20
527.8245368261335
 30
0.0
 10
282.5735230797841
 20
526.985869164862
 30
0.0
 10
281.2215435493014
 20
525.3970003811918
 30
0.0
 10
280.4621153830042
 20
524.6463597851531
 30
0.0
 10
278.0420501576557
 20
522.6350522022452
 30
0.0
 10
276.1828704274865
 20
521.5714503192828
 30
0.0
 10
273.213752307495
 20
520.5012341269262
 30
0.0
 10
272.18583062279
 20
520.2511710393377
 30
0.0
 10
270.1267486036404
 20
519.8549340785285
 30
0.0
 10
269.0911694170318
 20
519.6616336267663
 30
0.0
 10
267.0212046497486
 20
519.2696079206007
 30
0.0
 10
265.9894230787785
 20
519.0868209460302
 30
0.0
 10
263.915760408875
 20
518.729206730134
 30
0.0
 10
262.8678474014217
 20
518.5460426999383
 30
0.0
 10
260.8184105542003
 20
518.1820677074464
 30
0.0
 10
259.7694082579878
 20
517.9936265089076
 30
0.0
 10
257.6992097192079
 20
517.6179439952869
 30
0.0
 10
256.6682503765228
 20
517.4289759292124
 30
0.0
 10
254.599642772826
 20
517.0465842621633
 30
0.0
 10
253.5706209397378
 20
516.8546694368645
 30
0.0
 10
251.4946474533354
 20
516.4646574975471
 30
0.0
 10
250.4635269542399
 20
516.2684848737578
 30
0.0
 10
248.3852264839492
 20
515.9494720037567
 30
0.0
 10
247.364034454796
 20
515.7331094736056
 30
0.0
 10
245.3090642256906
 20
515.34377873242
 30
0.0
 10
244.281354352314
 20
515.1450274246502
 30
0.0
 10
239.1500036929494
 20
514.1557684814863
 30
0.0
 10
235.0410852390368
 20
513.3641705766014
 30
0.0
 10
226.8482644664967
 20
511.6828525079146
 30
0.0
 10
222.7529087254521
 20
510.8085979709654
 30
0.0
 10
216.7226471548659
 20
509.0889922639898
 30
0.0
 10
214.7483889382389
 20
508.4463334040161
 30
0.0
 10
210.9361497147049
 20
506.8888623270603
 30
0.0
 10
209.0745815519562
 20
505.9624789766475
 30
0.0
 10
205.6900126298085
 20
503.5839550569115
 30
0.0
 10
204.1893298737467
 20
502.1306751026049
 30
0.0
 10
201.8823914592859
 20
498.6927310495307
 30
0.0
 10
201.0711318645537
 20
496.7564883597074
 30
0.0
 10
200.4904790755605
 20
494.7655699161616
 30
0.0
  0
LINE
  5
15A
330
116
100
AcDbEntity
  8
$DDT_AUDIT_GENERATED_(112)
  6
Continuous
 62
     7
100
AcDbLine
 10
199.0794142351
 20
482.2693596228
 30
0.0
 11
199.0794142351
 21
488.9778925696
 31
0.0
  0
LINE
  5
15C
330
116
100
AcDbEntity
  8
$DDT_AUDIT_GENERATED_(15B)
  6
Continuous
 62
     7
100
AcDbLine
 10
133.596244547
 20
435.8077295975
 30
0.0
 11
133.444417884
 21
438.7047549067
 31
0.0
  0
LINE
  5
15D
330
116
100
AcDbEntity
  8
$DDT_AUDIT_GENERATED_(15B)
  6
Continuous
 62
     7
100
AcDbLine
 10
142.9196593404
 20
434.0827896088
 30
0.0
 11
139.1608888573
 21
432.7147090355
 31
0.0
  0
LINE
  5
15E
330
116
100
AcDbEntity
  8
$DDT_AUDIT_GENERATED_(15B)
  6
Continuous
 62
     7
100
AcDbLine
 10
124.8289205087
 20
435.3967445394
 30
0.0
 11
133.596244547
 21
435.8077295975
 31
0.0
  0
LINE
  5
15F
330
116
100
AcDbEntity
  8
$DDT_AUDIT_GENERATED_(15B)
  6
Continuous
 62
     7
100
AcDbLine
 10
133.444417884
 20
438.7047549067
 30
0.0
 11
124.6098155281
 21
438.1933698263
 31
0.0
  0
SPLINE
  5
160
330
116
100
AcDbEntity
  8
$DDT_AUDIT_GENERATED_(15B)
  6
Continuous
 62
     7
100
AcDbSpline
210
0.0
220
0.0
230
1.0
 70
     8
 71
     3
 72
    16
 73
    12
 74
     0
 42
0.0000000014126703
 43
0.0000000001
 40
0.0
 40
0.0
 40
0.0
 40
0.0
 40
0.1326611384617619
 40
0.2450062763494556
 40
0.3208799594479458
 40
0.4154092570255518
 40
0.4854320723163811
 40
0.5660811898313198
 40
0.6802227276636775
 40
0.8257990161233072
 40
1.0
 40
1.0
 40
1.0
 40
1.0
 10
133.5962445470261
 20
435.8077295975356
 30
0.0
 10
133.938616089851
 20
435.8139789079981
 30
0.0
 10
134.4698559682516
 20
435.8162881474767
 30
0.0
 10
135.2375637850018
 20
435.849015913219
 30
0.0
 10
135.8972994134106
 20
435.7863157122114
 30
0.0
 10
136.4490583438491
 20
435.6539263129209
 30
0.0
 10
136.9853574269915
 20
435.4428352153504
 30
0.0
 10
137.5319085638684
 20
435.1414483569227
 30
0.0
 10
138.1555928329763
 20
434.6403539437212
 30
0.0
 10
138.8045825237682
 20
433.8118932524917
 30
0.0
 10
139.0277228333773
 20
433.144190183518
 30
0.0
 10
139.1608888572909
 20
432.7147090354744
 30
0.0
  0
SPLINE
  5
161
330
116
100
AcDbEntity
  8
$DDT_AUDIT_GENERATED_(15B)
  6
Continuous
 62
     7
100
AcDbSpline
210
0.0
220
0.0
230
1.0
 70
     8
 71
     3
 72
    18
 73
    14
 74
     0
 42
0.0000000008742221
 43
0.0000000001
 40
0.0
 40
0.0
 40
0.0
 40
0.0
 40
0.0858945738652116
 40
0.1635587312934383
 40
0.295269477484233
 40
0.366296508710151
 40
0.4241352050427373
 40
0.4709195201891444
 40
0.5613675248585085
 40
0.68569793093421
 40
0.7871597825593936
 40
0.895073710203864
 40
1.0
 40
1.0
 40
1.0
 40
1.0
 10
142.9196593404345
 20
434.0827896087771
 30
0.0
 10
142.7649435857904
 20
434.4070344675854
 30
0.0
 10
142.511827979395
 20
434.9259590273213
 30
0.0
 10
141.8690058366846
 20
435.8733578649338
 30
0.0
 10
141.1493628243921
 20
436.6594005244328
 30
0.0
 10
140.3813838885948
 20
437.2895261437844
 30
0.0
 10
139.8280109446622
 20
437.6646268210659
 30
0.0
 10
139.1840480813694
 20
438.0337385276938
 30
0.0
 10
138.2752773223499
 20
438.4442509644048
 30
0.0
 10
137.1079030920343
 20
438.7637918160597
 30
0.0
 10
135.8468083968945
 20
438.9052347259442
 30
0.0
 10
134.6281055000196
 20
438.8112016647131
 30
0.0
 10
133.8811413365804
 20
438.7480896826198
 30
0.0
 10
133.4444178840486
 20
438.7047549066511
 30
0.0
  0
LINE
  5
162
330
116
100
AcDbEntity
  8
$DDT_AUDIT_GENERATED_(15B)
  6
Continuous
 62
     7
100
AcDbLine
 10
139.1608888573
 20
432.7147090355
 30
0.0
 11
145.4995709461
 21
415.2993231273
 31
0.0
  0
LINE
  5
163
330
116
100
AcDbEntity
  8
$DDT_AUDIT_GENERATED_(15B)
  6
Continuous
 62
     7
100
AcDbLine
 10
145.4994917533
 20
426.9947583085
 30
0.0
 11
142.9196593404
 21
434.0827896088
 31
0.0
  0
LINE
  5
164
330
116
100
AcDbEntity
  8
$DDT_AUDIT_GENERATED_(15B)
  6
Continuous
 62
     7
100
AcDbLine
 10
124.1030756975
 20
437.6072081191
 30
0.0
 11
124.252846038
 21
435.8953252939
 31
0.0
  0
ARC
  5
165
330
116
100
AcDbEntity
  8
$DDT_AUDIT_GENERATED_(15B)
  6
Continuous
 62
     7
100
AcDbCircle
 10
124.791387116
 20
435.9355780991
 30
0.0
 40
0.5400000012324647
100
AcDbArc
 50
184.3236295845
 51
274.1114345833
  0
ARC
  5
166
330
116
100
AcDbEntity
  8
$DDT_AUDIT_GENERATED_(15B)
  6
Continuous
 62
     7
100
AcDbCircle
 10
124.6354302792
 20
437.6567074935
 30
0.0
 40
0.5342359897700293
100
AcDbArc
 50
93.3186454448
 51
186.557048259
  0
ENDBLK
  5
168
330
116
100
AcDbEntity
  8
0
100
AcDbBlockEnd
  0
BLOCK
  5
1A3
330
169
100
AcDbEntity
  8
0
100
AcDbBlockBegin
  2
SE2
 70
     0
 10
0.0
 20
0.0
 30
0.0
  3
SE2
  1

  0
ARC
  5
16B
330
169
100
AcDbEntity
  8
$DDT_AUDIT_GENERATED_(70)
  6
Continuous
 62
     7
100
AcDbCircle
 10
978.9647487904
 20
251.102753354
 30
0.0
 40
971.4061630418303
100
AcDbArc
 50
183.7325687228
 51
183.9795686834
  0
ARC
  5
16C
330
169
100
AcDbEntity
  8
$DDT_AUDIT_GENERATED_(70)
  6
Continuous
 62
     7
100
AcDbCircle
 10
978.9647487904
 20
251.102753354
 30
0.0
 40
971.4061630418303
100
AcDbArc
 50
185.6888614918
 51
186.8263340434
  0
ARC
  5
16D
330
169
100
AcDbEntity
  8
$DDT_AUDIT_GENERATED_(70)
  6
Continuous
 62
     7
100
AcDbCircle
 10
33.635871322
 20
131.0783394874
 30
0.0
 40
18.13454514192748
100
AcDbArc
 50
219.7041520357
 51
257.9316787359
  0
ARC
  5
16E
330
169
100
AcDbEntity
  8
$DDT_AUDIT_GENERATED_(70)
  6
Continuous
 62
     7
100
AcDbCircle
 10
980.4675398378
 20
251.2179059953
 30
0.0
 40
972.9116560100059
100
AcDbArc
 50
186.8371182072
 51
186.9549772603
  0
ARC
  5
16F
330
169
100
AcDbEntity
  8
$DDT_AUDIT_GENERATED_(70)
  6
Continuous
 62
     7
100
AcDbCircle
 10
34.3979241831
 20
131.1003052126
 30
0.0
 40
18.15616188708719
100
AcDbArc
 50
325.6718605787
 51
344.6293291443
  0
ARC
  5
170
330
169
100
AcDbEntity
  8
$DDT_AUDIT_GENERATED_(70)
  6
Continuous
 62
     7
100
AcDbCircle
 10
34.3979241831
 20
131.1003052126
 30
0.0
 40
18.15616188708719
100
AcDbArc
 50
282.1094033943
 51
320.828345343
  0
ARC
  5
171
330
169
100
AcDbEntity
  8
$DDT_AUDIT_GENERATED_(70)
  6
Continuous
 62
     7
100
AcDbCircle
 10
-912.2382979973
 20
251.2030036998
 30
0.0
 40
972.732280072866
100
AcDbArc
 50
356.0199488129
 51
356.2661917372
  0
ARC
  5
172
330
169
100
AcDbEntity
  8
$DDT_AUDIT_GENERATED_(70)
  6
Continuous
 62
     7
100
AcDbCircle
 10
-912.2382979973
 20
251.2030036998
 30
0.0
 40
972.732280072866
100
AcDbArc
 50
353.1770585026
 51
354.3130249102
  0
ARC
  5
173
330
169
100
AcDbEntity
  8
$DDT_AUDIT_GENERATED_(70)
  6
Continuous
 62
     7
100
AcDbCircle
 10
41.9838165282
 20
135.6709238621
 30
0.0
 40
27.53780605159253
100
AcDbArc
 50
180.0613731723
 51
216.0019400402
  0
ARC
  5
174
330
169
100
AcDbEntity
  8
$DDT_AUDIT_GENERATED_(70)
  6
Continuous
 62
     7
100
AcDbCircle
 10
1081.7500940298
 20
259.9792892772
 30
0.0
 40
1074.56106828494
100
AcDbArc
 50
184.071253446
 51
185.6240627695
  0
ARC
  5
175
330
169
100
AcDbEntity
  8
$DDT_AUDIT_GENERATED_(70)
  6
Continuous
 62
     7
100
AcDbCircle
 10
979.852855317
 20
251.1366211441
 30
0.0
 40
972.2954319005102
100
AcDbArc
 50
182.0259559864
 51
183.7318867321
  0
ARC
  5
176
330
169
100
AcDbEntity
  8
$DDT_AUDIT_GENERATED_(70)
  6
Continuous
 62
     7
100
AcDbCircle
 10
-909.6890618525
 20
251.0355778457
 30
0.0
 40
970.1797282325119
100
AcDbArc
 50
356.2659434633
 51
357.9782674392
  0
ARC
  5
177
330
169
100
AcDbEntity
  8
$DDT_AUDIT_GENERATED_(70)
  6
Continuous
 62
     7
100
AcDbCircle
 10
-1013.3084073968
 20
259.9460859243
 30
0.0
 40
1074.168196241713
100
AcDbArc
 50
354.3756532316
 51
355.9290305382
  0
SPLINE
  5
178
330
169
100
AcDbEntity
  8
$DDT_AUDIT_GENERATED_(70)
  6
Continuous
 62
     7
100
AcDbSpline
210
0.0
220
0.0
230
1.0
 70
     8
 71
     3
 72
    20
 73
    16
 74
     0
 42
0.0000000005817605
 43
0.0000000001
 40
0.0
 40
0.0
 40
0.0
 40
0.0
 40
0.0942816259503057
 40
0.1915433681050996
 40
0.2879806477004176
 40
0.383601337394487
 40
0.4784167091560038
 40
0.5724241646312007
 40
0.6522664719600842
 40
0.7270735873268764
 40
0.7949621125915584
 40
0.8560543649953509
 40
0.9104945074736905
 40
0.9584313074108984
 40
1.0
 40
1.0
 40
1.0
 40
1.0
 10
48.38374711477179
 20
119.5367673754081
 30
0.0
 10
48.75333870681008
 20
120.0105731303923
 30
0.0
 10
49.38217519084851
 20
120.8268496193003
 30
0.0
 10
50.26148858882713
 20
122.2830785995012
 30
0.0
 10
50.99994190187815
 20
123.7732278162108
 30
0.0
 10
51.60611133721792
 20
125.3169901974244
 30
0.0
 10
52.07373655356432
 20
126.8872441658139
 30
0.0
 10
52.43908041313709
 20
128.3881370523888
 30
0.0
 10
52.75381260631012
 20
129.7805278700116
 30
0.0
 10
52.99686508737261
 20
131.032241921701
 30
0.0
 10
53.17509446694206
 20
132.1811798626805
 30
0.0
 10
53.30788981976428
 20
133.2162404138284
 30
0.0
 10
53.4202762483064
 20
134.1258921917927
 30
0.0
 10
53.52051597249203
 20
134.9411093206559
 30
0.0
 10
53.57450353147766
 20
135.3930885817295
 30
0.0
 10
53.60415769462705
 20
135.6414263639542
 30
0.0
  0
LINE
  5
179
330
169
100
AcDbEntity
  8
$DDT_AUDIT_GENERATED_(70)
  6
Continuous
 62
     7
100
AcDbLine
 10
48.3443724438
 20
119.4838532423
 30
0.0
 11
48.3837471148
 21
119.5367673754
 31
0.0
  0
SPLINE
  5
17A
330
169
100
AcDbEntity
  8
$DDT_AUDIT_GENERATED_(70)
  6
Continuous
 62
     7
100
AcDbSpline
210
0.0
220
0.0
230
1.0
 70
     8
 71
     3
 72
    23
 73
    19
 74
     0
 42
0.0000000016040066
 43
0.0000000001
 40
0.0
 40
0.0
 40
0.0
 40
0.0
 40
0.0209136093958887
 40
0.0306870843361543
 40
0.0401920060245679
 40
0.0503770009088959
 40
0.062765057739529
 40
0.0789467696296561
 40
0.1002957127321869
 40
0.1388012080179552
 40
0.1909943336878428
 40
0.2583247642493757
 40
0.3415105204753688
 40
0.441191940237661
 40
0.5579468376705333
 40
0.6923098862307936
 40
0.8447607056881246
 40
1.0
 40
1.0
 40
1.0
 40
1.0
 10
58.88325902811158
 20
195.1899809427663
 30
0.0
 10
58.88159720242442
 20
195.1598504948173
 30
0.0
 10
58.87964777555126
 20
195.1243938574694
 30
0.0
 10
58.87813477625141
 20
195.0907016888134
 30
0.0
 10
58.87810054664463
 20
195.0847597046454
 30
0.0
 10
58.879562716347
 20
195.1056021879672
 30
0.0
 10
58.88278625794806
 20
195.1586128080186
 30
0.0
 10
58.8879408117612
 20
195.2466024576082
 30
0.0
 10
58.89658259029952
 20
195.3963397850002
 30
0.0
 10
58.91005867645305
 20
195.6317551029683
 30
0.0
 10
58.92954807252769
 20
195.97409450943
 30
0.0
 10
58.95466745537398
 20
196.4186600108401
 30
0.0
 10
58.98545144890166
 20
196.9691067869045
 30
0.0
 10
59.02181134960014
 20
197.6272068350529
 30
0.0
 10
59.06370897917131
 20
198.3955355561257
 30
0.0
 10
59.11059771075964
 20
199.2677700264562
 30
0.0
 10
59.16198099687327
 20
200.2383550972518
 30
0.0
 10
59.19324662159795
 20
200.8428954611849
 30
0.0
 10
59.2119331015809
 20
201.2046811778803
 30
0.0
  0
ARC
  5
17B
330
169
100
AcDbEntity
  8
$DDT_AUDIT_GENERATED_(E9)
  6
Continuous
 62
     7
100
AcDbCircle
 10
32.8197894961
 20
122.240899145
 30
0.0
 40
2.572602114794238
100
AcDbArc
 50
99.3005764547
 51
162.4196268531
  0
ARC
  5
17C
330
169
100
AcDbEntity
  8
$DDT_AUDIT_GENERATED_(E9)
  6
Continuous
 62
     7
100
AcDbCircle
 10
54.6403141173
 20
117.4749084071
 30
0.0
 40
24.89783715270832
100
AcDbArc
 50
167.1363939255
 51
180.3158658204
  0
ARC
  5
17D
330
169
100
AcDbEntity
  8
$DDT_AUDIT_GENERATED_(E9)
  6
Continuous
 62
     7
100
AcDbCircle
 10
34.0236471674
 20
113.7030120431
 30
0.0
 40
11.19445423794436
100
AcDbArc
 50
89.9929264849
 51
98.3188107319
  0
SPLINE
  5
17E
330
169
100
AcDbEntity
  8
$DDT_AUDIT_GENERATED_(E9)
  6
Continuous
 62
     7
100
AcDbSpline
210
0.0
220
0.0
230
1.0
 70
     8
 71
     3
 72
     8
 73
     4
 74
     0
 42
0.0000000189100455
 43
0.0000000001
 40
0.8381898476853804
 40
0.8381898476853804
 40
0.8381898476853804
 40
0.8381898476853804
 40
0.8455809671995024
 40
0.8455809671995024
 40
0.8455809671995024
 40
0.8455809671995024
 10
30.48253643035844
 20
108.6149326991991
 30
0.0
 10
30.48240734522878
 20
108.61573325401
 30
0.0
 10
30.48226239206594
 20
108.6170286240043
 30
0.0
 10
30.48210139272204
 20
108.6188156036609
 30
0.0
  0
ARC
  5
17F
330
169
100
AcDbEntity
  8
$DDT_AUDIT_GENERATED_(E9)
  6
Continuous
 62
     7
100
AcDbCircle
 10
35.2239598773
 20
122.2336055688
 30
0.0
 40
2.580824368504099
100
AcDbArc
 50
17.6924268242
 51
80.5873698681
  0
ARC
  5
180
330
169
100
AcDbEntity
  8
$DDT_AUDIT_GENERATED_(E9)
  6
Continuous
 62
     7
100
AcDbCircle
 10
13.396864383
 20
117.474943578
 30
0.0
 40
24.91038612515412
100
AcDbArc
 50
359.6833817364
 51
12.8569318333
  0
ARC
  5
181
330
169
100
AcDbEntity
  8
$DDT_AUDIT_GENERATED_(E9)
  6
Continuous
 62
     7
100
AcDbCircle
 10
34.0259221378
 20
113.6962810986
 30
0.0
 40
11.2011851327237
100
AcDbArc
 50
81.6836952255
 51
90.0045675578
  0
ARC
  5
182
330
169
100
AcDbEntity
  8
$DDT_AUDIT_GENERATED_(E9)
  6
Continuous
 62
     7
100
AcDbCircle
 10
33.9601124035
 20
226.3735662977
 30
0.0
 40
27.65363943343738
100
AcDbArc
 50
294.5250421024
 51
32.0413843128
  0
SPLINE
  5
183
330
169
100
AcDbEntity
  8
$DDT_AUDIT_GENERATED_(E9)
  6
Continuous
 62
     7
100
AcDbSpline
210
0.0
220
0.0
230
1.0
 70
     8
 71
     3
 72
   152
 73
   148
 74
     0
 42
0.0000000000788785
 43
0.0000000001
 40
0.0
 40
0.0
 40
0.0
 40
0.0
 40
0.0016247334939285
 40
0.0016247334939285
 40
0.0051282755903114
 40
0.0051282755903114
 40
0.0121353597830773
 40
0.0121353597830773
 40
0.0261495281686091
 40
0.0261495281686091
 40
0.0401636965541409
 40
0.0541778649396661
 40
0.0681920333251977
 40
0.0829334628979685
 40
0.0829334628979685
 40
0.0985247201882607
 40
0.1116890608562642
 40
0.124853401524268
 40
0.138017742192265
 40
0.138017742192265
 40
0.1643464235282723
 40
0.1643464235282723
 40
0.1775107641962759
 40
0.1775107641962759
 40
0.1906751048642731
 40
0.1906751048642731
 40
0.2083713223478569
 40
0.2170037862002804
 40
0.2256362500526977
 40
0.2342687139051212
 40
0.2342687139051212
 40
0.2515336416099686
 40
0.2515336416099686
 40
0.2860634970196501
 40
0.2860634970196501
 40
0.3033284247244974
 40
0.3033284247244974
 40
0.3205933524293382
 40
0.3205933524293382
 40
0.3513481308448105
 40
0.3551232078390263
 40
0.3588982848332422
 40
0.3626733618274515
 40
0.3626733618274515
 40
0.3702235158158812
 40
0.3702235158158812
 40
0.385323823792736
 40
0.385323823792736
 40
0.4004241317695916
 40
0.4004241317695916
 40
0.4155244397464464
 40
0.4155244397464464
 40
0.4457250557001568
 40
0.4457250557001568
 40
0.4608253636770123
 40
0.4608253636770123
 40
0.4714980435123846
 40
0.4759256716538671
 40
0.4803532997953496
 40
0.4847809279368321
 40
0.4847809279368321
 40
0.4936361842197971
 40
0.4936361842197971
 40
0.5024914405027628
 40
0.5024914405027628
 40
0.5113466967857279
 40
0.5113466967857279
 40
0.5290572093516587
 40
0.5290572093516587
 40
0.5379124656346236
 40
0.5467677219175886
 40
0.5556229782005536
 40
0.5742831242048111
 40
0.5742831242048111
 40
0.5880408253484218
 40
0.6017985264920335
 40
0.6155562276356443
 40
0.6323605451214103
 40
0.6323605451214103
 40
0.647641554436099
 40
0.6629225637507878
 40
0.678203573065476
 40
0.7035939273234583
 40
0.7125440652940089
 40
0.7214942032645589
 40
0.730444341235109
 40
0.730444341235109
 40
0.7483446171762091
 40
0.7483446171762091
 40
0.7572947551467593
 40
0.7572947551467593
 40
0.7662448931173093
 40
0.7662448931173093
 40
0.7751950310878594
 40
0.7751950310878594
 40
0.7796701000731346
 40
0.7796701000731346
 40
0.7819076345657721
 40
0.7841451690584094
 40
0.7863827035510467
 40
0.7920464901339056
 40
0.7920464901339056
 40
0.7999478112094011
 40
0.7999478112094011
 40
0.8078491322848973
 40
0.8078491322848973
 40
0.8157504533603935
 40
0.8157504533603935
 40
0.8236517744358891
 40
0.8236517744358891
 40
0.8315530955113853
 40
0.8315530955113853
 40
0.8394544165868809
 40
0.8394544165868809
 40
0.8434050771246288
 40
0.8473557376623769
 40
0.8513063982001251
 40
0.8607613839488228
 40
0.8607613839488228
 40
0.8741670302352685
 40
0.8741670302352685
 40
0.8875726765217133
 40
0.8875726765217133
 40
0.8942754996649366
 40
0.8942754996649366
 40
0.8979570897453818
 40
0.9009783228081594
 40
0.9039995558709369
 40
0.9070207889337145
 40
0.9070207889337145
 40
0.9130632550592693
 40
0.9130632550592693
 40
0.9251481873103796
 40
0.9251481873103796
 40
0.9372331195614899
 40
0.9372331195614899
 40
0.9432755856870443
 40
0.9493180518125994
 40
0.9553605179381546
 40
0.9656817059325978
 40
0.9656817059325978
 40
0.9740905818852967
 40
0.9820453600525959
 40
0.9900001382198951
 40
0.9979549163871938
 40
0.9979549163871938
 40
1.0
 40
1.0
 40
1.0
 40
1.0
 10
48.64442479504809
 20
249.7800707727737
 30
0.0
 10
48.64867391784112
 20
249.776464166913
 30
0.0
 10
48.65282973462806
 20
249.7725068992216
 30
0.0
 10
48.66589739759286
 20
249.7587362816825
 30
0.0
 10
48.67424916877516
 20
249.7480090754529
 30
0.0
 10
48.69862386495771
 20
249.7102041509839
 30
0.0
 10
48.71297768015189
 20
249.6789696769183
 30
0.0
 10
48.7513043526034
 20
249.5668686352407
 30
0.0
 10
48.77042763052795
 20
249.4679680970545
 30
0.0
 10
48.79604794615285
 20
249.2243066740579
 30
0.0
 10
48.80896146505393
 20
248.9341322551743
 30
0.0
 10
48.79000488402487
 20
248.3762879133671
 30
0.0
 10
48.728860655486
 20
247.6720123418898
 30
0.0
 10
48.65814177291448
 20
247.1207389091921
 30
0.0
 10
48.56615243968166
 20
246.4973988875936
 30
0.0
 10
48.46198866424785
 20
245.8679888080979
 30
0.0
 10
48.25842945692588
 20
244.8337029044019
 30
0.0
 10
48.03193831041732
 20
243.8125764978889
 30
0.0
 10
47.84856113869181
 20
243.0693906666814
 30
0.0
 10
47.55018714181646
 20
241.9218155299509
 30
0.0
 10
47.31900968720307
 20
241.10593761614
 30
0.0
 10
46.91915492366772
 20
239.8093585463913
 30
0.0
 10
46.77425346869467
 20
239.3582155281752
 30
0.0
 10
46.46752193129068
 20
238.4500525395492
 30
0.0
 10
46.30147075514523
 20
237.9784173764177
 30
0.0
 10
45.89404141261142
 20
236.8547793422251
 30
0.0
 10
45.51940279667643
 20
235.8633579323454
 30
0.0
 10
44.99955569923862
 20
234.4941885731526
 30
0.0
 10
44.60517320126444
 20
233.4442310303465
 30
0.0
 10
44.33999364269379
 20
232.7293337870181
 30
0.0
 10
43.93917385402158
 20
231.6433755940771
 30
0.0
 10
43.67072055529819
 20
230.909095697345
 30
0.0
 10
42.86110756913406
 20
228.6610056431263
 30
0.0
 10
42.31643616683542
 20
227.1058742830312
 30
0.0
 10
41.52093523421116
 20
224.7278356938993
 30
0.0
 10
41.25696546685174
 20
223.920284295119
 30
0.0
 10
40.74089910686174
 20
222.3001268406606
 30
0.0
 10
40.48559647878313
 20
221.476969492873
 30
0.0
 10
39.79341727294389
 20
219.1744796605594
 30
0.0
 10
39.31759879831318
 20
217.4869753198997
 30
0.0
 10
38.82632651949798
 20
215.5921970191314
 30
0.0
 10
38.68706330145027
 20
215.0434612270106
 30
0.0
 10
38.59722831090573
 20
214.681252869513
 30
0.0
 10
38.46196844274681
 20
214.1289920607626
 30
0.0
 10
38.37346636719069
 20
213.7586605737177
 30
0.0
 10
38.11538348876996
 20
212.6542353014806
 30
0.0
 10
37.94831857542627
 20
211.9137911325564
 30
0.0
 10
37.65006014557307
 20
210.4125411052972
 30
0.0
 10
37.51988314171252
 20
209.6633044673931
 30
0.0
 10
37.29355691723708
 20
208.1479628210204
 30
0.0
 10
37.19744759329548
 20
207.3824741432255
 30
0.0
 10
36.95530837136075
 20
205.0913035534022
 30
0.0
 10
36.85293011896534
 20
203.5484171436759
 30
0.0
 10
36.76219540791814
 20
201.2307314321318
 30
0.0
 10
36.74215722812051
 20
200.4604137504111
 30
0.0
 10
36.72039908714599
 20
199.1347330714297
 30
0.0
 10
36.7117965159384
 20
198.3629568030894
 30
0.0
 10
36.71046967263261
 20
197.3618609316588
 30
0.0
 10
36.71417588513098
 20
196.663257208812
 30
0.0
 10
36.71741003316711
 20
196.2019849800349
 30
0.0
 10
36.72142252699553
 20
195.5047137938703
 30
0.0
 10
36.72289755572597
 20
195.0448484022452
 30
0.0
 10
36.71959474727217
 20
194.1152179578897
 30
0.0
 10
36.71454678716963
 20
193.6517555441486
 30
0.0
 10
36.70193018672069
 20
192.7274001082069
 30
0.0
 10
36.69507489496868
 20
192.2590328633413
 30
0.0
 10
36.6749160400656
 20
190.8722859480766
 30
0.0
 10
36.66092415382857
 20
189.9396973923839
 30
0.0
 10
36.63969951093024
 20
188.5502929401985
 30
0.0
 10
36.62541239308635
 20
187.6233051935656
 30
0.0
 10
36.6035034031522
 20
186.2258580542451
 30
0.0
 10
36.57356310318234
 20
184.3503806136358
 30
0.0
 10
36.55022237477989
 20
182.9260336000154
 30
0.0
 10
36.52232829723986
 20
181.2495455331856
 30
0.0
 10
36.49839337112258
 20
179.8267809422065
 30
0.0
 10
36.46165370863014
 20
177.6871568827115
 30
0.0
 10
36.42186593695125
 20
175.4130201060518
 30
0.0
 10
36.39386190023505
 20
173.843121946836
 30
0.0
 10
36.36411925263475
 20
172.1915079162247
 30
0.0
 10
36.33568560223349
 20
170.6256964783474
 30
0.0
 10
36.29210106993987
 20
168.260594522642
 30
0.0
 10
36.23884368673662
 20
165.4081968209389
 30
0.0
 10
36.19075603820441
 20
162.8698699050169
 30
0.0
 10
36.14858064162673
 20
160.6559680787861
 30
0.0
 10
36.12250323286109
 20
159.2889484913025
 30
0.0
 10
36.10510857978625
 20
158.3774058165506
 30
0.0
 10
36.07883467125464
 20
157.0119160681624
 30
0.0
 10
36.06036250148472
 20
156.0959122229846
 30
0.0
 10
36.03567205898616
 20
154.7314180380353
 30
0.0
 10
36.02777269210259
 20
154.275238888868
 30
0.0
 10
36.01023475994892
 20
153.3612259050535
 30
0.0
 10
36.00034345465586
 20
152.9060544978302
 30
0.0
 10
35.97873552134856
 20
151.9951562847469
 30
0.0
 10
35.96791043108364
 20
151.5389615339515
 30
0.0
 10
35.95842371764421
 20
150.8568639183954
 30
0.0
 10
35.95634211322268
 20
150.6230024445067
 30
0.0
 10
35.9551711415841
 20
150.2853333993455
 30
0.0
 10
35.95512901627116
 20
150.0574645882
 30
0.0
 10
35.95595709627698
 20
149.71107300128
 30
0.0
 10
35.9574616648617
 20
149.2136986496295
 30
0.0
 10
35.95582190007822
 20
148.8170685401634
 30
0.0
 10
35.95016950645005
 20
148.1454883433146
 30
0.0
 10
35.94501171112933
 20
147.7542317396595
 30
0.0
 10
35.93670280977197
 20
146.9705707181136
 30
0.0
 10
35.9328763791212
 20
146.5788230422909
 30
0.0
 10
35.92490725352233
 20
145.794563033526
 30
0.0
 10
35.92071556490693
 20
145.4008914815134
 30
0.0
 10
35.9133386217383
 20
144.6194949406557
 30
0.0
 10
35.90999474367334
 20
144.2278567978386
 30
0.0
 10
35.90278366174336
 20
143.4418469241143
 30
0.0
 10
35.89861078612343
 20
143.0550222322519
 30
0.0
 10
35.88938866708092
 20
142.2749038490932
 30
0.0
 10
35.88521993351959
 20
141.8923455662121
 30
0.0
 10
35.88017014880214
 20
141.3259819120579
 30
0.0
 10
35.87718075310465
 20
140.9509312335584
 30
0.0
 10
35.8737863329611
 20
140.4039041248542
 30
0.0
 10
35.8700725709191
 20
139.6019345928284
 30
0.0
 10
35.86911238087851
 20
139.0102317975697
 30
0.0
 10
35.868137537998
 20
138.0303648058981
 30
0.0
 10
35.86835375077789
 20
137.4800700043391
 30
0.0
 10
35.86439320402833
 20
136.4332447531291
 30
0.0
 10
35.86009192606351
 20
135.9318406055359
 30
0.0
 10
35.84618119789289
 20
135.220000635082
 30
0.0
 10
35.84026045100037
 20
134.984948333611
 30
0.0
 10
35.82911726849719
 20
134.6342678612981
 30
0.0
 10
35.82143750876882
 20
134.410117327408
 30
0.0
 10
35.81047970085862
 20
134.0895134486685
 30
0.0
 10
35.80199508141762
 20
133.7989324462023
 30
0.0
 10
35.7971047157796
 20
133.6066824805368
 30
0.0
 10
35.79007281801893
 20
133.3177554870097
 30
0.0
 10
35.78580769837566
 20
133.1280959253728
 30
0.0
 10
35.77412062421455
 20
132.5584555161136
 30
0.0
 10
35.76782376838672
 20
132.1848223729382
 30
0.0
 10
35.75623048222756
 20
131.4384701527344
 30
0.0
 10
35.75103138750575
 20
131.0663251903576
 30
0.0
 10
35.74239674540579
 20
130.5066484745496
 30
0.0
 10
35.73626836299868
 20
130.1317051988538
 30
0.0
 10
35.72655378266259
 20
129.5713783489817
 30
0.0
 10
35.71447076604667
 20
128.8652351312735
 30
0.0
 10
35.70565944768931
 20
128.3523556727686
 30
0.0
 10
35.69556730348638
 20
127.7643951917444
 30
0.0
 10
35.68673610606364
 20
127.2497386197258
 30
0.0
 10
35.67364105467058
 20
126.4892060578323
 30
0.0
 10
35.6606442802148
 20
125.7302974774937
 30
0.0
 10
35.65264827655091
 20
125.2271452632927
 30
0.0
 10
35.64794292435312
 20
124.9093810724603
 30
0.0
 10
35.64698780459771
 20
124.8445060552484
 30
0.0
 10
35.64603676137988
 20
124.779682065131
 30
0.0
  0
ARC
  5
184
330
169
100
AcDbEntity
  8
$DDT_AUDIT_GENERATED_(E9)
  6
Continuous
 62
     7
100
AcDbCircle
 10
34.0239767157
 20
226.3671665232
 30
0.0
 40
27.60292715350793
100
AcDbArc
 50
32.1229742305
 51
58.0168253943
  0
ARC
  5
185
330
169
100
AcDbEntity
  8
$DDT_AUDIT_GENERATED_(E9)
  6
Continuous
 62
     7
100
AcDbCircle
 10
34.0222480539
 20
226.336356108
 30
0.0
 40
27.62998027380679
100
AcDbArc
 50
58.0476259981
 51
89.9942328066
  0
SPLINE
  5
186
330
169
100
AcDbEntity
  8
$DDT_AUDIT_GENERATED_(E9)
  6
Continuous
 62
     7
100
AcDbSpline
210
0.0
220
0.0
230
1.0
 70
     8
 71
     3
 72
    60
 73
    56
 74
     0
 42
0.0000000000788707
 43
0.0000000001
 40
0.0
 40
0.0
 40
0.0
 40
0.0
 40
0.0072507887678891
 40
0.0141387748460004
 40
0.0302002097598245
 40
0.0623769676872502
 40
0.0840593324921417
 40
0.1270949037189028
 40
0.1588666002833967
 40
0.174764514432181
 40
0.190658899648621
 40
0.222443739666191
 40
0.2545085808829827
 40
0.2866046141196667
 40
0.3026454599257423
 40
0.3186794109543969
 40
0.3507726042443701
 40
0.3823589673061514
 40
0.3901736089094497
 40
0.3980087920994771
 40
0.4136348450262606
 40
0.4449166441446628
 40
0.4605534500616089
 40
0.4761898308893023
 40
0.491959162439509
 40
0.4983232368070145
 40
0.5078696545284442
 40
0.5316220699580835
 40
0.5494345391194194
 40
0.580275725832631
 40
0.6517378101147117
 40
0.7049627565016764
 40
0.7579192392169437
 40
0.7656357062013467
 40
0.7733483736430736
 40
0.7810545571774503
 40
0.7887676000028128
 40
0.7926187685185482
 40
0.7963669490283128
 40
0.8038753852188398
 40
0.8188919447408555
 40
0.8263954473312614
 40
0.8339035772109913
 40
0.8414132413927832
 40
0.8489174333196083
 40
0.8640407025968313
 40
0.8716360192301007
 40
0.8792284396546926
 40
0.8944095970405435
 40
0.9020088916386093
 40
0.9095269591418964
 40
0.9244862793298478
 40
0.9394493731841116
 40
0.9695787367642439
 40
1.0
 40
1.0
 40
1.0
 40
1.0
 10
19.40564049674613
 20
249.7800751450063
 30
0.0
 10
19.3878870999234
 20
249.7604265086014
 30
0.0
 10
19.35334644604976
 20
249.722164706349
 30
0.0
 10
19.29709295778277
 20
249.5749706655922
 30
0.0
 10
19.23185347072977
 20
249.1652582747739
 30
0.0
 10
19.25308151148992
 20
248.2762836640242
 30
0.0
 10
19.45193720359448
 20
246.5612533551388
 30
0.0
 10
19.87116539118763
 20
244.3177041790769
 30
0.0
 10
20.55076924684337
 20
241.703079367272
 30
0.0
 10
21.1712474227456
 20
239.6601230800501
 30
0.0
 10
21.90888388638166
 20
237.4813578694705
 30
0.0
 10
23.05735054388736
 20
234.4981849689508
 30
0.0
 10
24.5079165994719
 20
230.5829022408285
 30
0.0
 10
25.73994660844055
 20
227.0970899131259
 30
0.0
 10
26.70209594362372
 20
224.2096226207951
 30
0.0
 10
27.64155337583583
 20
221.2628750819332
 30
0.0
 10
28.74788967253838
 20
217.5022241496668
 30
0.0
 10
29.6265719125967
 20
214.0334925763604
 30
0.0
 10
30.14367295918249
 20
211.7093486374326
 30
0.0
 10
30.45130037652785
 20
210.1586610466499
 30
0.0
 10
30.8866627540622
 20
207.4135125171654
 30
0.0
 10
31.1696982949306
 20
204.2292994287932
 30
0.0
 10
31.29975236589576
 20
201.0269221944545
 30
0.0
 10
31.34295550946464
 20
198.6117810513846
 30
0.0
 10
31.33593100553534
 20
196.6698556092443
 30
0.0
 10
31.32564512678977
 20
195.0391645123654
 30
0.0
 10
31.33799188702835
 20
192.9952628757169
 30
0.0
 10
31.38398524274288
 20
190.361937963013
 30
0.0
 10
31.43915397882373
 20
186.6291930719987
 30
0.0
 10
31.53995642221966
 20
180.4342857163702
 30
0.0
 10
31.68061853017763
 20
172.4064966800864
 30
0.0
 10
31.85029372552771
 20
163.2306128109724
 30
0.0
 10
31.96862283105327
 20
157.3443425420754
 30
0.0
 10
32.03048019802089
 20
153.8088098171269
 30
0.0
 10
32.05593607705278
 20
152.6127839873986
 30
0.0
 10
32.08602896271552
 20
151.4169825229314
 30
0.0
 10
32.09652120517782
 20
150.4202426853149
 30
0.0
 10
32.09358862774707
 20
149.6280948290933
 30
0.0
 10
32.09266600127325
 20
148.8465307077625
 30
0.0
 10
32.10782591186467
 20
147.4878438220707
 30
0.0
 10
32.12422518275122
 20
145.9339829666995
 30
0.0
 10
32.13886317452255
 20
144.3826613529353
 30
0.0
 10
32.14909395411173
 20
143.2177905184705
 30
0.0
 10
32.16354040631506
 20
142.0615478112
 30
0.0
 10
32.17683563061968
 20
140.5598113856576
 30
0.0
 10
32.18135987892706
 20
139.1368133933831
 30
0.0
 10
32.18174204358605
 20
137.8179400765256
 30
0.0
 10
32.18369818575368
 20
136.565465808776
 30
0.0
 10
32.19465514684946
 20
135.4124686027615
 30
0.0
 10
32.23089255528512
 20
134.3581412283669
 30
0.0
 10
32.26179244563501
 20
133.349194998008
 30
0.0
 10
32.28404351265579
 20
132.1242801495031
 30
0.0
 10
32.31110595280261
 20
130.1941581321866
 30
0.0
 10
32.35600023340492
 20
127.7335781590047
 30
0.0
 10
32.38796220739202
 20
125.7674774303186
 30
0.0
 10
32.40402162136648
 20
124.779682065131
 30
0.0
  0
ARC
  5
187
330
169
100
AcDbEntity
  8
$DDT_AUDIT_GENERATED_(E9)
  6
Continuous
 62
     7
100
AcDbCircle
 10
34.0278291668
 20
226.336289969
 30
0.0
 40
27.63004641472425
100
AcDbArc
 50
90.0058062434
 51
121.9523176103
  0
ARC
  5
188
330
169
100
AcDbEntity
  8
$DDT_AUDIT_GENERATED_(E9)
  6
Continuous
 62
     7
100
AcDbCircle
 10
34.0257495002
 20
226.3674990924
 30
0.0
 40
27.6024691774784
100
AcDbArc
 50
121.9829384494
 51
147.876956935
  0
ARC
  5
189
330
169
100
AcDbEntity
  8
$DDT_AUDIT_GENERATED_(E9)
  6
Continuous
 62
     7
100
AcDbCircle
 10
34.0899452656
 20
226.3735660627
 30
0.0
 40
27.6536389354638
100
AcDbArc
 50
147.9583281701
 51
245.4606744334
  0
ARC
  5
18A
330
169
100
AcDbEntity
  8
$DDT_AUDIT_GENERATED_(E9)
  6
Continuous
 62
     7
100
AcDbCircle
 10
79.5749475091
 20
116.7949596412
 30
0.0
 40
49.83504884123223
100
AcDbArc
 50
179.3716051064
 51
184.5555299072
  0
ARC
  5
18B
330
169
100
AcDbEntity
  8
$DDT_AUDIT_GENERATED_(E9)
  6
Continuous
 62
     7
100
AcDbCircle
 10
33.1705225216
 20
109.1094338107
 30
0.0
 40
2.732811989429137
100
AcDbArc
 50
190.3400421985
 51
254.8906122649
  0
ARC
  5
18C
330
169
100
AcDbEntity
  8
$DDT_AUDIT_GENERATED_(E9)
  6
Continuous
 62
     7
100
AcDbCircle
 10
34.0232866652
 20
116.6222093856
 30
0.0
 40
10.27094310328033
100
AcDbArc
 50
261.0773907823
 51
270.0097205985
  0
ARC
  5
18D
330
169
100
AcDbEntity
  8
$DDT_AUDIT_GENERATED_(E9)
  6
Continuous
 62
     7
100
AcDbCircle
 10
84.4621161082
 20
118.241534776
 30
0.0
 40
54.8311867659296
100
AcDbArc
 50
185.6648405859
 51
190.106677815
  0
SPLINE
  5
18E
330
169
100
AcDbEntity
  8
$DDT_AUDIT_GENERATED_(E9)
  6
Continuous
 62
     7
100
AcDbSpline
210
0.0
220
0.0
230
1.0
 70
     8
 71
     3
 72
    47
 73
    43
 74
     0
 42
0.0000000001024602
 43
0.0000000001
 40
0.1079751478339843
 40
0.1079751478339843
 40
0.1079751478339843
 40
0.1079751478339843
 40
0.1160547330003599
 40
0.1260391796199166
 40
0.1355245123068376
 40
0.1473977303257213
 40
0.1571270472280492
 40
0.1666241799079383
 40
0.176166035748957
 40
0.1951086338281229
 40
0.2197543792406844
 40
0.2430397985887403
 40
0.2606626881748059
 40
0.2754334783054649
 40
0.2942358874333686
 40
0.3135110839185097
 40
0.331270507622879
 40
0.3482724476309661
 40
0.3626815903988432
 40
0.3768977684337258
 40
0.3890870855006332
 40
0.3963393643179727
 40
0.4032740487054368
 40
0.4128095462029657
 40
0.4258510893394032
 40
0.4438569907952884
 40
0.4855278179099342
 40
0.5624992642030515
 40
0.6358857950560785
 40
0.7115393072175848
 40
0.7473637261656809
 40
0.7779975807946411
 40
0.8057781274167929
 40
0.8301709888605446
 40
0.84856740733442
 40
0.8615113019866888
 40
0.8757422181798025
 40
0.89540059988489
 40
0.9173744970233957
 40
0.9435919012124914
 40
0.9740764207353791
 40
1.0
 40
1.0
 40
1.0
 40
1.0
 10
21.42974110756061
 20
202.6377563007454
 30
0.0
 10
21.42977469816599
 20
202.6376725176483
 30
0.0
 10
21.44381605230248
 20
202.6250471860527
 30
0.0
 10
21.51596648004237
 20
202.5570217398123
 30
0.0
 10
21.65469958230174
 20
202.4146188245572
 30
0.0
 10
21.85016524370779
 20
202.1995542958986
 30
0.0
 10
22.10243814372478
 20
201.8985320183782
 30
0.0
 10
22.40628046604627
 20
201.5149350186037
 30
0.0
 10
22.86021926253287
 20
200.903084501628
 30
0.0
 10
23.59197589754974
 20
199.8488639019233
 30
0.0
 10
24.56818449395655
 20
198.2469990435423
 30
0.0
 10
25.47621752464638
 20
196.4884570520238
 30
0.0
 10
26.19334844434036
 20
194.852593499154
 30
0.0
 10
26.7963920017467
 20
193.2833226135321
 30
0.0
 10
27.34079186551733
 20
191.5478456378146
 30
0.0
 10
27.82371073359448
 20
189.6914438117989
 30
0.0
 10
28.22079600077575
 20
187.7818228076469
 30
0.0
 10
28.50489546478079
 20
186.0142524933138
 30
0.0
 10
28.71333357581885
 20
184.3519680490188
 30
0.0
 10
28.85572720335573
 20
182.8535169467042
 30
0.0
 10
28.9432523536969
 20
181.6131149209817
 30
0.0
 10
28.99703316080224
 20
180.6347573549553
 30
0.0
 10
29.03625084923895
 20
179.74544045889
 30
0.0
 10
29.07336684814401
 20
178.6339162724202
 30
0.0
 10
29.10299251135821
 20
177.1008289429381
 30
0.0
 10
29.11942763243641
 20
174.3490909438912
 30
0.0
 10
29.0427265105084
 20
169.1708624477017
 30
0.0
 10
29.05946677705484
 20
161.8746907733109
 30
0.0
 10
29.31563914922534
 20
153.2644182425577
 30
0.0
 10
29.41776781824647
 20
146.2141766087819
 30
0.0
 10
29.49907851099712
 20
140.7804964349163
 30
0.0
 10
29.53999197004463
 20
137.2269494283233
 30
0.0
 10
29.57951754772738
 20
134.1929307342675
 30
0.0
 10
29.62192190531023
 20
131.6936077170323
 30
0.0
 10
29.6501813521272
 20
129.7815315795737
 30
0.0
 10
29.67178591073375
 20
128.3046163165
 30
0.0
 10
29.69648453119084
 20
126.8299074783928
 30
0.0
 10
29.71349583480617
 20
125.1798130341643
 30
0.0
 10
29.71490084102021
 20
123.2714231794951
 30
0.0
 10
29.72441167090049
 20
121.3739682121089
 30
0.0
 10
29.73225046781629
 20
119.2986435531677
 30
0.0
 10
29.73941825142181
 20
118.0213944381427
 30
0.0
 10
29.74323353207725
 20
117.3220191028897
 30
0.0
  0
ARC
  5
18F
330
169
100
AcDbEntity
  8
$DDT_AUDIT_GENERATED_(E9)
  6
Continuous
 62
     7
100
AcDbCircle
 10
-13.2372095485
 20
116.8536650763
 30
0.0
 40
51.54668066927521
100
AcDbArc
 50
355.5305932888
 51
0.5422716977
  0
ARC
  5
190
330
169
100
AcDbEntity
  8
$DDT_AUDIT_GENERATED_(E9)
  6
Continuous
 62
     7
100
AcDbCircle
 10
34.885281153
 20
109.1041479067
 30
0.0
 40
2.726214423657825
100
AcDbArc
 50
285.0217728494
 51
349.7475726871
  0
ARC
  5
191
330
169
100
AcDbEntity
  8
$DDT_AUDIT_GENERATED_(E9)
  6
Continuous
 62
     7
100
AcDbCircle
 10
34.0267717176
 20
116.6222093849
 30
0.0
 40
10.27094310253086
100
AcDbArc
 50
269.9902794012
 51
278.9226093487
  0
ARC
  5
192
330
169
100
AcDbEntity
  8
$DDT_AUDIT_GENERATED_(E9)
  6
Continuous
 62
     7
100
AcDbCircle
 10
-17.7317232209
 20
118.4242170199
 30
0.0
 40
56.16244245691794
100
AcDbArc
 50
349.9462133426
 51
354.2830544852
  0
SPLINE
  5
193
330
169
100
AcDbEntity
  8
$DDT_AUDIT_GENERATED_(E9)
  6
Continuous
 62
     7
100
AcDbSpline
210
0.0
220
0.0
230
1.0
 70
     8
 71
     3
 72
    66
 73
    62
 74
     0
 42
0.0000000001025734
 43
0.0000000001
 40
0.0
 40
0.0
 40
0.0
 40
0.0
 40
0.0161503737695325
 40
0.0391247299506837
 40
0.0598919209226996
 40
0.0785683334488125
 40
0.0950685399345692
 40
0.1101169705972272
 40
0.1237192196393099
 40
0.13428732265688
 40
0.1433774255945632
 40
0.1527254742730043
 40
0.1663835788047891
 40
0.1842636790459626
 40
0.2038809150850533
 40
0.2252430548218596
 40
0.2480981667796748
 40
0.2714385969693134
 40
0.3069063675637191
 40
0.3417338081479554
 40
0.3792289883942285
 40
0.427150947653494
 40
0.4766197356782013
 40
0.5281585843966117
 40
0.550936985892922
 40
0.564503530229608
 40
0.5764275754280963
 40
0.5863268162670843
 40
0.5946016643982562
 40
0.5991723059187732
 40
0.6027600653454859
 40
0.6060542701251093
 40
0.6110732212683312
 40
0.617796593850308
 40
0.626135041013546
 40
0.6345580740414682
 40
0.644114641179926
 40
0.6569640823906375
 40
0.6698212092836895
 40
0.6830710767748649
 40
0.6976199939109398
 40
0.7114649275277399
 40
0.7233081569670908
 40
0.7328635578920033
 40
0.7410114486183665
 40
0.7519449989472522
 40
0.7629270280768436
 40
0.7738852149854418
 40
0.7854818522679039
 40
0.796131985838382
 40
0.805683942066094
 40
0.8161672144762747
 40
0.8277545361158969
 40
0.8383938860736954
 40
0.848478847410135
 40
0.8565142694681449
 40
0.8639602887963388
 40
0.8721977599433492
 40
0.881761904214897
 40
0.8909874529905246
 40
0.8929733846744663
 40
0.8929733846744663
 40
0.8929733846744663
 40
0.8929733846744663
 10
38.30682609999349
 20
117.3220208187309
 30
0.0
 10
38.30920363550278
 20
117.7576980188677
 30
0.0
 10
38.3140400301092
 20
118.6404589635285
 30
0.0
 10
38.32103273048595
 20
120.162495846613
 30
0.0
 10
38.32786989265738
 20
121.6515816554201
 30
0.0
 10
38.33210454330976
 20
123.0416147881701
 30
0.0
 10
38.33842234318244
 20
124.3943666028461
 30
0.0
 10
38.33869981941555
 20
125.6869670375744
 30
0.0
 10
38.35598900348717
 20
126.8637744958908
 30
0.0
 10
38.3717508691467
 20
127.8993636385462
 30
0.0
 10
38.38537575785393
 20
128.8264519398537
 30
0.0
 10
38.40111320961617
 20
129.8792534202734
 30
0.0
 10
38.42366647823832
 20
131.2758005720784
 30
0.0
 10
38.44887720030505
 20
133.0706461059627
 30
0.0
 10
38.48666307027614
 20
135.1880683820564
 30
0.0
 10
38.51170168000149
 20
137.5459111481474
 30
0.0
 10
38.54438269420803
 20
140.0831343395028
 30
0.0
 10
38.58348074095331
 20
143.2034815277081
 30
0.0
 10
38.64969562675499
 20
146.773237019125
 30
0.0
 10
38.68195580963811
 20
150.8920742273237
 30
0.0
 10
38.82131863125286
 20
155.4708742480026
 30
0.0
 10
38.93251107412185
 20
160.6100054645848
 30
0.0
 10
39.01512705943388
 20
166.2725170378151
 30
0.0
 10
38.97635491909065
 20
170.9705077289468
 30
0.0
 10
38.93777296083179
 20
174.2995558044411
 30
0.0
 10
38.9412086530007
 20
176.1268808068751
 30
0.0
 10
38.9531082231609
 20
177.4651170456891
 30
0.0
 10
38.97744735547602
 20
178.6019051175481
 30
0.0
 10
39.00372125767043
 20
179.4588660486745
 30
0.0
 10
39.02842448224212
 20
180.0760782946305
 30
0.0
 10
39.04778638435977
 20
180.5049698414954
 30
0.0
 10
39.07022073563407
 20
180.9482113805459
 30
0.0
 10
39.10184163514088
 20
181.505065891831
 30
0.0
 10
39.15107988488276
 20
182.2465379069097
 30
0.0
 10
39.2195732379141
 20
183.1093078050044
 30
0.0
 10
39.31201467075815
 20
184.076230742789
 30
0.0
 10
39.44026161411789
 20
185.2006680275882
 30
0.0
 10
39.61748118397981
 20
186.4830987218346
 30
0.0
 10
39.85380269762642
 20
187.8750667674591
 30
0.0
 10
40.14686416378783
 20
189.3203318860218
 30
0.0
 10
40.49169090050312
 20
190.7213845399111
 30
0.0
 10
40.86679891507014
 20
192.059508119966
 30
0.0
 10
41.23561075435232
 20
193.1997324181665
 30
0.0
 10
41.57705086275061
 20
194.1242577751911
 30
0.0
 10
41.92091218629581
 20
194.9896338950483
 30
0.0
 10
42.3047099823869
 20
195.8748498094733
 30
0.0
 10
42.74383576081527
 20
196.8038897709783
 30
0.0
 10
43.2082093609251
 20
197.7096997638792
 30
0.0
 10
43.67668464072836
 20
198.5475203275734
 30
0.0
 10
44.13300230575941
 20
199.3127189501105
 30
0.0
 10
44.57061332882508
 20
199.995704932706
 30
0.0
 10
45.01335233568654
 20
200.6503503320646
 30
0.0
 10
45.4373260856568
 20
201.2414592167343
 30
0.0
 10
45.80501241631427
 20
201.7222101208578
 30
0.0
 10
46.07394844967
 20
202.050828924361
 30
0.0
 10
46.25786248161251
 20
202.263493671886
 30
0.0
 10
46.39921408702698
 20
202.4179155984809
 30
0.0
 10
46.51443578436754
 20
202.536949088242
 30
0.0
 10
46.58938542161731
 20
202.6098249289142
 30
0.0
 10
46.61874157684934
 20
202.6362336639226
 30
0.0
 10
46.62118764005707
 20
202.6383934483797
 30
0.0
 10
46.62116273354057
 20
202.6383750723379
 30
0.0
  0
ELLIPSE
  5
194
330
169
100
AcDbEntity
  8
$DDT_AUDIT_GENERATED_(15B)
  6
Continuous
 62
     7
100
AcDbEllipse
 10
34.0250919847
 20
264.3114970291
 30
0.0
 11
-2.799999999999997
 21
1.375982661144803E-11
 31
0.0
210
0.0
220
0.0
230
1.0
 40
0.0271119041
 41
0.0
 42
0.0021345434024875
  0
ELLIPSE
  5
195
330
169
100
AcDbEntity
  8
$DDT_AUDIT_GENERATED_(15B)
  6
Continuous
 62
     7
100
AcDbEllipse
 10
34.0250919847
 20
264.3114970291
 30
0.0
 11
-2.799999999999997
 21
1.375982661144803E-11
 31
0.0
210
0.0
220
0.0
230
1.0
 40
0.0271119041
 41
3.141592653589842
 42
6.283185307178886
  0
ELLIPSE
  5
196
330
169
100
AcDbEntity
  8
$DDT_AUDIT_GENERATED_(15B)
  6
Continuous
 62
     7
100
AcDbEllipse
 10
34.0250919847
 20
256.7915541458
 30
0.0
 11
-2.0
 21
-1.387778780781446E-14
 31
0.0
210
0.0
220
0.0
230
1.0
 40
0.9396926208
 41
0.1184159798435716
 42
3.022892780436051
  0
SPLINE
  5
197
330
169
100
AcDbEntity
  8
$DDT_AUDIT_GENERATED_(15B)
  6
Continuous
 62
     7
100
AcDbSpline
210
0.0
220
0.0
230
1.0
 70
     8
 71
     3
 72
    10
 73
     6
 74
     0
 42
0.0000000007096755
 43
0.0000000001
 40
0.0
 40
0.0
 40
0.0
 40
0.0
 40
0.1250000000000089
 40
0.1250000000000089
 40
0.1865996899362192
 40
0.1865996899362192
 40
0.1865996899362192
 40
0.1865996899362192
 10
34.02509198472572
 20
273.7287525471823
 30
0.0
 10
34.62306639523241
 20
273.7287525471821
 30
0.0
 10
35.20617755272593
 20
273.6489040298674
 30
0.0
 10
36.05300448208099
 20
273.4155062107314
 30
0.0
 10
36.32304987114585
 20
273.3210430681863
 30
0.0
 10
36.57905048787938
 20
273.2117712332181
 30
0.0
  0
SPLINE
  5
198
330
169
100
AcDbEntity
  8
$DDT_AUDIT_GENERATED_(15B)
  6
Continuous
 62
     7
100
AcDbSpline
210
0.0
220
0.0
230
1.0
 70
     8
 71
     3
 72
    14
 73
    10
 74
     0
 42
0.0000000007511295
 43
0.0000000001
 40
0.7710882664179219
 40
0.7710882664179219
 40
0.7710882664179219
 40
0.7710882664179219
 40
0.7812500000000107
 40
0.7812500000000107
 40
0.8125000000000089
 40
0.8125000000000089
 40
0.8750000000000059
 40
0.8750000000000059
 40
0.9528685295630368
 40
0.9528685295630368
 40
0.9528685295630368
 40
0.9528685295630368
 10
31.05967851697999
 20
273.0166826437624
 30
0.0
 10
31.09623082549124
 20
273.035922083504
 30
0.0
 10
31.13399416360287
 20
273.0552028696866
 30
0.0
 10
31.28763721857975
 20
273.1314422380203
 30
0.0
 10
31.40968842025336
 20
273.1868185415546
 30
0.0
 10
31.78843730210836
 20
273.3433306413377
 30
0.0
 10
32.05696813162243
 20
273.4341703581181
 30
0.0
 10
32.66763587752529
 20
273.5970494776765
 30
0.0
 10
33.01052517260887
 20
273.6610045178495
 30
0.0
 10
33.36549457852797
 20
273.6963874855626
 30
0.0
  0
LINE
  5
199
330
169
100
AcDbEntity
  8
$DDT_AUDIT_GENERATED_(15B)
  6
Continuous
 62
     7
100
AcDbLine
 10
30.5362494729
 20
272.3567712352
 30
0.0
 11
31.2251002324
 21
264.3113170455
 31
0.0
  0
LINE
  5
19A
330
169
100
AcDbEntity
  8
$DDT_AUDIT_GENERATED_(15B)
  6
Continuous
 62
     7
100
AcDbLine
 10
36.825083737
 20
264.3113170454
 30
0.0
 11
37.5139291
 21
272.3567082064
 31
0.0
  0
ARC
  5
19B
330
169
100
AcDbEntity
  8
$DDT_AUDIT_GENERATED_(15B)
  6
Continuous
 62
     7
100
AcDbCircle
 10
-135.85314565
 20
242.8165520766
 30
0.0
 40
168.4552306060812
100
AcDbArc
 50
4.6820075059
 51
7.3308601421
  0
ARC
  5
19C
330
169
100
AcDbEntity
  8
$DDT_AUDIT_GENERATED_(15B)
  6
Continuous
 62
     7
100
AcDbCircle
 10
205.8090889141
 20
242.6160323362
 30
0.0
 40
170.3710038007719
100
AcDbArc
 50
172.6840352615
 51
175.3030970906
  0
LINE
  5
19D
330
169
100
AcDbEntity
  8
$DDT_AUDIT_GENERATED_(15B)
  6
Continuous
 62
     7
100
AcDbLine
 10
32.0250919847
 20
256.6945472594
 30
0.0
 11
32.0250919847
 21
253.8903600093
 31
0.0
  0
LINE
  5
19E
330
169
100
AcDbEntity
  8
$DDT_AUDIT_GENERATED_(15B)
  6
Continuous
 62
     7
100
AcDbLine
 10
36.0250919847
 20
253.8928750876
 30
0.0
 11
36.0250919847
 21
256.6945472594
 31
0.0
  0
LINE
  5
19F
330
169
100
AcDbEntity
  8
$DDT_AUDIT_GENERATED_(15B)
  6
Continuous
 62
     7
100
AcDbLine
 10
33.9810416078
 20
273.7302500637
 30
0.0
 11
33.9363666107
 21
273.7302096782
 31
0.0
  0
SPLINE
  5
1A0
330
169
100
AcDbEntity
  8
$DDT_AUDIT_GENERATED_(15B)
  6
Continuous
 62
     7
100
AcDbSpline
210
0.0
220
0.0
230
1.0
 70
     8
 71
     3
 72
    19
 73
    15
 74
     0
 42
0.0000000076813331
 43
0.0000000001
 40
0.0
 40
0.0
 40
0.0
 40
0.0
 40
0.0522491269027437
 40
0.135378077320099
 40
0.2100390432764007
 40
0.2766815821733615
 40
0.3351790032812265
 40
0.3852997616607043
 40
0.4282611596131189
 40
0.4679329249113395
 40
0.516779963716896
 40
0.6758034049963583
 40
0.8379050008031131
 40
1.0
 40
1.0
 40
1.0
 40
1.0
 10
37.50085708532026
 20
272.3576390318024
 30
0.0
 10
37.50415487170089
 20
272.3843997956064
 30
0.0
 10
37.51084164518639
 20
272.4436074603257
 30
0.0
 10
37.49296700780813
 20
272.5442877227999
 30
0.0
 10
37.45664469442254
 20
272.6428327886055
 30
0.0
 10
37.40802773443377
 20
272.7236455247323
 30
0.0
 10
37.35476150631634
 20
272.7864977221371
 30
0.0
 10
37.30254463100197
 20
272.833403248072
 30
0.0
 10
37.25328824713472
 20
272.868509918208
 30
0.0
 10
37.21419662061173
 20
272.8930560428514
 30
0.0
 10
37.13938417835855
 20
272.9388902476216
 30
0.0
 10
37.01335166585381
 20
273.0090422240352
 30
0.0
 10
36.82597632126776
 20
273.1037455340143
 30
0.0
 10
36.7043621289713
 20
273.1582239315942
 30
0.0
 10
36.63190383861905
 20
273.1904739828717
 30
0.0
  0
SPLINE
  5
1A1
330
169
100
AcDbEntity
  8
$DDT_AUDIT_GENERATED_(15B)
  6
Continuous
 62
     7
100
AcDbSpline
210
0.0
220
0.0
230
1.0
 70
     8
 71
     3
 72
    14
 73
    10
 74
     0
 42
0.0000000119046263
 43
0.0000000001
 40
0.0
 40
0.0
 40
0.0
 40
0.0
 40
0.2567634894782829
 40
0.3405933185528596
 40
0.4266771247561794
 40
0.5786552138310983
 40
0.7104754222701619
 40
0.8552621659391846
 40
1.0
 40
1.0
 40
1.0
 40
1.0
 10
31.0062834134383
 20
272.9899630565481
 30
0.0
 10
30.94420767058799
 20
272.9565267562377
 30
0.0
 10
30.87448591918741
 20
272.9177468130815
 30
0.0
 10
30.78986901019008
 20
272.8635772304231
 30
0.0
 10
30.71699718956584
 20
272.8077875694404
 30
0.0
 10
30.64225625422822
 20
272.7243078089821
 30
0.0
 10
30.58165277171867
 20
272.6119730800141
 30
0.0
 10
30.54658478735625
 20
272.487151907974
 30
0.0
 10
30.54804115930131
 20
272.4064785887888
 30
0.0
 10
30.54971781701501
 20
272.3590634152504
 30
0.0
  0
ARC
  5
1A2
330
169
100
AcDbEntity
  8
$DDT_AUDIT_GENERATED_(15B)
  6
Continuous
 62
     7
100
AcDbCircle
 10
33.9668440657
 20
268.8391668924
 30
0.0
 40
4.891137741611601
100
AcDbArc
 50
90.3570213997
 51
96.8428906662
  0
ENDBLK
  5
1A4
330
169
100
AcDbEntity
  8
0
100
AcDbBlockEnd
  0
ENDSEC
  0
SECTION
  2
ENTITIES
  0
INSERT
  5
5F
330
1F
100
AcDbEntity
  8
Default
100
AcDbBlockReference
  2
SEANNOT_GROUP
 10
0.0
 20
0.0
 30
0.0
  0
INSERT
  5
65
330
1F
100
AcDbEntity
  8
Default
100
AcDbBlockReference
  2
SEANNOT_GROUP1
 10
0.0
 20
0.0
 30
0.0
  0
INSERT
  5
6A
330
1F
100
AcDbEntity
  8
Default
100
AcDbBlockReference
  2
SEANNOT_GROUP2
 10
0.0
 20
0.0
 30
0.0
  0
INSERT
  5
6F
330
1F
100
AcDbEntity
  8
Default
100
AcDbBlockReference
  2
SE
 10
0.0
 20
0.0
 30
0.0
  0
INSERT
  5
117
330
1F
100
AcDbEntity
  8
Default
100
AcDbBlockReference
  2
SE1
 10
0.0
 20
0.0
 30
0.0
  0
INSERT
  5
16A
330
1F
100
AcDbEntity
  8
Default
100
AcDbBlockReference
  2
SE2
 10
0.0
 20
0.0
 30
0.0
  0
TEXT
  5
1A6
330
1F
100
AcDbEntity
  8
Default
  6
Continuous
 62
     7
100
AcDbText
 10
5.9362635081
 20
53.4225120485
 30
0.0
 40
10.0
  1
Grohe AG^J
  7
SEACAD_seiso_ttf
 11
5.9362635081
 21
63.4225120485
 31
0.0
100
AcDbText
 73
     3
  0
TEXT
  5
1A7
330
1F
100
AcDbEntity
  8
Default
  6
Continuous
 62
     7
100
AcDbText
 10
5.9362635081
 20
37.0588756849
 30
0.0
 40
10.0
  1
 
  7
SEACAD_seiso_ttf
 11
5.9362635081
 21
47.0588756849
 31
0.0
100
AcDbText
 73
     3
  0
TEXT
  5
1A8
330
1F
100
AcDbEntity
  8
Default
  6
Continuous
 62
     7
100
AcDbText
 10
5.9362635081
 20
20.6952393213
 30
0.0
 40
10.0
  1
ecn: 
  7
SEACAD_seiso_ttf
 11
5.9362635081
 21
30.6952393213
 31
0.0
100
AcDbText
 73
     3
  0
TEXT
  5
1A9
330
1F
100
AcDbEntity
  8
Default
  6
Continuous
 62
     7
100
AcDbText
 10
5.9362635081
 20
4.3316029576
 30
0.0
 40
10.0
  1
unit: mm
  7
SEACAD_seiso_ttf
 11
5.9362635081
 21
14.3316029576
 31
0.0
100
AcDbText
 73
     3
  0
LINE
  5
1AA
330
1F
100
AcDbEntity
  8
Default
  6
Continuous
 62
     7
100
AcDbLine
 10
0.0
 20
0.0
 30
0.0
 11
100.0
 21
0.0
 31
0.0
  0
LINE
  5
1AB
330
1F
100
AcDbEntity
  8
Default
  6
Continuous
 62
     7
100
AcDbLine
 10
0.0
 20
0.0
 30
0.0
 11
0.0
 21
100.0
 31
0.0
  0
TEXT
  5
1AC
330
1F
100
AcDbEntity
  8
Default
  6
Continuous
 62
     7
100
AcDbText
 10
24.3923665681
 20
-18.2375342018
 30
0.0
 40
10.0
  1
100 mm
  7
SEACAD_seiso_ttf
 11
24.3923665681
 21
-8.2375342018
 31
0.0
100
AcDbText
 73
     3
  0
TEXT
  5
1AD
330
1F
100
AcDbEntity
  8
Default
  6
Continuous
 62
     7
100
AcDbText
 10
-7.6150308803
 20
24.6231930421
 30
0.0
 40
10.0
  1
100 mm
 50
90.0
  7
SEACAD_seiso_ttf
 11
-17.6150308803
 21
24.6231930421
 31
0.0
100
AcDbText
 73
     3
  0
TEXT
  5
1AE
330
1F
100
AcDbEntity
  8
Default
  6
Continuous
 62
     7
100
AcDbText
 10
28.4878128572
 20
20.0907663715
 30
0.0
 40
10.0
  1
216969
  7
SEACAD_seiso_ttf
 11
28.4878128572
 21
30.0907663715
 31
0.0
100
AcDbText
 73
     3
  0
TEXT
  5
1AF
330
1F
100
AcDbEntity
  8
Default
  6
Continuous
 62
     7
100
AcDbText
 10
5.9012241913
 20
36.7242780188
 30
0.0
 40
10.0
  1
32788000
  7
SEACAD_seiso_ttf
 11
5.9012241913
 21
46.7242780188
 31
0.0
100
AcDbText
 73
     3
  0
ENDSEC
  0
SECTION
  2
OBJECTS
  0
DICTIONARY
  5
C
330
0
100
AcDbDictionary
281
     1
  3
ACAD_GROUP
350
D
  3
ACAD_LAYOUT
350
1A
  3
ACAD_MLEADERSTYLE
350
1B3
  3
ACAD_MLINESTYLE
350
17
  3
ACAD_PLOTSETTINGS
350
19
  3
ACAD_PLOTSTYLENAME
350
E
  3
ACAD_SCALELIST
350
3B
  3
ACAD_TABLESTYLE
350
1B2
  3
ACAD_VISUALSTYLE
350
2A
  3
AcDbVariableDictionary
350
1B0
  0
DICTIONARY
  5
D
102
{ACAD_REACTORS
330
C
102
}
330
C
100
AcDbDictionary
281
     1
  0
DICTIONARY
  5
1A
102
{ACAD_REACTORS
330
C
102
}
330
C
100
AcDbDictionary
281
     1
  3
Layout1
350
1E
  3
Model
350
22
  0
DICTIONARY
  5
1B3
102
{ACAD_REACTORS
330
C
102
}
330
C
100
AcDbDictionary
281
     1
  0
DICTIONARY
  5
17
102
{ACAD_REACTORS
330
C
102
}
330
C
100
AcDbDictionary
281
     1
  3
Standard
350
18
  0
DICTIONARY
  5
19
102
{ACAD_REACTORS
330
C
102
}
330
C
100
AcDbDictionary
281
     1
  0
ACDBDICTIONARYWDFLT
  5
E
102
{ACAD_REACTORS
330
C
102
}
330
C
100
AcDbDictionary
281
     1
  3
Normal
350
F
100
AcDbDictionaryWithDefault
340
F
  0
DICTIONARY
  5
3B
102
{ACAD_REACTORS
330
C
102
}
330
C
100
AcDbDictionary
281
     1
  3
A0
350
3C
  3
A1
350
3D
  3
A2
350
3E
  3
A3
350
3F
  3
A4
350
40
  3
A5
350
41
  3
A6
350
42
  3
A7
350
43
  3
A8
350
44
  3
A9
350
45
  3
B0
350
46
  3
B1
350
47
  3
B2
350
48
  3
B3
350
49
  3
B4
350
4A
  3
B5
350
4B
  3
B6
350
4C
  3
B7
350
4D
  3
B8
350
4E
  3
B9
350
4F
  3
C0
350
50
  3
C1
350
51
  3
C2
350
52
  3
C3
350
53
  3
C4
350
54
  3
C5
350
55
  3
C6
350
56
  3
C7
350
57
  3
C8
350
58
  3
C9
350
59
  3
D0
350
5A
  3
D1
350
5B
  3
D2
350
5C
  0
DICTIONARY
  5
1B2
102
{ACAD_REACTORS
330
C
102
}
330
C
100
AcDbDictionary
281
     1
  0
DICTIONARY
  5
2A
102
{ACAD_REACTORS
330
C
102
}
330
C
100
AcDbDictionary
281
     1
  3
2dWireframe
350
2F
  3
3D Hidden
350
31
  3
3dWireframe
350
30
  3
Basic
350
32
  3
Brighten
350
36
  3
ColorChange
350
3A
  3
Conceptual
350
34
  3
Dim
350
35
  3
Facepattern
350
39
  3
Flat
350
2B
  3
FlatWithEdges
350
2C
  3
Gouraud
350
2D
  3
GouraudWithEdges
350
2E
  3
Linepattern
350
38
  3
Realistic
350
33
  3
Thicken
350
37
  0
DICTIONARY
  5
1B0
102
{ACAD_REACTORS
330
C
102
}
330
C
100
AcDbDictionary
281
     1
  3
CANNOSCALE
350
1B1
  3
PSOLHEIGHT
350
1B5
  3
PSOLWIDTH
350
1B4
  0
LAYOUT
  5
1E
102
{ACAD_REACTORS
330
1A
102
}
330
1A
100
AcDbPlotSettings
  1

  2
none_device
  4

  6

 40
0.0
 41
0.0
 42
0.0
 43
0.0
 44
0.0
 45
0.0
 46
0.0
 47
0.0
 48
0.0
 49
0.0
140
0.0
141
0.0
142
1.0
143
1.0
 70
   688
 72
     0
 73
     0
 74
     5
  7

 75
    16
147
1.0
148
0.0
149
0.0
100
AcDbLayout
  1
Layout1
 70
     1
 71
     1
 10
0.0
 20
0.0
 11
1682.0
 21
2378.0
 12
0.0
 22
0.0
 32
0.0
 14
0.0
 24
0.0
 34
0.0
 15
1682.0
 25
2378.0
 35
0.0
146
0.0
 13
0.0
 23
0.0
 33
0.0
 16
1.0
 26
0.0
 36
0.0
 17
0.0
 27
1.0
 37
0.0
 76
     0
330
1B
  0
LAYOUT
  5
22
102
{ACAD_REACTORS
330
1A
102
}
330
1A
100
AcDbPlotSettings
  1

  2
none_device
  4

  6

 40
0.0
 41
0.0
 42
0.0
 43
0.0
 44
0.0
 45
0.0
 46
0.0
 47
0.0
 48
0.0
 49
0.0
140
0.0
141
0.0
142
1.0
143
1.0
 70
  1712
 72
     0
 73
     0
 74
     0
  7

 75
     0
147
1.0
148
0.0
149
0.0
100
AcDbLayout
  1
Model
 70
     1
 71
     0
 10
0.0
 20
0.0
 11
1682.0
 21
2378.0
 12
0.0
 22
0.0
 32
0.0
 14
0.0
 24
0.0
 34
0.0
 15
1682.0
 25
2378.0
 35
0.0
146
0.0
 13
0.0
 23
0.0
 33
0.0
 16
1.0
 26
0.0
 36
0.0
 17
0.0
 27
1.0
 37
0.0
 76
     0
330
1F
331
29
  0
MLINESTYLE
  5
18
102
{ACAD_REACTORS
330
17
102
}
330
17
100
AcDbMlineStyle
  2
Standard
 70
     0
  3

 62
   256
 51
90.0
 52
90.0
 71
     2
 49
0.5
 62
   256
  6
BYLAYER
 49
-0.5
 62
   256
  6
BYLAYER
  0
ACDBPLACEHOLDER
  5
F
102
{ACAD_REACTORS
330
E
102
}
330
E
  0
SCALE
  5
3C
102
{ACAD_REACTORS
330
3B
102
}
330
3B
100
AcDbScale
 70
     0
300
1:1
140
1.0
141
1.0
290
     1
  0
SCALE
  5
3D
102
{ACAD_REACTORS
330
3B
102
}
330
3B
100
AcDbScale
 70
     0
300
1:2
140
1.0
141
2.0
290
     0
  0
SCALE
  5
3E
102
{ACAD_REACTORS
330
3B
102
}
330
3B
100
AcDbScale
 70
     0
300
1:4
140
1.0
141
4.0
290
     0
  0
SCALE
  5
3F
102
{ACAD_REACTORS
330
3B
102
}
330
3B
100
AcDbScale
 70
     0
300
1:5
140
1.0
141
5.0
290
     0
  0
SCALE
  5
40
102
{ACAD_REACTORS
330
3B
102
}
330
3B
100
AcDbScale
 70
     0
300
1:8
140
1.0
141
8.0
290
     0
  0
SCALE
  5
41
102
{ACAD_REACTORS
330
3B
102
}
330
3B
100
AcDbScale
 70
     0
300
1:10
140
1.0
141
10.0
290
     0
  0
SCALE
  5
42
102
{ACAD_REACTORS
330
3B
102
}
330
3B
100
AcDbScale
 70
     0
300
1:16
140
1.0
141
16.0
290
     0
  0
SCALE
  5
43
102
{ACAD_REACTORS
330
3B
102
}
330
3B
100
AcDbScale
 70
     0
300
1:20
140
1.0
141
20.0
290
     0
  0
SCALE
  5
44
102
{ACAD_REACTORS
330
3B
102
}
330
3B
100
AcDbScale
 70
     0
300
1:30
140
1.0
141
30.0
290
     0
  0
SCALE
  5
45
102
{ACAD_REACTORS
330
3B
102
}
330
3B
100
AcDbScale
 70
     0
300
1:40
140
1.0
141
40.0
290
     0
  0
SCALE
  5
46
102
{ACAD_REACTORS
330
3B
102
}
330
3B
100
AcDbScale
 70
     0
300
1:50
140
1.0
141
50.0
290
     0
  0
SCALE
  5
47
102
{ACAD_REACTORS
330
3B
102
}
330
3B
100
AcDbScale
 70
     0
300
1:100
140
1.0
141
100.0
290
     0
  0
SCALE
  5
48
102
{ACAD_REACTORS
330
3B
102
}
330
3B
100
AcDbScale
 70
     0
300
2:1
140
2.0
141
1.0
290
     0
  0
SCALE
  5
49
102
{ACAD_REACTORS
330
3B
102
}
330
3B
100
AcDbScale
 70
     0
300
4:1
140
4.0
141
1.0
290
     0
  0
SCALE
  5
4A
102
{ACAD_REACTORS
330
3B
102
}
330
3B
100
AcDbScale
 70
     0
300
8:1
140
8.0
141
1.0
290
     0
  0
SCALE
  5
4B
102
{ACAD_REACTORS
330
3B
102
}
330
3B
100
AcDbScale
 70
     0
300
10:1
140
10.0
141
1.0
290
     0
  0
SCALE
  5
4C
102
{ACAD_REACTORS
330
3B
102
}
330
3B
100
AcDbScale
 70
     0
300
100:1
140
100.0
141
1.0
290
     0
  0
SCALE
  5
4D
102
{ACAD_REACTORS
330
3B
102
}
330
3B
100
AcDbScale
 70
     0
300
1/128" = 1'-0"
140
0.0078125
141
12.0
290
     0
  0
SCALE
  5
4E
102
{ACAD_REACTORS
330
3B
102
}
330
3B
100
AcDbScale
 70
     0
300
1/64" = 1'-0"
140
0.015625
141
12.0
290
     0
  0
SCALE
  5
4F
102
{ACAD_REACTORS
330
3B
102
}
330
3B
100
AcDbScale
 70
     0
300
1/32" = 1'-0"
140
0.03125
141
12.0
290
     0
  0
SCALE
  5
50
102
{ACAD_REACTORS
330
3B
102
}
330
3B
100
AcDbScale
 70
     0
300
1/16" = 1'-0"
140
0.0625
141
12.0
290
     0
  0
SCALE
  5
51
102
{ACAD_REACTORS
330
3B
102
}
330
3B
100
AcDbScale
 70
     0
300
3/32" = 1'-0"
140
0.09375
141
12.0
290
     0
  0
SCALE
  5
52
102
{ACAD_REACTORS
330
3B
102
}
330
3B
100
AcDbScale
 70
     0
300
1/8" = 1'-0"
140
0.125
141
12.0
290
     0
  0
SCALE
  5
53
102
{ACAD_REACTORS
330
3B
102
}
330
3B
100
AcDbScale
 70
     0
300
3/16" = 1'-0"
140
0.1875
141
12.0
290
     0
  0
SCALE
  5
54
102
{ACAD_REACTORS
330
3B
102
}
330
3B
100
AcDbScale
 70
     0
300
1/4" = 1'-0"
140
0.25
141
12.0
290
     0
  0
SCALE
  5
55
102
{ACAD_REACTORS
330
3B
102
}
330
3B
100
AcDbScale
 70
     0
300
3/8" = 1'-0"
140
0.375
141
12.0
290
     0
  0
SCALE
  5
56
102
{ACAD_REACTORS
330
3B
102
}
330
3B
100
AcDbScale
 70
     0
300
1/2" = 1'-0"
140
0.5
141
12.0
290
     0
  0
SCALE
  5
57
102
{ACAD_REACTORS
330
3B
102
}
330
3B
100
AcDbScale
 70
     0
300
3/4" = 1'-0"
140
0.75
141
12.0
290
     0
  0
SCALE
  5
58
102
{ACAD_REACTORS
330
3B
102
}
330
3B
100
AcDbScale
 70
     0
300
1" = 1'-0"
140
1.0
141
12.0
290
     0
  0
SCALE
  5
59
102
{ACAD_REACTORS
330
3B
102
}
330
3B
100
AcDbScale
 70
     0
300
1-1/2" = 1'-0"
140
1.5
141
12.0
290
     0
  0
SCALE
  5
5A
102
{ACAD_REACTORS
330
3B
102
}
330
3B
100
AcDbScale
 70
     0
300
3" = 1'-0"
140
3.0
141
12.0
290
     0
  0
SCALE
  5
5B
102
{ACAD_REACTORS
330
3B
102
}
330
3B
100
AcDbScale
 70
     0
300
6" = 1'-0"
140
6.0
141
12.0
290
     0
  0
SCALE
  5
5C
102
{ACAD_REACTORS
330
3B
102
}
330
3B
100
AcDbScale
 70
     0
300
1'-0" = 1'-0"
140
12.0
141
12.0
290
     0
  0
VISUALSTYLE
  5
2F
102
{ACAD_REACTORS
330
2A
102
}
330
2A
100
AcDbVisualStyle
  2
2dWireframe
 70
     4
 71
     0
 72
     2
 73
     0
 90
        0
 40
-0.6
 41
-30.0
 62
     5
 63
     7
 74
     1
 91
        4
 64
     7
 65
   257
 75
     1
175
     1
 42
1.0
 92
        0
 66
   257
 43
1.0
 76
     1
 77
     6
 78
     2
 67
     7
 79
     5
170
     0
171
     0
290
     0
174
     0
 93
        1
 44
0.0
173
     0
291
     0
 45
0.0
1001
ACAD
1000
AcDbSavedByObjectVersion
1070
     0
  0
VISUALSTYLE
  5
31
102
{ACAD_REACTORS
330
2A
102
}
330
2A
100
AcDbVisualStyle
  2
3D Hidden
 70
     6
 71
     1
 72
     2
 73
     2
 90
        0
 40
-0.6
 41
-30.0
 62
     5
 63
     7
 74
     2
 91
        2
 64
     7
 65
   257
 75
     2
175
     1
 42
40.0
 92
        0
 66
   257
 43
1.0
 76
     1
 77
     6
 78
     2
 67
     7
 79
     3
170
     0
171
     0
290
     0
174
     0
 93
        1
 44
0.0
173
     0
291
     0
 45
0.0
1001
ACAD
1000
AcDbSavedByObjectVersion
1070
     0
  0
VISUALSTYLE
  5
30
102
{ACAD_REACTORS
330
2A
102
}
330
2A
100
AcDbVisualStyle
  2
3dWireframe
 70
     5
 71
     0
 72
     2
 73
     0
 90
        0
 40
-0.6
 41
-30.0
 62
     5
 63
     7
 74
     1
 91
        4
 64
     7
 65
   257
 75
     1
175
     1
 42
1.0
 92
        0
 66
   257
 43
1.0
 76
     1
 77
     6
 78
     2
 67
     7
 79
     5
170
     0
171
     0
290
     0
174
     0
 93
        1
 44
0.0
173
     0
291
     0
 45
0.0
1001
ACAD
1000
AcDbSavedByObjectVersion
1070
     0
  0
VISUALSTYLE
  5
32
102
{ACAD_REACTORS
330
2A
102
}
330
2A
100
AcDbVisualStyle
  2
Basic
 70
     7
 71
     1
 72
     0
 73
     1
 90
        0
 40
-0.6
 41
-30.0
 62
     5
 63
     7
 74
     0
 91
        4
 64
     7
 65
   257
 75
     1
175
     1
 42
1.0
 92
        8
 66
     7
 43
1.0
 76
     1
 77
     6
 78
     2
 67
     7
 79
     5
170
     0
171
     0
290
     0
174
     0
 93
        1
 44
0.0
173
     0
291
     1
 45
0.0
1001
ACAD
1000
AcDbSavedByObjectVersion
1070
     0
  0
VISUALSTYLE
  5
36
102
{ACAD_REACTORS
330
2A
102
}
330
2A
100
AcDbVisualStyle
  2
Brighten
 70
    12
 71
     2
 72
     2
 73
     0
 90
        0
 40
-0.6
 41
-30.0
 62
     5
 63
     7
 74
     1
 91
        4
 64
     7
 65
   257
 75
     1
175
     1
 42
1.0
 92
        8
 66
     7
 43
1.0
 76
     1
 77
     6
 78
     2
 67
     7
 79
     5
170
     0
171
     0
290
     0
174
     0
 93
        1
 44
50.0
173
     0
291
     1
 45
0.0
1001
ACAD
1000
AcDbSavedByObjectVersion
1070
     0
  0
VISUALSTYLE
  5
3A
102
{ACAD_REACTORS
330
2A
102
}
330
2A
100
AcDbVisualStyle
  2
ColorChange
 70
    16
 71
     2
 72
     2
 73
     3
 90
        0
 40
-0.6
 41
-30.0
 62
     5
 63
     8
 74
     1
 91
        4
 64
     7
 65
   257
 75
     1
175
     1
 42
1.0
 92
        8
 66
     8
 43
1.0
 76
     1
 77
     6
 78
     2
 67
     7
 79
     5
170
     0
171
     0
290
     0
174
     0
 93
        1
 44
0.0
173
     0
291
     1
 45
0.0
1001
ACAD
1000
AcDbSavedByObjectVersion
1070
     0
  0
VISUALSTYLE
  5
34
102
{ACAD_REACTORS
330
2A
102
}
330
2A
100
AcDbVisualStyle
  2
Conceptual
 70
     9
 71
     3
 72
     2
 73
     0
 90
        0
 40
-0.6
 41
-30.0
 62
     5
 63
     7
 74
     2
 91
        2
 64
     7
 65
   257
 75
     1
175
     1
 42
40.0
 92
        8
 66
     7
 43
1.0
 76
     1
 77
     6
 78
     2
 67
     7
 79
     3
170
     0
171
     0
290
     0
174
     0
 93
        1
 44
0.0
173
     0
291
     0
 45
0.0
1001
ACAD
1000
AcDbSavedByObjectVersion
1070
     0
  0
VISUALSTYLE
  5
35
102
{ACAD_REACTORS
330
2A
102
}
330
2A
100
AcDbVisualStyle
  2
Dim
 70
    11
 71
     2
 72
     2
 73
     0
 90
        0
 40
-0.6
 41
-30.0
 62
     5
 63
     7
 74
     1
 91
        4
 64
     7
 65
   257
 75
     1
175
     1
 42
1.0
 92
        8
 66
     7
 43
1.0
 76
     1
 77
     6
 78
     2
 67
     7
 79
     5
170
     0
171
     0
290
     0
174
     0
 93
        1
 44
-50.0
173
     0
291
     1
 45
0.0
1001
ACAD
1000
AcDbSavedByObjectVersion
1070
     0
  0
VISUALSTYLE
  5
39
102
{ACAD_REACTORS
330
2A
102
}
330
2A
100
AcDbVisualStyle
  2
Facepattern
 70
    15
 71
     2
 72
     2
 73
     0
 90
        0
 40
-0.6
 41
-30.0
 62
     5
 63
     7
 74
     1
 91
        4
 64
     7
 65
   257
 75
     1
175
     1
 42
1.0
 92
        8
 66
     7
 43
1.0
 76
     1
 77
     6
 78
     2
 67
     7
 79
     5
170
     0
171
     0
290
     0
174
     0
 93
        1
 44
0.0
173
     0
291
     1
 45
0.0
1001
ACAD
1000
AcDbSavedByObjectVersion
1070
     0
  0
VISUALSTYLE
  5
2B
102
{ACAD_REACTORS
330
2A
102
}
330
2A
100
AcDbVisualStyle
  2
Flat
 70
     0
 71
     2
 72
     1
 73
     1
 90
        2
 40
-0.6
 41
30.0
 62
     5
 63
     7
 74
     0
 91
        4
 64
     7
 65
   257
 75
     1
175
     1
 42
1.0
 92
        8
 66
     7
 43
1.0
 76
     1
 77
     6
 78
     2
 67
     7
 79
     5
170
     0
171
     0
290
     0
174
     0
 93
       13
 44
0.0
173
     0
291
     1
 45
0.0
1001
ACAD
1000
AcDbSavedByObjectVersion
1070
     0
  0
VISUALSTYLE
  5
2C
102
{ACAD_REACTORS
330
2A
102
}
330
2A
100
AcDbVisualStyle
  2
FlatWithEdges
 70
     1
 71
     2
 72
     1
 73
     1
 90
        2
 40
-0.6
 41
30.0
 62
     5
 63
     7
 74
     1
 91
        4
 64
     7
 65
   257
 75
     1
175
     1
 42
1.0
 92
        0
 66
   257
 43
1.0
 76
     1
 77
     6
 78
     2
 67
     7
 79
     5
170
     0
171
     0
290
     0
174
     0
 93
       13
 44
0.0
173
     0
291
     1
 45
0.0
1001
ACAD
1000
AcDbSavedByObjectVersion
1070
     0
  0
VISUALSTYLE
  5
2D
102
{ACAD_REACTORS
330
2A
102
}
330
2A
100
AcDbVisualStyle
  2
Gouraud
 70
     2
 71
     2
 72
     2
 73
     1
 90
        2
 40
-0.6
 41
30.0
 62
     5
 63
     7
 74
     0
 91
        4
 64
     7
 65
   257
 75
     1
175
     1
 42
1.0
 92
        0
 66
     7
 43
1.0
 76
     1
 77
     6
 78
     2
 67
     7
 79
     5
170
     0
171
     0
290
     0
174
     0
 93
       13
 44
0.0
173
     0
291
     1
 45
0.0
1001
ACAD
1000
AcDbSavedByObjectVersion
1070
     0
  0
VISUALSTYLE
  5
2E
102
{ACAD_REACTORS
330
2A
102
}
330
2A
100
AcDbVisualStyle
  2
GouraudWithEdges
 70
     3
 71
     2
 72
     2
 73
     1
 90
        2
 40
-0.6
 41
30.0
 62
     5
 63
     7
 74
     1
 91
        4
 64
     7
 65
   257
 75
     1
175
     1
 42
1.0
 92
        0
 66
   257
 43
1.0
 76
     1
 77
     6
 78
     2
 67
     7
 79
     5
170
     0
171
     0
290
     0
174
     0
 93
       13
 44
0.0
173
     0
291
     1
 45
0.0
1001
ACAD
1000
AcDbSavedByObjectVersion
1070
     0
  0
VISUALSTYLE
  5
38
102
{ACAD_REACTORS
330
2A
102
}
330
2A
100
AcDbVisualStyle
  2
Linepattern
 70
    14
 71
     2
 72
     2
 73
     0
 90
        0
 40
-0.6
 41
-30.0
 62
     5
 63
     7
 74
     1
 91
        4
 64
     7
 65
   257
 75
     7
175
     7
 42
1.0
 92
        8
 66
     7
 43
1.0
 76
     1
 77
     6
 78
     2
 67
     7
 79
     5
170
     0
171
     0
290
     0
174
     0
 93
        1
 44
0.0
173
     0
291
     1
 45
0.0
1001
ACAD
1000
AcDbSavedByObjectVersion
1070
     0
  0
VISUALSTYLE
  5
33
102
{ACAD_REACTORS
330
2A
102
}
330
2A
100
AcDbVisualStyle
  2
Realistic
 70
     8
 71
     2
 72
     2
 73
     0
 90
        0
 40
-0.6
 41
-30.0
 62
     5
 63
     7
 74
     1
 91
        0
 64
     7
 65
   257
 75
     1
175
     1
 42
1.0
 92
        8
 66
     8
 43
1.0
 76
     1
 77
     6
 78
     2
 67
     7
 79
     5
170
     0
171
     0
290
     0
174
     0
 93
       13
 44
0.0
173
     0
291
     0
 45
0.0
1001
ACAD
1000
AcDbSavedByObjectVersion
1070
     0
  0
VISUALSTYLE
  5
37
102
{ACAD_REACTORS
330
2A
102
}
330
2A
100
AcDbVisualStyle
  2
Thicken
 70
    13
 71
     2
 72
     2
 73
     0
 90
        0
 40
-0.6
 41
-30.0
 62
     5
 63
     7
 74
     1
 91
        4
 64
     7
 65
   257
 75
     1
175
     1
 42
1.0
 92
       12
 66
     7
 43
1.0
 76
     1
 77
     6
 78
     2
 67
     7
 79
     5
170
     0
171
     0
290
     0
174
     0
 93
        1
 44
0.0
173
     0
291
     1
 45
0.0
1001
ACAD
1000
AcDbSavedByObjectVersion
1070
     0
  0
DICTIONARYVAR
  5
1B1
102
{ACAD_REACTORS
330
1B0
102
}
330
1B0
100
DictionaryVariables
280
     0
  1
1:1
  0
DICTIONARYVAR
  5
1B5
102
{ACAD_REACTORS
330
1B0
102
}
330
1B0
100
DictionaryVariables
280
     0
  1
80.000000
  0
DICTIONARYVAR
  5
1B4
102
{ACAD_REACTORS
330
1B0
102
}
330
1B0
100
DictionaryVariables
280
     0
  1
5.000000
  0
ENDSEC
  0
EOF
