  0
SECTION
  2
HEADER
  9
$ACADVER
  1
AC1015
  9
$ACADMAINTVER
 70
     6
  9
$DWGCODEPAGE
  3
ANSI_1252
  9
$INSBASE
 10
0.0
 20
0.0
 30
0.0
  9
$EXTMIN
 10
0.0
 20
0.0
 30
0.0
  9
$EXTMAX
 10
1682.0
 20
2378.0
 30
0.0
  9
$LIMMIN
 10
0.0
 20
0.0
  9
$LIMMAX
 10
1682.0
 20
2378.0
  9
$ORTHOMODE
 70
     0
  9
$REGENMODE
 70
     1
  9
$FILLMODE
 70
     1
  9
$QTEXTMODE
 70
     0
  9
$MIRRTEXT
 70
     1
  9
$LTSCALE
 40
1.0
  9
$ATTMODE
 70
     1
  9
$TEXTSIZE
 40
2.5
  9
$TRACEWID
 40
1.0
  9
$TEXTSTYLE
  7
Standard
  9
$CLAYER
  8
0
  9
$CELTYPE
  6
ByLayer
  9
$CECOLOR
 62
   256
  9
$CELTSCALE
 40
1.0
  9
$DISPSILH
 70
     0
  9
$DIMSCALE
 40
1.0
  9
$DIMASZ
 40
2.5
  9
$DIMEXO
 40
0.625
  9
$DIMDLI
 40
3.75
  9
$DIMRND
 40
0.0
  9
$DIMDLE
 40
0.0
  9
$DIMEXE
 40
1.25
  9
$DIMTP
 40
0.0
  9
$DIMTM
 40
0.0
  9
$DIMTXT
 40
2.5
  9
$DIMCEN
 40
2.5
  9
$DIMTSZ
 40
0.0
  9
$DIMTOL
 70
     0
  9
$DIMLIM
 70
     0
  9
$DIMTIH
 70
     0
  9
$DIMTOH
 70
     0
  9
$DIMSE1
 70
     0
  9
$DIMSE2
 70
     0
  9
$DIMTAD
 70
     1
  9
$DIMZIN
 70
     8
  9
$DIMBLK
  1

  9
$DIMASO
 70
     1
  9
$DIMSHO
 70
     1
  9
$DIMPOST
  1

  9
$DIMAPOST
  1

  9
$DIMALT
 70
     0
  9
$DIMALTD
 70
     3
  9
$DIMALTF
 40
0.0393700787
  9
$DIMLFAC
 40
1.0
  9
$DIMTOFL
 70
     1
  9
$DIMTVP
 40
0.0
  9
$DIMTIX
 70
     0
  9
$DIMSOXD
 70
     0
  9
$DIMSAH
 70
     0
  9
$DIMBLK1
  1

  9
$DIMBLK2
  1

  9
$DIMSTYLE
  2
ISO-25
  9
$DIMCLRD
 70
     0
  9
$DIMCLRE
 70
     0
  9
$DIMCLRT
 70
     0
  9
$DIMTFAC
 40
1.0
  9
$DIMGAP
 40
0.625
  9
$DIMJUST
 70
     0
  9
$DIMSD1
 70
     0
  9
$DIMSD2
 70
     0
  9
$DIMTOLJ
 70
     0
  9
$DIMTZIN
 70
     8
  9
$DIMALTZ
 70
     0
  9
$DIMALTTZ
 70
     0
  9
$DIMUPT
 70
     0
  9
$DIMDEC
 70
     2
  9
$DIMTDEC
 70
     2
  9
$DIMALTU
 70
     2
  9
$DIMALTTD
 70
     3
  9
$DIMTXSTY
  7
Standard
  9
$DIMAUNIT
 70
     0
  9
$DIMADEC
 70
     0
  9
$DIMALTRND
 40
0.0
  9
$DIMAZIN
 70
     0
  9
$DIMDSEP
 70
    44
  9
$DIMATFIT
 70
     3
  9
$DIMFRAC
 70
     0
  9
$DIMLDRBLK
  1

  9
$DIMLUNIT
 70
     2
  9
$DIMLWD
 70
    -2
  9
$DIMLWE
 70
    -2
  9
$DIMTMOVE
 70
     0
  9
$LUNITS
 70
     2
  9
$LUPREC
 70
     4
  9
$SKETCHINC
 40
1.0
  9
$FILLETRAD
 40
10.0
  9
$AUNITS
 70
     0
  9
$AUPREC
 70
     0
  9
$MENU
  1
.
  9
$ELEVATION
 40
0.0
  9
$PELEVATION
 40
0.0
  9
$THICKNESS
 40
0.0
  9
$LIMCHECK
 70
     0
  9
$CHAMFERA
 40
10.0
  9
$CHAMFERB
 40
10.0
  9
$CHAMFERC
 40
20.0
  9
$CHAMFERD
 40
0.0
  9
$SKPOLY
 70
     0
  9
$TDCREATE
 40
2455300.564144884
  9
$TDUCREATE
 40
2455300.480811551
  9
$TDUPDATE
 40
2455300.564144896
  9
$TDUUPDATE
 40
2455300.480811562
  9
$TDINDWG
 40
0.0000000116
  9
$TDUSRTIMER
 40
0.0000000116
  9
$USRTIMER
 70
     1
  9
$ANGBASE
 50
0.0
  9
$ANGDIR
 70
     0
  9
$PDMODE
 70
     0
  9
$PDSIZE
 40
0.0
  9
$PLINEWID
 40
0.0
  9
$SPLFRAME
 70
     0
  9
$SPLINETYPE
 70
     6
  9
$SPLINESEGS
 70
     8
  9
$HANDSEED
  5
20E
  9
$SURFTAB1
 70
     6
  9
$SURFTAB2
 70
     6
  9
$SURFTYPE
 70
     6
  9
$SURFU
 70
     6
  9
$SURFV
 70
     6
  9
$UCSBASE
  2

  9
$UCSNAME
  2

  9
$UCSORG
 10
0.0
 20
0.0
 30
0.0
  9
$UCSXDIR
 10
1.0
 20
0.0
 30
0.0
  9
$UCSYDIR
 10
0.0
 20
1.0
 30
0.0
  9
$UCSORTHOREF
  2

  9
$UCSORTHOVIEW
 70
     0
  9
$UCSORGTOP
 10
0.0
 20
0.0
 30
0.0
  9
$UCSORGBOTTOM
 10
0.0
 20
0.0
 30
0.0
  9
$UCSORGLEFT
 10
0.0
 20
0.0
 30
0.0
  9
$UCSORGRIGHT
 10
0.0
 20
0.0
 30
0.0
  9
$UCSORGFRONT
 10
0.0
 20
0.0
 30
0.0
  9
$UCSORGBACK
 10
0.0
 20
0.0
 30
0.0
  9
$PUCSBASE
  2

  9
$PUCSNAME
  2

  9
$PUCSORG
 10
0.0
 20
0.0
 30
0.0
  9
$PUCSXDIR
 10
1.0
 20
0.0
 30
0.0
  9
$PUCSYDIR
 10
0.0
 20
1.0
 30
0.0
  9
$PUCSORTHOREF
  2

  9
$PUCSORTHOVIEW
 70
     0
  9
$PUCSORGTOP
 10
0.0
 20
0.0
 30
0.0
  9
$PUCSORGBOTTOM
 10
0.0
 20
0.0
 30
0.0
  9
$PUCSORGLEFT
 10
0.0
 20
0.0
 30
0.0
  9
$PUCSORGRIGHT
 10
0.0
 20
0.0
 30
0.0
  9
$PUCSORGFRONT
 10
0.0
 20
0.0
 30
0.0
  9
$PUCSORGBACK
 10
0.0
 20
0.0
 30
0.0
  9
$USERI1
 70
     0
  9
$USERI2
 70
     0
  9
$USERI3
 70
     0
  9
$USERI4
 70
     0
  9
$USERI5
 70
     0
  9
$USERR1
 40
0.0
  9
$USERR2
 40
0.0
  9
$USERR3
 40
0.0
  9
$USERR4
 40
0.0
  9
$USERR5
 40
0.0
  9
$WORLDVIEW
 70
     1
  9
$SHADEDGE
 70
     3
  9
$SHADEDIF
 70
    70
  9
$TILEMODE
 70
     1
  9
$MAXACTVP
 70
    64
  9
$PINSBASE
 10
0.0
 20
0.0
 30
0.0
  9
$PLIMCHECK
 70
     0
  9
$PEXTMIN
 10
0.0
 20
0.0
 30
0.0
  9
$PEXTMAX
 10
1682.0
 20
2378.0
 30
0.0
  9
$PLIMMIN
 10
0.0
 20
0.0
  9
$PLIMMAX
 10
1682.0
 20
2378.0
  9
$UNITMODE
 70
     0
  9
$VISRETAIN
 70
     1
  9
$PLINEGEN
 70
     0
  9
$PSLTSCALE
 70
     1
  9
$TREEDEPTH
 70
  3020
  9
$CMLSTYLE
  2
Standard
  9
$CMLJUST
 70
     0
  9
$CMLSCALE
 40
20.0
  9
$PROXYGRAPHICS
 70
     1
  9
$MEASUREMENT
 70
     1
  9
$CELWEIGHT
370
    -1
  9
$ENDCAPS
280
     0
  9
$JOINSTYLE
280
     0
  9
$LWDISPLAY
290
     0
  9
$INSUNITS
 70
     4
  9
$HYPERLINKBASE
  1

  9
$STYLESHEET
  1

  9
$XEDIT
290
     1
  9
$CEPSNTYPE
380
     0
  9
$PSTYLEMODE
290
     1
  9
$FINGERPRINTGUID
  2
{D7B643C3-8300-4131-9484-F1567A1C7212}
  9
$VERSIONGUID
  2
{FAEB1C32-E019-11D5-929B-00C0DF256EC4}
  9
$EXTNAMES
290
     1
  9
$PSVPSCALE
 40
0.0
  9
$OLESTARTUP
290
     0
  0
ENDSEC
  0
SECTION
  2
CLASSES
  0
CLASS
  1
ACDBDICTIONARYWDFLT
  2
AcDbDictionaryWithDefault
  3
ObjectDBX Classes
 90
        0
280
     0
281
     0
  0
CLASS
  1
VISUALSTYLE
  2
AcDbVisualStyle
  3
ObjectDBX Classes
 90
     4095
280
     0
281
     0
  0
CLASS
  1
SCALE
  2
AcDbScale
  3
ObjectDBX Classes
 90
     1153
280
     0
281
     0
  0
CLASS
  1
DICTIONARYVAR
  2
AcDbDictionaryVar
  3
ObjectDBX Classes
 90
        0
280
     0
281
     0
  0
CLASS
  1
ACDBPLACEHOLDER
  2
AcDbPlaceHolder
  3
ObjectDBX Classes
 90
        0
280
     0
281
     0
  0
CLASS
  1
LAYOUT
  2
AcDbLayout
  3
ObjectDBX Classes
 90
        0
280
     0
281
     0
  0
ENDSEC
  0
SECTION
  2
TABLES
  0
TABLE
  2
VPORT
  5
8
330
0
100
AcDbSymbolTable
 70
     1
  0
VPORT
  5
29
330
8
100
AcDbSymbolTableRecord
100
AcDbViewportTableRecord
  2
*Active
 70
     0
 10
0.0
 20
0.0
 11
1.0
 21
1.0
 12
344.1869158879
 22
148.5
 13
0.0
 23
0.0
 14
10.0
 24
10.0
 15
10.0
 25
10.0
 16
0.0
 26
0.0
 36
1.0
 17
0.0
 27
0.0
 37
0.0
 40
297.0
 41
1.9729729729
 42
50.0
 43
0.0
 44
0.0
 50
0.0
 51
0.0
 71
     0
 72
   100
 73
     1
 74
     3
 75
     0
 76
     0
 77
     0
 78
     0
281
     0
 65
     1
110
0.0
120
0.0
130
0.0
111
1.0
121
0.0
131
0.0
112
0.0
122
1.0
132
0.0
 79
     0
146
0.0
  0
ENDTAB
  0
TABLE
  2
LTYPE
  5
5
330
0
100
AcDbSymbolTable
 70
     2
  0
LTYPE
  5
14
330
5
100
AcDbSymbolTableRecord
100
AcDbLinetypeTableRecord
  2
ByBlock
 70
     0
  3

 72
    65
 73
     0
 40
0.0
  0
LTYPE
  5
15
330
5
100
AcDbSymbolTableRecord
100
AcDbLinetypeTableRecord
  2
ByLayer
 70
     0
  3

 72
    65
 73
     0
 40
0.0
  0
LTYPE
  5
16
330
5
100
AcDbSymbolTableRecord
100
AcDbLinetypeTableRecord
  2
Continuous
 70
     0
  3
Solid line
 72
    65
 73
     0
 40
0.0
  0
LTYPE
  5
60
330
5
100
AcDbSymbolTableRecord
100
AcDbLinetypeTableRecord
  2
CENTER2
 70
     0
  3
Center (.5x) ___ _ ___ _ ___ _ ___ _ ___ _ ___
 72
    65
 73
     4
 40
28.575
 49
19.05
 74
     4
 75
     0
340
0
 46
0.0
 50
0.0
 44
0.0
 45
0.0
 49
-3.175
 74
     4
 75
     0
340
0
 46
0.0
 50
0.0
 44
0.0
 45
0.0
 49
3.175
 74
     4
 75
     0
340
0
 46
0.0
 50
0.0
 44
0.0
 45
0.0
 49
-3.175
 74
     4
 75
     0
340
0
 46
0.0
 50
0.0
 44
0.0
 45
0.0
  0
ENDTAB
  0
TABLE
  2
LAYER
  5
2
330
0
100
AcDbSymbolTable
 70
    13
  0
LAYER
  5
10
330
2
100
AcDbSymbolTableRecord
100
AcDbLayerTableRecord
  2
0
 70
     0
 62
     7
  6
Continuous
370
    -3
390
F
  0
LAYER
  5
5D
330
2
100
AcDbSymbolTableRecord
100
AcDbLayerTableRecord
  2
Default
 70
     0
 62
     7
  6
Continuous
370
    -3
390
F
  0
LAYER
  5
70
330
2
100
AcDbSymbolTableRecord
100
AcDbLayerTableRecord
  2
$DDT_AUDIT_GENERATED_(70)
 70
     0
 62
     7
  6
Continuous
370
    -3
390
F
  0
LAYER
  5
A2
330
2
100
AcDbSymbolTableRecord
100
AcDbLayerTableRecord
  2
$DDT_AUDIT_GENERATED_(A2)
 70
     0
 62
     7
  6
Continuous
370
    -3
390
F
  0
LAYER
  5
B5
330
2
100
AcDbSymbolTableRecord
100
AcDbLayerTableRecord
  2
$DDT_AUDIT_GENERATED_(B5)
 70
     0
 62
     7
  6
Continuous
370
    -3
390
F
  0
LAYER
  5
B9
330
2
100
AcDbSymbolTableRecord
100
AcDbLayerTableRecord
  2
$DDT_AUDIT_GENERATED_(B9)
 70
     0
 62
     7
  6
Continuous
370
    -3
390
F
  0
LAYER
  5
BE
330
2
100
AcDbSymbolTableRecord
100
AcDbLayerTableRecord
  2
$DDT_AUDIT_GENERATED_(BE)
 70
     0
 62
     7
  6
Continuous
370
    -3
390
F
  0
LAYER
  5
E6
330
2
100
AcDbSymbolTableRecord
100
AcDbLayerTableRecord
  2
09719038_ROSETTE
 70
     0
 62
     7
  6
Continuous
370
    -3
390
F
  0
LAYER
  5
EA
330
2
100
AcDbSymbolTableRecord
100
AcDbLayerTableRecord
  2
02636038_GEHÄUSE
 70
     0
 62
     7
  6
Continuous
370
    -3
390
F
  0
LAYER
  5
FB
330
2
100
AcDbSymbolTableRecord
100
AcDbLayerTableRecord
  2
$DDT_AUDIT_GENERATED_(FB)
 70
     0
 62
     7
  6
Continuous
370
    -3
390
F
  0
LAYER
  5
158
330
2
100
AcDbSymbolTableRecord
100
AcDbLayerTableRecord
  2
$DDT_AUDIT_GENERATED_(158)
 70
     0
 62
     7
  6
Continuous
370
    -3
390
F
  0
LAYER
  5
192
330
2
100
AcDbSymbolTableRecord
100
AcDbLayerTableRecord
  2
$DDT_AUDIT_GENERATED_(192)
 70
     0
 62
     7
  6
Continuous
370
    -3
390
F
  0
LAYER
  5
19C
330
2
100
AcDbSymbolTableRecord
100
AcDbLayerTableRecord
  2
04165000_H_LSE_0
 70
     0
 62
     7
  6
Continuous
370
    -3
390
F
  0
ENDTAB
  0
TABLE
  2
STYLE
  5
3
330
0
100
AcDbSymbolTable
 70
     2
  0
STYLE
  5
11
330
3
100
AcDbSymbolTableRecord
100
AcDbTextStyleTableRecord
  2
Standard
 70
     0
 40
0.0
 41
1.0
 50
0.0
 71
     0
 42
2.5
  3
txt
  4

  0
STYLE
  5
1FD
330
3
100
AcDbSymbolTableRecord
100
AcDbTextStyleTableRecord
  2
SEACAD_seiso_ttf
 70
     0
 40
0.0
 41
1.0
 50
0.0
 71
     0
 42
0.2
  3
seiso.ttf
  4

  0
ENDTAB
  0
TABLE
  2
VIEW
  5
6
330
0
100
AcDbSymbolTable
 70
     0
  0
ENDTAB
  0
TABLE
  2
UCS
  5
7
330
0
100
AcDbSymbolTable
 70
     0
  0
ENDTAB
  0
TABLE
  2
APPID
  5
9
330
0
100
AcDbSymbolTable
 70
     1
  0
APPID
  5
12
330
9
100
AcDbSymbolTableRecord
100
AcDbRegAppTableRecord
  2
ACAD
 70
     0
  0
ENDTAB
  0
TABLE
  2
DIMSTYLE
  5
A
330
0
100
AcDbSymbolTable
 70
     1
100
AcDbDimStyleTable
  0
DIMSTYLE
105
27
330
A
100
AcDbSymbolTableRecord
100
AcDbDimStyleTableRecord
  2
ISO-25
 70
     0
 41
2.5
 42
0.625
 43
3.75
 44
1.25
 73
     0
 74
     0
 77
     1
 78
     8
140
2.5
141
2.5
143
0.0393700787
147
0.625
171
     3
172
     1
271
     2
272
     2
274
     3
278
    44
283
     0
284
     8
340
11
  0
ENDTAB
  0
TABLE
  2
BLOCK_RECORD
  5
1
330
0
100
AcDbSymbolTable
 70
     7
  0
BLOCK_RECORD
  5
1F
330
1
100
AcDbSymbolTableRecord
100
AcDbBlockTableRecord
  2
*Model_Space
340
22
  0
BLOCK_RECORD
  5
1B
330
1
100
AcDbSymbolTableRecord
100
AcDbBlockTableRecord
  2
*Paper_Space
340
1E
  0
BLOCK_RECORD
  5
5E
330
1
100
AcDbSymbolTableRecord
100
AcDbBlockTableRecord
  2
SEANNOT_GROUP
340
0
102
{BLKREFS
331
5F
102
}
  0
BLOCK_RECORD
  5
64
330
1
100
AcDbSymbolTableRecord
100
AcDbBlockTableRecord
  2
SEANNOT_GROUP1
340
0
102
{BLKREFS
331
65
102
}
  0
BLOCK_RECORD
  5
69
330
1
100
AcDbSymbolTableRecord
100
AcDbBlockTableRecord
  2
SEANNOT_GROUP2
340
0
102
{BLKREFS
331
6A
102
}
  0
BLOCK_RECORD
  5
6E
330
1
100
AcDbSymbolTableRecord
100
AcDbBlockTableRecord
  2
SE
340
0
102
{BLKREFS
331
6F
102
}
  0
BLOCK_RECORD
  5
12A
330
1
100
AcDbSymbolTableRecord
100
AcDbBlockTableRecord
  2
SE1
340
0
102
{BLKREFS
331
12B
102
}
  0
BLOCK_RECORD
  5
1B4
330
1
100
AcDbSymbolTableRecord
100
AcDbBlockTableRecord
  2
SE2
340
0
102
{BLKREFS
331
1B5
102
}
  0
ENDTAB
  0
ENDSEC
  0
SECTION
  2
BLOCKS
  0
BLOCK
  5
20
330
1F
100
AcDbEntity
  8
0
100
AcDbBlockBegin
  2
*Model_Space
 70
     0
 10
0.0
 20
0.0
 30
0.0
  3
*Model_Space
  1

  0
ENDBLK
  5
21
330
1F
100
AcDbEntity
  8
0
100
AcDbBlockEnd
  0
BLOCK
  5
1C
330
1B
100
AcDbEntity
 67
     1
  8
0
100
AcDbBlockBegin
  2
*Paper_Space
 70
     0
 10
0.0
 20
0.0
 30
0.0
  3
*Paper_Space
  1

  0
ENDBLK
  5
1D
330
1B
100
AcDbEntity
 67
     1
  8
0
100
AcDbBlockEnd
  0
BLOCK
  5
62
330
5E
100
AcDbEntity
  8
0
100
AcDbBlockBegin
  2
SEANNOT_GROUP
 70
     0
 10
0.0
 20
0.0
 30
0.0
  3
SEANNOT_GROUP
  1

  0
LINE
  5
61
330
5E
100
AcDbEntity
  8
Default
  6
CENTER2
 62
     7
100
AcDbLine
 10
116.332717947
 20
475.9957036675
 30
0.0
 11
116.332717947
 21
605.4801537878
 31
0.0
  0
ENDBLK
  5
63
330
5E
100
AcDbEntity
  8
0
100
AcDbBlockEnd
  0
BLOCK
  5
67
330
64
100
AcDbEntity
  8
0
100
AcDbBlockBegin
  2
SEANNOT_GROUP1
 70
     0
 10
0.0
 20
0.0
 30
0.0
  3
SEANNOT_GROUP1
  1

  0
LINE
  5
66
330
64
100
AcDbEntity
  8
Default
  6
CENTER2
 62
     7
100
AcDbLine
 10
116.3362718779
 20
321.8576912429
 30
0.0
 11
116.3362718779
 21
410.3546692298
 31
0.0
  0
ENDBLK
  5
68
330
64
100
AcDbEntity
  8
0
100
AcDbBlockEnd
  0
BLOCK
  5
6C
330
69
100
AcDbEntity
  8
0
100
AcDbBlockBegin
  2
SEANNOT_GROUP2
 70
     0
 10
0.0
 20
0.0
 30
0.0
  3
SEANNOT_GROUP2
  1

  0
LINE
  5
6B
330
69
100
AcDbEntity
  8
Default
  6
CENTER2
 62
     7
100
AcDbLine
 10
313.3786979087
 20
559.917340816
 30
0.0
 11
286.4164292624
 21
559.917340816
 31
0.0
  0
ENDBLK
  5
6D
330
69
100
AcDbEntity
  8
0
100
AcDbBlockEnd
  0
BLOCK
  5
128
330
6E
100
AcDbEntity
  8
0
100
AcDbBlockBegin
  2
SE
 70
     0
 10
0.0
 20
0.0
 30
0.0
  3
SE
  1

  0
ARC
  5
71
330
6E
100
AcDbEntity
  8
$DDT_AUDIT_GENERATED_(70)
  6
Continuous
 62
     7
100
AcDbCircle
 10
90.8496553206
 20
429.5184603965
 30
0.0
 40
115.4066430842489
100
AcDbArc
 50
89.1297190256
 51
91.7822804377
  0
SPLINE
  5
72
330
6E
100
AcDbEntity
  8
$DDT_AUDIT_GENERATED_(70)
  6
Continuous
 62
     7
100
AcDbSpline
210
0.0
220
0.0
230
1.0
 70
     8
 71
     3
 72
    21
 73
    17
 74
     0
 42
0.0000000050781698
 43
0.0000000001
 40
0.0
 40
0.0
 40
0.0
 40
0.0
 40
0.0562198116775713
 40
0.1126618898467519
 40
0.169153922895847
 40
0.2255217657837036
 40
0.2815924466131793
 40
0.3371971206232802
 40
0.3921738464796635
 40
0.4463700736779182
 40
0.499644751832743
 40
0.5926975806657492
 40
0.6902616681164803
 40
0.7914167809654095
 40
0.8950683524534084
 40
1.0
 40
1.0
 40
1.0
 40
1.0
 10
191.9064969901186
 20
544.4171578094671
 30
0.0
 10
191.9062664986984
 20
544.3690988267408
 30
0.0
 10
191.9058046045994
 20
544.272790859047
 30
0.0
 10
191.9020482765185
 20
544.1289436360478
 30
0.0
 10
191.8960382799747
 20
543.9864802259998
 30
0.0
 10
191.887600428888
 20
543.846580015227
 30
0.0
 10
191.8768845473872
 20
543.7103706855182
 30
0.0
 10
191.8640089784332
 20
543.5788961261384
 30
0.0
 10
191.8491502266077
 20
543.4530904168344
 30
0.0
 10
191.8325101546384
 20
543.333751308943
 30
0.0
 10
191.8096702513524
 20
543.192856162484
 30
0.0
 10
191.7782756413822
 20
543.0331285138094
 30
0.0
 10
191.7355673018897
 20
542.8629719399015
 30
0.0
 10
191.6863270562888
 20
542.7128089965763
 30
0.0
 10
191.6316966020965
 20
542.5861574838351
 30
0.0
 10
191.5922099833887
 20
542.5288552378782
 30
0.0
 10
191.5718202447183
 20
542.4994382276169
 30
0.0
  0
LINE
  5
73
330
6E
100
AcDbEntity
  8
$DDT_AUDIT_GENERATED_(70)
  6
Continuous
 62
     7
100
AcDbLine
 10
191.6841388066
 20
544.4139770082
 30
0.0
 11
191.9064969901
 21
544.4171578094
 31
0.0
  0
ARC
  5
74
330
6E
100
AcDbEntity
  8
$DDT_AUDIT_GENERATED_(70)
  6
Continuous
 62
     7
100
AcDbCircle
 10
141.7938765696
 20
426.53801433
 30
0.0
 40
118.3864051524719
100
AcDbArc
 50
88.2511075219
 51
90.8368930147
  0
ARC
  5
75
330
6E
100
AcDbEntity
  8
$DDT_AUDIT_GENERATED_(70)
  6
Continuous
 62
     7
100
AcDbCircle
 10
116.3336264287
 20
5287.7684935772
 30
0.0
 40
4742.916072226973
100
AcDbArc
 50
269.7133203922
 51
270.2866796078
  0
LINE
  5
76
330
6E
100
AcDbEntity
  8
$DDT_AUDIT_GENERATED_(70)
  6
Continuous
 62
     7
100
AcDbLine
 10
40.9831140507
 20
544.4139770083
 30
0.0
 11
40.7607558672
 21
544.4171578094
 31
0.0
  0
SPLINE
  5
77
330
6E
100
AcDbEntity
  8
$DDT_AUDIT_GENERATED_(70)
  6
Continuous
 62
     7
100
AcDbSpline
210
0.0
220
0.0
230
1.0
 70
     8
 71
     3
 72
    22
 73
    18
 74
     0
 42
0.0000000050796276
 43
0.0000000001
 40
0.0
 40
0.0
 40
0.0
 40
0.0
 40
0.0525719721042895
 40
0.1049822050680794
 40
0.157071815033183
 40
0.2086851864522855
 40
0.2596723409006403
 40
0.3098910795529959
 40
0.3592088256480047
 40
0.4075041137727071
 40
0.4546676954623179
 40
0.5006032532135988
 40
0.597116450283555
 40
0.696245583245364
 40
0.7970936414103622
 40
0.8986816458797342
 40
1.0
 40
1.0
 40
1.0
 40
1.0
 10
41.09534234063587
 20
542.499497760007
 30
0.0
 10
41.08490524002779
 20
542.5136262073723
 30
0.0
 10
41.06493179575669
 20
542.5407802220379
 30
0.0
 10
41.03592210158006
 20
542.5922107109437
 30
0.0
 10
41.00790457088029
 20
542.650867095162
 30
0.0
 10
40.98112688876289
 20
542.7169165884346
 30
0.0
 10
40.95574243419395
 20
542.7894289020452
 30
0.0
 10
40.93188971996166
 20
542.8676574776755
 30
0.0
 10
40.90966855047852
 20
542.9507314834273
 30
0.0
 10
40.88914532560175
 20
543.0377659586196
 30
0.0
 10
40.87035221627848
 20
543.1278718138678
 30
0.0
 10
40.84686169102476
 20
543.2549187561705
 30
0.0
 10
40.82038606135161
 20
543.4282234133278
 30
0.0
 10
40.79433179561039
 20
543.6566284182509
 30
0.0
 10
40.77518286682822
 20
543.9015572719294
 30
0.0
 10
40.7630085407479
 20
544.1569618186968
 30
0.0
 10
40.76150609282177
 20
544.3305026876034
 30
0.0
 10
40.76075586719018
 20
544.417157809367
 30
0.0
  0
SPLINE
  5
78
330
6E
100
AcDbEntity
  8
$DDT_AUDIT_GENERATED_(70)
  6
Continuous
 62
     7
100
AcDbSpline
210
0.0
220
0.0
230
1.0
 70
     8
 71
     3
 72
    12
 73
     8
 74
     0
 42
0.0000000028465993
 43
0.0000000001
 40
0.0
 40
0.0
 40
0.0
 40
0.0
 40
0.25
 40
0.25
 40
0.5
 40
0.5
 40
1.0
 40
1.0
 40
1.0
 40
1.0
 10
41.09534234063587
 20
542.499497760007
 30
0.0
 10
41.09469169594687
 20
542.0126112196306
 30
0.0
 10
41.09534326603144
 20
541.5777991831076
 30
0.0
 10
41.09540515966661
 20
540.8020781799339
 30
0.0
 10
41.09540018328988
 20
540.4622581383787
 30
0.0
 10
41.09543119138029
 20
539.5856185686949
 30
0.0
 10
41.0953722637429
 20
539.1901376863739
 30
0.0
 10
41.09548084744488
 20
538.9865350616055
 30
0.0
  0
ARC
  5
79
330
6E
100
AcDbEntity
  8
$DDT_AUDIT_GENERATED_(70)
  6
Continuous
 62
     7
100
AcDbCircle
 10
116.3336264378
 20
-40272.7332808242
 30
0.0
 40
40811.78916819155
100
AcDbArc
 50
90.0291326284
 51
90.1056270928
  0
ARC
  5
7A
330
6E
100
AcDbEntity
  8
$DDT_AUDIT_GENERATED_(70)
  6
Continuous
 62
     7
100
AcDbCircle
 10
116.3336264378
 20
-40272.7332808242
 30
0.0
 40
40811.78916819155
100
AcDbArc
 50
89.8943729072
 51
89.9708705736
  0
SPLINE
  5
7B
330
6E
100
AcDbEntity
  8
$DDT_AUDIT_GENERATED_(70)
  6
Continuous
 62
     7
100
AcDbSpline
210
0.0
220
0.0
230
1.0
 70
     8
 71
     3
 72
    12
 73
     8
 74
     0
 42
0.0000000028466475
 43
0.0000000001
 40
0.0
 40
0.0
 40
0.0
 40
0.0
 40
0.5
 40
0.5
 40
0.75
 40
0.75
 40
1.0
 40
1.0
 40
1.0
 40
1.0
 10
191.5717720098656
 20
538.9865350616395
 30
0.0
 10
191.5718805935447
 20
539.1901376846519
 30
0.0
 10
191.5718216659305
 20
539.5856185646301
 30
0.0
 10
191.5718526740209
 20
540.462258126846
 30
0.0
 10
191.5718476976437
 20
540.8020781654202
 30
0.0
 10
191.5719095912801
 20
541.5777991616102
 30
0.0
 10
191.5725611612913
 20
542.01261119432
 30
0.0
 10
191.5718202447183
 20
542.4994382276169
 30
0.0
  0
ARC
  5
7C
330
6E
100
AcDbEntity
  8
$DDT_AUDIT_GENERATED_(70)
  6
Continuous
 62
     7
100
AcDbCircle
 10
191.2946580998
 20
559.9263482835
 30
0.0
 40
20.94164678063381
100
AcDbArc
 50
270.7581982954
 51
89.2417995177
  0
ARC
  5
7D
330
6E
100
AcDbEntity
  8
$DDT_AUDIT_GENERATED_(70)
  6
Continuous
 62
     7
100
AcDbCircle
 10
139.5078366152
 20
-19434.6226466254
 30
0.0
 40
20015.5565219015
100
AcDbArc
 50
89.8509635658
 51
89.978891094
  0
SPLINE
  5
7E
330
6E
100
AcDbEntity
  8
$DDT_AUDIT_GENERATED_(70)
  6
Continuous
 62
     7
100
AcDbSpline
210
0.0
220
0.0
230
1.0
 70
     8
 71
     3
 72
    12
 73
     8
 74
     0
 42
0.0000000005487107
 43
0.0000000001
 40
0.0
 40
0.0
 40
0.0
 40
0.0
 40
0.0054990846300701
 40
0.1174981442046107
 40
0.4490804570498996
 40
0.7421156040639806
 40
1.0
 40
1.0
 40
1.0
 40
1.0
 10
163.6314498818511
 20
575.3732319106532
 30
0.0
 10
163.5983916721217
 20
575.3732230602043
 30
0.0
 10
162.8918781722569
 20
575.3730153455939
 30
0.0
 10
160.1884158483108
 20
575.3649128845132
 30
0.0
 10
155.7303030810336
 20
575.3594981762878
 30
0.0
 10
150.358418660808
 20
575.3514258497545
 30
0.0
 10
146.9856981345297
 20
575.3477668573689
 30
0.0
 10
145.4069340311875
 20
575.3460540639871
 30
0.0
  0
ARC
  5
7F
330
6E
100
AcDbEntity
  8
$DDT_AUDIT_GENERATED_(70)
  6
Continuous
 62
     7
100
AcDbCircle
 10
191.7883298922
 20
559.9263357424
 30
0.0
 40
15.50962809412094
100
AcDbArc
 50
270.4365379653
 51
89.5634675233
  0
ARC
  5
80
330
6E
100
AcDbEntity
  8
$DDT_AUDIT_GENERATED_(70)
  6
Continuous
 62
     7
100
AcDbCircle
 10
169.3307246497
 20
4406.2496672084
 30
0.0
 40
3830.880674760365
100
AcDbArc
 50
269.9147599368
 51
270.3376518315
  0
LINE
  5
81
330
6E
100
AcDbEntity
  8
$DDT_AUDIT_GENERATED_(70)
  6
Continuous
 62
     7
100
AcDbLine
 10
116.3336264287
 20
614.8578736475
 30
0.0
 11
141.3336384674
 21
614.8578736475
 31
0.0
  0
LINE
  5
82
330
6E
100
AcDbEntity
  8
$DDT_AUDIT_GENERATED_(70)
  6
Continuous
 62
     7
100
AcDbLine
 10
142.3336384674
 20
613.8578736475
 30
0.0
 11
116.3336264287
 21
613.8578736475
 31
0.0
  0
ARC
  5
83
330
6E
100
AcDbEntity
  8
$DDT_AUDIT_GENERATED_(70)
  6
Continuous
 62
     7
100
AcDbCircle
 10
563.820383436
 20
539.48947109
 30
0.0
 40
372.2489430647627
100
AcDbArc
 50
180.0754402067
 51
180.0776270531
  0
ARC
  5
84
330
6E
100
AcDbEntity
  8
$DDT_AUDIT_GENERATED_(70)
  6
Continuous
 62
     7
100
AcDbCircle
 10
65.8900854288
 20
5565.5285381665
 30
0.0
 40
4990.156297761866
100
AcDbArc
 50
269.7114698538
 51
270.0361183779
  0
ARC
  5
85
330
6E
100
AcDbEntity
  8
$DDT_AUDIT_GENERATED_(70)
  6
Continuous
 62
     7
100
AcDbCircle
 10
40.8769627613
 20
559.9263357424
 30
0.0
 40
15.50961328343248
100
AcDbArc
 50
90.4292912811
 51
269.5707032303
  0
SPLINE
  5
86
330
6E
100
AcDbEntity
  8
$DDT_AUDIT_GENERATED_(70)
  6
Continuous
 62
     7
100
AcDbSpline
210
0.0
220
0.0
230
1.0
 70
     8
 71
     3
 72
    12
 73
     8
 74
     0
 42
0.0000000005487108
 43
0.0000000001
 40
0.0
 40
0.0
 40
0.0
 40
0.0
 40
0.0634703629058836
 40
0.2503837091000488
 40
0.5019873845175394
 40
0.7509958122968713
 40
1.0
 40
1.0
 40
1.0
 40
1.0
 10
69.03580297546009
 20
575.3732319106532
 30
0.0
 10
69.41759302696138
 20
575.372545247089
 30
0.0
 10
70.92359217080084
 20
575.3696266492979
 30
0.0
 10
73.95283896492651
 20
575.3637367489871
 30
0.0
 10
78.12127169255193
 20
575.3574622923643
 30
0.0
 10
82.68683624146445
 20
575.35106860415
 30
0.0
 10
85.73583329401336
 20
575.3477255851989
 30
0.0
 10
87.26031882612368
 20
575.3460540639871
 30
0.0
  0
LINE
  5
87
330
6E
100
AcDbEntity
  8
$DDT_AUDIT_GENERATED_(70)
  6
Continuous
 62
     7
100
AcDbLine
 10
116.3336264287
 20
614.8578736475
 30
0.0
 11
91.3336143899
 21
614.8578736475
 31
0.0
  0
LINE
  5
88
330
6E
100
AcDbEntity
  8
$DDT_AUDIT_GENERATED_(70)
  6
Continuous
 62
     7
100
AcDbLine
 10
90.333584661
 20
613.8579033765
 30
0.0
 11
91.3335854713
 21
614.8579025661
 31
0.0
  0
LINE
  5
89
330
6E
100
AcDbEntity
  8
$DDT_AUDIT_GENERATED_(70)
  6
Continuous
 62
     7
100
AcDbLine
 10
90.33361439
 20
613.8578736475
 30
0.0
 11
116.3336264287
 21
613.8578736475
 31
0.0
  0
ARC
  5
8A
330
6E
100
AcDbEntity
  8
$DDT_AUDIT_GENERATED_(70)
  6
Continuous
 62
     7
100
AcDbCircle
 10
95.2953338715
 20
-21222.705784114
 30
0.0
 40
21803.63931116752
100
AcDbArc
 50
90.0249905796
 51
90.1424269604
  0
ARC
  5
8B
330
6E
100
AcDbEntity
  8
$DDT_AUDIT_GENERATED_(70)
  6
Continuous
 62
     7
100
AcDbCircle
 10
41.3728432002
 20
559.9263482835
 30
0.0
 40
20.9416500696898
100
AcDbArc
 50
90.7588801553
 51
269.2411220316
  0
LINE
  5
8C
330
6E
100
AcDbEntity
  8
$DDT_AUDIT_GENERATED_(70)
  6
Continuous
 62
     7
100
AcDbLine
 10
41.0954806403
 20
538.9848658039
 30
0.0
 11
41.0954806671
 21
538.9993154931
 31
0.0
  0
ARC
  5
8D
330
6E
100
AcDbEntity
  8
$DDT_AUDIT_GENERATED_(70)
  6
Continuous
 62
     7
100
AcDbCircle
 10
52.3539290115
 20
1740.7437410076
 30
0.0
 40
1196.383801153959
100
AcDbArc
 50
269.4554343556
 51
271.6719322654
  0
ARC
  5
8E
330
6E
100
AcDbEntity
  8
$DDT_AUDIT_GENERATED_(70)
  6
Continuous
 62
     7
100
AcDbCircle
 10
187.7683442841
 20
2498.4873506273
 30
0.0
 40
1954.077297072418
100
AcDbArc
 50
268.7578177318
 51
270.1148156473
  0
SPLINE
  5
8F
330
6E
100
AcDbEntity
  8
$DDT_AUDIT_GENERATED_(70)
  6
Continuous
 62
     7
100
AcDbSpline
210
0.0
220
0.0
230
1.0
 70
     8
 71
     3
 72
    11
 73
     7
 74
     0
 42
0.000000000294678
 43
0.0000000001
 40
0.1177149887962651
 40
0.1177149887962651
 40
0.1177149887962651
 40
0.1177149887962651
 40
0.1262282699097967
 40
0.1348481161389604
 40
0.144152397057048
 40
0.1525596943644114
 40
0.1525596943644114
 40
0.1525596943644114
 40
0.1525596943644114
 10
138.8631981301295
 20
542.9191726985828
 30
0.0
 10
138.7482478500071
 20
542.9179020715084
 30
0.0
 10
138.5309940889977
 20
542.9151204003527
 30
0.0
 10
138.2442324378766
 20
542.9109439375914
 30
0.0
 10
137.9741327690271
 20
542.9067714468567
 30
0.0
 10
137.7769758546162
 20
542.9038297778757
 30
0.0
 10
137.680850151067
 20
542.9024728695697
 30
0.0
  0
SPLINE
  5
90
330
6E
100
AcDbEntity
  8
$DDT_AUDIT_GENERATED_(70)
  6
Continuous
 62
     7
100
AcDbSpline
210
0.0
220
0.0
230
1.0
 70
     8
 71
     3
 72
    12
 73
     8
 74
     0
 42
0.0000000002948441
 43
0.0000000001
 40
0.8473073045965512
 40
0.8473073045965512
 40
0.8473073045965512
 40
0.8473073045965512
 40
0.8473978653683861
 40
0.8558267920331633
 40
0.8646923690672502
 40
0.8734404780552885
 40
0.8820944344900603
 40
0.8820944344900603
 40
0.8820944344900603
 40
0.8820944344900603
 10
94.98601111221899
 20
542.902478888572
 30
0.0
 10
94.98497356901701
 20
542.902493527378
 30
0.0
 10
94.88739372369967
 20
542.9038711140573
 30
0.0
 10
94.69342182575284
 20
542.9067673185652
 30
0.0
 10
94.42671654783031
 20
542.9108839671908
 30
0.0
 10
94.14313193590976
 20
542.9150284195796
 30
0.0
 10
93.92310840042809
 20
542.9178556413858
 30
0.0
 10
93.80628154604497
 20
542.9191474479907
 30
0.0
  0
SPLINE
  5
91
330
6E
100
AcDbEntity
  8
$DDT_AUDIT_GENERATED_(70)
  6
Continuous
 62
     7
100
AcDbSpline
210
0.0
220
0.0
230
1.0
 70
     8
 71
     3
 72
    10
 73
     6
 74
     0
 42
0.0000000004245303
 43
0.0000000001
 40
0.2694981315571315
 40
0.2694981315571315
 40
0.2694981315571315
 40
0.2694981315571315
 40
0.2812499999999998
 40
0.2812499999999998
 40
0.3021366297445894
 40
0.3021366297445894
 40
0.3021366297445894
 40
0.3021366297445894
 10
95.08318714924434
 20
542.7291617035029
 30
0.0
 10
95.0830462920001
 20
542.663630638183
 30
0.0
 10
95.10203799942077
 20
542.5943410784432
 30
0.0
 10
95.2081045281011
 20
542.3991293530468
 30
0.0
 10
95.33498533087514
 20
542.2692892555824
 30
0.0
 10
95.52139709349305
 20
542.1384765488752
 30
0.0
  0
SPLINE
  5
92
330
6E
100
AcDbEntity
  8
$DDT_AUDIT_GENERATED_(70)
  6
Continuous
 62
     7
100
AcDbSpline
210
0.0
220
0.0
230
1.0
 70
     8
 71
     3
 72
    10
 73
     6
 74
     0
 42
0.0000000004235441
 43
0.0000000001
 40
0.7382661752731412
 40
0.7382661752731412
 40
0.7382661752731412
 40
0.7382661752731412
 40
0.7499999999999999
 40
0.7499999999999999
 40
0.7706027536419343
 40
0.7706027536419343
 40
0.7706027536419343
 40
0.7706027536419343
 10
137.1508765095465
 20
542.1438188636205
 30
0.0
 10
137.2549998092361
 20
542.2172243299796
 30
0.0
 10
137.3406515252298
 20
542.2906308464827
 30
0.0
 10
137.5250002943346
 20
542.4914303715829
 30
0.0
 10
137.5831504406585
 20
542.6161076183768
 30
0.0
 10
137.582945121854
 20
542.7292218926723
 30
0.0
  0
SPLINE
  5
93
330
6E
100
AcDbEntity
  8
$DDT_AUDIT_GENERATED_(70)
  6
Continuous
 62
     7
100
AcDbSpline
210
0.0
220
0.0
230
1.0
 70
     8
 71
     3
 72
    20
 73
    16
 74
     0
 42
0.0000000001122654
 43
0.0000000001
 40
0.0
 40
0.0
 40
0.0
 40
0.0
 40
0.0312500000000001
 40
0.0312500000000001
 40
0.0625000000000002
 40
0.0625000000000002
 40
0.0937500000000002
 40
0.0937500000000002
 40
0.1250000000000003
 40
0.1250000000000003
 40
0.1562500000000004
 40
0.1562500000000004
 40
0.1875000000000005
 40
0.1875000000000005
 40
0.2103071339327058
 40
0.2103071339327058
 40
0.2103071339327058
 40
0.2103071339327058
 10
119.0293612148297
 20
542.7957648265506
 30
0.0
 10
120.4437105032223
 20
542.7966882634008
 30
0.0
 10
121.8168715209695
 20
542.7982608251168
 30
0.0
 10
124.4841771527951
 20
542.8027270727417
 30
0.0
 10
125.7916977620969
 20
542.8056748765686
 30
0.0
 10
128.2478901223344
 20
542.8132555989228
 30
0.0
 10
129.3940321641115
 20
542.8177940693313
 30
0.0
 10
131.5238710810035
 20
542.8298783400102
 30
0.0
 10
132.5106871930501
 20
542.8369978142114
 30
0.0
 10
134.2338225631951
 20
542.8546598396892
 30
0.0
 10
134.9826704717557
 20
542.8677150386576
 30
0.0
 10
136.2500911023439
 20
542.8924475333495
 30
0.0
 10
136.7571088553896
 20
542.9098363615037
 30
0.0
 10
137.3982428732842
 20
542.854955444031
 30
0.0
 10
137.5981275361323
 20
542.7982794083279
 30
0.0
 10
137.7238690644137
 20
542.7107530408072
 30
0.0
  0
SPLINE
  5
94
330
6E
100
AcDbEntity
  8
$DDT_AUDIT_GENERATED_(70)
  6
Continuous
 62
     7
100
AcDbSpline
210
0.0
220
0.0
230
1.0
 70
     8
 71
     3
 72
     8
 73
     4
 74
     0
 42
0.0000000002653099
 43
0.0000000001
 40
0.2654324277826395
 40
0.2654324277826395
 40
0.2654324277826395
 40
0.2654324277826395
 40
0.2718309661218554
 40
0.2718309661218554
 40
0.2718309661218554
 40
0.2718309661218554
 10
137.3440992124673
 20
541.7812170564239
 30
0.0
 10
137.2800841602296
 20
541.7408829696897
 30
0.0
 10
137.21049709369
 20
541.700564704764
 30
0.0
 10
137.1354667625674
 20
541.6604374611883
 30
0.0
  0
SPLINE
  5
95
330
6E
100
AcDbEntity
  8
$DDT_AUDIT_GENERATED_(70)
  6
Continuous
 62
     7
100
AcDbSpline
210
0.0
220
0.0
230
1.0
 70
     8
 71
     3
 72
     8
 73
     4
 74
     0
 42
0.0000000002670053
 43
0.0000000001
 40
0.688409118435994
 40
0.688409118435994
 40
0.688409118435994
 40
0.688409118435994
 40
0.6955418682903873
 40
0.6955418682903873
 40
0.6955418682903873
 40
0.6955418682903873
 10
95.53229134078633
 20
541.6589065966386
 30
0.0
 10
95.44847180524148
 20
541.7035884411339
 30
0.0
 10
95.37157767547613
 20
541.7485085773143
 30
0.0
 10
95.30166822529227
 20
541.7934342171875
 30
0.0
  0
SPLINE
  5
96
330
6E
100
AcDbEntity
  8
$DDT_AUDIT_GENERATED_(70)
  6
Continuous
 62
     7
100
AcDbSpline
210
0.0
220
0.0
230
1.0
 70
     8
 71
     3
 72
    10
 73
     6
 74
     0
 42
0.0000000003029867
 43
0.0000000001
 40
0.7527578267145877
 40
0.7527578267145877
 40
0.7527578267145877
 40
0.7527578267145877
 40
0.7812500000000007
 40
0.7812500000000007
 40
0.7844508735917479
 40
0.7844508735917479
 40
0.7844508735917479
 40
0.7844508735917479
 10
94.98929277732562
 20
542.7423468415052
 30
0.0
 10
95.16869910817545
 20
542.8430745252483
 30
0.0
 10
95.46270060047499
 20
542.8861310718739
 30
0.0
 10
95.91088561081054
 20
542.8947755290203
 30
0.0
 10
95.95760198970966
 20
542.8953507566345
 30
0.0
 10
96.00574697888882
 20
542.895666424432
 30
0.0
  0
SPLINE
  5
97
330
6E
100
AcDbEntity
  8
$DDT_AUDIT_GENERATED_(70)
  6
Continuous
 62
     7
100
AcDbSpline
210
0.0
220
0.0
230
1.0
 70
     8
 71
     3
 72
    18
 73
    14
 74
     0
 42
0.00000000009249
 43
0.0000000001
 40
0.7890493984521234
 40
0.7890493984521234
 40
0.7890493984521234
 40
0.7890493984521234
 40
0.8125000000000004
 40
0.8125000000000004
 40
0.8437500000000003
 40
0.8437500000000003
 40
0.8750000000000003
 40
0.8750000000000003
 40
0.9375000000000001
 40
0.9375000000000001
 40
0.9687500000000001
 40
0.9687500000000001
 40
1.0
 40
1.0
 40
1.0
 40
1.0
 10
96.2220270544397
 20
542.8955332490688
 30
0.0
 10
96.60448014383533
 20
542.8929606981023
 30
0.0
 10
97.06185260149095
 20
542.8794072930149
 30
0.0
 10
98.28252174473057
 20
542.8572816432956
 30
0.0
 10
99.09281909473664
 20
542.8469672085084
 30
0.0
 10
100.94048828851
 20
542.8313294633704
 30
0.0
 10
101.9793210896247
 20
542.8245427468138
 30
0.0
 10
105.3071717604645
 20
542.8087240824385
 30
0.0
 10
107.8963762327415
 20
542.80258705714
 30
0.0
 10
111.962371069656
 20
542.7969660316612
 30
0.0
 10
113.3699993723252
 20
542.7957149023524
 30
0.0
 10
116.2000242831894
 20
542.794632786584
 30
0.0
 10
117.615011926437
 20
542.7948413897003
 30
0.0
 10
119.0293612148297
 20
542.7957648265506
 30
0.0
  0
ARC
  5
98
330
6E
100
AcDbEntity
  8
$DDT_AUDIT_GENERATED_(70)
  6
Continuous
 62
     7
100
AcDbCircle
 10
146.9679039666
 20
244.3932025783
 30
0.0
 40
336.5324383054145
100
AcDbArc
 50
90.014631943
 51
90.4328130066
  0
LINE
  5
99
330
6E
100
AcDbEntity
  8
$DDT_AUDIT_GENERATED_(70)
  6
Continuous
 62
     7
100
AcDbLine
 10
142.3336384674
 20
585.3661752113
 30
0.0
 11
142.3336384674
 21
613.86040732
 31
0.0
  0
SPLINE
  5
9A
330
6E
100
AcDbEntity
  8
$DDT_AUDIT_GENERATED_(70)
  6
Continuous
 62
     7
100
AcDbSpline
210
0.0
220
0.0
230
1.0
 70
     8
 71
     3
 72
    16
 73
    12
 74
     0
 42
0.0000000006284374
 43
0.0000000001
 40
0.6071911222011072
 40
0.6071911222011072
 40
0.6071911222011072
 40
0.6071911222011072
 40
0.6377377539030311
 40
0.6827831681685331
 40
0.721963332072735
 40
0.7410643908634208
 40
0.7703933937500234
 40
0.8119138683957011
 40
0.8651675402311457
 40
0.9287084477988234
 40
0.990487386556355
 40
0.990487386556355
 40
0.990487386556355
 40
0.990487386556355
 10
145.221390114673
 20
580.4038270908644
 30
0.0
 10
145.2217315948606
 20
580.4051034666874
 30
0.0
 10
145.1947711397438
 20
580.4181526358724
 30
0.0
 10
145.0564686635357
 20
580.4837833507404
 30
0.0
 10
144.8329352501692
 20
580.6113228636468
 30
0.0
 10
144.553979802397
 20
580.7984596236319
 30
0.0
 10
144.1129380650698
 20
581.1453595451827
 30
0.0
 10
143.5288555777159
 20
581.7546741276105
 30
0.0
 10
142.8888548934608
 20
582.7209293596072
 30
0.0
 10
142.3976808186273
 20
584.025083465162
 30
0.0
 10
142.336095845896
 20
584.8968595427938
 30
0.0
 10
142.3187262058783
 20
585.3864326196976
 30
0.0
  0
LINE
  5
9B
330
6E
100
AcDbEntity
  8
$DDT_AUDIT_GENERATED_(70)
  6
Continuous
 62
     7
100
AcDbLine
 10
142.3336389446
 20
613.8578736475
 30
0.0
 11
141.3336389263
 21
614.8578736475
 31
0.0
  0
ARC
  5
9C
330
6E
100
AcDbEntity
  8
$DDT_AUDIT_GENERATED_(70)
  6
Continuous
 62
     7
100
AcDbCircle
 10
163.1574081098
 20
-3806.1763040375
 30
0.0
 40
4387.123709868291
100
AcDbArc
 50
89.6289059522
 51
90.1918059573
  0
LINE
  5
9D
330
6E
100
AcDbEntity
  8
$DDT_AUDIT_GENERATED_(70)
  6
Continuous
 62
     7
100
AcDbLine
 10
90.33361439
 20
613.8604236945
 30
0.0
 11
90.33361439
 21
585.3661748956
 31
0.0
  0
SPLINE
  5
9E
330
6E
100
AcDbEntity
  8
$DDT_AUDIT_GENERATED_(70)
  6
Continuous
 62
     7
100
AcDbSpline
210
0.0
220
0.0
230
1.0
 70
     8
 71
     3
 72
    16
 73
    12
 74
     0
 42
0.0000000006484375
 43
0.0000000001
 40
0.0091311732849757
 40
0.0091311732849757
 40
0.0091311732849757
 40
0.0091311732849757
 40
0.0537279805672152
 40
0.1019240361737243
 40
0.1430030311643749
 40
0.1763318156181715
 40
0.2316268351122594
 40
0.2777459450994416
 40
0.3230013005168805
 40
0.3710599222379766
 40
0.4025436083164964
 40
0.4025436083164964
 40
0.4025436083164964
 40
0.4025436083164964
 10
90.34747971649887
 20
585.369892492303
 30
0.0
 10
90.33255100388367
 20
584.9772364051378
 30
0.0
 10
90.28324109526784
 20
584.2527831124438
 30
0.0
 10
89.95109740398254
 20
583.1799333271923
 30
0.0
 10
89.51333185261134
 20
582.3320718003146
 30
0.0
 10
89.00487247847092
 20
581.6146572126374
 30
0.0
 10
88.45917769722163
 20
581.0586371228127
 30
0.0
 10
87.95226143413731
 20
580.680761465738
 30
0.0
 10
87.63152693796195
 20
580.4936338121018
 30
0.0
 10
87.47235018234434
 20
580.4180634993188
 30
0.0
 10
87.44421643190623
 20
580.4045101058205
 30
0.0
 10
87.44474574274275
 20
580.4033174842402
 30
0.0
  0
ARC
  5
9F
330
6E
100
AcDbEntity
  8
$DDT_AUDIT_GENERATED_(70)
  6
Continuous
 62
     7
100
AcDbCircle
 10
72.7653831056
 20
-5922.2423145486
 30
0.0
 40
6503.17477916227
100
AcDbArc
 50
89.8999010864
 51
90.2790267738
  0
ARC
  5
A0
330
6E
100
AcDbEntity
  8
$DDT_AUDIT_GENERATED_(70)
  6
Continuous
 62
     7
100
AcDbCircle
 10
85.6993488907
 20
244.3932025781
 30
0.0
 40
336.5324383055739
100
AcDbArc
 50
89.5681883426
 51
89.985368057
  0
SPLINE
  5
A1
330
6E
100
AcDbEntity
  8
$DDT_AUDIT_GENERATED_(70)
  6
Continuous
 62
     7
100
AcDbSpline
210
0.0
220
0.0
230
1.0
 70
     8
 71
     3
 72
    10
 73
     6
 74
     0
 42
0.0000000773731107
 43
0.0000000001
 40
0.0
 40
0.0
 40
0.0
 40
0.0
 40
0.3007974059589397
 40
0.7845724048807333
 40
1.0
 40
1.0
 40
1.0
 40
1.0
 10
95.0993242726203
 20
542.6883183644004
 30
0.0
 10
95.09769553297035
 20
542.6872278317703
 30
0.0
 10
95.10075814354796
 20
542.6880390295922
 30
0.0
 10
95.07991661654547
 20
542.6841764976834
 30
0.0
 10
95.14638872110787
 20
542.7206801305242
 30
0.0
 10
95.17008035846273
 20
542.7338032501958
 30
0.0
  0
SPLINE
  5
A3
330
6E
100
AcDbEntity
  8
$DDT_AUDIT_GENERATED_(A2)
  6
Continuous
 62
     7
100
AcDbSpline
210
0.0
220
0.0
230
1.0
 70
     8
 71
     3
 72
    12
 73
     8
 74
     0
 42
0.0000000021417072
 43
0.0000000001
 40
0.0
 40
0.0
 40
0.0
 40
0.0
 40
0.0829540329513392
 40
0.1653740537771549
 40
0.2493626910709922
 40
0.3606353312767496
 40
0.4281009961909367
 40
0.4281009961909367
 40
0.4281009961909367
 40
0.4281009961909367
 10
130.8709401288544
 20
665.4542433908168
 30
0.0
 10
130.9942269665137
 20
665.4456359121576
 30
0.0
 10
131.2400069894467
 20
665.4284763650206
 30
0.0
 10
131.5836946495313
 20
665.5943670468621
 30
0.0
 10
131.8293262599974
 20
665.9479480324511
 30
0.0
 10
131.8930171501067
 20
666.3667860100794
 30
0.0
 10
131.8647060664474
 20
666.6509032679337
 30
0.0
 10
131.8453289841472
 20
666.7567212840397
 30
0.0
  0
SPLINE
  5
A4
330
6E
100
AcDbEntity
  8
$DDT_AUDIT_GENERATED_(A2)
  6
Continuous
 62
     7
100
AcDbSpline
210
0.0
220
0.0
230
1.0
 70
     8
 71
     3
 72
    11
 73
     7
 74
     0
 42
0.0000000021191147
 43
0.0000000001
 40
0.5685095315515898
 40
0.5685095315515898
 40
0.5685095315515898
 40
0.5685095315515898
 40
0.7496401927924824
 40
0.8492702783542408
 40
0.9095897635723833
 40
1.0
 40
1.0
 40
1.0
 40
1.0
 10
100.8233732377902
 20
666.7758876414343
 30
0.0
 10
100.7656339394315
 20
666.4829454384364
 30
0.0
 10
100.7739629681488
 20
666.0108302781534
 30
0.0
 10
101.0959358213813
 20
665.5854421058762
 30
0.0
 10
101.436006236569
 20
665.432770222336
 30
0.0
 10
101.6600970798828
 20
665.4462007526665
 30
0.0
 10
101.7945105578888
 20
665.4542566119179
 30
0.0
  0
ARC
  5
A5
330
6E
100
AcDbEntity
  8
$DDT_AUDIT_GENERATED_(A2)
  6
Continuous
 62
     7
100
AcDbCircle
 10
116.3326053653
 20
401.5932221768
 30
0.0
 40
264.261237592259
100
AcDbArc
 50
86.846279853
 51
93.1536680421
  0
ARC
  5
A6
330
6E
100
AcDbEntity
  8
$DDT_AUDIT_GENERATED_(A2)
  6
Continuous
 62
     7
100
AcDbCircle
 10
116.3326336754
 20
538.9964910012
 30
0.0
 40
126.6042600540827
100
AcDbArc
 50
84.5693378886
 51
84.8534744452
  0
ARC
  5
A7
330
6E
100
AcDbEntity
  8
$DDT_AUDIT_GENERATED_(A2)
  6
Continuous
 62
     7
100
AcDbCircle
 10
116.3326336754
 20
538.9964910012
 30
0.0
 40
126.6042600540827
100
AcDbArc
 50
95.186595546
 51
95.4496225677
  0
SPLINE
  5
A8
330
6E
100
AcDbEntity
  8
$DDT_AUDIT_GENERATED_(A2)
  6
Continuous
 62
     7
100
AcDbSpline
210
0.0
220
0.0
230
1.0
 70
    11
 71
     3
 72
    22
 73
    18
 74
     0
 42
0.0000000004681383
 43
0.0000000001
 40
0.0
 40
0.0
 40
0.0
 40
0.0
 40
0.125
 40
0.125
 40
0.25
 40
0.25
 40
0.375
 40
0.375
 40
0.5
 40
0.5
 40
0.625
 40
0.625
 40
0.75
 40
0.75
 40
0.875
 40
0.875
 40
1.0
 40
1.0
 40
1.0
 40
1.0
 10
116.3327179467072
 20
631.778347508015
 30
0.0
 10
115.4519704661701
 20
631.7783947326509
 30
0.0
 10
114.5907091708571
 20
631.4263484862674
 30
0.0
 10
113.3925705689584
 20
630.2079252792502
 30
0.0
 10
113.0667452358467
 20
629.3408743885741
 30
0.0
 10
113.0999832802045
 20
627.6036724589311
 30
0.0
 10
113.4354109737183
 20
626.7442527458454
 30
0.0
 10
114.6128765215354
 20
625.4386783115399
 30
0.0
 10
115.4550643507901
 20
625.0252505810832
 30
0.0
 10
117.1978617692789
 20
625.0214136195217
 30
0.0
 10
118.048659916868
 20
625.4368306003082
 30
0.0
 10
119.224697412184
 20
626.7357736605077
 30
0.0
 10
119.564179554167
 20
627.5962056121493
 30
0.0
 10
119.5997827946644
 20
629.3392109146217
 30
0.0
 10
119.2762851442429
 20
630.2025922623334
 30
0.0
 10
118.0778037199995
 20
631.424928485505
 30
0.0
 10
117.2134654272443
 20
631.7783002833792
 30
0.0
 10
116.3327179467072
 20
631.778347508015
 30
0.0
  0
LINE
  5
A9
330
6E
100
AcDbEntity
  8
$DDT_AUDIT_GENERATED_(A2)
  6
Continuous
 62
     7
100
AcDbLine
 10
143.5815523308
 20
615.8578736474
 30
0.0
 11
89.0838835543
 21
615.8578736474
 31
0.0
  0
SPLINE
  5
AA
330
6E
100
AcDbEntity
  8
$DDT_AUDIT_GENERATED_(A2)
  6
Continuous
 62
     7
100
AcDbSpline
210
0.0
220
0.0
230
1.0
 70
     8
 71
     3
 72
     8
 73
     4
 74
     0
 42
0.0000003712433655
 43
0.0000000001
 40
0.3615103650128537
 40
0.3615103650128537
 40
0.3615103650128537
 40
0.3615103650128537
 40
0.3986347015626498
 40
0.3986347015626498
 40
0.3986347015626498
 40
0.3986347015626498
 10
88.7597658304492
 20
616.1883702538769
 30
0.0
 10
88.75973643917168
 20
616.1883011737051
 30
0.0
 10
88.75976253952474
 20
616.1882397243048
 30
0.0
 10
88.75984118918392
 20
616.188187326351
 30
0.0
  0
SPLINE
  5
AB
330
6E
100
AcDbEntity
  8
$DDT_AUDIT_GENERATED_(A2)
  6
Continuous
 62
     7
100
AcDbSpline
210
0.0
220
0.0
230
1.0
 70
     8
 71
     3
 72
     8
 73
     4
 74
     0
 42
0.0000003729274391
 43
0.0000000001
 40
0.6012817459498845
 40
0.6012817459498845
 40
0.6012817459498845
 40
0.6012817459498845
 40
0.6385744898583161
 40
0.6385744898583161
 40
0.6385744898583161
 40
0.6385744898583161
 10
143.9055976984702
 20
616.1881869081038
 30
0.0
 10
143.9056772664414
 20
616.188239485637
 30
0.0
 10
143.9057038554458
 20
616.1883011959881
 30
0.0
 10
143.9056744599046
 20
616.1883706007316
 30
0.0
  0
ARC
  5
AC
330
6E
100
AcDbEntity
  8
$DDT_AUDIT_GENERATED_(A2)
  6
Continuous
 62
     7
100
AcDbCircle
 10
136.5626897199
 20
667.2789969394
 30
0.0
 40
4.745084905304402
100
AcDbArc
 50
186.567835915
 51
194.367284779
  0
ARC
  5
AD
330
6E
100
AcDbEntity
  8
$DDT_AUDIT_GENERATED_(A2)
  6
Continuous
 62
     7
100
AcDbCircle
 10
96.0764558806
 20
667.2816056926
 30
0.0
 40
4.77118114407128
100
AcDbArc
 50
345.6802392126
 51
353.4251813366
  0
ARC
  5
AE
330
6E
100
AcDbEntity
  8
$DDT_AUDIT_GENERATED_(A2)
  6
Continuous
 62
     7
100
AcDbCircle
 10
116.333419046
 20
516.7753664165
 30
0.0
 40
148.773794641916
100
AcDbArc
 50
85.5202969592
 51
94.414623315
  0
LINE
  5
AF
330
6E
100
AcDbEntity
  8
$DDT_AUDIT_GENERATED_(A2)
  6
Continuous
 62
     7
100
AcDbLine
 10
104.7104687943
 20
665.0946494723
 30
0.0
 11
104.8817796009
 21
665.1077699101
 31
0.0
  0
SPLINE
  5
B0
330
6E
100
AcDbEntity
  8
$DDT_AUDIT_GENERATED_(A2)
  6
Continuous
 62
     7
100
AcDbSpline
210
0.0
220
0.0
230
1.0
 70
     8
 71
     3
 72
    41
 73
    37
 74
     0
 42
0.0000000002466843
 43
0.0000000001
 40
0.0
 40
0.0
 40
0.0
 40
0.0
 40
0.0402224909371091
 40
0.0807261739882923
 40
0.1129150316339411
 40
0.1369700014040982
 40
0.1567013210601793
 40
0.1855555302899607
 40
0.2166370138510202
 40
0.2551287986416398
 40
0.2862536546240509
 40
0.316337946626277
 40
0.3453655950221577
 40
0.373503594484497
 40
0.4017293802665191
 40
0.4312197272442358
 40
0.4619148528471869
 40
0.493888426103107
 40
0.527028734008976
 40
0.558919419238841
 40
0.5884968215326789
 40
0.6157980213784932
 40
0.6406928710901395
 40
0.6655169256185219
 40
0.6928979855309563
 40
0.7227274914575268
 40
0.7603076190937439
 40
0.7895183658109108
 40
0.8132630585313612
 40
0.8214167738750858
 40
0.8332715748639604
 40
0.8498954057848277
 40
0.8713925939926634
 40
0.907826246752638
 40
0.9535414483982699
 40
1.0
 40
1.0
 40
1.0
 40
1.0
 10
131.8446735695115
 20
666.7573650244311
 30
0.0
 10
131.7856871840456
 20
667.1026030779747
 30
0.0
 10
131.6870319779594
 20
667.6888885569952
 30
0.0
 10
131.506057611032
 20
668.6371493298514
 30
0.0
 10
131.3706995589208
 20
669.4684583840861
 30
0.0
 10
131.1775844829235
 20
670.1947520060435
 30
0.0
 10
130.8612788111346
 20
670.9127912234111
 30
0.0
 10
130.3522300453039
 20
671.6912024591176
 30
0.0
 10
129.5507177210388
 20
672.5328317005022
 30
0.0
 10
128.548635750061
 20
673.2708031971887
 30
0.0
 10
127.3508160256296
 20
673.9223315396406
 30
0.0
 10
126.1111644132771
 20
674.4455487435217
 30
0.0
 10
124.7854625562447
 20
674.8836716534961
 30
0.0
 10
123.3859744711178
 20
675.2449228697797
 30
0.0
 10
121.8915967671301
 20
675.5393527319153
 30
0.0
 10
120.2765245284124
 20
675.7683369550291
 30
0.0
 10
118.5345164996544
 20
675.9227226401902
 30
0.0
 10
116.6879252410761
 20
675.9900909860795
 30
0.0
 10
114.8120248077951
 20
675.9596349249094
 30
0.0
 10
113.0085437301672
 20
675.8340403966733
 30
0.0
 10
111.3663580350445
 20
675.6329942811951
 30
0.0
 10
109.9159268560495
 20
675.3790933586757
 30
0.0
 10
108.6194889527427
 20
675.0830541822124
 30
0.0
 10
107.3961409432326
 20
674.7339269135156
 30
0.0
 10
106.1889559793359
 20
674.3045655013035
 30
0.0
 10
104.9351123000126
 20
673.7407249340895
 30
0.0
 10
103.8422523619084
 20
673.0911666270806
 30
0.0
 10
102.9746255088812
 20
672.3898031718713
 30
0.0
 10
102.4732420650345
 20
671.8534802586126
 30
0.0
 10
102.1429260766842
 20
671.4184260555637
 30
0.0
 10
101.9191221639638
 20
671.0824883934184
 30
0.0
 10
101.6725701977201
 20
670.6328225891652
 30
0.0
 10
101.424499163475
 20
669.9702258982965
 30
0.0
 10
101.2574461400662
 20
669.065728012735
 30
0.0
 10
101.0278360725615
 20
667.9360371433663
 30
0.0
 10
100.9014816375353
 20
667.2098571643808
 30
0.0
 10
100.8252571000249
 20
666.7759347903628
 30
0.0
  0
SPLINE
  5
B1
330
6E
100
AcDbEntity
  8
$DDT_AUDIT_GENERATED_(A2)
  6
Continuous
 62
     7
100
AcDbSpline
210
0.0
220
0.0
230
1.0
 70
     8
 71
     3
 72
    49
 73
    45
 74
     0
 42
0.0000000001938844
 43
0.0000000001
 40
0.0
 40
0.0
 40
0.0
 40
0.0
 40
0.0222801113370238
 40
0.0457158370541709
 40
0.0683276374707844
 40
0.0901076364139313
 40
0.1110667391092678
 40
0.1313256531765503
 40
0.150810456600514
 40
0.1694198065470599
 40
0.1889392355026843
 40
0.206314905924764
 40
0.2215918871078978
 40
0.2348855076128545
 40
0.2461970095861471
 40
0.2576833378999948
 40
0.2714251245088313
 40
0.287086612967535
 40
0.3049228415047591
 40
0.3228098098366223
 40
0.3392081427689466
 40
0.354087187998158
 40
0.3674772095645445
 40
0.3798571011734414
 40
0.3930592699182814
 40
0.4158326952944675
 40
0.4411224534846987
 40
0.4689106772789386
 40
0.4969179486700048
 40
0.5428234776567024
 40
0.5867173982833722
 40
0.6291424499877944
 40
0.6714752004433621
 40
0.7138133470072885
 40
0.756408045755099
 40
0.779278805968472
 40
0.8024572337021005
 40
0.8258777329072853
 40
0.8495664576357578
 40
0.8746848148526081
 40
0.9021941757394821
 40
0.9325307489556225
 40
0.9656387979558613
 40
1.0
 40
1.0
 40
1.0
 40
1.0
 10
143.9052957783095
 20
616.1881848033726
 30
0.0
 10
143.7674276696651
 20
617.5554585124526
 30
0.0
 10
143.52490269699
 20
619.9236538774204
 30
0.0
 10
143.1086434542729
 20
623.7327261025188
 30
0.0
 10
142.6410358107304
 20
627.2845155422046
 30
0.0
 10
142.0943581112169
 20
630.5874209878989
 30
0.0
 10
141.4643082501563
 20
633.6066146262997
 30
0.0
 10
140.7646829611886
 20
636.3296224462432
 30
0.0
 10
140.0371430825381
 20
638.7062520240304
 30
0.0
 10
139.290288876465
 20
640.7802902755031
 30
0.0
 10
138.5640312979986
 20
642.5443984380025
 30
0.0
 10
137.9068870215021
 20
644.0239303685303
 30
0.0
 10
137.3779166320937
 20
645.1988814056549
 30
0.0
 10
136.9662587913798
 20
646.1257806370625
 30
0.0
 10
136.6451713440063
 20
646.8731857009819
 30
0.0
 10
136.3568025762385
 20
647.5666249979375
 30
0.0
 10
136.065674990188
 20
648.3001612802144
 30
0.0
 10
135.797486245807
 20
649.0701916643562
 30
0.0
 10
135.5737319464462
 20
649.8131088183286
 30
0.0
 10
135.3927630096386
 20
650.4736377470476
 30
0.0
 10
135.2448302065407
 20
651.0301918669943
 30
0.0
 10
135.1203890531817
 20
651.4936868662119
 30
0.0
 10
135.0122356741549
 20
651.8892023851392
 30
0.0
 10
134.9091560945791
 20
652.2548528822592
 30
0.0
 10
134.786481931522
 20
652.6817573488308
 30
0.0
 10
134.6246790381732
 20
653.1880444756155
 30
0.0
 10
134.4855812256826
 20
653.7525955245172
 30
0.0
 10
134.3464171673357
 20
654.3071472328584
 30
0.0
 10
134.1637762445872
 20
655.0274601323372
 30
0.0
 10
133.9475417830698
 20
655.865193013485
 30
0.0
 10
133.7124268060788
 20
656.8105103739546
 30
0.0
 10
133.5078382306776
 20
657.7270319448237
 30
0.0
 10
133.3492559628091
 20
658.6338933819152
 30
0.0
 10
133.2204947043487
 20
659.5423911638854
 30
0.0
 10
133.116747029387
 20
660.3204858763908
 30
0.0
 10
133.0224771499231
 20
660.9745080615007
 30
0.0
 10
132.939870781602
 20
661.4947414340089
 30
0.0
 10
132.8474165618173
 20
662.0290079669371
 30
0.0
 10
132.7436373639549
 20
662.5867429465266
 30
0.0
 10
132.6258017032103
 20
663.1809311686222
 30
0.0
 10
132.4900134507286
 20
663.827745209625
 30
0.0
 10
132.3340971273646
 20
664.5341316580655
 30
0.0
 10
132.1544099141813
 20
665.3141057374474
 30
0.0
 10
132.0372543569443
 20
665.8041614573146
 30
0.0
 10
131.9661574285628
 20
666.1006075280304
 30
0.0
  0
SPLINE
  5
B2
330
6E
100
AcDbEntity
  8
$DDT_AUDIT_GENERATED_(A2)
  6
Continuous
 62
     7
100
AcDbSpline
210
0.0
220
0.0
230
1.0
 70
     8
 71
     3
 72
    47
 73
    43
 74
     0
 42
0.0000000001938846
 43
0.0000000001
 40
0.0
 40
0.0
 40
0.0
 40
0.0
 40
0.0317849703453022
 40
0.0627215547470381
 40
0.0912807180948725
 40
0.1174274938211768
 40
0.1411513882053266
 40
0.162930962151297
 40
0.1843398734702646
 40
0.242116283742485
 40
0.2982788294695683
 40
0.3481840999404189
 40
0.3980943741958451
 40
0.4491856055100961
 40
0.5030828170614111
 40
0.5316059553231501
 40
0.5598443021814025
 40
0.5854762097153124
 40
0.6085014163980689
 40
0.6289678887696066
 40
0.640546664351216
 40
0.6533155850249077
 40
0.6673033158451925
 40
0.6825095667978736
 40
0.6988811296142673
 40
0.7146128299590909
 40
0.7285763045870672
 40
0.742318098995913
 40
0.7538044338819011
 40
0.765115942420426
 40
0.7784095704437074
 40
0.7936865602443809
 40
0.8110622386579066
 40
0.8305816786762159
 40
0.8491910389124157
 40
0.8686758532367742
 40
0.8889347795797282
 40
0.909893893889071
 40
0.9316739050201974
 40
0.9542857182223208
 40
0.9777214571610748
 40
1.0
 40
1.0
 40
1.0
 40
1.0
 10
100.6992755015922
 20
666.1006345641593
 30
0.0
 10
100.6334872053321
 20
665.826402815463
 30
0.0
 10
100.5244856935117
 20
665.3707441638248
 30
0.0
 10
100.3560691495754
 20
664.6425716045565
 30
0.0
 10
100.2079780985684
 20
663.9772603726087
 30
0.0
 10
100.0777573837951
 20
663.3652457062715
 30
0.0
 10
99.96502650794797
 20
662.8079208581028
 30
0.0
 10
99.86558654329286
 20
662.2880440501485
 30
0.0
 10
99.72619112804844
 20
661.5147954462286
 30
0.0
 10
99.5707004904309
 20
660.5036220365796
 30
0.0
 10
99.41715571057394
 20
659.3256382375508
 30
0.0
 10
99.25098465996113
 20
658.2133908133396
 30
0.0
 10
99.03193588843787
 20
657.1368995779576
 30
0.0
 10
98.7607387979039
 20
656.03110961045
 30
0.0
 10
98.51516384717831
 20
655.0803243340857
 30
0.0
 10
98.31617172219342
 20
654.2966159922635
 30
0.0
 10
98.17577389256152
 20
653.7336286617373
 30
0.0
 10
98.03146619985944
 20
653.1576543691538
 30
0.0
 10
97.84909275744835
 20
652.5847313033848
 30
0.0
 10
97.70804773188138
 20
652.0856662826877
 30
0.0
 10
97.5888485533927
 20
651.6548236149613
 30
0.0
 10
97.48466931906651
 20
651.269396141537
 30
0.0
 10
97.3639522513724
 20
650.8172176436244
 30
0.0
 10
97.2210271487818
 20
650.2818557923501
 30
0.0
 10
97.04735982971317
 20
649.6614530801157
 30
0.0
 10
96.83814263176585
 20
648.9820081718036
 30
0.0
 10
96.58761199686762
 20
648.2696727978998
 30
0.0
 10
96.3086507286314
 20
647.5666420127814
 30
0.0
 10
96.0202653143827
 20
646.8731934252355
 30
0.0
 10
95.69918251899409
 20
646.1257912117846
 30
0.0
 10
95.28752353226231
 20
645.1988914719807
 30
0.0
 10
94.75855372935406
 20
644.023940959775
 30
0.0
 10
94.10140925674729
 20
642.5444092376916
 30
0.0
 10
93.375151313637
 20
640.7803013394256
 30
0.0
 10
92.62829654221203
 20
638.7062632863863
 30
0.0
 10
91.90075600450083
 20
636.3296334677779
 30
0.0
 10
91.20112996454053
 20
633.6066247195879
 30
0.0
 10
90.57107937277786
 20
630.5874297150389
 30
0.0
 10
90.02440105631673
 20
627.2845224085166
 30
0.0
 10
89.55679309471674
 20
623.7327314163265
 30
0.0
 10
89.14054275247629
 20
619.9237431868233
 30
0.0
 10
88.89802580709654
 20
617.5556263195555
 30
0.0
 10
88.76016730269656
 20
616.1884488818765
 30
0.0
  0
ARC
  5
B3
330
6E
100
AcDbEntity
  8
$DDT_AUDIT_GENERATED_(A2)
  6
Continuous
 62
     7
100
AcDbCircle
 10
143.6073841449
 20
616.1578736475
 30
0.0
 40
0.299999999975484
100
AcDbArc
 50
270.0000969267
 51
5.9102672977
  0
ARC
  5
B4
330
6E
100
AcDbEntity
  8
$DDT_AUDIT_GENERATED_(A2)
  6
Continuous
 62
     7
100
AcDbCircle
 10
89.0580517489
 20
616.1578736475
 30
0.0
 40
0.3000000000049551
100
AcDbArc
 50
174.1330735461
 51
269.9999030733
  0
LINE
  5
B6
330
6E
100
AcDbEntity
  8
$DDT_AUDIT_GENERATED_(B5)
  6
Continuous
 62
     7
100
AcDbLine
 10
91.3111272701
 20
614.8578736475
 30
0.0
 11
141.3543086238
 21
614.8578736475
 31
0.0
  0
ARC
  5
B7
330
6E
100
AcDbEntity
  8
$DDT_AUDIT_GENERATED_(B5)
  6
Continuous
 62
     7
100
AcDbCircle
 10
116.332717947
 20
606.7578736475
 30
0.0
 40
26.3
100
AcDbArc
 50
159.7481075799
 51
162.0621734783
  0
ARC
  5
B8
330
6E
100
AcDbEntity
  8
$DDT_AUDIT_GENERATED_(B5)
  6
Continuous
 62
     7
100
AcDbCircle
 10
116.332717947
 20
606.7578736475
 30
0.0
 40
26.29999999999999
100
AcDbArc
 50
17.9378265217
 51
20.2984108469
  0
ELLIPSE
  5
BA
330
6E
100
AcDbEntity
  8
$DDT_AUDIT_GENERATED_(B9)
  6
Continuous
 62
     7
100
AcDbEllipse
 10
116.3327179435
 20
628.5084813386
 30
0.0
 11
0.0
 21
3.355037921914928
 31
0.0
210
0.0
220
0.0
230
1.0
 40
1.0
 41
4.003235413216646
 42
6.283185307179586
  0
ELLIPSE
  5
BB
330
6E
100
AcDbEntity
  8
$DDT_AUDIT_GENERATED_(B9)
  6
Continuous
 62
     7
100
AcDbEllipse
 10
116.3327179435
 20
628.5084813386
 30
0.0
 11
0.0
 21
3.361917017515793
 31
0.0
210
0.0
220
0.0
230
1.0
 40
1.0
 41
0.0
 42
2.330509345819918
  0
LINE
  5
BC
330
6E
100
AcDbEntity
  8
$DDT_AUDIT_GENERATED_(B9)
  6
Continuous
 62
     7
100
AcDbLine
 10
112.9827179435
 20
628.7082114858
 30
0.0
 11
112.9827179435
 21
628.5084813386
 31
0.0
  0
LINE
  5
BD
330
6E
100
AcDbEntity
  8
$DDT_AUDIT_GENERATED_(B9)
  6
Continuous
 62
     7
100
AcDbLine
 10
119.6827179435
 20
628.5084813386
 30
0.0
 11
119.6827179435
 21
628.7082114858
 31
0.0
  0
LINE
  5
BF
330
6E
100
AcDbEntity
  8
$DDT_AUDIT_GENERATED_(BE)
  6
Continuous
 62
     7
100
AcDbLine
 10
95.5824673018
 20
498.2356377834
 30
0.0
 11
95.5824887802
 21
498.2313627241
 31
0.0
  0
SPLINE
  5
C0
330
6E
100
AcDbEntity
  8
$DDT_AUDIT_GENERATED_(BE)
  6
Continuous
 62
     7
100
AcDbSpline
210
0.0
220
0.0
230
1.0
 70
     8
 71
     3
 72
    21
 73
    17
 74
     0
 42
0.0000000009574349
 43
0.0000000001
 40
0.0
 40
0.0
 40
0.0
 40
0.0
 40
0.0359117077952958
 40
0.0538790457730438
 40
0.0717342255152793
 40
0.0851086355092374
 40
0.0984873435762699
 40
0.1252691743615169
 40
0.1565141272865187
 40
0.1877520426326051
 40
0.250233379276855
 40
0.5001561141987422
 40
0.6345390390050881
 40
0.7500787736110714
 40
0.8934304005777237
 40
1.0
 40
1.0
 40
1.0
 40
1.0
 10
95.58248702738337
 20
498.2313611569751
 30
0.0
 10
95.58288787756969
 20
498.1154363459684
 30
0.0
 10
95.58349059595622
 20
497.9415097070815
 30
0.0
 10
95.6903889194533
 20
497.7046134837287
 30
0.0
 10
95.77363280340029
 20
497.5450468211161
 30
0.0
 10
95.84335266116834
 20
497.3982447546633
 30
0.0
 10
95.92383872472884
 20
497.2221728851806
 30
0.0
 10
96.02966160503368
 20
496.9890312906763
 30
0.0
 10
96.1671546454684
 20
496.6961860511539
 30
0.0
 10
96.35788653534675
 20
496.2881096783893
 30
0.0
 10
96.88175415337285
 20
495.1664091401031
 30
0.0
 10
97.56361226964438
 20
493.719763780715
 30
0.0
 10
98.32616508452172
 20
492.1281368677151
 30
0.0
 10
98.92622087801325
 20
490.9026335334029
 30
0.0
 10
99.4838636398619
 20
489.7863005770892
 30
0.0
 10
99.86532051589677
 20
489.1046696766073
 30
0.0
 10
100.0279962423477
 20
488.8140135672999
 30
0.0
  0
LINE
  5
C1
330
6E
100
AcDbEntity
  8
$DDT_AUDIT_GENERATED_(BE)
  6
Continuous
 62
     7
100
AcDbLine
 10
100.0279785945
 20
488.8140135645
 30
0.0
 11
100.0279786257
 21
498.147386335
 31
0.0
  0
LINE
  5
C2
330
6E
100
AcDbEntity
  8
$DDT_AUDIT_GENERATED_(BE)
  6
Continuous
 62
     7
100
AcDbLine
 10
100.0245980991
 20
498.1585277295
 30
0.0
 11
95.9258516301
 21
511.5283970718
 31
0.0
  0
ARC
  5
C3
330
6E
100
AcDbEntity
  8
$DDT_AUDIT_GENERATED_(BE)
  6
Continuous
 62
     7
100
AcDbCircle
 10
154.8888256984
 20
518.1268921101
 30
0.0
 40
59.33104118212429
100
AcDbArc
 50
178.3465992156
 51
186.3853532081
  0
LINE
  5
C4
330
6E
100
AcDbEntity
  8
$DDT_AUDIT_GENERATED_(BE)
  6
Continuous
 62
     7
100
AcDbLine
 10
95.582486558
 20
519.8387874078
 30
0.0
 11
95.5824860208
 21
498.235637784
 31
0.0
  0
ARC
  5
C5
330
6E
100
AcDbEntity
  8
$DDT_AUDIT_GENERATED_(BE)
  6
Continuous
 62
     7
100
AcDbCircle
 10
113.3035496111
 20
545.6230624957
 30
0.0
 40
59.90645040991685
100
AcDbArc
 50
259.1370038581
 51
259.200539775
  0
ARC
  5
C6
330
6E
100
AcDbEntity
  8
$DDT_AUDIT_GENERATED_(BE)
  6
Continuous
 62
     7
100
AcDbCircle
 10
113.7076217268
 20
574.107664765
 30
0.0
 40
86.38862821921835
100
AcDbArc
 50
260.8909614124
 51
271.7411644798
  0
SPLINE
  5
C7
330
6E
100
AcDbEntity
  8
$DDT_AUDIT_GENERATED_(BE)
  6
Continuous
 62
     7
100
AcDbSpline
210
0.0
220
0.0
230
1.0
 70
     8
 71
     3
 72
    19
 73
    15
 74
     0
 42
0.000000000595942
 43
0.0000000001
 40
0.0
 40
0.0
 40
0.0
 40
0.0
 40
0.0350335462689629
 40
0.0631689198703596
 40
0.1267642914944495
 40
0.2543802501843555
 40
0.3787775799217236
 40
0.5101388103119909
 40
0.6378792755991298
 40
0.7036754613375049
 40
0.7672678698250891
 40
0.8871015573761547
 40
0.9443706511762118
 40
1.0
 40
1.0
 40
1.0
 40
1.0
 10
116.3324862163729
 20
496.5638496597948
 30
0.0
 10
115.9885000403496
 20
496.5640299875312
 30
0.0
 10
115.3682592080372
 20
496.5643551360762
 30
0.0
 10
114.1282096826194
 20
496.5679732175666
 30
0.0
 10
112.0020954794048
 20
496.5850988398865
 30
0.0
 10
109.056461686314
 20
496.6471228961136
 30
0.0
 10
105.8670147585163
 20
496.7911931744468
 30
0.0
 10
103.2364889578238
 20
496.9927355267571
 30
0.0
 10
101.6159254853682
 20
497.2048271369378
 30
0.0
 10
100.7620484978191
 20
497.3858240447457
 30
0.0
 10
100.2706048115426
 20
497.5732032973971
 30
0.0
 10
100.1097120844293
 20
497.7753240519298
 30
0.0
 10
100.0627226697891
 20
497.995757167065
 30
0.0
 10
100.039456808315
 20
498.0973350537444
 30
0.0
 10
100.0279857304504
 20
498.1473863349854
 30
0.0
  0
LINE
  5
C8
330
6E
100
AcDbEntity
  8
$DDT_AUDIT_GENERATED_(BE)
  6
Continuous
 62
     7
100
AcDbLine
 10
132.6369937612
 20
498.1473863932
 30
0.0
 11
132.6369937478
 21
488.8140181981
 31
0.0
  0
SPLINE
  5
C9
330
6E
100
AcDbEntity
  8
$DDT_AUDIT_GENERATED_(BE)
  6
Continuous
 62
     7
100
AcDbSpline
210
0.0
220
0.0
230
1.0
 70
     8
 71
     3
 72
    20
 73
    16
 74
     0
 42
0.000000000957517
 43
0.0000000001
 40
0.0
 40
0.0
 40
0.0
 40
0.0
 40
0.066959581094805
 40
0.1502664859984826
 40
0.2499213104121026
 40
0.3654607072920769
 40
0.4998439527097208
 40
0.7497666705471684
 40
0.8747308662374359
 40
0.9104324956826841
 40
0.9282658106090615
 40
0.9371832667618254
 40
0.9461209889920453
 40
0.9731065537366306
 40
1.0
 40
1.0
 40
1.0
 40
1.0
 10
132.6369860233678
 20
488.8140181981415
 30
0.0
 10
132.7391988526935
 20
488.993533062463
 30
0.0
 10
132.9685610925078
 20
489.3963996100096
 30
0.0
 10
133.3499414279965
 20
490.1308480008178
 30
0.0
 10
133.8054551669223
 20
491.0364588031168
 30
0.0
 10
134.3386693027217
 20
492.1288934700124
 30
0.0
 10
135.1021809792473
 20
493.7194185853123
 30
0.0
 10
135.8738739869717
 20
495.3682215519136
 30
0.0
 10
136.5101339237094
 20
496.7118036027344
 30
0.0
 10
136.7734210177523
 20
497.2950126264933
 30
0.0
 10
136.870251295355
 20
497.5012615520486
 30
0.0
 10
136.9285897974349
 20
497.6170897356939
 30
0.0
 10
137.0036408198891
 20
497.7637336960288
 30
0.0
 10
137.0851487135959
 20
497.9709528583383
 30
0.0
 10
137.0833727052616
 20
498.1446576853641
 30
0.0
 10
137.0825089049333
 20
498.2313616493068
 30
0.0
  0
LINE
  5
CA
330
6E
100
AcDbEntity
  8
$DDT_AUDIT_GENERATED_(BE)
  6
Continuous
 62
     7
100
AcDbLine
 10
137.0825542766
 20
498.2313627228
 30
0.0
 11
137.0824601132
 21
498.2356375767
 31
0.0
  0
LINE
  5
CB
330
6E
100
AcDbEntity
  8
$DDT_AUDIT_GENERATED_(BE)
  6
Continuous
 62
     7
100
AcDbLine
 10
137.0824858122
 20
519.8387874079
 30
0.0
 11
137.0824863497
 21
498.2356375794
 31
0.0
  0
ARC
  5
CC
330
6E
100
AcDbEntity
  8
$DDT_AUDIT_GENERATED_(BE)
  6
Continuous
 62
     7
100
AcDbCircle
 10
79.6575701351
 20
518.0491562768
 30
0.0
 40
57.45279558132875
100
AcDbArc
 50
353.4830186878
 51
1.7850288921
  0
LINE
  5
CD
330
6E
100
AcDbEntity
  8
$DDT_AUDIT_GENERATED_(BE)
  6
Continuous
 62
     7
100
AcDbLine
 10
136.7391207404
 20
511.5283970718
 30
0.0
 11
132.640374271
 21
498.1585278637
 31
0.0
  0
ARC
  5
CE
330
6E
100
AcDbEntity
  8
$DDT_AUDIT_GENERATED_(BE)
  6
Continuous
 62
     7
100
AcDbCircle
 10
119.3848421909
 20
545.3750704099
 30
0.0
 40
59.65875363893199
100
AcDbArc
 50
280.8146546824
 51
280.8857789042
  0
ARC
  5
CF
330
6E
100
AcDbEntity
  8
$DDT_AUDIT_GENERATED_(BE)
  6
Continuous
 62
     7
100
AcDbCircle
 10
119.4686892965
 20
566.1658524015
 30
0.0
 40
78.46962672191171
100
AcDbArc
 50
267.7094440544
 51
279.6584294416
  0
SPLINE
  5
D0
330
6E
100
AcDbEntity
  8
$DDT_AUDIT_GENERATED_(BE)
  6
Continuous
 62
     7
100
AcDbSpline
210
0.0
220
0.0
230
1.0
 70
     8
 71
     3
 72
    19
 73
    15
 74
     0
 42
0.0000000005963453
 43
0.0000000001
 40
0.0
 40
0.0
 40
0.0
 40
0.0
 40
0.0556149134213271
 40
0.112868557526713
 40
0.2326666145388272
 40
0.2962342493903803
 40
0.3620141574063379
 40
0.4897220297687406
 40
0.6209857337181492
 40
0.7454084616880285
 40
0.8083691533858866
 40
0.8732013185000251
 40
0.931784841564806
 40
1.0
 40
1.0
 40
1.0
 40
1.0
 10
132.6369864105787
 20
498.1473863932156
 30
0.0
 10
132.6255189222842
 20
498.0973585701887
 30
0.0
 10
132.6022609328397
 20
497.9958288210453
 30
0.0
 10
132.5553139965179
 20
497.7754951660183
 30
0.0
 10
132.3946454560756
 20
497.573457679057
 30
0.0
 10
131.9040001160376
 20
497.3861374954039
 30
0.0
 10
131.0513878382257
 20
497.2052154561293
 30
0.0
 10
129.4326447446519
 20
496.993208181262
 30
0.0
 10
126.805883611091
 20
496.7916209641914
 30
0.0
 10
124.153557538395
 20
496.6718901479258
 30
0.0
 10
121.872326854248
 20
496.6102751421244
 30
0.0
 10
120.113953179975
 20
496.5811079490538
 30
0.0
 10
118.2589710932627
 20
496.5659169603261
 30
0.0
 10
117.0136213729044
 20
496.5645744622399
 30
0.0
 10
116.3436480933989
 20
496.5638522250787
 30
0.0
  0
SPLINE
  5
D1
330
6E
100
AcDbEntity
  8
$DDT_AUDIT_GENERATED_(BE)
  6
Continuous
 62
     7
100
AcDbSpline
210
0.0
220
0.0
230
1.0
 70
     8
 71
     3
 72
    11
 73
     7
 74
     0
 42
0.0000000022860817
 43
0.0000000001
 40
0.0
 40
0.0
 40
0.0
 40
0.0
 40
0.0408057212010865
 40
0.0824122939069391
 40
0.1248434575215217
 40
0.1254646598597629
 40
0.1254646598597629
 40
0.1254646598597629
 40
0.1254646598597629
 10
95.58248655796129
 20
519.8387874077744
 30
0.0
 10
95.59067725781554
 20
519.7947968847299
 30
0.0
 10
95.60722025829816
 20
519.7059522759802
 30
0.0
 10
95.74343175975672
 20
519.6136246099982
 30
0.0
 10
95.89221791619421
 20
519.5710886373807
 30
0.0
 10
95.98381909143484
 20
519.5547047625099
 30
0.0
 10
95.98514412082865
 20
519.5544694526034
 30
0.0
  0
SPLINE
  5
D2
330
6E
100
AcDbEntity
  8
$DDT_AUDIT_GENERATED_(BE)
  6
Continuous
 62
     7
100
AcDbSpline
210
0.0
220
0.0
230
1.0
 70
     8
 71
     3
 72
    18
 73
    14
 74
     0
 42
0.0000000004257493
 43
0.0000000001
 40
0.1254646598597629
 40
0.1254646598597629
 40
0.1254646598597629
 40
0.1254646598597629
 40
0.188162122500505
 40
0.2495215524537251
 40
0.3745973416191692
 40
0.4994008935813567
 40
0.5624202915191175
 40
0.6250105429959629
 40
0.7499879571695675
 40
0.8140747221193096
 40
0.8748359218091665
 40
0.9379111754654608
 40
0.9999979993424363
 40
0.9999979993424363
 40
0.9999979993424363
 40
0.9999979993424363
 10
95.98514412082865
 20
519.5544694526034
 30
0.0
 10
96.11887829374164
 20
519.5307198091185
 30
0.0
 10
96.45034141167844
 20
519.5057564591799
 30
0.0
 10
97.3688552485049
 20
519.5468605870545
 30
0.0
 10
98.98048183659479
 20
519.7916046431594
 30
0.0
 10
101.1420451472704
 20
520.2664745302609
 30
0.0
 10
103.1477659320925
 20
520.6561223009927
 30
0.0
 10
105.3227996785451
 20
521.0442247004587
 30
0.0
 10
107.7401972337356
 20
521.3994716252905
 30
0.0
 10
110.2967990846496
 20
521.6671992378454
 30
0.0
 10
112.2826748608493
 20
521.8175770927857
 30
0.0
 10
114.2895352734593
 20
521.9135126630683
 30
0.0
 10
115.6549657916167
 20
521.9257726872387
 30
0.0
 10
116.3323551611768
 20
521.9318538789473
 30
0.0
  0
SPLINE
  5
D3
330
6E
100
AcDbEntity
  8
$DDT_AUDIT_GENERATED_(BE)
  6
Continuous
 62
     7
100
AcDbSpline
210
0.0
220
0.0
230
1.0
 70
     8
 71
     3
 72
    19
 73
    15
 74
     0
 42
0.000000000473811
 43
0.0000000001
 40
0.0
 40
0.0
 40
0.0
 40
0.0
 40
0.0000020041511074
 40
0.1250441712691514
 40
0.2497779295959013
 40
0.3747996704226746
 40
0.4374120590095336
 40
0.5004537694631485
 40
0.6253015057881468
 40
0.7504215756088395
 40
0.8118009491650698
 40
0.8751437970512072
 40
0.9384851293731828
 40
1.0
 40
1.0
 40
1.0
 40
1.0
 10
116.3324206448375
 20
521.9318544668201
 30
0.0
 10
116.3324424916321
 20
521.9318544607497
 30
0.0
 10
117.6955204987208
 20
521.9318999723273
 30
0.0
 10
120.4266690170128
 20
521.8462580899213
 30
0.0
 10
124.344263337917
 20
521.484882764606
 30
0.0
 10
127.3418829622273
 20
521.0442560197143
 30
0.0
 10
129.5171928424949
 20
520.6561282187095
 30
0.0
 10
131.5228423684421
 20
520.2664926749018
 30
0.0
 10
133.6846234731786
 20
519.7915523457982
 30
0.0
 10
135.295657152031
 20
519.5470265736021
 30
0.0
 10
136.2176561425101
 20
519.5053737913685
 30
0.0
 10
136.7153048878207
 20
519.5449344417686
 30
0.0
 10
137.0260224972672
 20
519.6453910879663
 30
0.0
 10
137.0638494388756
 20
519.7749538065746
 30
0.0
 10
137.0824858122316
 20
519.8387874078738
 30
0.0
  0
ARC
  5
D4
330
6E
100
AcDbEntity
  8
$DDT_AUDIT_GENERATED_(BE)
  6
Continuous
 62
     7
100
AcDbCircle
 10
135.0874307434
 20
498.2316572943
 30
0.0
 40
1.995078183391962
100
AcDbArc
 50
350.0274935945
 51
359.9915095013
  0
ARC
  5
D5
330
6E
100
AcDbEntity
  8
$DDT_AUDIT_GENERATED_(BE)
  6
Continuous
 62
     7
100
AcDbCircle
 10
97.5773689886
 20
498.2315578641
 30
0.0
 40
1.994881970898488
100
AcDbArc
 50
180.0056497005
 51
190.2572693979
  0
SPLINE
  5
D6
330
6E
100
AcDbEntity
  8
$DDT_AUDIT_GENERATED_(BE)
  6
Continuous
 62
     7
100
AcDbSpline
210
0.0
220
0.0
230
1.0
 70
     8
 71
     3
 72
    10
 73
     6
 74
     0
 42
0.0000000019073039
 43
0.0000000001
 40
0.075604820909808
 40
0.075604820909808
 40
0.075604820909808
 40
0.075604820909808
 40
0.1249999999999993
 40
0.1249999999999993
 40
0.1375272749652209
 40
0.1375272749652209
 40
0.1375272749652209
 40
0.1375272749652209
 10
128.1394400639472
 20
485.9996985263439
 30
0.0
 10
128.2460294788142
 20
486.0296839803534
 30
0.0
 10
128.3335496821138
 20
486.0560434760596
 30
0.0
 10
128.4196012986929
 20
486.0823825104518
 30
0.0
 10
128.4357463955487
 20
486.0874217050887
 30
0.0
 10
128.450628835682
 20
486.0921767878315
 30
0.0
  0
SPLINE
  5
D7
330
6E
100
AcDbEntity
  8
$DDT_AUDIT_GENERATED_(BE)
  6
Continuous
 62
     7
100
AcDbSpline
210
0.0
220
0.0
230
1.0
 70
     8
 71
     3
 72
    16
 73
    12
 74
     0
 42
0.000000000642666
 43
0.0000000001
 40
0.2113954857066543
 40
0.2113954857066543
 40
0.2113954857066543
 40
0.2113954857066543
 40
0.2499999999999986
 40
0.2499999999999986
 40
0.3749999999999978
 40
0.3749999999999978
 40
0.4999999999999971
 40
0.4999999999999971
 40
0.7499999999999986
 40
0.7499999999999986
 40
1.0
 40
1.0
 40
1.0
 40
1.0
 10
128.5823923423252
 20
486.1477307484677
 30
0.0
 10
128.5824730819378
 20
486.1526197531392
 30
0.0
 10
128.5706185802079
 20
486.1551037987384
 30
0.0
 10
128.4699215808752
 20
486.1560881399376
 30
0.0
 10
128.2657044476133
 20
486.1382585572599
 30
0.0
 10
127.6246541273313
 20
486.0972785466082
 30
0.0
 10
127.1904333378889
 20
486.0662614833985
 30
0.0
 10
125.5423369401557
 20
485.9525631755687
 30
0.0
 10
124.0108128194817
 20
485.857770291628
 30
0.0
 10
120.4384017989275
 20
485.6835053450227
 30
0.0
 10
118.3868891105397
 20
485.6074994975066
 30
0.0
 10
116.3324904808907
 20
485.6072819122973
 30
0.0
  0
SPLINE
  5
D8
330
6E
100
AcDbEntity
  8
$DDT_AUDIT_GENERATED_(BE)
  6
Continuous
 62
     7
100
AcDbSpline
210
0.0
220
0.0
230
1.0
 70
     8
 71
     3
 72
    18
 73
    14
 74
     0
 42
0.0000000006434393
 43
0.0000000001
 40
0.0
 40
0.0
 40
0.0
 40
0.0
 40
0.2499999999999988
 40
0.2499999999999988
 40
0.374999999999999
 40
0.374999999999999
 40
0.4999999999999992
 40
0.4999999999999992
 40
0.6249999999999994
 40
0.6249999999999994
 40
0.7499999999999996
 40
0.7499999999999996
 40
0.7895464371470918
 40
0.7895464371470918
 40
0.7895464371470918
 40
0.7895464371470918
 10
116.3324904808907
 20
485.6072819122973
 30
0.0
 10
114.2717749561024
 20
485.607488752466
 30
0.0
 10
112.2508373845042
 20
485.6824243316315
 30
0.0
 10
109.5581248158514
 20
485.8135803162754
 30
0.0
 10
108.7393795593317
 20
485.8589958019519
 30
0.0
 10
107.254437894322
 20
485.9464965672166
 30
0.0
 10
106.5950478899502
 20
485.9889898237646
 30
0.0
 10
105.5016006287115
 20
486.0642832288574
 30
0.0
 10
105.0533610593742
 20
486.0964114791191
 30
0.0
 10
104.4058660291435
 20
486.1377612021173
 30
0.0
 10
104.2015415849993
 20
486.1556240947759
 30
0.0
 10
104.0953672258045
 20
486.1551374957458
 30
0.0
 10
104.0825893357917
 20
486.1526862803438
 30
0.0
 10
104.082467358439
 20
486.1477214899896
 30
0.0
  0
SPLINE
  5
D9
330
6E
100
AcDbEntity
  8
$DDT_AUDIT_GENERATED_(BE)
  6
Continuous
 62
     7
100
AcDbSpline
210
0.0
220
0.0
230
1.0
 70
     8
 71
     3
 72
     8
 73
     4
 74
     0
 42
0.0000000016150263
 43
0.0000000001
 40
0.8993949705306146
 40
0.8993949705306146
 40
0.8993949705306146
 40
0.8993949705306146
 40
0.9255470029047944
 40
0.9255470029047944
 40
0.9255470029047944
 40
0.9255470029047944
 10
104.3730775127331
 20
486.0437477824269
 30
0.0
 10
104.4193859365661
 20
486.0300015905838
 30
0.0
 10
104.4712705584349
 20
486.0149286029452
 30
0.0
 10
104.5286453722575
 20
485.9988165965955
 30
0.0
  0
ARC
  5
DA
330
6E
100
AcDbEntity
  8
$DDT_AUDIT_GENERATED_(BE)
  6
Continuous
 62
     7
100
AcDbCircle
 10
54.4264993611
 20
277.4692698624
 30
0.0
 40
214.4845832326396
100
AcDbArc
 50
76.5656713127
 51
77.1894086547
  0
ARC
  5
DB
330
6E
100
AcDbEntity
  8
$DDT_AUDIT_GENERATED_(BE)
  6
Continuous
 62
     7
100
AcDbCircle
 10
178.9101688494
 20
274.575861499
 30
0.0
 40
217.454904092881
100
AcDbArc
 50
102.8141756914
 51
103.4264450442
  0
SPLINE
  5
DC
330
6E
100
AcDbEntity
  8
$DDT_AUDIT_GENERATED_(BE)
  6
Continuous
 62
     7
100
AcDbSpline
210
0.0
220
0.0
230
1.0
 70
     8
 71
     3
 72
     8
 73
     4
 74
     0
 42
0.0000000227649024
 43
0.0000000001
 40
0.0
 40
0.0
 40
0.0
 40
0.0
 40
1.0
 40
1.0
 40
1.0
 40
1.0
 10
95.98602234690328
 20
519.5543241943301
 30
0.0
 10
95.73158351018976
 20
519.4323352448655
 30
0.0
 10
95.60758149124685
 20
519.3642219944359
 30
0.0
 10
95.61401629007455
 20
519.3499844430413
 30
0.0
  0
SPLINE
  5
DD
330
6E
100
AcDbEntity
  8
$DDT_AUDIT_GENERATED_(BE)
  6
Continuous
 62
     7
100
AcDbSpline
210
0.0
220
0.0
230
1.0
 70
     8
 71
     3
 72
     8
 73
     4
 74
     0
 42
0.0000000227346436
 43
0.0000000001
 40
0.0
 40
0.0
 40
0.0
 40
0.0
 40
1.0
 40
1.0
 40
1.0
 40
1.0
 10
137.0515181477791
 20
519.3495586585258
 30
0.0
 10
137.0577940747268
 20
519.3640024538573
 30
0.0
 10
136.9336048070512
 20
519.4322576511522
 30
0.0
 10
136.6789503447526
 20
519.5543242504107
 30
0.0
  0
ARC
  5
DE
330
6E
100
AcDbEntity
  8
$DDT_AUDIT_GENERATED_(BE)
  6
Continuous
 62
     7
100
AcDbCircle
 10
92.2187674864
 20
512.6030917995
 30
0.0
 40
47.18728625716346
100
AcDbArc
 50
328.2886034804
 51
341.8272335225
  0
LINE
  5
DF
330
6E
100
AcDbEntity
  8
$DDT_AUDIT_GENERATED_(BE)
  6
Continuous
 62
     7
100
AcDbLine
 10
132.3649386806
 20
487.8057189245
 30
0.0
 11
132.3716037721
 21
487.8172605775
 31
0.0
  0
ARC
  5
E0
330
6E
100
AcDbEntity
  8
$DDT_AUDIT_GENERATED_(BE)
  6
Continuous
 62
     7
100
AcDbCircle
 10
168.7420270279
 20
525.7070706069
 30
0.0
 40
78.23543700413502
100
AcDbArc
 50
200.836873693
 51
208.9829354444
  0
ARC
  5
E1
330
6E
100
AcDbEntity
  8
$DDT_AUDIT_GENERATED_(BE)
  6
Continuous
 62
     7
100
AcDbCircle
 10
130.2396300778
 20
489.0387249593
 30
0.0
 40
2.457065018311755
100
AcDbArc
 50
278.2883285223
 51
330.3399969435
  0
LINE
  5
E2
330
6E
100
AcDbEntity
  8
$DDT_AUDIT_GENERATED_(BE)
  6
Continuous
 62
     7
100
AcDbLine
 10
100.2923895549
 20
487.818969597
 30
0.0
 11
100.2989495368
 21
487.807582632
 31
0.0
  0
ARC
  5
E3
330
6E
100
AcDbEntity
  8
$DDT_AUDIT_GENERATED_(BE)
  6
Continuous
 62
     7
100
AcDbCircle
 10
102.3925818644
 20
488.9920296909
 30
0.0
 40
2.405611949764665
100
AcDbArc
 50
209.083805347
 51
262.1291210532
  0
LINE
  5
E4
330
6E
100
AcDbEntity
  8
$DDT_AUDIT_GENERATED_(BE)
  6
Continuous
 62
     7
100
AcDbLine
 10
95.5824861369
 20
542.8618545781
 30
0.0
 11
95.5824861369
 21
519.8400346234
 31
0.0
  0
LINE
  5
E5
330
6E
100
AcDbEntity
  8
$DDT_AUDIT_GENERATED_(BE)
  6
Continuous
 62
     7
100
AcDbLine
 10
137.0824862336
 20
519.8400366423
 30
0.0
 11
137.0824862336
 21
544.0078736475
 31
0.0
  0
ARC
  5
E7
330
6E
100
AcDbEntity
  8
09719038_ROSETTE
  6
Continuous
 62
     7
100
AcDbCircle
 10
191.3327178974
 20
559.917340816
 30
0.0
 40
34.98271789740584
100
AcDbArc
 50
0.0
 51
143.0482882727
  0
ARC
  5
E8
330
6E
100
AcDbEntity
  8
09719038_ROSETTE
  6
Continuous
 62
     7
100
AcDbCircle
 10
191.3327178974
 20
559.917340816
 30
0.0
 40
34.98271789740584
100
AcDbArc
 50
216.7607465165
 51
0.0
  0
ARC
  5
E9
330
6E
100
AcDbEntity
  8
09719038_ROSETTE
  6
Continuous
 62
     7
100
AcDbCircle
 10
41.3327178974
 20
559.917340816
 30
0.0
 40
34.98271789740584
100
AcDbArc
 50
36.9168173711
 51
323.2595829685
  0
ELLIPSE
  5
EB
330
6E
100
AcDbEntity
  8
02636038_GEHÄUSE
  6
Continuous
 62
     7
100
AcDbEllipse
 10
116.332717947
 20
479.8927221282
 30
0.0
 11
10.05000000000001
 21
0.0
 31
0.0
210
0.0
220
0.0
230
1.0
 40
0.1218693434
 41
5.796669345871341
 42
6.283185307179586
  0
ELLIPSE
  5
EC
330
6E
100
AcDbEntity
  8
02636038_GEHÄUSE
  6
Continuous
 62
     7
100
AcDbEllipse
 10
116.332717947
 20
479.8927221282
 30
0.0
 11
10.05000000000001
 21
0.0
 31
0.0
210
0.0
220
0.0
230
1.0
 40
0.1218693434
 41
0.0
 42
3.628108614898038
  0
ELLIPSE
  5
ED
330
6E
100
AcDbEntity
  8
02636038_GEHÄUSE
  6
Continuous
 62
     7
100
AcDbEllipse
 10
116.332717947
 20
479.8927221282
 30
0.0
 11
10.75000000000001
 21
0.0
 31
0.0
210
0.0
220
0.0
230
1.0
 40
0.1218693434
 41
5.582186854196351
 42
6.283185307179586
  0
ELLIPSE
  5
EE
330
6E
100
AcDbEntity
  8
02636038_GEHÄUSE
  6
Continuous
 62
     7
100
AcDbEllipse
 10
116.332717947
 20
479.8927221282
 30
0.0
 11
10.75000000000001
 21
0.0
 31
0.0
210
0.0
220
0.0
230
1.0
 40
0.1218693434
 41
0.0
 42
3.842591106573032
  0
LINE
  5
EF
330
6E
100
AcDbEntity
  8
02636038_GEHÄUSE
  6
Continuous
 62
     7
100
AcDbLine
 10
105.332717947
 20
480.5231133364
 30
0.0
 11
105.332717947
 21
479.8917960512
 31
0.0
  0
ELLIPSE
  5
F0
330
6E
100
AcDbEntity
  8
02636038_GEHÄUSE
  6
Continuous
 62
     7
100
AcDbEllipse
 10
116.332717947
 20
482.8703605831
 30
0.0
 11
11.79999999999981
 21
-5.551115123125783E-14
 31
0.0
210
0.0
220
0.0
230
1.0
 40
0.1218693434
 41
2.771250021498085
 42
3.511935285681516
  0
LINE
  5
F1
330
6E
100
AcDbEntity
  8
02636038_GEHÄUSE
  6
Continuous
 62
     7
100
AcDbLine
 10
105.332717947
 20
483.3908439895
 30
0.0
 11
105.332717947
 21
481.5879514497
 31
0.0
  0
LINE
  5
F2
330
6E
100
AcDbEntity
  8
02636038_GEHÄUSE
  6
Continuous
 62
     7
100
AcDbLine
 10
105.332717947
 20
481.5879514497
 30
0.0
 11
105.332717947
 21
480.5231133364
 31
0.0
  0
LINE
  5
F3
330
6E
100
AcDbEntity
  8
02636038_GEHÄUSE
  6
Continuous
 62
     7
100
AcDbLine
 10
127.332717947
 20
479.8917960512
 30
0.0
 11
127.332717947
 21
480.5231133364
 31
0.0
  0
ELLIPSE
  5
F4
330
6E
100
AcDbEntity
  8
02636038_GEHÄUSE
  6
Continuous
 62
     7
100
AcDbEllipse
 10
116.332717947
 20
482.8703605831
 30
0.0
 11
-11.80000000000029
 21
-4.163336342344337E-14
 31
0.0
210
0.0
220
0.0
230
1.0
 40
0.1218693434
 41
2.771250021498088
 42
3.511935285681521
  0
LINE
  5
F5
330
6E
100
AcDbEntity
  8
02636038_GEHÄUSE
  6
Continuous
 62
     7
100
AcDbLine
 10
127.332717947
 20
480.5231133364
 30
0.0
 11
127.332717947
 21
481.5879514497
 31
0.0
  0
LINE
  5
F6
330
6E
100
AcDbEntity
  8
02636038_GEHÄUSE
  6
Continuous
 62
     7
100
AcDbLine
 10
127.332717947
 20
481.5879514497
 30
0.0
 11
127.332717947
 21
483.3908439895
 31
0.0
  0
LINE
  5
F7
330
6E
100
AcDbEntity
  8
02636038_GEHÄUSE
  6
Continuous
 62
     7
100
AcDbLine
 10
105.332717947
 20
479.8917863765
 30
0.0
 11
105.8286319576
 21
479.6141053125
 31
0.0
  0
LINE
  5
F8
330
6E
100
AcDbEntity
  8
02636038_GEHÄUSE
  6
Continuous
 62
     7
100
AcDbLine
 10
126.8368039363
 20
479.6141053125
 30
0.0
 11
127.332717947
 21
479.8917863765
 31
0.0
  0
LINE
  5
F9
330
6E
100
AcDbEntity
  8
02636038_GEHÄUSE
  6
Continuous
 62
     7
100
AcDbLine
 10
104.532717947
 20
486.1300270034
 30
0.0
 11
104.532717947
 21
482.8703605831
 31
0.0
  0
LINE
  5
FA
330
6E
100
AcDbEntity
  8
02636038_GEHÄUSE
  6
Continuous
 62
     7
100
AcDbLine
 10
128.132717947
 20
482.8703605831
 30
0.0
 11
128.132717947
 21
486.130287424
 31
0.0
  0
ELLIPSE
  5
FC
330
6E
100
AcDbEntity
  8
$DDT_AUDIT_GENERATED_(FB)
  6
Continuous
 62
     7
100
AcDbEllipse
 10
116.332717947
 20
479.4957036675
 30
0.0
 11
9.0
 21
0.0
 31
0.0
210
0.0
220
0.0
230
1.0
 40
0.1218693434
 41
0.0
 42
6.283185307179586
  0
ELLIPSE
  5
FD
330
6E
100
AcDbEntity
  8
$DDT_AUDIT_GENERATED_(FB)
  6
Continuous
 62
     7
100
AcDbEllipse
 10
116.332717947
 20
479.4957036675
 30
0.0
 11
-5.249999999999999
 21
0.0
 31
0.0
210
0.0
220
0.0
230
1.0
 40
0.1218693434
 41
0.0
 42
6.283185307179586
  0
ELLIPSE
  5
FE
330
6E
100
AcDbEntity
  8
$DDT_AUDIT_GENERATED_(FB)
  6
Continuous
 62
     7
100
AcDbEllipse
 10
116.332717947
 20
479.4957036675
 30
0.0
 11
-6.249999999999998
 21
0.0
 31
0.0
210
0.0
220
0.0
230
1.0
 40
0.1218693434
 41
0.0
 42
6.283185307179586
  0
ELLIPSE
  5
FF
330
6E
100
AcDbEntity
  8
$DDT_AUDIT_GENERATED_(FB)
  6
Continuous
 62
     7
100
AcDbEllipse
 10
116.332717947
 20
479.4957036675
 30
0.0
 11
2.750000000000002
 21
0.0
 31
0.0
210
0.0
220
0.0
230
1.0
 40
0.1218693434
 41
0.0
 42
6.283185307179586
  0
ELLIPSE
  5
100
330
6E
100
AcDbEntity
  8
$DDT_AUDIT_GENERATED_(FB)
  6
Continuous
 62
     7
100
AcDbEllipse
 10
116.332717947
 20
479.4957036675
 30
0.0
 11
2.150000000000001
 21
0.0
 31
0.0
210
0.0
220
0.0
230
1.0
 40
0.1218693434
 41
0.0
 42
6.283185307179586
  0
ELLIPSE
  5
101
330
6E
100
AcDbEntity
  8
$DDT_AUDIT_GENERATED_(FB)
  6
Continuous
 62
     7
100
AcDbEllipse
 10
116.332717947
 20
479.6942128978
 30
0.0
 11
0.5196299438963559
 21
0.0
 31
0.0
210
0.0
220
0.0
230
1.0
 40
0.1218693434
 41
0.0
 42
6.283185307179586
  0
ELLIPSE
  5
102
330
6E
100
AcDbEntity
  8
$DDT_AUDIT_GENERATED_(FB)
  6
Continuous
 62
     7
100
AcDbEllipse
 10
116.332717947
 20
479.4957036675
 30
0.0
 11
8.699999999999999
 21
0.0
 31
0.0
210
0.0
220
0.0
230
1.0
 40
0.1218693434
 41
0.0
 42
6.283185307179586
  0
ARC
  5
103
330
6E
100
AcDbEntity
  8
$DDT_AUDIT_GENERATED_(FB)
  6
Continuous
 62
     7
100
AcDbCircle
 10
124.7058952649
 20
479.6942128978
 30
0.0
 40
0.1268213380932198
100
AcDbArc
 50
354.4856357656
 51
5.5143642344
  0
ELLIPSE
  5
104
330
6E
100
AcDbEntity
  8
$DDT_AUDIT_GENERATED_(FB)
  6
Continuous
 62
     7
100
AcDbEllipse
 10
116.332717947
 20
479.6942128978
 30
0.0
 11
8.500000000025574
 21
5.967448757360216E-13
 31
0.0
210
0.0
220
0.0
230
1.0
 40
0.1218693434
 41
0.0117649772879987
 42
0.0284170692203258
  0
ELLIPSE
  5
105
330
6E
100
AcDbEntity
  8
$DDT_AUDIT_GENERATED_(FB)
  6
Continuous
 62
     7
100
AcDbEllipse
 10
116.3327183375
 20
479.6942128851
 30
0.0
 11
8.499999609222479
 21
1.249375602974112E-8
 31
0.0
210
0.0
220
0.0
230
1.0
 40
0.1218693459
 41
-0.2735643714931726
 42
-0.250034416357459
  0
ELLIPSE
  5
106
330
6E
100
AcDbEntity
  8
$DDT_AUDIT_GENERATED_(FB)
  6
Continuous
 62
     7
100
AcDbEllipse
 10
116.332717947
 20
479.6942128978
 30
0.0
 11
8.50000000002423
 21
-5.689893001203927E-13
 31
0.0
210
0.0
220
0.0
230
1.0
 40
0.1218693434
 41
6.033150896668894
 42
6.271420329891512
  0
ELLIPSE
  5
107
330
6E
100
AcDbEntity
  8
$DDT_AUDIT_GENERATED_(FB)
  6
Continuous
 62
     7
100
AcDbEllipse
 10
116.3327183563
 20
479.694212869
 30
0.0
 11
8.499999586422195
 21
2.531776177594480E-8
 31
0.0
210
0.0
220
0.0
230
1.0
 40
0.1218693451
 41
-0.5353637656168715
 42
-0.5118338103864568
  0
ELLIPSE
  5
108
330
6E
100
AcDbEntity
  8
$DDT_AUDIT_GENERATED_(FB)
  6
Continuous
 62
     7
100
AcDbEllipse
 10
116.332717947
 20
479.6942128978
 30
0.0
 11
8.500000000019234
 21
-1.068589661201713E-12
 31
0.0
210
0.0
220
0.0
230
1.0
 40
0.1218693434
 41
-0.5118337983096346
 42
-0.2735643650869557
  0
ELLIPSE
  5
109
330
6E
100
AcDbEntity
  8
$DDT_AUDIT_GENERATED_(FB)
  6
Continuous
 62
     7
100
AcDbEllipse
 10
116.3327182338
 20
479.694212863
 30
0.0
 11
8.49999969585161
 21
2.502979767893265E-8
 31
0.0
210
0.0
220
0.0
230
1.0
 40
0.1218693434
 41
-0.7971631532609544
 42
-0.7736331981236173
  0
ELLIPSE
  5
10A
330
6E
100
AcDbEntity
  8
$DDT_AUDIT_GENERATED_(FB)
  6
Continuous
 62
     7
100
AcDbEllipse
 10
116.332717947
 20
479.6942128978
 30
0.0
 11
8.500000000016533
 21
-9.436895709313831E-13
 31
0.0
210
0.0
220
0.0
230
1.0
 40
0.1218693434
 41
-0.7736331861086168
 42
-0.5353637528859174
  0
ELLIPSE
  5
10B
330
6E
100
AcDbEntity
  8
$DDT_AUDIT_GENERATED_(FB)
  6
Continuous
 62
     7
100
AcDbEllipse
 10
116.3327181658
 20
479.6942128517
 30
0.0
 11
8.499999726507353
 21
2.342710747615939E-8
 31
0.0
210
0.0
220
0.0
230
1.0
 40
0.1218693418
 41
-1.058962540276974
 42
-1.035432585095158
  0
ELLIPSE
  5
10C
330
6E
100
AcDbEntity
  8
$DDT_AUDIT_GENERATED_(FB)
  6
Continuous
 62
     7
100
AcDbEllipse
 10
116.332717947
 20
479.6942128978
 30
0.0
 11
8.500000000020707
 21
-1.817990202823694E-12
 31
0.0
210
0.0
220
0.0
230
1.0
 40
0.1218693434
 41
-1.035432573907391
 42
-0.7971631406848552
  0
ELLIPSE
  5
10D
330
6E
100
AcDbEntity
  8
$DDT_AUDIT_GENERATED_(FB)
  6
Continuous
 62
     7
100
AcDbEllipse
 10
116.3327180603
 20
479.6942128464
 30
0.0
 11
8.499999766605297
 21
1.352799816611849E-8
 31
0.0
210
0.0
220
0.0
230
1.0
 40
0.1218693407
 41
-1.320761923220069
 42
-1.297231968038019
  0
ELLIPSE
  5
10E
330
6E
100
AcDbEntity
  8
$DDT_AUDIT_GENERATED_(FB)
  6
Continuous
 62
     7
100
AcDbEllipse
 10
116.332717947
 20
479.6942128978
 30
0.0
 11
8.500000000017478
 21
-1.360023205165817E-12
 31
0.0
210
0.0
220
0.0
230
1.0
 40
0.1218693434
 41
-1.297231961706794
 42
-1.058962528484259
  0
ARC
  5
10F
330
6E
100
AcDbEntity
  8
$DDT_AUDIT_GENERATED_(FB)
  6
Continuous
 62
     7
100
AcDbCircle
 10
116.332717947
 20
548.4003951408
 30
0.0
 40
69.74207166431134
100
AcDbArc
 50
269.9178461468
 51
270.0821538532
  0
ELLIPSE
  5
110
330
6E
100
AcDbEntity
  8
$DDT_AUDIT_GENERATED_(FB)
  6
Continuous
 62
     7
100
AcDbEllipse
 10
116.332717947
 20
479.6942128978
 30
0.0
 11
8.50000000000172
 21
-9.714451465470120E-14
 31
0.0
210
0.0
220
0.0
230
1.0
 40
0.1218693434
 41
4.724153957672853
 42
4.962423390895813
  0
ELLIPSE
  5
111
330
6E
100
AcDbEntity
  8
$DDT_AUDIT_GENERATED_(FB)
  6
Continuous
 62
     7
100
AcDbEllipse
 10
116.3327178333
 20
479.694212846
 30
0.0
 11
-8.499999765466105
 21
1.360667134520099E-8
 31
0.0
210
0.0
220
0.0
230
1.0
 40
0.1218693407
 41
1.297231968055175
 42
1.320761923239918
  0
ELLIPSE
  5
112
330
6E
100
AcDbEntity
  8
$DDT_AUDIT_GENERATED_(FB)
  6
Continuous
 62
     7
100
AcDbEllipse
 10
116.332717947
 20
479.6942128978
 30
0.0
 11
-8.500000000017902
 21
-6.245004513516506E-13
 31
0.0
210
0.0
220
0.0
230
1.0
 40
0.1218693434
 41
1.320761916283769
 42
1.55903134950625
  0
ELLIPSE
  5
113
330
6E
100
AcDbEntity
  8
$DDT_AUDIT_GENERATED_(FB)
  6
Continuous
 62
     7
100
AcDbEllipse
 10
116.3327177451
 20
479.6942128551
 30
0.0
 11
-8.49999974751425
 21
2.166337942366425E-8
 31
0.0
210
0.0
220
0.0
230
1.0
 40
0.1218693419
 41
1.035432584216396
 42
1.05896253935196
  0
ELLIPSE
  5
114
330
6E
100
AcDbEntity
  8
$DDT_AUDIT_GENERATED_(FB)
  6
Continuous
 62
     7
100
AcDbEllipse
 10
116.332717947
 20
479.6942128978
 30
0.0
 11
-8.499999999989363
 21
5.412337245047638E-13
 31
0.0
210
0.0
220
0.0
230
1.0
 40
0.1218693434
 41
1.058962528484966
 42
1.297231961708182
  0
ELLIPSE
  5
115
330
6E
100
AcDbEntity
  8
$DDT_AUDIT_GENERATED_(FB)
  6
Continuous
 62
     7
100
AcDbEllipse
 10
116.3327176616
 20
479.694212863
 30
0.0
 11
-8.499999697232258
 21
2.498050377663930E-8
 31
0.0
210
0.0
220
0.0
230
1.0
 40
0.1218693434
 41
0.7736331980534822
 42
0.7971631531885723
  0
ELLIPSE
  5
116
330
6E
100
AcDbEntity
  8
$DDT_AUDIT_GENERATED_(FB)
  6
Continuous
 62
     7
100
AcDbEllipse
 10
116.332717947
 20
479.6942128978
 30
0.0
 11
-8.50000000001369
 21
-8.326672684688674E-13
 31
0.0
210
0.0
220
0.0
230
1.0
 40
0.1218693434
 41
0.7971631406851423
 42
1.035432573907841
  0
ELLIPSE
  5
117
330
6E
100
AcDbEntity
  8
$DDT_AUDIT_GENERATED_(FB)
  6
Continuous
 62
     7
100
AcDbEllipse
 10
116.332717539
 20
479.6942128691
 30
0.0
 11
-8.499999587843705
 21
2.523095621320692E-8
 31
0.0
210
0.0
220
0.0
230
1.0
 40
0.1218693451
 41
0.511833810344806
 42
0.535363765572948
  0
ELLIPSE
  5
118
330
6E
100
AcDbEntity
  8
$DDT_AUDIT_GENERATED_(FB)
  6
Continuous
 62
     7
100
AcDbEllipse
 10
116.332717947
 20
479.6942128978
 30
0.0
 11
-8.500000000016799
 21
-9.575673587391975E-13
 31
0.0
210
0.0
220
0.0
230
1.0
 40
0.1218693434
 41
0.5353637528859503
 42
0.7736331861086122
  0
ELLIPSE
  5
119
330
6E
100
AcDbEntity
  8
$DDT_AUDIT_GENERATED_(FB)
  6
Continuous
 62
     7
100
AcDbEllipse
 10
116.3327174258
 20
479.6942128809
 30
0.0
 11
-8.49999947846921
 21
1.662901760735025E-8
 31
0.0
210
0.0
220
0.0
230
1.0
 40
0.1218693468
 41
0.2500344183127927
 42
0.2735643736357666
  0
ELLIPSE
  5
11A
330
6E
100
AcDbEntity
  8
$DDT_AUDIT_GENERATED_(FB)
  6
Continuous
 62
     7
100
AcDbEllipse
 10
116.332717947
 20
479.6942128978
 30
0.0
 11
-8.500000000027681
 21
-1.471045507628332E-12
 31
0.0
210
0.0
220
0.0
230
1.0
 40
0.1218693434
 41
0.2735643650868158
 42
0.5118337983093632
  0
ARC
  5
11B
330
6E
100
AcDbEntity
  8
$DDT_AUDIT_GENERATED_(FB)
  6
Continuous
 62
     7
100
AcDbCircle
 10
107.9595406291
 20
479.6942128978
 30
0.0
 40
0.1268213380932712
100
AcDbArc
 50
174.4856357656
 51
185.5143642344
  0
ELLIPSE
  5
11C
330
6E
100
AcDbEntity
  8
$DDT_AUDIT_GENERATED_(FB)
  6
Continuous
 62
     7
100
AcDbEllipse
 10
116.332717947
 20
479.6942128978
 30
0.0
 11
-8.500000000029992
 21
-6.661338147750939E-13
 31
0.0
210
0.0
220
0.0
230
1.0
 40
0.1218693434
 41
0.0117649772879799
 42
0.250034410510609
  0
ARC
  5
11D
330
6E
100
AcDbEntity
  8
$DDT_AUDIT_GENERATED_(FB)
  6
Continuous
 62
     7
100
AcDbCircle
 10
110.1763319711
 20
479.6942128978
 30
0.0
 40
0.0936106561100336
100
AcDbArc
 50
172.5195744677
 51
180.0
  0
LINE
  5
11E
330
6E
100
AcDbEntity
  8
$DDT_AUDIT_GENERATED_(FB)
  6
Continuous
 62
     7
100
AcDbLine
 10
110.0835179982
 20
479.7063998322
 30
0.0
 11
110.0835179982
 21
479.8856623804
 31
0.0
  0
ELLIPSE
  5
11F
330
6E
100
AcDbEntity
  8
$DDT_AUDIT_GENERATED_(FB)
  6
Continuous
 62
     7
100
AcDbEllipse
 10
116.332717947
 20
479.6942128978
 30
0.0
 11
-8.500000000027446
 21
6.245004513516506E-13
 31
0.0
210
0.0
220
0.0
230
1.0
 40
0.1218693434
 41
-0.0284170692203611
 42
-0.0117649772881023
  0
LINE
  5
120
330
6E
100
AcDbEntity
  8
$DDT_AUDIT_GENERATED_(FB)
  6
Continuous
 62
     7
100
AcDbLine
 10
107.332717947
 20
480.4377724631
 30
0.0
 11
107.332717947
 21
479.4957036675
 31
0.0
  0
LINE
  5
121
330
6E
100
AcDbEntity
  8
$DDT_AUDIT_GENERATED_(FB)
  6
Continuous
 62
     7
100
AcDbLine
 10
125.332717947
 20
479.4957036675
 30
0.0
 11
125.332717947
 21
480.4377724631
 31
0.0
  0
LINE
  5
122
330
6E
100
AcDbEntity
  8
$DDT_AUDIT_GENERATED_(FB)
  6
Continuous
 62
     7
100
AcDbLine
 10
110.082717947
 20
479.6942128978
 30
0.0
 11
110.082717947
 21
479.4957036675
 31
0.0
  0
LINE
  5
123
330
6E
100
AcDbEntity
  8
$DDT_AUDIT_GENERATED_(FB)
  6
Continuous
 62
     7
100
AcDbLine
 10
122.582717947
 20
479.4957036675
 30
0.0
 11
122.582717947
 21
479.6942128978
 31
0.0
  0
LINE
  5
124
330
6E
100
AcDbEntity
  8
$DDT_AUDIT_GENERATED_(FB)
  6
Continuous
 62
     7
100
AcDbLine
 10
113.582717947
 20
479.6942128978
 30
0.0
 11
113.582717947
 21
479.4957036675
 31
0.0
  0
LINE
  5
125
330
6E
100
AcDbEntity
  8
$DDT_AUDIT_GENERATED_(FB)
  6
Continuous
 62
     7
100
AcDbLine
 10
119.082717947
 20
479.4957036675
 30
0.0
 11
119.082717947
 21
479.6942128978
 31
0.0
  0
LINE
  5
126
330
6E
100
AcDbEntity
  8
$DDT_AUDIT_GENERATED_(FB)
  6
Continuous
 62
     7
100
AcDbLine
 10
115.8130880031
 20
479.7499549188
 30
0.0
 11
115.8130880031
 21
479.6942128978
 31
0.0
  0
LINE
  5
127
330
6E
100
AcDbEntity
  8
$DDT_AUDIT_GENERATED_(FB)
  6
Continuous
 62
     7
100
AcDbLine
 10
116.8523478909
 20
479.6942128978
 30
0.0
 11
116.8523478909
 21
479.7499549188
 31
0.0
  0
ENDBLK
  5
129
330
6E
100
AcDbEntity
  8
0
100
AcDbBlockEnd
  0
BLOCK
  5
1B2
330
12A
100
AcDbEntity
  8
0
100
AcDbBlockBegin
  2
SE1
 70
     0
 10
0.0
 20
0.0
 30
0.0
  3
SE1
  1

  0
ARC
  5
12C
330
12A
100
AcDbEntity
  8
$DDT_AUDIT_GENERATED_(70)
  6
Continuous
 62
     7
100
AcDbCircle
 10
416.0516472351
 20
489.4970430727
 30
0.0
 40
55.43373568797286
100
AcDbArc
 50
88.5003070602
 51
92.6992877323
  0
LINE
  5
12D
330
12A
100
AcDbEntity
  8
$DDT_AUDIT_GENERATED_(70)
  6
Continuous
 62
     7
100
AcDbLine
 10
417.5024362894
 20
544.9117907798
 30
0.0
 11
417.5024362894
 21
552.3551655059
 31
0.0
  0
LINE
  5
12E
330
12A
100
AcDbEntity
  8
$DDT_AUDIT_GENERATED_(70)
  6
Continuous
 62
     7
100
AcDbLine
 10
417.5024362894
 20
552.3551655059
 30
0.0
 11
417.5024362894
 21
575.3460540513
 31
0.0
  0
SPLINE
  5
12F
330
12A
100
AcDbEntity
  8
$DDT_AUDIT_GENERATED_(70)
  6
Continuous
 62
     7
100
AcDbSpline
210
0.0
220
0.0
230
1.0
 70
     8
 71
     3
 72
    40
 73
    36
 74
     0
 42
0.0000000003253338
 43
0.0000000001
 40
0.0
 40
0.0
 40
0.0
 40
0.0
 40
0.0053191489361702
 40
0.0106382978723404
 40
0.0159574468085106
 40
0.0212765957446808
 40
0.026595744680851
 40
0.0319148936170212
 40
0.0372340425531916
 40
0.0425531914893618
 40
0.047872340425532
 40
0.0531914893617022
 40
0.0638297872340426
 40
0.074468085106383
 40
0.0851063829787234
 40
0.1063829787234042
 40
0.1276595744680852
 40
0.148936170212766
 40
0.1702127659574474
 40
0.1914893617021269
 40
0.212765957446808
 40
0.2340425531914891
 40
0.2553191489361703
 40
0.2765957446808514
 40
0.2978723404255325
 40
0.3191489361702121
 40
0.3404255319148932
 40
0.3617021276595743
 40
0.3829787234042554
 40
0.4042553191489365
 40
0.4255319148936177
 40
0.4468085106382972
 40
0.4680851063829783
 40
0.4893617021276594
 40
0.500223688422385
 40
0.500223688422385
 40
0.500223688422385
 40
0.500223688422385
 10
417.5024362893771
 20
544.9117907797983
 30
0.0
 10
417.5994817847263
 20
544.9110043430661
 30
0.0
 10
417.793198184223
 20
544.9095835575243
 30
0.0
 10
418.0824015249384
 20
544.9077629119134
 30
0.0
 10
418.3699861222004
 20
544.9061070679397
 30
0.0
 10
418.6557044910851
 20
544.9044702945388
 30
0.0
 10
418.9393091466686
 20
544.9027068606459
 30
0.0
 10
419.2205807103402
 20
544.9008778052406
 30
0.0
 10
419.4992998034891
 20
544.8990441673028
 30
0.0
 10
419.7752470475041
 20
544.8972669858119
 30
0.0
 10
420.0482030637747
 20
544.8956072997477
 30
0.0
 10
420.4091604156171
 20
544.8935263994789
 30
0.0
 10
420.8566451628365
 20
544.8911265898911
 30
0.0
 10
421.3937135542115
 20
544.888421047074
 30
0.0
 10
422.0977824253179
 20
544.8850951880598
 30
0.0
 10
422.9325680871958
 20
544.8815580353548
 30
0.0
 10
423.9276982817283
 20
544.8776637646116
 30
0.0
 10
424.8562937419161
 20
544.8742911031729
 30
0.0
 10
425.7684979366801
 20
544.8711582068686
 30
0.0
 10
426.6088442794264
 20
544.8684136784996
 30
0.0
 10
427.4152936034253
 20
544.8658990337549
 30
0.0
 10
428.175166081242
 20
544.8636332619967
 30
0.0
 10
428.8832211826959
 20
544.8616058081992
 30
0.0
 10
429.5302519939516
 20
544.85981730847
 30
0.0
 10
430.131466026409
 20
544.8582069325679
 30
0.0
 10
430.6742482896129
 20
544.8567933129311
 30
0.0
 10
431.1562789651346
 20
544.8555623473678
 30
0.0
 10
431.5868546525397
 20
544.8544720852624
 30
0.0
 10
431.952364312495
 20
544.8535513747878
 30
0.0
 10
432.2619578487526
 20
544.8527687623989
 30
0.0
 10
432.5087304028299
 20
544.8521321897825
 30
0.0
 10
432.6968402427678
 20
544.8516265193874
 30
0.0
 10
432.820415192117
 20
544.8512817537475
 30
0.0
 10
432.870380469115
 20
544.8511360558646
 30
0.0
 10
432.8779860304246
 20
544.8511138971746
 30
0.0
 10
432.8779623842763
 20
544.8511139705137
 30
0.0
  0
LINE
  5
130
330
12A
100
AcDbEntity
  8
$DDT_AUDIT_GENERATED_(70)
  6
Continuous
 62
     7
100
AcDbLine
 10
402.3107198701
 20
544.4139770083
 30
0.0
 11
402.2515024752
 21
544.4171578094
 31
0.0
  0
ARC
  5
131
330
12A
100
AcDbEntity
  8
$DDT_AUDIT_GENERATED_(70)
  6
Continuous
 62
     7
100
AcDbCircle
 10
400.259678585
 20
544.3996579858
 30
0.0
 40
1.991900763935438
100
AcDbArc
 50
287.4568358911
 51
0.5033779544
  0
ARC
  5
132
330
12A
100
AcDbEntity
  8
$DDT_AUDIT_GENERATED_(70)
  6
Continuous
 62
     7
100
AcDbCircle
 10
374.29041346
 20
636.6597268211
 30
0.0
 40
97.83631291915691
100
AcDbArc
 50
273.3090482614
 51
285.7561317566
  0
ARC
  5
133
330
12A
100
AcDbEntity
  8
$DDT_AUDIT_GENERATED_(70)
  6
Continuous
 62
     7
100
AcDbCircle
 10
379.2068860991
 20
538.8865320721
 30
0.0
 40
0.7377628860166974
100
AcDbArc
 50
4.6006025394
 51
7.791938541
  0
LINE
  5
134
330
12A
100
AcDbEntity
  8
$DDT_AUDIT_GENERATED_(70)
  6
Continuous
 62
     7
100
AcDbLine
 10
380.880023547
 20
585.2278723489
 30
0.0
 11
380.880023547
 21
613.8578736475
 31
0.0
  0
ARC
  5
135
330
12A
100
AcDbEntity
  8
$DDT_AUDIT_GENERATED_(70)
  6
Continuous
 62
     7
100
AcDbCircle
 10
373.8800235464
 20
585.2278729845
 30
0.0
 40
7.000000000556716
100
AcDbArc
 50
318.590378613
 51
359.9999947972
  0
LINE
  5
136
330
12A
100
AcDbEntity
  8
$DDT_AUDIT_GENERATED_(70)
  6
Continuous
 62
     7
100
AcDbLine
 10
431.8800878459
 20
614.8578736475
 30
0.0
 11
432.8800569823
 21
613.8579070829
 31
0.0
  0
LINE
  5
137
330
12A
100
AcDbEntity
  8
$DDT_AUDIT_GENERATED_(70)
  6
Continuous
 62
     7
100
AcDbLine
 10
380.8799898745
 20
613.85790732
 30
0.0
 11
381.879958792
 21
614.8578736475
 31
0.0
  0
ARC
  5
138
330
12A
100
AcDbEntity
  8
$DDT_AUDIT_GENERATED_(70)
  6
Continuous
 62
     7
100
AcDbCircle
 10
379.8801035115
 20
579.9363402386
 30
0.0
 40
1.000079898696298
100
AcDbArc
 50
138.5921087077
 51
180.0021855306
  0
LINE
  5
139
330
12A
100
AcDbEntity
  8
$DDT_AUDIT_GENERATED_(70)
  6
Continuous
 62
     7
100
AcDbLine
 10
378.8800228782
 20
539.9792445171
 30
0.0
 11
378.880022883
 21
539.9797816747
 31
0.0
  0
LINE
  5
13A
330
12A
100
AcDbEntity
  8
$DDT_AUDIT_GENERATED_(70)
  6
Continuous
 62
     7
100
AcDbLine
 10
378.8800236776
 20
579.8675279881
 30
0.0
 11
378.8800236763
 21
539.9851260637
 31
0.0
  0
LINE
  5
13B
330
12A
100
AcDbEntity
  8
$DDT_AUDIT_GENERATED_(70)
  6
Continuous
 62
     7
100
AcDbLine
 10
378.8800236135
 20
579.9363020909
 30
0.0
 11
378.8800236776
 21
579.8675279881
 31
0.0
  0
ARC
  5
13C
330
12A
100
AcDbEntity
  8
$DDT_AUDIT_GENERATED_(70)
  6
Continuous
 62
     7
100
AcDbCircle
 10
408.9442380615
 20
929.3727694791
 30
0.0
 40
354.0005278841581
100
AcDbArc
 50
268.9167012549
 51
270.1355259951
  0
SPLINE
  5
13D
330
12A
100
AcDbEntity
  8
$DDT_AUDIT_GENERATED_(70)
  6
Continuous
 62
     7
100
AcDbSpline
210
0.0
220
0.0
230
1.0
 70
    12
 71
     3
 72
    28
 73
    24
 74
     0
 42
0.0000000002983322
 43
0.0000000001
 40
0.0
 40
0.0
 40
0.0
 40
0.0
 40
0.0437506683994954
 40
0.0437506683994954
 40
0.091612967376808
 40
0.091612967376808
 40
0.1873375653314333
 40
0.1873375653314333
 40
0.3767945764291076
 40
0.3767945764291076
 40
0.5674814295667253
 40
0.5674814295667253
 40
0.7574302568248416
 40
0.7574302568248416
 40
0.8522793811074323
 40
0.8522793811074323
 40
0.8997039432487276
 40
0.8997039432487276
 40
0.9471285053900249
 40
0.9471285053900249
 40
0.9933479412465407
 40
0.9933479412465407
 40
1.0
 40
1.0
 40
1.0
 40
1.0
 10
402.2515024751987
 20
544.417157809367
 30
0.0
 41
1.0
 10
402.0443089015132
 20
544.430989261737
 30
0.0
 41
1.0
 10
401.8655115172979
 20
544.4719539654162
 30
0.0
 41
1.0
 10
401.4257688534638
 20
544.7270350024954
 30
0.0
 41
1.0
 10
401.2052736946799
 20
544.9265542590763
 30
0.0
 41
1.0
 10
400.554859295917
 20
545.7316793756836
 30
0.0
 41
1.0
 10
400.1602933274086
 20
546.5212023035805
 30
0.0
 41
1.0
 10
399.1351416992501
 20
549.3856944688217
 30
0.0
 41
1.0
 10
398.6641945668127
 20
551.9224007922544
 30
0.0
 41
1.0
 10
398.1423189967599
 20
557.2762464668884
 30
0.0
 41
1.0
 10
398.0849683942957
 20
560.1535516046816
 30
0.0
 41
1.0
 10
398.3737299288291
 20
565.6711025377706
 30
0.0
 41
1.0
 10
398.722774988733
 20
568.3730999200359
 30
0.0
 41
1.0
 10
399.565889561873
 20
571.7113200091188
 30
0.0
 41
1.0
 10
399.8994888970682
 20
572.7021139099953
 30
0.0
 41
1.0
 10
400.4703613837945
 20
573.8901405015454
 30
0.0
 41
1.0
 10
400.6700779118693
 20
574.2323614973407
 30
0.0
 41
1.0
 10
401.087032734698
 20
574.7976981546753
 30
0.0
 41
1.0
 10
401.3069547326489
 20
575.0222578261977
 30
0.0
 41
1.0
 10
401.7463282143565
 20
575.3308473875934
 30
0.0
 41
1.0
 10
401.9301967719528
 20
575.3993885004613
 30
0.0
 41
1.0
 10
402.1818545043767
 20
575.4301871219553
 30
0.0
 41
1.0
 10
402.2158037833751
 20
575.433221194197
 30
0.0
 41
1.0
 10
402.2515028708602
 20
575.4355136866235
 30
0.0
 41
1.0
  0
ARC
  5
13E
330
12A
100
AcDbEntity
  8
$DDT_AUDIT_GENERATED_(70)
  6
Continuous
 62
     7
100
AcDbCircle
 10
433.6407706171
 20
3541.60211263
 30
0.0
 40
2966.324836178928
100
AcDbArc
 50
269.5391450124
 51
269.609831086
  0
ARC
  5
13F
330
12A
100
AcDbEntity
  8
$DDT_AUDIT_GENERATED_(70)
  6
Continuous
 62
     7
100
AcDbCircle
 10
385.8083258432
 20
582.1012985611
 30
0.0
 40
5.836405329714887
100
AcDbArc
 50
92.206925348
 51
146.3913554977
  0
ARC
  5
140
330
12A
100
AcDbEntity
  8
$DDT_AUDIT_GENERATED_(70)
  6
Continuous
 62
     7
100
AcDbCircle
 10
385.8083258432
 20
582.1012985611
 30
0.0
 40
5.836405329714887
100
AcDbArc
 50
146.3913554977
 51
147.6084707042
  0
ARC
  5
141
330
12A
100
AcDbEntity
  8
$DDT_AUDIT_GENERATED_(70)
  6
Continuous
 62
     7
100
AcDbCircle
 10
385.6665348558
 20
499.004620106
 30
0.0
 40
88.92879343977062
100
AcDbArc
 50
76.1993391385
 51
90.0534506479
  0
LINE
  5
142
330
12A
100
AcDbEntity
  8
$DDT_AUDIT_GENERATED_(70)
  6
Continuous
 62
     7
100
AcDbLine
 10
380.880023547
 20
613.8578736474
 30
0.0
 11
406.8800235463
 21
613.8578736475
 31
0.0
  0
ARC
  5
143
330
12A
100
AcDbEntity
  8
$DDT_AUDIT_GENERATED_(70)
  6
Continuous
 62
     7
100
AcDbCircle
 10
408.644676621
 20
575.7749995976
 30
0.0
 40
8.868139637196766
100
AcDbArc
 50
357.2275625102
 51
70.0955862663
  0
ARC
  5
144
330
12A
100
AcDbEntity
  8
$DDT_AUDIT_GENERATED_(70)
  6
Continuous
 62
     7
100
AcDbCircle
 10
379.4937525309
 20
471.0316476609
 30
0.0
 40
117.5686694248686
100
AcDbArc
 50
74.1197212959
 51
76.5298637443
  0
SPLINE
  5
145
330
12A
100
AcDbEntity
  8
$DDT_AUDIT_GENERATED_(70)
  6
Continuous
 62
     7
100
AcDbSpline
210
0.0
220
0.0
230
1.0
 70
    12
 71
     3
 72
     8
 73
     4
 74
     0
 42
0.0000000003999988
 43
0.0000000001
 40
0.0
 40
0.0
 40
0.0
 40
0.0
 40
1.0
 40
1.0
 40
1.0
 40
1.0
 10
406.8800235463719
 20
614.8578736474501
 30
0.0
 41
1.0
 10
392.2353624348434
 20
614.8579025661087
 30
0.0
 41
0.8047400324189393
 10
381.8800120687361
 20
614.8579025661088
 30
0.0
 41
0.8047400324189393
 10
381.8799587920012
 20
614.8578736474501
 30
0.0
 41
1.0
  0
LINE
  5
146
330
12A
100
AcDbEntity
  8
$DDT_AUDIT_GENERATED_(70)
  6
Continuous
 62
     7
100
AcDbLine
 10
431.8800878449
 20
614.8578736475
 30
0.0
 11
406.8800235464
 21
614.8578736475
 31
0.0
  0
LINE
  5
147
330
12A
100
AcDbEntity
  8
$DDT_AUDIT_GENERATED_(70)
  6
Continuous
 62
     7
100
AcDbLine
 10
406.8800235463
 20
613.8578736475
 30
0.0
 11
432.8800235469
 21
613.8578736475
 31
0.0
  0
ARC
  5
148
330
12A
100
AcDbEntity
  8
$DDT_AUDIT_GENERATED_(70)
  6
Continuous
 62
     7
100
AcDbCircle
 10
379.8800873287
 20
539.9849384006
 30
0.0
 40
1.000063670015445
100
AcDbArc
 50
179.9892483787
 51
273.3020318131
  0
ARC
  5
149
330
12A
100
AcDbEntity
  8
$DDT_AUDIT_GENERATED_(70)
  6
Continuous
 62
     7
100
AcDbCircle
 10
374.2874561198
 20
483.1740316123
 30
0.0
 40
97.85538652212693
100
AcDbArc
 50
74.244408507
 51
86.6899002125
  0
ARC
  5
14A
330
12A
100
AcDbEntity
  8
$DDT_AUDIT_GENERATED_(70)
  6
Continuous
 62
     7
100
AcDbCircle
 10
400.2596658563
 20
575.4531172246
 30
0.0
 40
1.991914801655577
100
AcDbArc
 50
359.493642219
 51
72.5026810438
  0
LINE
  5
14B
330
12A
100
AcDbEntity
  8
$DDT_AUDIT_GENERATED_(70)
  6
Continuous
 62
     7
100
AcDbLine
 10
432.8800235469
 20
613.8578736475
 30
0.0
 11
432.8800235469
 21
552.3551655059
 31
0.0
  0
ARC
  5
14C
330
12A
100
AcDbEntity
  8
$DDT_AUDIT_GENERATED_(70)
  6
Continuous
 62
     7
100
AcDbCircle
 10
396.1455695031
 20
831.405214065
 30
0.0
 40
287.0574493482355
100
AcDbArc
 50
271.2306395732
 51
273.454216308
  0
LINE
  5
14D
330
12A
100
AcDbEntity
  8
$DDT_AUDIT_GENERATED_(70)
  6
Continuous
 62
     7
100
AcDbLine
 10
378.8800235481
 20
539.9851260637
 30
0.0
 11
378.8800235483
 21
539.9797816747
 31
0.0
  0
ARC
  5
14E
330
12A
100
AcDbEntity
  8
$DDT_AUDIT_GENERATED_(70)
  6
Continuous
 62
     7
100
AcDbCircle
 10
421.0791236293
 20
82.0257951071
 30
0.0
 40
460.9323980143691
100
AcDbArc
 50
88.7726301134
 51
91.2071764317
  0
ARC
  5
14F
330
12A
100
AcDbEntity
  8
$DDT_AUDIT_GENERATED_(70)
  6
Continuous
 62
     7
100
AcDbCircle
 10
397.9610073606
 20
783.0936673804
 30
0.0
 40
240.6116009723563
100
AcDbArc
 50
270.6896798017
 51
273.1942291732
  0
ARC
  5
150
330
12A
100
AcDbEntity
  8
$DDT_AUDIT_GENERATED_(70)
  6
Continuous
 62
     7
100
AcDbCircle
 10
420.1180731999
 20
362.5965540569
 30
0.0
 40
180.3901395949384
100
AcDbArc
 50
87.3575288359
 51
101.1077785921
  0
ARC
  5
151
330
12A
100
AcDbEntity
  8
$DDT_AUDIT_GENERATED_(70)
  6
Continuous
 62
     7
100
AcDbCircle
 10
430.5764179724
 20
545.1413337006
 30
0.0
 40
2.319553327380589
100
AcDbArc
 50
279.3259481946
 51
352.812393083
  0
ARC
  5
152
330
12A
100
AcDbEntity
  8
$DDT_AUDIT_GENERATED_(70)
  6
Continuous
 62
     7
100
AcDbCircle
 10
340.4619404799
 20
905.714174879
 30
0.0
 40
368.8452478034747
100
AcDbArc
 50
276.1438452213
 51
276.992790122
  0
ARC
  5
153
330
12A
100
AcDbEntity
  8
$DDT_AUDIT_GENERATED_(70)
  6
Continuous
 62
     7
100
AcDbCircle
 10
374.0175580676
 20
585.282101038
 30
0.0
 40
6.933842098350125
100
AcDbArc
 50
317.642703786
 51
0.38417666
  0
ARC
  5
154
330
12A
100
AcDbEntity
  8
$DDT_AUDIT_GENERATED_(70)
  6
Continuous
 62
     7
100
AcDbCircle
 10
354.7988878507
 20
548.6249928591
 30
0.0
 40
78.17022493744727
100
AcDbArc
 50
357.2328157434
 51
2.73511229
  0
ARC
  5
155
330
12A
100
AcDbEntity
  8
$DDT_AUDIT_GENERATED_(70)
  6
Continuous
 62
     7
100
AcDbCircle
 10
379.9183820687
 20
540.0235931021
 30
0.0
 40
1.039042400650436
100
AcDbArc
 50
177.9209879718
 51
201.1982572206
  0
SPLINE
  5
156
330
12A
100
AcDbEntity
  8
$DDT_AUDIT_GENERATED_(70)
  6
Continuous
 62
     7
100
AcDbSpline
210
0.0
220
0.0
230
1.0
 70
     8
 71
     3
 72
    16
 73
    12
 74
     0
 42
0.0000000032707476
 43
0.0000000001
 40
0.4881788219041279
 40
0.4881788219041279
 40
0.4881788219041279
 40
0.4881788219041279
 40
0.524384564854892
 40
0.566420237069186
 40
0.6417122650554687
 40
0.7225549247247639
 40
0.8085290760773843
 40
0.8591397242557538
 40
0.907765581337846
 40
0.9546920234213858
 40
1.0
 40
1.0
 40
1.0
 40
1.0
 10
378.9003140808362
 20
539.8085465516309
 30
0.0
 10
378.9002351819952
 20
539.8085632379114
 30
0.0
 10
378.9003410587484
 20
539.807209988666
 30
0.0
 10
378.9004049074575
 20
539.8050574998449
 30
0.0
 10
378.8999287656633
 20
539.8050791642839
 30
0.0
 10
378.9022362049544
 20
539.7884588725847
 30
0.0
 10
378.8943147370279
 20
539.8289720135494
 30
0.0
 10
378.9141599460149
 20
539.7152015905943
 30
0.0
 10
379.0082907447273
 20
539.4634840402678
 30
0.0
 10
379.3058853665169
 20
539.091084914596
 30
0.0
 10
379.7017774628212
 20
539.0192249392492
 30
0.0
 10
379.9369353855776
 20
538.9742279274254
 30
0.0
  0
LINE
  5
157
330
12A
100
AcDbEntity
  8
$DDT_AUDIT_GENERATED_(70)
  6
Continuous
 62
     7
100
AcDbLine
 10
428.4054914833
 20
542.7948834242
 30
0.0
 11
428.4106154646
 21
542.7948548146
 31
0.0
  0
ARC
  5
159
330
12A
100
AcDbEntity
  8
$DDT_AUDIT_GENERATED_(158)
  6
Continuous
 62
     7
100
AcDbCircle
 10
379.8786979087
 20
568.767340818
 30
0.0
 40
1.000000000000001
100
AcDbArc
 50
180.0
 51
205.8419327632
  0
ARC
  5
15A
330
12A
100
AcDbEntity
  8
$DDT_AUDIT_GENERATED_(158)
  6
Continuous
 62
     7
100
AcDbCircle
 10
379.8786979087
 20
551.067340818
 30
0.0
 40
1.000000000000002
100
AcDbArc
 50
154.1580672368
 51
180.0
  0
ARC
  5
15B
330
12A
100
AcDbEntity
  8
$DDT_AUDIT_GENERATED_(A2)
  6
Continuous
 62
     7
100
AcDbCircle
 10
554.6548454893
 20
674.8178353426
 30
0.0
 40
10.13001360858648
100
AcDbArc
 50
276.5949070985
 51
283.230812828
  0
SPLINE
  5
15C
330
12A
100
AcDbEntity
  8
$DDT_AUDIT_GENERATED_(A2)
  6
Continuous
 62
     7
100
AcDbSpline
210
0.0
220
0.0
230
1.0
 70
     8
 71
     3
 72
    16
 73
    12
 74
     0
 42
0.0000000028531022
 43
0.0000000001
 40
0.0
 40
0.0
 40
0.0
 40
0.0
 40
0.0621813641798603
 40
0.144017351663552
 40
0.2519266684293631
 40
0.3777963809170456
 40
0.503509204775417
 40
0.7496401927924824
 40
0.8492702783542408
 40
0.9095897635723833
 40
1.0
 40
1.0
 40
1.0
 40
1.0
 10
558.4554950724827
 20
668.5248015042749
 30
0.0
 10
558.4241060967978
 20
668.5042029816445
 30
0.0
 10
558.3514065475166
 20
668.456495043478
 30
0.0
 10
558.2292516506171
 20
668.3223915065158
 30
0.0
 10
558.1003958460512
 20
668.0503901320064
 30
0.0
 10
557.9946115016887
 20
667.62713533815
 30
0.0
 10
557.9251689468136
 20
666.9321212489411
 30
0.0
 10
557.989933700904
 20
666.0918973339631
 30
0.0
 10
558.2172367654722
 20
665.5854421058762
 30
0.0
 10
558.377925149588
 20
665.432770222336
 30
0.0
 10
558.4668250538416
 20
665.4462007526665
 30
0.0
 10
558.5201487200318
 20
665.4542566119179
 30
0.0
  0
SPLINE
  5
15D
330
12A
100
AcDbEntity
  8
$DDT_AUDIT_GENERATED_(A2)
  6
Continuous
 62
     7
100
AcDbSpline
210
0.0
220
0.0
230
1.0
 70
     8
 71
     3
 72
     9
 73
     5
 74
     0
 42
0.0000000049823088
 43
0.0000000001
 40
0.0
 40
0.0
 40
0.0
 40
0.0
 40
0.0593903650378046
 40
0.071135957164823
 40
0.071135957164823
 40
0.071135957164823
 40
0.071135957164823
 10
555.8182659151228
 20
664.7548522548756
 30
0.0
 10
555.780116466194
 20
664.7450704749951
 30
0.0
 10
555.7344222266801
 20
664.733354159156
 30
0.0
 10
555.6866323748452
 20
664.7392155944565
 30
0.0
 10
555.6786931130991
 20
664.7406799670433
 30
0.0
  0
SPLINE
  5
15E
330
12A
100
AcDbEntity
  8
$DDT_AUDIT_GENERATED_(A2)
  6
Continuous
 62
     7
100
AcDbSpline
210
0.0
220
0.0
230
1.0
 70
     8
 71
     3
 72
     8
 73
     4
 74
     0
 42
0.0000000000633685
 43
0.0000000001
 40
0.6873044540825147
 40
0.6873044540825147
 40
0.6873044540825147
 40
0.6873044540825147
 40
0.6889041343971761
 40
0.6889041343971761
 40
0.6889041343971761
 40
0.6889041343971761
 10
448.4193397247407
 20
650.5169004200679
 30
0.0
 10
448.3367805545304
 20
650.5006089160468
 30
0.0
 10
448.2542392938582
 20
650.4842521937057
 30
0.0
 10
448.1717140723975
 20
650.4678288897877
 30
0.0
  0
ARC
  5
15F
330
12A
100
AcDbEntity
  8
$DDT_AUDIT_GENERATED_(A2)
  6
Continuous
 62
     7
100
AcDbCircle
 10
451.8784793836
 20
626.6308073166
 30
0.0
 40
17.00545731096675
100
AcDbArc
 50
162.3801977097
 51
185.4241199858
  0
LINE
  5
160
330
12A
100
AcDbEntity
  8
$DDT_AUDIT_GENERATED_(A2)
  6
Continuous
 62
     7
100
AcDbLine
 10
407.1269198221
 20
615.8578736474
 30
0.0
 11
434.3059413015
 21
615.8578736474
 31
0.0
  0
LINE
  5
161
330
12A
100
AcDbEntity
  8
$DDT_AUDIT_GENERATED_(A2)
  6
Continuous
 62
     7
100
AcDbLine
 10
407.1269198483
 20
615.8578736474
 30
0.0
 11
406.1522319506
 21
615.8578736474
 31
0.0
  0
LINE
  5
162
330
12A
100
AcDbEntity
  8
$DDT_AUDIT_GENERATED_(A2)
  6
Continuous
 62
     7
100
AcDbLine
 10
406.1522319506
 20
615.8578736474
 30
0.0
 11
379.5541082006
 21
615.8578736474
 31
0.0
  0
ARC
  5
163
330
12A
100
AcDbEntity
  8
$DDT_AUDIT_GENERATED_(A2)
  6
Continuous
 62
     7
100
AcDbCircle
 10
554.657314747
 20
674.8319602857
 30
0.0
 40
10.14216969439793
100
AcDbArc
 50
275.7801560201
 51
283.8364753804
  0
ARC
  5
164
330
12A
100
AcDbEntity
  8
$DDT_AUDIT_GENERATED_(A2)
  6
Continuous
 62
     7
100
AcDbCircle
 10
572.164863772
 20
597.8645543285
 30
0.0
 40
68.79220073630196
100
AcDbArc
 50
99.769025375
 51
102.7590594648
  0
ARC
  5
165
330
12A
100
AcDbEntity
  8
$DDT_AUDIT_GENERATED_(A2)
  6
Continuous
 62
     7
100
AcDbCircle
 10
560.1891274712
 20
668.0444992325
 30
0.0
 40
2.402209417425943
100
AcDbArc
 50
279.5795986201
 51
294.307680879
  0
ARC
  5
166
330
12A
100
AcDbEntity
  8
$DDT_AUDIT_GENERATED_(A2)
  6
Continuous
 62
     7
100
AcDbCircle
 10
557.2959869595
 20
678.7777073711
 30
0.0
 40
9.184607050796883
100
AcDbArc
 50
275.6455077694
 51
291.3939151575
  0
SPLINE
  5
167
330
12A
100
AcDbEntity
  8
$DDT_AUDIT_GENERATED_(A2)
  6
Continuous
 62
     7
100
AcDbSpline
210
0.0
220
0.0
230
1.0
 70
     8
 71
     3
 72
    19
 73
    15
 74
     0
 42
0.0000000021702362
 43
0.0000000001
 40
0.0
 40
0.0
 40
0.0
 40
0.0
 40
0.0828402512720983
 40
0.15793253990106
 40
0.22527142373017
 40
0.2850606562579807
 40
0.3814944510150194
 40
0.4521645180202203
 40
0.5422785082356809
 40
0.6634102818820923
 40
0.7358338713014622
 40
0.8161017724897531
 40
0.9041532210215117
 40
1.0
 40
1.0
 40
1.0
 40
1.0
 10
576.9646986766921
 20
673.3542852579865
 30
0.0
 10
577.0878094808406
 20
673.4174925800553
 30
0.0
 10
577.2848099280317
 20
673.5244941090876
 30
0.0
 10
577.5322473914562
 20
673.7771175285293
 30
0.0
 10
577.6799085736943
 20
674.0489576541163
 30
0.0
 10
577.7636993379216
 20
674.3812358851009
 30
0.0
 10
577.7475762685868
 20
674.7327006058874
 30
0.0
 10
577.624976223595
 20
675.1064090211754
 30
0.0
 10
577.3961158587135
 20
675.4740125667317
 30
0.0
 10
577.0593375464017
 20
675.759224999002
 30
0.0
 10
576.6741105593691
 20
675.9245834882903
 30
0.0
 10
576.3122699142513
 20
675.9895728331073
 30
0.0
 10
575.9003623824458
 20
675.9582567134729
 30
0.0
 10
575.6529467018297
 20
675.8782838472899
 30
0.0
 10
575.5016455483503
 20
675.8258783742106
 30
0.0
  0
LINE
  5
168
330
12A
100
AcDbEntity
  8
$DDT_AUDIT_GENERATED_(A2)
  6
Continuous
 62
     7
100
AcDbLine
 10
561.1779479128
 20
665.8552708823
 30
0.0
 11
576.9646985402
 21
673.3542851995
 31
0.0
  0
LINE
  5
169
330
12A
100
AcDbEntity
  8
$DDT_AUDIT_GENERATED_(A2)
  6
Continuous
 62
     7
100
AcDbLine
 10
575.5016456268
 20
675.8258784078
 30
0.0
 11
560.6461651276
 21
670.2259198682
 31
0.0
  0
SPLINE
  5
16A
330
12A
100
AcDbEntity
  8
$DDT_AUDIT_GENERATED_(A2)
  6
Continuous
 62
     7
100
AcDbSpline
210
0.0
220
0.0
230
1.0
 70
     8
 71
     3
 72
     8
 73
     4
 74
     0
 42
0.0000000000922962
 43
0.0000000001
 40
0.0008845371833829
 40
0.0008845371833829
 40
0.0008845371833829
 40
0.0008845371833829
 40
0.0628707377733747
 40
0.0628707377733747
 40
0.0628707377733747
 40
0.0628707377733747
 10
448.3332909330789
 20
650.4986004669411
 30
0.0
 10
450.745963200879
 20
650.9469729016257
 30
0.0
 10
452.787555486241
 20
651.3220986703842
 30
0.0
 10
454.9463644826686
 20
651.6674216121858
 30
0.0
  0
SPLINE
  5
16B
330
12A
100
AcDbEntity
  8
$DDT_AUDIT_GENERATED_(A2)
  6
Continuous
 62
     7
100
AcDbSpline
210
0.0
220
0.0
230
1.0
 70
     8
 71
     3
 72
    51
 73
    47
 74
     0
 42
0.0000000000509862
 43
0.0000000001
 40
0.0
 40
0.0
 40
0.0
 40
0.0
 40
0.0311910249500435
 40
0.0659743903581456
 40
0.098559928851609
 40
0.1289507142989393
 40
0.1569699993759534
 40
0.1820463899701031
 40
0.204640090828112
 40
0.2247944345451521
 40
0.2426648916885102
 40
0.2586578047677641
 40
0.2724430767050732
 40
0.2850133870400919
 40
0.2980554331064365
 40
0.3115724606627002
 40
0.3255303645297793
 40
0.3398878710150438
 40
0.3630802375479464
 40
0.3875522330969676
 40
0.412364055715972
 40
0.4361487043209391
 40
0.458090828910474
 40
0.4782126739467816
 40
0.4975026129887322
 40
0.5179121721945671
 40
0.5462675018058805
 40
0.5765405569043616
 40
0.6070737975568337
 40
0.6373542601552828
 40
0.6681434887046754
 40
0.7002655788920782
 40
0.7323041486877367
 40
0.7547396640589557
 40
0.7771667713309827
 40
0.7996045084522494
 40
0.8220305216532008
 40
0.8449335408327335
 40
0.8610885764924917
 40
0.8783700100436226
 40
0.8966034497018919
 40
0.9157902593583452
 40
0.9359206783340269
 40
0.9570077506884829
 40
0.9790548757523324
 40
1.0
 40
1.0
 40
1.0
 40
1.0
 10
558.1995058340477
 20
669.6376098118449
 30
0.0
 10
555.9701086641516
 20
669.3962792448621
 30
0.0
 10
551.9915425670124
 20
668.9656024569945
 30
0.0
 10
545.4540967716464
 20
668.2579288662749
 30
0.0
 10
539.1361628153468
 20
667.5740172686191
 30
0.0
 10
533.2152017478752
 20
666.9330776900251
 30
0.0
 10
527.7923903542794
 20
666.346062437184
 30
0.0
 10
522.8738114247739
 20
665.813629965675
 30
0.0
 10
518.4668299105281
 20
665.3365775248056
 30
0.0
 10
514.5279489359561
 20
664.9101966121533
 30
0.0
 10
511.0180010026772
 20
664.5302473844129
 30
0.0
 10
507.9218951113364
 20
664.1950962554638
 30
0.0
 10
505.1701826008372
 20
663.8972254603235
 30
0.0
 10
502.6102106723042
 20
663.6201104485939
 30
0.0
 10
500.0676687513957
 20
663.3448822206486
 30
0.0
 10
497.4349640106685
 20
663.0598939377438
 30
0.0
 10
494.7167835348229
 20
662.7656529166402
 30
0.0
 10
491.3699206413621
 20
662.4033576239043
 30
0.0
 10
487.3398751394233
 20
661.9671072613377
 30
0.0
 10
482.6305305347421
 20
661.4573276858802
 30
0.0
 10
477.882702493396
 20
660.9433656896218
 30
0.0
 10
473.2992535562834
 20
660.4472579822008
 30
0.0
 10
469.0205709056511
 20
659.9839351941326
 30
0.0
 10
465.0338738488869
 20
659.5528890150682
 30
0.0
 10
461.147007838822
 20
659.1303026429651
 30
0.0
 10
456.7239371675227
 20
658.6611008188228
 30
0.0
 10
451.5931557001743
 20
658.0591195575438
 30
0.0
 10
445.818975922532
 20
657.2715413823391
 30
0.0
 10
439.932431178836
 20
656.3812767145407
 30
0.0
 10
434.0342131786259
 20
655.3501585173042
 30
0.0
 10
428.0678727878691
 20
654.1201599445775
 30
0.0
 10
422.0352910633186
 20
652.6583487932294
 30
0.0
 10
416.601927883452
 20
651.0612350401548
 30
0.0
 10
411.8701304166428
 20
649.359593407295
 30
0.0
 10
407.8234298040397
 20
647.6281787113501
 30
0.0
 10
403.9018392500585
 20
645.6295388224669
 30
0.0
 10
400.1061543633376
 20
643.3395408593394
 30
0.0
 10
396.8313434759366
 20
641.0028528217049
 30
0.0
 10
393.9887917580484
 20
638.6591760776083
 30
0.0
 10
391.5163441246085
 20
636.3556883915804
 30
0.0
 10
389.0625437426172
 20
633.7514575403812
 30
0.0
 10
386.6750555448174
 20
630.8427486893496
 30
0.0
 10
384.3989427867336
 20
627.6049776353823
 30
0.0
 10
382.3233452568401
 20
624.0493452301573
 30
0.0
 10
380.5035665965776
 20
620.1719682038859
 30
0.0
 10
379.7265449709251
 20
617.6791571821864
 30
0.0
 10
379.2878945100232
 20
616.2386529542024
 30
0.0
  0
SPLINE
  5
16C
330
12A
100
AcDbEntity
  8
$DDT_AUDIT_GENERATED_(A2)
  6
Continuous
 62
     7
100
AcDbSpline
210
0.0
220
0.0
230
1.0
 70
     8
 71
     3
 72
    45
 73
    41
 74
     0
 42
0.000000000092368
 43
0.0000000001
 40
0.0
 40
0.0
 40
0.0
 40
0.0
 40
0.013027433781492
 40
0.0313438031980409
 40
0.0529053016703536
 40
0.0720185089178168
 40
0.0859800723408332
 40
0.0948760469077353
 40
0.1039821836041125
 40
0.1157068705520301
 40
0.1302818265248422
 40
0.1512543835446355
 40
0.1757331382265084
 40
0.2000794016530971
 40
0.2230443274203907
 40
0.2446957003486439
 40
0.2650263842228385
 40
0.2979312407915375
 40
0.3290234774798537
 40
0.3610523966053806
 40
0.3941195330664528
 40
0.4276389609715359
 40
0.4610573053919741
 40
0.5066454717786774
 40
0.5522179659231597
 40
0.5978449094130431
 40
0.6458366623863129
 40
0.6976372562812715
 40
0.7274989594608284
 40
0.7521741149124564
 40
0.7727774661794854
 40
0.7925177671470753
 40
0.804131248089441
 40
0.8199515027669424
 40
0.8399835003563226
 40
0.8642433360941256
 40
0.8927261735036142
 40
0.9253762484025763
 40
0.9623418826084962
 40
1.0
 40
1.0
 40
1.0
 40
1.0
 10
448.4199667981882
 20
650.5164399404753
 30
0.0
 10
448.927489923246
 20
650.6167400120178
 30
0.0
 10
449.9612789514215
 20
650.8201533606054
 30
0.0
 10
451.881341497686
 20
651.1692349799116
 30
0.0
 10
453.9662610228965
 20
651.515942619848
 30
0.0
 10
455.9168282112433
 20
651.8199237068513
 30
0.0
 10
457.4140196052422
 20
652.0415994697959
 30
0.0
 10
458.5559674951168
 20
652.2040718649251
 30
0.0
 10
459.6185128457597
 20
652.3508641043576
 30
0.0
 10
460.8849270163895
 20
652.5200278239776
 30
0.0
 10
462.5770855666508
 20
652.7363276894791
 30
0.0
 10
464.7272016178666
 20
653.000179987191
 30
0.0
 10
467.2267729633207
 20
653.3116471035964
 30
0.0
 10
469.7975014001822
 20
653.6336158107827
 30
0.0
 10
472.2666420682256
 20
653.9454681190148
 30
0.0
 10
474.5917262969439
 20
654.2410467111528
 30
0.0
 10
477.2723626566392
 20
654.5837435375767
 30
0.0
 10
480.2904940997824
 20
654.9719187298598
 30
0.0
 10
483.7269170161974
 20
655.4160063220414
 30
0.0
 10
487.1691390874487
 20
655.8619444876507
 30
0.0
 10
490.6982280112966
 20
656.3195944687217
 30
0.0
 10
494.2772069497007
 20
656.7834094036946
 30
0.0
 10
498.3045939251784
 20
657.3043211717642
 30
0.0
 10
502.763704668617
 20
657.8800416602529
 30
0.0
 10
507.6599948501439
 20
658.5115527733644
 30
0.0
 10
512.642444492458
 20
659.1539841003574
 30
0.0
 10
517.8477075123157
 20
659.8256402261903
 30
0.0
 10
522.488419426302
 20
660.4253934882496
 30
0.0
 10
526.2944188774709
 20
660.917886263626
 30
0.0
 10
528.9837504916717
 20
661.2661233847945
 30
0.0
 10
531.3107666190155
 20
661.5675846562993
 30
0.0
 10
533.1702824885351
 20
661.8085591030423
 30
0.0
 10
534.8585829177314
 20
662.0273812671217
 30
0.0
 10
536.5572523447701
 20
662.2475604688641
 30
0.0
 10
538.7086822620203
 20
662.5264303448882
 30
0.0
 10
541.3122943544475
 20
662.8638904112228
 30
0.0
 10
544.3720920405071
 20
663.2604011931021
 30
0.0
 10
547.86526958276
 20
663.7130883562927
 30
0.0
 10
551.7803252019858
 20
664.2205617453357
 30
0.0
 10
554.254132161081
 20
664.5439055459567
 30
0.0
 10
555.7363807610762
 20
664.737646023086
 30
0.0
  0
LINE
  5
16D
330
12A
100
AcDbEntity
  8
$DDT_AUDIT_GENERATED_(A2)
  6
Continuous
 62
     7
100
AcDbLine
 10
448.2297749247
 20
650.4793604842
 30
0.0
 11
448.4199667982
 21
650.5164399405
 31
0.0
  0
ARC
  5
16E
330
12A
100
AcDbEntity
  8
$DDT_AUDIT_GENERATED_(A2)
  6
Continuous
 62
     7
100
AcDbCircle
 10
471.3308371921
 20
627.8563407333
 30
0.0
 40
35.85821022315136
100
AcDbArc
 50
148.0785509972
 51
173.7247545216
  0
ARC
  5
16F
330
12A
100
AcDbEntity
  8
$DDT_AUDIT_GENERATED_(A2)
  6
Continuous
 62
     7
100
AcDbCircle
 10
598.9939515395
 20
614.1321389117
 30
0.0
 40
164.4001003312572
100
AcDbArc
 50
176.1892098361
 51
179.2964359965
  0
ARC
  5
170
330
12A
100
AcDbEntity
  8
$DDT_AUDIT_GENERATED_(A2)
  6
Continuous
 62
     7
100
AcDbCircle
 10
455.2165660852
 20
627.3554889985
 30
0.0
 40
24.15865200427269
100
AcDbArc
 50
106.8676646881
 51
126.3558660199
  0
ARC
  5
171
330
12A
100
AcDbEntity
  8
$DDT_AUDIT_GENERATED_(A2)
  6
Continuous
 62
     7
100
AcDbCircle
 10
434.30594594
 20
616.1578734993
 30
0.0
 40
0.2999979410126098
100
AcDbArc
 50
269.935372839
 51
357.8891733575
  0
ARC
  5
172
330
12A
100
AcDbEntity
  8
$DDT_AUDIT_GENERATED_(A2)
  6
Continuous
 62
     7
100
AcDbCircle
 10
379.5541087386
 20
616.1578736475
 30
0.0
 40
0.3000000000836895
100
AcDbArc
 50
163.3519304596
 51
269.9995975215
  0
LINE
  5
173
330
12A
100
AcDbEntity
  8
$DDT_AUDIT_GENERATED_(B5)
  6
Continuous
 62
     7
100
AcDbLine
 10
431.9016142232
 20
614.8578736475
 30
0.0
 11
381.8584328695
 21
614.8578736475
 31
0.0
  0
ARC
  5
174
330
12A
100
AcDbEntity
  8
$DDT_AUDIT_GENERATED_(B5)
  6
Continuous
 62
     7
100
AcDbCircle
 10
406.8800235464
 20
606.7578736475
 30
0.0
 40
26.3
100
AcDbArc
 50
159.7481075799
 51
162.0621734783
  0
ARC
  5
175
330
12A
100
AcDbEntity
  8
$DDT_AUDIT_GENERATED_(B5)
  6
Continuous
 62
     7
100
AcDbCircle
 10
406.8800235464
 20
606.7578736475
 30
0.0
 40
26.29999999999999
100
AcDbArc
 50
17.9378265217
 51
20.2984108469
  0
LINE
  5
176
330
12A
100
AcDbEntity
  8
$DDT_AUDIT_GENERATED_(B9)
  6
Continuous
 62
     7
100
AcDbLine
 10
435.7098854026
 20
631.8703983562
 30
0.0
 11
434.7402101993
 21
626.881851895
 31
0.0
  0
ARC
  5
177
330
12A
100
AcDbEntity
  8
$DDT_AUDIT_GENERATED_(BE)
  6
Continuous
 62
     7
100
AcDbCircle
 10
1390.6380952561
 20
16816.6511892159
 30
0.0
 40
16348.04155139684
100
AcDbArc
 50
266.550346118
 51
267.1511326981
  0
LINE
  5
178
330
12A
100
AcDbEntity
  8
$DDT_AUDIT_GENERATED_(BE)
  6
Continuous
 62
     7
100
AcDbLine
 10
577.9873903809
 20
498.1585277295
 30
0.0
 11
424.6637422598
 21
511.5283970718
 31
0.0
  0
ARC
  5
179
330
12A
100
AcDbEntity
  8
$DDT_AUDIT_GENERATED_(BE)
  6
Continuous
 62
     7
100
AcDbCircle
 10
429.4327904749
 20
544.9170853801
 30
0.0
 40
33.72756035983895
100
AcDbArc
 50
228.0351387079
 51
261.8711831445
  0
ARC
  5
17A
330
12A
100
AcDbEntity
  8
$DDT_AUDIT_GENERATED_(BE)
  6
Continuous
 62
     7
100
AcDbCircle
 10
407.7827396982
 20
513.9063956331
 30
0.0
 40
26.42870961732214
100
AcDbArc
 50
216.4383502377
 51
268.0425889671
  0
LINE
  5
17B
330
12A
100
AcDbEntity
  8
$DDT_AUDIT_GENERATED_(BE)
  6
Continuous
 62
     7
100
AcDbLine
 10
595.5235162227
 20
485.6072819123
 30
0.0
 11
596.641756741
 21
485.7932342831
 31
0.0
  0
ARC
  5
17C
330
12A
100
AcDbEntity
  8
$DDT_AUDIT_GENERATED_(BE)
  6
Continuous
 62
     7
100
AcDbCircle
 10
567.7679443435
 20
351.0081343884
 30
0.0
 40
150.3205934936175
100
AcDbArc
 50
78.9172217803
 51
86.0535011412
  0
ARC
  5
17D
330
12A
100
AcDbEntity
  8
$DDT_AUDIT_GENERATED_(BE)
  6
Continuous
 62
     7
100
AcDbCircle
 10
575.8145366353
 20
250.7944472567
 30
0.0
 40
238.0263460367
100
AcDbArc
 50
84.5859482989
 51
89.4176089581
  0
LINE
  5
17E
330
12A
100
AcDbEntity
  8
$DDT_AUDIT_GENERATED_(BE)
  6
Continuous
 62
     7
100
AcDbLine
 10
598.2729104312
 20
487.7589231893
 30
0.0
 11
598.2729241471
 21
496.5638496598
 31
0.0
  0
ARC
  5
17F
330
12A
100
AcDbEntity
  8
$DDT_AUDIT_GENERATED_(BE)
  6
Continuous
 62
     7
100
AcDbCircle
 10
638.0853577936
 20
1132.5028162721
 30
0.0
 40
637.183960194262
100
AcDbArc
 50
264.5993452488
 51
266.4177201642
  0
ARC
  5
180
330
12A
100
AcDbEntity
  8
$DDT_AUDIT_GENERATED_(BE)
  6
Continuous
 62
     7
100
AcDbCircle
 10
565.8710422972
 20
4522.829518145
 30
0.0
 40
4038.467294895941
100
AcDbArc
 50
267.7437308571
 51
270.07265365
  0
LINE
  5
181
330
12A
100
AcDbEntity
  8
$DDT_AUDIT_GENERATED_(BE)
  6
Continuous
 62
     7
100
AcDbLine
 10
578.1137512268
 20
500.9722804641
 30
0.0
 11
433.9537743765
 21
514.9645962402
 31
0.0
  0
LINE
  5
182
330
12A
100
AcDbEntity
  8
$DDT_AUDIT_GENERATED_(BE)
  6
Continuous
 62
     7
100
AcDbLine
 10
596.6417885862
 20
485.7932480675
 30
0.0
 11
596.641756741
 21
485.7932342831
 31
0.0
  0
LINE
  5
183
330
12A
100
AcDbEntity
  8
$DDT_AUDIT_GENERATED_(BE)
  6
Continuous
 62
     7
100
AcDbLine
 10
596.6636216785
 20
498.5253220637
 30
0.0
 11
596.6636362168
 21
498.525318277
 31
0.0
  0
ARC
  5
184
330
12A
100
AcDbEntity
  8
$DDT_AUDIT_GENERATED_(BE)
  6
Continuous
 62
     7
100
AcDbCircle
 10
434.6300235342
 20
521.9318544656
 30
0.0
 40
7.000000007343649
100
AcDbArc
 50
180.0000000048
 51
264.456179094
  0
ARC
  5
185
330
12A
100
AcDbEntity
  8
$DDT_AUDIT_GENERATED_(BE)
  6
Continuous
 62
     7
100
AcDbCircle
 10
596.2729266203
 20
496.5638515897
 30
0.0
 40
2.000001388592287
100
AcDbArc
 50
0.0000182036
 51
78.734557264
  0
ARC
  5
186
330
12A
100
AcDbEntity
  8
$DDT_AUDIT_GENERATED_(BE)
  6
Continuous
 62
     7
100
AcDbCircle
 10
388.1300232565
 20
499.3966541054
 30
0.0
 40
1.999999818998308
100
AcDbArc
 50
179.9999993356
 51
216.4338586254
  0
ARC
  5
187
330
12A
100
AcDbEntity
  8
$DDT_AUDIT_GENERATED_(BE)
  6
Continuous
 62
     7
100
AcDbCircle
 10
596.2729404096
 20
487.758911088
 30
0.0
 40
1.999970021654154
100
AcDbArc
 50
280.6277185033
 51
0.0003466822
  0
ARC
  5
188
330
12A
100
AcDbEntity
  8
$DDT_AUDIT_GENERATED_(BE)
  6
Continuous
 62
     7
100
AcDbCircle
 10
585.5781063445
 20
393.94007403
 30
0.0
 40
92.20514182286685
100
AcDbArc
 50
83.8079293516
 51
94.6434025289
  0
ARC
  5
189
330
12A
100
AcDbEntity
  8
$DDT_AUDIT_GENERATED_(BE)
  6
Continuous
 62
     7
100
AcDbCircle
 10
581.4159363862
 20
452.0145362691
 30
0.0
 40
33.98884154021705
100
AcDbArc
 50
95.5753952051
 51
107.8596861838
  0
ARC
  5
18A
330
12A
100
AcDbEntity
  8
$DDT_AUDIT_GENERATED_(BE)
  6
Continuous
 62
     7
100
AcDbCircle
 10
366.4176997421
 20
534.3078736919
 30
0.0
 40
20.17586939122524
100
AcDbArc
 50
348.0962057262
 51
12.305598943
  0
ARC
  5
18B
330
12A
100
AcDbEntity
  8
$DDT_AUDIT_GENERATED_(BE)
  6
Continuous
 62
     7
100
AcDbCircle
 10
552.1881513608
 20
197.0934015343
 30
0.0
 40
304.9645737835322
100
AcDbArc
 50
83.2159234372
 51
84.6961662423
  0
ARC
  5
18C
330
12A
100
AcDbEntity
  8
$DDT_AUDIT_GENERATED_(BE)
  6
Continuous
 62
     7
100
AcDbCircle
 10
564.3029999278
 20
311.2348369092
 30
0.0
 40
190.1963851212912
100
AcDbArc
 50
82.8445372101
 51
84.5339128548
  0
LINE
  5
18D
330
12A
100
AcDbEntity
  8
$DDT_AUDIT_GENERATED_(BE)
  6
Continuous
 62
     7
100
AcDbLine
 10
386.1300234321
 20
530.0079035956
 30
0.0
 11
386.1300234321
 21
499.3966538774
 31
0.0
  0
LINE
  5
18E
330
12A
100
AcDbEntity
  8
$DDT_AUDIT_GENERATED_(BE)
  6
Continuous
 62
     7
100
AcDbLine
 10
386.1300234321
 20
539.6938257041
 30
0.0
 11
386.1300234321
 21
538.5502107565
 31
0.0
  0
LINE
  5
18F
330
12A
100
AcDbEntity
  8
$DDT_AUDIT_GENERATED_(BE)
  6
Continuous
 62
     7
100
AcDbLine
 10
427.6300235288
 20
521.9318564686
 30
0.0
 11
427.6300235288
 21
542.7989878461
 31
0.0
  0
SPLINE
  5
190
330
12A
100
AcDbEntity
  8
$DDT_AUDIT_GENERATED_(BE)
  6
Continuous
 62
     7
100
AcDbSpline
210
0.0
220
0.0
230
1.0
 70
     8
 71
     3
 72
     9
 73
     5
 74
     0
 42
0.0000004911027541
 43
0.0000000001
 40
0.0
 40
0.0
 40
0.0
 40
0.0
 40
0.0607307474263771
 40
0.0919330545544685
 40
0.0919330545544685
 40
0.0919330545544685
 40
0.0919330545544685
 10
386.1374373949148
 20
530.0740130070648
 30
0.0
 10
386.1373085752037
 20
530.0734081131312
 30
0.0
 10
386.1372097936438
 20
530.0729125358911
 30
0.0
 10
386.1370774711062
 20
530.0723353826032
 30
0.0
 10
386.1370416551208
 20
530.0721834888593
 30
0.0
  0
ARC
  5
191
330
12A
100
AcDbEntity
  8
$DDT_AUDIT_GENERATED_(BE)
  6
Continuous
 62
     7
100
AcDbCircle
 10
365.9148428588
 20
534.3151585858
 30
0.0
 40
20.66254208932154
100
AcDbArc
 50
348.1554158385
 51
348.5273574347
  0
LINE
  5
193
330
12A
100
AcDbEntity
  8
$DDT_AUDIT_GENERATED_(192)
  6
Continuous
 62
     7
100
AcDbLine
 10
386.3300234321
 20
531.0480736072
 30
0.0
 11
386.3300234321
 21
537.5481599102
 31
0.0
  0
LINE
  5
194
330
12A
100
AcDbEntity
  8
09719038_ROSETTE
  6
Continuous
 62
     7
100
AcDbLine
 10
359.8786979087
 20
537.5080291076
 30
0.0
 11
359.8786979087
 21
582.3266525244
 31
0.0
  0
LINE
  5
195
330
12A
100
AcDbEntity
  8
09719038_ROSETTE
  6
Continuous
 62
     7
100
AcDbLine
 10
309.8786979087
 20
594.4000587134
 30
0.0
 11
309.8786979087
 21
525.4346229186
 31
0.0
  0
ARC
  5
196
330
12A
100
AcDbEntity
  8
09719038_ROSETTE
  6
Continuous
 62
     7
100
AcDbCircle
 10
303.3439156089
 20
395.0241277739
 30
0.0
 40
200.0
100
AcDbArc
 50
74.9009459592
 51
87.9792134767
  0
ARC
  5
197
330
12A
100
AcDbEntity
  8
09719038_ROSETTE
  6
Continuous
 62
     7
100
AcDbCircle
 10
303.3439156089
 20
724.8105538581
 30
0.0
 40
200.0
100
AcDbArc
 50
272.0207865233
 51
285.0990540408
  0
ARC
  5
198
330
12A
100
AcDbEntity
  8
09719038_ROSETTE
  6
Continuous
 62
     7
100
AcDbCircle
 10
353.8786979087
 20
582.3266525244
 30
0.0
 40
5.999999999999998
100
AcDbArc
 50
0.0
 51
74.9009459592
  0
ARC
  5
199
330
12A
100
AcDbEntity
  8
09719038_ROSETTE
  6
Continuous
 62
     7
100
AcDbCircle
 10
353.8786979087
 20
537.5080291076
 30
0.0
 40
6.000000000000006
100
AcDbArc
 50
285.0990540408
 51
0.0
  0
ARC
  5
19A
330
12A
100
AcDbEntity
  8
09719038_ROSETTE
  6
Continuous
 62
     7
100
AcDbCircle
 10
310.3786979087
 20
525.4346229186
 30
0.0
 40
0.5000000000000004
100
AcDbArc
 50
180.0
 51
272.0207865233
  0
ARC
  5
19B
330
12A
100
AcDbEntity
  8
09719038_ROSETTE
  6
Continuous
 62
     7
100
AcDbCircle
 10
310.3786979087
 20
594.4000587134
 30
0.0
 40
0.5000000000000104
100
AcDbArc
 50
87.9792134767
 51
180.0
  0
LINE
  5
19D
330
12A
100
AcDbEntity
  8
04165000_H_LSE_0
  6
Continuous
 62
     7
100
AcDbLine
 10
378.8786979087
 20
540.867340816
 30
0.0
 11
378.8786979087
 21
578.967340816
 31
0.0
  0
LINE
  5
19E
330
12A
100
AcDbEntity
  8
04165000_H_LSE_0
  6
Continuous
 62
     7
100
AcDbLine
 10
378.6786979087
 20
579.167340816
 30
0.0
 11
359.8786979087
 21
579.167340816
 31
0.0
  0
LINE
  5
19F
330
12A
100
AcDbEntity
  8
04165000_H_LSE_0
  6
Continuous
 62
     7
100
AcDbLine
 10
359.8786979087
 20
540.667340816
 30
0.0
 11
378.6786979087
 21
540.667340816
 31
0.0
  0
ARC
  5
1A0
330
12A
100
AcDbEntity
  8
04165000_H_LSE_0
  6
Continuous
 62
     7
100
AcDbCircle
 10
378.6786979087
 20
540.867340816
 30
0.0
 40
0.1999999999999988
100
AcDbArc
 50
270.0
 51
0.0
  0
ARC
  5
1A1
330
12A
100
AcDbEntity
  8
04165000_H_LSE_0
  6
Continuous
 62
     7
100
AcDbCircle
 10
378.6786979087
 20
578.967340816
 30
0.0
 40
0.1999999999999988
100
AcDbArc
 50
0.0
 51
90.0
  0
LINE
  5
1A2
330
12A
100
AcDbEntity
  8
02636038_GEHÄUSE
  6
Continuous
 62
     7
100
AcDbLine
 10
573.2133094467
 20
478.5826266866
 30
0.0
 11
594.5530517069
 21
481.2028175698
 31
0.0
  0
SPLINE
  5
1A3
330
12A
100
AcDbEntity
  8
02636038_GEHÄUSE
  6
Continuous
 62
     7
100
AcDbSpline
210
0.0
220
0.0
230
1.0
 70
     8
 71
     3
 72
    10
 73
     6
 74
     0
 42
0.0000000019260148
 43
0.0000000001
 40
0.0
 40
0.0
 40
0.0
 40
0.0
 40
0.5
 40
0.5
 40
1.0
 40
1.0
 40
1.0
 40
1.0
 10
586.4117058896974
 20
480.5231133363637
 30
0.0
 10
585.5699935327906
 20
480.3049907104484
 30
0.0
 10
584.7215521702209
 20
480.1410929239023
 30
0.0
 10
583.0100719765032
 20
479.9309292014141
 30
0.0
 10
582.1470329487213
 20
479.8846648500223
 30
0.0
 10
581.277257835858
 20
479.8926823865943
 30
0.0
  0
LINE
  5
1A4
330
12A
100
AcDbEntity
  8
02636038_GEHÄUSE
  6
Continuous
 62
     7
100
AcDbLine
 10
587.7565697185
 20
483.3908439895
 30
0.0
 11
579.2785753747
 21
482.3498771767
 31
0.0
  0
LINE
  5
1A5
330
12A
100
AcDbEntity
  8
02636038_GEHÄUSE
  6
Continuous
 62
     7
100
AcDbLine
 10
587.7565697185
 20
483.3908439895
 30
0.0
 11
587.9779370874
 21
481.5879514497
 31
0.0
  0
SPLINE
  5
1A6
330
12A
100
AcDbEntity
  8
02636038_GEHÄUSE
  6
Continuous
 62
     7
100
AcDbSpline
210
0.0
220
0.0
230
1.0
 70
     8
 71
     3
 72
    14
 73
    10
 74
     0
 42
0.0000000049321089
 43
0.0000000001
 40
0.0
 40
0.0
 40
0.0
 40
0.0
 40
0.1250000000000004
 40
0.1250000000000004
 40
0.2500000000000009
 40
0.2500000000000009
 40
0.5000000000000008
 40
0.5000000000000008
 40
1.0
 40
1.0
 40
1.0
 40
1.0
 10
587.9779370873772
 20
481.5879514496531
 30
0.0
 10
587.9882035191648
 20
481.5043380725953
 30
0.0
 10
587.9665652830859
 20
481.416912120886
 30
0.0
 10
587.8884457014615
 20
481.2670769891637
 30
0.0
 10
587.8329815436498
 20
481.2008082485826
 30
0.0
 10
587.6505965864883
 20
481.0261583913003
 30
0.0
 10
587.5044717455918
 20
480.9362755589588
 30
0.0
 10
587.0580996873751
 20
480.7088088714667
 30
0.0
 10
586.7356821250468
 20
480.6070690328777
 30
0.0
 10
586.4117058896974
 20
480.5231133363637
 30
0.0
  0
SPLINE
  5
1A7
330
12A
100
AcDbEntity
  8
02636038_GEHÄUSE
  6
Continuous
 62
     7
100
AcDbSpline
210
0.0
220
0.0
230
1.0
 70
     8
 71
     3
 72
    18
 73
    14
 74
     0
 42
0.0000000049401632
 43
0.0000000001
 40
0.0
 40
0.0
 40
0.0
 40
0.0
 40
0.2499999999999998
 40
0.2499999999999998
 40
0.4999999999999997
 40
0.4999999999999997
 40
0.6249999999999992
 40
0.6249999999999992
 40
0.7499999999999989
 40
0.7499999999999989
 40
0.8749999999999994
 40
0.8749999999999994
 40
1.0
 40
1.0
 40
1.0
 40
1.0
 10
581.277257835858
 20
479.8926823865943
 30
0.0
 10
581.109425518823
 20
479.8942294551637
 30
0.0
 10
580.9418074442583
 20
479.9009261240303
 30
0.0
 10
580.6072692757491
 20
479.9310963463665
 30
0.0
 10
580.440416973641
 20
479.9543886084906
 30
0.0
 10
580.1962279976144
 20
480.0109809430903
 30
0.0
 10
580.1157138896169
 20
480.0335052795881
 30
0.0
 10
579.9573636055322
 20
480.0896644043207
 30
0.0
 10
579.8790844432843
 20
480.1235128536422
 30
0.0
 10
579.7338418567425
 20
480.2067313829377
 30
0.0
 10
579.6648467059172
 20
480.2568053998186
 30
0.0
 10
579.5520011772228
 20
480.384160826738
 30
0.0
 10
579.5103931595376
 20
480.4618728284053
 30
0.0
 10
579.4999427435155
 20
480.5469846368047
 30
0.0
  0
LINE
  5
1A8
330
12A
100
AcDbEntity
  8
02636038_GEHÄUSE
  6
Continuous
 62
     7
100
AcDbLine
 10
579.4999427435
 20
480.5469846368
 30
0.0
 11
579.2785753747
 21
482.3498771767
 31
0.0
  0
LINE
  5
1A9
330
12A
100
AcDbEntity
  8
02636038_GEHÄUSE
  6
Continuous
 62
     7
100
AcDbLine
 10
572.6287103492
 20
478.830774281
 30
0.0
 11
573.2133094467
 21
478.5826266866
 31
0.0
  0
LINE
  5
1AA
330
12A
100
AcDbEntity
  8
02636038_GEHÄUSE
  6
Continuous
 62
     7
100
AcDbLine
 10
594.5530517069
 20
481.2028175698
 30
0.0
 11
595.0602533763
 21
481.585021442
 31
0.0
  0
ARC
  5
1AB
330
12A
100
AcDbEntity
  8
02636038_GEHÄUSE
  6
Continuous
 62
     7
100
AcDbCircle
 10
573.0194414777
 20
479.7512791345
 30
0.0
 40
0.9999999999999996
100
AcDbArc
 50
187.0
 51
247.0
  0
ARC
  5
1AC
330
12A
100
AcDbEntity
  8
02636038_GEHÄUSE
  6
Continuous
 62
     7
100
AcDbCircle
 10
594.4584383532
 20
482.383656952
 30
0.0
 40
1.000000000000003
100
AcDbArc
 50
307.0
 51
7.0
  0
LINE
  5
1AD
330
12A
100
AcDbEntity
  8
02636038_GEHÄUSE
  6
Continuous
 62
     7
100
AcDbLine
 10
571.4285246567
 20
484.5027478151
 30
0.0
 11
572.0268953261
 21
479.629409791
 31
0.0
  0
LINE
  5
1AE
330
12A
100
AcDbEntity
  8
02636038_GEHÄUSE
  6
Continuous
 62
     7
100
AcDbLine
 10
595.4509845048
 20
482.5055262954
 30
0.0
 11
595.0634883053
 21
485.6614295835
 31
0.0
  0
LINE
  5
1AF
330
12A
100
AcDbEntity
  8
$DDT_AUDIT_GENERATED_(FB)
  6
Continuous
 62
     7
100
AcDbLine
 10
574.9990129494
 20
478.3988795769
 30
0.0
 11
592.8648436789
 21
480.5925277582
 31
0.0
  0
LINE
  5
1B0
330
12A
100
AcDbEntity
  8
$DDT_AUDIT_GENERATED_(FB)
  6
Continuous
 62
     7
100
AcDbLine
 10
574.950265212
 20
478.7958980375
 30
0.0
 11
574.9990129494
 21
478.3988795769
 31
0.0
  0
LINE
  5
1B1
330
12A
100
AcDbEntity
  8
$DDT_AUDIT_GENERATED_(FB)
  6
Continuous
 62
     7
100
AcDbLine
 10
592.8648436789
 20
480.5925277582
 30
0.0
 11
592.8160959416
 21
480.9895462188
 31
0.0
  0
ENDBLK
  5
1B3
330
12A
100
AcDbEntity
  8
0
100
AcDbBlockEnd
  0
BLOCK
  5
1FB
330
1B4
100
AcDbEntity
  8
0
100
AcDbBlockBegin
  2
SE2
 70
     0
 10
0.0
 20
0.0
 30
0.0
  3
SE2
  1

  0
LINE
  5
1B6
330
1B4
100
AcDbEntity
  8
$DDT_AUDIT_GENERATED_(70)
  6
Continuous
 62
     7
100
AcDbLine
 10
116.3336264287
 20
325.7429043954
 30
0.0
 11
191.5717598748
 21
325.7429043313
 31
0.0
  0
LINE
  5
1B7
330
1B4
100
AcDbEntity
  8
$DDT_AUDIT_GENERATED_(70)
  6
Continuous
 62
     7
100
AcDbLine
 10
191.5717598748
 20
325.7429043313
 30
0.0
 11
211.2420373852
 21
325.7429043152
 31
0.0
  0
ARC
  5
1B8
330
1B4
100
AcDbEntity
  8
$DDT_AUDIT_GENERATED_(70)
  6
Continuous
 62
     7
100
AcDbCircle
 10
116.3435674677
 20
483.1300431768
 30
0.0
 40
194.1359755717359
100
AcDbArc
 50
278.6099030106
 51
284.0980051499
  0
LINE
  5
1B9
330
1B4
100
AcDbEntity
  8
$DDT_AUDIT_GENERATED_(70)
  6
Continuous
 62
     7
100
AcDbLine
 10
207.2997127719
 20
306.4708750076
 30
0.0
 11
191.9064955044
 21
302.371425138
 31
0.0
  0
LINE
  5
1BA
330
1B4
100
AcDbEntity
  8
$DDT_AUDIT_GENERATED_(70)
  6
Continuous
 62
     7
100
AcDbLine
 10
191.9064955044
 20
302.371425138
 30
0.0
 11
163.6314498819
 21
294.8413467875
 31
0.0
  0
LINE
  5
1BB
330
1B4
100
AcDbEntity
  8
$DDT_AUDIT_GENERATED_(70)
  6
Continuous
 62
     7
100
AcDbLine
 10
41.0954929825
 20
325.7429043313
 30
0.0
 11
21.4251927978
 21
325.7429043152
 31
0.0
  0
LINE
  5
1BC
330
1B4
100
AcDbEntity
  8
$DDT_AUDIT_GENERATED_(70)
  6
Continuous
 62
     7
100
AcDbLine
 10
116.3336264287
 20
325.7429043954
 30
0.0
 11
41.0954929825
 21
325.7429043313
 31
0.0
  0
SPLINE
  5
1BD
330
1B4
100
AcDbEntity
  8
$DDT_AUDIT_GENERATED_(70)
  6
Continuous
 62
     7
100
AcDbSpline
210
0.0
220
0.0
230
1.0
 70
    12
 71
     3
 72
   106
 73
   102
 74
     0
 42
0.0000000003417569
 43
0.0000000001
 40
0.0
 40
0.0
 40
0.0
 40
0.0
 40
0.0041538354606901
 40
0.0074289510578389
 40
0.0107040666549552
 40
0.0172542978492558
 40
0.0238045290435175
 40
0.0369049914320509
 40
0.0500054538206164
 40
0.0565556850148813
 40
0.0631059162091462
 40
0.0696561474034116
 40
0.0729312630005634
 40
0.0762063785977122
 40
0.0827566097919771
 40
0.089306840986242
 40
0.1024073033747755
 40
0.1155077657633377
 40
0.1286082281518712
 40
0.1548091529289667
 40
0.1810100777060624
 40
0.207211002483158
 40
0.2334119272602569
 40
0.2858137768144482
 40
0.3382156263686429
 40
0.3906174759228017
 40
0.4430193254769932
 40
0.4954211750311842
 40
0.5478230245853789
 40
0.5740239493624749
 40
0.6002248741395377
 40
0.6264257989166337
 40
0.6395262613051994
 40
0.6526267236937292
 40
0.6559018392908815
 40
0.6591769548879945
 40
0.6608145126865864
 40
0.6624520704851464
 40
0.665727186082295
 40
0.6722774172765603
 40
0.6788276484708252
 40
0.7050285732479207
 40
0.7312294980250195
 40
0.7574304228021155
 40
0.7836313475792109
 40
0.7967318099677444
 40
0.8098322723563065
 40
0.8163825035505746
 40
0.8229327347448395
 40
0.8294829659391053
 40
0.8360331971334056
 40
0.8491336595219354
 40
0.8622341219104657
 40
0.875334584299031
 40
0.8884350466875612
 40
0.8949852778818621
 40
0.901535509076127
 40
0.9048106246732432
 40
0.9080857402703951
 40
0.9146359714646599
 40
0.9277364338532257
 40
0.934286665047491
 40
0.9408368962417559
 40
0.9441120118389045
 40
0.9473871274360208
 40
0.9506622430331694
 40
0.9539373586303217
 40
0.9572124742274375
 40
0.9604875898245862
 40
0.9621251476231434
 40
0.9637627054217028
 40
0.9654002632202952
 40
0.9662190421195571
 40
0.9670378210188515
 40
0.9678565999181494
 40
0.9686753788174115
 40
0.9694941577167058
 40
0.9703129366160037
 40
0.97195049441456
 40
0.9735880522131201
 40
0.9768631678102686
 40
0.980138283407385
 40
0.9834133990045335
 40
0.9850509568030898
 40
0.986688514601682
 40
0.9875072935009446
 40
0.9883260724002421
 40
0.9891448512995363
 40
0.9899636301987984
 40
0.9916011879973906
 40
0.9924199668966527
 40
0.993238745795947
 40
0.994057524695245
 40
0.994876303594507
 40
0.9956950824938012
 40
0.9965138613930993
 40
0.9973326402923612
 40
0.9981514191916561
 40
0.9989701980909176
 40
0.9997889769902155
 40
1.0
 40
1.0
 40
1.0
 40
1.0
 10
40.76075735287908
 20
302.3714251380287
 30
0.0
 41
1.0
 10
40.79989772870143
 20
302.3610014555863
 30
0.0
 41
1.0
 10
40.86989863983338
 20
302.3423591392319
 30
0.0
 41
1.0
 10
40.97076022071308
 20
302.3154981531624
 30
0.0
 41
1.0
 10
41.09420257063108
 20
302.2826235619393
 30
0.0
 41
1.0
 10
41.24850579626307
 20
302.2415302461493
 30
0.0
 41
1.0
 10
41.49539147862217
 20
302.1757808020422
 30
0.0
 41
1.0
 10
41.80399939912709
 20
302.0935937791807
 30
0.0
 41
1.0
 10
42.11260804574009
 20
302.0114065629453
 30
0.0
 41
1.0
 10
42.35949521222408
 20
301.945656723593
 30
0.0
 41
1.0
 10
42.54466066850908
 20
301.8963443223949
 30
0.0
 41
1.0
 10
42.69896524843808
 20
301.8552506459347
 30
0.0
 41
1.0
 10
42.82240891088618
 20
301.8223757051647
 30
0.0
 41
1.0
 10
42.94585256940918
 20
301.7895007654402
 30
0.0
 41
1.0
 10
43.10015713638008
 20
301.7484070924307
 30
0.0
 41
1.0
 10
43.34704443006007
 20
301.6826572192044
 30
0.0
 41
1.0
 10
43.65565352246108
 20
301.6004698842489
 30
0.0
 41
1.0
 10
44.02598439488019
 20
301.5018450925455
 30
0.0
 41
1.0
 10
44.51975884169708
 20
301.3703453835208
 30
0.0
 41
1.0
 10
45.13697680980608
 20
301.2059707713185
 30
0.0
 41
1.0
 10
45.87763823618107
 20
301.0087212727233
 30
0.0
 41
1.0
 10
46.61829953665607
 20
300.8114718076569
 30
0.0
 41
1.0
 10
47.60584778223617
 20
300.548472562195
 30
0.0
 41
1.0
 10
48.84028282276008
 20
300.2197235763273
 30
0.0
 41
1.0
 10
50.32160452428308
 20
299.825224885726
 30
0.0
 41
1.0
 10
51.80292595944208
 20
299.4307262660613
 30
0.0
 41
1.0
 10
53.28424720997209
 20
299.0362276955661
 30
0.0
 41
1.0
 10
54.76556835813308
 20
298.6417291523337
 30
0.0
 41
1.0
 10
56.00000263155208
 20
298.3129803707579
 30
0.0
 41
1.0
 10
56.98755008116807
 20
298.0499813372733
 30
0.0
 41
1.0
 10
57.72821069395908
 20
297.8527320553477
 30
0.0
 41
1.0
 10
58.34542790099418
 20
297.6883576458313
 30
0.0
 41
1.0
 10
58.83920168945308
 20
297.5568581121376
 30
0.0
 41
1.0
 10
59.11694945492208
 20
297.4828896219154
 30
0.0
 41
1.0
 10
59.30211463627907
 20
297.4335772939348
 30
0.0
 41
1.0
 10
59.37926679585508
 20
297.413030490429
 30
0.0
 41
1.0
 10
59.44098852411408
 20
297.3965930474655
 30
0.0
 41
1.0
 10
59.50271025197208
 20
297.3801556046081
 30
0.0
 41
1.0
 10
59.61072327441508
 20
297.3513900799572
 30
0.0
 41
1.0
 10
59.76502758843008
 20
297.3102964743138
 30
0.0
 41
1.0
 10
60.13535793314708
 20
297.2116718231455
 30
0.0
 41
1.0
 10
60.69085338669808
 20
297.0637348633106
 30
0.0
 41
1.0
 10
61.43151414852108
 20
296.8664855416954
 30
0.0
 41
1.0
 10
62.17217500412008
 20
296.6692361951065
 30
0.0
 41
1.0
 10
62.78939241493408
 20
296.5048617313204
 30
0.0
 41
1.0
 10
63.28316633307507
 20
296.3733621630905
 30
0.0
 41
1.0
 10
63.59177502116009
 20
296.2911749358105
 30
0.0
 41
1.0
 10
63.83866196234209
 20
296.2254251564597
 30
0.0
 41
1.0
 10
64.02382716059307
 20
296.1761128239799
 30
0.0
 41
1.0
 10
64.20899235878518
 20
296.1268004915158
 30
0.0
 41
1.0
 10
64.45587931203308
 20
296.0610507089516
 30
0.0
 41
1.0
 10
64.76448803123807
 20
295.9788634733838
 30
0.0
 41
1.0
 10
65.13481853113808
 20
295.8802387808879
 30
0.0
 41
1.0
 10
65.50514905680608
 20
295.7816140815296
 30
0.0
 41
1.0
 10
65.81375784158318
 20
295.699426828499
 30
0.0
 41
1.0
 10
66.06064487260507
 20
295.6336770252224
 30
0.0
 41
1.0
 10
66.21494926711307
 20
295.5925833981426
 30
0.0
 41
1.0
 10
66.33839278265307
 20
295.5597084964967
 30
0.0
 41
1.0
 10
66.46183629630008
 20
295.5268335953546
 30
0.0
 41
1.0
 10
66.67786241980508
 20
295.4693025251145
 30
0.0
 41
1.0
 10
66.92474938925808
 20
295.4035527382346
 30
0.0
 41
1.0
 10
67.17163637013708
 20
295.3378029483119
 30
0.0
 41
1.0
 10
67.32594074660908
 20
295.2967093260353
 30
0.0
 41
1.0
 10
67.44938425966606
 20
295.2638344250504
 30
0.0
 41
1.0
 10
67.54196690300208
 20
295.2391782470367
 30
0.0
 41
1.0
 10
67.63454954853118
 20
295.2145220684389
 30
0.0
 41
1.0
 10
67.72713219074109
 20
295.1898658907247
 30
0.0
 41
1.0
 10
67.81971482621908
 20
295.165209714804
 30
0.0
 41
1.0
 10
67.89686701340608
 20
295.144662903945
 30
0.0
 41
1.0
 10
67.95858875603017
 20
295.1282254571554
 30
0.0
 41
1.0
 10
68.00488005915908
 20
295.1158973730859
 30
0.0
 41
1.0
 10
68.04345614149909
 20
295.1056239706534
 30
0.0
 41
1.0
 10
68.07431700552009
 20
295.0974052492004
 30
0.0
 41
1.0
 10
68.09746265155708
 20
295.0912412086374
 30
0.0
 41
1.0
 10
68.12060830373609
 20
295.0850771664391
 30
0.0
 41
1.0
 10
68.14375396087907
 20
295.0789131229185
 30
0.0
 41
1.0
 10
68.16689962238708
 20
295.0727490782358
 30
0.0
 41
1.0
 10
68.19776050925118
 20
295.0645303506992
 30
0.0
 41
1.0
 10
68.23633662525607
 20
295.0542569393014
 30
0.0
 41
1.0
 10
68.29805841964408
 20
295.0378194787264
 30
0.0
 41
1.0
 10
68.37521066620508
 20
295.0172726520552
 30
0.0
 41
1.0
 10
68.46779332517907
 20
294.9926164698767
 30
0.0
 41
1.0
 10
68.54494547063409
 20
294.972069670132
 30
0.0
 41
1.0
 10
68.60666711395818
 20
294.9556322497872
 30
0.0
 41
1.0
 10
68.64524310304009
 20
294.9453588721918
 30
0.0
 41
1.0
 10
68.67610386391507
 20
294.9371401782057
 30
0.0
 41
1.0
 10
68.69924941836109
 20
294.9309761620432
 30
0.0
 41
1.0
 10
68.72239495750208
 20
294.924812149917
 30
0.0
 41
1.0
 10
68.75325567196508
 20
294.9165934684532
 30
0.0
 41
1.0
 10
68.7841163091311
 20
294.908374806439
 30
0.0
 41
1.0
 10
68.81497710473108
 20
294.900156105488
 30
0.0
 41
1.0
 10
68.83812224790117
 20
294.8939921919229
 30
0.0
 41
1.0
 10
68.86126910158808
 20
294.8878278557294
 30
0.0
 41
1.0
 10
68.88440955084508
 20
294.881665102132
 30
0.0
 41
1.0
 10
68.90757389925008
 20
294.8754964429236
 30
0.0
 41
1.0
 10
68.93064905468707
 20
294.8693498237775
 30
0.0
 41
1.0
 10
68.95405708877318
 20
294.8631209484174
 30
0.0
 41
1.0
 10
68.97622281485907
 20
294.8571990542205
 30
0.0
 41
1.0
 10
69.00302492248709
 20
294.8501314840768
 30
0.0
 41
1.0
 10
69.0101735803621
 20
294.8480304007929
 30
0.0
 41
1.0
 10
69.0311813105578
 20
294.8426528694349
 30
0.0
 41
1.0
 10
69.03580297546009
 20
294.8413467875017
 30
0.0
 41
1.0
  0
LINE
  5
1BE
330
1B4
100
AcDbEntity
  8
$DDT_AUDIT_GENERATED_(70)
  6
Continuous
 62
     7
100
AcDbLine
 10
25.3675136628
 20
306.4708820444
 30
0.0
 11
40.7607573529
 21
302.371425138
 31
0.0
  0
ARC
  5
1BF
330
1B4
100
AcDbEntity
  8
$DDT_AUDIT_GENERATED_(70)
  6
Continuous
 62
     7
100
AcDbCircle
 10
116.3391115376
 20
483.2068669378
 30
0.0
 40
194.21424299575
100
AcDbArc
 50
255.9031015355
 51
261.388990304
  0
ARC
  5
1C0
330
1B4
100
AcDbEntity
  8
$DDT_AUDIT_GENERATED_(70)
  6
Continuous
 62
     7
100
AcDbCircle
 10
136.5576213176
 20
331.749607452
 30
0.0
 40
76.00596943526956
100
AcDbArc
 50
341.5352933865
 51
354.6395348189
  0
ARC
  5
1C1
330
1B4
100
AcDbEntity
  8
$DDT_AUDIT_GENERATED_(70)
  6
Continuous
 62
     7
100
AcDbCircle
 10
146.5213708049
 20
284.2280130528
 30
0.0
 40
7.073228751791993
100
AcDbArc
 50
98.3996297211
 51
124.1283824414
  0
ARC
  5
1C2
330
1B4
100
AcDbEntity
  8
$DDT_AUDIT_GENERATED_(70)
  6
Continuous
 62
     7
100
AcDbCircle
 10
211.2420938287
 20
324.7429033452
 30
0.0
 40
1.000000970304644
100
AcDbArc
 50
354.5775188397
 51
90.001308191
  0
ARC
  5
1C3
330
1B4
100
AcDbEntity
  8
$DDT_AUDIT_GENERATED_(70)
  6
Continuous
 62
     7
100
AcDbCircle
 10
206.7846274895
 20
308.4034234944
 30
0.0
 40
2.000014243731617
100
AcDbArc
 50
284.8897673807
 51
341.7316682952
  0
ARC
  5
1C4
330
1B4
100
AcDbEntity
  8
$DDT_AUDIT_GENERATED_(70)
  6
Continuous
 62
     7
100
AcDbCircle
 10
86.1458820525
 20
284.2280130528
 30
0.0
 40
7.073228751792056
100
AcDbArc
 50
56.0729253595
 51
81.6003702789
  0
ARC
  5
1C5
330
1B4
100
AcDbEntity
  8
$DDT_AUDIT_GENERATED_(70)
  6
Continuous
 62
     7
100
AcDbCircle
 10
21.4251580661
 20
324.7429042207
 30
0.0
 40
1.000000094767449
100
AcDbArc
 50
89.9986366579
 51
185.4225363135
  0
ARC
  5
1C6
330
1B4
100
AcDbEntity
  8
$DDT_AUDIT_GENERATED_(70)
  6
Continuous
 62
     7
100
AcDbCircle
 10
96.2744198448
 20
331.7939753173
 30
0.0
 40
76.1763271427757
100
AcDbArc
 50
185.3821504695
 51
198.4571040822
  0
ARC
  5
1C7
330
1B4
100
AcDbEntity
  8
$DDT_AUDIT_GENERATED_(70)
  6
Continuous
 62
     7
100
AcDbCircle
 10
25.8827838467
 20
308.4035278575
 30
0.0
 40
2.000197450223605
100
AcDbArc
 50
198.2697464518
 51
255.4574996935
  0
ARC
  5
1C8
330
1B4
100
AcDbEntity
  8
$DDT_AUDIT_GENERATED_(158)
  6
Continuous
 62
     7
100
AcDbCircle
 10
50.1827179955
 20
324.7442301002
 30
0.0
 40
1.000000000000001
100
AcDbArc
 50
90.0
 51
115.8419327632
  0
ARC
  5
1C9
330
1B4
100
AcDbEntity
  8
$DDT_AUDIT_GENERATED_(158)
  6
Continuous
 62
     7
100
AcDbCircle
 10
32.4827179955
 20
324.7442301002
 30
0.0
 40
1.0
100
AcDbArc
 50
64.1580672368
 51
90.0
  0
SPLINE
  5
1CA
330
1B4
100
AcDbEntity
  8
$DDT_AUDIT_GENERATED_(A2)
  6
Continuous
 62
     7
100
AcDbSpline
210
0.0
220
0.0
230
1.0
 70
     8
 71
     3
 72
     9
 73
     5
 74
     0
 42
0.0000000000884193
 43
0.0000000001
 40
0.8637431243641372
 40
0.8637431243641372
 40
0.8637431243641372
 40
0.8637431243641372
 40
0.8652022107849229
 40
0.8716387964382837
 40
0.8716387964382837
 40
0.8716387964382837
 40
0.8716387964382837
 10
140.3632202358797
 20
288.5144030992798
 30
0.0
 10
140.3810239296793
 20
288.5675909329332
 30
0.0
 10
140.4771652028222
 20
288.8543966192298
 30
0.0
 10
140.5722243600361
 20
289.1358387259249
 30
0.0
 10
140.6484833197407
 20
289.3605932410705
 30
0.0
  0
SPLINE
  5
1CB
330
1B4
100
AcDbEntity
  8
$DDT_AUDIT_GENERATED_(A2)
  6
Continuous
 62
     7
100
AcDbSpline
210
0.0
220
0.0
230
1.0
 70
     8
 71
     3
 72
     8
 73
     4
 74
     0
 42
0.0000000000760342
 43
0.0000000001
 40
0.8945201773370718
 40
0.8945201773370718
 40
0.8945201773370718
 40
0.8945201773370718
 40
0.8970348998392399
 40
0.8970348998392399
 40
0.8970348998392399
 40
0.8970348998392399
 10
92.12267645563016
 20
289.0483057344814
 30
0.0
 10
92.08715544725293
 20
289.1534717057084
 30
0.0
 10
92.05173796683404
 20
289.2580727464135
 30
0.0
 10
92.01661888110463
 20
289.3615754804405
 30
0.0
  0
SPLINE
  5
1CC
330
1B4
100
AcDbEntity
  8
$DDT_AUDIT_GENERATED_(A2)
  6
Continuous
 62
     7
100
AcDbSpline
210
0.0
220
0.0
230
1.0
 70
     8
 71
     3
 72
    34
 73
    30
 74
     0
 42
0.0000000001181347
 43
0.0000000001
 40
0.0
 40
0.0
 40
0.0
 40
0.0
 40
0.125
 40
0.125
 40
0.1875
 40
0.1875
 40
0.25
 40
0.25
 40
0.3125
 40
0.3125
 40
0.375
 40
0.375
 40
0.5000000000000001
 40
0.5000000000000001
 40
0.5625000000000001
 40
0.5625000000000001
 40
0.6250000000000001
 40
0.6250000000000001
 40
0.6875000000000001
 40
0.6875000000000001
 40
0.7500000000000001
 40
0.7500000000000001
 40
0.8125000000000001
 40
0.8125000000000001
 40
0.8750000000000001
 40
0.8750000000000001
 40
0.9375000000000001
 40
0.9375000000000001
 40
1.0
 40
1.0
 40
1.0
 40
1.0
 10
143.8863084955089
 20
298.5031988087308
 30
0.0
 10
143.4982761192292
 20
302.0241415205557
 30
0.0
 10
142.6238887010355
 20
305.4651230193757
 30
0.0
 10
140.47720717478
 20
310.284966026764
 30
0.0
 10
139.6107180129996
 20
311.8462105477543
 30
0.0
 10
137.6312737609009
 20
314.7369638992806
 30
0.0
 10
136.5163466153553
 20
316.0847451570101
 30
0.0
 10
134.0312698201693
 20
318.5813651190167
 30
0.0
 10
132.6630544203582
 20
319.7209270991189
 30
0.0
 10
129.7746388592228
 20
321.6901954722305
 30
0.0
 10
128.2407642122649
 20
322.5322176516189
 30
0.0
 10
123.3595176634087
 20
324.6135541771471
 30
0.0
 10
119.8818116187785
 20
325.3562754445848
 30
0.0
 10
114.5786451682066
 20
325.3583961142609
 30
0.0
 10
112.8374346729438
 20
325.1734300103143
 30
0.0
 10
109.4038455147475
 20
324.4615063493067
 30
0.0
 10
107.6969282420829
 20
323.9252293524017
 30
0.0
 10
104.4640982069627
 20
322.5510909369197
 30
0.0
 10
102.9254187538938
 20
321.7119930496754
 30
0.0
 10
100.0059260338334
 20
319.7250559160598
 30
0.0
 10
98.64212031406045
 20
318.5877816854384
 30
0.0
 10
96.16839521741927
 20
316.105923247094
 30
0.0
 10
95.0404826979504
 20
314.7467859991042
 30
0.0
 10
93.04136017259337
 20
311.8260361628169
 30
0.0
 10
92.19240297756735
 20
310.2922417673662
 30
0.0
 10
90.76543888056055
 20
307.0925654701102
 30
0.0
 10
90.18457566432889
 20
305.4157611948473
 30
0.0
 10
89.2892876081543
 20
301.9990411984406
 30
0.0
 10
88.97314770356071
 20
300.2636701313152
 30
0.0
 10
88.77912739833558
 20
298.5031988087307
 30
0.0
  0
ARC
  5
1CD
330
1B4
100
AcDbEntity
  8
$DDT_AUDIT_GENERATED_(A2)
  6
Continuous
 62
     7
100
AcDbCircle
 10
95.0137128098
 20
298.033565525
 30
0.0
 40
6.252248449529996
100
AcDbArc
 50
175.6922100968
 51
185.0703813332
  0
ARC
  5
1CE
330
1B4
100
AcDbEntity
  8
$DDT_AUDIT_GENERATED_(A2)
  6
Continuous
 62
     7
100
AcDbCircle
 10
137.6522340181
 20
298.0335620703
 30
0.0
 40
6.251739218447131
100
AcDbArc
 50
354.9292364905
 51
4.3081732047
  0
SPLINE
  5
1CF
330
1B4
100
AcDbEntity
  8
$DDT_AUDIT_GENERATED_(A2)
  6
Continuous
 62
     7
100
AcDbSpline
210
0.0
220
0.0
230
1.0
 70
     8
 71
     3
 72
    14
 73
    10
 74
     0
 42
0.0000000001162279
 43
0.0000000001
 40
0.0
 40
0.0
 40
0.0
 40
0.0
 40
0.0624999999999999
 40
0.0624999999999999
 40
0.1249999999999999
 40
0.1249999999999999
 40
0.1874999999999998
 40
0.1874999999999998
 40
0.2025186249936604
 40
0.2025186249936604
 40
0.2025186249936604
 40
0.2025186249936604
 10
88.78593012357203
 20
297.4809956315166
 30
0.0
 10
88.87730740358855
 20
295.6801457051305
 30
0.0
 10
89.12255281956259
 20
293.8834607344414
 30
0.0
 10
89.91379035604616
 20
290.3998804749592
 30
0.0
 10
90.45805892933465
 20
288.7051297263649
 30
0.0
 10
91.85583574153526
 20
285.4134849963331
 30
0.0
 10
92.7168912554601
 20
283.8144949189153
 30
0.0
 10
93.94123432023791
 20
281.9764147480357
 30
0.0
 10
94.18613770565527
 20
281.6260694292776
 30
0.0
 10
94.43882275467963
 20
281.2815561961905
 30
0.0
  0
SPLINE
  5
1D0
330
1B4
100
AcDbEntity
  8
$DDT_AUDIT_GENERATED_(A2)
  6
Continuous
 62
     7
100
AcDbSpline
210
0.0
220
0.0
230
1.0
 70
     8
 71
     3
 72
    14
 73
    10
 74
     0
 42
0.0000000001161602
 43
0.0000000001
 40
0.7974614540880008
 40
0.7974614540880008
 40
0.7974614540880008
 40
0.7974614540880008
 40
0.8125
 40
0.8125
 40
0.875
 40
0.875
 40
0.9374999999999999
 40
0.9374999999999999
 40
1.0
 40
1.0
 40
1.0
 40
1.0
 10
138.2192689078669
 20
281.2722237509181
 30
0.0
 10
138.4751539756643
 20
281.620453353233
 30
0.0
 10
138.7230334335711
 20
281.9745497637067
 30
0.0
 10
139.9571309388081
 20
283.8272147387376
 30
0.0
 10
140.8005487418928
 20
285.3970187471703
 30
0.0
 10
142.1995012400161
 20
288.6820871646333
 30
0.0
 10
142.7546367079493
 20
290.4110875594536
 30
0.0
 10
143.5463270225164
 20
293.9048181257688
 30
0.0
 10
143.788112713845
 20
295.6801466030776
 30
0.0
 10
143.8795057804003
 20
297.4809956450255
 30
0.0
  0
ARC
  5
1D1
330
1B4
100
AcDbEntity
  8
$DDT_AUDIT_GENERATED_(A2)
  6
Continuous
 62
     7
100
AcDbCircle
 10
-27.177985634
 20
156.126109494
 30
0.0
 40
159.3365059082678
100
AcDbArc
 50
356.5867930015
 51
357.5868871332
  0
ARC
  5
1D2
330
1B4
100
AcDbEntity
  8
$DDT_AUDIT_GENERATED_(A2)
  6
Continuous
 62
     7
100
AcDbCircle
 10
258.8868573943
 20
156.0606912991
 30
0.0
 40
158.3780194924085
100
AcDbArc
 50
182.4041137334
 51
183.41014119
  0
SPLINE
  5
1D3
330
1B4
100
AcDbEntity
  8
$DDT_AUDIT_GENERATED_(A2)
  6
Continuous
 62
     7
100
AcDbSpline
210
0.0
220
0.0
230
1.0
 70
     8
 71
     3
 72
    33
 73
    29
 74
     0
 42
0.0000000001746136
 43
0.0000000001
 40
0.0
 40
0.0
 40
0.0
 40
0.0
 40
0.0487845631139099
 40
0.1013915612627198
 40
0.1506885731064418
 40
0.196882728602466
 40
0.2399421302231734
 40
0.2799418156386181
 40
0.316927473832453
 40
0.3510409286536272
 40
0.3821764470658594
 40
0.4106590566438363
 40
0.4362628825873699
 40
0.459476622799516
 40
0.5038604221166854
 40
0.5462538458060155
 40
0.5866917285968369
 40
0.6255485833135247
 40
0.6640031689732186
 40
0.7021607798105762
 40
0.7226339661414616
 40
0.7479145741055923
 40
0.7781516470578415
 40
0.8134458926889253
 40
0.8539271294855478
 40
0.8995435186536409
 40
0.9506863157470212
 40
1.0
 40
1.0
 40
1.0
 40
1.0
 10
100.7895973551702
 20
146.636545737238
 30
0.0
 10
100.8590718960798
 20
145.647956334272
 30
0.0
 10
100.9849579130387
 20
143.9149949063511
 30
0.0
 10
101.1644907573533
 20
141.0853445840948
 30
0.0
 10
101.4211320082316
 20
138.3703358819928
 30
0.0
 10
102.2234645244403
 20
135.9056323383315
 30
0.0
 10
103.3532358890899
 20
133.7560922192548
 30
0.0
 10
104.7349831966588
 20
131.9388300794218
 30
0.0
 10
106.2686037644788
 20
130.4527672589418
 30
0.0
 10
107.8720957049426
 20
129.2813439589423
 30
0.0
 10
109.479328592129
 20
128.3925924760781
 30
0.0
 10
111.0337555144064
 20
127.7516817346657
 30
0.0
 10
112.5032196660123
 20
127.3158754881685
 30
0.0
 10
114.3210397527529
 20
126.9545545281428
 30
0.0
 10
116.5196466513789
 20
126.8025127336682
 30
0.0
 10
119.053381199133
 20
127.0405399317281
 30
0.0
 10
121.4002198150644
 20
127.639349536063
 30
0.0
 10
123.5408344160486
 20
128.5441244615625
 30
0.0
 10
125.4665026285734
 20
129.7193784662888
 30
0.0
 10
126.9059506693334
 20
130.9223316621611
 30
0.0
 10
128.0100908798367
 20
132.0836154158633
 30
0.0
 10
128.9067617735409
 20
133.214902697889
 30
0.0
 10
129.8177781628766
 20
134.6666217096009
 30
0.0
 10
130.64344157716
 20
136.4716602284086
 30
0.0
 10
131.2799473985929
 20
138.6481544958525
 30
0.0
 10
131.5048715859267
 20
141.1680981601723
 30
0.0
 10
131.679682798355
 20
143.9156828909891
 30
0.0
 10
131.8047560071049
 20
145.6349062707638
 30
0.0
 10
131.8755450449
 20
146.6361293303024
 30
0.0
  0
SPLINE
  5
1D4
330
1B4
100
AcDbEntity
  8
$DDT_AUDIT_GENERATED_(A2)
  6
Continuous
 62
     7
100
AcDbSpline
210
0.0
220
0.0
230
1.0
 70
     8
 71
     3
 72
    42
 73
    38
 74
     0
 42
0.0000000000711272
 43
0.0000000001
 40
0.0
 40
0.0
 40
0.0
 40
0.0
 40
0.0471348769440261
 40
0.0922750534691863
 40
0.1332367739254629
 40
0.1699631752132418
 40
0.2024315501992045
 40
0.2305993905587441
 40
0.2532251140440142
 40
0.2740542115349177
 40
0.2951673294058182
 40
0.3165905100535973
 40
0.338325981356958
 40
0.4048292695557885
 40
0.4732696132108579
 40
0.5431081791765415
 40
0.575970260540296
 40
0.6064324934160746
 40
0.6345296483983885
 40
0.662014713801204
 40
0.6908174866129656
 40
0.7214545475276063
 40
0.7549931189788242
 40
0.7802610522064392
 40
0.8059039809975
 40
0.8297593925327915
 40
0.851819825267148
 40
0.8724051744033928
 40
0.8898894670498466
 40
0.907813313892697
 40
0.9248872002528338
 40
0.9327293674131562
 40
0.9405584636436193
 40
0.9509489382464285
 40
0.9643419976275844
 40
0.9807117944249745
 40
1.0
 40
1.0
 40
1.0
 40
1.0
 10
132.0169229383782
 20
149.4150157662204
 30
0.0
 10
132.0999105850385
 20
151.9125203138894
 30
0.0
 10
132.2360433353726
 20
156.0292164189606
 30
0.0
 10
132.4401830061114
 20
162.5734751186754
 30
0.0
 10
132.6121883734928
 20
168.4626644286295
 30
0.0
 10
132.7560167182456
 20
173.7783633935518
 30
0.0
 10
132.8726374217807
 20
178.4701001594007
 30
0.0
 10
132.9639114260481
 20
182.4846324215438
 30
0.0
 10
133.0357510349233
 20
185.9381823712974
 30
0.0
 10
133.0951592334712
 20
189.0520351050158
 30
0.0
 10
133.1503284067267
 20
192.1081008726953
 30
0.0
 10
133.2048358268476
 20
195.2080252404712
 30
0.0
 10
133.2987021807802
 20
200.4972166566816
 30
0.0
 10
133.4426917503996
 20
208.0537634660274
 30
0.0
 10
133.7197643594464
 20
217.9253485709777
 30
0.0
 10
133.9973403427207
 20
226.173466780482
 30
0.0
 10
134.2133923781847
 20
232.5931692789783
 30
0.0
 10
134.3576193237124
 20
237.0016773031662
 30
0.0
 10
134.4908575841226
 20
241.1529652637142
 30
0.0
 10
134.6115071307074
 20
245.2237206635366
 30
0.0
 10
134.7928762619138
 20
249.4061311166796
 30
0.0
 10
134.9994303748838
 20
253.8694049731276
 30
0.0
 10
135.2108206337368
 20
258.1446990775926
 30
0.0
 10
135.4382282496416
 20
262.1553326309256
 30
0.0
 10
135.6779402276627
 20
265.6761807952001
 30
0.0
 10
135.9765757395304
 20
268.9982352968416
 30
0.0
 10
136.3625936170887
 20
272.0275887956093
 30
0.0
 10
136.7941101819016
 20
274.7093122469637
 30
0.0
 10
137.2521476496828
 20
277.1403622260414
 30
0.0
 10
137.7346408216509
 20
279.3546968788644
 30
0.0
 10
138.1682740606859
 20
281.1116716680634
 30
0.0
 10
138.5158093634195
 20
282.4201897417248
 30
0.0
 10
138.7982122044201
 20
283.4429539155935
 30
0.0
 10
139.140394908498
 20
284.6329959747233
 30
0.0
 10
139.5725261542943
 20
286.0677942509774
 30
0.0
 10
140.1031290791362
 20
287.7407678621763
 30
0.0
 10
140.4345912351448
 20
288.7274752268362
 30
0.0
 10
140.6470664536303
 20
289.3564172569117
 30
0.0
  0
SPLINE
  5
1D5
330
1B4
100
AcDbEntity
  8
$DDT_AUDIT_GENERATED_(A2)
  6
Continuous
 62
     7
100
AcDbSpline
210
0.0
220
0.0
230
1.0
 70
     8
 71
     3
 72
    55
 73
    51
 74
     0
 42
0.0000000000711272
 43
0.0000000001
 40
0.0
 40
0.0
 40
0.0
 40
0.0
 40
0.0131214147592163
 40
0.0271393936376473
 40
0.0420469296594849
 40
0.056702163168986
 40
0.0688041253724705
 40
0.0802906215637254
 40
0.0898350108909141
 40
0.0995635093853464
 40
0.1098977741908515
 40
0.1254325631577665
 40
0.1439476981194643
 40
0.1654680971334583
 40
0.1883815121922142
 40
0.2100630358009262
 40
0.2305715499434155
 40
0.253175925286639
 40
0.2742114321245952
 40
0.2961049094218676
 40
0.3198226348763094
 40
0.340136457843691
 40
0.3617020901518788
 40
0.384520067252126
 40
0.4062649620840703
 40
0.4248653034069277
 40
0.4401203488003178
 40
0.4523716908382829
 40
0.4628708379786753
 40
0.4744379036840111
 40
0.494664298065473
 40
0.5178685529671405
 40
0.5441559683425731
 40
0.573525362493272
 40
0.6057581980021632
 40
0.6362328522652441
 40
0.6638514877644777
 40
0.6886081351646264
 40
0.7108117325819285
 40
0.740086175039146
 40
0.7717675158791835
 40
0.8030674135689307
 40
0.8320599984284291
 40
0.845427496658381
 40
0.8623442982223307
 40
0.8829630104078625
 40
0.9072851149785051
 40
0.9352673752149603
 40
0.9669186169262833
 40
1.0
 40
1.0
 40
1.0
 40
1.0
 10
92.01836965341911
 20
289.3564166285059
 30
0.0
 10
92.15521952059392
 20
288.9536444576417
 30
0.0
 10
92.39528972710329
 20
288.2438169274336
 30
0.0
 10
92.84154196729733
 20
286.8745691931139
 30
0.0
 10
93.31367560873113
 20
285.3492480336301
 30
0.0
 10
93.77575368881021
 20
283.7726442399089
 30
0.0
 10
94.19010592915846
 20
282.2783505765586
 30
0.0
 10
94.53765616114734
 20
280.946760109123
 30
0.0
 10
94.84647680183063
 20
279.6831171693869
 30
0.0
 10
95.1303741782188
 20
278.4416139731453
 30
0.0
 10
95.45337388985156
 20
276.9213220616541
 30
0.0
 10
95.8218708111585
 20
274.9904088792812
 30
0.0
 10
96.23003820887365
 20
272.5197809302882
 30
0.0
 10
96.61636864739437
 20
269.6649681659052
 30
0.0
 10
96.91143473700376
 20
266.6116822125715
 30
0.0
 10
97.136025928902
 20
263.5625055953186
 30
0.0
 10
97.32306172503019
 20
260.5003497889028
 30
0.0
 10
97.48840877706604
 20
257.4489977221738
 30
0.0
 10
97.64391357530565
 20
254.3158988154844
 30
0.0
 10
97.79191646509116
 20
251.1197019616838
 30
0.0
 10
97.94034465601972
 20
247.9517740306247
 30
0.0
 10
98.06408268699128
 20
244.7935077368183
 30
0.0
 10
98.1593111503576
 20
241.6728704769498
 30
0.0
 10
98.26044143650272
 20
238.4816868906309
 30
0.0
 10
98.3587464837905
 20
235.4349817676125
 30
0.0
 10
98.44725652031013
 20
232.7534915721318
 30
0.0
 10
98.52158924448086
 20
230.5302386423153
 30
0.0
 10
98.58314205684859
 20
228.6978447966902
 30
0.0
 10
98.63875038337186
 20
227.0434731259797
 30
0.0
 10
98.7071304133627
 20
225.0048102254839
 30
0.0
 10
98.79520677916476
 20
222.3539329658135
 30
0.0
 10
98.90393052880522
 20
218.9936410116555
 30
0.0
 10
99.02064624822621
 20
215.1924856148761
 30
0.0
 10
99.13967499091841
 20
210.9555783303564
 30
0.0
 10
99.24568050416188
 20
206.5156753814985
 30
0.0
 10
99.33458530252447
 20
202.1593245659488
 30
0.0
 10
99.40840297836415
 20
198.1631668518142
 30
0.0
 10
99.47183091526647
 20
194.5658558212084
 30
0.0
 10
99.5367455779508
 20
190.8887711419596
 30
0.0
 10
99.61044641369702
 20
186.8779308447703
 30
0.0
 10
99.70206882050903
 20
182.429020628146
 30
0.0
 10
99.80422385588555
 20
177.9945200327391
 30
0.0
 10
99.89334771122793
 20
174.4435642434887
 30
0.0
 10
99.96887907806834
 20
171.5863790565423
 30
0.0
 10
100.0359771448155
 20
169.132869749375
 30
0.0
 10
100.1206437735112
 20
166.1527739048443
 30
0.0
 10
100.2247030070118
 20
162.6345588585149
 30
0.0
 10
100.3486571198049
 20
158.6094475581065
 30
0.0
 10
100.4942116486636
 20
154.0554610043403
 30
0.0
 10
100.5900887528949
 20
151.1676362200862
 30
0.0
 10
100.6484510635965
 20
149.4147623670568
 30
0.0
  0
ARC
  5
1D6
330
1B4
100
AcDbEntity
  8
$DDT_AUDIT_GENERATED_(158)
  6
Continuous
 62
     7
100
AcDbCircle
 10
200.1827178974
 20
324.7442301002
 30
0.0
 40
1.000000000000001
100
AcDbArc
 50
90.0
 51
115.8419327632
  0
ARC
  5
1D7
330
1B4
100
AcDbEntity
  8
$DDT_AUDIT_GENERATED_(158)
  6
Continuous
 62
     7
100
AcDbCircle
 10
182.4827178974
 20
324.7442301002
 30
0.0
 40
1.000000000000002
100
AcDbArc
 50
64.1580672368
 51
90.0
  0
LINE
  5
1D8
330
1B4
100
AcDbEntity
  8
$DDT_AUDIT_GENERATED_(BE)
  6
Continuous
 62
     7
100
AcDbLine
 10
100.0279620381
 20
126.509126495
 30
0.0
 11
100.024604794
 21
126.6355378116
 31
0.0
  0
LINE
  5
1D9
330
1B4
100
AcDbEntity
  8
$DDT_AUDIT_GENERATED_(BE)
  6
Continuous
 62
     7
100
AcDbLine
 10
100.0245980991
 20
126.635537628
 30
0.0
 11
96.1066200801
 21
273.1970992339
 31
0.0
  0
LINE
  5
1DA
330
1B4
100
AcDbEntity
  8
$DDT_AUDIT_GENERATED_(BE)
  6
Continuous
 62
     7
100
AcDbLine
 10
100.0280138949
 20
126.5091292032
 30
0.0
 11
100.0311239534
 21
126.3889810712
 31
0.0
  0
SPLINE
  5
1DB
330
1B4
100
AcDbEntity
  8
$DDT_AUDIT_GENERATED_(BE)
  6
Continuous
 62
     7
100
AcDbSpline
210
0.0
220
0.0
230
1.0
 70
     8
 71
     3
 72
    10
 73
     6
 74
     0
 42
0.0000000003412712
 43
0.0000000001
 40
0.0
 40
0.0
 40
0.0
 40
0.0
 40
0.0556345749664283
 40
0.0840752281872479
 40
0.0860916328657823
 40
0.0860916328657823
 40
0.0860916328657823
 40
0.0860916328657823
 10
100.0311068755072
 20
126.388980629149
 30
0.0
 10
100.042241444285
 20
125.8458403627974
 30
0.0
 10
100.059068056014
 20
125.0250442395649
 30
0.0
 10
100.0764857228794
 20
124.1840230373764
 30
0.0
 10
100.0842718753307
 20
123.8865733611762
 30
0.0
 10
100.0847947348632
 20
123.8668810676437
 30
0.0
  0
SPLINE
  5
1DC
330
1B4
100
AcDbEntity
  8
$DDT_AUDIT_GENERATED_(BE)
  6
Continuous
 62
     7
100
AcDbSpline
210
0.0
220
0.0
230
1.0
 70
     8
 71
     3
 72
    19
 73
    15
 74
     0
 42
0.000000000338414
 43
0.0000000001
 40
0.0
 40
0.0
 40
0.0
 40
0.0
 40
0.0350335462689629
 40
0.0631689198703596
 40
0.1267642914944495
 40
0.2543802501843555
 40
0.3787775799217236
 40
0.5101388103119909
 40
0.6378792755991298
 40
0.7036754613375049
 40
0.7672678698250891
 40
0.8871015573761547
 40
0.9443706511762118
 40
1.0
 40
1.0
 40
1.0
 40
1.0
 10
116.3324862163729
 20
106.350003861763
 30
0.0
 10
115.9885000403496
 20
106.3562200770641
 30
0.0
 10
115.3682592080372
 20
106.3674127691787
 30
0.0
 10
114.1282096826194
 20
106.480776890472
 30
0.0
 10
112.0020954794048
 20
106.8448269446544
 30
0.0
 10
109.056461686314
 20
107.8980948636763
 30
0.0
 10
105.8670147585163
 20
109.9492722932119
 30
0.0
 10
103.2364889578238
 20
112.685788774463
 30
0.0
 10
101.6159254853682
 20
115.4615160781948
 30
0.0
 10
100.7620484978191
 20
117.8377462144005
 30
0.0
 10
100.2706048115426
 20
120.2336669143726
 30
0.0
 10
100.1097120844293
 20
122.588988955973
 30
0.0
 10
100.0627226697891
 20
124.8619414198416
 30
0.0
 10
100.039456808315
 20
125.9654076213835
 30
0.0
 10
100.0279857304504
 20
126.509127124195
 30
0.0
  0
LINE
  5
1DD
330
1B4
100
AcDbEntity
  8
$DDT_AUDIT_GENERATED_(BE)
  6
Continuous
 62
     7
100
AcDbLine
 10
136.5569848374
 20
273.1459463089
 30
0.0
 11
132.640374271
 21
126.6355376154
 31
0.0
  0
LINE
  5
1DE
330
1B4
100
AcDbEntity
  8
$DDT_AUDIT_GENERATED_(BE)
  6
Continuous
 62
     7
100
AcDbLine
 10
132.6403742713
 20
126.6355376262
 30
0.0
 11
132.6369864106
 21
126.5091271332
 31
0.0
  0
SPLINE
  5
1DF
330
1B4
100
AcDbEntity
  8
$DDT_AUDIT_GENERATED_(BE)
  6
Continuous
 62
     7
100
AcDbSpline
210
0.0
220
0.0
230
1.0
 70
     8
 71
     3
 72
    22
 73
    18
 74
     0
 42
0.000000000340469
 43
0.0000000001
 40
0.0
 40
0.0
 40
0.0
 40
0.0
 40
0.0407062292657876
 40
0.0832178148391785
 40
0.1277643330489813
 40
0.1913246939501627
 40
0.2551842245149084
 40
0.3820547369791275
 40
0.4459611090131226
 40
0.5102391753542297
 40
0.574025273415331
 40
0.6376554395325265
 40
0.6748279912758347
 40
0.7031748616796647
 40
0.7667897224901417
 40
0.8870386420548612
 40
0.9145147835562406
 40
0.9145147835562406
 40
0.9145147835562406
 40
0.9145147835562406
 10
116.3324862759892
 20
106.3500175776659
 30
0.0
 10
116.7303619857603
 20
106.358422104538
 30
0.0
 10
117.5437595308937
 20
106.3756504175772
 30
0.0
 10
118.7857141392221
 20
106.5192944440416
 30
0.0
 10
120.2324195363032
 20
106.7940951412304
 30
0.0
 10
121.8476644932225
 20
107.2695435578624
 30
0.0
 10
124.1385399476503
 20
108.2373184656362
 30
0.0
 10
126.2507409925193
 20
109.5975536577647
 30
0.0
 10
128.0836337147862
 20
111.2892956363013
 30
0.0
 10
129.3066179102974
 20
112.7154022822234
 30
0.0
 10
130.3527552379369
 20
114.2720853726835
 30
0.0
 10
131.0882785713866
 20
115.704957990027
 30
0.0
 10
131.5598708975614
 20
116.8758945361543
 30
0.0
 10
131.9449232428915
 20
118.0776190842985
 30
0.0
 10
132.3805629433931
 20
120.1091508653256
 30
0.0
 10
132.5283387476727
 20
122.1746578140007
 30
0.0
 10
132.5735960754158
 20
123.6167889087485
 30
0.0
 10
132.5806584548985
 20
123.8850793625153
 30
0.0
  0
SPLINE
  5
1E0
330
1B4
100
AcDbEntity
  8
$DDT_AUDIT_GENERATED_(BE)
  6
Continuous
 62
     7
100
AcDbSpline
210
0.0
220
0.0
230
1.0
 70
     8
 71
     3
 72
    13
 73
     9
 74
     0
 42
0.0000000003402173
 43
0.0000000001
 40
0.0
 40
0.0
 40
0.0
 40
0.0
 40
0.0556149134213271
 40
0.112868557526713
 40
0.2326666145388272
 40
0.2962342493903803
 40
0.3620141574063379
 40
0.3964125244462614
 40
0.3964125244462614
 40
0.3964125244462614
 40
0.3964125244462614
 10
132.6369864105787
 20
126.509127133171
 30
0.0
 10
132.6255189222842
 20
125.9656527074482
 30
0.0
 10
132.6022609328397
 20
124.8626896254747
 30
0.0
 10
132.5553139965179
 20
122.590809740608
 30
0.0
 10
132.3946454560756
 20
120.2366899401094
 30
0.0
 10
131.9040001160376
 20
117.841865350772
 30
0.0
 10
131.3608807536087
 20
116.3287355268956
 30
0.0
 10
130.9421052417653
 20
115.4391675743646
 30
0.0
 10
130.788560610658
 20
115.1385606244953
 30
0.0
  0
LINE
  5
1E1
330
1B4
100
AcDbEntity
  8
09719038_ROSETTE
  6
Continuous
 62
     7
100
AcDbLine
 10
213.7420296058
 20
344.7442301002
 30
0.0
 11
168.923406189
 21
344.7442301002
 31
0.0
  0
LINE
  5
1E2
330
1B4
100
AcDbEntity
  8
09719038_ROSETTE
  6
Continuous
 62
     7
100
AcDbLine
 10
156.85
 20
394.7442301002
 30
0.0
 11
225.8154357948
 21
394.7442301002
 31
0.0
  0
ARC
  5
1E3
330
1B4
100
AcDbEntity
  8
09719038_ROSETTE
  6
Continuous
 62
     7
100
AcDbCircle
 10
26.4395048553
 20
401.2790124
 30
0.0
 40
200.0
100
AcDbArc
 50
344.9009459592
 51
357.9792134767
  0
ARC
  5
1E4
330
1B4
100
AcDbEntity
  8
09719038_ROSETTE
  6
Continuous
 62
     7
100
AcDbCircle
 10
356.2259309395
 20
401.2790124
 30
0.0
 40
200.0
100
AcDbArc
 50
182.0207865233
 51
195.0990540408
  0
ARC
  5
1E5
330
1B4
100
AcDbEntity
  8
09719038_ROSETTE
  6
Continuous
 62
     7
100
AcDbCircle
 10
213.7420296058
 20
350.7442301002
 30
0.0
 40
5.999999999999998
100
AcDbArc
 50
270.0
 51
344.9009459592
  0
ARC
  5
1E6
330
1B4
100
AcDbEntity
  8
09719038_ROSETTE
  6
Continuous
 62
     7
100
AcDbCircle
 10
168.923406189
 20
350.7442301002
 30
0.0
 40
6.000000000000006
100
AcDbArc
 50
195.0990540408
 51
270.0
  0
ARC
  5
1E7
330
1B4
100
AcDbEntity
  8
09719038_ROSETTE
  6
Continuous
 62
     7
100
AcDbCircle
 10
156.85
 20
394.2442301002
 30
0.0
 40
0.5000000000000004
100
AcDbArc
 50
90.0
 51
182.0207865233
  0
ARC
  5
1E8
330
1B4
100
AcDbEntity
  8
09719038_ROSETTE
  6
Continuous
 62
     7
100
AcDbCircle
 10
225.8154357948
 20
394.2442301002
 30
0.0
 40
0.5000000000000173
100
AcDbArc
 50
357.9792134767
 51
90.0
  0
LINE
  5
1E9
330
1B4
100
AcDbEntity
  8
04165000_H_LSE_0
  6
Continuous
 62
     7
100
AcDbLine
 10
210.3827178974
 20
325.7442301002
 30
0.0
 11
172.2827178974
 21
325.7442301002
 31
0.0
  0
LINE
  5
1EA
330
1B4
100
AcDbEntity
  8
04165000_H_LSE_0
  6
Continuous
 62
     7
100
AcDbLine
 10
210.5827178974
 20
325.9442301002
 30
0.0
 11
210.5827178974
 21
344.7442301002
 31
0.0
  0
LINE
  5
1EB
330
1B4
100
AcDbEntity
  8
04165000_H_LSE_0
  6
Continuous
 62
     7
100
AcDbLine
 10
172.0827178974
 20
344.7442301002
 30
0.0
 11
172.0827178974
 21
325.9442301002
 31
0.0
  0
ARC
  5
1EC
330
1B4
100
AcDbEntity
  8
04165000_H_LSE_0
  6
Continuous
 62
     7
100
AcDbCircle
 10
172.2827178974
 20
325.9442301002
 30
0.0
 40
0.1999999999999988
100
AcDbArc
 50
180.0
 51
270.0
  0
ARC
  5
1ED
330
1B4
100
AcDbEntity
  8
04165000_H_LSE_0
  6
Continuous
 62
     7
100
AcDbCircle
 10
210.3827178974
 20
325.9442301002
 30
0.0
 40
0.1999999999999988
100
AcDbArc
 50
270.0
 51
0.0
  0
LINE
  5
1EE
330
1B4
100
AcDbEntity
  8
09719038_ROSETTE
  6
Continuous
 62
     7
100
AcDbLine
 10
63.7420296058
 20
344.7442301002
 30
0.0
 11
18.923406189
 21
344.7442301002
 31
0.0
  0
LINE
  5
1EF
330
1B4
100
AcDbEntity
  8
09719038_ROSETTE
  6
Continuous
 62
     7
100
AcDbLine
 10
6.85
 20
394.7442301002
 30
0.0
 11
75.8154357948
 21
394.7442301002
 31
0.0
  0
ARC
  5
1F0
330
1B4
100
AcDbEntity
  8
09719038_ROSETTE
  6
Continuous
 62
     7
100
AcDbCircle
 10
-123.5604951447
 20
401.2790124
 30
0.0
 40
200.0
100
AcDbArc
 50
344.9009459592
 51
357.9792134767
  0
ARC
  5
1F1
330
1B4
100
AcDbEntity
  8
09719038_ROSETTE
  6
Continuous
 62
     7
100
AcDbCircle
 10
206.2259309395
 20
401.2790124
 30
0.0
 40
200.0
100
AcDbArc
 50
182.0207865233
 51
195.0990540408
  0
ARC
  5
1F2
330
1B4
100
AcDbEntity
  8
09719038_ROSETTE
  6
Continuous
 62
     7
100
AcDbCircle
 10
63.7420296058
 20
350.7442301002
 30
0.0
 40
5.999999999999998
100
AcDbArc
 50
270.0
 51
344.9009459592
  0
ARC
  5
1F3
330
1B4
100
AcDbEntity
  8
09719038_ROSETTE
  6
Continuous
 62
     7
100
AcDbCircle
 10
18.923406189
 20
350.7442301002
 30
0.0
 40
5.999999999999999
100
AcDbArc
 50
195.0990540408
 51
270.0
  0
ARC
  5
1F4
330
1B4
100
AcDbEntity
  8
09719038_ROSETTE
  6
Continuous
 62
     7
100
AcDbCircle
 10
6.85
 20
394.2442301002
 30
0.0
 40
0.5000000000000004
100
AcDbArc
 50
90.0
 51
182.0207865233
  0
ARC
  5
1F5
330
1B4
100
AcDbEntity
  8
09719038_ROSETTE
  6
Continuous
 62
     7
100
AcDbCircle
 10
75.8154357948
 20
394.2442301002
 30
0.0
 40
0.5000000000000104
100
AcDbArc
 50
357.9792134767
 51
90.0
  0
LINE
  5
1F6
330
1B4
100
AcDbEntity
  8
04165000_H_LSE_0
  6
Continuous
 62
     7
100
AcDbLine
 10
60.3827178974
 20
325.7442301002
 30
0.0
 11
22.2827178974
 21
325.7442301002
 31
0.0
  0
LINE
  5
1F7
330
1B4
100
AcDbEntity
  8
04165000_H_LSE_0
  6
Continuous
 62
     7
100
AcDbLine
 10
60.5827178974
 20
325.9442301002
 30
0.0
 11
60.5827178974
 21
344.7442301002
 31
0.0
  0
LINE
  5
1F8
330
1B4
100
AcDbEntity
  8
04165000_H_LSE_0
  6
Continuous
 62
     7
100
AcDbLine
 10
22.0827178974
 20
344.7442301002
 30
0.0
 11
22.0827178974
 21
325.9442301002
 31
0.0
  0
ARC
  5
1F9
330
1B4
100
AcDbEntity
  8
04165000_H_LSE_0
  6
Continuous
 62
     7
100
AcDbCircle
 10
22.2827178974
 20
325.9442301002
 30
0.0
 40
0.2000000000000057
100
AcDbArc
 50
180.0
 51
270.0
  0
ARC
  5
1FA
330
1B4
100
AcDbEntity
  8
04165000_H_LSE_0
  6
Continuous
 62
     7
100
AcDbCircle
 10
60.3827178974
 20
325.9442301002
 30
0.0
 40
0.1999999999999988
100
AcDbArc
 50
270.0
 51
0.0
  0
ENDBLK
  5
1FC
330
1B4
100
AcDbEntity
  8
0
100
AcDbBlockEnd
  0
ENDSEC
  0
SECTION
  2
ENTITIES
  0
INSERT
  5
5F
330
1F
100
AcDbEntity
  8
Default
100
AcDbBlockReference
  2
SEANNOT_GROUP
 10
0.0
 20
0.0
 30
0.0
  0
INSERT
  5
65
330
1F
100
AcDbEntity
  8
Default
100
AcDbBlockReference
  2
SEANNOT_GROUP1
 10
0.0
 20
0.0
 30
0.0
  0
INSERT
  5
6A
330
1F
100
AcDbEntity
  8
Default
100
AcDbBlockReference
  2
SEANNOT_GROUP2
 10
0.0
 20
0.0
 30
0.0
  0
INSERT
  5
6F
330
1F
100
AcDbEntity
  8
Default
100
AcDbBlockReference
  2
SE
 10
0.0
 20
0.0
 30
0.0
  0
INSERT
  5
12B
330
1F
100
AcDbEntity
  8
Default
100
AcDbBlockReference
  2
SE1
 10
0.0
 20
0.0
 30
0.0
  0
INSERT
  5
1B5
330
1F
100
AcDbEntity
  8
Default
100
AcDbBlockReference
  2
SE2
 10
0.0
 20
0.0
 30
0.0
  0
TEXT
  5
1FE
330
1F
100
AcDbEntity
  8
Default
  6
Continuous
 62
     7
100
AcDbText
 10
5.9362635081
 20
53.4225120485
 30
0.0
 40
10.0
  1
Grohe AG^J
  7
SEACAD_seiso_ttf
 11
5.9362635081
 21
63.4225120485
 31
0.0
100
AcDbText
 73
     3
  0
TEXT
  5
1FF
330
1F
100
AcDbEntity
  8
Default
  6
Continuous
 62
     7
100
AcDbText
 10
5.9362635081
 20
37.0588756849
 30
0.0
 40
10.0
  1
 
  7
SEACAD_seiso_ttf
 11
5.9362635081
 21
47.0588756849
 31
0.0
100
AcDbText
 73
     3
  0
TEXT
  5
200
330
1F
100
AcDbEntity
  8
Default
  6
Continuous
 62
     7
100
AcDbText
 10
5.9362635081
 20
20.6952393213
 30
0.0
 40
10.0
  1
ecn: 
  7
SEACAD_seiso_ttf
 11
5.9362635081
 21
30.6952393213
 31
0.0
100
AcDbText
 73
     3
  0
TEXT
  5
201
330
1F
100
AcDbEntity
  8
Default
  6
Continuous
 62
     7
100
AcDbText
 10
5.9362635081
 20
4.3316029576
 30
0.0
 40
10.0
  1
unit: mm
  7
SEACAD_seiso_ttf
 11
5.9362635081
 21
14.3316029576
 31
0.0
100
AcDbText
 73
     3
  0
LINE
  5
202
330
1F
100
AcDbEntity
  8
Default
  6
Continuous
 62
     7
100
AcDbLine
 10
0.0
 20
0.0
 30
0.0
 11
100.0
 21
0.0
 31
0.0
  0
LINE
  5
203
330
1F
100
AcDbEntity
  8
Default
  6
Continuous
 62
     7
100
AcDbLine
 10
0.0
 20
0.0
 30
0.0
 11
0.0
 21
100.0
 31
0.0
  0
TEXT
  5
204
330
1F
100
AcDbEntity
  8
Default
  6
Continuous
 62
     7
100
AcDbText
 10
24.3923665681
 20
-18.2375342018
 30
0.0
 40
10.0
  1
100 mm
  7
SEACAD_seiso_ttf
 11
24.3923665681
 21
-8.2375342018
 31
0.0
100
AcDbText
 73
     3
  0
TEXT
  5
205
330
1F
100
AcDbEntity
  8
Default
  6
Continuous
 62
     7
100
AcDbText
 10
-7.6150308803
 20
24.6231930421
 30
0.0
 40
10.0
  1
100 mm
 50
90.0
  7
SEACAD_seiso_ttf
 11
-17.6150308803
 21
24.6231930421
 31
0.0
100
AcDbText
 73
     3
  0
TEXT
  5
206
330
1F
100
AcDbEntity
  8
Default
  6
Continuous
 62
     7
100
AcDbText
 10
28.4878128572
 20
20.0907663715
 30
0.0
 40
10.0
  1
216930
  7
SEACAD_seiso_ttf
 11
28.4878128572
 21
30.0907663715
 31
0.0
100
AcDbText
 73
     3
  0
TEXT
  5
207
330
1F
100
AcDbEntity
  8
Default
  6
Continuous
 62
     7
100
AcDbText
 10
5.9012241913
 20
36.7242780188
 30
0.0
 40
10.0
  1
32774000
  7
SEACAD_seiso_ttf
 11
5.9012241913
 21
46.7242780188
 31
0.0
100
AcDbText
 73
     3
  0
ENDSEC
  0
SECTION
  2
OBJECTS
  0
DICTIONARY
  5
C
330
0
100
AcDbDictionary
281
     1
  3
ACAD_GROUP
350
D
  3
ACAD_LAYOUT
350
1A
  3
ACAD_MLEADERSTYLE
350
20B
  3
ACAD_MLINESTYLE
350
17
  3
ACAD_PLOTSETTINGS
350
19
  3
ACAD_PLOTSTYLENAME
350
E
  3
ACAD_SCALELIST
350
3B
  3
ACAD_TABLESTYLE
350
20A
  3
ACAD_VISUALSTYLE
350
2A
  3
AcDbVariableDictionary
350
208
  0
DICTIONARY
  5
D
102
{ACAD_REACTORS
330
C
102
}
330
C
100
AcDbDictionary
281
     1
  0
DICTIONARY
  5
1A
102
{ACAD_REACTORS
330
C
102
}
330
C
100
AcDbDictionary
281
     1
  3
Layout1
350
1E
  3
Model
350
22
  0
DICTIONARY
  5
20B
102
{ACAD_REACTORS
330
C
102
}
330
C
100
AcDbDictionary
281
     1
  0
DICTIONARY
  5
17
102
{ACAD_REACTORS
330
C
102
}
330
C
100
AcDbDictionary
281
     1
  3
Standard
350
18
  0
DICTIONARY
  5
19
102
{ACAD_REACTORS
330
C
102
}
330
C
100
AcDbDictionary
281
     1
  0
ACDBDICTIONARYWDFLT
  5
E
102
{ACAD_REACTORS
330
C
102
}
330
C
100
AcDbDictionary
281
     1
  3
Normal
350
F
100
AcDbDictionaryWithDefault
340
F
  0
DICTIONARY
  5
3B
102
{ACAD_REACTORS
330
C
102
}
330
C
100
AcDbDictionary
281
     1
  3
A0
350
3C
  3
A1
350
3D
  3
A2
350
3E
  3
A3
350
3F
  3
A4
350
40
  3
A5
350
41
  3
A6
350
42
  3
A7
350
43
  3
A8
350
44
  3
A9
350
45
  3
B0
350
46
  3
B1
350
47
  3
B2
350
48
  3
B3
350
49
  3
B4
350
4A
  3
B5
350
4B
  3
B6
350
4C
  3
B7
350
4D
  3
B8
350
4E
  3
B9
350
4F
  3
C0
350
50
  3
C1
350
51
  3
C2
350
52
  3
C3
350
53
  3
C4
350
54
  3
C5
350
55
  3
C6
350
56
  3
C7
350
57
  3
C8
350
58
  3
C9
350
59
  3
D0
350
5A
  3
D1
350
5B
  3
D2
350
5C
  0
DICTIONARY
  5
20A
102
{ACAD_REACTORS
330
C
102
}
330
C
100
AcDbDictionary
281
     1
  0
DICTIONARY
  5
2A
102
{ACAD_REACTORS
330
C
102
}
330
C
100
AcDbDictionary
281
     1
  3
2dWireframe
350
2F
  3
3D Hidden
350
31
  3
3dWireframe
350
30
  3
Basic
350
32
  3
Brighten
350
36
  3
ColorChange
350
3A
  3
Conceptual
350
34
  3
Dim
350
35
  3
Facepattern
350
39
  3
Flat
350
2B
  3
FlatWithEdges
350
2C
  3
Gouraud
350
2D
  3
GouraudWithEdges
350
2E
  3
Linepattern
350
38
  3
Realistic
350
33
  3
Thicken
350
37
  0
DICTIONARY
  5
208
102
{ACAD_REACTORS
330
C
102
}
330
C
100
AcDbDictionary
281
     1
  3
CANNOSCALE
350
209
  3
PSOLHEIGHT
350
20D
  3
PSOLWIDTH
350
20C
  0
LAYOUT
  5
1E
102
{ACAD_REACTORS
330
1A
102
}
330
1A
100
AcDbPlotSettings
  1

  2
none_device
  4

  6

 40
0.0
 41
0.0
 42
0.0
 43
0.0
 44
0.0
 45
0.0
 46
0.0
 47
0.0
 48
0.0
 49
0.0
140
0.0
141
0.0
142
1.0
143
1.0
 70
   688
 72
     0
 73
     0
 74
     5
  7

 75
    16
147
1.0
148
0.0
149
0.0
100
AcDbLayout
  1
Layout1
 70
     1
 71
     1
 10
0.0
 20
0.0
 11
1682.0
 21
2378.0
 12
0.0
 22
0.0
 32
0.0
 14
0.0
 24
0.0
 34
0.0
 15
1682.0
 25
2378.0
 35
0.0
146
0.0
 13
0.0
 23
0.0
 33
0.0
 16
1.0
 26
0.0
 36
0.0
 17
0.0
 27
1.0
 37
0.0
 76
     0
330
1B
  0
LAYOUT
  5
22
102
{ACAD_REACTORS
330
1A
102
}
330
1A
100
AcDbPlotSettings
  1

  2
none_device
  4

  6

 40
0.0
 41
0.0
 42
0.0
 43
0.0
 44
0.0
 45
0.0
 46
0.0
 47
0.0
 48
0.0
 49
0.0
140
0.0
141
0.0
142
1.0
143
1.0
 70
  1712
 72
     0
 73
     0
 74
     0
  7

 75
     0
147
1.0
148
0.0
149
0.0
100
AcDbLayout
  1
Model
 70
     1
 71
     0
 10
0.0
 20
0.0
 11
1682.0
 21
2378.0
 12
0.0
 22
0.0
 32
0.0
 14
0.0
 24
0.0
 34
0.0
 15
1682.0
 25
2378.0
 35
0.0
146
0.0
 13
0.0
 23
0.0
 33
0.0
 16
1.0
 26
0.0
 36
0.0
 17
0.0
 27
1.0
 37
0.0
 76
     0
330
1F
331
29
  0
MLINESTYLE
  5
18
102
{ACAD_REACTORS
330
17
102
}
330
17
100
AcDbMlineStyle
  2
Standard
 70
     0
  3

 62
   256
 51
90.0
 52
90.0
 71
     2
 49
0.5
 62
   256
  6
BYLAYER
 49
-0.5
 62
   256
  6
BYLAYER
  0
ACDBPLACEHOLDER
  5
F
102
{ACAD_REACTORS
330
E
102
}
330
E
  0
SCALE
  5
3C
102
{ACAD_REACTORS
330
3B
102
}
330
3B
100
AcDbScale
 70
     0
300
1:1
140
1.0
141
1.0
290
     1
  0
SCALE
  5
3D
102
{ACAD_REACTORS
330
3B
102
}
330
3B
100
AcDbScale
 70
     0
300
1:2
140
1.0
141
2.0
290
     0
  0
SCALE
  5
3E
102
{ACAD_REACTORS
330
3B
102
}
330
3B
100
AcDbScale
 70
     0
300
1:4
140
1.0
141
4.0
290
     0
  0
SCALE
  5
3F
102
{ACAD_REACTORS
330
3B
102
}
330
3B
100
AcDbScale
 70
     0
300
1:5
140
1.0
141
5.0
290
     0
  0
SCALE
  5
40
102
{ACAD_REACTORS
330
3B
102
}
330
3B
100
AcDbScale
 70
     0
300
1:8
140
1.0
141
8.0
290
     0
  0
SCALE
  5
41
102
{ACAD_REACTORS
330
3B
102
}
330
3B
100
AcDbScale
 70
     0
300
1:10
140
1.0
141
10.0
290
     0
  0
SCALE
  5
42
102
{ACAD_REACTORS
330
3B
102
}
330
3B
100
AcDbScale
 70
     0
300
1:16
140
1.0
141
16.0
290
     0
  0
SCALE
  5
43
102
{ACAD_REACTORS
330
3B
102
}
330
3B
100
AcDbScale
 70
     0
300
1:20
140
1.0
141
20.0
290
     0
  0
SCALE
  5
44
102
{ACAD_REACTORS
330
3B
102
}
330
3B
100
AcDbScale
 70
     0
300
1:30
140
1.0
141
30.0
290
     0
  0
SCALE
  5
45
102
{ACAD_REACTORS
330
3B
102
}
330
3B
100
AcDbScale
 70
     0
300
1:40
140
1.0
141
40.0
290
     0
  0
SCALE
  5
46
102
{ACAD_REACTORS
330
3B
102
}
330
3B
100
AcDbScale
 70
     0
300
1:50
140
1.0
141
50.0
290
     0
  0
SCALE
  5
47
102
{ACAD_REACTORS
330
3B
102
}
330
3B
100
AcDbScale
 70
     0
300
1:100
140
1.0
141
100.0
290
     0
  0
SCALE
  5
48
102
{ACAD_REACTORS
330
3B
102
}
330
3B
100
AcDbScale
 70
     0
300
2:1
140
2.0
141
1.0
290
     0
  0
SCALE
  5
49
102
{ACAD_REACTORS
330
3B
102
}
330
3B
100
AcDbScale
 70
     0
300
4:1
140
4.0
141
1.0
290
     0
  0
SCALE
  5
4A
102
{ACAD_REACTORS
330
3B
102
}
330
3B
100
AcDbScale
 70
     0
300
8:1
140
8.0
141
1.0
290
     0
  0
SCALE
  5
4B
102
{ACAD_REACTORS
330
3B
102
}
330
3B
100
AcDbScale
 70
     0
300
10:1
140
10.0
141
1.0
290
     0
  0
SCALE
  5
4C
102
{ACAD_REACTORS
330
3B
102
}
330
3B
100
AcDbScale
 70
     0
300
100:1
140
100.0
141
1.0
290
     0
  0
SCALE
  5
4D
102
{ACAD_REACTORS
330
3B
102
}
330
3B
100
AcDbScale
 70
     0
300
1/128" = 1'-0"
140
0.0078125
141
12.0
290
     0
  0
SCALE
  5
4E
102
{ACAD_REACTORS
330
3B
102
}
330
3B
100
AcDbScale
 70
     0
300
1/64" = 1'-0"
140
0.015625
141
12.0
290
     0
  0
SCALE
  5
4F
102
{ACAD_REACTORS
330
3B
102
}
330
3B
100
AcDbScale
 70
     0
300
1/32" = 1'-0"
140
0.03125
141
12.0
290
     0
  0
SCALE
  5
50
102
{ACAD_REACTORS
330
3B
102
}
330
3B
100
AcDbScale
 70
     0
300
1/16" = 1'-0"
140
0.0625
141
12.0
290
     0
  0
SCALE
  5
51
102
{ACAD_REACTORS
330
3B
102
}
330
3B
100
AcDbScale
 70
     0
300
3/32" = 1'-0"
140
0.09375
141
12.0
290
     0
  0
SCALE
  5
52
102
{ACAD_REACTORS
330
3B
102
}
330
3B
100
AcDbScale
 70
     0
300
1/8" = 1'-0"
140
0.125
141
12.0
290
     0
  0
SCALE
  5
53
102
{ACAD_REACTORS
330
3B
102
}
330
3B
100
AcDbScale
 70
     0
300
3/16" = 1'-0"
140
0.1875
141
12.0
290
     0
  0
SCALE
  5
54
102
{ACAD_REACTORS
330
3B
102
}
330
3B
100
AcDbScale
 70
     0
300
1/4" = 1'-0"
140
0.25
141
12.0
290
     0
  0
SCALE
  5
55
102
{ACAD_REACTORS
330
3B
102
}
330
3B
100
AcDbScale
 70
     0
300
3/8" = 1'-0"
140
0.375
141
12.0
290
     0
  0
SCALE
  5
56
102
{ACAD_REACTORS
330
3B
102
}
330
3B
100
AcDbScale
 70
     0
300
1/2" = 1'-0"
140
0.5
141
12.0
290
     0
  0
SCALE
  5
57
102
{ACAD_REACTORS
330
3B
102
}
330
3B
100
AcDbScale
 70
     0
300
3/4" = 1'-0"
140
0.75
141
12.0
290
     0
  0
SCALE
  5
58
102
{ACAD_REACTORS
330
3B
102
}
330
3B
100
AcDbScale
 70
     0
300
1" = 1'-0"
140
1.0
141
12.0
290
     0
  0
SCALE
  5
59
102
{ACAD_REACTORS
330
3B
102
}
330
3B
100
AcDbScale
 70
     0
300
1-1/2" = 1'-0"
140
1.5
141
12.0
290
     0
  0
SCALE
  5
5A
102
{ACAD_REACTORS
330
3B
102
}
330
3B
100
AcDbScale
 70
     0
300
3" = 1'-0"
140
3.0
141
12.0
290
     0
  0
SCALE
  5
5B
102
{ACAD_REACTORS
330
3B
102
}
330
3B
100
AcDbScale
 70
     0
300
6" = 1'-0"
140
6.0
141
12.0
290
     0
  0
SCALE
  5
5C
102
{ACAD_REACTORS
330
3B
102
}
330
3B
100
AcDbScale
 70
     0
300
1'-0" = 1'-0"
140
12.0
141
12.0
290
     0
  0
VISUALSTYLE
  5
2F
102
{ACAD_REACTORS
330
2A
102
}
330
2A
100
AcDbVisualStyle
  2
2dWireframe
 70
     4
 71
     0
 72
     2
 73
     0
 90
        0
 40
-0.6
 41
-30.0
 62
     5
 63
     7
 74
     1
 91
        4
 64
     7
 65
   257
 75
     1
175
     1
 42
1.0
 92
        0
 66
   257
 43
1.0
 76
     1
 77
     6
 78
     2
 67
     7
 79
     5
170
     0
171
     0
290
     0
174
     0
 93
        1
 44
0.0
173
     0
291
     0
 45
0.0
1001
ACAD
1000
AcDbSavedByObjectVersion
1070
     0
  0
VISUALSTYLE
  5
31
102
{ACAD_REACTORS
330
2A
102
}
330
2A
100
AcDbVisualStyle
  2
3D Hidden
 70
     6
 71
     1
 72
     2
 73
     2
 90
        0
 40
-0.6
 41
-30.0
 62
     5
 63
     7
 74
     2
 91
        2
 64
     7
 65
   257
 75
     2
175
     1
 42
40.0
 92
        0
 66
   257
 43
1.0
 76
     1
 77
     6
 78
     2
 67
     7
 79
     3
170
     0
171
     0
290
     0
174
     0
 93
        1
 44
0.0
173
     0
291
     0
 45
0.0
1001
ACAD
1000
AcDbSavedByObjectVersion
1070
     0
  0
VISUALSTYLE
  5
30
102
{ACAD_REACTORS
330
2A
102
}
330
2A
100
AcDbVisualStyle
  2
3dWireframe
 70
     5
 71
     0
 72
     2
 73
     0
 90
        0
 40
-0.6
 41
-30.0
 62
     5
 63
     7
 74
     1
 91
        4
 64
     7
 65
   257
 75
     1
175
     1
 42
1.0
 92
        0
 66
   257
 43
1.0
 76
     1
 77
     6
 78
     2
 67
     7
 79
     5
170
     0
171
     0
290
     0
174
     0
 93
        1
 44
0.0
173
     0
291
     0
 45
0.0
1001
ACAD
1000
AcDbSavedByObjectVersion
1070
     0
  0
VISUALSTYLE
  5
32
102
{ACAD_REACTORS
330
2A
102
}
330
2A
100
AcDbVisualStyle
  2
Basic
 70
     7
 71
     1
 72
     0
 73
     1
 90
        0
 40
-0.6
 41
-30.0
 62
     5
 63
     7
 74
     0
 91
        4
 64
     7
 65
   257
 75
     1
175
     1
 42
1.0
 92
        8
 66
     7
 43
1.0
 76
     1
 77
     6
 78
     2
 67
     7
 79
     5
170
     0
171
     0
290
     0
174
     0
 93
        1
 44
0.0
173
     0
291
     1
 45
0.0
1001
ACAD
1000
AcDbSavedByObjectVersion
1070
     0
  0
VISUALSTYLE
  5
36
102
{ACAD_REACTORS
330
2A
102
}
330
2A
100
AcDbVisualStyle
  2
Brighten
 70
    12
 71
     2
 72
     2
 73
     0
 90
        0
 40
-0.6
 41
-30.0
 62
     5
 63
     7
 74
     1
 91
        4
 64
     7
 65
   257
 75
     1
175
     1
 42
1.0
 92
        8
 66
     7
 43
1.0
 76
     1
 77
     6
 78
     2
 67
     7
 79
     5
170
     0
171
     0
290
     0
174
     0
 93
        1
 44
50.0
173
     0
291
     1
 45
0.0
1001
ACAD
1000
AcDbSavedByObjectVersion
1070
     0
  0
VISUALSTYLE
  5
3A
102
{ACAD_REACTORS
330
2A
102
}
330
2A
100
AcDbVisualStyle
  2
ColorChange
 70
    16
 71
     2
 72
     2
 73
     3
 90
        0
 40
-0.6
 41
-30.0
 62
     5
 63
     8
 74
     1
 91
        4
 64
     7
 65
   257
 75
     1
175
     1
 42
1.0
 92
        8
 66
     8
 43
1.0
 76
     1
 77
     6
 78
     2
 67
     7
 79
     5
170
     0
171
     0
290
     0
174
     0
 93
        1
 44
0.0
173
     0
291
     1
 45
0.0
1001
ACAD
1000
AcDbSavedByObjectVersion
1070
     0
  0
VISUALSTYLE
  5
34
102
{ACAD_REACTORS
330
2A
102
}
330
2A
100
AcDbVisualStyle
  2
Conceptual
 70
     9
 71
     3
 72
     2
 73
     0
 90
        0
 40
-0.6
 41
-30.0
 62
     5
 63
     7
 74
     2
 91
        2
 64
     7
 65
   257
 75
     1
175
     1
 42
40.0
 92
        8
 66
     7
 43
1.0
 76
     1
 77
     6
 78
     2
 67
     7
 79
     3
170
     0
171
     0
290
     0
174
     0
 93
        1
 44
0.0
173
     0
291
     0
 45
0.0
1001
ACAD
1000
AcDbSavedByObjectVersion
1070
     0
  0
VISUALSTYLE
  5
35
102
{ACAD_REACTORS
330
2A
102
}
330
2A
100
AcDbVisualStyle
  2
Dim
 70
    11
 71
     2
 72
     2
 73
     0
 90
        0
 40
-0.6
 41
-30.0
 62
     5
 63
     7
 74
     1
 91
        4
 64
     7
 65
   257
 75
     1
175
     1
 42
1.0
 92
        8
 66
     7
 43
1.0
 76
     1
 77
     6
 78
     2
 67
     7
 79
     5
170
     0
171
     0
290
     0
174
     0
 93
        1
 44
-50.0
173
     0
291
     1
 45
0.0
1001
ACAD
1000
AcDbSavedByObjectVersion
1070
     0
  0
VISUALSTYLE
  5
39
102
{ACAD_REACTORS
330
2A
102
}
330
2A
100
AcDbVisualStyle
  2
Facepattern
 70
    15
 71
     2
 72
     2
 73
     0
 90
        0
 40
-0.6
 41
-30.0
 62
     5
 63
     7
 74
     1
 91
        4
 64
     7
 65
   257
 75
     1
175
     1
 42
1.0
 92
        8
 66
     7
 43
1.0
 76
     1
 77
     6
 78
     2
 67
     7
 79
     5
170
     0
171
     0
290
     0
174
     0
 93
        1
 44
0.0
173
     0
291
     1
 45
0.0
1001
ACAD
1000
AcDbSavedByObjectVersion
1070
     0
  0
VISUALSTYLE
  5
2B
102
{ACAD_REACTORS
330
2A
102
}
330
2A
100
AcDbVisualStyle
  2
Flat
 70
     0
 71
     2
 72
     1
 73
     1
 90
        2
 40
-0.6
 41
30.0
 62
     5
 63
     7
 74
     0
 91
        4
 64
     7
 65
   257
 75
     1
175
     1
 42
1.0
 92
        8
 66
     7
 43
1.0
 76
     1
 77
     6
 78
     2
 67
     7
 79
     5
170
     0
171
     0
290
     0
174
     0
 93
       13
 44
0.0
173
     0
291
     1
 45
0.0
1001
ACAD
1000
AcDbSavedByObjectVersion
1070
     0
  0
VISUALSTYLE
  5
2C
102
{ACAD_REACTORS
330
2A
102
}
330
2A
100
AcDbVisualStyle
  2
FlatWithEdges
 70
     1
 71
     2
 72
     1
 73
     1
 90
        2
 40
-0.6
 41
30.0
 62
     5
 63
     7
 74
     1
 91
        4
 64
     7
 65
   257
 75
     1
175
     1
 42
1.0
 92
        0
 66
   257
 43
1.0
 76
     1
 77
     6
 78
     2
 67
     7
 79
     5
170
     0
171
     0
290
     0
174
     0
 93
       13
 44
0.0
173
     0
291
     1
 45
0.0
1001
ACAD
1000
AcDbSavedByObjectVersion
1070
     0
  0
VISUALSTYLE
  5
2D
102
{ACAD_REACTORS
330
2A
102
}
330
2A
100
AcDbVisualStyle
  2
Gouraud
 70
     2
 71
     2
 72
     2
 73
     1
 90
        2
 40
-0.6
 41
30.0
 62
     5
 63
     7
 74
     0
 91
        4
 64
     7
 65
   257
 75
     1
175
     1
 42
1.0
 92
        0
 66
     7
 43
1.0
 76
     1
 77
     6
 78
     2
 67
     7
 79
     5
170
     0
171
     0
290
     0
174
     0
 93
       13
 44
0.0
173
     0
291
     1
 45
0.0
1001
ACAD
1000
AcDbSavedByObjectVersion
1070
     0
  0
VISUALSTYLE
  5
2E
102
{ACAD_REACTORS
330
2A
102
}
330
2A
100
AcDbVisualStyle
  2
GouraudWithEdges
 70
     3
 71
     2
 72
     2
 73
     1
 90
        2
 40
-0.6
 41
30.0
 62
     5
 63
     7
 74
     1
 91
        4
 64
     7
 65
   257
 75
     1
175
     1
 42
1.0
 92
        0
 66
   257
 43
1.0
 76
     1
 77
     6
 78
     2
 67
     7
 79
     5
170
     0
171
     0
290
     0
174
     0
 93
       13
 44
0.0
173
     0
291
     1
 45
0.0
1001
ACAD
1000
AcDbSavedByObjectVersion
1070
     0
  0
VISUALSTYLE
  5
38
102
{ACAD_REACTORS
330
2A
102
}
330
2A
100
AcDbVisualStyle
  2
Linepattern
 70
    14
 71
     2
 72
     2
 73
     0
 90
        0
 40
-0.6
 41
-30.0
 62
     5
 63
     7
 74
     1
 91
        4
 64
     7
 65
   257
 75
     7
175
     7
 42
1.0
 92
        8
 66
     7
 43
1.0
 76
     1
 77
     6
 78
     2
 67
     7
 79
     5
170
     0
171
     0
290
     0
174
     0
 93
        1
 44
0.0
173
     0
291
     1
 45
0.0
1001
ACAD
1000
AcDbSavedByObjectVersion
1070
     0
  0
VISUALSTYLE
  5
33
102
{ACAD_REACTORS
330
2A
102
}
330
2A
100
AcDbVisualStyle
  2
Realistic
 70
     8
 71
     2
 72
     2
 73
     0
 90
        0
 40
-0.6
 41
-30.0
 62
     5
 63
     7
 74
     1
 91
        0
 64
     7
 65
   257
 75
     1
175
     1
 42
1.0
 92
        8
 66
     8
 43
1.0
 76
     1
 77
     6
 78
     2
 67
     7
 79
     5
170
     0
171
     0
290
     0
174
     0
 93
       13
 44
0.0
173
     0
291
     0
 45
0.0
1001
ACAD
1000
AcDbSavedByObjectVersion
1070
     0
  0
VISUALSTYLE
  5
37
102
{ACAD_REACTORS
330
2A
102
}
330
2A
100
AcDbVisualStyle
  2
Thicken
 70
    13
 71
     2
 72
     2
 73
     0
 90
        0
 40
-0.6
 41
-30.0
 62
     5
 63
     7
 74
     1
 91
        4
 64
     7
 65
   257
 75
     1
175
     1
 42
1.0
 92
       12
 66
     7
 43
1.0
 76
     1
 77
     6
 78
     2
 67
     7
 79
     5
170
     0
171
     0
290
     0
174
     0
 93
        1
 44
0.0
173
     0
291
     1
 45
0.0
1001
ACAD
1000
AcDbSavedByObjectVersion
1070
     0
  0
DICTIONARYVAR
  5
209
102
{ACAD_REACTORS
330
208
102
}
330
208
100
DictionaryVariables
280
     0
  1
1:1
  0
DICTIONARYVAR
  5
20D
102
{ACAD_REACTORS
330
208
102
}
330
208
100
DictionaryVariables
280
     0
  1
80.000000
  0
DICTIONARYVAR
  5
20C
102
{ACAD_REACTORS
330
208
102
}
330
208
100
DictionaryVariables
280
     0
  1
5.000000
  0
ENDSEC
  0
EOF
