  0
SECTION
  2
HEADER
  9
$ACADVER
  1
AC1015
  9
$ACADMAINTVER
 70
     6
  9
$DWGCODEPAGE
  3
ANSI_1252
  9
$INSBASE
 10
0.0
 20
0.0
 30
0.0
  9
$EXTMIN
 10
0.0
 20
0.0
 30
0.0
  9
$EXTMAX
 10
1682.0
 20
2378.0
 30
0.0
  9
$LIMMIN
 10
0.0
 20
0.0
  9
$LIMMAX
 10
1682.0
 20
2378.0
  9
$ORTHOMODE
 70
     0
  9
$REGENMODE
 70
     1
  9
$FILLMODE
 70
     1
  9
$QTEXTMODE
 70
     0
  9
$MIRRTEXT
 70
     1
  9
$LTSCALE
 40
1.0
  9
$ATTMODE
 70
     1
  9
$TEXTSIZE
 40
2.5
  9
$TRACEWID
 40
1.0
  9
$TEXTSTYLE
  7
Standard
  9
$CLAYER
  8
0
  9
$CELTYPE
  6
ByLayer
  9
$CECOLOR
 62
   256
  9
$CELTSCALE
 40
1.0
  9
$DISPSILH
 70
     0
  9
$DIMSCALE
 40
1.0
  9
$DIMASZ
 40
2.5
  9
$DIMEXO
 40
0.625
  9
$DIMDLI
 40
3.75
  9
$DIMRND
 40
0.0
  9
$DIMDLE
 40
0.0
  9
$DIMEXE
 40
1.25
  9
$DIMTP
 40
0.0
  9
$DIMTM
 40
0.0
  9
$DIMTXT
 40
2.5
  9
$DIMCEN
 40
2.5
  9
$DIMTSZ
 40
0.0
  9
$DIMTOL
 70
     0
  9
$DIMLIM
 70
     0
  9
$DIMTIH
 70
     0
  9
$DIMTOH
 70
     0
  9
$DIMSE1
 70
     0
  9
$DIMSE2
 70
     0
  9
$DIMTAD
 70
     1
  9
$DIMZIN
 70
     8
  9
$DIMBLK
  1

  9
$DIMASO
 70
     1
  9
$DIMSHO
 70
     1
  9
$DIMPOST
  1

  9
$DIMAPOST
  1

  9
$DIMALT
 70
     0
  9
$DIMALTD
 70
     3
  9
$DIMALTF
 40
0.0393700787
  9
$DIMLFAC
 40
1.0
  9
$DIMTOFL
 70
     1
  9
$DIMTVP
 40
0.0
  9
$DIMTIX
 70
     0
  9
$DIMSOXD
 70
     0
  9
$DIMSAH
 70
     0
  9
$DIMBLK1
  1

  9
$DIMBLK2
  1

  9
$DIMSTYLE
  2
ISO-25
  9
$DIMCLRD
 70
     0
  9
$DIMCLRE
 70
     0
  9
$DIMCLRT
 70
     0
  9
$DIMTFAC
 40
1.0
  9
$DIMGAP
 40
0.625
  9
$DIMJUST
 70
     0
  9
$DIMSD1
 70
     0
  9
$DIMSD2
 70
     0
  9
$DIMTOLJ
 70
     0
  9
$DIMTZIN
 70
     8
  9
$DIMALTZ
 70
     0
  9
$DIMALTTZ
 70
     0
  9
$DIMUPT
 70
     0
  9
$DIMDEC
 70
     2
  9
$DIMTDEC
 70
     2
  9
$DIMALTU
 70
     2
  9
$DIMALTTD
 70
     3
  9
$DIMTXSTY
  7
Standard
  9
$DIMAUNIT
 70
     0
  9
$DIMADEC
 70
     0
  9
$DIMALTRND
 40
0.0
  9
$DIMAZIN
 70
     0
  9
$DIMDSEP
 70
    44
  9
$DIMATFIT
 70
     3
  9
$DIMFRAC
 70
     0
  9
$DIMLDRBLK
  1

  9
$DIMLUNIT
 70
     2
  9
$DIMLWD
 70
    -2
  9
$DIMLWE
 70
    -2
  9
$DIMTMOVE
 70
     0
  9
$LUNITS
 70
     2
  9
$LUPREC
 70
     4
  9
$SKETCHINC
 40
1.0
  9
$FILLETRAD
 40
10.0
  9
$AUNITS
 70
     0
  9
$AUPREC
 70
     0
  9
$MENU
  1
.
  9
$ELEVATION
 40
0.0
  9
$PELEVATION
 40
0.0
  9
$THICKNESS
 40
0.0
  9
$LIMCHECK
 70
     0
  9
$CHAMFERA
 40
10.0
  9
$CHAMFERB
 40
10.0
  9
$CHAMFERC
 40
20.0
  9
$CHAMFERD
 40
0.0
  9
$SKPOLY
 70
     0
  9
$TDCREATE
 40
2455300.458955428
  9
$TDUCREATE
 40
2455300.375622095
  9
$TDUPDATE
 40
2455300.45895544
  9
$TDUUPDATE
 40
2455300.375622106
  9
$TDINDWG
 40
0.0000000116
  9
$TDUSRTIMER
 40
0.0000000116
  9
$USRTIMER
 70
     1
  9
$ANGBASE
 50
0.0
  9
$ANGDIR
 70
     0
  9
$PDMODE
 70
     0
  9
$PDSIZE
 40
0.0
  9
$PLINEWID
 40
0.0
  9
$SPLFRAME
 70
     0
  9
$SPLINETYPE
 70
     6
  9
$SPLINESEGS
 70
     8
  9
$HANDSEED
  5
1EE
  9
$SURFTAB1
 70
     6
  9
$SURFTAB2
 70
     6
  9
$SURFTYPE
 70
     6
  9
$SURFU
 70
     6
  9
$SURFV
 70
     6
  9
$UCSBASE
  2

  9
$UCSNAME
  2

  9
$UCSORG
 10
0.0
 20
0.0
 30
0.0
  9
$UCSXDIR
 10
1.0
 20
0.0
 30
0.0
  9
$UCSYDIR
 10
0.0
 20
1.0
 30
0.0
  9
$UCSORTHOREF
  2

  9
$UCSORTHOVIEW
 70
     0
  9
$UCSORGTOP
 10
0.0
 20
0.0
 30
0.0
  9
$UCSORGBOTTOM
 10
0.0
 20
0.0
 30
0.0
  9
$UCSORGLEFT
 10
0.0
 20
0.0
 30
0.0
  9
$UCSORGRIGHT
 10
0.0
 20
0.0
 30
0.0
  9
$UCSORGFRONT
 10
0.0
 20
0.0
 30
0.0
  9
$UCSORGBACK
 10
0.0
 20
0.0
 30
0.0
  9
$PUCSBASE
  2

  9
$PUCSNAME
  2

  9
$PUCSORG
 10
0.0
 20
0.0
 30
0.0
  9
$PUCSXDIR
 10
1.0
 20
0.0
 30
0.0
  9
$PUCSYDIR
 10
0.0
 20
1.0
 30
0.0
  9
$PUCSORTHOREF
  2

  9
$PUCSORTHOVIEW
 70
     0
  9
$PUCSORGTOP
 10
0.0
 20
0.0
 30
0.0
  9
$PUCSORGBOTTOM
 10
0.0
 20
0.0
 30
0.0
  9
$PUCSORGLEFT
 10
0.0
 20
0.0
 30
0.0
  9
$PUCSORGRIGHT
 10
0.0
 20
0.0
 30
0.0
  9
$PUCSORGFRONT
 10
0.0
 20
0.0
 30
0.0
  9
$PUCSORGBACK
 10
0.0
 20
0.0
 30
0.0
  9
$USERI1
 70
     0
  9
$USERI2
 70
     0
  9
$USERI3
 70
     0
  9
$USERI4
 70
     0
  9
$USERI5
 70
     0
  9
$USERR1
 40
0.0
  9
$USERR2
 40
0.0
  9
$USERR3
 40
0.0
  9
$USERR4
 40
0.0
  9
$USERR5
 40
0.0
  9
$WORLDVIEW
 70
     1
  9
$SHADEDGE
 70
     3
  9
$SHADEDIF
 70
    70
  9
$TILEMODE
 70
     1
  9
$MAXACTVP
 70
    64
  9
$PINSBASE
 10
0.0
 20
0.0
 30
0.0
  9
$PLIMCHECK
 70
     0
  9
$PEXTMIN
 10
0.0
 20
0.0
 30
0.0
  9
$PEXTMAX
 10
1682.0
 20
2378.0
 30
0.0
  9
$PLIMMIN
 10
0.0
 20
0.0
  9
$PLIMMAX
 10
1682.0
 20
2378.0
  9
$UNITMODE
 70
     0
  9
$VISRETAIN
 70
     1
  9
$PLINEGEN
 70
     0
  9
$PSLTSCALE
 70
     1
  9
$TREEDEPTH
 70
  3020
  9
$CMLSTYLE
  2
Standard
  9
$CMLJUST
 70
     0
  9
$CMLSCALE
 40
20.0
  9
$PROXYGRAPHICS
 70
     1
  9
$MEASUREMENT
 70
     1
  9
$CELWEIGHT
370
    -1
  9
$ENDCAPS
280
     0
  9
$JOINSTYLE
280
     0
  9
$LWDISPLAY
290
     0
  9
$INSUNITS
 70
     4
  9
$HYPERLINKBASE
  1

  9
$STYLESHEET
  1

  9
$XEDIT
290
     1
  9
$CEPSNTYPE
380
     0
  9
$PSTYLEMODE
290
     1
  9
$FINGERPRINTGUID
  2
{34DCFC70-6105-427A-AADC-F65462B33B01}
  9
$VERSIONGUID
  2
{FAEB1C32-E019-11D5-929B-00C0DF256EC4}
  9
$EXTNAMES
290
     1
  9
$PSVPSCALE
 40
0.0
  9
$OLESTARTUP
290
     0
  0
ENDSEC
  0
SECTION
  2
CLASSES
  0
CLASS
  1
ACDBDICTIONARYWDFLT
  2
AcDbDictionaryWithDefault
  3
ObjectDBX Classes
 90
        0
280
     0
281
     0
  0
CLASS
  1
VISUALSTYLE
  2
AcDbVisualStyle
  3
ObjectDBX Classes
 90
     4095
280
     0
281
     0
  0
CLASS
  1
SCALE
  2
AcDbScale
  3
ObjectDBX Classes
 90
     1153
280
     0
281
     0
  0
CLASS
  1
DICTIONARYVAR
  2
AcDbDictionaryVar
  3
ObjectDBX Classes
 90
        0
280
     0
281
     0
  0
CLASS
  1
ACDBPLACEHOLDER
  2
AcDbPlaceHolder
  3
ObjectDBX Classes
 90
        0
280
     0
281
     0
  0
CLASS
  1
LAYOUT
  2
AcDbLayout
  3
ObjectDBX Classes
 90
        0
280
     0
281
     0
  0
ENDSEC
  0
SECTION
  2
TABLES
  0
TABLE
  2
VPORT
  5
8
330
0
100
AcDbSymbolTable
 70
     1
  0
VPORT
  5
29
330
8
100
AcDbSymbolTableRecord
100
AcDbViewportTableRecord
  2
*Active
 70
     0
 10
0.0
 20
0.0
 11
1.0
 21
1.0
 12
344.1869158879
 22
148.5
 13
0.0
 23
0.0
 14
10.0
 24
10.0
 15
10.0
 25
10.0
 16
0.0
 26
0.0
 36
1.0
 17
0.0
 27
0.0
 37
0.0
 40
297.0
 41
1.9729729729
 42
50.0
 43
0.0
 44
0.0
 50
0.0
 51
0.0
 71
     0
 72
   100
 73
     1
 74
     3
 75
     0
 76
     0
 77
     0
 78
     0
281
     0
 65
     1
110
0.0
120
0.0
130
0.0
111
1.0
121
0.0
131
0.0
112
0.0
122
1.0
132
0.0
 79
     0
146
0.0
  0
ENDTAB
  0
TABLE
  2
LTYPE
  5
5
330
0
100
AcDbSymbolTable
 70
     2
  0
LTYPE
  5
14
330
5
100
AcDbSymbolTableRecord
100
AcDbLinetypeTableRecord
  2
ByBlock
 70
     0
  3

 72
    65
 73
     0
 40
0.0
  0
LTYPE
  5
15
330
5
100
AcDbSymbolTableRecord
100
AcDbLinetypeTableRecord
  2
ByLayer
 70
     0
  3

 72
    65
 73
     0
 40
0.0
  0
LTYPE
  5
16
330
5
100
AcDbSymbolTableRecord
100
AcDbLinetypeTableRecord
  2
Continuous
 70
     0
  3
Solid line
 72
    65
 73
     0
 40
0.0
  0
LTYPE
  5
60
330
5
100
AcDbSymbolTableRecord
100
AcDbLinetypeTableRecord
  2
CENTER2
 70
     0
  3
Center (.5x) ___ _ ___ _ ___ _ ___ _ ___ _ ___
 72
    65
 73
     4
 40
28.575
 49
19.05
 74
     4
 75
     0
340
0
 46
0.0
 50
0.0
 44
0.0
 45
0.0
 49
-3.175
 74
     4
 75
     0
340
0
 46
0.0
 50
0.0
 44
0.0
 45
0.0
 49
3.175
 74
     4
 75
     0
340
0
 46
0.0
 50
0.0
 44
0.0
 45
0.0
 49
-3.175
 74
     4
 75
     0
340
0
 46
0.0
 50
0.0
 44
0.0
 45
0.0
  0
ENDTAB
  0
TABLE
  2
LAYER
  5
2
330
0
100
AcDbSymbolTable
 70
    13
  0
LAYER
  5
10
330
2
100
AcDbSymbolTableRecord
100
AcDbLayerTableRecord
  2
0
 70
     0
 62
     7
  6
Continuous
370
    -3
390
F
  0
LAYER
  5
5D
330
2
100
AcDbSymbolTableRecord
100
AcDbLayerTableRecord
  2
Default
 70
     0
 62
     7
  6
Continuous
370
    -3
390
F
  0
LAYER
  5
6B
330
2
100
AcDbSymbolTableRecord
100
AcDbLayerTableRecord
  2
$DDT_AUDIT_GENERATED_(6B)
 70
     0
 62
     7
  6
Continuous
370
    -3
390
F
  0
LAYER
  5
A2
330
2
100
AcDbSymbolTableRecord
100
AcDbLayerTableRecord
  2
$DDT_AUDIT_GENERATED_(A2)
 70
     0
 62
     7
  6
Continuous
370
    -3
390
F
  0
LAYER
  5
B0
330
2
100
AcDbSymbolTableRecord
100
AcDbLayerTableRecord
  2
$DDT_AUDIT_GENERATED_(B0)
 70
     0
 62
     7
  6
Continuous
370
    -3
390
F
  0
LAYER
  5
B4
330
2
100
AcDbSymbolTableRecord
100
AcDbLayerTableRecord
  2
$DDT_AUDIT_GENERATED_(B4)
 70
     0
 62
     7
  6
Continuous
370
    -3
390
F
  0
LAYER
  5
D5
330
2
100
AcDbSymbolTableRecord
100
AcDbLayerTableRecord
  2
09719038_ROSETTE
 70
     0
 62
     7
  6
Continuous
370
    -3
390
F
  0
LAYER
  5
D9
330
2
100
AcDbSymbolTableRecord
100
AcDbLayerTableRecord
  2
02636038_GEHÄUSE
 70
     0
 62
     7
  6
Continuous
370
    -3
390
F
  0
LAYER
  5
EA
330
2
100
AcDbSymbolTableRecord
100
AcDbLayerTableRecord
  2
$DDT_AUDIT_GENERATED_(EA)
 70
     0
 62
     7
  6
Continuous
370
    -3
390
F
  0
LAYER
  5
149
330
2
100
AcDbSymbolTableRecord
100
AcDbLayerTableRecord
  2
$DDT_AUDIT_GENERATED_(149)
 70
     0
 62
     7
  6
Continuous
370
    -3
390
F
  0
LAYER
  5
160
330
2
100
AcDbSymbolTableRecord
100
AcDbLayerTableRecord
  2
$DDT_AUDIT_GENERATED_(160)
 70
     0
 62
     7
  6
Continuous
370
    -3
390
F
  0
LAYER
  5
183
330
2
100
AcDbSymbolTableRecord
100
AcDbLayerTableRecord
  2
04165000_H_LSE_0
 70
     0
 62
     7
  6
Continuous
370
    -3
390
F
  0
LAYER
  5
189
330
2
100
AcDbSymbolTableRecord
100
AcDbLayerTableRecord
  2
$DDT_AUDIT_GENERATED_(189)
 70
     0
 62
     7
  6
Continuous
370
    -3
390
F
  0
ENDTAB
  0
TABLE
  2
STYLE
  5
3
330
0
100
AcDbSymbolTable
 70
     2
  0
STYLE
  5
11
330
3
100
AcDbSymbolTableRecord
100
AcDbTextStyleTableRecord
  2
Standard
 70
     0
 40
0.0
 41
1.0
 50
0.0
 71
     0
 42
2.5
  3
txt
  4

  0
STYLE
  5
1DD
330
3
100
AcDbSymbolTableRecord
100
AcDbTextStyleTableRecord
  2
SEACAD_seiso_ttf
 70
     0
 40
0.0
 41
1.0
 50
0.0
 71
     0
 42
0.2
  3
seiso.ttf
  4

  0
ENDTAB
  0
TABLE
  2
VIEW
  5
6
330
0
100
AcDbSymbolTable
 70
     0
  0
ENDTAB
  0
TABLE
  2
UCS
  5
7
330
0
100
AcDbSymbolTable
 70
     0
  0
ENDTAB
  0
TABLE
  2
APPID
  5
9
330
0
100
AcDbSymbolTable
 70
     1
  0
APPID
  5
12
330
9
100
AcDbSymbolTableRecord
100
AcDbRegAppTableRecord
  2
ACAD
 70
     0
  0
ENDTAB
  0
TABLE
  2
DIMSTYLE
  5
A
330
0
100
AcDbSymbolTable
 70
     1
100
AcDbDimStyleTable
  0
DIMSTYLE
105
27
330
A
100
AcDbSymbolTableRecord
100
AcDbDimStyleTableRecord
  2
ISO-25
 70
     0
 41
2.5
 42
0.625
 43
3.75
 44
1.25
 73
     0
 74
     0
 77
     1
 78
     8
140
2.5
141
2.5
143
0.0393700787
147
0.625
171
     3
172
     1
271
     2
272
     2
274
     3
278
    44
283
     0
284
     8
340
11
  0
ENDTAB
  0
TABLE
  2
BLOCK_RECORD
  5
1
330
0
100
AcDbSymbolTable
 70
     6
  0
BLOCK_RECORD
  5
1F
330
1
100
AcDbSymbolTableRecord
100
AcDbBlockTableRecord
  2
*Model_Space
340
22
  0
BLOCK_RECORD
  5
1B
330
1
100
AcDbSymbolTableRecord
100
AcDbBlockTableRecord
  2
*Paper_Space
340
1E
  0
BLOCK_RECORD
  5
5E
330
1
100
AcDbSymbolTableRecord
100
AcDbBlockTableRecord
  2
SEANNOT_GROUP
340
0
102
{BLKREFS
331
5F
102
}
  0
BLOCK_RECORD
  5
64
330
1
100
AcDbSymbolTableRecord
100
AcDbBlockTableRecord
  2
SEANNOT_GROUP1
340
0
102
{BLKREFS
331
65
102
}
  0
BLOCK_RECORD
  5
69
330
1
100
AcDbSymbolTableRecord
100
AcDbBlockTableRecord
  2
SE
340
0
102
{BLKREFS
331
6A
102
}
  0
BLOCK_RECORD
  5
11B
330
1
100
AcDbSymbolTableRecord
100
AcDbBlockTableRecord
  2
SE1
340
0
102
{BLKREFS
331
11C
102
}
  0
BLOCK_RECORD
  5
19D
330
1
100
AcDbSymbolTableRecord
100
AcDbBlockTableRecord
  2
SE2
340
0
102
{BLKREFS
331
19E
102
}
  0
ENDTAB
  0
ENDSEC
  0
SECTION
  2
BLOCKS
  0
BLOCK
  5
20
330
1F
100
AcDbEntity
  8
0
100
AcDbBlockBegin
  2
*Model_Space
 70
     0
 10
0.0
 20
0.0
 30
0.0
  3
*Model_Space
  1

  0
ENDBLK
  5
21
330
1F
100
AcDbEntity
  8
0
100
AcDbBlockEnd
  0
BLOCK
  5
1C
330
1B
100
AcDbEntity
 67
     1
  8
0
100
AcDbBlockBegin
  2
*Paper_Space
 70
     0
 10
0.0
 20
0.0
 30
0.0
  3
*Paper_Space
  1

  0
ENDBLK
  5
1D
330
1B
100
AcDbEntity
 67
     1
  8
0
100
AcDbBlockEnd
  0
BLOCK
  5
62
330
5E
100
AcDbEntity
  8
0
100
AcDbBlockBegin
  2
SEANNOT_GROUP
 70
     0
 10
0.0
 20
0.0
 30
0.0
  3
SEANNOT_GROUP
  1

  0
LINE
  5
61
330
5E
100
AcDbEntity
  8
Default
  6
CENTER2
 62
     7
100
AcDbLine
 10
116.3336264287
 20
251.9395450283
 30
0.0
 11
116.3336264287
 21
340.0647305107
 31
0.0
  0
ENDBLK
  5
63
330
5E
100
AcDbEntity
  8
0
100
AcDbBlockEnd
  0
BLOCK
  5
67
330
64
100
AcDbEntity
  8
0
100
AcDbBlockBegin
  2
SEANNOT_GROUP1
 70
     0
 10
0.0
 20
0.0
 30
0.0
  3
SEANNOT_GROUP1
  1

  0
LINE
  5
66
330
64
100
AcDbEntity
  8
Default
  6
CENTER2
 62
     7
100
AcDbLine
 10
116.332717947
 20
405.829922767
 30
0.0
 11
116.332717947
 21
604.9723798852
 31
0.0
  0
ENDBLK
  5
68
330
64
100
AcDbEntity
  8
0
100
AcDbBlockEnd
  0
BLOCK
  5
119
330
69
100
AcDbEntity
  8
0
100
AcDbBlockBegin
  2
SE
 70
     0
 10
0.0
 20
0.0
 30
0.0
  3
SE
  1

  0
ARC
  5
6C
330
69
100
AcDbEntity
  8
$DDT_AUDIT_GENERATED_(6B)
  6
Continuous
 62
     7
100
AcDbCircle
 10
90.8496553206
 20
352.6323102828
 30
0.0
 40
115.4066430842489
100
AcDbArc
 50
89.1297190256
 51
91.7822804377
  0
SPLINE
  5
6D
330
69
100
AcDbEntity
  8
$DDT_AUDIT_GENERATED_(6B)
  6
Continuous
 62
     7
100
AcDbSpline
210
0.0
220
0.0
230
1.0
 70
     8
 71
     3
 72
    21
 73
    17
 74
     0
 42
0.0000000050781698
 43
0.0000000001
 40
0.0
 40
0.0
 40
0.0
 40
0.0
 40
0.0562198116775713
 40
0.1126618898467519
 40
0.169153922895847
 40
0.2255217657837036
 40
0.2815924466131793
 40
0.3371971206232802
 40
0.3921738464796635
 40
0.4463700736779182
 40
0.499644751832743
 40
0.5926975806657492
 40
0.6902616681164803
 40
0.7914167809654095
 40
0.8950683524534084
 40
1.0
 40
1.0
 40
1.0
 40
1.0
 10
191.9064969901187
 20
467.5310076957796
 30
0.0
 10
191.9062664986984
 20
467.4829487130532
 30
0.0
 10
191.9058046045994
 20
467.3866407453593
 30
0.0
 10
191.9020482765185
 20
467.2427935223603
 30
0.0
 10
191.8960382799748
 20
467.1003301123123
 30
0.0
 10
191.8876004288881
 20
466.9604299015395
 30
0.0
 10
191.8768845473873
 20
466.8242205718307
 30
0.0
 10
191.8640089784332
 20
466.6927460124509
 30
0.0
 10
191.8491502266077
 20
466.5669403031469
 30
0.0
 10
191.8325101546385
 20
466.4476011952555
 30
0.0
 10
191.8096702513525
 20
466.3067060487964
 30
0.0
 10
191.7782756413822
 20
466.146978400122
 30
0.0
 10
191.7355673018897
 20
465.976821826214
 30
0.0
 10
191.6863270562889
 20
465.8266588828888
 30
0.0
 10
191.6316966020966
 20
465.7000073701476
 30
0.0
 10
191.5922099833888
 20
465.6427051241907
 30
0.0
 10
191.5718202447183
 20
465.6132881139295
 30
0.0
  0
LINE
  5
6E
330
69
100
AcDbEntity
  8
$DDT_AUDIT_GENERATED_(6B)
  6
Continuous
 62
     7
100
AcDbLine
 10
191.6841388066
 20
467.5278268945
 30
0.0
 11
191.9064969901
 21
467.5310076957
 31
0.0
  0
ARC
  5
6F
330
69
100
AcDbEntity
  8
$DDT_AUDIT_GENERATED_(6B)
  6
Continuous
 62
     7
100
AcDbCircle
 10
141.7938765696
 20
349.6518642163
 30
0.0
 40
118.3864051524719
100
AcDbArc
 50
88.2511075219
 51
90.8368930147
  0
ARC
  5
70
330
69
100
AcDbEntity
  8
$DDT_AUDIT_GENERATED_(6B)
  6
Continuous
 62
     7
100
AcDbCircle
 10
116.3336264287
 20
5210.8823434635
 30
0.0
 40
4742.916072226973
100
AcDbArc
 50
269.7133203922
 51
270.2866796078
  0
LINE
  5
71
330
69
100
AcDbEntity
  8
$DDT_AUDIT_GENERATED_(6B)
  6
Continuous
 62
     7
100
AcDbLine
 10
40.9831140507
 20
467.5278268947
 30
0.0
 11
40.7607558672
 21
467.5310076957
 31
0.0
  0
SPLINE
  5
72
330
69
100
AcDbEntity
  8
$DDT_AUDIT_GENERATED_(6B)
  6
Continuous
 62
     7
100
AcDbSpline
210
0.0
220
0.0
230
1.0
 70
     8
 71
     3
 72
    22
 73
    18
 74
     0
 42
0.0000000050796276
 43
0.0000000001
 40
0.0
 40
0.0
 40
0.0
 40
0.0
 40
0.0525719721042895
 40
0.1049822050680794
 40
0.157071815033183
 40
0.2086851864522855
 40
0.2596723409006403
 40
0.3098910795529959
 40
0.3592088256480047
 40
0.4075041137727071
 40
0.4546676954623179
 40
0.5006032532135988
 40
0.597116450283555
 40
0.696245583245364
 40
0.7970936414103622
 40
0.8986816458797342
 40
1.0
 40
1.0
 40
1.0
 40
1.0
 10
41.09534234063593
 20
465.6133476463195
 30
0.0
 10
41.08490524002785
 20
465.6274760936848
 30
0.0
 10
41.06493179575673
 20
465.6546301083504
 30
0.0
 10
41.03592210158012
 20
465.7060605972563
 30
0.0
 10
41.00790457088034
 20
465.7647169814744
 30
0.0
 10
40.98112688876294
 20
465.8307664747471
 30
0.0
 10
40.955742434194
 20
465.9032787883577
 30
0.0
 10
40.93188971996172
 20
465.981507363988
 30
0.0
 10
40.90966855047858
 20
466.0645813697396
 30
0.0
 10
40.88914532560181
 20
466.1516158449322
 30
0.0
 10
40.87035221627853
 20
466.2417217001802
 30
0.0
 10
40.84686169102482
 20
466.368768642483
 30
0.0
 10
40.82038606135166
 20
466.5420732996403
 30
0.0
 10
40.79433179561044
 20
466.7704783045634
 30
0.0
 10
40.77518286682828
 20
467.0154071582419
 30
0.0
 10
40.76300854074795
 20
467.2708117050093
 30
0.0
 10
40.76150609282183
 20
467.4443525739159
 30
0.0
 10
40.76075586719023
 20
467.5310076956796
 30
0.0
  0
SPLINE
  5
73
330
69
100
AcDbEntity
  8
$DDT_AUDIT_GENERATED_(6B)
  6
Continuous
 62
     7
100
AcDbSpline
210
0.0
220
0.0
230
1.0
 70
     8
 71
     3
 72
    12
 73
     8
 74
     0
 42
0.0000000028465993
 43
0.0000000001
 40
0.0
 40
0.0
 40
0.0
 40
0.0
 40
0.25
 40
0.25
 40
0.5
 40
0.5
 40
1.0
 40
1.0
 40
1.0
 40
1.0
 10
41.09534234063593
 20
465.6133476463195
 30
0.0
 10
41.09469169594693
 20
465.1264611059432
 30
0.0
 10
41.09534326603149
 20
464.6916490694201
 30
0.0
 10
41.09540515966667
 20
463.9159280662464
 30
0.0
 10
41.09540018328993
 20
463.5761080246913
 30
0.0
 10
41.09543119138034
 20
462.6994684550074
 30
0.0
 10
41.09537226374295
 20
462.3039875726864
 30
0.0
 10
41.09548084744494
 20
462.1003849479181
 30
0.0
  0
ARC
  5
74
330
69
100
AcDbEntity
  8
$DDT_AUDIT_GENERATED_(6B)
  6
Continuous
 62
     7
100
AcDbCircle
 10
116.3336264378
 20
-40349.6194309379
 30
0.0
 40
40811.78916819155
100
AcDbArc
 50
90.0291324141
 51
90.1056270928
  0
ARC
  5
75
330
69
100
AcDbEntity
  8
$DDT_AUDIT_GENERATED_(6B)
  6
Continuous
 62
     7
100
AcDbCircle
 10
116.3336264378
 20
-40349.6194309379
 30
0.0
 40
40811.78916819155
100
AcDbArc
 50
89.8943729072
 51
89.9708703595
  0
SPLINE
  5
76
330
69
100
AcDbEntity
  8
$DDT_AUDIT_GENERATED_(6B)
  6
Continuous
 62
     7
100
AcDbSpline
210
0.0
220
0.0
230
1.0
 70
     8
 71
     3
 72
    12
 73
     8
 74
     0
 42
0.0000000028466475
 43
0.0000000001
 40
0.0
 40
0.0
 40
0.0
 40
0.0
 40
0.5
 40
0.5
 40
0.75
 40
0.75
 40
1.0
 40
1.0
 40
1.0
 40
1.0
 10
191.5717720098656
 20
462.100384947952
 30
0.0
 10
191.5718805935448
 20
462.3039875709644
 30
0.0
 10
191.5718216659305
 20
462.6994684509425
 30
0.0
 10
191.5718526740209
 20
463.5761080131585
 30
0.0
 10
191.5718476976437
 20
463.9159280517327
 30
0.0
 10
191.5719095912802
 20
464.6916490479227
 30
0.0
 10
191.5725611612913
 20
465.1264610806325
 30
0.0
 10
191.5718202447183
 20
465.6132881139295
 30
0.0
  0
ARC
  5
77
330
69
100
AcDbEntity
  8
$DDT_AUDIT_GENERATED_(6B)
  6
Continuous
 62
     7
100
AcDbCircle
 10
191.2946580998
 20
483.0401981698
 30
0.0
 40
20.94164678063381
100
AcDbArc
 50
270.7581982954
 51
89.2417995177
  0
ARC
  5
78
330
69
100
AcDbEntity
  8
$DDT_AUDIT_GENERATED_(6B)
  6
Continuous
 62
     7
100
AcDbCircle
 10
139.5078366152
 20
-19511.5087967391
 30
0.0
 40
20015.5565219015
100
AcDbArc
 50
89.8509635658
 51
89.978891094
  0
SPLINE
  5
79
330
69
100
AcDbEntity
  8
$DDT_AUDIT_GENERATED_(6B)
  6
Continuous
 62
     7
100
AcDbSpline
210
0.0
220
0.0
230
1.0
 70
     8
 71
     3
 72
    12
 73
     8
 74
     0
 42
0.0000000005487107
 43
0.0000000001
 40
0.0
 40
0.0
 40
0.0
 40
0.0
 40
0.0054990846300701
 40
0.1174981442046107
 40
0.4490804570498996
 40
0.7421156040639806
 40
1.0
 40
1.0
 40
1.0
 40
1.0
 10
163.6314498818511
 20
498.4870817969657
 30
0.0
 10
163.5983916721217
 20
498.4870729465168
 30
0.0
 10
162.8918781722569
 20
498.4868652319065
 30
0.0
 10
160.1884158483109
 20
498.4787627708257
 30
0.0
 10
155.7303030810336
 20
498.4733480626004
 30
0.0
 10
150.358418660808
 20
498.4652757360671
 30
0.0
 10
146.9856981345297
 20
498.4616167436814
 30
0.0
 10
145.4069340311875
 20
498.4599039502996
 30
0.0
  0
ARC
  5
7A
330
69
100
AcDbEntity
  8
$DDT_AUDIT_GENERATED_(6B)
  6
Continuous
 62
     7
100
AcDbCircle
 10
191.7883298922
 20
483.0401856287
 30
0.0
 40
15.50962809412094
100
AcDbArc
 50
270.4365379653
 51
89.5634675233
  0
ARC
  5
7B
330
69
100
AcDbEntity
  8
$DDT_AUDIT_GENERATED_(6B)
  6
Continuous
 62
     7
100
AcDbCircle
 10
169.3307246497
 20
4329.3635170947
 30
0.0
 40
3830.880674760365
100
AcDbArc
 50
269.9147599368
 51
270.3376518315
  0
LINE
  5
7C
330
69
100
AcDbEntity
  8
$DDT_AUDIT_GENERATED_(6B)
  6
Continuous
 62
     7
100
AcDbLine
 10
116.3336264287
 20
537.9717235338
 30
0.0
 11
141.3336384674
 21
537.9717235338
 31
0.0
  0
LINE
  5
7D
330
69
100
AcDbEntity
  8
$DDT_AUDIT_GENERATED_(6B)
  6
Continuous
 62
     7
100
AcDbLine
 10
142.3336384674
 20
536.9717235338
 30
0.0
 11
116.3336264287
 21
536.9717235338
 31
0.0
  0
ARC
  5
7E
330
69
100
AcDbEntity
  8
$DDT_AUDIT_GENERATED_(6B)
  6
Continuous
 62
     7
100
AcDbCircle
 10
563.820383436
 20
462.6033209763
 30
0.0
 40
372.2489430647627
100
AcDbArc
 50
180.0754401189
 51
180.0776270531
  0
SPLINE
  5
7F
330
69
100
AcDbEntity
  8
$DDT_AUDIT_GENERATED_(6B)
  6
Continuous
 62
     7
100
AcDbSpline
210
0.0
220
0.0
230
1.0
 70
     8
 71
     3
 72
     9
 73
     5
 74
     0
 42
0.0000001225272778
 43
0.0000000001
 40
0.8692517591562348
 40
0.8692517591562348
 40
0.8692517591562348
 40
0.8692517591562348
 40
0.8825015768928169
 40
1.0
 40
1.0
 40
1.0
 40
1.0
 10
191.5718218811928
 20
503.9698977750529
 30
0.0
 10
191.5718200520534
 20
503.9709396443774
 30
0.0
 10
191.5718020182752
 20
503.9802892779501
 30
0.0
 10
191.5717866339707
 20
503.9801429039497
 30
0.0
 10
191.5717728091143
 20
503.9800113810625
 30
0.0
  0
ARC
  5
80
330
69
100
AcDbEntity
  8
$DDT_AUDIT_GENERATED_(6B)
  6
Continuous
 62
     7
100
AcDbCircle
 10
65.8900854288
 20
5488.6423880528
 30
0.0
 40
4990.156297761866
100
AcDbArc
 50
269.7114698538
 51
270.0361183779
  0
ARC
  5
81
330
69
100
AcDbEntity
  8
$DDT_AUDIT_GENERATED_(6B)
  6
Continuous
 62
     7
100
AcDbCircle
 10
40.8769627613
 20
483.0401856287
 30
0.0
 40
15.50961328343248
100
AcDbArc
 50
90.4292912811
 51
269.5707032303
  0
SPLINE
  5
82
330
69
100
AcDbEntity
  8
$DDT_AUDIT_GENERATED_(6B)
  6
Continuous
 62
     7
100
AcDbSpline
210
0.0
220
0.0
230
1.0
 70
     8
 71
     3
 72
    12
 73
     8
 74
     0
 42
0.0000000005487108
 43
0.0000000001
 40
0.0
 40
0.0
 40
0.0
 40
0.0
 40
0.0634703629058836
 40
0.2503837091000488
 40
0.5019873845175394
 40
0.7509958122968713
 40
1.0
 40
1.0
 40
1.0
 40
1.0
 10
69.03580297546014
 20
498.4870817969657
 30
0.0
 10
69.41759302696143
 20
498.4863951334014
 30
0.0
 10
70.9235921708009
 20
498.4834765356102
 30
0.0
 10
73.95283896492657
 20
498.4775866352996
 30
0.0
 10
78.12127169255199
 20
498.4713121786768
 30
0.0
 10
82.6868362414645
 20
498.4649184904624
 30
0.0
 10
85.73583329401342
 20
498.4615754715113
 30
0.0
 10
87.26031882612372
 20
498.4599039502996
 30
0.0
  0
LINE
  5
83
330
69
100
AcDbEntity
  8
$DDT_AUDIT_GENERATED_(6B)
  6
Continuous
 62
     7
100
AcDbLine
 10
116.3336264287
 20
537.9717235338
 30
0.0
 11
91.3336143899
 21
537.9717235338
 31
0.0
  0
LINE
  5
84
330
69
100
AcDbEntity
  8
$DDT_AUDIT_GENERATED_(6B)
  6
Continuous
 62
     7
100
AcDbLine
 10
90.333584661
 20
536.9717532628
 30
0.0
 11
91.3335854713
 21
537.9717524524
 31
0.0
  0
LINE
  5
85
330
69
100
AcDbEntity
  8
$DDT_AUDIT_GENERATED_(6B)
  6
Continuous
 62
     7
100
AcDbLine
 10
90.33361439
 20
536.9717235338
 30
0.0
 11
116.3336264287
 21
536.9717235338
 31
0.0
  0
ARC
  5
86
330
69
100
AcDbEntity
  8
$DDT_AUDIT_GENERATED_(6B)
  6
Continuous
 62
     7
100
AcDbCircle
 10
-247.7872162112
 20
503.4753955204
 30
0.0
 40
288.8831316025681
100
AcDbArc
 50
0.0980774443
 51
0.1000901209
  0
ARC
  5
87
330
69
100
AcDbEntity
  8
$DDT_AUDIT_GENERATED_(6B)
  6
Continuous
 62
     7
100
AcDbCircle
 10
95.2953338715
 20
-21299.5919342276
 30
0.0
 40
21803.63931116752
100
AcDbArc
 50
90.0249905796
 51
90.1424269604
  0
ARC
  5
88
330
69
100
AcDbEntity
  8
$DDT_AUDIT_GENERATED_(6B)
  6
Continuous
 62
     7
100
AcDbCircle
 10
41.3728432002
 20
483.0401981698
 30
0.0
 40
20.9416500696898
100
AcDbArc
 50
90.7588801553
 51
269.2411220316
  0
LINE
  5
89
330
69
100
AcDbEntity
  8
$DDT_AUDIT_GENERATED_(6B)
  6
Continuous
 62
     7
100
AcDbLine
 10
41.0954806403
 20
462.0987156902
 30
0.0
 11
41.0954806672
 21
462.1131663226
 31
0.0
  0
ARC
  5
8A
330
69
100
AcDbEntity
  8
$DDT_AUDIT_GENERATED_(6B)
  6
Continuous
 62
     7
100
AcDbCircle
 10
52.3539290115
 20
1663.8575908939
 30
0.0
 40
1196.383801153959
100
AcDbArc
 50
269.4554343556
 51
271.6719322654
  0
ARC
  5
8B
330
69
100
AcDbEntity
  8
$DDT_AUDIT_GENERATED_(6B)
  6
Continuous
 62
     7
100
AcDbCircle
 10
187.7683442841
 20
2421.6012005136
 30
0.0
 40
1954.077297072418
100
AcDbArc
 50
268.7578177318
 51
270.1148156473
  0
SPLINE
  5
8C
330
69
100
AcDbEntity
  8
$DDT_AUDIT_GENERATED_(6B)
  6
Continuous
 62
     7
100
AcDbSpline
210
0.0
220
0.0
230
1.0
 70
     8
 71
     3
 72
    11
 73
     7
 74
     0
 42
0.000000000294678
 43
0.0000000001
 40
0.1177149887962651
 40
0.1177149887962651
 40
0.1177149887962651
 40
0.1177149887962651
 40
0.1262282699097967
 40
0.1348481161389604
 40
0.144152397057048
 40
0.1525596943644114
 40
0.1525596943644114
 40
0.1525596943644114
 40
0.1525596943644114
 10
138.8631981301295
 20
466.0330225848953
 30
0.0
 10
138.7482478500072
 20
466.0317519578209
 30
0.0
 10
138.5309940889978
 20
466.0289702866653
 30
0.0
 10
138.2442324378767
 20
466.0247938239038
 30
0.0
 10
137.9741327690271
 20
466.0206213331692
 30
0.0
 10
137.7769758546162
 20
466.0176796641882
 30
0.0
 10
137.6808501510671
 20
466.0163227558822
 30
0.0
  0
SPLINE
  5
8D
330
69
100
AcDbEntity
  8
$DDT_AUDIT_GENERATED_(6B)
  6
Continuous
 62
     7
100
AcDbSpline
210
0.0
220
0.0
230
1.0
 70
     8
 71
     3
 72
    12
 73
     8
 74
     0
 42
0.0000000002948441
 43
0.0000000001
 40
0.8473073045965512
 40
0.8473073045965512
 40
0.8473073045965512
 40
0.8473073045965512
 40
0.8473978653683861
 40
0.8558267920331633
 40
0.8646923690672502
 40
0.8734404780552885
 40
0.8820944344900603
 40
0.8820944344900603
 40
0.8820944344900603
 40
0.8820944344900603
 10
94.98601111221905
 20
466.0163287748845
 30
0.0
 10
94.98497356901707
 20
466.0163434136905
 30
0.0
 10
94.88739372369973
 20
466.0177210003699
 30
0.0
 10
94.69342182575289
 20
466.0206172048777
 30
0.0
 10
94.42671654783037
 20
466.0247338535032
 30
0.0
 10
94.14313193590982
 20
466.0288783058921
 30
0.0
 10
93.92310840042815
 20
466.0317055276984
 30
0.0
 10
93.80628154604503
 20
466.0329973343032
 30
0.0
  0
SPLINE
  5
8E
330
69
100
AcDbEntity
  8
$DDT_AUDIT_GENERATED_(6B)
  6
Continuous
 62
     7
100
AcDbSpline
210
0.0
220
0.0
230
1.0
 70
     8
 71
     3
 72
    10
 73
     6
 74
     0
 42
0.0000000004245026
 43
0.0000000001
 40
0.2694981315571315
 40
0.2694981315571315
 40
0.2694981315571315
 40
0.2694981315571315
 40
0.2812499999999998
 40
0.2812499999999998
 40
0.3021417998667046
 40
0.3021417998667046
 40
0.3021417998667046
 40
0.3021417998667046
 10
95.0831871492444
 20
465.8430115898154
 30
0.0
 10
95.08304629200016
 20
465.7774805244954
 30
0.0
 10
95.10203799942083
 20
465.7081909647557
 30
0.0
 10
95.20812132963727
 20
465.5129483167215
 30
0.0
 10
95.33504814876481
 20
465.3830748622755
 30
0.0
 10
95.5215355334101
 20
465.2522292937742
 30
0.0
  0
SPLINE
  5
8F
330
69
100
AcDbEntity
  8
$DDT_AUDIT_GENERATED_(6B)
  6
Continuous
 62
     7
100
AcDbSpline
210
0.0
220
0.0
230
1.0
 70
     8
 71
     3
 72
    10
 73
     6
 74
     0
 42
0.0000000004117325
 43
0.0000000001
 40
0.736142434698992
 40
0.736142434698992
 40
0.736142434698992
 40
0.736142434698992
 40
0.7499999999999999
 40
0.7499999999999999
 40
0.7702036251085953
 40
0.7702036251085953
 40
0.7702036251085953
 40
0.7702036251085953
 10
137.092526127593
 20
465.2178144458548
 30
0.0
 10
137.2233805995417
 20
465.3044842811933
 30
0.0
 10
137.3285442157837
 20
465.3912930017414
 30
0.0
 10
137.5227248880441
 20
465.6028018008665
 30
0.0
 10
137.580875146785
 20
465.7251256412036
 30
0.0
 10
137.5828913457368
 20
465.8364848740679
 30
0.0
  0
SPLINE
  5
90
330
69
100
AcDbEntity
  8
$DDT_AUDIT_GENERATED_(6B)
  6
Continuous
 62
     7
100
AcDbSpline
210
0.0
220
0.0
230
1.0
 70
     8
 71
     3
 72
    20
 73
    16
 74
     0
 42
0.0000000001117975
 43
0.0000000001
 40
0.0
 40
0.0
 40
0.0
 40
0.0
 40
0.0312500000000001
 40
0.0312500000000001
 40
0.0625000000000002
 40
0.0625000000000002
 40
0.0937500000000002
 40
0.0937500000000002
 40
0.1250000000000003
 40
0.1250000000000003
 40
0.1562500000000004
 40
0.1562500000000004
 40
0.1875000000000005
 40
0.1875000000000005
 40
0.2091520987041767
 40
0.2091520987041767
 40
0.2091520987041767
 40
0.2091520987041767
 10
119.0293612148297
 20
465.9096147128631
 30
0.0
 10
120.4437105032224
 20
465.9105381497133
 30
0.0
 10
121.8168715209695
 20
465.9121107114294
 30
0.0
 10
124.4841771527952
 20
465.9165769590542
 30
0.0
 10
125.7916977620969
 20
465.9195247628812
 30
0.0
 10
128.2478901223344
 20
465.9271054852354
 30
0.0
 10
129.3940321641116
 20
465.9316439556438
 30
0.0
 10
131.5238710810035
 20
465.9437282263227
 30
0.0
 10
132.5106871930502
 20
465.9508477005239
 30
0.0
 10
134.2338225631952
 20
465.9685097260017
 30
0.0
 10
134.9826704717557
 20
465.9815649249701
 30
0.0
 10
136.250091102344
 20
466.0062974196619
 30
0.0
 10
136.7571088553897
 20
466.0236862478162
 30
0.0
 10
137.3845438048542
 20
465.9699779673009
 30
0.0
 10
137.5777006696032
 20
465.91778387626
 30
0.0
 10
137.7041950329575
 20
465.8376631572665
 30
0.0
  0
SPLINE
  5
91
330
69
100
AcDbEntity
  8
$DDT_AUDIT_GENERATED_(6B)
  6
Continuous
 62
     7
100
AcDbSpline
210
0.0
220
0.0
230
1.0
 70
     8
 71
     3
 72
     8
 73
     4
 74
     0
 42
0.0000000002637083
 43
0.0000000001
 40
0.2654758864992119
 40
0.2654758864992119
 40
0.2654758864992119
 40
0.2654758864992119
 40
0.2724465179438773
 40
0.2724465179438773
 40
0.2724465179438773
 40
0.2724465179438773
 10
137.3427940753537
 20
464.8942451005764
 30
0.0
 10
137.2729729884325
 20
464.8503049873987
 30
0.0
 10
137.1965399943256
 20
464.8063850640168
 30
0.0
 10
137.1136615570314
 20
464.762711850663
 30
0.0
  0
SPLINE
  5
92
330
69
100
AcDbEntity
  8
$DDT_AUDIT_GENERATED_(6B)
  6
Continuous
 62
     7
100
AcDbSpline
210
0.0
220
0.0
230
1.0
 70
     8
 71
     3
 72
     8
 73
     4
 74
     0
 42
0.0000000002627173
 43
0.0000000001
 40
0.6878436890123717
 40
0.6878436890123717
 40
0.6878436890123717
 40
0.6878436890123717
 40
0.6943572795347823
 40
0.6943572795347823
 40
0.6943572795347823
 40
0.6943572795347823
 10
95.55235557090006
 20
464.7621349946926
 30
0.0
 10
95.47480966703434
 20
464.8029023892836
 30
0.0
 10
95.40303511277088
 20
464.8438838901811
 30
0.0
 10
95.3370770472375
 20
464.8849022209729
 30
0.0
  0
SPLINE
  5
93
330
69
100
AcDbEntity
  8
$DDT_AUDIT_GENERATED_(6B)
  6
Continuous
 62
     7
100
AcDbSpline
210
0.0
220
0.0
230
1.0
 70
     8
 71
     3
 72
    10
 73
     6
 74
     0
 42
0.0000000003024381
 43
0.0000000001
 40
0.7529499771299926
 40
0.7529499771299926
 40
0.7529499771299926
 40
0.7529499771299926
 40
0.7812500000000007
 40
0.7812500000000007
 40
0.7844508735917479
 40
0.7844508735917479
 40
0.7844508735917479
 40
0.7844508735917479
 10
94.99293814509643
 20
465.8582267798338
 30
0.0
 10
95.17266953751168
 20
465.9575035510308
 30
0.0
 10
95.46541788216298
 20
466.0000333682951
 30
0.0
 10
95.9108856108106
 20
466.0086254153329
 30
0.0
 10
95.95760198970972
 20
466.009200642947
 30
0.0
 10
96.00574697888887
 20
466.0095163107445
 30
0.0
  0
SPLINE
  5
94
330
69
100
AcDbEntity
  8
$DDT_AUDIT_GENERATED_(6B)
  6
Continuous
 62
     7
100
AcDbSpline
210
0.0
220
0.0
230
1.0
 70
     8
 71
     3
 72
    18
 73
    14
 74
     0
 42
0.00000000009249
 43
0.0000000001
 40
0.7890493984521234
 40
0.7890493984521234
 40
0.7890493984521234
 40
0.7890493984521234
 40
0.8125000000000004
 40
0.8125000000000004
 40
0.8437500000000003
 40
0.8437500000000003
 40
0.8750000000000003
 40
0.8750000000000003
 40
0.9375000000000001
 40
0.9375000000000001
 40
0.9687500000000001
 40
0.9687500000000001
 40
1.0
 40
1.0
 40
1.0
 40
1.0
 10
96.22202705443976
 20
466.0093831353814
 30
0.0
 10
96.60448014383537
 20
466.0068105844148
 30
0.0
 10
97.06185260149101
 20
465.9932571793274
 30
0.0
 10
98.28252174473062
 20
465.971131529608
 30
0.0
 10
99.09281909473668
 20
465.9608170948209
 30
0.0
 10
100.94048828851
 20
465.9451793496827
 30
0.0
 10
101.9793210896248
 20
465.9383926331263
 30
0.0
 10
105.3071717604646
 20
465.922573968751
 30
0.0
 10
107.8963762327416
 20
465.9164369434525
 30
0.0
 10
111.9623710696561
 20
465.9108159179736
 30
0.0
 10
113.3699993723253
 20
465.9095647886649
 30
0.0
 10
116.2000242831895
 20
465.9084826728966
 30
0.0
 10
117.6150119264371
 20
465.9086912760129
 30
0.0
 10
119.0293612148297
 20
465.9096147128631
 30
0.0
  0
ARC
  5
95
330
69
100
AcDbEntity
  8
$DDT_AUDIT_GENERATED_(6B)
  6
Continuous
 62
     7
100
AcDbCircle
 10
146.9679039666
 20
167.5070524646
 30
0.0
 40
336.5324383054145
100
AcDbArc
 50
90.014631943
 51
90.4339190584
  0
LINE
  5
96
330
69
100
AcDbEntity
  8
$DDT_AUDIT_GENERATED_(6B)
  6
Continuous
 62
     7
100
AcDbLine
 10
142.3336384674
 20
508.4800250976
 30
0.0
 11
142.3336384674
 21
536.9742572063
 31
0.0
  0
LINE
  5
97
330
69
100
AcDbEntity
  8
$DDT_AUDIT_GENERATED_(6B)
  6
Continuous
 62
     7
100
AcDbLine
 10
142.3427309147
 20
508.3241245434
 30
0.0
 11
142.332638019
 21
508.4251307291
 31
0.0
  0
SPLINE
  5
98
330
69
100
AcDbEntity
  8
$DDT_AUDIT_GENERATED_(6B)
  6
Continuous
 62
     7
100
AcDbSpline
210
0.0
220
0.0
230
1.0
 70
     8
 71
     3
 72
    18
 73
    14
 74
     0
 42
0.000000000703298
 43
0.0000000001
 40
0.587335293955915
 40
0.587335293955915
 40
0.587335293955915
 40
0.587335293955915
 40
0.5941003538290811
 40
0.6382898480945455
 40
0.6901023649816957
 40
0.7372689278644496
 40
0.7731723266786266
 40
0.7997676822314318
 40
0.8291857634093328
 40
0.8641834180101886
 40
0.904933004890983
 40
0.952171856878724
 40
0.9930195183894855
 40
0.9930195183894855
 40
0.9930195183894855
 40
0.9930195183894855
 10
145.2401826393395
 20
503.5099053676737
 30
0.0
 10
145.2404682457182
 20
503.5100354885902
 30
0.0
 10
145.2363756674486
 20
503.513188063785
 30
0.0
 10
145.1316875763271
 20
503.5554848005688
 30
0.0
 10
144.8425990339367
 20
503.7117240368333
 30
0.0
 10
144.4965286394456
 20
503.9518352922618
 30
0.0
 10
144.1665128372477
 20
504.2280401943449
 30
0.0
 10
143.8287776877964
 20
504.562199063594
 30
0.0
 10
143.4500149183232
 20
505.014421011412
 30
0.0
 10
143.0410656589451
 20
505.6420312218956
 30
0.0
 10
142.6604796272186
 20
506.4689497943785
 30
0.0
 10
142.4133208955831
 20
507.3642350244651
 30
0.0
 10
142.3672547515599
 20
507.8997210554259
 30
0.0
 10
142.3508276011903
 20
508.1783750067194
 30
0.0
  0
LINE
  5
99
330
69
100
AcDbEntity
  8
$DDT_AUDIT_GENERATED_(6B)
  6
Continuous
 62
     7
100
AcDbLine
 10
142.3336389446
 20
536.9717235338
 30
0.0
 11
141.3336389263
 21
537.9717235338
 31
0.0
  0
ARC
  5
9A
330
69
100
AcDbEntity
  8
$DDT_AUDIT_GENERATED_(6B)
  6
Continuous
 62
     7
100
AcDbCircle
 10
164.1999173779
 20
-3114.6818199229
 30
0.0
 40
3618.75460480121
100
AcDbArc
 50
89.5666167311
 51
90.2534115009
  0
LINE
  5
9B
330
69
100
AcDbEntity
  8
$DDT_AUDIT_GENERATED_(6B)
  6
Continuous
 62
     7
100
AcDbLine
 10
90.33361439
 20
536.9742735808
 30
0.0
 11
90.33361439
 21
508.4800247819
 31
0.0
  0
SPLINE
  5
9C
330
69
100
AcDbEntity
  8
$DDT_AUDIT_GENERATED_(6B)
  6
Continuous
 62
     7
100
AcDbSpline
210
0.0
220
0.0
230
1.0
 70
     8
 71
     3
 72
    18
 73
    14
 74
     0
 42
0.0000000007057168
 43
0.0000000001
 40
0.0070207662651251
 40
0.0070207662651251
 40
0.0070207662651251
 40
0.0070207662651251
 40
0.0467290934029788
 40
0.0931795306070313
 40
0.1334479791896307
 40
0.168170339617703
 40
0.1975904594817073
 40
0.2231819267518088
 40
0.256519937190548
 40
0.3004969745650938
 40
0.3518209274456297
 40
0.3969259420610665
 40
0.4139877606472457
 40
0.4139877606472457
 40
0.4139877606472457
 40
0.4139877606472457
 10
90.31678980944228
 20
508.1784236919723
 30
0.0
 10
90.30114675644565
 20
507.9091583106934
 30
0.0
 10
90.25703027417961
 20
507.3877622642859
 30
0.0
 10
90.02132915563175
 20
506.5132722018426
 30
0.0
 10
89.65643541254326
 20
505.698774478726
 30
0.0
 10
89.25659442718798
 20
505.0686903521047
 30
0.0
 10
88.8860067488188
 20
504.6146801442927
 30
0.0
 10
88.55210634487099
 20
504.2756590935797
 30
0.0
 10
88.23557674973637
 20
504.0030166605694
 30
0.0
 10
87.89530448476894
 20
503.7566079012001
 30
0.0
 10
87.59146443415058
 20
503.5825459391846
 30
0.0
 10
87.44584452083545
 20
503.5189842669238
 30
0.0
 10
87.42770648674919
 20
503.5107179383279
 30
0.0
 10
87.42768872779158
 20
503.5101842531457
 30
0.0
  0
LINE
  5
9D
330
69
100
AcDbEntity
  8
$DDT_AUDIT_GENERATED_(6B)
  6
Continuous
 62
     7
100
AcDbLine
 10
90.3346148384
 20
508.4251307291
 30
0.0
 11
90.3247583883
 21
508.3242131716
 31
0.0
  0
ARC
  5
9E
330
69
100
AcDbEntity
  8
$DDT_AUDIT_GENERATED_(6B)
  6
Continuous
 62
     7
100
AcDbCircle
 10
72.0796493213
 20
-5435.794917588
 30
0.0
 40
5939.844937500633
100
AcDbArc
 50
89.8808544606
 51
90.2988749918
  0
ARC
  5
9F
330
69
100
AcDbEntity
  8
$DDT_AUDIT_GENERATED_(6B)
  6
Continuous
 62
     7
100
AcDbCircle
 10
85.6993488907
 20
167.5070524644
 30
0.0
 40
336.5324383055739
100
AcDbArc
 50
89.5660488109
 51
89.985368057
  0
SPLINE
  5
A0
330
69
100
AcDbEntity
  8
$DDT_AUDIT_GENERATED_(6B)
  6
Continuous
 62
     7
100
AcDbSpline
210
0.0
220
0.0
230
1.0
 70
     8
 71
     3
 72
    10
 73
     6
 74
     0
 42
0.0000000551287101
 43
0.0000000001
 40
0.4504119686885484
 40
0.4504119686885484
 40
0.4504119686885484
 40
0.4504119686885484
 40
0.4569194440571666
 40
0.9356633791668546
 40
1.0
 40
1.0
 40
1.0
 40
1.0
 10
95.09574038807298
 20
465.7973037513084
 30
0.0
 10
95.09573335544565
 20
465.7973394091066
 30
0.0
 10
95.0951576646233
 20
465.8001353829138
 30
0.0
 10
95.0899628044792
 20
465.8149912463724
 30
0.0
 10
95.15559490188726
 20
465.8427083975999
 30
0.0
 10
95.16461947049869
 20
465.8465753007545
 30
0.0
  0
SPLINE
  5
A1
330
69
100
AcDbEntity
  8
$DDT_AUDIT_GENERATED_(6B)
  6
Continuous
 62
     7
100
AcDbSpline
210
0.0
220
0.0
230
1.0
 70
     8
 71
     3
 72
    10
 73
     6
 74
     0
 42
0.0000000724128707
 43
0.0000000001
 40
0.0
 40
0.0
 40
0.0
 40
0.0
 40
0.2264029655650202
 40
0.7247468498330162
 40
1.0
 40
1.0
 40
1.0
 40
1.0
 10
137.5340532588783
 20
465.8641728941384
 30
0.0
 10
137.5534035912187
 20
465.8541772576384
 30
0.0
 10
137.6074248487827
 20
465.8252436909787
 30
0.0
 10
137.5797396591971
 20
465.8493568135683
 30
0.0
 10
137.5818904713336
 20
465.83571701952
 30
0.0
 10
137.5805689245222
 20
465.8314013275463
 30
0.0
  0
SPLINE
  5
A3
330
69
100
AcDbEntity
  8
$DDT_AUDIT_GENERATED_(A2)
  6
Continuous
 62
     7
100
AcDbSpline
210
0.0
220
0.0
230
1.0
 70
     8
 71
     3
 72
    21
 73
    17
 74
     0
 42
0.000000002251699
 43
0.0000000001
 40
0.0
 40
0.0
 40
0.0
 40
0.0
 40
0.0227272727272727
 40
0.0454545454545454
 40
0.0681818181818183
 40
0.090909090909091
 40
0.1136363636363637
 40
0.1363636363636364
 40
0.1590909090909093
 40
0.181818181818182
 40
0.2045454545454546
 40
0.2272727272727269
 40
0.2500000000000011
 40
0.2727272727272732
 40
0.3636363636363635
 40
0.4334567893199167
 40
0.4334567893199167
 40
0.4334567893199167
 40
0.4334567893199167
 10
101.0681224543951
 20
583.3357582794654
 30
0.0
 10
101.0357982733531
 20
583.3347647056579
 30
0.0
 10
100.9710815468786
 20
583.3361866931309
 30
0.0
 10
100.8747155681563
 20
583.3482459163672
 30
0.0
 10
100.7799729045848
 20
583.3699302183937
 30
0.0
 10
100.6877677603255
 20
583.4009384359737
 30
0.0
 10
100.5990143395395
 20
583.4409694058697
 30
0.0
 10
100.5147160895361
 20
583.4899354557995
 30
0.0
 10
100.4358764576249
 20
583.5477489134804
 30
0.0
 10
100.3634988911148
 20
583.6143221066295
 30
0.0
 10
100.2985868373149
 20
583.6895673629646
 30
0.0
 10
100.241631183114
 20
583.7723134739143
 30
0.0
 10
100.1931228154007
 20
583.8613892309083
 30
0.0
 10
100.1139824267268
 20
584.0498576198427
 30
0.0
 10
100.0709378427331
 20
584.3302346148047
 30
0.0
 10
100.103049095857
 20
584.5768316052212
 30
0.0
 10
100.1277878394196
 20
584.6813406029969
 30
0.0
  0
SPLINE
  5
A4
330
69
100
AcDbEntity
  8
$DDT_AUDIT_GENERATED_(A2)
  6
Continuous
 62
     7
100
AcDbSpline
210
0.0
220
0.0
230
1.0
 70
     8
 71
     3
 72
    13
 73
     9
 74
     0
 42
0.0000000022284584
 43
0.0000000001
 40
0.0
 40
0.0
 40
0.0
 40
0.0
 40
0.0625776936706771
 40
0.1252893888607017
 40
0.1876219193980399
 40
0.2501404259063286
 40
0.3743892914823107
 40
0.4287748385054692
 40
0.4287748385054692
 40
0.4287748385054692
 40
0.4287748385054692
 10
131.5973421908339
 20
583.3356756349823
 30
0.0
 10
131.6865440105334
 20
583.3406387248733
 30
0.0
 10
131.8651386633536
 20
583.350575532429
 30
0.0
 10
132.1146435098714
 20
583.4545395150285
 30
0.0
 10
132.3273389285648
 20
583.6233431007288
 30
0.0
 10
132.5334402190476
 20
583.9308481593907
 30
0.0
 10
132.5987671417188
 20
584.3091118641081
 30
0.0
 10
132.5603051402562
 20
584.5826251903619
 30
0.0
 10
132.5418373730714
 20
584.6643498512794
 30
0.0
  0
ARC
  5
A5
330
69
100
AcDbEntity
  8
$DDT_AUDIT_GENERATED_(A2)
  6
Continuous
 62
     7
100
AcDbCircle
 10
116.3306944207
 20
-169.4738063879
 30
0.0
 40
752.9642665875664
100
AcDbArc
 50
88.8382258419
 51
91.1614639517
  0
SPLINE
  5
A6
330
69
100
AcDbEntity
  8
$DDT_AUDIT_GENERATED_(A2)
  6
Continuous
 62
     7
100
AcDbSpline
210
0.0
220
0.0
230
1.0
 70
    11
 71
     3
 72
    22
 73
    18
 74
     0
 42
0.0000000004395068
 43
0.0000000001
 40
0.0
 40
0.0
 40
0.0
 40
0.0
 40
0.1250000000000001
 40
0.1250000000000001
 40
0.2500000000000001
 40
0.2500000000000001
 40
0.3750000000000001
 40
0.3750000000000001
 40
0.5
 40
0.5
 40
0.625
 40
0.625
 40
0.75
 40
0.75
 40
0.8750000000000001
 40
0.8750000000000001
 40
1.0
 40
1.0
 40
1.0
 40
1.0
 10
116.332723436968
 20
555.1965908388921
 30
0.0
 10
117.2711251669454
 20
555.196559657813
 30
0.0
 10
118.1908384236863
 20
554.8335225558301
 30
0.0
 10
119.4819082926356
 20
553.5528939126586
 30
0.0
 10
119.8364133030599
 20
552.6307122960663
 30
0.0
 10
119.7974508922941
 20
550.7807264162237
 30
0.0
 10
119.4307419960406
 20
549.8649050318463
 30
0.0
 10
118.1667223262875
 20
548.4845998805838
 30
0.0
 10
117.2671396075971
 20
548.0495865808844
 30
0.0
 10
115.4106269690685
 20
548.0459761807449
 30
0.0
 10
114.5025091365342
 20
548.4831382420855
 30
0.0
 10
113.2402173115022
 20
549.8566447198389
 30
0.0
 10
112.8696508290436
 20
550.7702839133866
 30
0.0
 10
112.8273715113052
 20
552.6299787397887
 30
0.0
 10
113.1796103179079
 20
553.5475142074393
 30
0.0
 10
114.4706963575575
 20
554.8320313357398
 30
0.0
 10
115.3943217069906
 20
555.1966220199713
 30
0.0
 10
116.332723436968
 20
555.1965908388921
 30
0.0
  0
LINE
  5
A7
330
69
100
AcDbEntity
  8
$DDT_AUDIT_GENERATED_(A2)
  6
Continuous
 62
     7
100
AcDbLine
 10
143.5853383077
 20
538.9821817215
 30
0.0
 11
89.087663176
 21
538.9821817215
 31
0.0
  0
SPLINE
  5
A8
330
69
100
AcDbEntity
  8
$DDT_AUDIT_GENERATED_(A2)
  6
Continuous
 62
     7
100
AcDbSpline
210
0.0
220
0.0
230
1.0
 70
     8
 71
     3
 72
     8
 73
     4
 74
     0
 42
0.0000004141843889
 43
0.0000000001
 40
0.35487402854503
 40
0.35487402854503
 40
0.35487402854503
 40
0.35487402854503
 40
0.3962924674356032
 40
0.3962924674356032
 40
0.3962924674356032
 40
0.3962924674356032
 10
88.76404273941674
 20
539.3135910798967
 30
0.0
 10
88.76399945192375
 20
539.3135528153334
 30
0.0
 10
88.76402164502989
 20
539.3135183623989
 30
0.0
 10
88.76410403336035
 20
539.3134875095087
 30
0.0
  0
ARC
  5
A9
330
69
100
AcDbEntity
  8
$DDT_AUDIT_GENERATED_(A2)
  6
Continuous
 62
     7
100
AcDbCircle
 10
85.2129043192
 20
587.0003417444
 30
0.0
 40
15.09174633848855
100
AcDbArc
 50
347.8298002221
 51
351.0266065264
  0
ARC
  5
AA
330
69
100
AcDbEntity
  8
$DDT_AUDIT_GENERATED_(A2)
  6
Continuous
 62
     7
100
AcDbCircle
 10
145.8875093146
 20
586.8404917331
 30
0.0
 40
13.52129107139573
100
AcDbArc
 50
189.3367525277
 51
192.8778005099
  0
SPLINE
  5
AB
330
69
100
AcDbEntity
  8
$DDT_AUDIT_GENERATED_(A2)
  6
Continuous
 62
     7
100
AcDbSpline
210
0.0
220
0.0
230
1.0
 70
     8
 71
     3
 72
    39
 73
    35
 74
     0
 42
0.0000000002470347
 43
0.0000000001
 40
0.0
 40
0.0
 40
0.0
 40
0.0
 40
0.032717772882855
 40
0.0681958748033878
 40
0.0974816188945663
 40
0.1206850154928068
 40
0.1384433779755261
 40
0.1552338979138682
 40
0.189691293276773
 40
0.224055228719219
 40
0.2570096965055699
 40
0.2903346576500164
 40
0.325088013364393
 40
0.3614497234632307
 40
0.3902715603876142
 40
0.4208359739592299
 40
0.4529608363425958
 40
0.4868013181116381
 40
0.5223134725773757
 40
0.5595734977095853
 40
0.5953635471274419
 40
0.6275422833564419
 40
0.6648214369367829
 40
0.6955981348686124
 40
0.7224763913067336
 40
0.7661020895111532
 40
0.8082720891888836
 40
0.8182758452898639
 40
0.8316103669966219
 40
0.8493823378864167
 40
0.8716985787838366
 40
0.9087012936003184
 40
0.9544263847948776
 40
1.0
 40
1.0
 40
1.0
 40
1.0
 10
132.5412382330694
 20
584.663976417401
 30
0.0
 10
132.4844018223394
 20
584.9352686454055
 30
0.0
 10
132.3841945167663
 20
585.4135690733565
 30
0.0
 10
132.2122148488394
 20
586.1888645057853
 30
0.0
 10
132.0554561899824
 20
586.8957883790933
 30
0.0
 10
131.8934964102104
 20
587.4861969183561
 30
0.0
 10
131.6454764676947
 20
588.0085719614121
 30
0.0
 10
131.2651978251611
 20
588.619855680851
 30
0.0
 10
130.6470679035027
 20
589.3427013543022
 30
0.0
 10
129.6893543996243
 20
590.1175882785527
 30
0.0
 10
128.5804663503563
 20
590.7790721278685
 30
0.0
 10
127.2982964014824
 20
591.3661271269438
 30
0.0
 10
125.7905928042641
 20
591.8961747009575
 30
0.0
 10
124.1933001462444
 20
592.3189477227653
 30
0.0
 10
122.5435391278208
 20
592.6470834928796
 30
0.0
 10
120.8799298006595
 20
592.8900723131999
 30
0.0
 10
119.0541668292018
 20
593.0639697405562
 30
0.0
 10
117.0869044306455
 20
593.1523318350744
 30
0.0
 10
115.0047604199125
 20
593.1389554763989
 30
0.0
 10
112.9108367779402
 20
593.0122490917009
 30
0.0
 10
110.9498780896568
 20
592.782189380942
 30
0.0
 10
109.0890882006444
 20
592.4567155261767
 30
0.0
 10
107.4410668231934
 20
592.0589022758296
 30
0.0
 10
106.0251638535513
 20
591.6078466564858
 30
0.0
 10
104.6517686798701
 20
591.0613025996892
 30
0.0
 10
103.3103572831479
 20
590.3573477644902
 30
0.0
 10
102.3868456868522
 20
589.6597262633169
 30
0.0
 10
101.8348074657556
 20
589.110057859384
 30
0.0
 10
101.5371218485387
 20
588.773276505275
 30
0.0
 10
101.2157756205123
 20
588.337023562736
 30
0.0
 10
100.8537582065757
 20
587.7050888135956
 30
0.0
 10
100.6187616009251
 20
586.8420728430119
 30
0.0
 10
100.3671587819393
 20
585.7723028083585
 30
0.0
 10
100.2172024378197
 20
585.0867610791241
 30
0.0
 10
100.1297105287994
 20
584.6808920321047
 30
0.0
  0
SPLINE
  5
AC
330
69
100
AcDbEntity
  8
$DDT_AUDIT_GENERATED_(A2)
  6
Continuous
 62
     7
100
AcDbSpline
210
0.0
220
0.0
230
1.0
 70
     8
 71
     3
 72
    40
 73
    36
 74
     0
 42
0.0000000002166126
 43
0.0000000001
 40
0.0
 40
0.0
 40
0.0
 40
0.0
 40
0.0438608753458976
 40
0.0861429644846474
 40
0.1239902546229179
 40
0.1574258872195728
 40
0.1863893663203529
 40
0.2109004723809651
 40
0.2442760278281736
 40
0.2786301986286964
 40
0.3141754339834613
 40
0.3635516526829425
 40
0.4131228597175063
 40
0.4624054180097009
 40
0.5096514031769247
 40
0.5381507704200769
 40
0.5663604233272079
 40
0.5966243992464754
 40
0.6280515727710917
 40
0.6573404618987552
 40
0.6824865790750714
 40
0.7078112019928183
 40
0.7231469148608943
 40
0.7391488060502915
 40
0.755874410779052
 40
0.7732861299911025
 40
0.7922701554408731
 40
0.8140186971955358
 40
0.8385536524575038
 40
0.8658192499164281
 40
0.8958870516845542
 40
0.9202804696838611
 40
0.9462555070987438
 40
0.9737694278037891
 40
1.0
 40
1.0
 40
1.0
 40
1.0
 10
99.96533463021304
 20
583.8215835498161
 30
0.0
 10
99.92121724477366
 20
583.5425117793591
 30
0.0
 10
99.84794035688863
 20
583.0806683591152
 30
0.0
 10
99.71467465131438
 20
582.3414945762551
 30
0.0
 10
99.5897230093901
 20
581.6749860987011
 30
0.0
 10
99.47207542568049
 20
581.0778617330197
 30
0.0
 10
99.36519433930499
 20
580.5565553686021
 30
0.0
 10
99.25292756060706
 20
580.0309333136906
 30
0.0
 10
99.12698868677788
 20
579.4660264265153
 30
0.0
 10
98.97673709488325
 20
578.8258937207336
 30
0.0
 10
98.79096930061596
 20
578.0793082863036
 30
0.0
 10
98.55892361480343
 20
577.2194145418175
 30
0.0
 10
98.28355916912673
 20
576.297473945079
 30
0.0
 10
97.9871317838739
 20
575.3523211740096
 30
0.0
 10
97.713159780723
 20
574.4390220683547
 30
0.0
 10
97.45838337784735
 20
573.6095875625986
 30
0.0
 10
97.21141242538245
 20
572.8473134544087
 30
0.0
 10
96.88979268758371
 20
571.9513930358604
 30
0.0
 10
96.4335637645087
 20
570.8904630013673
 30
0.0
 10
95.89066292763485
 20
569.7077122578804
 30
0.0
 10
95.30326159322841
 20
568.441147132567
 30
0.0
 10
94.76050992293409
 20
567.2651487038768
 30
0.0
 10
94.26711378070921
 20
566.158557460494
 30
0.0
 10
93.83802071461868
 20
565.1521912390431
 30
0.0
 10
93.3883799907308
 20
564.0230792022967
 30
0.0
 10
92.9151322691238
 20
562.7290230164454
 30
0.0
 10
92.40627840327743
 20
561.1826019614717
 30
0.0
 10
91.85454014130332
 20
559.2842669239022
 30
0.0
 10
91.27085144055077
 20
556.972964030147
 30
0.0
 10
90.68990816506773
 20
554.2397620519642
 30
0.0
 10
90.19517515964145
 20
551.3724130035371
 30
0.0
 10
89.7777863278305
 20
548.4395125961829
 30
0.0
 10
89.42331689304756
 20
545.5291555594791
 30
0.0
 10
89.0827865279519
 20
542.3935557075725
 30
0.0
 10
88.88039074254179
 20
540.4421323978885
 30
0.0
 10
88.76437526698524
 20
539.3131544081454
 30
0.0
  0
SPLINE
  5
AD
330
69
100
AcDbEntity
  8
$DDT_AUDIT_GENERATED_(A2)
  6
Continuous
 62
     7
100
AcDbSpline
210
0.0
220
0.0
230
1.0
 70
     8
 71
     3
 72
    61
 73
    57
 74
     0
 42
0.0000000002165753
 43
0.0000000001
 40
0.0
 40
0.0
 40
0.0
 40
0.0
 40
0.0208114354437623
 40
0.041995992852844
 40
0.0607261398074705
 40
0.0770432109308034
 40
0.1075298110074489
 40
0.1371061126480262
 40
0.1669463526250751
 40
0.1987087369214544
 40
0.2149223010109418
 40
0.2293235200568271
 40
0.2416046735934522
 40
0.2518999939383743
 40
0.2648792343862492
 40
0.2806179926995487
 40
0.2990181208469193
 40
0.3179877055792316
 40
0.3369922672600383
 40
0.3560055428223765
 40
0.3746314022370765
 40
0.3904859587441747
 40
0.4037516648722764
 40
0.4155416249947596
 40
0.4304861489040897
 40
0.444769795406706
 40
0.4610834486176686
 40
0.4761932059083727
 40
0.489009967592168
 40
0.5036177422375423
 40
0.517702824489496
 40
0.5352191355052246
 40
0.5558196297844867
 40
0.5763094711631702
 40
0.5960047454430898
 40
0.6149344328044527
 40
0.6359148141330175
 40
0.6578273662942377
 40
0.680665880846766
 40
0.702121322858661
 40
0.7198834151472643
 40
0.7351442727380276
 40
0.7546635238725087
 40
0.7772151644395734
 40
0.797079646904805
 40
0.8137915726081305
 40
0.8298868706798255
 40
0.8410085487017409
 40
0.8523707710758593
 40
0.8645668243374403
 40
0.8798281529100891
 40
0.898357987172075
 40
0.9197550440395088
 40
0.9442997673216526
 40
0.9719659358930954
 40
1.0
 40
1.0
 40
1.0
 40
1.0
 10
143.9088440317795
 20
539.3131598423516
 30
0.0
 10
143.8168265783261
 20
540.2102273297414
 30
0.0
 10
143.6595169048882
 20
541.7361033753357
 30
0.0
 10
143.4029791297762
 20
544.141554525069
 30
0.0
 10
143.1606319161446
 20
546.278837212192
 30
0.0
 10
142.855814697698
 20
548.736345492236
 30
0.0
 10
142.4596785668835
 20
551.5141370515071
 30
0.0
 10
141.9052908106296
 20
554.6504543650555
 30
0.0
 10
141.2453705098402
 20
557.661067911632
 30
0.0
 10
140.6108784629962
 20
560.0363301733618
 30
0.0
 10
140.0766444909121
 20
561.7697423078595
 30
0.0
 10
139.7000686643715
 20
562.8835197392355
 30
0.0
 10
139.370764948128
 20
563.786174583932
 30
0.0
 10
139.0515238001379
 20
564.6121026870776
 30
0.0
 10
138.7016923579815
 20
565.4690723877518
 30
0.0
 10
138.2834949320872
 20
566.4375853363233
 30
0.0
 10
137.8269353417835
 20
567.4502953714539
 30
0.0
 10
137.369617461117
 20
568.4410945507401
 30
0.0
 10
136.9428646165933
 20
569.3605019629493
 30
0.0
 10
136.5592022786226
 20
570.1946669099348
 30
0.0
 10
136.2334131183494
 20
570.9114353092968
 30
0.0
 10
135.9794488644094
 20
571.4951089172848
 30
0.0
 10
135.7927001185946
 20
571.9525033873036
 30
0.0
 10
135.638222815662
 20
572.3582357042279
 30
0.0
 10
135.4955349152949
 20
572.7589082520961
 30
0.0
 10
135.3548915171875
 20
573.1762987566802
 30
0.0
 10
135.2291525749028
 20
573.5681478205902
 30
0.0
 10
135.1194973875058
 20
573.9221013301611
 30
0.0
 10
135.0201008114492
 20
574.2463814713533
 30
0.0
 10
134.927579950683
 20
574.5512266140782
 30
0.0
 10
134.8244192418265
 20
574.8919233503402
 30
0.0
 10
134.7105486653767
 20
575.2674653174505
 30
0.0
 10
134.5856139902704
 20
575.6760291154314
 30
0.0
 10
134.4611409450519
 20
576.0760449179343
 30
0.0
 10
134.344102813384
 20
576.4503580095433
 30
0.0
 10
134.2296101007134
 20
576.8320436696944
 30
0.0
 10
134.1150904038013
 20
577.22890025497
 30
0.0
 10
133.9984941209121
 20
577.6485128796124
 30
0.0
 10
133.886826935063
 20
578.0685459861734
 30
0.0
 10
133.7872610063818
 20
578.4596383249507
 30
0.0
 10
133.7034663988791
 20
578.8007669050317
 30
0.0
 10
133.6255540333221
 20
579.1268968073152
 30
0.0
 10
133.5433684756345
 20
579.4806323939098
 30
0.0
 10
133.457861108072
 20
579.860747732335
 30
0.0
 10
133.3791793356833
 20
580.2215573203725
 30
0.0
 10
133.3114953209268
 20
580.5407494395001
 30
0.0
 10
133.2566952421166
 20
580.8056171425519
 30
0.0
 10
133.2096404593586
 20
581.0374685366533
 30
0.0
 10
133.1680881368889
 20
581.2453213158576
 30
0.0
 10
133.1224171007259
 20
581.4772000109353
 30
0.0
 10
133.0696618218269
 20
581.7498436401031
 30
0.0
 10
133.0080819314369
 20
582.0751448267008
 30
0.0
 10
132.938406838723
 20
582.4536300592657
 30
0.0
 10
132.8619690141384
 20
582.8806229856904
 30
0.0
 10
132.7799330867603
 20
583.3550847400085
 30
0.0
 10
132.7337040709444
 20
583.6523345453471
 30
0.0
 10
132.7061775028223
 20
583.8298745596115
 30
0.0
  0
ARC
  5
AE
330
69
100
AcDbEntity
  8
$DDT_AUDIT_GENERATED_(A2)
  6
Continuous
 62
     7
100
AcDbCircle
 10
89.0622601145
 20
539.2821817215
 30
0.0
 40
0.3000000000031099
100
AcDbArc
 50
174.0725507805
 51
269.9991939904
  0
ARC
  5
AF
330
69
100
AcDbEntity
  8
$DDT_AUDIT_GENERATED_(A2)
  6
Continuous
 62
     7
100
AcDbCircle
 10
143.6107182052
 20
539.2821817219
 30
0.0
 40
0.2999999977047917
100
AcDbArc
 50
270.0021057471
 51
5.9254875925
  0
LINE
  5
B1
330
69
100
AcDbEntity
  8
$DDT_AUDIT_GENERATED_(B0)
  6
Continuous
 62
     7
100
AcDbLine
 10
91.3111272701
 20
537.9717235338
 30
0.0
 11
141.3543086238
 21
537.9717235338
 31
0.0
  0
ARC
  5
B2
330
69
100
AcDbEntity
  8
$DDT_AUDIT_GENERATED_(B0)
  6
Continuous
 62
     7
100
AcDbCircle
 10
116.332717947
 20
529.8717235338
 30
0.0
 40
26.3
100
AcDbArc
 50
159.6716541112
 51
162.0621734783
  0
ARC
  5
B3
330
69
100
AcDbEntity
  8
$DDT_AUDIT_GENERATED_(B0)
  6
Continuous
 62
     7
100
AcDbCircle
 10
116.332717947
 20
529.8717235338
 30
0.0
 40
26.29999999999999
100
AcDbArc
 50
17.9378265217
 51
20.3256322127
  0
SPLINE
  5
B5
330
69
100
AcDbEntity
  8
$DDT_AUDIT_GENERATED_(B4)
  6
Continuous
 62
     7
100
AcDbSpline
210
0.0
220
0.0
230
1.0
 70
     8
 71
     3
 72
    18
 73
    14
 74
     0
 42
0.0000000004269145
 43
0.0000000001
 40
0.0
 40
0.0
 40
0.0
 40
0.0
 40
0.2500000000000004
 40
0.2500000000000004
 40
0.3750000000000004
 40
0.3750000000000004
 40
0.5000000000000006
 40
0.5000000000000006
 40
0.6250000000000006
 40
0.6250000000000006
 40
0.7500000000000004
 40
0.7500000000000004
 40
0.8750000000000002
 40
0.8750000000000002
 40
0.8750000000000002
 40
0.8750000000000002
 10
116.3326546661513
 20
442.6720192852497
 30
0.0
 10
113.5874206232482
 20
442.6719359958123
 30
0.0
 10
110.862309372292
 20
442.5172399727877
 30
0.0
 10
107.1225042345419
 20
442.1335142462064
 30
0.0
 10
105.9138320641866
 20
441.9794383446258
 30
0.0
 10
103.65764010349
 20
441.6512718761637
 30
0.0
 10
102.6167621062724
 20
441.478777419745
 30
0.0
 10
100.7054544418179
 20
441.1465369239933
 30
0.0
 10
99.83108672199695
 20
440.9810672641034
 30
0.0
 10
98.32867178810965
 20
440.7481802011991
 30
0.0
 10
97.69027245691814
 20
440.6735116199907
 30
0.0
 10
96.64483739637133
 20
440.6179307321711
 30
0.0
 10
96.24622604085432
 20
440.6467183892461
 30
0.0
 10
95.98203587596637
 20
440.6960020166744
 30
0.0
  0
SPLINE
  5
B6
330
69
100
AcDbEntity
  8
$DDT_AUDIT_GENERATED_(B4)
  6
Continuous
 62
     7
100
AcDbSpline
210
0.0
220
0.0
230
1.0
 70
     8
 71
     3
 72
     8
 73
     4
 74
     0
 42
0.0000000022587086
 43
0.0000000001
 40
0.8750000000000002
 40
0.8750000000000002
 40
0.8750000000000002
 40
0.8750000000000002
 40
0.9999965161739415
 40
0.9999965161739415
 40
0.9999965161739415
 40
0.9999965161739415
 10
95.98203587596637
 20
440.6960020166744
 30
0.0
 10
95.7178530742191
 20
440.7452842705379
 30
0.0
 10
95.5826750915565
 20
440.8146238924566
 30
0.0
 10
95.58267196780338
 20
440.9473572839624
 30
0.0
  0
SPLINE
  5
B7
330
69
100
AcDbEntity
  8
$DDT_AUDIT_GENERATED_(B4)
  6
Continuous
 62
     7
100
AcDbSpline
210
0.0
220
0.0
230
1.0
 70
     8
 71
     3
 72
    20
 73
    16
 74
     0
 42
0.0000000004269602
 43
0.0000000001
 40
0.0
 40
0.0
 40
0.0
 40
0.0
 40
0.041415360109361
 40
0.0832427159283336
 40
0.1254945120843567
 40
0.1863844324550027
 40
0.2504226885306788
 40
0.3755707881204272
 40
0.4380564977841382
 40
0.5004052736095158
 40
0.5631850067175872
 40
0.6258049765486482
 40
0.7500340026804923
 40
0.8127610314101068
 40
0.874998700170327
 40
0.874998700170327
 40
0.874998700170327
 40
0.874998700170327
 10
116.3326546661513
 20
442.6720192852497
 30
0.0
 10
116.7839098711008
 20
442.6696774321438
 30
0.0
 10
117.6909093210055
 20
442.6649707122181
 30
0.0
 10
119.0520437033209
 20
442.627514089288
 30
0.0
 10
120.6096603990772
 20
442.5593330867536
 30
0.0
 10
122.3758079785582
 20
442.442925279536
 30
0.0
 10
124.9350238009684
 20
442.2113955419439
 30
0.0
 10
127.3545486621802
 20
441.9023353463007
 30
0.0
 10
129.5260339453423
 20
441.5653144086253
 30
0.0
 10
131.030797921924
 20
441.3104752331609
 30
0.0
 10
132.3967937266068
 20
441.0651022590944
 30
0.0
 10
134.0107683768288
 20
440.784207567871
 30
0.0
 10
135.3032497924443
 20
440.635265351395
 30
0.0
 10
136.2194343642116
 20
440.6289137419186
 30
0.0
 10
136.5511483528097
 20
440.6715006536925
 30
0.0
 10
136.683270135023
 20
440.6960014007801
 30
0.0
  0
SPLINE
  5
B8
330
69
100
AcDbEntity
  8
$DDT_AUDIT_GENERATED_(B4)
  6
Continuous
 62
     7
100
AcDbSpline
210
0.0
220
0.0
230
1.0
 70
     8
 71
     3
 72
    11
 73
     7
 74
     0
 42
0.0000000023939648
 43
0.0000000001
 40
0.874998700170327
 40
0.874998700170327
 40
0.874998700170327
 40
0.874998700170327
 40
0.8749992216752192
 40
0.9372039309054224
 40
0.9687083594812744
 40
0.9999964979142849
 40
0.9999964979142849
 40
0.9999964979142849
 40
0.9999964979142849
 10
136.683270135023
 20
440.6960014007801
 30
0.0
 10
136.6832712421042
 20
440.696001606078
 30
0.0
 10
136.8153238858818
 20
440.7204896110327
 30
0.0
 10
136.9644654723323
 20
440.7623318005546
 30
0.0
 10
137.0681337313726
 20
440.8537840939815
 30
0.0
 10
137.077814559803
 20
440.9162268501719
 30
0.0
 10
137.0826357455374
 20
440.9473579289819
 30
0.0
  0
ARC
  5
B9
330
69
100
AcDbEntity
  8
$DDT_AUDIT_GENERATED_(B4)
  6
Continuous
 62
     7
100
AcDbCircle
 10
417.4979316009
 20
226.9198384877
 30
0.0
 40
348.4322594659984
100
AcDbArc
 50
143.830310187
 51
144.8550325472
  0
SPLINE
  5
BA
330
69
100
AcDbEntity
  8
$DDT_AUDIT_GENERATED_(B4)
  6
Continuous
 62
     7
100
AcDbSpline
210
0.0
220
0.0
230
1.0
 70
     8
 71
     3
 72
    22
 73
    18
 74
     0
 42
0.000000000608911
 43
0.0000000001
 40
0.0
 40
0.0
 40
0.0
 40
0.0
 40
0.1249999999999998
 40
0.1249999999999998
 40
0.2499999999999997
 40
0.2499999999999997
 40
0.4999999999999992
 40
0.4999999999999992
 40
0.6249999999999991
 40
0.6249999999999991
 40
0.7499999999999989
 40
0.7499999999999989
 40
0.8124999999999996
 40
0.8124999999999996
 40
0.8750000000000002
 40
0.8750000000000002
 40
1.0
 40
1.0
 40
1.0
 40
1.0
 10
116.3326546661513
 20
426.2834611292651
 30
0.0
 10
117.4162360227496
 20
426.2837112940114
 30
0.0
 10
118.450630795675
 20
426.2849622180586
 30
0.0
 10
120.5318997922626
 20
426.3023533146941
 30
0.0
 10
121.5659947235092
 20
426.317190000698
 30
0.0
 10
124.4868361296139
 20
426.3886965487807
 30
0.0
 10
126.3160014316431
 20
426.4717167183539
 30
0.0
 10
128.5672422213439
 20
426.6347303920548
 30
0.0
 10
129.2525357219318
 20
426.6955891937396
 30
0.0
 10
130.4303513715318
 20
426.829988307273
 30
0.0
 10
130.9372450226646
 20
426.9021069766084
 30
0.0
 10
131.5300793035928
 20
427.0170558042039
 30
0.0
 10
131.7116414438547
 20
427.0560719365341
 30
0.0
 10
132.0153796621971
 20
427.1395291567123
 30
0.0
 10
132.1343455488477
 20
427.1827295858253
 30
0.0
 10
132.4333960850397
 20
427.3128540228782
 30
0.0
 10
132.5206612115275
 20
427.4099588623918
 30
0.0
 10
132.5855057660849
 20
427.4938872615298
 30
0.0
  0
ARC
  5
BB
330
69
100
AcDbEntity
  8
$DDT_AUDIT_GENERATED_(B4)
  6
Continuous
 62
     7
100
AcDbCircle
 10
-184.8326222708
 20
226.9198384861
 30
0.0
 40
348.4322594687326
100
AcDbArc
 50
35.1449674528
 51
36.169689813
  0
ARC
  5
BC
330
69
100
AcDbEntity
  8
$DDT_AUDIT_GENERATED_(B4)
  6
Continuous
 62
     7
100
AcDbCircle
 10
111.4284334378
 20
439.3511343233
 30
0.0
 40
25.70381571441762
100
AcDbArc
 50
344.6735233547
 51
3.5604193125
  0
LINE
  5
BD
330
69
100
AcDbEntity
  8
$DDT_AUDIT_GENERATED_(B4)
  6
Continuous
 62
     7
100
AcDbLine
 10
137.0826387435
 20
421.3475998152
 30
0.0
 11
137.0826387424
 21
440.5223454022
 31
0.0
  0
SPLINE
  5
BE
330
69
100
AcDbEntity
  8
$DDT_AUDIT_GENERATED_(B4)
  6
Continuous
 62
     7
100
AcDbSpline
210
0.0
220
0.0
230
1.0
 70
     8
 71
     3
 72
    16
 73
    12
 74
     0
 42
0.0000000019696859
 43
0.0000000001
 40
0.0
 40
0.0
 40
0.0
 40
0.0
 40
0.1156278187617861
 40
0.2500004524667076
 40
0.4999997025447429
 40
0.7499994163766655
 40
0.8749994711550098
 40
0.8928565818798271
 40
0.9107136455690237
 40
0.9241059566926372
 40
0.9366248394362144
 40
0.9366248394362144
 40
0.9366248394362144
 40
0.9366248394362144
 10
132.5739997758904
 20
419.6884093747466
 30
0.0
 10
132.7574812883439
 20
419.7195749315551
 30
0.0
 10
133.1541890125485
 20
419.7869580539529
 30
0.0
 10
133.9635013376852
 20
420.0084464568472
 30
0.0
 10
134.984831771437
 20
420.3570881885623
 30
0.0
 10
135.9907865249858
 20
420.7441447199883
 30
0.0
 10
136.6267240575981
 20
421.0186290266399
 30
0.0
 10
136.8834906796291
 20
421.1231514237259
 30
0.0
 10
136.9658005478446
 20
421.1618536339443
 30
0.0
 10
137.0264554551809
 20
421.1929505086409
 30
0.0
 10
137.0505563048564
 20
421.2091570775674
 30
0.0
 10
137.0596736990479
 20
421.2177804597133
 30
0.0
  0
SPLINE
  5
BF
330
69
100
AcDbEntity
  8
$DDT_AUDIT_GENERATED_(B4)
  6
Continuous
 62
     7
100
AcDbSpline
210
0.0
220
0.0
230
1.0
 70
     8
 71
     3
 72
    12
 73
     8
 74
     0
 42
0.0000000045928365
 43
0.0000000001
 40
0.9366248394362144
 40
0.9366248394362144
 40
0.9366248394362144
 40
0.9366248394362144
 40
0.9374979735862792
 40
0.9531222031381337
 40
0.9609351746202418
 40
0.9687481083595452
 40
1.0
 40
1.0
 40
1.0
 40
1.0
 10
137.0596736990479
 20
421.2177804597133
 30
0.0
 10
137.0603095951092
 20
421.21838190072
 30
0.0
 10
137.0720922409564
 20
421.2298186876021
 30
0.0
 10
137.0830297423467
 20
421.2489351152271
 30
0.0
 10
137.0826517400642
 20
421.2676432866275
 30
0.0
 10
137.0826751367911
 20
421.2980965640481
 30
0.0
 10
137.0826632808201
 20
421.3255983580138
 30
0.0
 10
137.0826462683652
 20
421.3475983139557
 30
0.0
  0
SPLINE
  5
C0
330
69
100
AcDbEntity
  8
$DDT_AUDIT_GENERATED_(B4)
  6
Continuous
 62
     7
100
AcDbSpline
210
0.0
220
0.0
230
1.0
 70
     8
 71
     3
 72
    18
 73
    14
 74
     0
 42
0.0000000006153896
 43
0.0000000001
 40
0.0
 40
0.0
 40
0.0
 40
0.0
 40
0.036217045105259
 40
0.0777898963484572
 40
0.1251707698603719
 40
0.1876618329621008
 40
0.2501142310399514
 40
0.3342708254542257
 40
0.5020297983819485
 40
0.7511643163406222
 40
0.8758254155759753
 40
0.9391312224330224
 40
1.0
 40
1.0
 40
1.0
 40
1.0
 10
116.3326546661513
 20
419.2916540066313
 30
0.0
 10
116.6359845549295
 20
419.2926232077667
 30
0.0
 10
117.287501003599
 20
419.2947048570516
 30
0.0
 10
118.3324189085062
 20
419.31154988204
 30
0.0
 10
119.5859088989524
 20
419.3409916361265
 30
0.0
 10
120.9897253055615
 20
419.3860284435777
 30
0.0
 10
122.6442402599948
 20
419.4435480840409
 30
0.0
 10
125.0217569913456
 20
419.5215673374071
 30
0.0
 10
128.4179597335745
 20
419.6225164099325
 30
0.0
 10
131.0525851799166
 20
419.7114512888239
 30
0.0
 10
132.1313132757942
 20
419.729323527288
 30
0.0
 10
132.4546912237203
 20
419.6993983369472
 30
0.0
 10
132.5347540578171
 20
419.6920242273777
 30
0.0
 10
132.5739997758904
 20
419.6884093747466
 30
0.0
  0
SPLINE
  5
C1
330
69
100
AcDbEntity
  8
$DDT_AUDIT_GENERATED_(B4)
  6
Continuous
 62
     7
100
AcDbSpline
210
0.0
220
0.0
230
1.0
 70
     8
 71
     3
 72
    22
 73
    18
 74
     0
 42
0.000000000608911
 43
0.0000000001
 40
0.0
 40
0.0
 40
0.0
 40
0.0
 40
0.1249999999999998
 40
0.1249999999999998
 40
0.1875000000000004
 40
0.1875000000000004
 40
0.2500000000000011
 40
0.2500000000000011
 40
0.3750000000000008
 40
0.3750000000000008
 40
0.5000000000000006
 40
0.5000000000000006
 40
0.7500000000000002
 40
0.7500000000000002
 40
0.8750000000000001
 40
0.8750000000000001
 40
1.0
 40
1.0
 40
1.0
 40
1.0
 10
100.0798035662177
 20
427.4938872615298
 30
0.0
 10
100.1446481207783
 20
427.4099588623918
 30
0.0
 10
100.2319132472628
 20
427.3128540228782
 30
0.0
 10
100.5309637834548
 20
427.1827295858253
 30
0.0
 10
100.6499296701052
 20
427.1395291567123
 30
0.0
 10
100.9536678884482
 20
427.0560719365341
 30
0.0
 10
101.1352300287098
 20
427.0170558042039
 30
0.0
 10
101.728064309638
 20
426.9021069766084
 30
0.0
 10
102.2349579607711
 20
426.829988307273
 30
0.0
 10
103.4127736103705
 20
426.6955891937396
 30
0.0
 10
104.0980671109588
 20
426.6347303920548
 30
0.0
 10
106.3493079006592
 20
426.4717167183539
 30
0.0
 10
108.1784732026885
 20
426.3886965487807
 30
0.0
 10
111.0993146087935
 20
426.317190000698
 30
0.0
 10
112.13340954004
 20
426.3023533146941
 30
0.0
 10
114.2146785366276
 20
426.2849622180586
 30
0.0
 10
115.2490733095531
 20
426.2837112940114
 30
0.0
 10
116.3326546661513
 20
426.2834611292651
 30
0.0
  0
SPLINE
  5
C2
330
69
100
AcDbEntity
  8
$DDT_AUDIT_GENERATED_(B4)
  6
Continuous
 62
     7
100
AcDbSpline
210
0.0
220
0.0
230
1.0
 70
     8
 71
     3
 72
    17
 73
    13
 74
     0
 42
0.0000000006153883
 43
0.0000000001
 40
0.0
 40
0.0
 40
0.0
 40
0.0
 40
0.0608704712342175
 40
0.1241780395685722
 40
0.2488426074856912
 40
0.4979840575857079
 40
0.6657476983889308
 40
0.7499066344514524
 40
0.8123607702606066
 40
0.8748535721694893
 40
0.9436947589053745
 40
1.0
 40
1.0
 40
1.0
 40
1.0
 10
100.0913095564122
 20
419.6884093747466
 30
0.0
 10
100.1305552785616
 20
419.6920242159437
 30
0.0
 10
100.2106181209737
 20
419.6993983021872
 30
0.0
 10
100.5339959835827
 20
419.7293237318586
 30
0.0
 10
101.6127249933749
 20
419.7114489296849
 30
0.0
 10
104.2473440073344
 20
419.6225320948904
 30
0.0
 10
107.643562868465
 20
419.5215378056783
 30
0.0
 10
110.0210525206228
 20
419.4435945147702
 30
0.0
 10
111.6756292000663
 20
419.3859017235226
 30
0.0
 10
113.254030334335
 20
419.3358827572357
 30
0.0
 10
114.8126977655581
 20
419.2994439197929
 30
0.0
 10
115.8610054372026
 20
419.294071275969
 30
0.0
 10
116.3326546661513
 20
419.2916540066313
 30
0.0
  0
SPLINE
  5
C3
330
69
100
AcDbEntity
  8
$DDT_AUDIT_GENERATED_(B4)
  6
Continuous
 62
     7
100
AcDbSpline
210
0.0
220
0.0
230
1.0
 70
     8
 71
     3
 72
    12
 73
     8
 74
     0
 42
0.0000000045970945
 43
0.0000000001
 40
0.0
 40
0.0
 40
0.0
 40
0.0
 40
0.0312518918399239
 40
0.0468777906224438
 40
0.054690014089561
 40
0.0625022541856332
 40
0.0633753364802403
 40
0.0633753364802403
 40
0.0633753364802403
 40
0.0633753364802403
 10
95.58266306393735
 20
421.3475983139557
 30
0.0
 10
95.58326098232324
 20
421.325263897217
 30
0.0
 10
95.58416915049162
 20
421.2917600538606
 30
0.0
 10
95.58043883341946
 20
421.2588749873149
 30
0.0
 10
95.58932096546793
 20
421.2369221723852
 30
0.0
 10
95.59880589599669
 20
421.2244394502244
 30
0.0
 10
95.604997429047
 20
421.2183718268867
 30
0.0
 10
95.6056320040533
 20
421.2177664945906
 30
0.0
  0
SPLINE
  5
C4
330
69
100
AcDbEntity
  8
$DDT_AUDIT_GENERATED_(B4)
  6
Continuous
 62
     7
100
AcDbSpline
210
0.0
220
0.0
230
1.0
 70
     8
 71
     3
 72
    16
 73
    12
 74
     0
 42
0.0000000019696793
 43
0.0000000001
 40
0.0633753364802403
 40
0.0633753364802403
 40
0.0633753364802403
 40
0.0633753364802403
 40
0.0803583968315734
 40
0.0982148494272512
 40
0.125000515829623
 40
0.1875005450899393
 40
0.250000578827257
 40
0.5000002942548321
 40
0.7499995459285167
 40
0.884371952826124
 40
1.0
 40
1.0
 40
1.0
 40
1.0
 10
95.6056320040533
 20
421.2177664945906
 30
0.0
 10
95.61797565790596
 20
421.2059916653666
 30
0.0
 10
95.65275048614575
 20
421.1854137940784
 30
0.0
 10
95.75247373959562
 20
421.1354401530646
 30
0.0
 10
95.92490848444484
 20
421.0651289119339
 30
0.0
 10
96.16965877006331
 20
420.9586571161483
 30
0.0
 10
96.77389967649944
 20
420.7101257872413
 30
0.0
 10
97.68096623619124
 20
420.3552089780972
 30
0.0
 10
98.70174192622827
 20
420.0086993743312
 30
0.0
 10
99.51113004794578
 20
419.7869190695644
 30
0.0
 10
99.90783087342477
 20
419.7195626449101
 30
0.0
 10
100.0913095564122
 20
419.6884093747466
 30
0.0
  0
LINE
  5
C5
330
69
100
AcDbEntity
  8
$DDT_AUDIT_GENERATED_(B4)
  6
Continuous
 62
     7
100
AcDbLine
 10
95.5826387447
 20
440.9473515921
 30
0.0
 11
95.5826387435
 21
421.3475998152
 31
0.0
  0
ARC
  5
C6
330
69
100
AcDbEntity
  8
$DDT_AUDIT_GENERATED_(B4)
  6
Continuous
 62
     7
100
AcDbCircle
 10
122.4037443043
 20
439.47136913
 30
0.0
 40
26.86165473439665
100
AcDbArc
 50
176.8501143048
 51
194.9159430279
  0
ARC
  5
C7
330
69
100
AcDbEntity
  8
$DDT_AUDIT_GENERATED_(B4)
  6
Continuous
 62
     7
100
AcDbCircle
 10
128.0541911504
 20
432.9737228916
 30
0.0
 40
15.49112559979166
100
AcDbArc
 50
302.9108635656
 51
302.9938635148
  0
ARC
  5
C8
330
69
100
AcDbEntity
  8
$DDT_AUDIT_GENERATED_(B4)
  6
Continuous
 62
     7
100
AcDbCircle
 10
104.6111181819
 20
432.9737228916
 30
0.0
 40
15.49112559978688
100
AcDbArc
 50
237.005784278
 51
237.0891364344
  0
ARC
  5
C9
330
69
100
AcDbEntity
  8
$DDT_AUDIT_GENERATED_(B4)
  6
Continuous
 62
     7
100
AcDbCircle
 10
116.3587120722
 20
439.7070734604
 30
0.0
 40
25.91276114558098
100
AcDbArc
 50
297.0159874929
 51
298.0950533251
  0
SPLINE
  5
CA
330
69
100
AcDbEntity
  8
$DDT_AUDIT_GENERATED_(B4)
  6
Continuous
 62
     7
100
AcDbSpline
210
0.0
220
0.0
230
1.0
 70
     8
 71
     3
 72
    18
 73
    14
 74
     0
 42
0.0000000007801444
 43
0.0000000001
 40
0.0
 40
0.0
 40
0.0
 40
0.0
 40
0.1249999999999999
 40
0.1249999999999999
 40
0.2499999999999999
 40
0.2499999999999999
 40
0.5000000000000007
 40
0.5000000000000007
 40
0.7500000000000013
 40
0.7500000000000013
 40
0.8750000000000007
 40
0.8750000000000007
 40
0.9644796562083262
 40
0.9644796562083262
 40
0.9644796562083262
 40
0.9644796562083262
 10
116.3326457498917
 20
416.9830849106769
 30
0.0
 10
115.4905723481882
 20
416.9830797609799
 30
0.0
 10
114.66399953457
 20
416.998413731503
 30
0.0
 10
113.0398589731521
 20
417.0427561748541
 30
0.0
 10
112.2336129812776
 20
417.0713686045095
 30
0.0
 10
109.9456531208766
 20
417.1505781194595
 30
0.0
 10
108.554990496209
 20
417.1944110825851
 30
0.0
 10
106.2885848049015
 20
417.2352071255844
 30
0.0
 10
105.3939548834003
 20
417.2377869993816
 30
0.0
 10
104.5420788010534
 20
417.1563996551461
 30
0.0
 10
104.3338550490309
 20
417.1126041835491
 30
0.0
 10
104.1261034381352
 20
417.0060557584941
 30
0.0
 10
104.082498893345
 20
416.9522014714952
 30
0.0
 10
104.0826215132426
 20
416.9030537311847
 30
0.0
  0
ARC
  5
CB
330
69
100
AcDbEntity
  8
$DDT_AUDIT_GENERATED_(B4)
  6
Continuous
 62
     7
100
AcDbCircle
 10
116.306936292
 20
439.7082603956
 30
0.0
 40
25.91394773876087
100
AcDbArc
 50
241.9058186599
 51
242.953477057
  0
SPLINE
  5
CC
330
69
100
AcDbEntity
  8
$DDT_AUDIT_GENERATED_(B4)
  6
Continuous
 62
     7
100
AcDbSpline
210
0.0
220
0.0
230
1.0
 70
     8
 71
     3
 72
    18
 73
    14
 74
     0
 42
0.0000000007801276
 43
0.0000000001
 40
0.0355302066335071
 40
0.0355302066335071
 40
0.0355302066335071
 40
0.0355302066335071
 40
0.125
 40
0.125
 40
0.2500000000000001
 40
0.2500000000000001
 40
0.5
 40
0.5
 40
0.7499999999999999
 40
0.7499999999999999
 40
0.875
 40
0.875
 40
1.0
 40
1.0
 40
1.0
 40
1.0
 10
128.5828143062189
 20
416.903055760831
 30
0.0
 10
128.5829546960662
 20
416.9521224612716
 30
0.0
 10
128.5394922766086
 20
417.0058357360172
 30
0.0
 10
128.333126531332
 20
417.1120885882297
 30
0.0
 10
128.1256238101061
 20
417.1561134240034
 30
0.0
 10
127.2727028345586
 20
417.2379009761348
 30
0.0
 10
126.3791688755441
 20
417.2352460332004
 30
0.0
 10
124.1135877410696
 20
417.1945167987947
 30
0.0
 10
122.7203610984775
 20
417.1506146597428
 30
0.0
 10
120.4400708437326
 20
417.0716692261402
 30
0.0
 10
119.6334322557829
 20
417.0430092583895
 30
0.0
 10
118.0029599186359
 20
416.9984353139504
 30
0.0
 10
117.1746939329209
 20
416.9830817260601
 30
0.0
 10
116.3326457498917
 20
416.9830849106769
 30
0.0
  0
SPLINE
  5
CD
330
69
100
AcDbEntity
  8
$DDT_AUDIT_GENERATED_(B4)
  6
Continuous
 62
     7
100
AcDbSpline
210
0.0
220
0.0
230
1.0
 70
     8
 71
     3
 72
     8
 73
     4
 74
     0
 42
0.0000000221250222
 43
0.0000000001
 40
0.0
 40
0.0
 40
0.0
 40
0.0
 40
1.0
 40
1.0
 40
1.0
 40
1.0
 10
95.98204263835403
 20
440.6960176511094
 30
0.0
 10
95.73067304842964
 20
440.564788243779
 30
0.0
 10
95.60749840228894
 20
440.4878547224923
 30
0.0
 10
95.61251869993193
 20
440.4652170872496
 30
0.0
  0
SPLINE
  5
CE
330
69
100
AcDbEntity
  8
$DDT_AUDIT_GENERATED_(B4)
  6
Continuous
 62
     7
100
AcDbSpline
210
0.0
220
0.0
230
1.0
 70
     8
 71
     3
 72
     8
 73
     4
 74
     0
 42
0.0000000221250222
 43
0.0000000001
 40
0.0
 40
0.0
 40
0.0
 40
0.0
 40
1.0
 40
1.0
 40
1.0
 40
1.0
 10
137.0527906323715
 20
440.4652170872737
 30
0.0
 10
137.0578109300147
 20
440.4878547225114
 30
0.0
 10
136.9346362838742
 20
440.5647882437901
 30
0.0
 10
136.6832666939499
 20
440.6960176511097
 30
0.0
  0
ARC
  5
CF
330
69
100
AcDbEntity
  8
$DDT_AUDIT_GENERATED_(B4)
  6
Continuous
 62
     7
100
AcDbCircle
 10
134.9590075312
 20
421.2807421118
 30
0.0
 40
2.102092515778184
100
AcDbArc
 50
318.1833497391
 51
358.2960243031
  0
ARC
  5
D0
330
69
100
AcDbEntity
  8
$DDT_AUDIT_GENERATED_(B4)
  6
Continuous
 62
     7
100
AcDbCircle
 10
97.7063018011
 20
421.2807421118
 30
0.0
 40
2.102092515777529
100
AcDbArc
 50
181.7039756969
 51
221.8166502609
  0
ARC
  5
D1
330
69
100
AcDbEntity
  8
$DDT_AUDIT_GENERATED_(B4)
  6
Continuous
 62
     7
100
AcDbCircle
 10
116.3241252801
 20
437.1927909258
 30
0.0
 40
26.60558502174327
100
AcDbArc
 50
296.3540954943
 51
319.3460514725
  0
ARC
  5
D2
330
69
100
AcDbEntity
  8
$DDT_AUDIT_GENERATED_(B4)
  6
Continuous
 62
     7
100
AcDbCircle
 10
116.3426990022
 20
437.1975345375
 30
0.0
 40
26.61032915479629
100
AcDbArc
 50
220.6592186544
 51
243.640559759
  0
LINE
  5
D3
330
69
100
AcDbEntity
  8
$DDT_AUDIT_GENERATED_(B4)
  6
Continuous
 62
     7
100
AcDbLine
 10
95.5826387435
 20
465.9757148195
 30
0.0
 11
95.5826387435
 21
441.0214019419
 31
0.0
  0
LINE
  5
D4
330
69
100
AcDbEntity
  8
$DDT_AUDIT_GENERATED_(B4)
  6
Continuous
 62
     7
100
AcDbLine
 10
137.0826387435
 20
441.021403649
 30
0.0
 11
137.0826387435
 21
467.1217235338
 31
0.0
  0
ARC
  5
D6
330
69
100
AcDbEntity
  8
09719038_ROSETTE
  6
Continuous
 62
     7
100
AcDbCircle
 10
41.3327178974
 20
483.0311907023
 30
0.0
 40
34.98271789740584
100
AcDbArc
 50
36.8724877754
 51
323.2025592727
  0
ARC
  5
D7
330
69
100
AcDbEntity
  8
09719038_ROSETTE
  6
Continuous
 62
     7
100
AcDbCircle
 10
191.3327178974
 20
483.0311907023
 30
0.0
 40
34.98271789740584
100
AcDbArc
 50
0.0
 51
143.0911051255
  0
ARC
  5
D8
330
69
100
AcDbEntity
  8
09719038_ROSETTE
  6
Continuous
 62
     7
100
AcDbCircle
 10
191.3327178974
 20
483.0311907023
 30
0.0
 40
34.98271789740584
100
AcDbArc
 50
216.7407495196
 51
0.0
  0
ELLIPSE
  5
DA
330
69
100
AcDbEntity
  8
02636038_GEHÄUSE
  6
Continuous
 62
     7
100
AcDbEllipse
 10
116.332717947
 20
409.7269412276
 30
0.0
 11
10.05000000000001
 21
0.0
 31
0.0
210
0.0
220
0.0
230
1.0
 40
0.1218693434
 41
5.796669345883604
 42
6.283185307179586
  0
ELLIPSE
  5
DB
330
69
100
AcDbEntity
  8
02636038_GEHÄUSE
  6
Continuous
 62
     7
100
AcDbEllipse
 10
116.332717947
 20
409.7269412276
 30
0.0
 11
10.05000000000001
 21
0.0
 31
0.0
210
0.0
220
0.0
230
1.0
 40
0.1218693434
 41
0.0
 42
3.628108614885775
  0
ELLIPSE
  5
DC
330
69
100
AcDbEntity
  8
02636038_GEHÄUSE
  6
Continuous
 62
     7
100
AcDbEllipse
 10
116.332717947
 20
409.7269412276
 30
0.0
 11
10.75000000000001
 21
0.0
 31
0.0
210
0.0
220
0.0
230
1.0
 40
0.1218693434
 41
5.582186854203461
 42
6.283185307179586
  0
ELLIPSE
  5
DD
330
69
100
AcDbEntity
  8
02636038_GEHÄUSE
  6
Continuous
 62
     7
100
AcDbEllipse
 10
116.332717947
 20
409.7269412276
 30
0.0
 11
10.75000000000001
 21
0.0
 31
0.0
210
0.0
220
0.0
230
1.0
 40
0.1218693434
 41
0.0
 42
3.842591106565916
  0
LINE
  5
DE
330
69
100
AcDbEntity
  8
02636038_GEHÄUSE
  6
Continuous
 62
     7
100
AcDbLine
 10
105.332717947
 20
410.3573324358
 30
0.0
 11
105.332717947
 21
409.7260151506
 31
0.0
  0
ELLIPSE
  5
DF
330
69
100
AcDbEntity
  8
02636038_GEHÄUSE
  6
Continuous
 62
     7
100
AcDbEllipse
 10
116.332717947
 20
412.7045796825
 30
0.0
 11
11.80000000000002
 21
-5.551115123125783E-14
 31
0.0
210
0.0
220
0.0
230
1.0
 40
0.1218693434
 41
2.771250021498079
 42
3.511935285681512
  0
LINE
  5
E0
330
69
100
AcDbEntity
  8
02636038_GEHÄUSE
  6
Continuous
 62
     7
100
AcDbLine
 10
105.332717947
 20
413.225063089
 30
0.0
 11
105.332717947
 21
411.4221705491
 31
0.0
  0
LINE
  5
E1
330
69
100
AcDbEntity
  8
02636038_GEHÄUSE
  6
Continuous
 62
     7
100
AcDbLine
 10
105.332717947
 20
411.4221705491
 30
0.0
 11
105.332717947
 21
410.3573324358
 31
0.0
  0
LINE
  5
E2
330
69
100
AcDbEntity
  8
02636038_GEHÄUSE
  6
Continuous
 62
     7
100
AcDbLine
 10
127.332717947
 20
409.7260151506
 30
0.0
 11
127.332717947
 21
410.3573324358
 31
0.0
  0
ELLIPSE
  5
E3
330
69
100
AcDbEntity
  8
02636038_GEHÄUSE
  6
Continuous
 62
     7
100
AcDbEllipse
 10
116.332717947
 20
412.7045796825
 30
0.0
 11
-11.80000000000019
 21
5.551115123125783E-14
 31
0.0
210
0.0
220
0.0
230
1.0
 40
0.1218693434
 41
2.771250021498084
 42
3.51193528568151
  0
LINE
  5
E4
330
69
100
AcDbEntity
  8
02636038_GEHÄUSE
  6
Continuous
 62
     7
100
AcDbLine
 10
127.332717947
 20
410.3573324358
 30
0.0
 11
127.332717947
 21
411.4221705491
 31
0.0
  0
LINE
  5
E5
330
69
100
AcDbEntity
  8
02636038_GEHÄUSE
  6
Continuous
 62
     7
100
AcDbLine
 10
127.332717947
 20
411.4221705491
 30
0.0
 11
127.332717947
 21
413.225063089
 31
0.0
  0
LINE
  5
E6
330
69
100
AcDbEntity
  8
02636038_GEHÄUSE
  6
Continuous
 62
     7
100
AcDbLine
 10
105.332717947
 20
409.7260054759
 30
0.0
 11
105.8286319576
 21
409.4483244119
 31
0.0
  0
LINE
  5
E7
330
69
100
AcDbEntity
  8
02636038_GEHÄUSE
  6
Continuous
 62
     7
100
AcDbLine
 10
126.8368039363
 20
409.4483244119
 30
0.0
 11
127.332717947
 21
409.7260054759
 31
0.0
  0
LINE
  5
E8
330
69
100
AcDbEntity
  8
02636038_GEHÄUSE
  6
Continuous
 62
     7
100
AcDbLine
 10
104.532717947
 20
417.134432996
 30
0.0
 11
104.532717947
 21
412.7045796825
 31
0.0
  0
LINE
  5
E9
330
69
100
AcDbEntity
  8
02636038_GEHÄUSE
  6
Continuous
 62
     7
100
AcDbLine
 10
128.132717947
 20
412.7045796825
 30
0.0
 11
128.132717947
 21
417.1426210072
 31
0.0
  0
ELLIPSE
  5
EB
330
69
100
AcDbEntity
  8
$DDT_AUDIT_GENERATED_(EA)
  6
Continuous
 62
     7
100
AcDbEllipse
 10
116.332717947
 20
409.329922767
 30
0.0
 11
-9.0
 21
0.0
 31
0.0
210
0.0
220
0.0
230
1.0
 40
0.1218693434
 41
0.0
 42
6.283185307179586
  0
ELLIPSE
  5
EC
330
69
100
AcDbEntity
  8
$DDT_AUDIT_GENERATED_(EA)
  6
Continuous
 62
     7
100
AcDbEllipse
 10
116.332717947
 20
409.329922767
 30
0.0
 11
-5.249999999999997
 21
0.0
 31
0.0
210
0.0
220
0.0
230
1.0
 40
0.1218693434
 41
0.0
 42
6.283185307179586
  0
ELLIPSE
  5
ED
330
69
100
AcDbEntity
  8
$DDT_AUDIT_GENERATED_(EA)
  6
Continuous
 62
     7
100
AcDbEllipse
 10
116.332717947
 20
409.329922767
 30
0.0
 11
6.249999999999998
 21
0.0
 31
0.0
210
0.0
220
0.0
230
1.0
 40
0.1218693434
 41
0.0
 42
6.283185307179586
  0
ELLIPSE
  5
EE
330
69
100
AcDbEntity
  8
$DDT_AUDIT_GENERATED_(EA)
  6
Continuous
 62
     7
100
AcDbEllipse
 10
116.332717947
 20
409.329922767
 30
0.0
 11
2.750000000000002
 21
0.0
 31
0.0
210
0.0
220
0.0
230
1.0
 40
0.1218693434
 41
0.0
 42
6.283185307179586
  0
ELLIPSE
  5
EF
330
69
100
AcDbEntity
  8
$DDT_AUDIT_GENERATED_(EA)
  6
Continuous
 62
     7
100
AcDbEllipse
 10
116.332717947
 20
409.329922767
 30
0.0
 11
2.150000000000001
 21
0.0
 31
0.0
210
0.0
220
0.0
230
1.0
 40
0.1218693434
 41
0.0
 42
6.283185307179586
  0
ELLIPSE
  5
F0
330
69
100
AcDbEntity
  8
$DDT_AUDIT_GENERATED_(EA)
  6
Continuous
 62
     7
100
AcDbEllipse
 10
116.332717947
 20
409.5284319973
 30
0.0
 11
0.5196299438963559
 21
0.0
 31
0.0
210
0.0
220
0.0
230
1.0
 40
0.1218693434
 41
0.0
 42
6.283185307179586
  0
ELLIPSE
  5
F1
330
69
100
AcDbEntity
  8
$DDT_AUDIT_GENERATED_(EA)
  6
Continuous
 62
     7
100
AcDbEllipse
 10
116.332717947
 20
409.329922767
 30
0.0
 11
-8.699999999999998
 21
0.0
 31
0.0
210
0.0
220
0.0
230
1.0
 40
0.1218693434
 41
0.0
 42
6.283185307179586
  0
ARC
  5
F2
330
69
100
AcDbEntity
  8
$DDT_AUDIT_GENERATED_(EA)
  6
Continuous
 62
     7
100
AcDbCircle
 10
124.7058952649
 20
409.5284319973
 30
0.0
 40
0.1268213380930337
100
AcDbArc
 50
354.4856357656
 51
5.5143642344
  0
ARC
  5
F3
330
69
100
AcDbEntity
  8
$DDT_AUDIT_GENERATED_(EA)
  6
Continuous
 62
     7
100
AcDbCircle
 10
122.4891039229
 20
409.5284319973
 30
0.0
 40
0.0936106561100078
100
AcDbArc
 50
0.0
 51
7.4804255323
  0
ELLIPSE
  5
F4
330
69
100
AcDbEntity
  8
$DDT_AUDIT_GENERATED_(EA)
  6
Continuous
 62
     7
100
AcDbEllipse
 10
116.3327179469
 20
409.5284319973
 30
0.0
 11
8.500000000036499
 21
7.632783294297951E-13
 31
0.0
210
0.0
220
0.0
230
1.0
 40
0.1218693434
 41
0.0117649772880837
 42
0.0284170691507308
  0
LINE
  5
F5
330
69
100
AcDbEntity
  8
$DDT_AUDIT_GENERATED_(EA)
  6
Continuous
 62
     7
100
AcDbLine
 10
122.5819178958
 20
409.5406189316
 30
0.0
 11
122.5819178958
 21
409.7198814799
 31
0.0
  0
ELLIPSE
  5
F6
330
69
100
AcDbEntity
  8
$DDT_AUDIT_GENERATED_(EA)
  6
Continuous
 62
     7
100
AcDbEllipse
 10
116.3327183699
 20
409.5284319835
 30
0.0
 11
8.499999576858041
 21
1.352941370047489E-8
 31
0.0
210
0.0
220
0.0
230
1.0
 40
0.1218693461
 41
-0.2735643720233289
 42
-0.2500344168412161
  0
ELLIPSE
  5
F7
330
69
100
AcDbEntity
  8
$DDT_AUDIT_GENERATED_(EA)
  6
Continuous
 62
     7
100
AcDbEllipse
 10
116.332717947
 20
409.5284319973
 30
0.0
 11
8.499999999996135
 21
-1.110223024625157E-13
 31
0.0
210
0.0
220
0.0
230
1.0
 40
0.1218693434
 41
6.033150896668459
 42
6.271420329891493
  0
ELLIPSE
  5
F8
330
69
100
AcDbEntity
  8
$DDT_AUDIT_GENERATED_(EA)
  6
Continuous
 62
     7
100
AcDbEllipse
 10
116.3327183558
 20
409.5284319685
 30
0.0
 11
8.499999586960842
 21
2.528488529662809E-8
 31
0.0
210
0.0
220
0.0
230
1.0
 40
0.1218693451
 41
-0.5353637656002972
 42
-0.5118338103707458
  0
ELLIPSE
  5
F9
330
69
100
AcDbEntity
  8
$DDT_AUDIT_GENERATED_(EA)
  6
Continuous
 62
     7
100
AcDbEllipse
 10
116.332717947
 20
409.5284319973
 30
0.0
 11
8.499999999995918
 21
4.163336342344337E-14
 31
0.0
210
0.0
220
0.0
230
1.0
 40
0.1218693434
 41
-0.5118337983103309
 42
-0.2735643650873012
  0
ELLIPSE
  5
FA
330
69
100
AcDbEntity
  8
$DDT_AUDIT_GENERATED_(EA)
  6
Continuous
 62
     7
100
AcDbEllipse
 10
116.3327182564
 20
409.5284319596
 30
0.0
 11
8.499999671834859
 21
2.708026858311285E-8
 31
0.0
210
0.0
220
0.0
230
1.0
 40
0.1218693434
 41
-0.7971631542493451
 42
-0.7736331990675973
  0
ELLIPSE
  5
FB
330
69
100
AcDbEntity
  8
$DDT_AUDIT_GENERATED_(EA)
  6
Continuous
 62
     7
100
AcDbEllipse
 10
116.332717947
 20
409.5284319973
 30
0.0
 11
8.499999999972706
 21
2.303712776097200E-12
 31
0.0
210
0.0
220
0.0
230
1.0
 40
0.1218693434
 41
-0.773633186110569
 42
-0.5353637528871351
  0
ELLIPSE
  5
FC
330
69
100
AcDbEntity
  8
$DDT_AUDIT_GENERATED_(EA)
  6
Continuous
 62
     7
100
AcDbEllipse
 10
116.3327181743
 20
409.5284319494
 30
0.0
 11
8.499999715916726
 21
2.433363233134145E-8
 31
0.0
210
0.0
220
0.0
230
1.0
 40
0.1218693418
 41
-1.058962540727813
 42
-1.035432585522473
  0
ELLIPSE
  5
FD
330
69
100
AcDbEntity
  8
$DDT_AUDIT_GENERATED_(EA)
  6
Continuous
 62
     7
100
AcDbEllipse
 10
116.332717947
 20
409.5284319973
 30
0.0
 11
8.500000000008967
 21
-1.026956297778270E-12
 31
0.0
210
0.0
220
0.0
230
1.0
 40
0.1218693434
 41
-1.035432573908023
 42
-0.7971631406852397
  0
ELLIPSE
  5
FE
330
69
100
AcDbEntity
  8
$DDT_AUDIT_GENERATED_(EA)
  6
Continuous
 62
     7
100
AcDbEllipse
 10
116.3327180646
 20
409.5284319439
 30
0.0
 11
8.499999757699356
 21
1.404105998137339E-8
 31
0.0
210
0.0
220
0.0
230
1.0
 40
0.1218693406
 41
-1.320761923479654
 42
-1.297231968274513
  0
ELLIPSE
  5
FF
330
69
100
AcDbEntity
  8
$DDT_AUDIT_GENERATED_(EA)
  6
Continuous
 62
     7
100
AcDbEllipse
 10
116.332717947
 20
409.5284319973
 30
0.0
 11
8.499999999999744
 21
1.665334536937735E-13
 31
0.0
210
0.0
220
0.0
230
1.0
 40
0.1218693434
 41
-1.297231961707697
 42
-1.058962528484725
  0
ARC
  5
100
330
69
100
AcDbEntity
  8
$DDT_AUDIT_GENERATED_(EA)
  6
Continuous
 62
     7
100
AcDbCircle
 10
116.332717947
 20
478.2346142402
 30
0.0
 40
69.74207166431182
100
AcDbArc
 50
269.9178461468
 51
270.0821538532
  0
ELLIPSE
  5
101
330
69
100
AcDbEntity
  8
$DDT_AUDIT_GENERATED_(EA)
  6
Continuous
 62
     7
100
AcDbEllipse
 10
116.332717947
 20
409.5284319973
 30
0.0
 11
8.499999999991509
 21
2.359223927328458E-13
 31
0.0
210
0.0
220
0.0
230
1.0
 40
0.1218693434
 41
4.724153957672558
 42
4.962423390895745
  0
ELLIPSE
  5
102
330
69
100
AcDbEntity
  8
$DDT_AUDIT_GENERATED_(EA)
  6
Continuous
 62
     7
100
AcDbEllipse
 10
116.3327178272
 20
409.5284319428
 30
0.0
 11
-8.499999753130192
 21
1.432823304448050E-8
 31
0.0
210
0.0
220
0.0
230
1.0
 40
0.1218693405
 41
1.297231968402036
 42
1.320761923618329
  0
ELLIPSE
  5
103
330
69
100
AcDbEntity
  8
$DDT_AUDIT_GENERATED_(EA)
  6
Continuous
 62
     7
100
AcDbEllipse
 10
116.332717947
 20
409.5284319973
 30
0.0
 11
-8.499999999997291
 21
1.387778780781446E-13
 31
0.0
210
0.0
220
0.0
230
1.0
 40
0.1218693434
 41
1.320761916283834
 42
1.559031349506883
  0
ELLIPSE
  5
104
330
69
100
AcDbEntity
  8
$DDT_AUDIT_GENERATED_(EA)
  6
Continuous
 62
     7
100
AcDbEllipse
 10
116.3327177194
 20
409.5284319492
 30
0.0
 11
-8.49999971552494
 21
2.441406798947554E-8
 31
0.0
210
0.0
220
0.0
230
1.0
 40
0.1218693418
 41
1.035432585537732
 42
1.058962540743882
  0
ELLIPSE
  5
105
330
69
100
AcDbEntity
  8
$DDT_AUDIT_GENERATED_(EA)
  6
Continuous
 62
     7
100
AcDbEllipse
 10
116.332717947
 20
409.5284319973
 30
0.0
 11
-8.499999999996328
 21
1.387778780781446E-14
 31
0.0
210
0.0
220
0.0
230
1.0
 40
0.1218693434
 41
1.058962528484776
 42
1.297231961707837
  0
ELLIPSE
  5
106
330
69
100
AcDbEntity
  8
$DDT_AUDIT_GENERATED_(EA)
  6
Continuous
 62
     7
100
AcDbEllipse
 10
116.3327176375
 20
409.5284319595
 30
0.0
 11
-8.499999671756298
 21
2.708358537439892E-8
 31
0.0
210
0.0
220
0.0
230
1.0
 40
0.1218693434
 41
0.7736331990641447
 42
0.797163154246191
  0
ELLIPSE
  5
107
330
69
100
AcDbEntity
  8
$DDT_AUDIT_GENERATED_(EA)
  6
Continuous
 62
     7
100
AcDbEllipse
 10
116.332717947
 20
409.5284319973
 30
0.0
 11
-8.500000000022871
 21
-1.651456749129920E-12
 31
0.0
210
0.0
220
0.0
230
1.0
 40
0.1218693434
 41
0.7971631406848021
 42
1.035432573907304
  0
ELLIPSE
  5
108
330
69
100
AcDbEntity
  8
$DDT_AUDIT_GENERATED_(EA)
  6
Continuous
 62
     7
100
AcDbEllipse
 10
116.3327175093
 20
409.5284319665
 30
0.0
 11
-8.499999557790593
 21
2.707128965440120E-8
 31
0.0
210
0.0
220
0.0
230
1.0
 40
0.1218693452
 41
0.5118338112243661
 42
0.5353637664999858
  0
ELLIPSE
  5
109
330
69
100
AcDbEntity
  8
$DDT_AUDIT_GENERATED_(EA)
  6
Continuous
 62
     7
100
AcDbEllipse
 10
116.332717947
 20
409.5284319973
 30
0.0
 11
-8.499999999975632
 21
1.304512053934559E-12
 31
0.0
210
0.0
220
0.0
230
1.0
 40
0.1218693434
 41
0.5353637528870687
 42
0.77363318611046
  0
ELLIPSE
  5
10A
330
69
100
AcDbEntity
  8
$DDT_AUDIT_GENERATED_(EA)
  6
Continuous
 62
     7
100
AcDbEllipse
 10
116.3327174583
 20
409.5284319813
 30
0.0
 11
-8.499999511007339
 21
1.568603580359706E-8
 31
0.0
210
0.0
220
0.0
230
1.0
 40
0.1218693465
 41
0.250034417827137
 42
0.2735643731035347
  0
ELLIPSE
  5
10B
330
69
100
AcDbEntity
  8
$DDT_AUDIT_GENERATED_(EA)
  6
Continuous
 62
     7
100
AcDbEllipse
 10
116.3327179469
 20
409.5284319973
 30
0.0
 11
-8.49999999997042
 21
1.262878690511116E-12
 31
0.0
210
0.0
220
0.0
230
1.0
 40
0.1218693434
 41
0.2735643650877179
 42
0.5118337983111331
  0
ARC
  5
10C
330
69
100
AcDbEntity
  8
$DDT_AUDIT_GENERATED_(EA)
  6
Continuous
 62
     7
100
AcDbCircle
 10
107.9595406291
 20
409.5284319973
 30
0.0
 40
0.1268213380932198
100
AcDbArc
 50
174.4856357657
 51
185.5143642344
  0
ELLIPSE
  5
10D
330
69
100
AcDbEntity
  8
$DDT_AUDIT_GENERATED_(EA)
  6
Continuous
 62
     7
100
AcDbEllipse
 10
116.332717947
 20
409.5284319973
 30
0.0
 11
-8.499999999997174
 21
-1.110223024625157E-12
 31
0.0
210
0.0
220
0.0
230
1.0
 40
0.1218693434
 41
0.0117649772880931
 42
0.2500344105110914
  0
ARC
  5
10E
330
69
100
AcDbEntity
  8
$DDT_AUDIT_GENERATED_(EA)
  6
Continuous
 62
     7
100
AcDbCircle
 10
110.1763319711
 20
409.5284319973
 30
0.0
 40
0.0936106561099837
100
AcDbArc
 50
172.5195744677
 51
180.0
  0
LINE
  5
10F
330
69
100
AcDbEntity
  8
$DDT_AUDIT_GENERATED_(EA)
  6
Continuous
 62
     7
100
AcDbLine
 10
110.0835179982
 20
409.5406189316
 30
0.0
 11
110.0835179982
 21
409.7198814799
 31
0.0
  0
ELLIPSE
  5
110
330
69
100
AcDbEntity
  8
$DDT_AUDIT_GENERATED_(EA)
  6
Continuous
 62
     7
100
AcDbEllipse
 10
116.332717947
 20
409.5284319973
 30
0.0
 11
-8.50000000003204
 21
6.938893903907228E-13
 31
0.0
210
0.0
220
0.0
230
1.0
 40
0.1218693434
 41
-0.0284170691506445
 42
-0.0117649772880082
  0
LINE
  5
111
330
69
100
AcDbEntity
  8
$DDT_AUDIT_GENERATED_(EA)
  6
Continuous
 62
     7
100
AcDbLine
 10
107.332717947
 20
410.2719915625
 30
0.0
 11
107.332717947
 21
409.329922767
 31
0.0
  0
LINE
  5
112
330
69
100
AcDbEntity
  8
$DDT_AUDIT_GENERATED_(EA)
  6
Continuous
 62
     7
100
AcDbLine
 10
125.332717947
 20
409.329922767
 30
0.0
 11
125.332717947
 21
410.2719915625
 31
0.0
  0
LINE
  5
113
330
69
100
AcDbEntity
  8
$DDT_AUDIT_GENERATED_(EA)
  6
Continuous
 62
     7
100
AcDbLine
 10
110.082717947
 20
409.5284319973
 30
0.0
 11
110.082717947
 21
409.329922767
 31
0.0
  0
LINE
  5
114
330
69
100
AcDbEntity
  8
$DDT_AUDIT_GENERATED_(EA)
  6
Continuous
 62
     7
100
AcDbLine
 10
122.582717947
 20
409.329922767
 30
0.0
 11
122.582717947
 21
409.5284319973
 31
0.0
  0
LINE
  5
115
330
69
100
AcDbEntity
  8
$DDT_AUDIT_GENERATED_(EA)
  6
Continuous
 62
     7
100
AcDbLine
 10
113.582717947
 20
409.5284319973
 30
0.0
 11
113.582717947
 21
409.329922767
 31
0.0
  0
LINE
  5
116
330
69
100
AcDbEntity
  8
$DDT_AUDIT_GENERATED_(EA)
  6
Continuous
 62
     7
100
AcDbLine
 10
119.082717947
 20
409.329922767
 30
0.0
 11
119.082717947
 21
409.5284319973
 31
0.0
  0
LINE
  5
117
330
69
100
AcDbEntity
  8
$DDT_AUDIT_GENERATED_(EA)
  6
Continuous
 62
     7
100
AcDbLine
 10
115.8130880031
 20
409.5841740182
 30
0.0
 11
115.8130880031
 21
409.5284319973
 31
0.0
  0
LINE
  5
118
330
69
100
AcDbEntity
  8
$DDT_AUDIT_GENERATED_(EA)
  6
Continuous
 62
     7
100
AcDbLine
 10
116.8523478909
 20
409.5284319973
 30
0.0
 11
116.8523478909
 21
409.5841740182
 31
0.0
  0
ENDBLK
  5
11A
330
69
100
AcDbEntity
  8
0
100
AcDbBlockEnd
  0
BLOCK
  5
19B
330
11B
100
AcDbEntity
  8
0
100
AcDbBlockBegin
  2
SE1
 70
     0
 10
0.0
 20
0.0
 30
0.0
  3
SE1
  1

  0
ARC
  5
11D
330
11B
100
AcDbEntity
  8
$DDT_AUDIT_GENERATED_(6B)
  6
Continuous
 62
     7
100
AcDbCircle
 10
416.179418225
 20
412.610892959
 30
0.0
 40
55.43373568797286
100
AcDbArc
 50
88.5003070602
 51
92.6992877323
  0
LINE
  5
11E
330
11B
100
AcDbEntity
  8
$DDT_AUDIT_GENERATED_(6B)
  6
Continuous
 62
     7
100
AcDbLine
 10
417.6302072793
 20
468.0256406661
 30
0.0
 11
417.6302072793
 21
475.4690153922
 31
0.0
  0
LINE
  5
11F
330
11B
100
AcDbEntity
  8
$DDT_AUDIT_GENERATED_(6B)
  6
Continuous
 62
     7
100
AcDbLine
 10
417.6302072793
 20
475.4690153922
 30
0.0
 11
417.6302072793
 21
498.4599039376
 31
0.0
  0
SPLINE
  5
120
330
11B
100
AcDbEntity
  8
$DDT_AUDIT_GENERATED_(6B)
  6
Continuous
 62
     7
100
AcDbSpline
210
0.0
220
0.0
230
1.0
 70
     8
 71
     3
 72
    40
 73
    36
 74
     0
 42
0.0000000003253338
 43
0.0000000001
 40
0.0
 40
0.0
 40
0.0
 40
0.0
 40
0.0053191489361702
 40
0.0106382978723404
 40
0.0159574468085106
 40
0.0212765957446808
 40
0.026595744680851
 40
0.0319148936170212
 40
0.0372340425531916
 40
0.0425531914893618
 40
0.047872340425532
 40
0.0531914893617022
 40
0.0638297872340426
 40
0.074468085106383
 40
0.0851063829787234
 40
0.1063829787234042
 40
0.1276595744680852
 40
0.148936170212766
 40
0.1702127659574474
 40
0.1914893617021269
 40
0.212765957446808
 40
0.2340425531914891
 40
0.2553191489361703
 40
0.2765957446808514
 40
0.2978723404255325
 40
0.3191489361702121
 40
0.3404255319148932
 40
0.3617021276595743
 40
0.3829787234042554
 40
0.4042553191489365
 40
0.4255319148936177
 40
0.4468085106382972
 40
0.4680851063829783
 40
0.4893617021276594
 40
0.500223688422385
 40
0.500223688422385
 40
0.500223688422385
 40
0.500223688422385
 10
417.6302072792871
 20
468.0256406661107
 30
0.0
 10
417.7272527746363
 20
468.0248542293787
 30
0.0
 10
417.920969174133
 20
468.0234334438369
 30
0.0
 10
418.2101725148484
 20
468.021612798226
 30
0.0
 10
418.4977571121104
 20
468.0199569542523
 30
0.0
 10
418.7834754809952
 20
468.0183201808513
 30
0.0
 10
419.0670801365786
 20
468.0165567469584
 30
0.0
 10
419.3483517002502
 20
468.0147276915532
 30
0.0
 10
419.627070793399
 20
468.0128940536154
 30
0.0
 10
419.9030180374141
 20
468.0111168721245
 30
0.0
 10
420.1759740536847
 20
468.00945718606
 30
0.0
 10
420.536931405527
 20
468.0073762857913
 30
0.0
 10
420.9844161527465
 20
468.0049764762037
 30
0.0
 10
421.5214845441215
 20
468.0022709333863
 30
0.0
 10
422.2255534152279
 20
467.9989450743723
 30
0.0
 10
423.0603390771058
 20
467.9954079216674
 30
0.0
 10
424.0554692716383
 20
467.9915136509242
 30
0.0
 10
424.9840647318261
 20
467.9881409894855
 30
0.0
 10
425.8962689265901
 20
467.9850080931811
 30
0.0
 10
426.7366152693364
 20
467.9822635648121
 30
0.0
 10
427.5430645933353
 20
467.9797489200675
 30
0.0
 10
428.302937071152
 20
467.9774831483091
 30
0.0
 10
429.0109921726059
 20
467.9754556945117
 30
0.0
 10
429.6580229838617
 20
467.9736671947825
 30
0.0
 10
430.259237016319
 20
467.9720568188804
 30
0.0
 10
430.8020192795229
 20
467.9706431992436
 30
0.0
 10
431.2840499550446
 20
467.9694122336804
 30
0.0
 10
431.7146256424497
 20
467.9683219715749
 30
0.0
 10
432.080135302405
 20
467.9674012611002
 30
0.0
 10
432.3897288386625
 20
467.9666186487115
 30
0.0
 10
432.6365013927399
 20
467.9659820760951
 30
0.0
 10
432.8246112326778
 20
467.9654764057
 30
0.0
 10
432.9481861820269
 20
467.9651316400599
 30
0.0
 10
432.998151459025
 20
467.964985942177
 30
0.0
 10
433.0057570203345
 20
467.9649637834872
 30
0.0
 10
433.0057333741863
 20
467.9649638568262
 30
0.0
  0
LINE
  5
121
330
11B
100
AcDbEntity
  8
$DDT_AUDIT_GENERATED_(6B)
  6
Continuous
 62
     7
100
AcDbLine
 10
402.4384908601
 20
467.5278268947
 30
0.0
 11
402.3792734651
 21
467.5310076957
 31
0.0
  0
ARC
  5
122
330
11B
100
AcDbEntity
  8
$DDT_AUDIT_GENERATED_(6B)
  6
Continuous
 62
     7
100
AcDbCircle
 10
400.3874495749
 20
467.5135078721
 30
0.0
 40
1.991900763935438
100
AcDbArc
 50
287.4568358911
 51
0.5033779544
  0
ARC
  5
123
330
11B
100
AcDbEntity
  8
$DDT_AUDIT_GENERATED_(6B)
  6
Continuous
 62
     7
100
AcDbCircle
 10
374.4181844499
 20
559.7735767074
 30
0.0
 40
97.83631291915691
100
AcDbArc
 50
273.3090482614
 51
285.7561317566
  0
ARC
  5
124
330
11B
100
AcDbEntity
  8
$DDT_AUDIT_GENERATED_(6B)
  6
Continuous
 62
     7
100
AcDbCircle
 10
379.3346570891
 20
462.0003819584
 30
0.0
 40
0.7377628860166974
100
AcDbArc
 50
4.6006025394
 51
7.791938541
  0
LINE
  5
125
330
11B
100
AcDbEntity
  8
$DDT_AUDIT_GENERATED_(6B)
  6
Continuous
 62
     7
100
AcDbLine
 10
381.0077945369
 20
508.3417222352
 30
0.0
 11
381.0077945369
 21
536.9717235338
 31
0.0
  0
ARC
  5
126
330
11B
100
AcDbEntity
  8
$DDT_AUDIT_GENERATED_(6B)
  6
Continuous
 62
     7
100
AcDbCircle
 10
374.0077945363
 20
508.3417228708
 30
0.0
 40
7.000000000556716
100
AcDbArc
 50
318.590378613
 51
359.9999947972
  0
LINE
  5
127
330
11B
100
AcDbEntity
  8
$DDT_AUDIT_GENERATED_(6B)
  6
Continuous
 62
     7
100
AcDbLine
 10
432.0078588358
 20
537.9717235338
 30
0.0
 11
433.0078279722
 21
536.9717569692
 31
0.0
  0
LINE
  5
128
330
11B
100
AcDbEntity
  8
$DDT_AUDIT_GENERATED_(6B)
  6
Continuous
 62
     7
100
AcDbLine
 10
381.0077608644
 20
536.9717572063
 30
0.0
 11
382.0077297819
 21
537.9717235338
 31
0.0
  0
ARC
  5
129
330
11B
100
AcDbEntity
  8
$DDT_AUDIT_GENERATED_(6B)
  6
Continuous
 62
     7
100
AcDbCircle
 10
380.0078745014
 20
503.0501901249
 30
0.0
 40
1.000079898696298
100
AcDbArc
 50
138.5921087077
 51
180.0021855306
  0
LINE
  5
12A
330
11B
100
AcDbEntity
  8
$DDT_AUDIT_GENERATED_(6B)
  6
Continuous
 62
     7
100
AcDbLine
 10
379.0077938681
 20
463.0930944034
 30
0.0
 11
379.0077939494
 21
463.1021624833
 31
0.0
  0
LINE
  5
12B
330
11B
100
AcDbEntity
  8
$DDT_AUDIT_GENERATED_(6B)
  6
Continuous
 62
     7
100
AcDbLine
 10
379.0077946675
 20
502.9813778744
 30
0.0
 11
379.0077946662
 21
463.09897595
 31
0.0
  0
LINE
  5
12C
330
11B
100
AcDbEntity
  8
$DDT_AUDIT_GENERATED_(6B)
  6
Continuous
 62
     7
100
AcDbLine
 10
379.0077946034
 20
503.0501519772
 30
0.0
 11
379.0077946675
 21
502.9813778744
 31
0.0
  0
ARC
  5
12D
330
11B
100
AcDbEntity
  8
$DDT_AUDIT_GENERATED_(6B)
  6
Continuous
 62
     7
100
AcDbCircle
 10
409.0720090515
 20
852.4866193654
 30
0.0
 40
354.0005278841581
100
AcDbArc
 50
268.9167012549
 51
270.1355259951
  0
SPLINE
  5
12E
330
11B
100
AcDbEntity
  8
$DDT_AUDIT_GENERATED_(6B)
  6
Continuous
 62
     7
100
AcDbSpline
210
0.0
220
0.0
230
1.0
 70
    12
 71
     3
 72
    28
 73
    24
 74
     0
 42
0.0000000002983322
 43
0.0000000001
 40
0.0
 40
0.0
 40
0.0
 40
0.0
 40
0.0437506683994954
 40
0.0437506683994954
 40
0.091612967376808
 40
0.091612967376808
 40
0.1873375653314333
 40
0.1873375653314333
 40
0.3767945764291076
 40
0.3767945764291076
 40
0.5674814295667253
 40
0.5674814295667253
 40
0.7574302568248416
 40
0.7574302568248416
 40
0.8522793811074323
 40
0.8522793811074323
 40
0.8997039432487276
 40
0.8997039432487276
 40
0.9471285053900249
 40
0.9471285053900249
 40
0.9933479412465407
 40
0.9933479412465407
 40
1.0
 40
1.0
 40
1.0
 40
1.0
 10
402.3792734651087
 20
467.5310076956796
 30
0.0
 41
1.0
 10
402.1720798914232
 20
467.5448391480495
 30
0.0
 41
1.0
 10
401.9932825072079
 20
467.5858038517288
 30
0.0
 41
1.0
 10
401.5535398433738
 20
467.8408848888079
 30
0.0
 41
1.0
 10
401.3330446845899
 20
468.0404041453888
 30
0.0
 41
1.0
 10
400.682630285827
 20
468.8455292619961
 30
0.0
 41
1.0
 10
400.2880643173186
 20
469.635052189893
 30
0.0
 41
1.0
 10
399.2629126891601
 20
472.4995443551342
 30
0.0
 41
1.0
 10
398.7919655567227
 20
475.0362506785669
 30
0.0
 41
1.0
 10
398.2700899866698
 20
480.3900963532009
 30
0.0
 41
1.0
 10
398.2127393842057
 20
483.2674014909941
 30
0.0
 41
1.0
 10
398.5015009187391
 20
488.7849524240832
 30
0.0
 41
1.0
 10
398.850545978643
 20
491.4869498063484
 30
0.0
 41
1.0
 10
399.693660551783
 20
494.8251698954314
 30
0.0
 41
1.0
 10
400.0272598869782
 20
495.8159637963079
 30
0.0
 41
1.0
 10
400.5981323737044
 20
497.0039903878579
 30
0.0
 41
1.0
 10
400.7978489017793
 20
497.3462113836532
 30
0.0
 41
1.0
 10
401.214803724608
 20
497.9115480409878
 30
0.0
 41
1.0
 10
401.4347257225589
 20
498.1361077125102
 30
0.0
 41
1.0
 10
401.8740992042665
 20
498.4446972739059
 30
0.0
 41
1.0
 10
402.0579677618627
 20
498.5132383867739
 30
0.0
 41
1.0
 10
402.3096254942867
 20
498.5440370082679
 30
0.0
 41
1.0
 10
402.3435747732851
 20
498.5470710805096
 30
0.0
 41
1.0
 10
402.3792738607702
 20
498.549363572936
 30
0.0
 41
1.0
  0
ARC
  5
12F
330
11B
100
AcDbEntity
  8
$DDT_AUDIT_GENERATED_(6B)
  6
Continuous
 62
     7
100
AcDbCircle
 10
433.768541607
 20
3464.7159625163
 30
0.0
 40
2966.324836178928
100
AcDbArc
 50
269.5391450124
 51
269.609831086
  0
ARC
  5
130
330
11B
100
AcDbEntity
  8
$DDT_AUDIT_GENERATED_(6B)
  6
Continuous
 62
     7
100
AcDbCircle
 10
385.9360968331
 20
505.2151484475
 30
0.0
 40
5.836405329714887
100
AcDbArc
 50
92.206925348
 51
146.3912111599
  0
ARC
  5
131
330
11B
100
AcDbEntity
  8
$DDT_AUDIT_GENERATED_(6B)
  6
Continuous
 62
     7
100
AcDbCircle
 10
385.9360968331
 20
505.2151484475
 30
0.0
 40
5.836405329714887
100
AcDbArc
 50
146.3912111599
 51
147.6084707042
  0
ARC
  5
132
330
11B
100
AcDbEntity
  8
$DDT_AUDIT_GENERATED_(6B)
  6
Continuous
 62
     7
100
AcDbCircle
 10
385.7943058458
 20
422.1184699923
 30
0.0
 40
88.92879343977062
100
AcDbArc
 50
76.1993391385
 51
90.0534506479
  0
LINE
  5
133
330
11B
100
AcDbEntity
  8
$DDT_AUDIT_GENERATED_(6B)
  6
Continuous
 62
     7
100
AcDbLine
 10
381.0077945369
 20
536.9717235338
 30
0.0
 11
407.0077945363
 21
536.9717235338
 31
0.0
  0
ARC
  5
134
330
11B
100
AcDbEntity
  8
$DDT_AUDIT_GENERATED_(6B)
  6
Continuous
 62
     7
100
AcDbCircle
 10
408.7724476109
 20
498.8888494839
 30
0.0
 40
8.868139637196766
100
AcDbArc
 50
357.2275625102
 51
70.0955862663
  0
ARC
  5
135
330
11B
100
AcDbEntity
  8
$DDT_AUDIT_GENERATED_(6B)
  6
Continuous
 62
     7
100
AcDbCircle
 10
379.6215235208
 20
394.1454975472
 30
0.0
 40
117.5686694248686
100
AcDbArc
 50
74.1197212959
 51
76.5298637443
  0
SPLINE
  5
136
330
11B
100
AcDbEntity
  8
$DDT_AUDIT_GENERATED_(6B)
  6
Continuous
 62
     7
100
AcDbSpline
210
0.0
220
0.0
230
1.0
 70
    12
 71
     3
 72
     8
 73
     4
 74
     0
 42
0.0000000003999988
 43
0.0000000001
 40
0.0
 40
0.0
 40
0.0
 40
0.0
 40
1.0
 40
1.0
 40
1.0
 40
1.0
 10
407.0077945362819
 20
537.9717235337627
 30
0.0
 41
1.0
 10
392.3631334247534
 20
537.9717524524212
 30
0.0
 41
0.8047400324189393
 10
382.0077830586461
 20
537.9717524524214
 30
0.0
 41
0.8047400324189393
 10
382.0077297819112
 20
537.9717235337627
 30
0.0
 41
1.0
  0
LINE
  5
137
330
11B
100
AcDbEntity
  8
$DDT_AUDIT_GENERATED_(6B)
  6
Continuous
 62
     7
100
AcDbLine
 10
432.0078588348
 20
537.9717235338
 30
0.0
 11
407.0077945363
 21
537.9717235338
 31
0.0
  0
LINE
  5
138
330
11B
100
AcDbEntity
  8
$DDT_AUDIT_GENERATED_(6B)
  6
Continuous
 62
     7
100
AcDbLine
 10
407.0077945363
 20
536.9717235338
 30
0.0
 11
433.0077945369
 21
536.9717235338
 31
0.0
  0
ARC
  5
139
330
11B
100
AcDbEntity
  8
$DDT_AUDIT_GENERATED_(6B)
  6
Continuous
 62
     7
100
AcDbCircle
 10
380.0078583186
 20
463.0987882869
 30
0.0
 40
1.000063670015445
100
AcDbArc
 50
179.9892483787
 51
273.3020318131
  0
ARC
  5
13A
330
11B
100
AcDbEntity
  8
$DDT_AUDIT_GENERATED_(6B)
  6
Continuous
 62
     7
100
AcDbCircle
 10
374.4152271097
 20
406.2878814986
 30
0.0
 40
97.85538652212693
100
AcDbArc
 50
74.244408507
 51
86.6899002125
  0
ARC
  5
13B
330
11B
100
AcDbEntity
  8
$DDT_AUDIT_GENERATED_(6B)
  6
Continuous
 62
     7
100
AcDbCircle
 10
400.3874368462
 20
498.5669671109
 30
0.0
 40
1.991914801655577
100
AcDbArc
 50
359.493642219
 51
72.5026810438
  0
LINE
  5
13C
330
11B
100
AcDbEntity
  8
$DDT_AUDIT_GENERATED_(6B)
  6
Continuous
 62
     7
100
AcDbLine
 10
433.0077945369
 20
536.9717235338
 30
0.0
 11
433.0077945369
 21
475.4690153922
 31
0.0
  0
ARC
  5
13D
330
11B
100
AcDbEntity
  8
$DDT_AUDIT_GENERATED_(6B)
  6
Continuous
 62
     7
100
AcDbCircle
 10
396.273340493
 20
754.5190639514
 30
0.0
 40
287.0574493482355
100
AcDbArc
 50
271.2306395732
 51
273.454216308
  0
LINE
  5
13E
330
11B
100
AcDbEntity
  8
$DDT_AUDIT_GENERATED_(6B)
  6
Continuous
 62
     7
100
AcDbLine
 10
379.007794538
 20
463.09897595
 30
0.0
 11
379.0077945382
 21
463.093631561
 31
0.0
  0
ARC
  5
13F
330
11B
100
AcDbEntity
  8
$DDT_AUDIT_GENERATED_(6B)
  6
Continuous
 62
     7
100
AcDbCircle
 10
421.2068946192
 20
5.1396449934
 30
0.0
 40
460.9323980143691
100
AcDbArc
 50
88.7726301134
 51
91.2071764317
  0
ARC
  5
140
330
11B
100
AcDbEntity
  8
$DDT_AUDIT_GENERATED_(6B)
  6
Continuous
 62
     7
100
AcDbCircle
 10
398.0887783505
 20
706.2075172667
 30
0.0
 40
240.6116009723563
100
AcDbArc
 50
270.6896798017
 51
273.1942291732
  0
ARC
  5
141
330
11B
100
AcDbEntity
  8
$DDT_AUDIT_GENERATED_(6B)
  6
Continuous
 62
     7
100
AcDbCircle
 10
420.2458441898
 20
285.7104039433
 30
0.0
 40
180.390139594938
100
AcDbArc
 50
87.3575288359
 51
101.1078015284
  0
ARC
  5
142
330
11B
100
AcDbEntity
  8
$DDT_AUDIT_GENERATED_(6B)
  6
Continuous
 62
     7
100
AcDbCircle
 10
430.7041889623
 20
468.2551835869
 30
0.0
 40
2.319553327380589
100
AcDbArc
 50
279.3259481946
 51
352.812393083
  0
ARC
  5
143
330
11B
100
AcDbEntity
  8
$DDT_AUDIT_GENERATED_(6B)
  6
Continuous
 62
     7
100
AcDbCircle
 10
333.3850142895
 20
892.3968762326
 30
0.0
 40
432.8204490956498
100
AcDbArc
 50
276.1914832508
 51
276.9149464945
  0
ARC
  5
144
330
11B
100
AcDbEntity
  8
$DDT_AUDIT_GENERATED_(6B)
  6
Continuous
 62
     7
100
AcDbCircle
 10
374.1453290575
 20
508.3959509243
 30
0.0
 40
6.933842098350125
100
AcDbArc
 50
317.642703786
 51
0.38417666
  0
SPLINE
  5
145
330
11B
100
AcDbEntity
  8
$DDT_AUDIT_GENERATED_(6B)
  6
Continuous
 62
     7
100
AcDbSpline
210
0.0
220
0.0
230
1.0
 70
     8
 71
     3
 72
    14
 73
    10
 74
     0
 42
0.0000000013317718
 43
0.0000000001
 40
0.0
 40
0.0
 40
0.0
 40
0.0
 40
0.1578663961565521
 40
0.2852377843750253
 40
0.3818237427446836
 40
0.4524450549400547
 40
0.5800032507281877
 40
0.762539796012181
 40
1.0
 40
1.0
 40
1.0
 40
1.0
 10
433.0057335335007
 20
467.9649638562943
 30
0.0
 10
433.0419468217417
 20
468.3979937151714
 30
0.0
 10
433.0969320977568
 20
469.0561835728653
 30
0.0
 10
433.0741005760752
 20
470.0296720945638
 30
0.0
 10
433.0548719003864
 20
470.7631666942628
 30
0.0
 10
433.0381318059384
 20
471.5017489136562
 30
0.0
 10
433.0202358014451
 20
472.4501093512291
 30
0.0
 10
433.0073132907804
 20
473.8451947655209
 30
0.0
 10
433.007241636222
 20
474.8153850548929
 30
0.0
 10
433.0078337728058
 20
475.4690153922342
 30
0.0
  0
ARC
  5
146
330
11B
100
AcDbEntity
  8
$DDT_AUDIT_GENERATED_(6B)
  6
Continuous
 62
     7
100
AcDbCircle
 10
380.0461530586
 20
463.1374429884
 30
0.0
 40
1.039042400650436
100
AcDbArc
 50
177.9209879718
 51
201.1982572206
  0
SPLINE
  5
147
330
11B
100
AcDbEntity
  8
$DDT_AUDIT_GENERATED_(6B)
  6
Continuous
 62
     7
100
AcDbSpline
210
0.0
220
0.0
230
1.0
 70
     8
 71
     3
 72
    16
 73
    12
 74
     0
 42
0.0000000032707476
 43
0.0000000001
 40
0.4881788219041279
 40
0.4881788219041279
 40
0.4881788219041279
 40
0.4881788219041279
 40
0.524384564854892
 40
0.566420237069186
 40
0.6417122650554687
 40
0.7225549247247639
 40
0.8085290760773843
 40
0.8591397242557538
 40
0.907765581337846
 40
0.9546920234213858
 40
1.0
 40
1.0
 40
1.0
 40
1.0
 10
379.0280850707461
 20
462.9223964379434
 30
0.0
 10
379.0280061719052
 20
462.922413124224
 30
0.0
 10
379.0281120486583
 20
462.9210598749785
 30
0.0
 10
379.0281758973675
 20
462.9189073861575
 30
0.0
 10
379.0276997555733
 20
462.9189290505963
 30
0.0
 10
379.0300071948645
 20
462.9023087588971
 30
0.0
 10
379.0220857269378
 20
462.9428218998619
 30
0.0
 10
379.0419309359249
 20
462.829051476907
 30
0.0
 10
379.1360617346373
 20
462.5773339265803
 30
0.0
 10
379.433656356427
 20
462.2049348009085
 30
0.0
 10
379.8295484527312
 20
462.1330748255616
 30
0.0
 10
380.0647063754876
 20
462.0880778137379
 30
0.0
  0
LINE
  5
148
330
11B
100
AcDbEntity
  8
$DDT_AUDIT_GENERATED_(6B)
  6
Continuous
 62
     7
100
AcDbLine
 10
428.4513639974
 20
465.9091580145
 30
0.0
 11
428.538574416
 21
465.9087042205
 31
0.0
  0
ARC
  5
14A
330
11B
100
AcDbEntity
  8
$DDT_AUDIT_GENERATED_(149)
  6
Continuous
 62
     7
100
AcDbCircle
 10
380.0064688986
 20
491.8811907043
 30
0.0
 40
1.000000000000001
100
AcDbArc
 50
180.0
 51
205.8419327632
  0
ARC
  5
14B
330
11B
100
AcDbEntity
  8
$DDT_AUDIT_GENERATED_(149)
  6
Continuous
 62
     7
100
AcDbCircle
 10
380.0064688986
 20
474.1811907043
 30
0.0
 40
1.000000000000002
100
AcDbArc
 50
154.1580672368
 51
180.0
  0
ARC
  5
14C
330
11B
100
AcDbEntity
  8
$DDT_AUDIT_GENERATED_(A2)
  6
Continuous
 62
     7
100
AcDbCircle
 10
451.5998125456
 20
549.8739508027
 30
0.0
 40
16.63029899826931
100
AcDbArc
 50
161.3336409464
 51
186.3043694608
  0
LINE
  5
14D
330
11B
100
AcDbEntity
  8
$DDT_AUDIT_GENERATED_(A2)
  6
Continuous
 62
     7
100
AcDbLine
 10
407.254847726
 20
538.9821817215
 30
0.0
 11
434.4338855123
 21
538.9821817215
 31
0.0
  0
LINE
  5
14E
330
11B
100
AcDbEntity
  8
$DDT_AUDIT_GENERATED_(A2)
  6
Continuous
 62
     7
100
AcDbLine
 10
407.2548484407
 20
538.9821817215
 30
0.0
 11
406.2799735199
 21
538.9821817215
 31
0.0
  0
LINE
  5
14F
330
11B
100
AcDbEntity
  8
$DDT_AUDIT_GENERATED_(A2)
  6
Continuous
 62
     7
100
AcDbLine
 10
379.6818788439
 20
538.9821817215
 30
0.0
 11
406.2799749783
 21
538.9821817215
 31
0.0
  0
ARC
  5
150
330
11B
100
AcDbEntity
  8
$DDT_AUDIT_GENERATED_(A2)
  6
Continuous
 62
     7
100
AcDbCircle
 10
511.712962038
 20
563.1700163864
 30
0.0
 40
20.18904768257851
100
AcDbArc
 50
94.8844778281
 51
104.4936481152
  0
ARC
  5
151
330
11B
100
AcDbEntity
  8
$DDT_AUDIT_GENERATED_(A2)
  6
Continuous
 62
     7
100
AcDbCircle
 10
511.8460117526
 20
562.5539536714
 30
0.0
 40
20.81415691289348
100
AcDbArc
 50
95.0893757587
 51
104.0798801902
  0
ARC
  5
152
330
11B
100
AcDbEntity
  8
$DDT_AUDIT_GENERATED_(A2)
  6
Continuous
 62
     7
100
AcDbCircle
 10
509.9815730024
 20
586.9025956864
 30
0.0
 40
3.616732382311092
100
AcDbArc
 50
270.2407290136
 51
289.3087886891
  0
ARC
  5
153
330
11B
100
AcDbEntity
  8
$DDT_AUDIT_GENERATED_(A2)
  6
Continuous
 62
     7
100
AcDbCircle
 10
507.4464595732
 20
597.5275701996
 30
0.0
 40
10.21423554519451
100
AcDbArc
 50
275.5904225922
 51
289.3399476239
  0
SPLINE
  5
154
330
11B
100
AcDbEntity
  8
$DDT_AUDIT_GENERATED_(A2)
  6
Continuous
 62
     7
100
AcDbSpline
210
0.0
220
0.0
230
1.0
 70
     8
 71
     3
 72
    19
 73
    15
 74
     0
 42
0.0000000021400867
 43
0.0000000001
 40
0.0
 40
0.0
 40
0.0
 40
0.0
 40
0.0701856159225341
 40
0.1323242913028483
 40
0.1865658183042277
 40
0.2331198189235016
 40
0.3023558148822746
 40
0.374994769531773
 40
0.481021393172003
 40
0.5466759700570425
 40
0.6206001155666726
 40
0.7030434055839986
 40
0.7939657119939216
 40
1.0
 40
1.0
 40
1.0
 40
1.0
 10
527.2882494440188
 20
590.7189580175735
 30
0.0
 10
527.3946300124954
 20
590.7719782139058
 30
0.0
 10
527.5626601259182
 20
590.8601077688294
 30
0.0
 10
527.7831228234992
 20
591.0570881592998
 30
0.0
 10
527.9254678863668
 20
591.2650043779364
 30
0.0
 10
528.0247739832196
 20
591.5091235127377
 30
0.0
 10
528.0685750946482
 20
591.7998670382518
 30
0.0
 10
528.0194671393535
 20
592.1828381752582
 30
0.0
 10
527.8487261843998
 20
592.5295492613927
 30
0.0
 10
527.5868012991192
 20
592.8059254158669
 30
0.0
 10
527.2970864908175
 20
592.9944117591244
 30
0.0
 10
526.9346315645731
 20
593.1187506453726
 30
0.0
 10
526.3403082037568
 20
593.1758142073633
 30
0.0
 10
525.925468610752
 20
593.0597680396916
 30
0.0
 10
525.5924625654231
 20
592.9555800113374
 30
0.0
  0
LINE
  5
155
330
11B
100
AcDbEntity
  8
$DDT_AUDIT_GENERATED_(A2)
  6
Continuous
 62
     7
100
AcDbLine
 10
511.1774352416
 20
583.4892910318
 30
0.0
 11
527.28824932
 21
590.7189579687
 31
0.0
  0
LINE
  5
156
330
11B
100
AcDbEntity
  8
$DDT_AUDIT_GENERATED_(A2)
  6
Continuous
 62
     7
100
AcDbLine
 10
525.5924630128
 20
592.9555801877
 30
0.0
 11
510.829010472
 21
587.8896727905
 31
0.0
  0
SPLINE
  5
157
330
11B
100
AcDbEntity
  8
$DDT_AUDIT_GENERATED_(A2)
  6
Continuous
 62
     7
100
AcDbSpline
210
0.0
220
0.0
230
1.0
 70
     8
 71
     3
 72
    38
 73
    34
 74
     0
 42
0.0000000000685179
 43
0.0000000001
 40
0.0
 40
0.0
 40
0.0
 40
0.0
 40
0.0532910813646618
 40
0.109241673388392
 40
0.1621718918524192
 40
0.2120558885110799
 40
0.2588366118999909
 40
0.3019796026748738
 40
0.3430572998677717
 40
0.3811232095067947
 40
0.4161456233218322
 40
0.4473682281036335
 40
0.4757179577683641
 40
0.5011913822492726
 40
0.5238222675394467
 40
0.5428199757816268
 40
0.5626621322137194
 40
0.584884242212713
 40
0.6095255722452578
 40
0.6366739513416322
 40
0.6662478683497195
 40
0.698275647654871
 40
0.7221754812667044
 40
0.7472818647459358
 40
0.7735713865387887
 40
0.8012728450155308
 40
0.8317347859801352
 40
0.8580299798430164
 40
0.885212822533809
 40
0.9132721183052938
 40
0.9422194607621353
 40
0.9720615562065095
 40
1.0
 40
1.0
 40
1.0
 40
1.0
 10
508.4411297202991
 20
587.3617800233973
 30
0.0
 10
505.6069560677446
 20
587.0549828561973
 30
0.0
 10
500.7090624866108
 20
586.524790110989
 30
0.0
 10
492.709797309736
 20
585.6588731255366
 30
0.0
 10
485.0742844037746
 20
584.8323433705008
 30
0.0
 10
477.8317372655524
 20
584.0483132096409
 30
0.0
 10
471.0747087330734
 20
583.3169708501077
 30
0.0
 10
464.7404734049217
 20
582.6309561834355
 30
0.0
 10
458.8282595365938
 20
581.9921271741265
 30
0.0
 10
453.3086757997478
 20
581.3902985461087
 30
0.0
 10
448.2808587319578
 20
580.7147124285545
 30
0.0
 10
443.7265160570031
 20
580.066566332662
 30
0.0
 10
439.6407898852624
 20
579.4236673476029
 30
0.0
 10
435.9769342317818
 20
578.7905961665498
 30
0.0
 10
432.7707831033236
 20
578.1822201822944
 30
0.0
 10
429.8430530781339
 20
577.5778071384537
 30
0.0
 10
426.9446735470485
 20
576.9313214388199
 30
0.0
 10
423.7912823957955
 20
576.1693553559785
 30
0.0
 10
420.3133705052812
 20
575.2409783382183
 30
0.0
 10
416.5251387405738
 20
574.0951670028329
 30
0.0
 10
412.4521861918452
 20
572.661866882518
 30
0.0
 10
408.615201168152
 20
571.0513600696733
 30
0.0
 10
405.0810702083677
 20
569.3038520023204
 30
0.0
 10
401.8946486748155
 20
567.4953157216617
 30
0.0
 10
398.6737594783373
 20
565.387327716495
 30
0.0
 10
395.3996763692346
 20
562.9019293332809
 30
0.0
 10
392.3269266273525
 20
560.1693825461048
 30
0.0
 10
389.4934534001401
 20
557.2256839796858
 30
0.0
 10
386.9565930679648
 20
554.1754247813906
 30
0.0
 10
384.5846280597517
 20
550.8252794354086
 30
0.0
 10
382.4605898735415
 20
547.1957173803393
 30
0.0
 10
380.6287114104616
 20
543.290058484358
 30
0.0
 10
379.8519537101832
 20
540.7966363498056
 30
0.0
 10
379.4168192963277
 20
539.3668566861772
 30
0.0
  0
ARC
  5
158
330
11B
100
AcDbEntity
  8
$DDT_AUDIT_GENERATED_(A2)
  6
Continuous
 62
     7
100
AcDbCircle
 10
471.9950598999
 20
550.9034906393
 30
0.0
 40
36.37810965764529
100
AcDbArc
 50
149.3863292092
 51
173.2289594291
  0
ARC
  5
159
330
11B
100
AcDbEntity
  8
$DDT_AUDIT_GENERATED_(A2)
  6
Continuous
 62
     7
100
AcDbCircle
 10
608.4506730264
 20
536.974510237
 30
0.0
 40
173.7319997852742
100
AcDbArc
 50
176.3329515036
 51
179.2413119524
  0
SPLINE
  5
15A
330
11B
100
AcDbEntity
  8
$DDT_AUDIT_GENERATED_(A2)
  6
Continuous
 62
     7
100
AcDbSpline
210
0.0
220
0.0
230
1.0
 70
     8
 71
     3
 72
    34
 73
    30
 74
     0
 42
0.0000000001474762
 43
0.0000000001
 40
0.0
 40
0.0
 40
0.0
 40
0.0
 40
0.0388618611004999
 40
0.0723261483537326
 40
0.1003476498064382
 40
0.1230507331419764
 40
0.140526845304203
 40
0.1529145299367861
 40
0.1610632871764505
 40
0.16853356712865
 40
0.1840433709132462
 40
0.2010760281494455
 40
0.2203922429359972
 40
0.2422291473074885
 40
0.2860943800906465
 40
0.3280629164227643
 40
0.3720589848372272
 40
0.4202624434010169
 40
0.4670981270943076
 40
0.5169492650836356
 40
0.5709415257778562
 40
0.6307413310390477
 40
0.6965369658476601
 40
0.7428103576821565
 40
0.7917424859152125
 40
0.843131441110333
 40
0.8970820587039947
 40
0.9534175499339769
 40
1.0
 40
1.0
 40
1.0
 40
1.0
 10
440.6881909718077
 20
569.4303050513328
 30
0.0
 10
440.7422748670218
 20
569.511649443744
 30
0.0
 10
440.8309749694357
 20
569.6402066237898
 30
0.0
 10
441.0211179840034
 20
569.8718037771537
 30
0.0
 10
441.2341727105998
 20
570.0797889971876
 30
0.0
 10
441.4744563622928
 20
570.2594410041737
 30
0.0
 10
441.7616832788723
 20
570.422903050138
 30
0.0
 10
442.0446111445774
 20
570.5700152082874
 30
0.0
 10
442.4533092153034
 20
570.8005930501508
 30
0.0
 10
443.0035986861602
 20
571.096959665694
 30
0.0
 10
443.8090235089314
 20
571.5005534098874
 30
0.0
 10
444.9820946112845
 20
572.0216793571038
 30
0.0
 10
446.3785655741819
 20
572.5514699959333
 30
0.0
 10
448.4923205782205
 20
573.2284327074506
 30
0.0
 10
451.2342030682157
 20
573.8948563107394
 30
0.0
 10
454.586769082273
 20
574.5101983267559
 30
0.0
 10
458.0685385191421
 20
575.0164710888079
 30
0.0
 10
461.6848200658647
 20
575.4745167235311
 30
0.0
 10
465.453311062952
 20
575.940316530036
 30
0.0
 10
469.3662892935138
 20
576.463089600626
 30
0.0
 10
473.6088694851244
 20
577.0735330819372
 30
0.0
 10
478.2608971956532
 20
577.7790359483536
 30
0.0
 10
482.7071290261256
 20
578.4954529537115
 30
0.0
 10
486.8685900530472
 20
579.1960523995342
 30
0.0
 10
490.6530767304444
 20
579.8530324787552
 30
0.0
 10
494.641344714787
 20
580.5592662244375
 30
0.0
 10
498.7904970851146
 20
581.3023883028392
 30
0.0
 10
502.916131804442
 20
582.1010071330807
 30
0.0
 10
505.3942911065734
 20
582.489153604701
 30
0.0
 10
506.7218628688119
 20
582.6985019677479
 30
0.0
  0
ARC
  5
15B
330
11B
100
AcDbEntity
  8
$DDT_AUDIT_GENERATED_(A2)
  6
Continuous
 62
     7
100
AcDbCircle
 10
434.4338085225
 20
539.2821816294
 30
0.0
 40
0.2999990434882729
100
AcDbArc
 50
269.9704930018
 51
357.1495836412
  0
ARC
  5
15C
330
11B
100
AcDbEntity
  8
$DDT_AUDIT_GENERATED_(A2)
  6
Continuous
 62
     7
100
AcDbCircle
 10
379.6818797031
 20
539.2821817234
 30
0.0
 40
0.3000000019549628
100
AcDbArc
 50
162.7817012235
 51
269.9980050329
  0
LINE
  5
15D
330
11B
100
AcDbEntity
  8
$DDT_AUDIT_GENERATED_(B0)
  6
Continuous
 62
     7
100
AcDbLine
 10
432.0293852131
 20
537.9717235338
 30
0.0
 11
381.9862038594
 21
537.9717235338
 31
0.0
  0
ARC
  5
15E
330
11B
100
AcDbEntity
  8
$DDT_AUDIT_GENERATED_(B0)
  6
Continuous
 62
     7
100
AcDbCircle
 10
407.0077945363
 20
529.8717235338
 30
0.0
 40
26.3
100
AcDbArc
 50
159.6716541112
 51
162.0621734783
  0
ARC
  5
15F
330
11B
100
AcDbEntity
  8
$DDT_AUDIT_GENERATED_(B0)
  6
Continuous
 62
     7
100
AcDbCircle
 10
407.0077945363
 20
529.8717235338
 30
0.0
 40
26.29999999999999
100
AcDbArc
 50
17.9378265217
 51
20.3256322127
  0
LINE
  5
161
330
11B
100
AcDbEntity
  8
$DDT_AUDIT_GENERATED_(160)
  6
Continuous
 62
     7
100
AcDbLine
 10
435.8439163232
 20
555.0354617568
 30
0.0
 11
435.013424825
 21
550.7629533844
 31
0.0
  0
SPLINE
  5
162
330
11B
100
AcDbEntity
  8
$DDT_AUDIT_GENERATED_(B4)
  6
Continuous
 62
     7
100
AcDbSpline
210
0.0
220
0.0
230
1.0
 70
    12
 71
     2
 72
     6
 73
     3
 74
     0
 42
0.0000000074267561
 43
0.0000000001
 40
0.0
 40
0.0
 40
0.0
 40
1.0
 40
1.0
 40
1.0
 10
386.6647635561832
 20
420.7143650276927
 30
0.0
 41
1.0
 10
386.2576419770632
 20
421.2505608542224
 30
0.0
 41
0.9477444830450126
 10
386.2576419770419
 20
421.9238023660226
 30
0.0
 41
1.0
  0
ARC
  5
163
330
11B
100
AcDbEntity
  8
$DDT_AUDIT_GENERATED_(B4)
  6
Continuous
 62
     7
100
AcDbCircle
 10
434.7576419794
 20
442.672019145
 30
0.0
 40
7.000000002370871
100
AcDbArc
 50
179.9999988518
 51
263.6724630415
  0
ARC
  5
164
330
11B
100
AcDbEntity
  8
$DDT_AUDIT_GENERATED_(B4)
  6
Continuous
 62
     7
100
AcDbCircle
 10
407.0343238334
 20
436.1860875696
 30
0.0
 40
25.5791552695242
100
AcDbArc
 50
217.2185282805
 51
269.9402400793
  0
LINE
  5
165
330
11B
100
AcDbEntity
  8
$DDT_AUDIT_GENERATED_(B4)
  6
Continuous
 62
     7
100
AcDbLine
 10
433.9861579332
 20
435.7146624343
 30
0.0
 11
482.4005555342
 21
430.3461100871
 31
0.0
  0
ARC
  5
166
330
11B
100
AcDbEntity
  8
$DDT_AUDIT_GENERATED_(B4)
  6
Continuous
 62
     7
100
AcDbCircle
 10
473.9635289157
 20
322.2126197779
 30
0.0
 40
108.4621369170598
100
AcDbArc
 50
82.1899363266
 51
85.5385826551
  0
ARC
  5
167
330
11B
100
AcDbEntity
  8
$DDT_AUDIT_GENERATED_(B4)
  6
Continuous
 62
     7
100
AcDbCircle
 10
473.9635289157
 20
322.2126197779
 30
0.0
 40
108.4621369170598
100
AcDbArc
 50
77.8272471813
 51
80.2594940987
  0
ARC
  5
168
330
11B
100
AcDbEntity
  8
$DDT_AUDIT_GENERATED_(B4)
  6
Continuous
 62
     7
100
AcDbCircle
 10
528.808765704
 20
887.3064442776
 30
0.0
 40
460.1825222786454
100
AcDbArc
 50
266.0011023496
 51
266.0157004134
  0
SPLINE
  5
169
330
11B
100
AcDbEntity
  8
$DDT_AUDIT_GENERATED_(B4)
  6
Continuous
 62
     7
100
AcDbSpline
210
0.0
220
0.0
230
1.0
 70
     8
 71
     3
 72
     8
 73
     4
 74
     0
 42
0.0000001631811606
 43
0.0000000001
 40
0.0
 40
0.0
 40
0.0
 40
0.0
 40
1.0
 40
1.0
 40
1.0
 40
1.0
 10
496.8338507123612
 20
428.2361243678516
 30
0.0
 10
496.8536879676512
 20
428.2317283057364
 30
0.0
 10
496.8735646077818
 20
428.2270063238099
 30
0.0
 10
496.8934659964111
 20
428.2219517570982
 30
0.0
  0
ARC
  5
16A
330
11B
100
AcDbEntity
  8
$DDT_AUDIT_GENERATED_(B4)
  6
Continuous
 62
     7
100
AcDbCircle
 10
-2449.3794663333
 20
-32161.0605892414
 30
0.0
 40
32720.16007298866
100
AcDbArc
 50
84.8594122909
 51
84.9593338618
  0
LINE
  5
16B
330
11B
100
AcDbEntity
  8
$DDT_AUDIT_GENERATED_(B4)
  6
Continuous
 62
     7
100
AcDbLine
 10
498.4011341874
 20
426.2834611293
 30
0.0
 11
498.4010172011
 21
419.2916540066
 31
0.0
  0
ARC
  5
16C
330
11B
100
AcDbEntity
  8
$DDT_AUDIT_GENERATED_(B4)
  6
Continuous
 62
     7
100
AcDbCircle
 10
529.707598404
 20
948.7626179429
 30
0.0
 40
523.416243544657
100
AcDbArc
 50
264.8080497905
 51
266.5709900784
  0
ARC
  5
16D
330
11B
100
AcDbEntity
  8
$DDT_AUDIT_GENERATED_(B4)
  6
Continuous
 62
     7
100
AcDbCircle
 10
496.401139451
 20
426.2835004371
 30
0.0
 40
1.999994736768635
100
AcDbArc
 50
359.9988739093
 51
75.7493717601
  0
ARC
  5
16E
330
11B
100
AcDbEntity
  8
$DDT_AUDIT_GENERATED_(B4)
  6
Continuous
 62
     7
100
AcDbCircle
 10
487.0498182617
 20
283.1236772625
 30
0.0
 40
136.6402854503466
100
AcDbArc
 50
85.2347421789
 51
91.9054391841
  0
ARC
  5
16F
330
11B
100
AcDbEntity
  8
$DDT_AUDIT_GENERATED_(B4)
  6
Continuous
 62
     7
100
AcDbCircle
 10
534.6646186595
 20
4511.6245278719
 30
0.0
 40
4092.268523084112
100
AcDbArc
 50
268.2123868677
 51
269.2697156186
  0
ARC
  5
170
330
11B
100
AcDbEntity
  8
$DDT_AUDIT_GENERATED_(B4)
  6
Continuous
 62
     7
100
AcDbCircle
 10
431.3249792057
 20
469.9738031355
 30
0.0
 40
37.86664613903068
100
AcDbArc
 50
230.0445124897
 51
261.1583088103
  0
ARC
  5
171
330
11B
100
AcDbEntity
  8
$DDT_AUDIT_GENERATED_(B4)
  6
Continuous
 62
     7
100
AcDbCircle
 10
496.4010142802
 20
419.2916895787
 30
0.0
 40
2.000002921263552
100
AcDbArc
 50
286.0967581731
 51
359.9989809373
  0
ARC
  5
172
330
11B
100
AcDbEntity
  8
$DDT_AUDIT_GENERATED_(B4)
  6
Continuous
 62
     7
100
AcDbCircle
 10
402.5107822668
 20
1148.1270710183
 30
0.0
 40
737.5338339784078
100
AcDbArc
 50
270.3493437409
 51
275.3401406144
  0
LINE
  5
173
330
11B
100
AcDbEntity
  8
$DDT_AUDIT_GENERATED_(B4)
  6
Continuous
 62
     7
100
AcDbLine
 10
496.9555352294
 20
417.3700969943
 30
0.0
 11
495.4441560224
 21
416.9830849106
 31
0.0
  0
ARC
  5
174
330
11B
100
AcDbEntity
  8
$DDT_AUDIT_GENERATED_(B4)
  6
Continuous
 62
     7
100
AcDbCircle
 10
365.8829864866
 20
457.4217235465
 30
0.0
 40
20.7635879958232
100
AcDbArc
 50
348.8928201529
 51
11.1071788635
  0
ARC
  5
175
330
11B
100
AcDbEntity
  8
$DDT_AUDIT_GENERATED_(B4)
  6
Continuous
 62
     7
100
AcDbCircle
 10
489.6448537208
 20
347.339918825
 30
0.0
 40
69.88420772695696
100
AcDbArc
 50
85.2398673716
 51
95.9500818546
  0
ARC
  5
176
330
11B
100
AcDbEntity
  8
$DDT_AUDIT_GENERATED_(B4)
  6
Continuous
 62
     7
100
AcDbCircle
 10
484.1486517709
 20
388.1594527468
 30
0.0
 40
28.74139111273458
100
AcDbArc
 50
93.487042283
 51
116.8851427347
  0
ARC
  5
177
330
11B
100
AcDbEntity
  8
$DDT_AUDIT_GENERATED_(B4)
  6
Continuous
 62
     7
100
AcDbCircle
 10
477.70046606
 20
342.9457036752
 30
0.0
 40
87.38678316480473
100
AcDbArc
 50
77.4738389022
 51
83.7410212125
  0
LINE
  5
178
330
11B
100
AcDbEntity
  8
$DDT_AUDIT_GENERATED_(B4)
  6
Continuous
 62
     7
100
AcDbLine
 10
386.257641977
 20
453.4217334939
 30
0.0
 11
386.257641977
 21
421.9238021334
 31
0.0
  0
LINE
  5
179
330
11B
100
AcDbEntity
  8
$DDT_AUDIT_GENERATED_(B4)
  6
Continuous
 62
     7
100
AcDbLine
 10
386.257641977
 20
462.807609792
 30
0.0
 11
386.257641977
 21
461.3697732012
 31
0.0
  0
LINE
  5
17A
330
11B
100
AcDbEntity
  8
$DDT_AUDIT_GENERATED_(B4)
  6
Continuous
 62
     7
100
AcDbLine
 10
427.757641977
 20
442.6720192858
 30
0.0
 11
427.757641977
 21
465.9128385
 31
0.0
  0
LINE
  5
17B
330
11B
100
AcDbEntity
  8
09719038_ROSETTE
  6
Continuous
 62
     7
100
AcDbLine
 10
360.0064688986
 20
460.6218789939
 30
0.0
 11
360.0064688986
 21
505.4405024107
 31
0.0
  0
LINE
  5
17C
330
11B
100
AcDbEntity
  8
09719038_ROSETTE
  6
Continuous
 62
     7
100
AcDbLine
 10
310.0064688986
 20
517.5139085997
 30
0.0
 11
310.0064688986
 21
448.5484728049
 31
0.0
  0
ARC
  5
17D
330
11B
100
AcDbEntity
  8
09719038_ROSETTE
  6
Continuous
 62
     7
100
AcDbCircle
 10
303.4716865988
 20
318.1379776602
 30
0.0
 40
200.0
100
AcDbArc
 50
74.9009459592
 51
87.9792134767
  0
ARC
  5
17E
330
11B
100
AcDbEntity
  8
09719038_ROSETTE
  6
Continuous
 62
     7
100
AcDbCircle
 10
303.4716865988
 20
647.9244037444
 30
0.0
 40
200.0
100
AcDbArc
 50
272.0207865233
 51
285.0990540408
  0
ARC
  5
17F
330
11B
100
AcDbEntity
  8
09719038_ROSETTE
  6
Continuous
 62
     7
100
AcDbCircle
 10
354.0064688986
 20
505.4405024107
 30
0.0
 40
5.999999999999998
100
AcDbArc
 50
0.0
 51
74.9009459592
  0
ARC
  5
180
330
11B
100
AcDbEntity
  8
09719038_ROSETTE
  6
Continuous
 62
     7
100
AcDbCircle
 10
354.0064688986
 20
460.6218789939
 30
0.0
 40
6.000000000000006
100
AcDbArc
 50
285.0990540408
 51
0.0
  0
ARC
  5
181
330
11B
100
AcDbEntity
  8
09719038_ROSETTE
  6
Continuous
 62
     7
100
AcDbCircle
 10
310.5064688986
 20
448.5484728049
 30
0.0
 40
0.5000000000000004
100
AcDbArc
 50
180.0
 51
272.0207865233
  0
ARC
  5
182
330
11B
100
AcDbEntity
  8
09719038_ROSETTE
  6
Continuous
 62
     7
100
AcDbCircle
 10
310.5064688986
 20
517.5139085997
 30
0.0
 40
0.5000000000000104
100
AcDbArc
 50
87.9792134767
 51
180.0
  0
LINE
  5
184
330
11B
100
AcDbEntity
  8
04165000_H_LSE_0
  6
Continuous
 62
     7
100
AcDbLine
 10
379.0064688986
 20
463.9811907023
 30
0.0
 11
379.0064688986
 21
502.0811907023
 31
0.0
  0
LINE
  5
185
330
11B
100
AcDbEntity
  8
04165000_H_LSE_0
  6
Continuous
 62
     7
100
AcDbLine
 10
378.8064688986
 20
502.2811907023
 30
0.0
 11
360.0064688986
 21
502.2811907023
 31
0.0
  0
LINE
  5
186
330
11B
100
AcDbEntity
  8
04165000_H_LSE_0
  6
Continuous
 62
     7
100
AcDbLine
 10
360.0064688986
 20
463.7811907023
 30
0.0
 11
378.8064688986
 21
463.7811907023
 31
0.0
  0
ARC
  5
187
330
11B
100
AcDbEntity
  8
04165000_H_LSE_0
  6
Continuous
 62
     7
100
AcDbCircle
 10
378.8064688986
 20
463.9811907023
 30
0.0
 40
0.1999999999999988
100
AcDbArc
 50
270.0
 51
0.0
  0
ARC
  5
188
330
11B
100
AcDbEntity
  8
04165000_H_LSE_0
  6
Continuous
 62
     7
100
AcDbCircle
 10
378.8064688986
 20
502.0811907023
 30
0.0
 40
0.1999999999999988
100
AcDbArc
 50
0.0
 51
90.0
  0
LINE
  5
18A
330
11B
100
AcDbEntity
  8
$DDT_AUDIT_GENERATED_(189)
  6
Continuous
 62
     7
100
AcDbLine
 10
386.457641977
 20
454.6220647628
 30
0.0
 11
386.457641977
 21
460.2020222055
 31
0.0
  0
LINE
  5
18B
330
11B
100
AcDbEntity
  8
02636038_GEHÄUSE
  6
Continuous
 62
     7
100
AcDbLine
 10
473.3232319465
 20
408.416845786
 30
0.0
 11
494.6629742068
 21
411.0370366692
 31
0.0
  0
SPLINE
  5
18C
330
11B
100
AcDbEntity
  8
02636038_GEHÄUSE
  6
Continuous
 62
     7
100
AcDbSpline
210
0.0
220
0.0
230
1.0
 70
     8
 71
     3
 72
    10
 73
     6
 74
     0
 42
0.0000000019260148
 43
0.0000000001
 40
0.0
 40
0.0
 40
0.0
 40
0.0
 40
0.5
 40
0.5
 40
1.0
 40
1.0
 40
1.0
 40
1.0
 10
486.5216283895637
 20
410.3573324358068
 30
0.0
 10
485.6799160326569
 20
410.1392098098914
 30
0.0
 10
484.8314746700872
 20
409.9753120233453
 30
0.0
 10
483.1199944763695
 20
409.7651483008572
 30
0.0
 10
482.2569554485875
 20
409.7188839494652
 30
0.0
 10
481.3871803357243
 20
409.7269014860373
 30
0.0
  0
LINE
  5
18D
330
11B
100
AcDbEntity
  8
02636038_GEHÄUSE
  6
Continuous
 62
     7
100
AcDbLine
 10
487.8664922184
 20
413.225063089
 30
0.0
 11
479.3884978745
 21
412.1840962761
 31
0.0
  0
LINE
  5
18E
330
11B
100
AcDbEntity
  8
02636038_GEHÄUSE
  6
Continuous
 62
     7
100
AcDbLine
 10
487.8664922184
 20
413.225063089
 30
0.0
 11
488.0878595872
 21
411.4221705491
 31
0.0
  0
SPLINE
  5
18F
330
11B
100
AcDbEntity
  8
02636038_GEHÄUSE
  6
Continuous
 62
     7
100
AcDbSpline
210
0.0
220
0.0
230
1.0
 70
     8
 71
     3
 72
    14
 73
    10
 74
     0
 42
0.0000000049321089
 43
0.0000000001
 40
0.0
 40
0.0
 40
0.0
 40
0.0
 40
0.1250000000000004
 40
0.1250000000000004
 40
0.2500000000000009
 40
0.2500000000000009
 40
0.5000000000000008
 40
0.5000000000000008
 40
1.0
 40
1.0
 40
1.0
 40
1.0
 10
488.0878595872434
 20
411.4221705490961
 30
0.0
 10
488.0981260190312
 20
411.3385571720383
 30
0.0
 10
488.0764877829521
 20
411.251131220329
 30
0.0
 10
487.9983682013278
 20
411.1012960886067
 30
0.0
 10
487.9429040435161
 20
411.0350273480256
 30
0.0
 10
487.7605190863546
 20
410.8603774907433
 30
0.0
 10
487.6143942454582
 20
410.7704946584018
 30
0.0
 10
487.1680221872415
 20
410.5430279709098
 30
0.0
 10
486.8456046249131
 20
410.4412881323208
 30
0.0
 10
486.5216283895637
 20
410.3573324358068
 30
0.0
  0
SPLINE
  5
190
330
11B
100
AcDbEntity
  8
02636038_GEHÄUSE
  6
Continuous
 62
     7
100
AcDbSpline
210
0.0
220
0.0
230
1.0
 70
     8
 71
     3
 72
    18
 73
    14
 74
     0
 42
0.0000000049401632
 43
0.0000000001
 40
0.0
 40
0.0
 40
0.0
 40
0.0
 40
0.2499999999999998
 40
0.2499999999999998
 40
0.4999999999999997
 40
0.4999999999999997
 40
0.6249999999999992
 40
0.6249999999999992
 40
0.7499999999999989
 40
0.7499999999999989
 40
0.8749999999999994
 40
0.8749999999999994
 40
1.0
 40
1.0
 40
1.0
 40
1.0
 10
481.3871803357243
 20
409.7269014860373
 30
0.0
 10
481.2193480186892
 20
409.7284485546068
 30
0.0
 10
481.0517299441246
 20
409.7351452234732
 30
0.0
 10
480.7171917756153
 20
409.7653154458096
 30
0.0
 10
480.5503394735073
 20
409.7886077079337
 30
0.0
 10
480.3061504974807
 20
409.8452000425332
 30
0.0
 10
480.2256363894832
 20
409.8677243790312
 30
0.0
 10
480.0672861053985
 20
409.9238835037638
 30
0.0
 10
479.9890069431506
 20
409.9577319530853
 30
0.0
 10
479.8437643566088
 20
410.0409504823808
 30
0.0
 10
479.7747692057833
 20
410.0910244992616
 30
0.0
 10
479.6619236770891
 20
410.218379926181
 30
0.0
 10
479.6203156594038
 20
410.2960919278483
 30
0.0
 10
479.6098652433818
 20
410.3812037362478
 30
0.0
  0
LINE
  5
191
330
11B
100
AcDbEntity
  8
02636038_GEHÄUSE
  6
Continuous
 62
     7
100
AcDbLine
 10
479.6098652434
 20
410.3812037362
 30
0.0
 11
479.3884978745
 21
412.1840962761
 31
0.0
  0
LINE
  5
192
330
11B
100
AcDbEntity
  8
02636038_GEHÄUSE
  6
Continuous
 62
     7
100
AcDbLine
 10
472.7386328491
 20
408.6649933804
 30
0.0
 11
473.3232319465
 21
408.416845786
 31
0.0
  0
LINE
  5
193
330
11B
100
AcDbEntity
  8
02636038_GEHÄUSE
  6
Continuous
 62
     7
100
AcDbLine
 10
494.6629742068
 20
411.0370366692
 30
0.0
 11
495.1701758762
 21
411.4192405414
 31
0.0
  0
ARC
  5
194
330
11B
100
AcDbEntity
  8
02636038_GEHÄUSE
  6
Continuous
 62
     7
100
AcDbCircle
 10
473.1293639776
 20
409.5854982339
 30
0.0
 40
0.9999999999999996
100
AcDbArc
 50
187.0
 51
247.0
  0
ARC
  5
195
330
11B
100
AcDbEntity
  8
02636038_GEHÄUSE
  6
Continuous
 62
     7
100
AcDbCircle
 10
494.568360853
 20
412.2178760514
 30
0.0
 40
1.000000000000012
100
AcDbArc
 50
307.0
 51
7.0
  0
LINE
  5
196
330
11B
100
AcDbEntity
  8
02636038_GEHÄUSE
  6
Continuous
 62
     7
100
AcDbLine
 10
471.5793761982
 20
414.0036266198
 30
0.0
 11
472.1368178259
 21
409.4636288905
 31
0.0
  0
LINE
  5
197
330
11B
100
AcDbEntity
  8
02636038_GEHÄUSE
  6
Continuous
 62
     7
100
AcDbLine
 10
495.5609070047
 20
412.3397453949
 30
0.0
 11
494.983545185
 21
417.0419800685
 31
0.0
  0
LINE
  5
198
330
11B
100
AcDbEntity
  8
$DDT_AUDIT_GENERATED_(EA)
  6
Continuous
 62
     7
100
AcDbLine
 10
475.1089354493
 20
408.2330986763
 30
0.0
 11
492.9747661788
 21
410.4267468576
 31
0.0
  0
LINE
  5
199
330
11B
100
AcDbEntity
  8
$DDT_AUDIT_GENERATED_(EA)
  6
Continuous
 62
     7
100
AcDbLine
 10
475.0601877119
 20
408.630117137
 30
0.0
 11
475.1089354493
 21
408.2330986763
 31
0.0
  0
LINE
  5
19A
330
11B
100
AcDbEntity
  8
$DDT_AUDIT_GENERATED_(EA)
  6
Continuous
 62
     7
100
AcDbLine
 10
492.9747661788
 20
410.4267468576
 30
0.0
 11
492.9260184414
 21
410.8237653183
 31
0.0
  0
ENDBLK
  5
19C
330
11B
100
AcDbEntity
  8
0
100
AcDbBlockEnd
  0
BLOCK
  5
1DB
330
19D
100
AcDbEntity
  8
0
100
AcDbBlockBegin
  2
SE2
 70
     0
 10
0.0
 20
0.0
 30
0.0
  3
SE2
  1

  0
LINE
  5
19F
330
19D
100
AcDbEntity
  8
$DDT_AUDIT_GENERATED_(6B)
  6
Continuous
 62
     7
100
AcDbLine
 10
116.3336264287
 20
255.4395450283
 30
0.0
 11
191.5717598748
 21
255.4395449642
 31
0.0
  0
LINE
  5
1A0
330
19D
100
AcDbEntity
  8
$DDT_AUDIT_GENERATED_(6B)
  6
Continuous
 62
     7
100
AcDbLine
 10
191.5717598748
 20
255.4395449642
 30
0.0
 11
211.2420373852
 21
255.4395449481
 31
0.0
  0
ARC
  5
1A1
330
19D
100
AcDbEntity
  8
$DDT_AUDIT_GENERATED_(6B)
  6
Continuous
 62
     7
100
AcDbCircle
 10
116.3435674677
 20
412.8266838097
 30
0.0
 40
194.1359755717359
100
AcDbArc
 50
278.6099030106
 51
284.0980051499
  0
LINE
  5
1A2
330
19D
100
AcDbEntity
  8
$DDT_AUDIT_GENERATED_(6B)
  6
Continuous
 62
     7
100
AcDbLine
 10
207.2997127719
 20
236.1675156406
 30
0.0
 11
191.9064955044
 21
232.0680657709
 31
0.0
  0
LINE
  5
1A3
330
19D
100
AcDbEntity
  8
$DDT_AUDIT_GENERATED_(6B)
  6
Continuous
 62
     7
100
AcDbLine
 10
191.9064955044
 20
232.0680657709
 30
0.0
 11
163.6314498819
 21
224.5379874204
 31
0.0
  0
LINE
  5
1A4
330
19D
100
AcDbEntity
  8
$DDT_AUDIT_GENERATED_(6B)
  6
Continuous
 62
     7
100
AcDbLine
 10
41.0954929825
 20
255.4395449642
 30
0.0
 11
21.4251927978
 21
255.4395449481
 31
0.0
  0
LINE
  5
1A5
330
19D
100
AcDbEntity
  8
$DDT_AUDIT_GENERATED_(6B)
  6
Continuous
 62
     7
100
AcDbLine
 10
116.3336264287
 20
255.4395450283
 30
0.0
 11
41.0954929825
 21
255.4395449642
 31
0.0
  0
SPLINE
  5
1A6
330
19D
100
AcDbEntity
  8
$DDT_AUDIT_GENERATED_(6B)
  6
Continuous
 62
     7
100
AcDbSpline
210
0.0
220
0.0
230
1.0
 70
    12
 71
     3
 72
   106
 73
   102
 74
     0
 42
0.0000000003417569
 43
0.0000000001
 40
0.0
 40
0.0
 40
0.0
 40
0.0
 40
0.0041538354606901
 40
0.0074289510578389
 40
0.0107040666549552
 40
0.0172542978492558
 40
0.0238045290435175
 40
0.0369049914320509
 40
0.0500054538206164
 40
0.0565556850148813
 40
0.0631059162091462
 40
0.0696561474034116
 40
0.0729312630005634
 40
0.0762063785977122
 40
0.0827566097919771
 40
0.089306840986242
 40
0.1024073033747755
 40
0.1155077657633377
 40
0.1286082281518712
 40
0.1548091529289667
 40
0.1810100777060624
 40
0.207211002483158
 40
0.2334119272602569
 40
0.2858137768144482
 40
0.3382156263686429
 40
0.3906174759228017
 40
0.4430193254769932
 40
0.4954211750311842
 40
0.5478230245853789
 40
0.5740239493624749
 40
0.6002248741395377
 40
0.6264257989166337
 40
0.6395262613051994
 40
0.6526267236937292
 40
0.6559018392908815
 40
0.6591769548879945
 40
0.6608145126865864
 40
0.6624520704851464
 40
0.665727186082295
 40
0.6722774172765603
 40
0.6788276484708252
 40
0.7050285732479207
 40
0.7312294980250195
 40
0.7574304228021155
 40
0.7836313475792109
 40
0.7967318099677444
 40
0.8098322723563065
 40
0.8163825035505746
 40
0.8229327347448395
 40
0.8294829659391053
 40
0.8360331971334056
 40
0.8491336595219354
 40
0.8622341219104657
 40
0.875334584299031
 40
0.8884350466875612
 40
0.8949852778818621
 40
0.901535509076127
 40
0.9048106246732432
 40
0.9080857402703951
 40
0.9146359714646599
 40
0.9277364338532257
 40
0.934286665047491
 40
0.9408368962417559
 40
0.9441120118389045
 40
0.9473871274360208
 40
0.9506622430331694
 40
0.9539373586303217
 40
0.9572124742274375
 40
0.9604875898245862
 40
0.9621251476231434
 40
0.9637627054217028
 40
0.9654002632202952
 40
0.9662190421195571
 40
0.9670378210188515
 40
0.9678565999181494
 40
0.9686753788174115
 40
0.9694941577167058
 40
0.9703129366160037
 40
0.97195049441456
 40
0.9735880522131201
 40
0.9768631678102686
 40
0.980138283407385
 40
0.9834133990045335
 40
0.9850509568030898
 40
0.986688514601682
 40
0.9875072935009446
 40
0.9883260724002421
 40
0.9891448512995363
 40
0.9899636301987984
 40
0.9916011879973906
 40
0.9924199668966527
 40
0.993238745795947
 40
0.994057524695245
 40
0.994876303594507
 40
0.9956950824938012
 40
0.9965138613930993
 40
0.9973326402923612
 40
0.9981514191916561
 40
0.9989701980909176
 40
0.9997889769902155
 40
1.0
 40
1.0
 40
1.0
 40
1.0
 10
40.76075735287914
 20
232.0680657709395
 30
0.0
 41
1.0
 10
40.79989772870149
 20
232.0576420884971
 30
0.0
 41
1.0
 10
40.86989863983344
 20
232.0389997721426
 30
0.0
 41
1.0
 10
40.97076022071314
 20
232.0121387860732
 30
0.0
 41
1.0
 10
41.09420257063113
 20
231.9792641948501
 30
0.0
 41
1.0
 10
41.24850579626313
 20
231.9381708790601
 30
0.0
 41
1.0
 10
41.49539147862223
 20
231.872421434953
 30
0.0
 41
1.0
 10
41.80399939912714
 20
231.7902344120915
 30
0.0
 41
1.0
 10
42.11260804574015
 20
231.7080471958561
 30
0.0
 41
1.0
 10
42.35949521222414
 20
231.6422973565038
 30
0.0
 41
1.0
 10
42.54466066850914
 20
231.5929849553057
 30
0.0
 41
1.0
 10
42.69896524843814
 20
231.5518912788455
 30
0.0
 41
1.0
 10
42.82240891088623
 20
231.5190163380755
 30
0.0
 41
1.0
 10
42.94585256940923
 20
231.486141398351
 30
0.0
 41
1.0
 10
43.10015713638013
 20
231.4450477253415
 30
0.0
 41
1.0
 10
43.34704443006013
 20
231.3792978521152
 30
0.0
 41
1.0
 10
43.65565352246113
 20
231.2971105171597
 30
0.0
 41
1.0
 10
44.02598439488025
 20
231.1984857254563
 30
0.0
 41
1.0
 10
44.51975884169713
 20
231.0669860164315
 30
0.0
 41
1.0
 10
45.13697680980614
 20
230.9026114042293
 30
0.0
 41
1.0
 10
45.87763823618113
 20
230.7053619056341
 30
0.0
 41
1.0
 10
46.61829953665612
 20
230.5081124405677
 30
0.0
 41
1.0
 10
47.60584778223622
 20
230.2451131951058
 30
0.0
 41
1.0
 10
48.84028282276014
 20
229.9163642092381
 30
0.0
 41
1.0
 10
50.32160452428314
 20
229.5218655186368
 30
0.0
 41
1.0
 10
51.80292595944213
 20
229.1273668989721
 30
0.0
 41
1.0
 10
53.28424720997214
 20
228.7328683284769
 30
0.0
 41
1.0
 10
54.76556835813314
 20
228.3383697852445
 30
0.0
 41
1.0
 10
56.00000263155214
 20
228.0096210036687
 30
0.0
 41
1.0
 10
56.98755008116813
 20
227.7466219701841
 30
0.0
 41
1.0
 10
57.72821069395913
 20
227.5493726882585
 30
0.0
 41
1.0
 10
58.34542790099424
 20
227.3849982787421
 30
0.0
 41
1.0
 10
58.83920168945314
 20
227.2534987450483
 30
0.0
 41
1.0
 10
59.11694945492214
 20
227.1795302548262
 30
0.0
 41
1.0
 10
59.30211463627913
 20
227.1302179268456
 30
0.0
 41
1.0
 10
59.37926679585514
 20
227.1096711233398
 30
0.0
 41
1.0
 10
59.44098852411413
 20
227.0932336803763
 30
0.0
 41
1.0
 10
59.50271025197213
 20
227.076796237519
 30
0.0
 41
1.0
 10
59.61072327441514
 20
227.048030712868
 30
0.0
 41
1.0
 10
59.76502758843014
 20
227.0069371072246
 30
0.0
 41
1.0
 10
60.13535793314713
 20
226.9083124560563
 30
0.0
 41
1.0
 10
60.69085338669814
 20
226.7603754962213
 30
0.0
 41
1.0
 10
61.43151414852114
 20
226.5631261746062
 30
0.0
 41
1.0
 10
62.17217500412013
 20
226.3658768280173
 30
0.0
 41
1.0
 10
62.78939241493414
 20
226.2015023642312
 30
0.0
 41
1.0
 10
63.28316633307512
 20
226.0700027960013
 30
0.0
 41
1.0
 10
63.59177502116015
 20
225.9878155687213
 30
0.0
 41
1.0
 10
63.83866196234214
 20
225.9220657893705
 30
0.0
 41
1.0
 10
64.02382716059313
 20
225.8727534568907
 30
0.0
 41
1.0
 10
64.20899235878522
 20
225.8234411244266
 30
0.0
 41
1.0
 10
64.45587931203313
 20
225.7576913418623
 30
0.0
 41
1.0
 10
64.76448803123813
 20
225.6755041062946
 30
0.0
 41
1.0
 10
65.13481853113814
 20
225.5768794137987
 30
0.0
 41
1.0
 10
65.50514905680613
 20
225.4782547144404
 30
0.0
 41
1.0
 10
65.81375784158324
 20
225.3960674614098
 30
0.0
 41
1.0
 10
66.06064487260512
 20
225.3303176581332
 30
0.0
 41
1.0
 10
66.21494926711313
 20
225.2892240310534
 30
0.0
 41
1.0
 10
66.33839278265313
 20
225.2563491294075
 30
0.0
 41
1.0
 10
66.46183629630013
 20
225.2234742282654
 30
0.0
 41
1.0
 10
66.67786241980514
 20
225.1659431580253
 30
0.0
 41
1.0
 10
66.92474938925812
 20
225.1001933711454
 30
0.0
 41
1.0
 10
67.17163637013714
 20
225.0344435812227
 30
0.0
 41
1.0
 10
67.32594074660913
 20
224.9933499589461
 30
0.0
 41
1.0
 10
67.44938425966612
 20
224.9604750579612
 30
0.0
 41
1.0
 10
67.54196690300212
 20
224.9358188799474
 30
0.0
 41
1.0
 10
67.63454954853124
 20
224.9111627013497
 30
0.0
 41
1.0
 10
67.72713219074114
 20
224.8865065236355
 30
0.0
 41
1.0
 10
67.81971482621914
 20
224.8618503477147
 30
0.0
 41
1.0
 10
67.89686701340614
 20
224.8413035368558
 30
0.0
 41
1.0
 10
67.95858875603022
 20
224.8248660900662
 30
0.0
 41
1.0
 10
68.00488005915913
 20
224.8125380059967
 30
0.0
 41
1.0
 10
68.04345614149915
 20
224.8022646035642
 30
0.0
 41
1.0
 10
68.07431700552013
 20
224.7940458821112
 30
0.0
 41
1.0
 10
68.09746265155714
 20
224.7878818415482
 30
0.0
 41
1.0
 10
68.12060830373615
 20
224.7817177993498
 30
0.0
 41
1.0
 10
68.14375396087912
 20
224.7755537558293
 30
0.0
 41
1.0
 10
68.16689962238713
 20
224.7693897111466
 30
0.0
 41
1.0
 10
68.19776050925124
 20
224.76117098361
 30
0.0
 41
1.0
 10
68.23633662525613
 20
224.7508975722122
 30
0.0
 41
1.0
 10
68.29805841964414
 20
224.7344601116372
 30
0.0
 41
1.0
 10
68.37521066620513
 20
224.713913284966
 30
0.0
 41
1.0
 10
68.46779332517913
 20
224.6892571027875
 30
0.0
 41
1.0
 10
68.54494547063413
 20
224.6687103030428
 30
0.0
 41
1.0
 10
68.60666711395824
 20
224.652272882698
 30
0.0
 41
1.0
 10
68.64524310304014
 20
224.6419995051025
 30
0.0
 41
1.0
 10
68.67610386391513
 20
224.6337808111165
 30
0.0
 41
1.0
 10
68.69924941836115
 20
224.627616794954
 30
0.0
 41
1.0
 10
68.72239495750213
 20
224.6214527828278
 30
0.0
 41
1.0
 10
68.75325567196514
 20
224.613234101364
 30
0.0
 41
1.0
 10
68.78411630913115
 20
224.6050154393498
 30
0.0
 41
1.0
 10
68.81497710473114
 20
224.5967967383988
 30
0.0
 41
1.0
 10
68.83812224790123
 20
224.5906328248336
 30
0.0
 41
1.0
 10
68.86126910158814
 20
224.5844684886402
 30
0.0
 41
1.0
 10
68.88440955084512
 20
224.5783057350428
 30
0.0
 41
1.0
 10
68.90757389925014
 20
224.5721370758344
 30
0.0
 41
1.0
 10
68.93064905468712
 20
224.5659904566883
 30
0.0
 41
1.0
 10
68.95405708877324
 20
224.5597615813282
 30
0.0
 41
1.0
 10
68.97622281485913
 20
224.5538396871313
 30
0.0
 41
1.0
 10
69.00302492248714
 20
224.5467721169876
 30
0.0
 41
1.0
 10
69.01017358036215
 20
224.5446710337037
 30
0.0
 41
1.0
 10
69.03118131055786
 20
224.5392935023456
 30
0.0
 41
1.0
 10
69.03580297546014
 20
224.5379874204125
 30
0.0
 41
1.0
  0
LINE
  5
1A7
330
19D
100
AcDbEntity
  8
$DDT_AUDIT_GENERATED_(6B)
  6
Continuous
 62
     7
100
AcDbLine
 10
25.3675136628
 20
236.1675226773
 30
0.0
 11
40.7607573529
 21
232.0680657709
 31
0.0
  0
ARC
  5
1A8
330
19D
100
AcDbEntity
  8
$DDT_AUDIT_GENERATED_(6B)
  6
Continuous
 62
     7
100
AcDbCircle
 10
116.3391115376
 20
412.9035075707
 30
0.0
 40
194.21424299575
100
AcDbArc
 50
255.9031015355
 51
261.388990304
  0
ARC
  5
1A9
330
19D
100
AcDbEntity
  8
$DDT_AUDIT_GENERATED_(6B)
  6
Continuous
 62
     7
100
AcDbCircle
 10
136.5576213176
 20
261.4462480849
 30
0.0
 40
76.00596943526956
100
AcDbArc
 50
341.5352933865
 51
354.6395348189
  0
ARC
  5
1AA
330
19D
100
AcDbEntity
  8
$DDT_AUDIT_GENERATED_(6B)
  6
Continuous
 62
     7
100
AcDbCircle
 10
146.5213708049
 20
213.9246536857
 30
0.0
 40
7.073228751791993
100
AcDbArc
 50
98.3996297211
 51
124.08727583
  0
ARC
  5
1AB
330
19D
100
AcDbEntity
  8
$DDT_AUDIT_GENERATED_(6B)
  6
Continuous
 62
     7
100
AcDbCircle
 10
211.2420938287
 20
254.4395439781
 30
0.0
 40
1.000000970304645
100
AcDbArc
 50
354.5775188397
 51
90.001308191
  0
ARC
  5
1AC
330
19D
100
AcDbEntity
  8
$DDT_AUDIT_GENERATED_(6B)
  6
Continuous
 62
     7
100
AcDbCircle
 10
206.7846274895
 20
238.1000641273
 30
0.0
 40
2.000014243731617
100
AcDbArc
 50
284.8897673807
 51
341.7316682952
  0
ARC
  5
1AD
330
19D
100
AcDbEntity
  8
$DDT_AUDIT_GENERATED_(6B)
  6
Continuous
 62
     7
100
AcDbCircle
 10
86.1458820525
 20
213.9246536857
 30
0.0
 40
7.073228751792056
100
AcDbArc
 50
56.0283558842
 51
81.6003702789
  0
ARC
  5
1AE
330
19D
100
AcDbEntity
  8
$DDT_AUDIT_GENERATED_(6B)
  6
Continuous
 62
     7
100
AcDbCircle
 10
21.4251580661
 20
254.4395448536
 30
0.0
 40
1.000000094767449
100
AcDbArc
 50
89.9986366579
 51
185.4225363135
  0
ARC
  5
1AF
330
19D
100
AcDbEntity
  8
$DDT_AUDIT_GENERATED_(6B)
  6
Continuous
 62
     7
100
AcDbCircle
 10
96.2744198448
 20
261.4906159502
 30
0.0
 40
76.1763271427757
100
AcDbArc
 50
185.3821504695
 51
198.4571040822
  0
ARC
  5
1B0
330
19D
100
AcDbEntity
  8
$DDT_AUDIT_GENERATED_(6B)
  6
Continuous
 62
     7
100
AcDbCircle
 10
25.8827838467
 20
238.1001684905
 30
0.0
 40
2.000197450223605
100
AcDbArc
 50
198.2697464518
 51
255.4574996935
  0
ARC
  5
1B1
330
19D
100
AcDbEntity
  8
$DDT_AUDIT_GENERATED_(149)
  6
Continuous
 62
     7
100
AcDbCircle
 10
50.1827179955
 20
254.4408707331
 30
0.0
 40
1.000000000000001
100
AcDbArc
 50
90.0
 51
115.8419327632
  0
ARC
  5
1B2
330
19D
100
AcDbEntity
  8
$DDT_AUDIT_GENERATED_(149)
  6
Continuous
 62
     7
100
AcDbCircle
 10
32.4827179955
 20
254.4408707331
 30
0.0
 40
1.0
100
AcDbArc
 50
64.1580672368
 51
90.0
  0
SPLINE
  5
1B3
330
19D
100
AcDbEntity
  8
$DDT_AUDIT_GENERATED_(A2)
  6
Continuous
 62
     7
100
AcDbSpline
210
0.0
220
0.0
230
1.0
 70
     8
 71
     3
 72
     8
 73
     4
 74
     0
 42
0.0000000001122533
 43
0.0000000001
 40
0.8472363196129342
 40
0.8472363196129342
 40
0.8472363196129342
 40
0.8472363196129342
 40
0.8489967912810071
 40
0.8489967912810071
 40
0.8489967912810071
 40
0.8489967912810071
 10
92.08439183376959
 20
218.8694157943743
 30
0.0
 10
92.06756581301845
 20
218.9191456135033
 30
0.0
 10
92.05079496893303
 20
218.9686577898455
 30
0.0
 10
92.03407897790122
 20
219.0179564687813
 30
0.0
  0
SPLINE
  5
1B4
330
19D
100
AcDbEntity
  8
$DDT_AUDIT_GENERATED_(A2)
  6
Continuous
 62
     7
100
AcDbSpline
210
0.0
220
0.0
230
1.0
 70
     8
 71
     3
 72
     8
 73
     4
 74
     0
 42
0.0000000001256232
 43
0.0000000001
 40
0.8157882937131995
 40
0.8157882937131995
 40
0.8157882937131995
 40
0.8157882937131995
 40
0.8169004809541472
 40
0.8169004809541472
 40
0.8169004809541472
 40
0.8169004809541472
 10
140.6112815577794
 20
218.9363507872544
 30
0.0
 10
140.6207702807347
 20
218.9643648113456
 30
0.0
 10
140.6302432165331
 20
218.9923151671235
 30
0.0
 10
140.6396993836629
 20
219.0201996319566
 30
0.0
  0
ARC
  5
1B5
330
19D
100
AcDbEntity
  8
$DDT_AUDIT_GENERATED_(A2)
  6
Continuous
 62
     7
100
AcDbCircle
 10
137.9305945396
 20
227.728350811
 30
0.0
 40
5.978120672835909
100
AcDbArc
 50
354.7135619421
 51
4.5236997319
  0
SPLINE
  5
1B6
330
19D
100
AcDbEntity
  8
$DDT_AUDIT_GENERATED_(A2)
  6
Continuous
 62
     7
100
AcDbSpline
210
0.0
220
0.0
230
1.0
 70
     8
 71
     3
 72
    34
 73
    30
 74
     0
 42
0.000000000118135
 43
0.0000000001
 40
0.0
 40
0.0
 40
0.0
 40
0.0
 40
0.1249999999999999
 40
0.1249999999999999
 40
0.1874999999999999
 40
0.1874999999999999
 40
0.2499999999999998
 40
0.2499999999999998
 40
0.3124999999999998
 40
0.3124999999999998
 40
0.3749999999999998
 40
0.3749999999999998
 40
0.4999999999999997
 40
0.4999999999999997
 40
0.5624999999999998
 40
0.5624999999999998
 40
0.6249999999999998
 40
0.6249999999999998
 40
0.6874999999999997
 40
0.6874999999999997
 40
0.7499999999999997
 40
0.7499999999999997
 40
0.8124999999999997
 40
0.8124999999999997
 40
0.8749999999999997
 40
0.8749999999999997
 40
0.9374999999999998
 40
0.9374999999999998
 40
1.0
 40
1.0
 40
1.0
 40
1.0
 10
143.8900921395306
 20
228.1998538702285
 30
0.0
 10
143.5020280622637
 20
231.7210137246018
 30
0.0
 10
142.6275278506796
 20
235.1622023810063
 30
0.0
 10
140.4806554332871
 20
239.9823540319522
 30
0.0
 10
139.6140436357876
 20
241.5436607446383
 30
0.0
 10
137.634316959987
 20
244.4344911446452
 30
0.0
 10
136.5193547694768
 20
245.7823943937507
 30
0.0
 10
134.0339854663129
 20
248.2790863999854
 30
0.0
 10
132.6655129884321
 20
249.4185280895725
 30
0.0
 10
129.7767808570798
 20
251.3878327982101
 30
0.0
 10
128.2426418668835
 20
252.2297082134604
 30
0.0
 10
123.3608103203241
 20
254.3109469687914
 30
0.0
 10
119.88282548221
 20
255.052247702851
 30
0.0
 10
114.5796911497964
 20
255.0553678897855
 30
0.0
 10
112.8386364818836
 20
254.8699224909689
 30
0.0
 10
109.4054116266271
 20
254.1570453876196
 30
0.0
 10
107.6985098010429
 20
253.6211214866974
 30
0.0
 10
104.4659551099496
 20
252.2468839354465
 30
0.0
 10
102.9275090547335
 20
251.4076103003122
 30
0.0
 10
100.0083469694786
 20
249.4207116378462
 30
0.0
 10
98.64478775203042
 20
248.2833080201557
 30
0.0
 10
96.17133483691968
 20
245.8014871816027
 30
0.0
 10
95.04345473401702
 20
244.4424564892574
 30
0.0
 10
93.0446560234826
 20
241.5218248025823
 30
0.0
 10
92.19582753039133
 20
239.9881038796459
 30
0.0
 10
90.76899728642553
 20
236.7886315670547
 30
0.0
 10
90.18816409035668
 20
235.1119403494197
 30
0.0
 10
89.29304658464575
 20
231.6954363848173
 30
0.0
 10
88.97694191138727
 20
229.9604276771803
 30
0.0
 10
88.78290081783327
 20
228.1998536153784
 30
0.0
  0
ARC
  5
1B7
330
19D
100
AcDbEntity
  8
$DDT_AUDIT_GENERATED_(A2)
  6
Continuous
 62
     7
100
AcDbCircle
 10
94.7437773599
 20
227.7283611525
 30
0.0
 40
5.979494484633742
100
AcDbArc
 50
175.4774436216
 51
185.2853185893
  0
SPLINE
  5
1B8
330
19D
100
AcDbEntity
  8
$DDT_AUDIT_GENERATED_(A2)
  6
Continuous
 62
     7
100
AcDbSpline
210
0.0
220
0.0
230
1.0
 70
     8
 71
     3
 72
    14
 73
    10
 74
     0
 42
0.0000000001162156
 43
0.0000000001
 40
0.0
 40
0.0
 40
0.0
 40
0.0
 40
0.0625
 40
0.0625
 40
0.125
 40
0.125
 40
0.1875000000000001
 40
0.1875000000000001
 40
0.2004139815979991
 40
0.2004139815979991
 40
0.2004139815979991
 40
0.2004139815979991
 10
88.78970568600049
 20
227.1775573813817
 30
0.0
 10
88.88111204847438
 20
225.3767587935287
 30
0.0
 10
89.12673186597394
 20
223.5801793646646
 30
0.0
 10
89.91814555335584
 20
220.0964748671803
 30
0.0
 10
90.46150998398478
 20
218.4013546157113
 30
0.0
 10
91.86038332619735
 20
215.1099039134889
 30
0.0
 10
92.72080994232122
 20
213.5105415216483
 30
0.0
 10
93.91207534689322
 20
211.722474498529
 30
0.0
 10
94.1217579060713
 20
211.4205470967918
 30
0.0
 10
94.33718350270503
 20
211.1229236806971
 30
0.0
  0
SPLINE
  5
1B9
330
19D
100
AcDbEntity
  8
$DDT_AUDIT_GENERATED_(A2)
  6
Continuous
 62
     7
100
AcDbSpline
210
0.0
220
0.0
230
1.0
 70
     8
 71
     3
 72
    14
 73
    10
 74
     0
 42
0.0000000001161656
 43
0.0000000001
 40
0.7993908842157789
 40
0.7993908842157789
 40
0.7993908842157789
 40
0.7993908842157789
 40
0.8125
 40
0.8125
 40
0.875
 40
0.875
 40
0.9375
 40
0.9375
 40
1.0
 40
1.0
 40
1.0
 40
1.0
 10
138.3214487176824
 20
211.1036116960809
 30
0.0
 10
138.5426849000688
 20
211.4084896238894
 30
0.0
 10
138.7577811745409
 20
211.7177588487162
 30
0.0
 10
139.9609721117013
 20
213.5243888397339
 30
0.0
 10
140.8050560604283
 20
215.093850453391
 30
0.0
 10
142.2030453597863
 20
218.3794371995006
 30
0.0
 10
142.7590913529008
 20
220.1081800377356
 30
0.0
 10
143.5505260963611
 20
223.6016512839981
 30
0.0
 10
143.7919114302547
 20
225.3767579185614
 30
0.0
 10
143.883287482103
 20
227.1775572828698
 30
0.0
  0
ARC
  5
1BA
330
19D
100
AcDbEntity
  8
$DDT_AUDIT_GENERATED_(A2)
  6
Continuous
 62
     7
100
AcDbCircle
 10
214.0835779728
 20
133.2818774455
 30
0.0
 40
114.204300961915
100
AcDbArc
 50
182.0158338784
 51
183.4672363376
  0
ARC
  5
1BB
330
19D
100
AcDbEntity
  8
$DDT_AUDIT_GENERATED_(A2)
  6
Continuous
 62
     7
100
AcDbCircle
 10
21.8633170795
 20
133.4475534934
 30
0.0
 40
110.9394235170034
100
AcDbArc
 50
356.3449865839
 51
357.8113570594
  0
SPLINE
  5
1BC
330
19D
100
AcDbEntity
  8
$DDT_AUDIT_GENERATED_(A2)
  6
Continuous
 62
     7
100
AcDbSpline
210
0.0
220
0.0
230
1.0
 70
     8
 71
     3
 72
    38
 73
    34
 74
     0
 42
0.0000000001715877
 43
0.0000000001
 40
0.0
 40
0.0
 40
0.0
 40
0.0
 40
0.0374769711264639
 40
0.0797810915765692
 40
0.1193402850059263
 40
0.1562169018600403
 40
0.1905664011386931
 40
0.222308971739283
 40
0.2651873109047812
 40
0.3025329984249736
 40
0.3343966089294001
 40
0.3609090093452882
 40
0.3822034848192869
 40
0.3990885379390533
 40
0.4170135801878465
 40
0.4368150833326643
 40
0.4661115618877399
 40
0.4987176872560167
 40
0.5343791606653134
 40
0.5610535271204784
 40
0.5873130105101521
 40
0.6382853980489469
 40
0.671008856652975
 40
0.6993349809041127
 40
0.7225049407451907
 40
0.7364864187069365
 40
0.7532847482555497
 40
0.7771980467129964
 40
0.8082992499865655
 40
0.8467380326008678
 40
0.8925697519048265
 40
0.9461390305273392
 40
1.0
 40
1.0
 40
1.0
 40
1.0
 10
100.088734861855
 20
126.3719051964513
 30
0.0
 10
100.1508886472583
 20
125.5967070313343
 30
0.0
 10
100.2613889909718
 20
124.20391471235
 30
0.0
 10
100.4523448589274
 20
121.914638516419
 30
0.0
 10
100.6127023249981
 20
119.6904494740207
 30
0.0
 10
101.0814541868914
 20
117.6385620128266
 30
0.0
 10
101.7530613058132
 20
115.798622016043
 30
0.0
 10
102.7025312893943
 20
113.9417602842953
 30
0.0
 10
103.9434265635496
 20
112.1682612078683
 30
0.0
 10
105.4502804545721
 20
110.5849710957019
 30
0.0
 10
106.9127011336446
 20
109.4011753705013
 30
0.0
 10
108.2388349131358
 20
108.5496452866345
 30
0.0
 10
109.3786550920381
 20
107.9548024317805
 30
0.0
 10
110.4047867636357
 20
107.5092519090098
 30
0.0
 10
111.4329466234929
 20
107.1409775668536
 30
0.0
 10
112.7270127336299
 20
106.7776735363531
 30
0.0
 10
114.3452871880933
 20
106.4802440277074
 30
0.0
 10
116.3104556187234
 20
106.35
 30
0.0
 10
118.2249612470975
 20
106.4679659013571
 30
0.0
 10
119.9799895255763
 20
106.78366901024
 30
0.0
 10
121.98451907251
 20
107.3532539186703
 30
0.0
 10
123.9953646507296
 20
108.2556027381525
 30
0.0
 10
125.8476671882677
 20
109.4655018173907
 30
0.0
 10
127.1179781919028
 20
110.5194878102044
 30
0.0
 10
128.0155689061549
 20
111.4242083566693
 30
0.0
 10
128.6988513931828
 20
112.2150605821992
 30
0.0
 10
129.3422855250733
 20
113.0535769778525
 30
0.0
 10
130.0988515017461
 20
114.2110631880837
 30
0.0
 10
130.9189589682222
 20
115.8021956302318
 30
0.0
 10
131.6755906248846
 20
117.8721431535185
 30
0.0
 10
132.1514533414949
 20
120.4333376677678
 30
0.0
 10
132.3188067087497
 20
123.3824573687768
 30
0.0
 10
132.4878153250489
 20
125.2558911004528
 30
0.0
 10
132.576567628336
 20
126.3718870895316
 30
0.0
  0
SPLINE
  5
1BD
330
19D
100
AcDbEntity
  8
$DDT_AUDIT_GENERATED_(A2)
  6
Continuous
 62
     7
100
AcDbSpline
210
0.0
220
0.0
230
1.0
 70
     8
 71
     3
 72
    38
 73
    34
 74
     0
 42
0.0000000001105176
 43
0.0000000001
 40
0.0026083364782924
 40
0.0026083364782924
 40
0.0026083364782924
 40
0.0026083364782924
 40
0.0220172742693214
 40
0.0393836859026124
 40
0.0520360341672957
 40
0.0627699413428142
 40
0.0718416561072093
 40
0.0822565599680649
 40
0.0940066485160997
 40
0.1070899136432793
 40
0.1215110826914207
 40
0.1812743784026813
 40
0.2406755565378359
 40
0.2990955064512779
 40
0.3561679453457613
 40
0.4118554640847493
 40
0.4676985037890518
 40
0.5261554238246802
 40
0.5868770941700323
 40
0.6459347178398466
 40
0.6988064987258632
 40
0.7150299337493885
 40
0.7303748690963822
 40
0.7447536442394583
 40
0.7581430506952808
 40
0.7705530126366106
 40
0.7858854880733365
 40
0.8072575660197734
 40
0.8346481292664696
 40
0.8679992528791126
 40
0.9073396664697531
 40
0.9526218624938889
 40
1.0
 40
1.0
 40
1.0
 40
1.0
 10
92.08865134575436
 20
218.8530871225436
 30
0.0
 10
92.21475582026804
 20
218.4716625985431
 30
0.0
 10
92.42508103144333
 20
217.8313712887886
 30
0.0
 10
92.74144389246025
 20
216.8105268524729
 30
0.0
 10
93.00405065037324
 20
215.9437621690653
 30
0.0
 10
93.2231491369815
 20
215.2036686156506
 30
0.0
 10
93.43464477839322
 20
214.4750794115993
 30
0.0
 10
93.65393808907517
 20
213.7037282939064
 30
0.0
 10
93.90254907472148
 20
212.8091291890523
 30
0.0
 10
94.1783733771928
 20
211.7888300523831
 30
0.0
 10
94.78474163053124
 20
209.4675796740223
 30
0.0
 10
95.64282550263755
 20
205.7479744211223
 30
0.0
 10
96.5635306077759
 20
200.547372631461
 30
0.0
 10
97.14368402769868
 20
195.2415303746008
 30
0.0
 10
97.51779199793921
 20
189.950412708424
 30
0.0
 10
97.82866543838377
 20
184.6943570927608
 30
0.0
 10
98.11713191245747
 20
179.3699676282598
 30
0.0
 10
98.40364946627174
 20
173.8745893139506
 30
0.0
 10
98.67419595543507
 20
168.2838057305776
 30
0.0
 10
98.90538811125319
 20
162.8651828267795
 30
0.0
 10
99.06032781113693
 20
158.8406270305701
 30
0.0
 10
99.15703228998078
 20
156.1879172326988
 30
0.0
 10
99.20837139875793
 20
154.744204360771
 30
0.0
 10
99.25546653852393
 20
153.3892791886861
 30
0.0
 10
99.29843164795129
 20
152.1263386339936
 30
0.0
 10
99.34155814865962
 20
150.8331392905445
 30
0.0
 10
99.39200625181057
 20
149.2885401643384
 30
0.0
 10
99.45613166133943
 20
147.2722834975629
 30
0.0
 10
99.53561707001973
 20
144.6897091112425
 30
0.0
 10
99.62903196636418
 20
141.5367446277827
 30
0.0
 10
99.73286637732764
 20
137.8421467888238
 30
0.0
 10
99.84777674315099
 20
133.6057791912427
 30
0.0
 10
99.91114847543298
 20
130.9040754766442
 30
0.0
 10
99.94951360279892
 20
129.2632430678127
 30
0.0
  0
SPLINE
  5
1BE
330
19D
100
AcDbEntity
  8
$DDT_AUDIT_GENERATED_(A2)
  6
Continuous
 62
     7
100
AcDbSpline
210
0.0
220
0.0
230
1.0
 70
     8
 71
     3
 72
    37
 73
    33
 74
     0
 42
0.0000000001105411
 43
0.0000000001
 40
0.0
 40
0.0
 40
0.0
 40
0.0
 40
0.0396784966757263
 40
0.0767454334240091
 40
0.1074415191096159
 40
0.1316956094192336
 40
0.1522932250031944
 40
0.1732857787393568
 40
0.1947031856334197
 40
0.2239969485188588
 40
0.2501498717144908
 40
0.2743396144034164
 40
0.3019788052357826
 40
0.3574941496709618
 40
0.4103172038254956
 40
0.4620196399061823
 40
0.5137843680824992
 40
0.5726250816436205
 40
0.6308737144340165
 40
0.6893012824868814
 40
0.7484511577677023
 40
0.7792474634849137
 40
0.8111863640582241
 40
0.8453109132703556
 40
0.8808800859885438
 40
0.9006259594092982
 40
0.9159439713753114
 40
0.9298221212421941
 40
0.9422459202735363
 40
0.9565442740936501
 40
0.9754364592824066
 40
1.0
 40
1.0
 40
1.0
 40
1.0
 10
132.7221342574715
 20
129.2093757456944
 30
0.0
 10
132.7539804666818
 20
130.584716734658
 30
0.0
 10
132.8059792675531
 20
132.8234861989886
 30
0.0
 10
132.8976467318716
 20
136.2743393928878
 30
0.0
 10
132.9768727813151
 20
139.1589183364394
 30
0.0
 10
133.0446561707174
 20
141.5407637054755
 30
0.0
 10
133.1054439566238
 20
143.6133915103439
 30
0.0
 10
133.1652104938154
 20
145.5970951105061
 30
0.0
 10
133.2350872060761
 20
147.8540076324545
 30
0.0
 10
133.3125806896302
 20
150.2729468275169
 30
0.0
 10
133.3962418118357
 20
152.7784346112549
 30
0.0
 10
133.4814119100358
 20
155.2310604495131
 30
0.0
 10
133.6033821947242
 20
158.6059097753063
 30
0.0
 10
133.7683971122955
 20
162.8792293124975
 30
0.0
 10
133.9828190346988
 20
167.9050567617352
 30
0.0
 10
134.216965901504
 20
172.8102257480053
 30
0.0
 10
134.4784696368269
 20
177.9063367350383
 30
0.0
 10
134.763572067907
 20
183.2045877009376
 30
0.0
 10
135.0756530996529
 20
188.6895448935296
 30
0.0
 10
135.4423535086303
 20
194.1448559781405
 30
0.0
 10
135.883039801109
 20
198.6749577516568
 30
0.0
 10
136.428024568254
 20
202.301970559095
 30
0.0
 10
136.9380040325847
 20
205.1266607315797
 30
0.0
 10
137.5446240149206
 20
208.0031945075497
 30
0.0
 10
138.1400661030644
 20
210.4475372019727
 30
0.0
 10
138.6329114252568
 20
212.3088063058149
 30
0.0
 10
138.9781300209186
 20
213.5604823829957
 30
0.0
 10
139.2701098670102
 20
214.5877010538376
 30
0.0
 10
139.5520034391132
 20
215.5526014759218
 30
0.0
 10
139.8666359648825
 20
216.5997429486303
 30
0.0
 10
140.2418407922087
 20
217.8063282282687
 30
0.0
 10
140.4787777791861
 20
218.5308239961969
 30
0.0
 10
140.6363961573969
 20
219.0104583670932
 30
0.0
  0
ARC
  5
1BF
330
19D
100
AcDbEntity
  8
$DDT_AUDIT_GENERATED_(149)
  6
Continuous
 62
     7
100
AcDbCircle
 10
200.1827178974
 20
254.4408707331
 30
0.0
 40
1.000000000000001
100
AcDbArc
 50
90.0
 51
115.8419327632
  0
ARC
  5
1C0
330
19D
100
AcDbEntity
  8
$DDT_AUDIT_GENERATED_(149)
  6
Continuous
 62
     7
100
AcDbCircle
 10
182.4827178974
 20
254.4408707331
 30
0.0
 40
1.000000000000002
100
AcDbArc
 50
64.1580672368
 51
90.0
  0
LINE
  5
1C1
330
19D
100
AcDbEntity
  8
09719038_ROSETTE
  6
Continuous
 62
     7
100
AcDbLine
 10
63.7420296058
 20
274.4408707331
 30
0.0
 11
18.923406189
 21
274.4408707331
 31
0.0
  0
LINE
  5
1C2
330
19D
100
AcDbEntity
  8
09719038_ROSETTE
  6
Continuous
 62
     7
100
AcDbLine
 10
75.8154357948
 20
324.4408707331
 30
0.0
 11
6.85
 21
324.4408707331
 31
0.0
  0
ARC
  5
1C3
330
19D
100
AcDbEntity
  8
09719038_ROSETTE
  6
Continuous
 62
     7
100
AcDbCircle
 10
-123.5604951447
 20
330.9756530329
 30
0.0
 40
200.0
100
AcDbArc
 50
344.9009459592
 51
357.9792134767
  0
ARC
  5
1C4
330
19D
100
AcDbEntity
  8
09719038_ROSETTE
  6
Continuous
 62
     7
100
AcDbCircle
 10
206.2259309395
 20
330.9756530329
 30
0.0
 40
200.0
100
AcDbArc
 50
182.0207865233
 51
195.0990540408
  0
ARC
  5
1C5
330
19D
100
AcDbEntity
  8
09719038_ROSETTE
  6
Continuous
 62
     7
100
AcDbCircle
 10
63.7420296058
 20
280.4408707331
 30
0.0
 40
5.999999999999998
100
AcDbArc
 50
270.0
 51
344.9009459592
  0
ARC
  5
1C6
330
19D
100
AcDbEntity
  8
09719038_ROSETTE
  6
Continuous
 62
     7
100
AcDbCircle
 10
18.923406189
 20
280.4408707331
 30
0.0
 40
5.999999999999999
100
AcDbArc
 50
195.0990540408
 51
270.0
  0
ARC
  5
1C7
330
19D
100
AcDbEntity
  8
09719038_ROSETTE
  6
Continuous
 62
     7
100
AcDbCircle
 10
6.85
 20
323.9408707331
 30
0.0
 40
0.5000000000000004
100
AcDbArc
 50
90.0
 51
182.0207865233
  0
ARC
  5
1C8
330
19D
100
AcDbEntity
  8
09719038_ROSETTE
  6
Continuous
 62
     7
100
AcDbCircle
 10
75.8154357948
 20
323.9408707331
 30
0.0
 40
0.5000000000000109
100
AcDbArc
 50
357.9792134767
 51
90.0
  0
LINE
  5
1C9
330
19D
100
AcDbEntity
  8
04165000_H_LSE_0
  6
Continuous
 62
     7
100
AcDbLine
 10
60.3827178974
 20
255.4408707331
 30
0.0
 11
22.2827178974
 21
255.4408707331
 31
0.0
  0
LINE
  5
1CA
330
19D
100
AcDbEntity
  8
04165000_H_LSE_0
  6
Continuous
 62
     7
100
AcDbLine
 10
60.5827178974
 20
255.6408707331
 30
0.0
 11
60.5827178974
 21
274.4408707331
 31
0.0
  0
LINE
  5
1CB
330
19D
100
AcDbEntity
  8
04165000_H_LSE_0
  6
Continuous
 62
     7
100
AcDbLine
 10
22.0827178974
 20
274.4408707331
 30
0.0
 11
22.0827178974
 21
255.6408707331
 31
0.0
  0
ARC
  5
1CC
330
19D
100
AcDbEntity
  8
04165000_H_LSE_0
  6
Continuous
 62
     7
100
AcDbCircle
 10
22.2827178974
 20
255.6408707331
 30
0.0
 40
0.1999999999999919
100
AcDbArc
 50
180.0
 51
270.0
  0
ARC
  5
1CD
330
19D
100
AcDbEntity
  8
04165000_H_LSE_0
  6
Continuous
 62
     7
100
AcDbCircle
 10
60.3827178974
 20
255.6408707331
 30
0.0
 40
0.1999999999999988
100
AcDbArc
 50
270.0
 51
0.0
  0
LINE
  5
1CE
330
19D
100
AcDbEntity
  8
09719038_ROSETTE
  6
Continuous
 62
     7
100
AcDbLine
 10
213.7420296058
 20
274.4408707331
 30
0.0
 11
168.923406189
 21
274.4408707331
 31
0.0
  0
LINE
  5
1CF
330
19D
100
AcDbEntity
  8
09719038_ROSETTE
  6
Continuous
 62
     7
100
AcDbLine
 10
156.85
 20
324.4408707331
 30
0.0
 11
225.8154357948
 21
324.4408707331
 31
0.0
  0
ARC
  5
1D0
330
19D
100
AcDbEntity
  8
09719038_ROSETTE
  6
Continuous
 62
     7
100
AcDbCircle
 10
26.4395048553
 20
330.9756530329
 30
0.0
 40
200.0
100
AcDbArc
 50
344.9009459592
 51
357.9792134767
  0
ARC
  5
1D1
330
19D
100
AcDbEntity
  8
09719038_ROSETTE
  6
Continuous
 62
     7
100
AcDbCircle
 10
356.2259309395
 20
330.9756530329
 30
0.0
 40
200.0
100
AcDbArc
 50
182.0207865233
 51
195.0990540408
  0
ARC
  5
1D2
330
19D
100
AcDbEntity
  8
09719038_ROSETTE
  6
Continuous
 62
     7
100
AcDbCircle
 10
213.7420296058
 20
280.4408707331
 30
0.0
 40
5.999999999999998
100
AcDbArc
 50
270.0
 51
344.9009459592
  0
ARC
  5
1D3
330
19D
100
AcDbEntity
  8
09719038_ROSETTE
  6
Continuous
 62
     7
100
AcDbCircle
 10
168.923406189
 20
280.4408707331
 30
0.0
 40
6.000000000000004
100
AcDbArc
 50
195.0990540408
 51
270.0
  0
ARC
  5
1D4
330
19D
100
AcDbEntity
  8
09719038_ROSETTE
  6
Continuous
 62
     7
100
AcDbCircle
 10
156.85
 20
323.9408707331
 30
0.0
 40
0.5000000000000004
100
AcDbArc
 50
90.0
 51
182.0207865233
  0
ARC
  5
1D5
330
19D
100
AcDbEntity
  8
09719038_ROSETTE
  6
Continuous
 62
     7
100
AcDbCircle
 10
225.8154357948
 20
323.9408707331
 30
0.0
 40
0.5000000000000034
100
AcDbArc
 50
357.9792134767
 51
90.0
  0
LINE
  5
1D6
330
19D
100
AcDbEntity
  8
04165000_H_LSE_0
  6
Continuous
 62
     7
100
AcDbLine
 10
210.3827178974
 20
255.4408707331
 30
0.0
 11
172.2827178974
 21
255.4408707331
 31
0.0
  0
LINE
  5
1D7
330
19D
100
AcDbEntity
  8
04165000_H_LSE_0
  6
Continuous
 62
     7
100
AcDbLine
 10
210.5827178974
 20
255.6408707331
 30
0.0
 11
210.5827178974
 21
274.4408707331
 31
0.0
  0
LINE
  5
1D8
330
19D
100
AcDbEntity
  8
04165000_H_LSE_0
  6
Continuous
 62
     7
100
AcDbLine
 10
172.0827178974
 20
274.4408707331
 30
0.0
 11
172.0827178974
 21
255.6408707331
 31
0.0
  0
ARC
  5
1D9
330
19D
100
AcDbEntity
  8
04165000_H_LSE_0
  6
Continuous
 62
     7
100
AcDbCircle
 10
172.2827178974
 20
255.6408707331
 30
0.0
 40
0.1999999999999988
100
AcDbArc
 50
180.0
 51
270.0
  0
ARC
  5
1DA
330
19D
100
AcDbEntity
  8
04165000_H_LSE_0
  6
Continuous
 62
     7
100
AcDbCircle
 10
210.3827178974
 20
255.6408707331
 30
0.0
 40
0.1999999999999988
100
AcDbArc
 50
270.0
 51
0.0
  0
ENDBLK
  5
1DC
330
19D
100
AcDbEntity
  8
0
100
AcDbBlockEnd
  0
ENDSEC
  0
SECTION
  2
ENTITIES
  0
INSERT
  5
5F
330
1F
100
AcDbEntity
  8
Default
100
AcDbBlockReference
  2
SEANNOT_GROUP
 10
0.0
 20
0.0
 30
0.0
  0
INSERT
  5
65
330
1F
100
AcDbEntity
  8
Default
100
AcDbBlockReference
  2
SEANNOT_GROUP1
 10
0.0
 20
0.0
 30
0.0
  0
INSERT
  5
6A
330
1F
100
AcDbEntity
  8
Default
100
AcDbBlockReference
  2
SE
 10
0.0
 20
0.0
 30
0.0
  0
INSERT
  5
11C
330
1F
100
AcDbEntity
  8
Default
100
AcDbBlockReference
  2
SE1
 10
0.0
 20
0.0
 30
0.0
  0
INSERT
  5
19E
330
1F
100
AcDbEntity
  8
Default
100
AcDbBlockReference
  2
SE2
 10
0.0
 20
0.0
 30
0.0
  0
TEXT
  5
1DE
330
1F
100
AcDbEntity
  8
Default
  6
Continuous
 62
     7
100
AcDbText
 10
5.9362635081
 20
53.4225120485
 30
0.0
 40
10.0
  1
Grohe AG^J
  7
SEACAD_seiso_ttf
 11
5.9362635081
 21
63.4225120485
 31
0.0
100
AcDbText
 73
     3
  0
TEXT
  5
1DF
330
1F
100
AcDbEntity
  8
Default
  6
Continuous
 62
     7
100
AcDbText
 10
5.9362635081
 20
37.0588756849
 30
0.0
 40
10.0
  1
 
  7
SEACAD_seiso_ttf
 11
5.9362635081
 21
47.0588756849
 31
0.0
100
AcDbText
 73
     3
  0
TEXT
  5
1E0
330
1F
100
AcDbEntity
  8
Default
  6
Continuous
 62
     7
100
AcDbText
 10
5.9362635081
 20
20.6952393213
 30
0.0
 40
10.0
  1
ecn: 
  7
SEACAD_seiso_ttf
 11
5.9362635081
 21
30.6952393213
 31
0.0
100
AcDbText
 73
     3
  0
TEXT
  5
1E1
330
1F
100
AcDbEntity
  8
Default
  6
Continuous
 62
     7
100
AcDbText
 10
5.9362635081
 20
4.3316029576
 30
0.0
 40
10.0
  1
unit: mm
  7
SEACAD_seiso_ttf
 11
5.9362635081
 21
14.3316029576
 31
0.0
100
AcDbText
 73
     3
  0
LINE
  5
1E2
330
1F
100
AcDbEntity
  8
Default
  6
Continuous
 62
     7
100
AcDbLine
 10
0.0
 20
0.0
 30
0.0
 11
100.0
 21
0.0
 31
0.0
  0
LINE
  5
1E3
330
1F
100
AcDbEntity
  8
Default
  6
Continuous
 62
     7
100
AcDbLine
 10
0.0
 20
0.0
 30
0.0
 11
0.0
 21
100.0
 31
0.0
  0
TEXT
  5
1E4
330
1F
100
AcDbEntity
  8
Default
  6
Continuous
 62
     7
100
AcDbText
 10
24.3923665681
 20
-18.2375342018
 30
0.0
 40
10.0
  1
100 mm
  7
SEACAD_seiso_ttf
 11
24.3923665681
 21
-8.2375342018
 31
0.0
100
AcDbText
 73
     3
  0
TEXT
  5
1E5
330
1F
100
AcDbEntity
  8
Default
  6
Continuous
 62
     7
100
AcDbText
 10
-7.6150308803
 20
24.6231930421
 30
0.0
 40
10.0
  1
100 mm
 50
90.0
  7
SEACAD_seiso_ttf
 11
-17.6150308803
 21
24.6231930421
 31
0.0
100
AcDbText
 73
     3
  0
TEXT
  5
1E6
330
1F
100
AcDbEntity
  8
Default
  6
Continuous
 62
     7
100
AcDbText
 10
28.4878128572
 20
20.0907663715
 30
0.0
 40
10.0
  1
217403
  7
SEACAD_seiso_ttf
 11
28.4878128572
 21
30.0907663715
 31
0.0
100
AcDbText
 73
     3
  0
TEXT
  5
1E7
330
1F
100
AcDbEntity
  8
Default
  6
Continuous
 62
     7
100
AcDbText
 10
5.9012241913
 20
36.7242780188
 30
0.0
 40
10.0
  1
32768000
  7
SEACAD_seiso_ttf
 11
5.9012241913
 21
46.7242780188
 31
0.0
100
AcDbText
 73
     3
  0
ENDSEC
  0
SECTION
  2
OBJECTS
  0
DICTIONARY
  5
C
330
0
100
AcDbDictionary
281
     1
  3
ACAD_GROUP
350
D
  3
ACAD_LAYOUT
350
1A
  3
ACAD_MLEADERSTYLE
350
1EB
  3
ACAD_MLINESTYLE
350
17
  3
ACAD_PLOTSETTINGS
350
19
  3
ACAD_PLOTSTYLENAME
350
E
  3
ACAD_SCALELIST
350
3B
  3
ACAD_TABLESTYLE
350
1EA
  3
ACAD_VISUALSTYLE
350
2A
  3
AcDbVariableDictionary
350
1E8
  0
DICTIONARY
  5
D
102
{ACAD_REACTORS
330
C
102
}
330
C
100
AcDbDictionary
281
     1
  0
DICTIONARY
  5
1A
102
{ACAD_REACTORS
330
C
102
}
330
C
100
AcDbDictionary
281
     1
  3
Layout1
350
1E
  3
Model
350
22
  0
DICTIONARY
  5
1EB
102
{ACAD_REACTORS
330
C
102
}
330
C
100
AcDbDictionary
281
     1
  0
DICTIONARY
  5
17
102
{ACAD_REACTORS
330
C
102
}
330
C
100
AcDbDictionary
281
     1
  3
Standard
350
18
  0
DICTIONARY
  5
19
102
{ACAD_REACTORS
330
C
102
}
330
C
100
AcDbDictionary
281
     1
  0
ACDBDICTIONARYWDFLT
  5
E
102
{ACAD_REACTORS
330
C
102
}
330
C
100
AcDbDictionary
281
     1
  3
Normal
350
F
100
AcDbDictionaryWithDefault
340
F
  0
DICTIONARY
  5
3B
102
{ACAD_REACTORS
330
C
102
}
330
C
100
AcDbDictionary
281
     1
  3
A0
350
3C
  3
A1
350
3D
  3
A2
350
3E
  3
A3
350
3F
  3
A4
350
40
  3
A5
350
41
  3
A6
350
42
  3
A7
350
43
  3
A8
350
44
  3
A9
350
45
  3
B0
350
46
  3
B1
350
47
  3
B2
350
48
  3
B3
350
49
  3
B4
350
4A
  3
B5
350
4B
  3
B6
350
4C
  3
B7
350
4D
  3
B8
350
4E
  3
B9
350
4F
  3
C0
350
50
  3
C1
350
51
  3
C2
350
52
  3
C3
350
53
  3
C4
350
54
  3
C5
350
55
  3
C6
350
56
  3
C7
350
57
  3
C8
350
58
  3
C9
350
59
  3
D0
350
5A
  3
D1
350
5B
  3
D2
350
5C
  0
DICTIONARY
  5
1EA
102
{ACAD_REACTORS
330
C
102
}
330
C
100
AcDbDictionary
281
     1
  0
DICTIONARY
  5
2A
102
{ACAD_REACTORS
330
C
102
}
330
C
100
AcDbDictionary
281
     1
  3
2dWireframe
350
2F
  3
3D Hidden
350
31
  3
3dWireframe
350
30
  3
Basic
350
32
  3
Brighten
350
36
  3
ColorChange
350
3A
  3
Conceptual
350
34
  3
Dim
350
35
  3
Facepattern
350
39
  3
Flat
350
2B
  3
FlatWithEdges
350
2C
  3
Gouraud
350
2D
  3
GouraudWithEdges
350
2E
  3
Linepattern
350
38
  3
Realistic
350
33
  3
Thicken
350
37
  0
DICTIONARY
  5
1E8
102
{ACAD_REACTORS
330
C
102
}
330
C
100
AcDbDictionary
281
     1
  3
CANNOSCALE
350
1E9
  3
PSOLHEIGHT
350
1ED
  3
PSOLWIDTH
350
1EC
  0
LAYOUT
  5
1E
102
{ACAD_REACTORS
330
1A
102
}
330
1A
100
AcDbPlotSettings
  1

  2
none_device
  4

  6

 40
0.0
 41
0.0
 42
0.0
 43
0.0
 44
0.0
 45
0.0
 46
0.0
 47
0.0
 48
0.0
 49
0.0
140
0.0
141
0.0
142
1.0
143
1.0
 70
   688
 72
     0
 73
     0
 74
     5
  7

 75
    16
147
1.0
148
0.0
149
0.0
100
AcDbLayout
  1
Layout1
 70
     1
 71
     1
 10
0.0
 20
0.0
 11
1682.0
 21
2378.0
 12
0.0
 22
0.0
 32
0.0
 14
0.0
 24
0.0
 34
0.0
 15
1682.0
 25
2378.0
 35
0.0
146
0.0
 13
0.0
 23
0.0
 33
0.0
 16
1.0
 26
0.0
 36
0.0
 17
0.0
 27
1.0
 37
0.0
 76
     0
330
1B
  0
LAYOUT
  5
22
102
{ACAD_REACTORS
330
1A
102
}
330
1A
100
AcDbPlotSettings
  1

  2
none_device
  4

  6

 40
0.0
 41
0.0
 42
0.0
 43
0.0
 44
0.0
 45
0.0
 46
0.0
 47
0.0
 48
0.0
 49
0.0
140
0.0
141
0.0
142
1.0
143
1.0
 70
  1712
 72
     0
 73
     0
 74
     0
  7

 75
     0
147
1.0
148
0.0
149
0.0
100
AcDbLayout
  1
Model
 70
     1
 71
     0
 10
0.0
 20
0.0
 11
1682.0
 21
2378.0
 12
0.0
 22
0.0
 32
0.0
 14
0.0
 24
0.0
 34
0.0
 15
1682.0
 25
2378.0
 35
0.0
146
0.0
 13
0.0
 23
0.0
 33
0.0
 16
1.0
 26
0.0
 36
0.0
 17
0.0
 27
1.0
 37
0.0
 76
     0
330
1F
331
29
  0
MLINESTYLE
  5
18
102
{ACAD_REACTORS
330
17
102
}
330
17
100
AcDbMlineStyle
  2
Standard
 70
     0
  3

 62
   256
 51
90.0
 52
90.0
 71
     2
 49
0.5
 62
   256
  6
BYLAYER
 49
-0.5
 62
   256
  6
BYLAYER
  0
ACDBPLACEHOLDER
  5
F
102
{ACAD_REACTORS
330
E
102
}
330
E
  0
SCALE
  5
3C
102
{ACAD_REACTORS
330
3B
102
}
330
3B
100
AcDbScale
 70
     0
300
1:1
140
1.0
141
1.0
290
     1
  0
SCALE
  5
3D
102
{ACAD_REACTORS
330
3B
102
}
330
3B
100
AcDbScale
 70
     0
300
1:2
140
1.0
141
2.0
290
     0
  0
SCALE
  5
3E
102
{ACAD_REACTORS
330
3B
102
}
330
3B
100
AcDbScale
 70
     0
300
1:4
140
1.0
141
4.0
290
     0
  0
SCALE
  5
3F
102
{ACAD_REACTORS
330
3B
102
}
330
3B
100
AcDbScale
 70
     0
300
1:5
140
1.0
141
5.0
290
     0
  0
SCALE
  5
40
102
{ACAD_REACTORS
330
3B
102
}
330
3B
100
AcDbScale
 70
     0
300
1:8
140
1.0
141
8.0
290
     0
  0
SCALE
  5
41
102
{ACAD_REACTORS
330
3B
102
}
330
3B
100
AcDbScale
 70
     0
300
1:10
140
1.0
141
10.0
290
     0
  0
SCALE
  5
42
102
{ACAD_REACTORS
330
3B
102
}
330
3B
100
AcDbScale
 70
     0
300
1:16
140
1.0
141
16.0
290
     0
  0
SCALE
  5
43
102
{ACAD_REACTORS
330
3B
102
}
330
3B
100
AcDbScale
 70
     0
300
1:20
140
1.0
141
20.0
290
     0
  0
SCALE
  5
44
102
{ACAD_REACTORS
330
3B
102
}
330
3B
100
AcDbScale
 70
     0
300
1:30
140
1.0
141
30.0
290
     0
  0
SCALE
  5
45
102
{ACAD_REACTORS
330
3B
102
}
330
3B
100
AcDbScale
 70
     0
300
1:40
140
1.0
141
40.0
290
     0
  0
SCALE
  5
46
102
{ACAD_REACTORS
330
3B
102
}
330
3B
100
AcDbScale
 70
     0
300
1:50
140
1.0
141
50.0
290
     0
  0
SCALE
  5
47
102
{ACAD_REACTORS
330
3B
102
}
330
3B
100
AcDbScale
 70
     0
300
1:100
140
1.0
141
100.0
290
     0
  0
SCALE
  5
48
102
{ACAD_REACTORS
330
3B
102
}
330
3B
100
AcDbScale
 70
     0
300
2:1
140
2.0
141
1.0
290
     0
  0
SCALE
  5
49
102
{ACAD_REACTORS
330
3B
102
}
330
3B
100
AcDbScale
 70
     0
300
4:1
140
4.0
141
1.0
290
     0
  0
SCALE
  5
4A
102
{ACAD_REACTORS
330
3B
102
}
330
3B
100
AcDbScale
 70
     0
300
8:1
140
8.0
141
1.0
290
     0
  0
SCALE
  5
4B
102
{ACAD_REACTORS
330
3B
102
}
330
3B
100
AcDbScale
 70
     0
300
10:1
140
10.0
141
1.0
290
     0
  0
SCALE
  5
4C
102
{ACAD_REACTORS
330
3B
102
}
330
3B
100
AcDbScale
 70
     0
300
100:1
140
100.0
141
1.0
290
     0
  0
SCALE
  5
4D
102
{ACAD_REACTORS
330
3B
102
}
330
3B
100
AcDbScale
 70
     0
300
1/128" = 1'-0"
140
0.0078125
141
12.0
290
     0
  0
SCALE
  5
4E
102
{ACAD_REACTORS
330
3B
102
}
330
3B
100
AcDbScale
 70
     0
300
1/64" = 1'-0"
140
0.015625
141
12.0
290
     0
  0
SCALE
  5
4F
102
{ACAD_REACTORS
330
3B
102
}
330
3B
100
AcDbScale
 70
     0
300
1/32" = 1'-0"
140
0.03125
141
12.0
290
     0
  0
SCALE
  5
50
102
{ACAD_REACTORS
330
3B
102
}
330
3B
100
AcDbScale
 70
     0
300
1/16" = 1'-0"
140
0.0625
141
12.0
290
     0
  0
SCALE
  5
51
102
{ACAD_REACTORS
330
3B
102
}
330
3B
100
AcDbScale
 70
     0
300
3/32" = 1'-0"
140
0.09375
141
12.0
290
     0
  0
SCALE
  5
52
102
{ACAD_REACTORS
330
3B
102
}
330
3B
100
AcDbScale
 70
     0
300
1/8" = 1'-0"
140
0.125
141
12.0
290
     0
  0
SCALE
  5
53
102
{ACAD_REACTORS
330
3B
102
}
330
3B
100
AcDbScale
 70
     0
300
3/16" = 1'-0"
140
0.1875
141
12.0
290
     0
  0
SCALE
  5
54
102
{ACAD_REACTORS
330
3B
102
}
330
3B
100
AcDbScale
 70
     0
300
1/4" = 1'-0"
140
0.25
141
12.0
290
     0
  0
SCALE
  5
55
102
{ACAD_REACTORS
330
3B
102
}
330
3B
100
AcDbScale
 70
     0
300
3/8" = 1'-0"
140
0.375
141
12.0
290
     0
  0
SCALE
  5
56
102
{ACAD_REACTORS
330
3B
102
}
330
3B
100
AcDbScale
 70
     0
300
1/2" = 1'-0"
140
0.5
141
12.0
290
     0
  0
SCALE
  5
57
102
{ACAD_REACTORS
330
3B
102
}
330
3B
100
AcDbScale
 70
     0
300
3/4" = 1'-0"
140
0.75
141
12.0
290
     0
  0
SCALE
  5
58
102
{ACAD_REACTORS
330
3B
102
}
330
3B
100
AcDbScale
 70
     0
300
1" = 1'-0"
140
1.0
141
12.0
290
     0
  0
SCALE
  5
59
102
{ACAD_REACTORS
330
3B
102
}
330
3B
100
AcDbScale
 70
     0
300
1-1/2" = 1'-0"
140
1.5
141
12.0
290
     0
  0
SCALE
  5
5A
102
{ACAD_REACTORS
330
3B
102
}
330
3B
100
AcDbScale
 70
     0
300
3" = 1'-0"
140
3.0
141
12.0
290
     0
  0
SCALE
  5
5B
102
{ACAD_REACTORS
330
3B
102
}
330
3B
100
AcDbScale
 70
     0
300
6" = 1'-0"
140
6.0
141
12.0
290
     0
  0
SCALE
  5
5C
102
{ACAD_REACTORS
330
3B
102
}
330
3B
100
AcDbScale
 70
     0
300
1'-0" = 1'-0"
140
12.0
141
12.0
290
     0
  0
VISUALSTYLE
  5
2F
102
{ACAD_REACTORS
330
2A
102
}
330
2A
100
AcDbVisualStyle
  2
2dWireframe
 70
     4
 71
     0
 72
     2
 73
     0
 90
        0
 40
-0.6
 41
-30.0
 62
     5
 63
     7
 74
     1
 91
        4
 64
     7
 65
   257
 75
     1
175
     1
 42
1.0
 92
        0
 66
   257
 43
1.0
 76
     1
 77
     6
 78
     2
 67
     7
 79
     5
170
     0
171
     0
290
     0
174
     0
 93
        1
 44
0.0
173
     0
291
     0
 45
0.0
1001
ACAD
1000
AcDbSavedByObjectVersion
1070
     0
  0
VISUALSTYLE
  5
31
102
{ACAD_REACTORS
330
2A
102
}
330
2A
100
AcDbVisualStyle
  2
3D Hidden
 70
     6
 71
     1
 72
     2
 73
     2
 90
        0
 40
-0.6
 41
-30.0
 62
     5
 63
     7
 74
     2
 91
        2
 64
     7
 65
   257
 75
     2
175
     1
 42
40.0
 92
        0
 66
   257
 43
1.0
 76
     1
 77
     6
 78
     2
 67
     7
 79
     3
170
     0
171
     0
290
     0
174
     0
 93
        1
 44
0.0
173
     0
291
     0
 45
0.0
1001
ACAD
1000
AcDbSavedByObjectVersion
1070
     0
  0
VISUALSTYLE
  5
30
102
{ACAD_REACTORS
330
2A
102
}
330
2A
100
AcDbVisualStyle
  2
3dWireframe
 70
     5
 71
     0
 72
     2
 73
     0
 90
        0
 40
-0.6
 41
-30.0
 62
     5
 63
     7
 74
     1
 91
        4
 64
     7
 65
   257
 75
     1
175
     1
 42
1.0
 92
        0
 66
   257
 43
1.0
 76
     1
 77
     6
 78
     2
 67
     7
 79
     5
170
     0
171
     0
290
     0
174
     0
 93
        1
 44
0.0
173
     0
291
     0
 45
0.0
1001
ACAD
1000
AcDbSavedByObjectVersion
1070
     0
  0
VISUALSTYLE
  5
32
102
{ACAD_REACTORS
330
2A
102
}
330
2A
100
AcDbVisualStyle
  2
Basic
 70
     7
 71
     1
 72
     0
 73
     1
 90
        0
 40
-0.6
 41
-30.0
 62
     5
 63
     7
 74
     0
 91
        4
 64
     7
 65
   257
 75
     1
175
     1
 42
1.0
 92
        8
 66
     7
 43
1.0
 76
     1
 77
     6
 78
     2
 67
     7
 79
     5
170
     0
171
     0
290
     0
174
     0
 93
        1
 44
0.0
173
     0
291
     1
 45
0.0
1001
ACAD
1000
AcDbSavedByObjectVersion
1070
     0
  0
VISUALSTYLE
  5
36
102
{ACAD_REACTORS
330
2A
102
}
330
2A
100
AcDbVisualStyle
  2
Brighten
 70
    12
 71
     2
 72
     2
 73
     0
 90
        0
 40
-0.6
 41
-30.0
 62
     5
 63
     7
 74
     1
 91
        4
 64
     7
 65
   257
 75
     1
175
     1
 42
1.0
 92
        8
 66
     7
 43
1.0
 76
     1
 77
     6
 78
     2
 67
     7
 79
     5
170
     0
171
     0
290
     0
174
     0
 93
        1
 44
50.0
173
     0
291
     1
 45
0.0
1001
ACAD
1000
AcDbSavedByObjectVersion
1070
     0
  0
VISUALSTYLE
  5
3A
102
{ACAD_REACTORS
330
2A
102
}
330
2A
100
AcDbVisualStyle
  2
ColorChange
 70
    16
 71
     2
 72
     2
 73
     3
 90
        0
 40
-0.6
 41
-30.0
 62
     5
 63
     8
 74
     1
 91
        4
 64
     7
 65
   257
 75
     1
175
     1
 42
1.0
 92
        8
 66
     8
 43
1.0
 76
     1
 77
     6
 78
     2
 67
     7
 79
     5
170
     0
171
     0
290
     0
174
     0
 93
        1
 44
0.0
173
     0
291
     1
 45
0.0
1001
ACAD
1000
AcDbSavedByObjectVersion
1070
     0
  0
VISUALSTYLE
  5
34
102
{ACAD_REACTORS
330
2A
102
}
330
2A
100
AcDbVisualStyle
  2
Conceptual
 70
     9
 71
     3
 72
     2
 73
     0
 90
        0
 40
-0.6
 41
-30.0
 62
     5
 63
     7
 74
     2
 91
        2
 64
     7
 65
   257
 75
     1
175
     1
 42
40.0
 92
        8
 66
     7
 43
1.0
 76
     1
 77
     6
 78
     2
 67
     7
 79
     3
170
     0
171
     0
290
     0
174
     0
 93
        1
 44
0.0
173
     0
291
     0
 45
0.0
1001
ACAD
1000
AcDbSavedByObjectVersion
1070
     0
  0
VISUALSTYLE
  5
35
102
{ACAD_REACTORS
330
2A
102
}
330
2A
100
AcDbVisualStyle
  2
Dim
 70
    11
 71
     2
 72
     2
 73
     0
 90
        0
 40
-0.6
 41
-30.0
 62
     5
 63
     7
 74
     1
 91
        4
 64
     7
 65
   257
 75
     1
175
     1
 42
1.0
 92
        8
 66
     7
 43
1.0
 76
     1
 77
     6
 78
     2
 67
     7
 79
     5
170
     0
171
     0
290
     0
174
     0
 93
        1
 44
-50.0
173
     0
291
     1
 45
0.0
1001
ACAD
1000
AcDbSavedByObjectVersion
1070
     0
  0
VISUALSTYLE
  5
39
102
{ACAD_REACTORS
330
2A
102
}
330
2A
100
AcDbVisualStyle
  2
Facepattern
 70
    15
 71
     2
 72
     2
 73
     0
 90
        0
 40
-0.6
 41
-30.0
 62
     5
 63
     7
 74
     1
 91
        4
 64
     7
 65
   257
 75
     1
175
     1
 42
1.0
 92
        8
 66
     7
 43
1.0
 76
     1
 77
     6
 78
     2
 67
     7
 79
     5
170
     0
171
     0
290
     0
174
     0
 93
        1
 44
0.0
173
     0
291
     1
 45
0.0
1001
ACAD
1000
AcDbSavedByObjectVersion
1070
     0
  0
VISUALSTYLE
  5
2B
102
{ACAD_REACTORS
330
2A
102
}
330
2A
100
AcDbVisualStyle
  2
Flat
 70
     0
 71
     2
 72
     1
 73
     1
 90
        2
 40
-0.6
 41
30.0
 62
     5
 63
     7
 74
     0
 91
        4
 64
     7
 65
   257
 75
     1
175
     1
 42
1.0
 92
        8
 66
     7
 43
1.0
 76
     1
 77
     6
 78
     2
 67
     7
 79
     5
170
     0
171
     0
290
     0
174
     0
 93
       13
 44
0.0
173
     0
291
     1
 45
0.0
1001
ACAD
1000
AcDbSavedByObjectVersion
1070
     0
  0
VISUALSTYLE
  5
2C
102
{ACAD_REACTORS
330
2A
102
}
330
2A
100
AcDbVisualStyle
  2
FlatWithEdges
 70
     1
 71
     2
 72
     1
 73
     1
 90
        2
 40
-0.6
 41
30.0
 62
     5
 63
     7
 74
     1
 91
        4
 64
     7
 65
   257
 75
     1
175
     1
 42
1.0
 92
        0
 66
   257
 43
1.0
 76
     1
 77
     6
 78
     2
 67
     7
 79
     5
170
     0
171
     0
290
     0
174
     0
 93
       13
 44
0.0
173
     0
291
     1
 45
0.0
1001
ACAD
1000
AcDbSavedByObjectVersion
1070
     0
  0
VISUALSTYLE
  5
2D
102
{ACAD_REACTORS
330
2A
102
}
330
2A
100
AcDbVisualStyle
  2
Gouraud
 70
     2
 71
     2
 72
     2
 73
     1
 90
        2
 40
-0.6
 41
30.0
 62
     5
 63
     7
 74
     0
 91
        4
 64
     7
 65
   257
 75
     1
175
     1
 42
1.0
 92
        0
 66
     7
 43
1.0
 76
     1
 77
     6
 78
     2
 67
     7
 79
     5
170
     0
171
     0
290
     0
174
     0
 93
       13
 44
0.0
173
     0
291
     1
 45
0.0
1001
ACAD
1000
AcDbSavedByObjectVersion
1070
     0
  0
VISUALSTYLE
  5
2E
102
{ACAD_REACTORS
330
2A
102
}
330
2A
100
AcDbVisualStyle
  2
GouraudWithEdges
 70
     3
 71
     2
 72
     2
 73
     1
 90
        2
 40
-0.6
 41
30.0
 62
     5
 63
     7
 74
     1
 91
        4
 64
     7
 65
   257
 75
     1
175
     1
 42
1.0
 92
        0
 66
   257
 43
1.0
 76
     1
 77
     6
 78
     2
 67
     7
 79
     5
170
     0
171
     0
290
     0
174
     0
 93
       13
 44
0.0
173
     0
291
     1
 45
0.0
1001
ACAD
1000
AcDbSavedByObjectVersion
1070
     0
  0
VISUALSTYLE
  5
38
102
{ACAD_REACTORS
330
2A
102
}
330
2A
100
AcDbVisualStyle
  2
Linepattern
 70
    14
 71
     2
 72
     2
 73
     0
 90
        0
 40
-0.6
 41
-30.0
 62
     5
 63
     7
 74
     1
 91
        4
 64
     7
 65
   257
 75
     7
175
     7
 42
1.0
 92
        8
 66
     7
 43
1.0
 76
     1
 77
     6
 78
     2
 67
     7
 79
     5
170
     0
171
     0
290
     0
174
     0
 93
        1
 44
0.0
173
     0
291
     1
 45
0.0
1001
ACAD
1000
AcDbSavedByObjectVersion
1070
     0
  0
VISUALSTYLE
  5
33
102
{ACAD_REACTORS
330
2A
102
}
330
2A
100
AcDbVisualStyle
  2
Realistic
 70
     8
 71
     2
 72
     2
 73
     0
 90
        0
 40
-0.6
 41
-30.0
 62
     5
 63
     7
 74
     1
 91
        0
 64
     7
 65
   257
 75
     1
175
     1
 42
1.0
 92
        8
 66
     8
 43
1.0
 76
     1
 77
     6
 78
     2
 67
     7
 79
     5
170
     0
171
     0
290
     0
174
     0
 93
       13
 44
0.0
173
     0
291
     0
 45
0.0
1001
ACAD
1000
AcDbSavedByObjectVersion
1070
     0
  0
VISUALSTYLE
  5
37
102
{ACAD_REACTORS
330
2A
102
}
330
2A
100
AcDbVisualStyle
  2
Thicken
 70
    13
 71
     2
 72
     2
 73
     0
 90
        0
 40
-0.6
 41
-30.0
 62
     5
 63
     7
 74
     1
 91
        4
 64
     7
 65
   257
 75
     1
175
     1
 42
1.0
 92
       12
 66
     7
 43
1.0
 76
     1
 77
     6
 78
     2
 67
     7
 79
     5
170
     0
171
     0
290
     0
174
     0
 93
        1
 44
0.0
173
     0
291
     1
 45
0.0
1001
ACAD
1000
AcDbSavedByObjectVersion
1070
     0
  0
DICTIONARYVAR
  5
1E9
102
{ACAD_REACTORS
330
1E8
102
}
330
1E8
100
DictionaryVariables
280
     0
  1
1:1
  0
DICTIONARYVAR
  5
1ED
102
{ACAD_REACTORS
330
1E8
102
}
330
1E8
100
DictionaryVariables
280
     0
  1
80.000000
  0
DICTIONARYVAR
  5
1EC
102
{ACAD_REACTORS
330
1E8
102
}
330
1E8
100
DictionaryVariables
280
     0
  1
5.000000
  0
ENDSEC
  0
EOF
