999
Converted by 3D Exploration 
999
XDimension Software, LLC
999
http://www.xdsoft.com/explorer/
0
SECTION
2
HEADER
9
$ACADVER
1
AC1008
9
$UCSORG
10
0.0
20
0.0
30
0.0
9
$UCSXDIR
10
1.0
20
0.0
30
0.0
9
$TILEMODE
70
1
9
$UCSYDIR
10
0.0
20
1.0
30
0.0
9
$EXTMIN
10
-72.000999
20
-195.481003
30
-195.481003
9
$EXTMAX
10
600.507996
20
195.481003
30
1099.500000
0
ENDSEC
0
SECTION
2
TABLES
0
TABLE
2
LTYPE
70
1
0
LTYPE
2
CONTINUOUS
70
64
3
Solid line
72
65
73
0
40
0.0
0
ENDTAB
0
TABLE
2
LAYER
70
207
0
LAYER
2
OBJECT__0
70
0
62
253
6
CONTINUOUS
0
LAYER
2
OBJECT__1
70
0
62
253
6
CONTINUOUS
0
LAYER
2
OBJECT__3
70
0
62
253
6
CONTINUOUS
0
LAYER
2
OBJECT__4
70
0
62
253
6
CONTINUOUS
0
LAYER
2
OBJECT__5
70
0
62
253
6
CONTINUOUS
0
LAYER
2
OBJECT__7
70
0
62
253
6
CONTINUOUS
0
LAYER
2
OBJECT__8
70
0
62
253
6
CONTINUOUS
0
LAYER
2
OBJECT__9
70
0
62
253
6
CONTINUOUS
0
LAYER
2
OBJECT__10
70
0
62
253
6
CONTINUOUS
0
LAYER
2
OBJECT__12
70
0
62
253
6
CONTINUOUS
0
LAYER
2
OBJECT__13
70
0
62
253
6
CONTINUOUS
0
LAYER
2
OBJECT__14
70
0
62
253
6
CONTINUOUS
0
LAYER
2
OBJECT__15
70
0
62
253
6
CONTINUOUS
0
LAYER
2
OBJECT__16
70
0
62
253
6
CONTINUOUS
0
LAYER
2
OBJECT__17
70
0
62
253
6
CONTINUOUS
0
LAYER
2
OBJECT__18
70
0
62
253
6
CONTINUOUS
0
LAYER
2
OBJECT__19
70
0
62
253
6
CONTINUOUS
0
LAYER
2
OBJECT__20
70
0
62
253
6
CONTINUOUS
0
LAYER
2
OBJECT__21
70
0
62
253
6
CONTINUOUS
0
LAYER
2
OBJECT__22
70
0
62
253
6
CONTINUOUS
0
LAYER
2
OBJECT__23
70
0
62
253
6
CONTINUOUS
0
LAYER
2
OBJECT__24
70
0
62
253
6
CONTINUOUS
0
LAYER
2
OBJECT__25
70
0
62
253
6
CONTINUOUS
0
LAYER
2
OBJECT__26
70
0
62
253
6
CONTINUOUS
0
LAYER
2
OBJECT__27
70
0
62
253
6
CONTINUOUS
0
LAYER
2
OBJECT__28
70
0
62
253
6
CONTINUOUS
0
LAYER
2
OBJECT__29
70
0
62
253
6
CONTINUOUS
0
LAYER
2
OBJECT__30
70
0
62
253
6
CONTINUOUS
0
LAYER
2
OBJECT__31
70
0
62
253
6
CONTINUOUS
0
LAYER
2
OBJECT__32
70
0
62
253
6
CONTINUOUS
0
LAYER
2
OBJECT__33
70
0
62
253
6
CONTINUOUS
0
LAYER
2
OBJECT__34
70
0
62
253
6
CONTINUOUS
0
LAYER
2
OBJECT__35
70
0
62
253
6
CONTINUOUS
0
LAYER
2
OBJECT__36
70
0
62
253
6
CONTINUOUS
0
LAYER
2
OBJECT__37
70
0
62
253
6
CONTINUOUS
0
LAYER
2
OBJECT__38
70
0
62
253
6
CONTINUOUS
0
LAYER
2
OBJECT__40
70
0
62
253
6
CONTINUOUS
0
LAYER
2
OBJECT__41
70
0
62
253
6
CONTINUOUS
0
LAYER
2
OBJECT__42
70
0
62
253
6
CONTINUOUS
0
LAYER
2
OBJECT__44
70
0
62
253
6
CONTINUOUS
0
LAYER
2
OBJECT__45
70
0
62
253
6
CONTINUOUS
0
LAYER
2
OBJECT__47
70
0
62
253
6
CONTINUOUS
0
LAYER
2
OBJECT__48
70
0
62
253
6
CONTINUOUS
0
LAYER
2
OBJECT__49
70
0
62
253
6
CONTINUOUS
0
LAYER
2
OBJECT__51
70
0
62
253
6
CONTINUOUS
0
LAYER
2
OBJECT__52
70
0
62
253
6
CONTINUOUS
0
LAYER
2
OBJECT__53
70
0
62
253
6
CONTINUOUS
0
LAYER
2
OBJECT__54
70
0
62
253
6
CONTINUOUS
0
LAYER
2
OBJECT__55
70
0
62
253
6
CONTINUOUS
0
LAYER
2
OBJECT__57
70
0
62
253
6
CONTINUOUS
0
LAYER
2
OBJECT__58
70
0
62
253
6
CONTINUOUS
0
LAYER
2
OBJECT__59
70
0
62
253
6
CONTINUOUS
0
LAYER
2
OBJECT__60
70
0
62
253
6
CONTINUOUS
0
LAYER
2
OBJECT__61
70
0
62
253
6
CONTINUOUS
0
LAYER
2
OBJECT__62
70
0
62
253
6
CONTINUOUS
0
LAYER
2
OBJECT__63
70
0
62
253
6
CONTINUOUS
0
LAYER
2
OBJECT__65
70
0
62
253
6
CONTINUOUS
0
LAYER
2
OBJECT__66
70
0
62
253
6
CONTINUOUS
0
LAYER
2
OBJECT__67
70
0
62
253
6
CONTINUOUS
0
LAYER
2
OBJECT__69
70
0
62
253
6
CONTINUOUS
0
LAYER
2
OBJECT__70
70
0
62
253
6
CONTINUOUS
0
LAYER
2
OBJECT__71
70
0
62
253
6
CONTINUOUS
0
LAYER
2
OBJECT__72
70
0
62
253
6
CONTINUOUS
0
LAYER
2
OBJECT__74
70
0
62
253
6
CONTINUOUS
0
LAYER
2
OBJECT__75
70
0
62
253
6
CONTINUOUS
0
LAYER
2
OBJECT__76
70
0
62
253
6
CONTINUOUS
0
LAYER
2
OBJECT__77
70
0
62
253
6
CONTINUOUS
0
LAYER
2
OBJECT__78
70
0
62
253
6
CONTINUOUS
0
LAYER
2
OBJECT__80
70
0
62
253
6
CONTINUOUS
0
LAYER
2
OBJECT__81
70
0
62
253
6
CONTINUOUS
0
LAYER
2
OBJECT__82
70
0
62
253
6
CONTINUOUS
0
LAYER
2
OBJECT__83
70
0
62
253
6
CONTINUOUS
0
LAYER
2
OBJECT__84
70
0
62
253
6
CONTINUOUS
0
LAYER
2
OBJECT__85
70
0
62
253
6
CONTINUOUS
0
LAYER
2
OBJECT__86
70
0
62
253
6
CONTINUOUS
0
LAYER
2
OBJECT__87
70
0
62
253
6
CONTINUOUS
0
LAYER
2
OBJECT__88
70
0
62
253
6
CONTINUOUS
0
LAYER
2
OBJECT__89
70
0
62
253
6
CONTINUOUS
0
LAYER
2
OBJECT__90
70
0
62
253
6
CONTINUOUS
0
LAYER
2
OBJECT__91
70
0
62
253
6
CONTINUOUS
0
LAYER
2
OBJECT__92
70
0
62
253
6
CONTINUOUS
0
LAYER
2
OBJECT__93
70
0
62
253
6
CONTINUOUS
0
LAYER
2
OBJECT__94
70
0
62
253
6
CONTINUOUS
0
LAYER
2
OBJECT__95
70
0
62
253
6
CONTINUOUS
0
LAYER
2
OBJECT__96
70
0
62
253
6
CONTINUOUS
0
LAYER
2
OBJECT__97
70
0
62
253
6
CONTINUOUS
0
LAYER
2
OBJECT__98
70
0
62
253
6
CONTINUOUS
0
LAYER
2
OBJECT__99
70
0
62
253
6
CONTINUOUS
0
LAYER
2
OBJECT__101
70
0
62
253
6
CONTINUOUS
0
LAYER
2
OBJECT__102
70
0
62
253
6
CONTINUOUS
0
LAYER
2
OBJECT__104
70
0
62
253
6
CONTINUOUS
0
LAYER
2
OBJECT__105
70
0
62
253
6
CONTINUOUS
0
LAYER
2
OBJECT__106
70
0
62
253
6
CONTINUOUS
0
LAYER
2
OBJECT__107
70
0
62
253
6
CONTINUOUS
0
LAYER
2
OBJECT__109
70
0
62
253
6
CONTINUOUS
0
LAYER
2
OBJECT__110
70
0
62
253
6
CONTINUOUS
0
LAYER
2
OBJECT__112
70
0
62
253
6
CONTINUOUS
0
LAYER
2
OBJECT__113
70
0
62
253
6
CONTINUOUS
0
LAYER
2
OBJECT__114
70
0
62
253
6
CONTINUOUS
0
LAYER
2
OBJECT__115
70
0
62
253
6
CONTINUOUS
0
LAYER
2
OBJECT__116
70
0
62
253
6
CONTINUOUS
0
LAYER
2
OBJECT__117
70
0
62
253
6
CONTINUOUS
0
LAYER
2
OBJECT__118
70
0
62
253
6
CONTINUOUS
0
LAYER
2
OBJECT__119
70
0
62
253
6
CONTINUOUS
0
LAYER
2
OBJECT__120
70
0
62
253
6
CONTINUOUS
0
LAYER
2
OBJECT__121
70
0
62
253
6
CONTINUOUS
0
LAYER
2
OBJECT__122
70
0
62
253
6
CONTINUOUS
0
LAYER
2
OBJECT__123
70
0
62
253
6
CONTINUOUS
0
LAYER
2
OBJECT__124
70
0
62
253
6
CONTINUOUS
0
LAYER
2
OBJECT__125
70
0
62
253
6
CONTINUOUS
0
LAYER
2
OBJECT__126
70
0
62
253
6
CONTINUOUS
0
LAYER
2
OBJECT__127
70
0
62
253
6
CONTINUOUS
0
LAYER
2
OBJECT__128
70
0
62
253
6
CONTINUOUS
0
LAYER
2
OBJECT__129
70
0
62
253
6
CONTINUOUS
0
LAYER
2
OBJECT__130
70
0
62
253
6
CONTINUOUS
0
LAYER
2
OBJECT__131
70
0
62
253
6
CONTINUOUS
0
LAYER
2
OBJECT__132
70
0
62
253
6
CONTINUOUS
0
LAYER
2
OBJECT__133
70
0
62
253
6
CONTINUOUS
0
LAYER
2
OBJECT__134
70
0
62
253
6
CONTINUOUS
0
LAYER
2
OBJECT__135
70
0
62
253
6
CONTINUOUS
0
LAYER
2
OBJECT__136
70
0
62
253
6
CONTINUOUS
0
LAYER
2
OBJECT__137
70
0
62
253
6
CONTINUOUS
0
LAYER
2
OBJECT__138
70
0
62
253
6
CONTINUOUS
0
LAYER
2
OBJECT__139
70
0
62
253
6
CONTINUOUS
0
LAYER
2
OBJECT__140
70
0
62
253
6
CONTINUOUS
0
LAYER
2
OBJECT__141
70
0
62
253
6
CONTINUOUS
0
LAYER
2
OBJECT__142
70
0
62
253
6
CONTINUOUS
0
LAYER
2
OBJECT__144
70
0
62
253
6
CONTINUOUS
0
LAYER
2
OBJECT__145
70
0
62
253
6
CONTINUOUS
0
LAYER
2
OBJECT__146
70
0
62
253
6
CONTINUOUS
0
LAYER
2
OBJECT__148
70
0
62
253
6
CONTINUOUS
0
LAYER
2
OBJECT__149
70
0
62
253
6
CONTINUOUS
0
LAYER
2
OBJECT__150
70
0
62
253
6
CONTINUOUS
0
LAYER
2
OBJECT__152
70
0
62
253
6
CONTINUOUS
0
LAYER
2
OBJECT__153
70
0
62
253
6
CONTINUOUS
0
LAYER
2
OBJECT__154
70
0
62
253
6
CONTINUOUS
0
LAYER
2
OBJECT__156
70
0
62
253
6
CONTINUOUS
0
LAYER
2
OBJECT__157
70
0
62
253
6
CONTINUOUS
0
LAYER
2
OBJECT__158
70
0
62
253
6
CONTINUOUS
0
LAYER
2
OBJECT__159
70
0
62
253
6
CONTINUOUS
0
LAYER
2
OBJECT__161
70
0
62
253
6
CONTINUOUS
0
LAYER
2
OBJECT__162
70
0
62
253
6
CONTINUOUS
0
LAYER
2
OBJECT__164
70
0
62
253
6
CONTINUOUS
0
LAYER
2
OBJECT__165
70
0
62
253
6
CONTINUOUS
0
LAYER
2
OBJECT__166
70
0
62
253
6
CONTINUOUS
0
LAYER
2
OBJECT__167
70
0
62
253
6
CONTINUOUS
0
LAYER
2
OBJECT__168
70
0
62
253
6
CONTINUOUS
0
LAYER
2
OBJECT__169
70
0
62
253
6
CONTINUOUS
0
LAYER
2
OBJECT__170
70
0
62
253
6
CONTINUOUS
0
LAYER
2
OBJECT__171
70
0
62
253
6
CONTINUOUS
0
LAYER
2
OBJECT__173
70
0
62
253
6
CONTINUOUS
0
LAYER
2
OBJECT__174
70
0
62
253
6
CONTINUOUS
0
LAYER
2
OBJECT__175
70
0
62
253
6
CONTINUOUS
0
LAYER
2
OBJECT__176
70
0
62
253
6
CONTINUOUS
0
LAYER
2
OBJECT__177
70
0
62
253
6
CONTINUOUS
0
LAYER
2
OBJECT__179
70
0
62
253
6
CONTINUOUS
0
LAYER
2
OBJECT__180
70
0
62
253
6
CONTINUOUS
0
LAYER
2
OBJECT__181
70
0
62
253
6
CONTINUOUS
0
LAYER
2
OBJECT__183
70
0
62
253
6
CONTINUOUS
0
LAYER
2
OBJECT__184
70
0
62
253
6
CONTINUOUS
0
LAYER
2
OBJECT__185
70
0
62
253
6
CONTINUOUS
0
LAYER
2
OBJECT__187
70
0
62
253
6
CONTINUOUS
0
LAYER
2
OBJECT__188
70
0
62
253
6
CONTINUOUS
0
LAYER
2
OBJECT__190
70
0
62
253
6
CONTINUOUS
0
LAYER
2
OBJECT__191
70
0
62
253
6
CONTINUOUS
0
LAYER
2
OBJECT__192
70
0
62
253
6
CONTINUOUS
0
LAYER
2
OBJECT__193
70
0
62
253
6
CONTINUOUS
0
LAYER
2
OBJECT__194
70
0
62
253
6
CONTINUOUS
0
LAYER
2
OBJECT__195
70
0
62
253
6
CONTINUOUS
0
LAYER
2
OBJECT__197
70
0
62
253
6
CONTINUOUS
0
LAYER
2
OBJECT__198
70
0
62
253
6
CONTINUOUS
0
LAYER
2
OBJECT__199
70
0
62
253
6
CONTINUOUS
0
LAYER
2
OBJECT__201
70
0
62
253
6
CONTINUOUS
0
LAYER
2
OBJECT__202
70
0
62
253
6
CONTINUOUS
0
LAYER
2
OBJECT__204
70
0
62
253
6
CONTINUOUS
0
LAYER
2
OBJECT__205
70
0
62
253
6
CONTINUOUS
0
LAYER
2
OBJECT__206
70
0
62
253
6
CONTINUOUS
0
ENDTAB
0
TABLE
2
STYLE
70
1
0
STYLE
2
STANDARD
70
0
40
0.0
41
1.0
50
0.0
71
0
42
0.2
3
txt
4
1
0
ENDTAB
0
TABLE
2
UCS
70
0
0
ENDTAB
0
ENDSEC
0
SECTION
2
ENTITIES
0
POLYLINE
8
OBJECT__0
66
1
70
64
71
44
72
42
62
253
0
VERTEX
8
OBJECT__0
10
406.971008
20
11.422000
30
994.773010
70
192
0
VERTEX
8
OBJECT__0
10
401.463989
20
13.301000
30
994.773010
70
192
0
VERTEX
8
OBJECT__0
10
403.385010
20
12.947000
30
994.773010
70
192
0
VERTEX
8
OBJECT__0
10
397.569000
20
13.159000
30
994.773010
70
192
0
VERTEX
8
OBJECT__0
10
399.510986
20
13.373000
30
994.773010
70
192
0
VERTEX
8
OBJECT__0
10
393.881012
20
11.901000
30
994.773010
70
192
0
VERTEX
8
OBJECT__0
10
395.678986
20
12.665000
30
994.773010
70
192
0
VERTEX
8
OBJECT__0
10
389.407990
20
8.179000
30
994.773010
70
192
0
VERTEX
8
OBJECT__0
10
390.712006
20
9.633000
30
994.773010
70
192
0
VERTEX
8
OBJECT__0
10
408.559998
20
-10.286000
30
994.773010
70
192
0
VERTEX
8
OBJECT__0
10
399.510986
20
-13.373000
30
994.773010
70
192
0
VERTEX
8
OBJECT__0
10
397.569000
20
-13.159000
30
994.773010
70
192
0
VERTEX
8
OBJECT__0
10
401.463989
20
-13.301000
30
994.773010
70
192
0
VERTEX
8
OBJECT__0
10
406.971008
20
-11.422000
30
994.773010
70
192
0
VERTEX
8
OBJECT__0
10
408.559998
20
10.286000
30
994.773010
70
192
0
VERTEX
8
OBJECT__0
10
409.966003
20
8.930000
30
994.773010
70
192
0
VERTEX
8
OBJECT__0
10
392.213989
20
10.883000
30
994.773010
70
192
0
VERTEX
8
OBJECT__0
10
405.234009
20
-12.316000
30
994.773010
70
192
0
VERTEX
8
OBJECT__0
10
412.115997
20
5.680000
30
994.773010
70
192
0
VERTEX
8
OBJECT__0
10
412.813995
20
3.855000
30
994.773010
70
192
0
VERTEX
8
OBJECT__0
10
412.813995
20
-3.855000
30
994.773010
70
192
0
VERTEX
8
OBJECT__0
10
390.712006
20
-9.633000
30
994.773010
70
192
0
VERTEX
8
OBJECT__0
10
389.407990
20
-8.179000
30
994.773010
70
192
0
VERTEX
8
OBJECT__0
10
403.385010
20
-12.947000
30
994.773010
70
192
0
VERTEX
8
OBJECT__0
10
395.678986
20
-12.665000
30
994.773010
70
192
0
VERTEX
8
OBJECT__0
10
412.115997
20
-5.680000
30
994.773010
70
192
0
VERTEX
8
OBJECT__0
10
411.160004
20
7.384000
30
994.773010
70
192
0
VERTEX
8
OBJECT__0
10
405.234009
20
12.316000
30
994.773010
70
192
0
VERTEX
8
OBJECT__0
10
392.213989
20
-10.883000
30
994.773010
70
192
0
VERTEX
8
OBJECT__0
10
393.881012
20
-11.901000
30
994.773010
70
192
0
VERTEX
8
OBJECT__0
10
409.966003
20
-8.930000
30
994.773010
70
192
0
VERTEX
8
OBJECT__0
10
411.160004
20
-7.384000
30
994.773010
70
192
0
VERTEX
8
OBJECT__0
10
413.239014
20
1.948000
30
994.773010
70
192
0
VERTEX
8
OBJECT__0
10
387.501007
20
4.780000
30
994.773010
70
192
0
VERTEX
8
OBJECT__0
10
388.330994
20
6.549000
30
994.773010
70
192
0
VERTEX
8
OBJECT__0
10
387.501007
20
-4.780000
30
994.773010
70
192
0
VERTEX
8
OBJECT__0
10
386.938995
20
-2.910000
30
994.773010
70
192
0
VERTEX
8
OBJECT__0
10
388.330994
20
-6.549000
30
994.773010
70
192
0
VERTEX
8
OBJECT__0
10
413.381989
20
0.000000
30
994.773010
70
192
0
VERTEX
8
OBJECT__0
10
386.653992
20
0.977000
30
994.773010
70
192
0
VERTEX
8
OBJECT__0
10
386.938995
20
2.910000
30
994.773010
70
192
0
VERTEX
8
OBJECT__0
10
386.653992
20
-0.977000
30
994.773010
70
192
0
VERTEX
8
OBJECT__0
10
413.239014
20
-1.948000
30
994.773010
70
192
0
VERTEX
8
OBJECT__0
10
386.618011
20
0.000000
30
994.773010
70
192
0
VERTEX
8
OBJECT__0
10
0
20
0
30
0
70
128
71
1
72
2
73
3
0
VERTEX
8
OBJECT__0
10
0
20
0
30
0
70
128
71
1
72
4
73
5
0
VERTEX
8
OBJECT__0
10
0
20
0
30
0
70
128
71
5
72
2
73
1
0
VERTEX
8
OBJECT__0
10
0
20
0
30
0
70
128
71
1
72
6
73
7
0
VERTEX
8
OBJECT__0
10
0
20
0
30
0
70
128
71
1
72
8
73
9
0
VERTEX
8
OBJECT__0
10
0
20
0
30
0
70
128
71
10
72
11
73
12
0
VERTEX
8
OBJECT__0
10
0
20
0
30
0
70
128
71
13
72
10
73
14
0
VERTEX
8
OBJECT__0
10
0
20
0
30
0
70
128
71
8
72
15
73
16
0
VERTEX
8
OBJECT__0
10
0
20
0
30
0
70
128
71
7
72
4
73
1
0
VERTEX
8
OBJECT__0
10
0
20
0
30
0
70
128
71
9
72
17
73
1
0
VERTEX
8
OBJECT__0
10
0
20
0
30
0
70
128
71
10
72
13
73
11
0
VERTEX
8
OBJECT__0
10
0
20
0
30
0
70
128
71
14
72
18
73
13
0
VERTEX
8
OBJECT__0
10
0
20
0
30
0
70
128
71
8
72
19
73
20
0
VERTEX
8
OBJECT__0
10
0
20
0
30
0
70
128
71
8
72
1
73
15
0
VERTEX
8
OBJECT__0
10
0
20
0
30
0
70
128
71
17
72
6
73
1
0
VERTEX
8
OBJECT__0
10
0
20
0
30
0
70
128
71
21
72
22
73
23
0
VERTEX
8
OBJECT__0
10
0
20
0
30
0
70
128
71
18
72
24
73
13
0
VERTEX
8
OBJECT__0
10
0
20
0
30
0
70
128
71
25
72
21
73
26
0
VERTEX
8
OBJECT__0
10
0
20
0
30
0
70
128
71
8
72
27
73
19
0
VERTEX
8
OBJECT__0
10
0
20
0
30
0
70
128
71
3
72
28
73
1
0
VERTEX
8
OBJECT__0
10
0
20
0
30
0
70
128
71
21
72
29
73
22
0
VERTEX
8
OBJECT__0
10
0
20
0
30
0
70
128
71
21
72
25
73
30
0
VERTEX
8
OBJECT__0
10
0
20
0
30
0
70
128
71
25
72
31
73
10
0
VERTEX
8
OBJECT__0
10
0
20
0
30
0
70
128
71
26
72
32
73
25
0
VERTEX
8
OBJECT__0
10
0
20
0
30
0
70
128
71
16
72
27
73
8
0
VERTEX
8
OBJECT__0
10
0
20
0
30
0
70
128
71
33
72
34
73
35
0
VERTEX
8
OBJECT__0
10
0
20
0
30
0
70
128
71
21
72
36
73
37
0
VERTEX
8
OBJECT__0
10
0
20
0
30
0
70
128
71
30
72
29
73
21
0
VERTEX
8
OBJECT__0
10
0
20
0
30
0
70
128
71
32
72
31
73
25
0
VERTEX
8
OBJECT__0
10
0
20
0
30
0
70
128
71
35
72
8
73
33
0
VERTEX
8
OBJECT__0
10
0
20
0
30
0
70
128
71
21
72
38
73
36
0
VERTEX
8
OBJECT__0
10
0
20
0
30
0
70
128
71
12
72
25
73
10
0
VERTEX
8
OBJECT__0
10
0
20
0
30
0
70
128
71
20
72
33
73
8
0
VERTEX
8
OBJECT__0
10
0
20
0
30
0
70
128
71
39
72
40
73
41
0
VERTEX
8
OBJECT__0
10
0
20
0
30
0
70
128
71
23
72
38
73
21
0
VERTEX
8
OBJECT__0
10
0
20
0
30
0
70
128
71
42
72
39
73
43
0
VERTEX
8
OBJECT__0
10
0
20
0
30
0
70
128
71
41
72
34
73
39
0
VERTEX
8
OBJECT__0
10
0
20
0
30
0
70
128
71
43
72
21
73
42
0
VERTEX
8
OBJECT__0
10
0
20
0
30
0
70
128
71
39
72
44
73
40
0
VERTEX
8
OBJECT__0
10
0
20
0
30
0
70
128
71
37
72
42
73
21
0
VERTEX
8
OBJECT__0
10
0
20
0
30
0
70
128
71
42
72
44
73
39
0
VERTEX
8
OBJECT__0
10
0
20
0
30
0
70
128
71
33
72
39
73
34
0
SEQEND
8
OBJECT__0
0
POLYLINE
8
OBJECT__1
66
1
70
64
71
159
72
202
62
253
0
VERTEX
8
OBJECT__1
10
583.635986
20
0.000000
30
998.127991
70
192
0
VERTEX
8
OBJECT__1
10
581.679016
20
-26.738001
30
998.127991
70
192
0
VERTEX
8
OBJECT__1
10
497.472992
20
-14.345000
30
995.726013
70
192
0
VERTEX
8
OBJECT__1
10
579.153015
20
-38.075001
30
998.127991
70
192
0
VERTEX
8
OBJECT__1
10
575.849976
20
-52.904999
30
998.127991
70
192
0
VERTEX
8
OBJECT__1
10
494.346008
20
-28.384001
30
995.726013
70
192
0
VERTEX
8
OBJECT__1
10
567.547974
20
-74.610001
30
998.127991
70
192
0
VERTEX
8
OBJECT__1
10
489.207001
20
-41.819000
30
995.726013
70
192
0
VERTEX
8
OBJECT__1
10
566.273010
20
-77.945000
30
998.127991
70
192
0
VERTEX
8
OBJECT__1
10
553.151978
20
-101.323997
30
998.127991
70
192
0
VERTEX
8
OBJECT__1
10
482.167999
20
-54.362000
30
995.726013
70
192
0
VERTEX
8
OBJECT__1
10
548.239014
20
-107.686996
30
998.127991
70
192
0
VERTEX
8
OBJECT__1
10
536.767029
20
-122.542999
30
998.127991
70
192
0
VERTEX
8
OBJECT__1
10
473.377014
20
-65.746002
30
995.726013
70
192
0
VERTEX
8
OBJECT__1
10
522.609985
20
-136.192001
30
998.127991
70
192
0
VERTEX
8
OBJECT__1
10
463.022003
20
-75.728996
30
995.726013
70
192
0
VERTEX
8
OBJECT__1
10
517.466980
20
-141.151001
30
998.127991
70
192
0
VERTEX
8
OBJECT__1
10
495.662994
20
-156.750000
30
998.127991
70
192
0
VERTEX
8
OBJECT__1
10
451.325012
20
-84.098000
30
995.726013
70
192
0
VERTEX
8
OBJECT__1
10
491.692993
20
-158.791000
30
998.127991
70
192
0
VERTEX
8
OBJECT__1
10
471.821014
20
-169.007996
30
998.127991
70
192
0
VERTEX
8
OBJECT__1
10
438.532990
20
-90.675003
30
995.726013
70
192
0
VERTEX
8
OBJECT__1
10
456.595001
20
-174.203003
30
998.127991
70
192
0
VERTEX
8
OBJECT__1
10
424.920013
20
-95.319000
30
995.726013
70
192
0
VERTEX
8
OBJECT__1
10
446.447998
20
-177.664001
30
998.127991
70
192
0
VERTEX
8
OBJECT__1
10
420.084015
20
-182.533997
30
998.127991
70
192
0
VERTEX
8
OBJECT__1
10
410.776001
20
-97.931999
30
995.726013
70
192
0
VERTEX
8
OBJECT__1
10
419.192993
20
-182.567001
30
998.127991
70
192
0
VERTEX
8
OBJECT__1
10
393.292999
20
-183.513000
30
998.127991
70
192
0
VERTEX
8
OBJECT__1
10
396.402008
20
-98.457001
30
995.726013
70
192
0
VERTEX
8
OBJECT__1
10
382.105011
20
-96.884003
30
995.726013
70
192
0
VERTEX
8
OBJECT__1
10
380.858002
20
-182.145004
30
998.127991
70
192
0
VERTEX
8
OBJECT__1
10
343.298004
20
-174.477005
30
998.127991
70
192
0
VERTEX
8
OBJECT__1
10
368.188995
20
-93.246002
30
995.726013
70
192
0
VERTEX
8
OBJECT__1
10
366.644989
20
-180.580994
30
998.127991
70
192
0
VERTEX
8
OBJECT__1
10
316.033997
20
-163.315002
30
998.127991
70
192
0
VERTEX
8
OBJECT__1
10
354.950989
20
-87.621002
30
995.726013
70
192
0
VERTEX
8
OBJECT__1
10
308.408997
20
-158.660995
30
998.127991
70
192
0
VERTEX
8
OBJECT__1
10
293.149994
20
-149.348999
30
998.127991
70
192
0
VERTEX
8
OBJECT__1
10
342.674011
20
-80.127998
30
995.726013
70
192
0
VERTEX
8
OBJECT__1
10
277.347992
20
-136.197998
30
998.127991
70
192
0
VERTEX
8
OBJECT__1
10
331.618011
20
-70.927002
30
995.726013
70
192
0
VERTEX
8
OBJECT__1
10
254.653000
20
-112.233002
30
998.127991
70
192
0
VERTEX
8
OBJECT__1
10
322.019012
20
-60.215000
30
995.726013
70
192
0
VERTEX
8
OBJECT__1
10
251.697006
20
-107.764999
30
998.127991
70
192
0
VERTEX
8
OBJECT__1
10
239.860992
20
-89.875000
30
998.127991
70
192
0
VERTEX
8
OBJECT__1
10
314.083008
20
-48.219002
30
995.726013
70
192
0
VERTEX
8
OBJECT__1
10
232.653000
20
-74.498001
30
998.127991
70
192
0
VERTEX
8
OBJECT__1
10
307.977997
20
-35.195000
30
995.726013
70
192
0
VERTEX
8
OBJECT__1
10
220.757996
20
-39.928001
30
998.127991
70
192
0
VERTEX
8
OBJECT__1
10
303.834015
20
-21.422001
30
995.726013
70
192
0
VERTEX
8
OBJECT__1
10
220.498001
20
-38.161999
30
998.127991
70
192
0
VERTEX
8
OBJECT__1
10
216.854004
20
-13.405000
30
998.127991
70
192
0
VERTEX
8
OBJECT__1
10
301.739990
20
-7.192000
30
995.726013
70
192
0
VERTEX
8
OBJECT__1
10
216.363998
20
0.000000
30
998.127991
70
192
0
VERTEX
8
OBJECT__1
10
301.739990
20
7.192000
30
995.726013
70
192
0
VERTEX
8
OBJECT__1
10
220.498001
20
38.161999
30
998.127991
70
192
0
VERTEX
8
OBJECT__1
10
303.834015
20
21.422001
30
995.726013
70
192
0
VERTEX
8
OBJECT__1
10
216.854004
20
13.405000
30
998.127991
70
192
0
VERTEX
8
OBJECT__1
10
228.481003
20
65.599998
30
998.127991
70
192
0
VERTEX
8
OBJECT__1
10
307.977997
20
35.195000
30
995.726013
70
192
0
VERTEX
8
OBJECT__1
10
232.653000
20
74.498001
30
998.127991
70
192
0
VERTEX
8
OBJECT__1
10
239.860992
20
89.875000
30
998.127991
70
192
0
VERTEX
8
OBJECT__1
10
314.083008
20
48.219002
30
995.726013
70
192
0
VERTEX
8
OBJECT__1
10
251.697006
20
107.764999
30
998.127991
70
192
0
VERTEX
8
OBJECT__1
10
322.019012
20
60.215000
30
995.726013
70
192
0
VERTEX
8
OBJECT__1
10
254.653000
20
112.233002
30
998.127991
70
192
0
VERTEX
8
OBJECT__1
10
272.542999
20
132.199997
30
998.127991
70
192
0
VERTEX
8
OBJECT__1
10
331.618011
20
70.927002
30
995.726013
70
192
0
VERTEX
8
OBJECT__1
10
277.347992
20
136.197998
30
998.127991
70
192
0
VERTEX
8
OBJECT__1
10
293.149994
20
149.348999
30
998.127991
70
192
0
VERTEX
8
OBJECT__1
10
342.674011
20
80.127998
30
995.726013
70
192
0
VERTEX
8
OBJECT__1
10
308.408997
20
158.660995
30
998.127991
70
192
0
VERTEX
8
OBJECT__1
10
354.950989
20
87.621002
30
995.726013
70
192
0
VERTEX
8
OBJECT__1
10
316.033997
20
163.315002
30
998.127991
70
192
0
VERTEX
8
OBJECT__1
10
340.708008
20
173.800003
30
998.127991
70
192
0
VERTEX
8
OBJECT__1
10
368.188995
20
93.246002
30
995.726013
70
192
0
VERTEX
8
OBJECT__1
10
343.298004
20
174.477005
30
998.127991
70
192
0
VERTEX
8
OBJECT__1
10
366.644989
20
180.580994
30
998.127991
70
192
0
VERTEX
8
OBJECT__1
10
382.105011
20
96.884003
30
995.726013
70
192
0
VERTEX
8
OBJECT__1
10
380.858002
20
182.145004
30
998.127991
70
192
0
VERTEX
8
OBJECT__1
10
396.402008
20
98.457001
30
995.726013
70
192
0
VERTEX
8
OBJECT__1
10
419.192993
20
182.567001
30
998.127991
70
192
0
VERTEX
8
OBJECT__1
10
410.776001
20
97.931999
30
995.726013
70
192
0
VERTEX
8
OBJECT__1
10
393.292999
20
183.513000
30
998.127991
70
192
0
VERTEX
8
OBJECT__1
10
420.084015
20
182.533997
30
998.127991
70
192
0
VERTEX
8
OBJECT__1
10
446.447998
20
177.664001
30
998.127991
70
192
0
VERTEX
8
OBJECT__1
10
424.920013
20
95.319000
30
995.726013
70
192
0
VERTEX
8
OBJECT__1
10
456.595001
20
174.203003
30
998.127991
70
192
0
VERTEX
8
OBJECT__1
10
471.821014
20
169.007996
30
998.127991
70
192
0
VERTEX
8
OBJECT__1
10
438.532990
20
90.675003
30
995.726013
70
192
0
VERTEX
8
OBJECT__1
10
491.692993
20
158.791000
30
998.127991
70
192
0
VERTEX
8
OBJECT__1
10
451.325012
20
84.098000
30
995.726013
70
192
0
VERTEX
8
OBJECT__1
10
495.662994
20
156.750000
30
998.127991
70
192
0
VERTEX
8
OBJECT__1
10
517.466980
20
141.151001
30
998.127991
70
192
0
VERTEX
8
OBJECT__1
10
463.022003
20
75.728996
30
995.726013
70
192
0
VERTEX
8
OBJECT__1
10
522.609985
20
136.192001
30
998.127991
70
192
0
VERTEX
8
OBJECT__1
10
536.767029
20
122.542999
30
998.127991
70
192
0
VERTEX
8
OBJECT__1
10
473.377014
20
65.746002
30
995.726013
70
192
0
VERTEX
8
OBJECT__1
10
548.239014
20
107.686996
30
998.127991
70
192
0
VERTEX
8
OBJECT__1
10
482.167999
20
54.362000
30
995.726013
70
192
0
VERTEX
8
OBJECT__1
10
553.151978
20
101.323997
30
998.127991
70
192
0
VERTEX
8
OBJECT__1
10
566.273010
20
77.945000
30
998.127991
70
192
0
VERTEX
8
OBJECT__1
10
489.207001
20
41.819000
30
995.726013
70
192
0
VERTEX
8
OBJECT__1
10
567.547974
20
74.610001
30
998.127991
70
192
0
VERTEX
8
OBJECT__1
10
575.849976
20
52.904999
30
998.127991
70
192
0
VERTEX
8
OBJECT__1
10
494.346008
20
28.384001
30
995.726013
70
192
0
VERTEX
8
OBJECT__1
10
579.153015
20
38.075001
30
998.127991
70
192
0
VERTEX
8
OBJECT__1
10
497.472992
20
14.345000
30
995.726013
70
192
0
VERTEX
8
OBJECT__1
10
498.523010
20
0.000000
30
995.726013
70
192
0
VERTEX
8
OBJECT__1
10
413.239014
20
-1.948000
30
994.773010
70
192
0
VERTEX
8
OBJECT__1
10
412.813995
20
-3.855000
30
994.773010
70
192
0
VERTEX
8
OBJECT__1
10
412.115997
20
-5.680000
30
994.773010
70
192
0
VERTEX
8
OBJECT__1
10
411.160004
20
-7.384000
30
994.773010
70
192
0
VERTEX
8
OBJECT__1
10
409.966003
20
-8.930000
30
994.773010
70
192
0
VERTEX
8
OBJECT__1
10
408.559998
20
-10.286000
30
994.773010
70
192
0
VERTEX
8
OBJECT__1
10
406.971008
20
-11.422000
30
994.773010
70
192
0
VERTEX
8
OBJECT__1
10
405.234009
20
-12.316000
30
994.773010
70
192
0
VERTEX
8
OBJECT__1
10
403.385010
20
-12.947000
30
994.773010
70
192
0
VERTEX
8
OBJECT__1
10
401.463989
20
-13.301000
30
994.773010
70
192
0
VERTEX
8
OBJECT__1
10
399.510986
20
-13.373000
30
994.773010
70
192
0
VERTEX
8
OBJECT__1
10
397.569000
20
-13.159000
30
994.773010
70
192
0
VERTEX
8
OBJECT__1
10
395.678986
20
-12.665000
30
994.773010
70
192
0
VERTEX
8
OBJECT__1
10
393.881012
20
-11.901000
30
994.773010
70
192
0
VERTEX
8
OBJECT__1
10
392.213989
20
-10.883000
30
994.773010
70
192
0
VERTEX
8
OBJECT__1
10
390.712006
20
-9.633000
30
994.773010
70
192
0
VERTEX
8
OBJECT__1
10
389.407990
20
-8.179000
30
994.773010
70
192
0
VERTEX
8
OBJECT__1
10
388.330994
20
-6.549000
30
994.773010
70
192
0
VERTEX
8
OBJECT__1
10
387.501007
20
-4.780000
30
994.773010
70
192
0
VERTEX
8
OBJECT__1
10
386.938995
20
-2.910000
30
994.773010
70
192
0
VERTEX
8
OBJECT__1
10
386.653992
20
-0.977000
30
994.773010
70
192
0
VERTEX
8
OBJECT__1
10
386.618011
20
0.000000
30
994.773010
70
192
0
VERTEX
8
OBJECT__1
10
386.653992
20
0.977000
30
994.773010
70
192
0
VERTEX
8
OBJECT__1
10
386.938995
20
2.910000
30
994.773010
70
192
0
VERTEX
8
OBJECT__1
10
387.501007
20
4.780000
30
994.773010
70
192
0
VERTEX
8
OBJECT__1
10
388.330994
20
6.549000
30
994.773010
70
192
0
VERTEX
8
OBJECT__1
10
389.407990
20
8.179000
30
994.773010
70
192
0
VERTEX
8
OBJECT__1
10
390.712006
20
9.633000
30
994.773010
70
192
0
VERTEX
8
OBJECT__1
10
392.213989
20
10.883000
30
994.773010
70
192
0
VERTEX
8
OBJECT__1
10
393.881012
20
11.901000
30
994.773010
70
192
0
VERTEX
8
OBJECT__1
10
395.678986
20
12.665000
30
994.773010
70
192
0
VERTEX
8
OBJECT__1
10
397.569000
20
13.159000
30
994.773010
70
192
0
VERTEX
8
OBJECT__1
10
399.510986
20
13.373000
30
994.773010
70
192
0
VERTEX
8
OBJECT__1
10
401.463989
20
13.301000
30
994.773010
70
192
0
VERTEX
8
OBJECT__1
10
403.385010
20
12.947000
30
994.773010
70
192
0
VERTEX
8
OBJECT__1
10
405.234009
20
12.316000
30
994.773010
70
192
0
VERTEX
8
OBJECT__1
10
406.971008
20
11.422000
30
994.773010
70
192
0
VERTEX
8
OBJECT__1
10
408.559998
20
10.286000
30
994.773010
70
192
0
VERTEX
8
OBJECT__1
10
409.966003
20
8.930000
30
994.773010
70
192
0
VERTEX
8
OBJECT__1
10
411.160004
20
7.384000
30
994.773010
70
192
0
VERTEX
8
OBJECT__1
10
412.115997
20
5.680000
30
994.773010
70
192
0
VERTEX
8
OBJECT__1
10
412.813995
20
3.855000
30
994.773010
70
192
0
VERTEX
8
OBJECT__1
10
413.239014
20
1.948000
30
994.773010
70
192
0
VERTEX
8
OBJECT__1
10
413.381989
20
0.000000
30
994.773010
70
192
0
VERTEX
8
OBJECT__1
10
581.679016
20
26.738001
30
998.127991
70
192
0
VERTEX
8
OBJECT__1
10
220.757996
20
39.928001
30
998.127991
70
192
0
VERTEX
8
OBJECT__1
10
228.481003
20
-65.599998
30
998.127991
70
192
0
VERTEX
8
OBJECT__1
10
272.542999
20
-132.199997
30
998.127991
70
192
0
VERTEX
8
OBJECT__1
10
340.708008
20
-173.800003
30
998.127991
70
192
0
VERTEX
8
OBJECT__1
10
0
20
0
30
0
70
128
71
1
72
2
73
3
0
VERTEX
8
OBJECT__1
10
0
20
0
30
0
70
128
71
4
72
5
73
6
0
VERTEX
8
OBJECT__1
10
0
20
0
30
0
70
128
71
3
72
2
73
4
0
VERTEX
8
OBJECT__1
10
0
20
0
30
0
70
128
71
7
72
8
73
6
0
VERTEX
8
OBJECT__1
10
0
20
0
30
0
70
128
71
6
72
5
73
7
0
VERTEX
8
OBJECT__1
10
0
20
0
30
0
70
128
71
9
72
10
73
11
0
VERTEX
8
OBJECT__1
10
0
20
0
30
0
70
128
71
12
72
13
73
14
0
VERTEX
8
OBJECT__1
10
0
20
0
30
0
70
128
71
11
72
10
73
12
0
VERTEX
8
OBJECT__1
10
0
20
0
30
0
70
128
71
15
72
16
73
14
0
VERTEX
8
OBJECT__1
10
0
20
0
30
0
70
128
71
14
72
13
73
15
0
VERTEX
8
OBJECT__1
10
0
20
0
30
0
70
128
71
17
72
18
73
19
0
VERTEX
8
OBJECT__1
10
0
20
0
30
0
70
128
71
20
72
21
73
22
0
VERTEX
8
OBJECT__1
10
0
20
0
30
0
70
128
71
19
72
18
73
20
0
VERTEX
8
OBJECT__1
10
0
20
0
30
0
70
128
71
23
72
24
73
22
0
VERTEX
8
OBJECT__1
10
0
20
0
30
0
70
128
71
22
72
21
73
23
0
VERTEX
8
OBJECT__1
10
0
20
0
30
0
70
128
71
25
72
26
73
27
0
VERTEX
8
OBJECT__1
10
0
20
0
30
0
70
128
71
28
72
29
73
30
0
VERTEX
8
OBJECT__1
10
0
20
0
30
0
70
128
71
27
72
26
73
28
0
VERTEX
8
OBJECT__1
10
0
20
0
30
0
70
128
71
31
72
30
73
32
0
VERTEX
8
OBJECT__1
10
0
20
0
30
0
70
128
71
30
72
29
73
32
0
VERTEX
8
OBJECT__1
10
0
20
0
30
0
70
128
71
33
72
34
73
31
0
VERTEX
8
OBJECT__1
10
0
20
0
30
0
70
128
71
31
72
35
73
33
0
VERTEX
8
OBJECT__1
10
0
20
0
30
0
70
128
71
36
72
37
73
34
0
VERTEX
8
OBJECT__1
10
0
20
0
30
0
70
128
71
38
72
39
73
40
0
VERTEX
8
OBJECT__1
10
0
20
0
30
0
70
128
71
37
72
36
73
38
0
VERTEX
8
OBJECT__1
10
0
20
0
30
0
70
128
71
41
72
42
73
40
0
VERTEX
8
OBJECT__1
10
0
20
0
30
0
70
128
71
40
72
39
73
41
0
VERTEX
8
OBJECT__1
10
0
20
0
30
0
70
128
71
43
72
44
73
42
0
VERTEX
8
OBJECT__1
10
0
20
0
30
0
70
128
71
45
72
46
73
47
0
VERTEX
8
OBJECT__1
10
0
20
0
30
0
70
128
71
44
72
43
73
45
0
VERTEX
8
OBJECT__1
10
0
20
0
30
0
70
128
71
48
72
49
73
47
0
VERTEX
8
OBJECT__1
10
0
20
0
30
0
70
128
71
47
72
46
73
48
0
VERTEX
8
OBJECT__1
10
0
20
0
30
0
70
128
71
50
72
51
73
49
0
VERTEX
8
OBJECT__1
10
0
20
0
30
0
70
128
71
52
72
53
73
54
0
VERTEX
8
OBJECT__1
10
0
20
0
30
0
70
128
71
51
72
50
73
52
0
VERTEX
8
OBJECT__1
10
0
20
0
30
0
70
128
71
55
72
56
73
54
0
VERTEX
8
OBJECT__1
10
0
20
0
30
0
70
128
71
54
72
53
73
55
0
VERTEX
8
OBJECT__1
10
0
20
0
30
0
70
128
71
57
72
58
73
56
0
VERTEX
8
OBJECT__1
10
0
20
0
30
0
70
128
71
56
72
59
73
57
0
VERTEX
8
OBJECT__1
10
0
20
0
30
0
70
128
71
60
72
61
73
58
0
VERTEX
8
OBJECT__1
10
0
20
0
30
0
70
128
71
62
72
63
73
64
0
VERTEX
8
OBJECT__1
10
0
20
0
30
0
70
128
71
61
72
60
73
62
0
VERTEX
8
OBJECT__1
10
0
20
0
30
0
70
128
71
65
72
66
73
64
0
VERTEX
8
OBJECT__1
10
0
20
0
30
0
70
128
71
64
72
63
73
65
0
VERTEX
8
OBJECT__1
10
0
20
0
30
0
70
128
71
67
72
68
73
69
0
VERTEX
8
OBJECT__1
10
0
20
0
30
0
70
128
71
70
72
71
73
72
0
VERTEX
8
OBJECT__1
10
0
20
0
30
0
70
128
71
69
72
68
73
70
0
VERTEX
8
OBJECT__1
10
0
20
0
30
0
70
128
71
73
72
74
73
72
0
VERTEX
8
OBJECT__1
10
0
20
0
30
0
70
128
71
72
72
71
73
73
0
VERTEX
8
OBJECT__1
10
0
20
0
30
0
70
128
71
75
72
76
73
77
0
VERTEX
8
OBJECT__1
10
0
20
0
30
0
70
128
71
78
72
79
73
80
0
VERTEX
8
OBJECT__1
10
0
20
0
30
0
70
128
71
77
72
76
73
78
0
VERTEX
8
OBJECT__1
10
0
20
0
30
0
70
128
71
80
72
79
73
81
0
VERTEX
8
OBJECT__1
10
0
20
0
30
0
70
128
71
81
72
82
73
80
0
VERTEX
8
OBJECT__1
10
0
20
0
30
0
70
128
71
83
72
84
73
82
0
VERTEX
8
OBJECT__1
10
0
20
0
30
0
70
128
71
82
72
85
73
83
0
VERTEX
8
OBJECT__1
10
0
20
0
30
0
70
128
71
86
72
87
73
88
0
VERTEX
8
OBJECT__1
10
0
20
0
30
0
70
128
71
89
72
90
73
91
0
VERTEX
8
OBJECT__1
10
0
20
0
30
0
70
128
71
88
72
87
73
89
0
VERTEX
8
OBJECT__1
10
0
20
0
30
0
70
128
71
92
72
93
73
91
0
VERTEX
8
OBJECT__1
10
0
20
0
30
0
70
128
71
91
72
90
73
92
0
VERTEX
8
OBJECT__1
10
0
20
0
30
0
70
128
71
94
72
95
73
96
0
VERTEX
8
OBJECT__1
10
0
20
0
30
0
70
128
71
97
72
98
73
99
0
VERTEX
8
OBJECT__1
10
0
20
0
30
0
70
128
71
96
72
95
73
97
0
VERTEX
8
OBJECT__1
10
0
20
0
30
0
70
128
71
100
72
101
73
99
0
VERTEX
8
OBJECT__1
10
0
20
0
30
0
70
128
71
99
72
98
73
100
0
VERTEX
8
OBJECT__1
10
0
20
0
30
0
70
128
71
102
72
103
73
104
0
VERTEX
8
OBJECT__1
10
0
20
0
30
0
70
128
71
105
72
106
73
107
0
VERTEX
8
OBJECT__1
10
0
20
0
30
0
70
128
71
104
72
103
73
105
0
VERTEX
8
OBJECT__1
10
0
20
0
30
0
70
128
71
108
72
109
73
107
0
VERTEX
8
OBJECT__1
10
0
20
0
30
0
70
128
71
107
72
106
73
108
0
VERTEX
8
OBJECT__1
10
0
20
0
30
0
70
128
71
1
72
110
73
109
0
VERTEX
8
OBJECT__1
10
0
20
0
30
0
70
128
71
110
72
3
73
111
0
VERTEX
8
OBJECT__1
10
0
20
0
30
0
70
128
71
6
72
112
73
111
0
VERTEX
8
OBJECT__1
10
0
20
0
30
0
70
128
71
6
72
8
73
113
0
VERTEX
8
OBJECT__1
10
0
20
0
30
0
70
128
71
11
72
114
73
113
0
VERTEX
8
OBJECT__1
10
0
20
0
30
0
70
128
71
14
72
115
73
114
0
VERTEX
8
OBJECT__1
10
0
20
0
30
0
70
128
71
14
72
16
73
116
0
VERTEX
8
OBJECT__1
10
0
20
0
30
0
70
128
71
19
72
117
73
116
0
VERTEX
8
OBJECT__1
10
0
20
0
30
0
70
128
71
19
72
22
73
118
0
VERTEX
8
OBJECT__1
10
0
20
0
30
0
70
128
71
22
72
24
73
119
0
VERTEX
8
OBJECT__1
10
0
20
0
30
0
70
128
71
27
72
120
73
119
0
VERTEX
8
OBJECT__1
10
0
20
0
30
0
70
128
71
27
72
30
73
121
0
VERTEX
8
OBJECT__1
10
0
20
0
30
0
70
128
71
31
72
122
73
121
0
VERTEX
8
OBJECT__1
10
0
20
0
30
0
70
128
71
31
72
34
73
123
0
VERTEX
8
OBJECT__1
10
0
20
0
30
0
70
128
71
34
72
37
73
124
0
VERTEX
8
OBJECT__1
10
0
20
0
30
0
70
128
71
40
72
125
73
124
0
VERTEX
8
OBJECT__1
10
0
20
0
30
0
70
128
71
40
72
42
73
126
0
VERTEX
8
OBJECT__1
10
0
20
0
30
0
70
128
71
42
72
44
73
127
0
VERTEX
8
OBJECT__1
10
0
20
0
30
0
70
128
71
47
72
128
73
127
0
VERTEX
8
OBJECT__1
10
0
20
0
30
0
70
128
71
47
72
49
73
129
0
VERTEX
8
OBJECT__1
10
0
20
0
30
0
70
128
71
49
72
51
73
130
0
VERTEX
8
OBJECT__1
10
0
20
0
30
0
70
128
71
54
72
131
73
130
0
VERTEX
8
OBJECT__1
10
0
20
0
30
0
70
128
71
54
72
56
73
132
0
VERTEX
8
OBJECT__1
10
0
20
0
30
0
70
128
71
56
72
133
73
132
0
VERTEX
8
OBJECT__1
10
0
20
0
30
0
70
128
71
56
72
58
73
134
0
VERTEX
8
OBJECT__1
10
0
20
0
30
0
70
128
71
61
72
135
73
134
0
VERTEX
8
OBJECT__1
10
0
20
0
30
0
70
128
71
61
72
64
73
136
0
VERTEX
8
OBJECT__1
10
0
20
0
30
0
70
128
71
66
72
137
73
136
0
VERTEX
8
OBJECT__1
10
0
20
0
30
0
70
128
71
66
72
69
73
138
0
VERTEX
8
OBJECT__1
10
0
20
0
30
0
70
128
71
69
72
72
73
139
0
VERTEX
8
OBJECT__1
10
0
20
0
30
0
70
128
71
74
72
140
73
139
0
VERTEX
8
OBJECT__1
10
0
20
0
30
0
70
128
71
77
72
141
73
140
0
VERTEX
8
OBJECT__1
10
0
20
0
30
0
70
128
71
77
72
80
73
142
0
VERTEX
8
OBJECT__1
10
0
20
0
30
0
70
128
71
82
72
143
73
142
0
VERTEX
8
OBJECT__1
10
0
20
0
30
0
70
128
71
82
72
84
73
144
0
VERTEX
8
OBJECT__1
10
0
20
0
30
0
70
128
71
84
72
88
73
145
0
VERTEX
8
OBJECT__1
10
0
20
0
30
0
70
128
71
91
72
146
73
145
0
VERTEX
8
OBJECT__1
10
0
20
0
30
0
70
128
71
93
72
147
73
146
0
VERTEX
8
OBJECT__1
10
0
20
0
30
0
70
128
71
93
72
96
73
148
0
VERTEX
8
OBJECT__1
10
0
20
0
30
0
70
128
71
96
72
99
73
149
0
VERTEX
8
OBJECT__1
10
0
20
0
30
0
70
128
71
101
72
150
73
149
0
VERTEX
8
OBJECT__1
10
0
20
0
30
0
70
128
71
101
72
104
73
151
0
VERTEX
8
OBJECT__1
10
0
20
0
30
0
70
128
71
104
72
107
73
152
0
VERTEX
8
OBJECT__1
10
0
20
0
30
0
70
128
71
109
72
153
73
152
0
VERTEX
8
OBJECT__1
10
0
20
0
30
0
70
128
71
110
72
154
73
153
0
VERTEX
8
OBJECT__1
10
0
20
0
30
0
70
128
71
153
72
109
73
110
0
VERTEX
8
OBJECT__1
10
0
20
0
30
0
70
128
71
152
72
107
73
109
0
VERTEX
8
OBJECT__1
10
0
20
0
30
0
70
128
71
152
72
151
73
104
0
VERTEX
8
OBJECT__1
10
0
20
0
30
0
70
128
71
151
72
150
73
101
0
VERTEX
8
OBJECT__1
10
0
20
0
30
0
70
128
71
149
72
99
73
101
0
VERTEX
8
OBJECT__1
10
0
20
0
30
0
70
128
71
149
72
148
73
96
0
VERTEX
8
OBJECT__1
10
0
20
0
30
0
70
128
71
148
72
147
73
93
0
VERTEX
8
OBJECT__1
10
0
20
0
30
0
70
128
71
146
72
91
73
93
0
VERTEX
8
OBJECT__1
10
0
20
0
30
0
70
128
71
145
72
88
73
91
0
VERTEX
8
OBJECT__1
10
0
20
0
30
0
70
128
71
145
72
144
73
84
0
VERTEX
8
OBJECT__1
10
0
20
0
30
0
70
128
71
144
72
143
73
82
0
VERTEX
8
OBJECT__1
10
0
20
0
30
0
70
128
71
142
72
80
73
82
0
VERTEX
8
OBJECT__1
10
0
20
0
30
0
70
128
71
142
72
141
73
77
0
VERTEX
8
OBJECT__1
10
0
20
0
30
0
70
128
71
140
72
74
73
77
0
VERTEX
8
OBJECT__1
10
0
20
0
30
0
70
128
71
139
72
72
73
74
0
VERTEX
8
OBJECT__1
10
0
20
0
30
0
70
128
71
139
72
138
73
69
0
VERTEX
8
OBJECT__1
10
0
20
0
30
0
70
128
71
138
72
137
73
66
0
VERTEX
8
OBJECT__1
10
0
20
0
30
0
70
128
71
136
72
64
73
66
0
VERTEX
8
OBJECT__1
10
0
20
0
30
0
70
128
71
136
72
135
73
61
0
VERTEX
8
OBJECT__1
10
0
20
0
30
0
70
128
71
134
72
58
73
61
0
VERTEX
8
OBJECT__1
10
0
20
0
30
0
70
128
71
134
72
133
73
56
0
VERTEX
8
OBJECT__1
10
0
20
0
30
0
70
128
71
132
72
131
73
54
0
VERTEX
8
OBJECT__1
10
0
20
0
30
0
70
128
71
130
72
51
73
54
0
VERTEX
8
OBJECT__1
10
0
20
0
30
0
70
128
71
130
72
129
73
49
0
VERTEX
8
OBJECT__1
10
0
20
0
30
0
70
128
71
129
72
128
73
47
0
VERTEX
8
OBJECT__1
10
0
20
0
30
0
70
128
71
127
72
44
73
47
0
VERTEX
8
OBJECT__1
10
0
20
0
30
0
70
128
71
127
72
126
73
42
0
VERTEX
8
OBJECT__1
10
0
20
0
30
0
70
128
71
126
72
125
73
40
0
VERTEX
8
OBJECT__1
10
0
20
0
30
0
70
128
71
124
72
37
73
40
0
VERTEX
8
OBJECT__1
10
0
20
0
30
0
70
128
71
124
72
123
73
34
0
VERTEX
8
OBJECT__1
10
0
20
0
30
0
70
128
71
123
72
122
73
31
0
VERTEX
8
OBJECT__1
10
0
20
0
30
0
70
128
71
121
72
30
73
31
0
VERTEX
8
OBJECT__1
10
0
20
0
30
0
70
128
71
121
72
120
73
27
0
VERTEX
8
OBJECT__1
10
0
20
0
30
0
70
128
71
119
72
24
73
27
0
VERTEX
8
OBJECT__1
10
0
20
0
30
0
70
128
71
119
72
118
73
22
0
VERTEX
8
OBJECT__1
10
0
20
0
30
0
70
128
71
118
72
117
73
19
0
VERTEX
8
OBJECT__1
10
0
20
0
30
0
70
128
71
116
72
16
73
19
0
VERTEX
8
OBJECT__1
10
0
20
0
30
0
70
128
71
116
72
115
73
14
0
VERTEX
8
OBJECT__1
10
0
20
0
30
0
70
128
71
114
72
11
73
14
0
VERTEX
8
OBJECT__1
10
0
20
0
30
0
70
128
71
113
72
8
73
11
0
VERTEX
8
OBJECT__1
10
0
20
0
30
0
70
128
71
113
72
112
73
6
0
VERTEX
8
OBJECT__1
10
0
20
0
30
0
70
128
71
111
72
3
73
6
0
VERTEX
8
OBJECT__1
10
0
20
0
30
0
70
128
71
111
72
154
73
110
0
VERTEX
8
OBJECT__1
10
0
20
0
30
0
70
128
71
109
72
155
73
1
0
VERTEX
8
OBJECT__1
10
0
20
0
30
0
70
128
71
108
72
155
73
109
0
VERTEX
8
OBJECT__1
10
0
20
0
30
0
70
128
71
107
72
104
73
105
0
VERTEX
8
OBJECT__1
10
0
20
0
30
0
70
128
71
104
72
101
73
102
0
VERTEX
8
OBJECT__1
10
0
20
0
30
0
70
128
71
100
72
102
73
101
0
VERTEX
8
OBJECT__1
10
0
20
0
30
0
70
128
71
99
72
96
73
97
0
VERTEX
8
OBJECT__1
10
0
20
0
30
0
70
128
71
96
72
93
73
94
0
VERTEX
8
OBJECT__1
10
0
20
0
30
0
70
128
71
92
72
94
73
93
0
VERTEX
8
OBJECT__1
10
0
20
0
30
0
70
128
71
91
72
88
73
89
0
VERTEX
8
OBJECT__1
10
0
20
0
30
0
70
128
71
88
72
84
73
86
0
VERTEX
8
OBJECT__1
10
0
20
0
30
0
70
128
71
83
72
86
73
84
0
VERTEX
8
OBJECT__1
10
0
20
0
30
0
70
128
71
81
72
85
73
82
0
VERTEX
8
OBJECT__1
10
0
20
0
30
0
70
128
71
80
72
77
73
78
0
VERTEX
8
OBJECT__1
10
0
20
0
30
0
70
128
71
77
72
74
73
75
0
VERTEX
8
OBJECT__1
10
0
20
0
30
0
70
128
71
73
72
75
73
74
0
VERTEX
8
OBJECT__1
10
0
20
0
30
0
70
128
71
72
72
69
73
70
0
VERTEX
8
OBJECT__1
10
0
20
0
30
0
70
128
71
69
72
66
73
67
0
VERTEX
8
OBJECT__1
10
0
20
0
30
0
70
128
71
65
72
67
73
66
0
VERTEX
8
OBJECT__1
10
0
20
0
30
0
70
128
71
64
72
61
73
62
0
VERTEX
8
OBJECT__1
10
0
20
0
30
0
70
128
71
58
72
156
73
60
0
VERTEX
8
OBJECT__1
10
0
20
0
30
0
70
128
71
57
72
156
73
58
0
VERTEX
8
OBJECT__1
10
0
20
0
30
0
70
128
71
55
72
59
73
56
0
VERTEX
8
OBJECT__1
10
0
20
0
30
0
70
128
71
54
72
51
73
52
0
VERTEX
8
OBJECT__1
10
0
20
0
30
0
70
128
71
49
72
157
73
50
0
VERTEX
8
OBJECT__1
10
0
20
0
30
0
70
128
71
48
72
157
73
49
0
VERTEX
8
OBJECT__1
10
0
20
0
30
0
70
128
71
47
72
44
73
45
0
VERTEX
8
OBJECT__1
10
0
20
0
30
0
70
128
71
42
72
158
73
43
0
VERTEX
8
OBJECT__1
10
0
20
0
30
0
70
128
71
41
72
158
73
42
0
VERTEX
8
OBJECT__1
10
0
20
0
30
0
70
128
71
40
72
37
73
38
0
VERTEX
8
OBJECT__1
10
0
20
0
30
0
70
128
71
34
72
159
73
36
0
VERTEX
8
OBJECT__1
10
0
20
0
30
0
70
128
71
33
72
159
73
34
0
VERTEX
8
OBJECT__1
10
0
20
0
30
0
70
128
71
32
72
35
73
31
0
VERTEX
8
OBJECT__1
10
0
20
0
30
0
70
128
71
30
72
27
73
28
0
VERTEX
8
OBJECT__1
10
0
20
0
30
0
70
128
71
27
72
24
73
25
0
VERTEX
8
OBJECT__1
10
0
20
0
30
0
70
128
71
23
72
25
73
24
0
VERTEX
8
OBJECT__1
10
0
20
0
30
0
70
128
71
22
72
19
73
20
0
VERTEX
8
OBJECT__1
10
0
20
0
30
0
70
128
71
19
72
16
73
17
0
VERTEX
8
OBJECT__1
10
0
20
0
30
0
70
128
71
15
72
17
73
16
0
VERTEX
8
OBJECT__1
10
0
20
0
30
0
70
128
71
14
72
11
73
12
0
VERTEX
8
OBJECT__1
10
0
20
0
30
0
70
128
71
11
72
8
73
9
0
VERTEX
8
OBJECT__1
10
0
20
0
30
0
70
128
71
7
72
9
73
8
0
VERTEX
8
OBJECT__1
10
0
20
0
30
0
70
128
71
6
72
3
73
4
0
VERTEX
8
OBJECT__1
10
0
20
0
30
0
70
128
71
3
72
110
73
1
0
SEQEND
8
OBJECT__1
0
POLYLINE
8
OBJECT__3
66
1
70
64
71
102
72
102
62
253
0
VERTEX
8
OBJECT__3
10
584.200012
20
0.000000
30
1008.898010
70
192
0
VERTEX
8
OBJECT__3
10
583.635986
20
0.000000
30
998.127991
70
192
0
VERTEX
8
OBJECT__3
10
581.679016
20
26.738001
30
998.127991
70
192
0
VERTEX
8
OBJECT__3
10
580.174988
20
38.297001
30
1008.898010
70
192
0
VERTEX
8
OBJECT__3
10
568.275024
20
74.920998
30
1008.898010
70
192
0
VERTEX
8
OBJECT__3
10
575.849976
20
52.904999
30
998.127991
70
192
0
VERTEX
8
OBJECT__3
10
579.153015
20
38.075001
30
998.127991
70
192
0
VERTEX
8
OBJECT__3
10
566.273010
20
77.945000
30
998.127991
70
192
0
VERTEX
8
OBJECT__3
10
553.151978
20
101.323997
30
998.127991
70
192
0
VERTEX
8
OBJECT__3
10
549.020996
20
108.269997
30
1008.898010
70
192
0
VERTEX
8
OBJECT__3
10
567.547974
20
74.610001
30
998.127991
70
192
0
VERTEX
8
OBJECT__3
10
523.254028
20
136.886993
30
1008.898010
70
192
0
VERTEX
8
OBJECT__3
10
536.767029
20
122.542999
30
998.127991
70
192
0
VERTEX
8
OBJECT__3
10
548.239014
20
107.686996
30
998.127991
70
192
0
VERTEX
8
OBJECT__3
10
492.100006
20
159.522003
30
1008.898010
70
192
0
VERTEX
8
OBJECT__3
10
517.466980
20
141.151001
30
998.127991
70
192
0
VERTEX
8
OBJECT__3
10
522.609985
20
136.192001
30
998.127991
70
192
0
VERTEX
8
OBJECT__3
10
495.662994
20
156.750000
30
998.127991
70
192
0
VERTEX
8
OBJECT__3
10
491.692993
20
158.791000
30
998.127991
70
192
0
VERTEX
8
OBJECT__3
10
471.821014
20
169.007996
30
998.127991
70
192
0
VERTEX
8
OBJECT__3
10
456.920990
20
175.184998
30
1008.898010
70
192
0
VERTEX
8
OBJECT__3
10
419.253998
20
183.190994
30
1008.898010
70
192
0
VERTEX
8
OBJECT__3
10
446.447998
20
177.664001
30
998.127991
70
192
0
VERTEX
8
OBJECT__3
10
456.595001
20
174.203003
30
998.127991
70
192
0
VERTEX
8
OBJECT__3
10
420.084015
20
182.533997
30
998.127991
70
192
0
VERTEX
8
OBJECT__3
10
419.192993
20
182.567001
30
998.127991
70
192
0
VERTEX
8
OBJECT__3
10
393.292999
20
183.513000
30
998.127991
70
192
0
VERTEX
8
OBJECT__3
10
380.746002
20
183.190994
30
1008.898010
70
192
0
VERTEX
8
OBJECT__3
10
343.079010
20
175.184998
30
1008.898010
70
192
0
VERTEX
8
OBJECT__3
10
366.644989
20
180.580994
30
998.127991
70
192
0
VERTEX
8
OBJECT__3
10
380.858002
20
182.145004
30
998.127991
70
192
0
VERTEX
8
OBJECT__3
10
340.708008
20
173.800003
30
998.127991
70
192
0
VERTEX
8
OBJECT__3
10
316.033997
20
163.315002
30
998.127991
70
192
0
VERTEX
8
OBJECT__3
10
307.899994
20
159.522003
30
1008.898010
70
192
0
VERTEX
8
OBJECT__3
10
343.298004
20
174.477005
30
998.127991
70
192
0
VERTEX
8
OBJECT__3
10
276.746002
20
136.886993
30
1008.898010
70
192
0
VERTEX
8
OBJECT__3
10
293.149994
20
149.348999
30
998.127991
70
192
0
VERTEX
8
OBJECT__3
10
308.408997
20
158.660995
30
998.127991
70
192
0
VERTEX
8
OBJECT__3
10
250.979004
20
108.269997
30
1008.898010
70
192
0
VERTEX
8
OBJECT__3
10
272.542999
20
132.199997
30
998.127991
70
192
0
VERTEX
8
OBJECT__3
10
277.347992
20
136.197998
30
998.127991
70
192
0
VERTEX
8
OBJECT__3
10
254.653000
20
112.233002
30
998.127991
70
192
0
VERTEX
8
OBJECT__3
10
251.697006
20
107.764999
30
998.127991
70
192
0
VERTEX
8
OBJECT__3
10
239.860992
20
89.875000
30
998.127991
70
192
0
VERTEX
8
OBJECT__3
10
231.725006
20
74.920998
30
1008.898010
70
192
0
VERTEX
8
OBJECT__3
10
219.824997
20
38.297001
30
1008.898010
70
192
0
VERTEX
8
OBJECT__3
10
228.481003
20
65.599998
30
998.127991
70
192
0
VERTEX
8
OBJECT__3
10
232.653000
20
74.498001
30
998.127991
70
192
0
VERTEX
8
OBJECT__3
10
220.757996
20
39.928001
30
998.127991
70
192
0
VERTEX
8
OBJECT__3
10
220.498001
20
38.161999
30
998.127991
70
192
0
VERTEX
8
OBJECT__3
10
216.854004
20
13.405000
30
998.127991
70
192
0
VERTEX
8
OBJECT__3
10
215.800003
20
0.000000
30
1008.898010
70
192
0
VERTEX
8
OBJECT__3
10
219.824997
20
-38.297001
30
1008.898010
70
192
0
VERTEX
8
OBJECT__3
10
216.854004
20
-13.405000
30
998.127991
70
192
0
VERTEX
8
OBJECT__3
10
216.363998
20
0.000000
30
998.127991
70
192
0
VERTEX
8
OBJECT__3
10
220.757996
20
-39.928001
30
998.127991
70
192
0
VERTEX
8
OBJECT__3
10
228.481003
20
-65.599998
30
998.127991
70
192
0
VERTEX
8
OBJECT__3
10
231.725006
20
-74.920998
30
1008.898010
70
192
0
VERTEX
8
OBJECT__3
10
220.498001
20
-38.161999
30
998.127991
70
192
0
VERTEX
8
OBJECT__3
10
250.979004
20
-108.269997
30
1008.898010
70
192
0
VERTEX
8
OBJECT__3
10
239.860992
20
-89.875000
30
998.127991
70
192
0
VERTEX
8
OBJECT__3
10
232.653000
20
-74.498001
30
998.127991
70
192
0
VERTEX
8
OBJECT__3
10
254.653000
20
-112.233002
30
998.127991
70
192
0
VERTEX
8
OBJECT__3
10
272.542999
20
-132.199997
30
998.127991
70
192
0
VERTEX
8
OBJECT__3
10
276.746002
20
-136.886993
30
1008.898010
70
192
0
VERTEX
8
OBJECT__3
10
251.697006
20
-107.764999
30
998.127991
70
192
0
VERTEX
8
OBJECT__3
10
277.347992
20
-136.197998
30
998.127991
70
192
0
VERTEX
8
OBJECT__3
10
293.149994
20
-149.348999
30
998.127991
70
192
0
VERTEX
8
OBJECT__3
10
307.899994
20
-159.522003
30
1008.898010
70
192
0
VERTEX
8
OBJECT__3
10
343.079010
20
-175.184998
30
1008.898010
70
192
0
VERTEX
8
OBJECT__3
10
316.033997
20
-163.315002
30
998.127991
70
192
0
VERTEX
8
OBJECT__3
10
308.408997
20
-158.660995
30
998.127991
70
192
0
VERTEX
8
OBJECT__3
10
340.708008
20
-173.800003
30
998.127991
70
192
0
VERTEX
8
OBJECT__3
10
343.298004
20
-174.477005
30
998.127991
70
192
0
VERTEX
8
OBJECT__3
10
366.644989
20
-180.580994
30
998.127991
70
192
0
VERTEX
8
OBJECT__3
10
380.746002
20
-183.190994
30
1008.898010
70
192
0
VERTEX
8
OBJECT__3
10
419.253998
20
-183.190994
30
1008.898010
70
192
0
VERTEX
8
OBJECT__3
10
393.292999
20
-183.513000
30
998.127991
70
192
0
VERTEX
8
OBJECT__3
10
380.858002
20
-182.145004
30
998.127991
70
192
0
VERTEX
8
OBJECT__3
10
420.084015
20
-182.533997
30
998.127991
70
192
0
VERTEX
8
OBJECT__3
10
446.447998
20
-177.664001
30
998.127991
70
192
0
VERTEX
8
OBJECT__3
10
456.920990
20
-175.184998
30
1008.898010
70
192
0
VERTEX
8
OBJECT__3
10
419.192993
20
-182.567001
30
998.127991
70
192
0
VERTEX
8
OBJECT__3
10
492.100006
20
-159.522003
30
1008.898010
70
192
0
VERTEX
8
OBJECT__3
10
471.821014
20
-169.007996
30
998.127991
70
192
0
VERTEX
8
OBJECT__3
10
456.595001
20
-174.203003
30
998.127991
70
192
0
VERTEX
8
OBJECT__3
10
495.662994
20
-156.750000
30
998.127991
70
192
0
VERTEX
8
OBJECT__3
10
517.466980
20
-141.151001
30
998.127991
70
192
0
VERTEX
8
OBJECT__3
10
523.254028
20
-136.886993
30
1008.898010
70
192
0
VERTEX
8
OBJECT__3
10
491.692993
20
-158.791000
30
998.127991
70
192
0
VERTEX
8
OBJECT__3
10
522.609985
20
-136.192001
30
998.127991
70
192
0
VERTEX
8
OBJECT__3
10
536.767029
20
-122.542999
30
998.127991
70
192
0
VERTEX
8
OBJECT__3
10
549.020996
20
-108.269997
30
1008.898010
70
192
0
VERTEX
8
OBJECT__3
10
568.275024
20
-74.920998
30
1008.898010
70
192
0
VERTEX
8
OBJECT__3
10
553.151978
20
-101.323997
30
998.127991
70
192
0
VERTEX
8
OBJECT__3
10
548.239014
20
-107.686996
30
998.127991
70
192
0
VERTEX
8
OBJECT__3
10
566.273010
20
-77.945000
30
998.127991
70
192
0
VERTEX
8
OBJECT__3
10
567.547974
20
-74.610001
30
998.127991
70
192
0
VERTEX
8
OBJECT__3
10
575.849976
20
-52.904999
30
998.127991
70
192
0
VERTEX
8
OBJECT__3
10
580.174988
20
-38.297001
30
1008.898010
70
192
0
VERTEX
8
OBJECT__3
10
581.679016
20
-26.738001
30
998.127991
70
192
0
VERTEX
8
OBJECT__3
10
579.153015
20
-38.075001
30
998.127991
70
192
0
VERTEX
8
OBJECT__3
10
0
20
0
30
0
70
128
71
1
72
2
73
3
0
VERTEX
8
OBJECT__3
10
0
20
0
30
0
70
128
71
3
72
4
73
1
0
VERTEX
8
OBJECT__3
10
0
20
0
30
0
70
128
71
5
72
4
73
6
0
VERTEX
8
OBJECT__3
10
0
20
0
30
0
70
128
71
4
72
7
73
6
0
VERTEX
8
OBJECT__3
10
0
20
0
30
0
70
128
71
5
72
8
73
9
0
VERTEX
8
OBJECT__3
10
0
20
0
30
0
70
128
71
9
72
10
73
5
0
VERTEX
8
OBJECT__3
10
0
20
0
30
0
70
128
71
5
72
11
73
8
0
VERTEX
8
OBJECT__3
10
0
20
0
30
0
70
128
71
12
72
10
73
13
0
VERTEX
8
OBJECT__3
10
0
20
0
30
0
70
128
71
10
72
14
73
13
0
VERTEX
8
OBJECT__3
10
0
20
0
30
0
70
128
71
15
72
12
73
16
0
VERTEX
8
OBJECT__3
10
0
20
0
30
0
70
128
71
12
72
17
73
16
0
VERTEX
8
OBJECT__3
10
0
20
0
30
0
70
128
71
16
72
18
73
15
0
VERTEX
8
OBJECT__3
10
0
20
0
30
0
70
128
71
15
72
19
73
20
0
VERTEX
8
OBJECT__3
10
0
20
0
30
0
70
128
71
20
72
21
73
15
0
VERTEX
8
OBJECT__3
10
0
20
0
30
0
70
128
71
22
72
21
73
23
0
VERTEX
8
OBJECT__3
10
0
20
0
30
0
70
128
71
21
72
24
73
23
0
VERTEX
8
OBJECT__3
10
0
20
0
30
0
70
128
71
23
72
25
73
22
0
VERTEX
8
OBJECT__3
10
0
20
0
30
0
70
128
71
22
72
26
73
27
0
VERTEX
8
OBJECT__3
10
0
20
0
30
0
70
128
71
27
72
28
73
22
0
VERTEX
8
OBJECT__3
10
0
20
0
30
0
70
128
71
29
72
28
73
30
0
VERTEX
8
OBJECT__3
10
0
20
0
30
0
70
128
71
28
72
31
73
30
0
VERTEX
8
OBJECT__3
10
0
20
0
30
0
70
128
71
29
72
32
73
33
0
VERTEX
8
OBJECT__3
10
0
20
0
30
0
70
128
71
33
72
34
73
29
0
VERTEX
8
OBJECT__3
10
0
20
0
30
0
70
128
71
29
72
35
73
32
0
VERTEX
8
OBJECT__3
10
0
20
0
30
0
70
128
71
36
72
34
73
37
0
VERTEX
8
OBJECT__3
10
0
20
0
30
0
70
128
71
34
72
38
73
37
0
VERTEX
8
OBJECT__3
10
0
20
0
30
0
70
128
71
39
72
36
73
40
0
VERTEX
8
OBJECT__3
10
0
20
0
30
0
70
128
71
36
72
41
73
40
0
VERTEX
8
OBJECT__3
10
0
20
0
30
0
70
128
71
40
72
42
73
39
0
VERTEX
8
OBJECT__3
10
0
20
0
30
0
70
128
71
39
72
43
73
44
0
VERTEX
8
OBJECT__3
10
0
20
0
30
0
70
128
71
44
72
45
73
39
0
VERTEX
8
OBJECT__3
10
0
20
0
30
0
70
128
71
46
72
45
73
47
0
VERTEX
8
OBJECT__3
10
0
20
0
30
0
70
128
71
45
72
48
73
47
0
VERTEX
8
OBJECT__3
10
0
20
0
30
0
70
128
71
47
72
49
73
46
0
VERTEX
8
OBJECT__3
10
0
20
0
30
0
70
128
71
46
72
50
73
51
0
VERTEX
8
OBJECT__3
10
0
20
0
30
0
70
128
71
51
72
52
73
46
0
VERTEX
8
OBJECT__3
10
0
20
0
30
0
70
128
71
53
72
52
73
54
0
VERTEX
8
OBJECT__3
10
0
20
0
30
0
70
128
71
52
72
55
73
54
0
VERTEX
8
OBJECT__3
10
0
20
0
30
0
70
128
71
53
72
56
73
57
0
VERTEX
8
OBJECT__3
10
0
20
0
30
0
70
128
71
57
72
58
73
53
0
VERTEX
8
OBJECT__3
10
0
20
0
30
0
70
128
71
53
72
59
73
56
0
VERTEX
8
OBJECT__3
10
0
20
0
30
0
70
128
71
60
72
58
73
61
0
VERTEX
8
OBJECT__3
10
0
20
0
30
0
70
128
71
58
72
62
73
61
0
VERTEX
8
OBJECT__3
10
0
20
0
30
0
70
128
71
60
72
63
73
64
0
VERTEX
8
OBJECT__3
10
0
20
0
30
0
70
128
71
64
72
65
73
60
0
VERTEX
8
OBJECT__3
10
0
20
0
30
0
70
128
71
60
72
66
73
63
0
VERTEX
8
OBJECT__3
10
0
20
0
30
0
70
128
71
65
72
67
73
68
0
VERTEX
8
OBJECT__3
10
0
20
0
30
0
70
128
71
68
72
69
73
65
0
VERTEX
8
OBJECT__3
10
0
20
0
30
0
70
128
71
70
72
69
73
71
0
VERTEX
8
OBJECT__3
10
0
20
0
30
0
70
128
71
69
72
72
73
71
0
VERTEX
8
OBJECT__3
10
0
20
0
30
0
70
128
71
71
72
73
73
70
0
VERTEX
8
OBJECT__3
10
0
20
0
30
0
70
128
71
70
72
74
73
75
0
VERTEX
8
OBJECT__3
10
0
20
0
30
0
70
128
71
75
72
76
73
70
0
VERTEX
8
OBJECT__3
10
0
20
0
30
0
70
128
71
77
72
76
73
78
0
VERTEX
8
OBJECT__3
10
0
20
0
30
0
70
128
71
76
72
79
73
78
0
VERTEX
8
OBJECT__3
10
0
20
0
30
0
70
128
71
77
72
80
73
81
0
VERTEX
8
OBJECT__3
10
0
20
0
30
0
70
128
71
81
72
82
73
77
0
VERTEX
8
OBJECT__3
10
0
20
0
30
0
70
128
71
77
72
83
73
80
0
VERTEX
8
OBJECT__3
10
0
20
0
30
0
70
128
71
84
72
82
73
85
0
VERTEX
8
OBJECT__3
10
0
20
0
30
0
70
128
71
82
72
86
73
85
0
VERTEX
8
OBJECT__3
10
0
20
0
30
0
70
128
71
84
72
87
73
88
0
VERTEX
8
OBJECT__3
10
0
20
0
30
0
70
128
71
88
72
89
73
84
0
VERTEX
8
OBJECT__3
10
0
20
0
30
0
70
128
71
84
72
90
73
87
0
VERTEX
8
OBJECT__3
10
0
20
0
30
0
70
128
71
89
72
91
73
92
0
VERTEX
8
OBJECT__3
10
0
20
0
30
0
70
128
71
92
72
93
73
89
0
VERTEX
8
OBJECT__3
10
0
20
0
30
0
70
128
71
94
72
93
73
95
0
VERTEX
8
OBJECT__3
10
0
20
0
30
0
70
128
71
93
72
96
73
95
0
VERTEX
8
OBJECT__3
10
0
20
0
30
0
70
128
71
95
72
97
73
94
0
VERTEX
8
OBJECT__3
10
0
20
0
30
0
70
128
71
94
72
98
73
99
0
VERTEX
8
OBJECT__3
10
0
20
0
30
0
70
128
71
99
72
100
73
94
0
VERTEX
8
OBJECT__3
10
0
20
0
30
0
70
128
71
1
72
100
73
101
0
VERTEX
8
OBJECT__3
10
0
20
0
30
0
70
128
71
100
72
102
73
101
0
VERTEX
8
OBJECT__3
10
0
20
0
30
0
70
128
71
101
72
2
73
1
0
VERTEX
8
OBJECT__3
10
0
20
0
30
0
70
128
71
99
72
102
73
100
0
VERTEX
8
OBJECT__3
10
0
20
0
30
0
70
128
71
97
72
98
73
94
0
VERTEX
8
OBJECT__3
10
0
20
0
30
0
70
128
71
92
72
96
73
93
0
VERTEX
8
OBJECT__3
10
0
20
0
30
0
70
128
71
88
72
91
73
89
0
VERTEX
8
OBJECT__3
10
0
20
0
30
0
70
128
71
85
72
90
73
84
0
VERTEX
8
OBJECT__3
10
0
20
0
30
0
70
128
71
81
72
86
73
82
0
VERTEX
8
OBJECT__3
10
0
20
0
30
0
70
128
71
78
72
83
73
77
0
VERTEX
8
OBJECT__3
10
0
20
0
30
0
70
128
71
75
72
79
73
76
0
VERTEX
8
OBJECT__3
10
0
20
0
30
0
70
128
71
73
72
74
73
70
0
VERTEX
8
OBJECT__3
10
0
20
0
30
0
70
128
71
68
72
72
73
69
0
VERTEX
8
OBJECT__3
10
0
20
0
30
0
70
128
71
64
72
67
73
65
0
VERTEX
8
OBJECT__3
10
0
20
0
30
0
70
128
71
61
72
66
73
60
0
VERTEX
8
OBJECT__3
10
0
20
0
30
0
70
128
71
57
72
62
73
58
0
VERTEX
8
OBJECT__3
10
0
20
0
30
0
70
128
71
54
72
59
73
53
0
VERTEX
8
OBJECT__3
10
0
20
0
30
0
70
128
71
51
72
55
73
52
0
VERTEX
8
OBJECT__3
10
0
20
0
30
0
70
128
71
49
72
50
73
46
0
VERTEX
8
OBJECT__3
10
0
20
0
30
0
70
128
71
44
72
48
73
45
0
VERTEX
8
OBJECT__3
10
0
20
0
30
0
70
128
71
42
72
43
73
39
0
VERTEX
8
OBJECT__3
10
0
20
0
30
0
70
128
71
37
72
41
73
36
0
VERTEX
8
OBJECT__3
10
0
20
0
30
0
70
128
71
33
72
38
73
34
0
VERTEX
8
OBJECT__3
10
0
20
0
30
0
70
128
71
30
72
35
73
29
0
VERTEX
8
OBJECT__3
10
0
20
0
30
0
70
128
71
27
72
31
73
28
0
VERTEX
8
OBJECT__3
10
0
20
0
30
0
70
128
71
25
72
26
73
22
0
VERTEX
8
OBJECT__3
10
0
20
0
30
0
70
128
71
20
72
24
73
21
0
VERTEX
8
OBJECT__3
10
0
20
0
30
0
70
128
71
18
72
19
73
15
0
VERTEX
8
OBJECT__3
10
0
20
0
30
0
70
128
71
13
72
17
73
12
0
VERTEX
8
OBJECT__3
10
0
20
0
30
0
70
128
71
9
72
14
73
10
0
VERTEX
8
OBJECT__3
10
0
20
0
30
0
70
128
71
6
72
11
73
5
0
VERTEX
8
OBJECT__3
10
0
20
0
30
0
70
128
71
3
72
7
73
4
0
SEQEND
8
OBJECT__3
0
POLYLINE
8
OBJECT__4
66
1
70
64
71
28
72
28
62
253
0
VERTEX
8
OBJECT__4
10
222.059006
20
85.692001
30
1015.700012
70
192
0
VERTEX
8
OBJECT__4
10
222.059006
20
85.692001
30
1008.500000
70
192
0
VERTEX
8
OBJECT__4
10
202.500000
20
0.000000
30
1008.500000
70
192
0
VERTEX
8
OBJECT__4
10
276.860992
20
154.412003
30
1015.700012
70
192
0
VERTEX
8
OBJECT__4
10
276.860992
20
154.412003
30
1008.500000
70
192
0
VERTEX
8
OBJECT__4
10
356.052002
20
192.548004
30
1015.700012
70
192
0
VERTEX
8
OBJECT__4
10
356.052002
20
192.548004
30
1008.500000
70
192
0
VERTEX
8
OBJECT__4
10
443.947998
20
192.548004
30
1015.700012
70
192
0
VERTEX
8
OBJECT__4
10
443.947998
20
192.548004
30
1008.500000
70
192
0
VERTEX
8
OBJECT__4
10
523.138977
20
154.412003
30
1015.700012
70
192
0
VERTEX
8
OBJECT__4
10
523.138977
20
154.412003
30
1008.500000
70
192
0
VERTEX
8
OBJECT__4
10
577.940979
20
85.692001
30
1015.700012
70
192
0
VERTEX
8
OBJECT__4
10
577.940979
20
85.692001
30
1008.500000
70
192
0
VERTEX
8
OBJECT__4
10
597.500000
20
0.000000
30
1015.700012
70
192
0
VERTEX
8
OBJECT__4
10
597.500000
20
0.000000
30
1008.500000
70
192
0
VERTEX
8
OBJECT__4
10
577.940979
20
-85.692001
30
1015.700012
70
192
0
VERTEX
8
OBJECT__4
10
577.940979
20
-85.692001
30
1008.500000
70
192
0
VERTEX
8
OBJECT__4
10
523.138977
20
-154.412003
30
1015.700012
70
192
0
VERTEX
8
OBJECT__4
10
523.138977
20
-154.412003
30
1008.500000
70
192
0
VERTEX
8
OBJECT__4
10
443.947998
20
-192.548004
30
1015.700012
70
192
0
VERTEX
8
OBJECT__4
10
443.947998
20
-192.548004
30
1008.500000
70
192
0
VERTEX
8
OBJECT__4
10
356.052002
20
-192.548004
30
1015.700012
70
192
0
VERTEX
8
OBJECT__4
10
356.052002
20
-192.548004
30
1008.500000
70
192
0
VERTEX
8
OBJECT__4
10
276.860992
20
-154.412003
30
1015.700012
70
192
0
VERTEX
8
OBJECT__4
10
276.860992
20
-154.412003
30
1008.500000
70
192
0
VERTEX
8
OBJECT__4
10
222.059006
20
-85.692001
30
1015.700012
70
192
0
VERTEX
8
OBJECT__4
10
222.059006
20
-85.692001
30
1008.500000
70
192
0
VERTEX
8
OBJECT__4
10
202.500000
20
0.000000
30
1015.700012
70
192
0
VERTEX
8
OBJECT__4
10
0
20
0
30
0
70
128
71
1
72
2
73
3
0
VERTEX
8
OBJECT__4
10
0
20
0
30
0
70
128
71
4
72
5
73
2
0
VERTEX
8
OBJECT__4
10
0
20
0
30
0
70
128
71
6
72
7
73
5
0
VERTEX
8
OBJECT__4
10
0
20
0
30
0
70
128
71
8
72
9
73
7
0
VERTEX
8
OBJECT__4
10
0
20
0
30
0
70
128
71
10
72
11
73
9
0
VERTEX
8
OBJECT__4
10
0
20
0
30
0
70
128
71
12
72
13
73
11
0
VERTEX
8
OBJECT__4
10
0
20
0
30
0
70
128
71
14
72
15
73
13
0
VERTEX
8
OBJECT__4
10
0
20
0
30
0
70
128
71
16
72
17
73
15
0
VERTEX
8
OBJECT__4
10
0
20
0
30
0
70
128
71
18
72
19
73
17
0
VERTEX
8
OBJECT__4
10
0
20
0
30
0
70
128
71
20
72
21
73
19
0
VERTEX
8
OBJECT__4
10
0
20
0
30
0
70
128
71
22
72
23
73
21
0
VERTEX
8
OBJECT__4
10
0
20
0
30
0
70
128
71
24
72
25
73
23
0
VERTEX
8
OBJECT__4
10
0
20
0
30
0
70
128
71
26
72
27
73
25
0
VERTEX
8
OBJECT__4
10
0
20
0
30
0
70
128
71
28
72
3
73
27
0
VERTEX
8
OBJECT__4
10
0
20
0
30
0
70
128
71
27
72
26
73
28
0
VERTEX
8
OBJECT__4
10
0
20
0
30
0
70
128
71
25
72
24
73
26
0
VERTEX
8
OBJECT__4
10
0
20
0
30
0
70
128
71
23
72
22
73
24
0
VERTEX
8
OBJECT__4
10
0
20
0
30
0
70
128
71
21
72
20
73
22
0
VERTEX
8
OBJECT__4
10
0
20
0
30
0
70
128
71
19
72
18
73
20
0
VERTEX
8
OBJECT__4
10
0
20
0
30
0
70
128
71
17
72
16
73
18
0
VERTEX
8
OBJECT__4
10
0
20
0
30
0
70
128
71
15
72
14
73
16
0
VERTEX
8
OBJECT__4
10
0
20
0
30
0
70
128
71
13
72
12
73
14
0
VERTEX
8
OBJECT__4
10
0
20
0
30
0
70
128
71
11
72
10
73
12
0
VERTEX
8
OBJECT__4
10
0
20
0
30
0
70
128
71
9
72
8
73
10
0
VERTEX
8
OBJECT__4
10
0
20
0
30
0
70
128
71
7
72
6
73
8
0
VERTEX
8
OBJECT__4
10
0
20
0
30
0
70
128
71
5
72
4
73
6
0
VERTEX
8
OBJECT__4
10
0
20
0
30
0
70
128
71
2
72
1
73
4
0
VERTEX
8
OBJECT__4
10
0
20
0
30
0
70
128
71
3
72
28
73
1
0
SEQEND
8
OBJECT__4
0
POLYLINE
8
OBJECT__5
66
1
70
64
71
21
72
21
62
253
0
VERTEX
8
OBJECT__5
10
523.138977
20
-154.412003
30
1015.700012
70
192
0
VERTEX
8
OBJECT__5
10
443.614990
20
-21.004000
30
1015.700012
70
192
0
VERTEX
8
OBJECT__5
10
410.772003
20
-47.195999
30
1015.700012
70
192
0
VERTEX
8
OBJECT__5
10
597.500000
20
0.000000
30
1015.700012
70
192
0
VERTEX
8
OBJECT__5
10
577.940979
20
85.692001
30
1015.700012
70
192
0
VERTEX
8
OBJECT__5
10
443.614990
20
21.004000
30
1015.700012
70
192
0
VERTEX
8
OBJECT__5
10
443.947998
20
-192.548004
30
1015.700012
70
192
0
VERTEX
8
OBJECT__5
10
577.940979
20
-85.692001
30
1015.700012
70
192
0
VERTEX
8
OBJECT__5
10
523.138977
20
154.412003
30
1015.700012
70
192
0
VERTEX
8
OBJECT__5
10
410.772003
20
47.195999
30
1015.700012
70
192
0
VERTEX
8
OBJECT__5
10
356.052002
20
192.548004
30
1015.700012
70
192
0
VERTEX
8
OBJECT__5
10
369.816986
20
37.848000
30
1015.700012
70
192
0
VERTEX
8
OBJECT__5
10
443.947998
20
192.548004
30
1015.700012
70
192
0
VERTEX
8
OBJECT__5
10
222.059006
20
85.692001
30
1015.700012
70
192
0
VERTEX
8
OBJECT__5
10
202.500000
20
0.000000
30
1015.700012
70
192
0
VERTEX
8
OBJECT__5
10
351.591003
20
0.000000
30
1015.700012
70
192
0
VERTEX
8
OBJECT__5
10
222.059006
20
-85.692001
30
1015.700012
70
192
0
VERTEX
8
OBJECT__5
10
276.860992
20
-154.412003
30
1015.700012
70
192
0
VERTEX
8
OBJECT__5
10
369.816986
20
-37.848000
30
1015.700012
70
192
0
VERTEX
8
OBJECT__5
10
356.052002
20
-192.548004
30
1015.700012
70
192
0
VERTEX
8
OBJECT__5
10
276.860992
20
154.412003
30
1015.700012
70
192
0
VERTEX
8
OBJECT__5
10
0
20
0
30
0
70
128
71
1
72
2
73
3
0
VERTEX
8
OBJECT__5
10
0
20
0
30
0
70
128
71
4
72
5
73
6
0
VERTEX
8
OBJECT__5
10
0
20
0
30
0
70
128
71
3
72
7
73
1
0
VERTEX
8
OBJECT__5
10
0
20
0
30
0
70
128
71
2
72
8
73
4
0
VERTEX
8
OBJECT__5
10
0
20
0
30
0
70
128
71
9
72
10
73
6
0
VERTEX
8
OBJECT__5
10
0
20
0
30
0
70
128
71
6
72
2
73
4
0
VERTEX
8
OBJECT__5
10
0
20
0
30
0
70
128
71
6
72
5
73
9
0
VERTEX
8
OBJECT__5
10
0
20
0
30
0
70
128
71
11
72
12
73
10
0
VERTEX
8
OBJECT__5
10
0
20
0
30
0
70
128
71
9
72
13
73
10
0
VERTEX
8
OBJECT__5
10
0
20
0
30
0
70
128
71
10
72
13
73
11
0
VERTEX
8
OBJECT__5
10
0
20
0
30
0
70
128
71
14
72
15
73
16
0
VERTEX
8
OBJECT__5
10
0
20
0
30
0
70
128
71
17
72
18
73
19
0
VERTEX
8
OBJECT__5
10
0
20
0
30
0
70
128
71
20
72
3
73
19
0
VERTEX
8
OBJECT__5
10
0
20
0
30
0
70
128
71
11
72
21
73
12
0
VERTEX
8
OBJECT__5
10
0
20
0
30
0
70
128
71
12
72
21
73
14
0
VERTEX
8
OBJECT__5
10
0
20
0
30
0
70
128
71
16
72
15
73
17
0
VERTEX
8
OBJECT__5
10
0
20
0
30
0
70
128
71
19
72
18
73
20
0
VERTEX
8
OBJECT__5
10
0
20
0
30
0
70
128
71
16
72
12
73
14
0
VERTEX
8
OBJECT__5
10
0
20
0
30
0
70
128
71
20
72
7
73
3
0
VERTEX
8
OBJECT__5
10
0
20
0
30
0
70
128
71
19
72
16
73
17
0
VERTEX
8
OBJECT__5
10
0
20
0
30
0
70
128
71
1
72
8
73
2
0
SEQEND
8
OBJECT__5
0
POLYLINE
8
OBJECT__7
66
1
70
64
71
14
72
14
62
253
0
VERTEX
8
OBJECT__7
10
351.591003
20
0.000000
30
1015.700012
70
192
0
VERTEX
8
OBJECT__7
10
373.500000
20
0.000000
30
1025.000000
70
192
0
VERTEX
8
OBJECT__7
10
383.477997
20
20.719000
30
1025.000000
70
192
0
VERTEX
8
OBJECT__7
10
369.816986
20
37.848000
30
1015.700012
70
192
0
VERTEX
8
OBJECT__7
10
405.897003
20
25.836000
30
1025.000000
70
192
0
VERTEX
8
OBJECT__7
10
443.614990
20
21.004000
30
1015.700012
70
192
0
VERTEX
8
OBJECT__7
10
410.772003
20
47.195999
30
1015.700012
70
192
0
VERTEX
8
OBJECT__7
10
443.614990
20
-21.004000
30
1015.700012
70
192
0
VERTEX
8
OBJECT__7
10
423.876007
20
11.498000
30
1025.000000
70
192
0
VERTEX
8
OBJECT__7
10
423.876007
20
-11.498000
30
1025.000000
70
192
0
VERTEX
8
OBJECT__7
10
405.897003
20
-25.836000
30
1025.000000
70
192
0
VERTEX
8
OBJECT__7
10
369.816986
20
-37.848000
30
1015.700012
70
192
0
VERTEX
8
OBJECT__7
10
410.772003
20
-47.195999
30
1015.700012
70
192
0
VERTEX
8
OBJECT__7
10
383.477997
20
-20.719000
30
1025.000000
70
192
0
VERTEX
8
OBJECT__7
10
0
20
0
30
0
70
128
71
1
72
2
73
3
0
VERTEX
8
OBJECT__7
10
0
20
0
30
0
70
128
71
4
72
3
73
5
0
VERTEX
8
OBJECT__7
10
0
20
0
30
0
70
128
71
6
72
7
73
5
0
VERTEX
8
OBJECT__7
10
0
20
0
30
0
70
128
71
8
72
6
73
9
0
VERTEX
8
OBJECT__7
10
0
20
0
30
0
70
128
71
8
72
10
73
11
0
VERTEX
8
OBJECT__7
10
0
20
0
30
0
70
128
71
12
72
13
73
11
0
VERTEX
8
OBJECT__7
10
0
20
0
30
0
70
128
71
1
72
12
73
14
0
VERTEX
8
OBJECT__7
10
0
20
0
30
0
70
128
71
14
72
2
73
1
0
VERTEX
8
OBJECT__7
10
0
20
0
30
0
70
128
71
11
72
14
73
12
0
VERTEX
8
OBJECT__7
10
0
20
0
30
0
70
128
71
11
72
13
73
8
0
VERTEX
8
OBJECT__7
10
0
20
0
30
0
70
128
71
9
72
10
73
8
0
VERTEX
8
OBJECT__7
10
0
20
0
30
0
70
128
71
5
72
9
73
6
0
VERTEX
8
OBJECT__7
10
0
20
0
30
0
70
128
71
5
72
7
73
4
0
VERTEX
8
OBJECT__7
10
0
20
0
30
0
70
128
71
3
72
4
73
1
0
SEQEND
8
OBJECT__7
0
POLYLINE
8
OBJECT__8
66
1
70
64
71
7
72
5
62
253
0
VERTEX
8
OBJECT__8
10
373.500000
20
0.000000
30
1025.000000
70
192
0
VERTEX
8
OBJECT__8
10
423.876007
20
11.498000
30
1025.000000
70
192
0
VERTEX
8
OBJECT__8
10
405.897003
20
25.836000
30
1025.000000
70
192
0
VERTEX
8
OBJECT__8
10
383.477997
20
-20.719000
30
1025.000000
70
192
0
VERTEX
8
OBJECT__8
10
405.897003
20
-25.836000
30
1025.000000
70
192
0
VERTEX
8
OBJECT__8
10
423.876007
20
-11.498000
30
1025.000000
70
192
0
VERTEX
8
OBJECT__8
10
383.477997
20
20.719000
30
1025.000000
70
192
0
VERTEX
8
OBJECT__8
10
0
20
0
30
0
70
128
71
1
72
2
73
3
0
VERTEX
8
OBJECT__8
10
0
20
0
30
0
70
128
71
1
72
4
73
5
0
VERTEX
8
OBJECT__8
10
0
20
0
30
0
70
128
71
1
72
6
73
2
0
VERTEX
8
OBJECT__8
10
0
20
0
30
0
70
128
71
3
72
7
73
1
0
VERTEX
8
OBJECT__8
10
0
20
0
30
0
70
128
71
5
72
6
73
1
0
SEQEND
8
OBJECT__8
0
POLYLINE
8
OBJECT__9
66
1
70
64
71
6
72
4
62
253
0
VERTEX
8
OBJECT__9
10
-2.826000
20
101.000000
30
-22.884001
70
192
0
VERTEX
8
OBJECT__9
10
44.000000
20
101.000000
30
-30.299999
70
192
0
VERTEX
8
OBJECT__9
10
34.106998
20
101.000000
30
-49.716000
70
192
0
VERTEX
8
OBJECT__9
10
20.000000
20
101.000000
30
-6.300000
70
192
0
VERTEX
8
OBJECT__9
10
42.825001
20
101.000000
30
-22.884001
70
192
0
VERTEX
8
OBJECT__9
10
5.893000
20
101.000000
30
-49.716000
70
192
0
VERTEX
8
OBJECT__9
10
0
20
0
30
0
70
128
71
1
72
2
73
3
0
VERTEX
8
OBJECT__9
10
0
20
0
30
0
70
128
71
1
72
4
73
5
0
VERTEX
8
OBJECT__9
10
0
20
0
30
0
70
128
71
5
72
2
73
1
0
VERTEX
8
OBJECT__9
10
0
20
0
30
0
70
128
71
3
72
6
73
1
0
SEQEND
8
OBJECT__9
0
POLYLINE
8
OBJECT__10
66
1
70
64
71
41
72
43
62
253
0
VERTEX
8
OBJECT__10
10
44.000000
20
101.000000
30
-30.299999
70
192
0
VERTEX
8
OBJECT__10
10
42.825001
20
101.000000
30
-22.884001
70
192
0
VERTEX
8
OBJECT__10
10
42.825001
20
-101.000000
30
-22.884001
70
192
0
VERTEX
8
OBJECT__10
10
34.106998
20
101.000000
30
-49.716000
70
192
0
VERTEX
8
OBJECT__10
10
44.000000
20
-101.000000
30
-30.299999
70
192
0
VERTEX
8
OBJECT__10
10
34.106998
20
-101.000000
30
-49.716000
70
192
0
VERTEX
8
OBJECT__10
10
20.000000
20
14.250000
30
-6.300000
70
192
0
VERTEX
8
OBJECT__10
10
20.000000
20
-14.250000
30
-6.300000
70
192
0
VERTEX
8
OBJECT__10
10
20.000000
20
101.000000
30
-6.300000
70
192
0
VERTEX
8
OBJECT__10
10
-2.826000
20
-101.000000
30
-22.884001
70
192
0
VERTEX
8
OBJECT__10
10
20.000000
20
-101.000000
30
-6.300000
70
192
0
VERTEX
8
OBJECT__10
10
-0.552000
20
-90.695999
30
-17.906000
70
192
0
VERTEX
8
OBJECT__10
10
9.297000
20
-17.063999
30
-8.819000
70
192
0
VERTEX
8
OBJECT__10
10
6.733000
20
-17.250000
30
-10.300000
70
192
0
VERTEX
8
OBJECT__10
10
6.733000
20
-75.000000
30
-10.300000
70
192
0
VERTEX
8
OBJECT__10
10
14.617000
20
-15.720000
30
-7.360000
70
192
0
VERTEX
8
OBJECT__10
10
10.904000
20
-16.733999
30
-8.090000
70
192
0
VERTEX
8
OBJECT__10
10
6.701000
20
-75.921997
30
-10.321000
70
192
0
VERTEX
8
OBJECT__10
10
5.893000
20
-101.000000
30
-49.716000
70
192
0
VERTEX
8
OBJECT__10
10
-0.154000
20
-90.170998
30
-43.332001
70
192
0
VERTEX
8
OBJECT__10
10
1.674000
20
-86.143997
30
-45.181999
70
192
0
VERTEX
8
OBJECT__10
10
-3.867000
20
-94.839996
30
-32.826000
70
192
0
VERTEX
8
OBJECT__10
10
-1.713000
20
-92.148003
30
-23.132999
70
192
0
VERTEX
8
OBJECT__10
10
-2.024000
20
-92.537003
30
-24.533001
70
192
0
VERTEX
8
OBJECT__10
10
6.701000
20
75.921997
30
-50.278999
70
192
0
VERTEX
8
OBJECT__10
10
6.029000
20
77.292000
30
-49.576000
70
192
0
VERTEX
8
OBJECT__10
10
6.733000
20
-75.000000
30
-50.299999
70
192
0
VERTEX
8
OBJECT__10
10
6.733000
20
75.000000
30
-50.299999
70
192
0
VERTEX
8
OBJECT__10
10
6.021000
20
-76.569000
30
-49.580002
70
192
0
VERTEX
8
OBJECT__10
10
-2.826000
20
101.000000
30
-22.884001
70
192
0
VERTEX
8
OBJECT__10
10
-3.867000
20
94.839996
30
-27.774000
70
192
0
VERTEX
8
OBJECT__10
10
-2.680000
20
93.348000
30
-24.416000
70
192
0
VERTEX
8
OBJECT__10
10
5.893000
20
101.000000
30
-49.716000
70
192
0
VERTEX
8
OBJECT__10
10
-0.552000
20
90.695999
30
-42.694000
70
192
0
VERTEX
8
OBJECT__10
10
1.740000
20
86.028000
30
-45.091000
70
192
0
VERTEX
8
OBJECT__10
10
9.297000
20
17.063999
30
-8.819000
70
192
0
VERTEX
8
OBJECT__10
10
14.661000
20
15.654000
30
-7.556000
70
192
0
VERTEX
8
OBJECT__10
10
6.733000
20
75.000000
30
-10.300000
70
192
0
VERTEX
8
OBJECT__10
10
6.733000
20
17.250000
30
-10.300000
70
192
0
VERTEX
8
OBJECT__10
10
-2.215000
20
92.762001
30
-23.099001
70
192
0
VERTEX
8
OBJECT__10
10
-0.154000
20
90.170998
30
-17.268000
70
192
0
VERTEX
8
OBJECT__10
10
0
20
0
30
0
70
128
71
1
72
2
73
3
0
VERTEX
8
OBJECT__10
10
0
20
0
30
0
70
128
71
4
72
1
73
5
0
VERTEX
8
OBJECT__10
10
0
20
0
30
0
70
128
71
5
72
6
73
4
0
VERTEX
8
OBJECT__10
10
0
20
0
30
0
70
128
71
3
72
2
73
7
0
VERTEX
8
OBJECT__10
10
0
20
0
30
0
70
128
71
7
72
8
73
3
0
VERTEX
8
OBJECT__10
10
0
20
0
30
0
70
128
71
2
72
9
73
7
0
VERTEX
8
OBJECT__10
10
0
20
0
30
0
70
128
71
10
72
11
73
12
0
VERTEX
8
OBJECT__10
10
0
20
0
30
0
70
128
71
13
72
14
73
15
0
VERTEX
8
OBJECT__10
10
0
20
0
30
0
70
128
71
15
72
11
73
13
0
VERTEX
8
OBJECT__10
10
0
20
0
30
0
70
128
71
11
72
8
73
16
0
VERTEX
8
OBJECT__10
10
0
20
0
30
0
70
128
71
16
72
17
73
11
0
VERTEX
8
OBJECT__10
10
0
20
0
30
0
70
128
71
17
72
13
73
11
0
VERTEX
8
OBJECT__10
10
0
20
0
30
0
70
128
71
15
72
18
73
11
0
VERTEX
8
OBJECT__10
10
0
20
0
30
0
70
128
71
18
72
12
73
11
0
VERTEX
8
OBJECT__10
10
0
20
0
30
0
70
128
71
19
72
20
73
21
0
VERTEX
8
OBJECT__10
10
0
20
0
30
0
70
128
71
19
72
10
73
22
0
VERTEX
8
OBJECT__10
10
0
20
0
30
0
70
128
71
22
72
20
73
19
0
VERTEX
8
OBJECT__10
10
0
20
0
30
0
70
128
71
10
72
23
73
24
0
VERTEX
8
OBJECT__10
10
0
20
0
30
0
70
128
71
24
72
22
73
10
0
VERTEX
8
OBJECT__10
10
0
20
0
30
0
70
128
71
4
72
25
73
26
0
VERTEX
8
OBJECT__10
10
0
20
0
30
0
70
128
71
4
72
6
73
27
0
VERTEX
8
OBJECT__10
10
0
20
0
30
0
70
128
71
27
72
28
73
4
0
VERTEX
8
OBJECT__10
10
0
20
0
30
0
70
128
71
28
72
25
73
4
0
VERTEX
8
OBJECT__10
10
0
20
0
30
0
70
128
71
6
72
19
73
29
0
VERTEX
8
OBJECT__10
10
0
20
0
30
0
70
128
71
29
72
27
73
6
0
VERTEX
8
OBJECT__10
10
0
20
0
30
0
70
128
71
30
72
31
73
32
0
VERTEX
8
OBJECT__10
10
0
20
0
30
0
70
128
71
33
72
34
73
31
0
VERTEX
8
OBJECT__10
10
0
20
0
30
0
70
128
71
31
72
30
73
33
0
VERTEX
8
OBJECT__10
10
0
20
0
30
0
70
128
71
33
72
26
73
35
0
VERTEX
8
OBJECT__10
10
0
20
0
30
0
70
128
71
35
72
34
73
33
0
VERTEX
8
OBJECT__10
10
0
20
0
30
0
70
128
71
9
72
36
73
37
0
VERTEX
8
OBJECT__10
10
0
20
0
30
0
70
128
71
36
72
9
73
38
0
VERTEX
8
OBJECT__10
10
0
20
0
30
0
70
128
71
38
72
39
73
36
0
VERTEX
8
OBJECT__10
10
0
20
0
30
0
70
128
71
30
72
40
73
41
0
VERTEX
8
OBJECT__10
10
0
20
0
30
0
70
128
71
41
72
9
73
30
0
VERTEX
8
OBJECT__10
10
0
20
0
30
0
70
128
71
41
72
38
73
9
0
VERTEX
8
OBJECT__10
10
0
20
0
30
0
70
128
71
37
72
7
73
9
0
VERTEX
8
OBJECT__10
10
0
20
0
30
0
70
128
71
32
72
40
73
30
0
VERTEX
8
OBJECT__10
10
0
20
0
30
0
70
128
71
26
72
33
73
4
0
VERTEX
8
OBJECT__10
10
0
20
0
30
0
70
128
71
21
72
29
73
19
0
VERTEX
8
OBJECT__10
10
0
20
0
30
0
70
128
71
12
72
23
73
10
0
VERTEX
8
OBJECT__10
10
0
20
0
30
0
70
128
71
8
72
11
73
3
0
VERTEX
8
OBJECT__10
10
0
20
0
30
0
70
128
71
3
72
5
73
1
0
SEQEND
8
OBJECT__10
0
POLYLINE
8
OBJECT__12
66
1
70
64
71
11
72
10
62
253
0
VERTEX
8
OBJECT__12
10
14.332000
20
-14.836000
30
-6.782000
70
192
0
VERTEX
8
OBJECT__12
10
8.929000
20
-15.074000
30
-8.081000
70
192
0
VERTEX
8
OBJECT__12
10
10.904000
20
-16.733999
30
-8.090000
70
192
0
VERTEX
8
OBJECT__12
10
8.922000
20
-15.068000
30
-8.067000
70
192
0
VERTEX
8
OBJECT__12
10
14.617000
20
-15.720000
30
-7.360000
70
192
0
VERTEX
8
OBJECT__12
10
9.297000
20
-17.063999
30
-8.819000
70
192
0
VERTEX
8
OBJECT__12
10
20.000000
20
-14.250000
30
-6.300000
70
192
0
VERTEX
8
OBJECT__12
10
19.974001
20
-14.250000
30
-6.300000
70
192
0
VERTEX
8
OBJECT__12
10
14.116000
20
-14.250000
30
-6.300000
70
192
0
VERTEX
8
OBJECT__12
10
11.462000
20
-14.250000
30
-6.300000
70
192
0
VERTEX
8
OBJECT__12
10
8.042000
20
-14.250000
30
-6.300000
70
192
0
VERTEX
8
OBJECT__12
10
0
20
0
30
0
70
128
71
1
72
2
73
3
0
VERTEX
8
OBJECT__12
10
0
20
0
30
0
70
128
71
1
72
4
73
2
0
VERTEX
8
OBJECT__12
10
0
20
0
30
0
70
128
71
3
72
5
73
1
0
VERTEX
8
OBJECT__12
10
0
20
0
30
0
70
128
71
2
72
6
73
3
0
VERTEX
8
OBJECT__12
10
0
20
0
30
0
70
128
71
1
72
7
73
8
0
VERTEX
8
OBJECT__12
10
0
20
0
30
0
70
128
71
1
72
9
73
10
0
VERTEX
8
OBJECT__12
10
0
20
0
30
0
70
128
71
10
72
4
73
1
0
VERTEX
8
OBJECT__12
10
0
20
0
30
0
70
128
71
10
72
11
73
4
0
VERTEX
8
OBJECT__12
10
0
20
0
30
0
70
128
71
8
72
9
73
1
0
VERTEX
8
OBJECT__12
10
0
20
0
30
0
70
128
71
7
72
1
73
5
0
SEQEND
8
OBJECT__12
0
POLYLINE
8
OBJECT__13
66
1
70
64
71
10
72
9
62
253
0
VERTEX
8
OBJECT__13
10
8.929000
20
15.074000
30
-8.081000
70
192
0
VERTEX
8
OBJECT__13
10
14.332000
20
14.836000
30
-6.782000
70
192
0
VERTEX
8
OBJECT__13
10
14.661000
20
15.654000
30
-7.556000
70
192
0
VERTEX
8
OBJECT__13
10
9.297000
20
17.063999
30
-8.819000
70
192
0
VERTEX
8
OBJECT__13
10
8.922000
20
15.068000
30
-8.067000
70
192
0
VERTEX
8
OBJECT__13
10
11.462000
20
14.250000
30
-6.300000
70
192
0
VERTEX
8
OBJECT__13
10
8.042000
20
14.250000
30
-6.300000
70
192
0
VERTEX
8
OBJECT__13
10
14.116000
20
14.250000
30
-6.300000
70
192
0
VERTEX
8
OBJECT__13
10
19.974001
20
14.250000
30
-6.300000
70
192
0
VERTEX
8
OBJECT__13
10
20.000000
20
14.250000
30
-6.300000
70
192
0
VERTEX
8
OBJECT__13
10
0
20
0
30
0
70
128
71
1
72
2
73
3
0
VERTEX
8
OBJECT__13
10
0
20
0
30
0
70
128
71
3
72
4
73
1
0
VERTEX
8
OBJECT__13
10
0
20
0
30
0
70
128
71
2
72
5
73
6
0
VERTEX
8
OBJECT__13
10
0
20
0
30
0
70
128
71
5
72
7
73
6
0
VERTEX
8
OBJECT__13
10
0
20
0
30
0
70
128
71
2
72
8
73
9
0
VERTEX
8
OBJECT__13
10
0
20
0
30
0
70
128
71
9
72
10
73
2
0
VERTEX
8
OBJECT__13
10
0
20
0
30
0
70
128
71
6
72
8
73
2
0
VERTEX
8
OBJECT__13
10
0
20
0
30
0
70
128
71
2
72
10
73
3
0
VERTEX
8
OBJECT__13
10
0
20
0
30
0
70
128
71
1
72
5
73
2
0
SEQEND
8
OBJECT__13
0
POLYLINE
8
OBJECT__14
66
1
70
64
71
6
72
4
62
253
0
VERTEX
8
OBJECT__14
10
-2.826000
20
-101.000000
30
-22.884001
70
192
0
VERTEX
8
OBJECT__14
10
44.000000
20
-101.000000
30
-30.299999
70
192
0
VERTEX
8
OBJECT__14
10
42.825001
20
-101.000000
30
-22.884001
70
192
0
VERTEX
8
OBJECT__14
10
5.893000
20
-101.000000
30
-49.716000
70
192
0
VERTEX
8
OBJECT__14
10
34.106998
20
-101.000000
30
-49.716000
70
192
0
VERTEX
8
OBJECT__14
10
20.000000
20
-101.000000
30
-6.300000
70
192
0
VERTEX
8
OBJECT__14
10
0
20
0
30
0
70
128
71
1
72
2
73
3
0
VERTEX
8
OBJECT__14
10
0
20
0
30
0
70
128
71
1
72
4
73
5
0
VERTEX
8
OBJECT__14
10
0
20
0
30
0
70
128
71
5
72
2
73
1
0
VERTEX
8
OBJECT__14
10
0
20
0
30
0
70
128
71
3
72
6
73
1
0
SEQEND
8
OBJECT__14
0
POLYLINE
8
OBJECT__15
66
1
70
64
71
4
72
2
62
253
0
VERTEX
8
OBJECT__15
10
6.733000
20
75.000000
30
-50.299999
70
192
0
VERTEX
8
OBJECT__15
10
6.733000
20
-75.000000
30
-50.299999
70
192
0
VERTEX
8
OBJECT__15
10
0.450000
20
-75.000000
30
-50.299999
70
192
0
VERTEX
8
OBJECT__15
10
0.450000
20
75.000000
30
-50.299999
70
192
0
VERTEX
8
OBJECT__15
10
0
20
0
30
0
70
128
71
1
72
2
73
3
0
VERTEX
8
OBJECT__15
10
0
20
0
30
0
70
128
71
3
72
4
73
1
0
SEQEND
8
OBJECT__15
0
POLYLINE
8
OBJECT__16
66
1
70
64
71
28
72
28
62
253
0
VERTEX
8
OBJECT__16
10
-20.000000
20
-63.243999
30
-46.480000
70
192
0
VERTEX
8
OBJECT__16
10
-11.815000
20
-60.154999
30
-43.702999
70
192
0
VERTEX
8
OBJECT__16
10
-9.404000
20
-63.091000
30
-45.195000
70
192
0
VERTEX
8
OBJECT__16
10
-20.000000
20
-55.000000
30
-30.299999
70
192
0
VERTEX
8
OBJECT__16
10
-14.250000
20
-55.715000
30
-35.599998
70
192
0
VERTEX
8
OBJECT__16
10
-13.803000
20
-55.041000
30
-31.582001
70
192
0
VERTEX
8
OBJECT__16
10
-20.000000
20
-55.979000
30
-24.120001
70
192
0
VERTEX
8
OBJECT__16
10
-9.542000
20
-56.366001
30
-24.193001
70
192
0
VERTEX
8
OBJECT__16
10
0.450000
20
-75.000000
30
-50.299999
70
192
0
VERTEX
8
OBJECT__16
10
6.733000
20
-75.000000
30
-50.299999
70
192
0
VERTEX
8
OBJECT__16
10
6.021000
20
-76.569000
30
-49.580002
70
192
0
VERTEX
8
OBJECT__16
10
-20.000000
20
-86.755997
30
-46.480000
70
192
0
VERTEX
8
OBJECT__16
10
0.432000
20
-74.978996
30
-50.299999
70
192
0
VERTEX
8
OBJECT__16
10
-1.333000
20
-72.918999
30
-50.191002
70
192
0
VERTEX
8
OBJECT__16
10
-8.863000
20
-63.750000
30
-45.529999
70
192
0
VERTEX
8
OBJECT__16
10
1.674000
20
-86.143997
30
-45.181999
70
192
0
VERTEX
8
OBJECT__16
10
-0.154000
20
-90.170998
30
-43.332001
70
192
0
VERTEX
8
OBJECT__16
10
-3.867000
20
-94.839996
30
-32.826000
70
192
0
VERTEX
8
OBJECT__16
10
-20.000000
20
-94.021004
30
-24.120001
70
192
0
VERTEX
8
OBJECT__16
10
-20.000000
20
-75.000000
30
-10.300000
70
192
0
VERTEX
8
OBJECT__16
10
-0.552000
20
-90.695999
30
-17.906000
70
192
0
VERTEX
8
OBJECT__16
10
6.701000
20
-75.921997
30
-10.321000
70
192
0
VERTEX
8
OBJECT__16
10
-1.713000
20
-92.148003
30
-23.132999
70
192
0
VERTEX
8
OBJECT__16
10
-2.024000
20
-92.537003
30
-24.533001
70
192
0
VERTEX
8
OBJECT__16
10
-8.372000
20
-56.730000
30
-22.164000
70
192
0
VERTEX
8
OBJECT__16
10
6.733000
20
-75.000000
30
-10.300000
70
192
0
VERTEX
8
OBJECT__16
10
4.116000
20
-66.737000
30
-12.087000
70
192
0
VERTEX
8
OBJECT__16
10
-0.519000
20
-61.537998
30
-15.509000
70
192
0
VERTEX
8
OBJECT__16
10
0
20
0
30
0
70
128
71
1
72
2
73
3
0
VERTEX
8
OBJECT__16
10
0
20
0
30
0
70
128
71
1
72
4
73
5
0
VERTEX
8
OBJECT__16
10
0
20
0
30
0
70
128
71
4
72
6
73
5
0
VERTEX
8
OBJECT__16
10
0
20
0
30
0
70
128
71
7
72
8
73
6
0
VERTEX
8
OBJECT__16
10
0
20
0
30
0
70
128
71
6
72
4
73
7
0
VERTEX
8
OBJECT__16
10
0
20
0
30
0
70
128
71
5
72
2
73
1
0
VERTEX
8
OBJECT__16
10
0
20
0
30
0
70
128
71
9
72
10
73
11
0
VERTEX
8
OBJECT__16
10
0
20
0
30
0
70
128
71
12
72
13
73
9
0
VERTEX
8
OBJECT__16
10
0
20
0
30
0
70
128
71
12
72
14
73
13
0
VERTEX
8
OBJECT__16
10
0
20
0
30
0
70
128
71
12
72
1
73
15
0
VERTEX
8
OBJECT__16
10
0
20
0
30
0
70
128
71
15
72
14
73
12
0
VERTEX
8
OBJECT__16
10
0
20
0
30
0
70
128
71
9
72
16
73
12
0
VERTEX
8
OBJECT__16
10
0
20
0
30
0
70
128
71
12
72
17
73
18
0
VERTEX
8
OBJECT__16
10
0
20
0
30
0
70
128
71
12
72
16
73
17
0
VERTEX
8
OBJECT__16
10
0
20
0
30
0
70
128
71
18
72
19
73
12
0
VERTEX
8
OBJECT__16
10
0
20
0
30
0
70
128
71
20
72
21
73
22
0
VERTEX
8
OBJECT__16
10
0
20
0
30
0
70
128
71
19
72
23
73
21
0
VERTEX
8
OBJECT__16
10
0
20
0
30
0
70
128
71
19
72
24
73
23
0
VERTEX
8
OBJECT__16
10
0
20
0
30
0
70
128
71
21
72
20
73
19
0
VERTEX
8
OBJECT__16
10
0
20
0
30
0
70
128
71
20
72
25
73
8
0
VERTEX
8
OBJECT__16
10
0
20
0
30
0
70
128
71
20
72
26
73
27
0
VERTEX
8
OBJECT__16
10
0
20
0
30
0
70
128
71
27
72
28
73
20
0
VERTEX
8
OBJECT__16
10
0
20
0
30
0
70
128
71
28
72
25
73
20
0
VERTEX
8
OBJECT__16
10
0
20
0
30
0
70
128
71
8
72
7
73
20
0
VERTEX
8
OBJECT__16
10
0
20
0
30
0
70
128
71
22
72
26
73
20
0
VERTEX
8
OBJECT__16
10
0
20
0
30
0
70
128
71
18
72
24
73
19
0
VERTEX
8
OBJECT__16
10
0
20
0
30
0
70
128
71
11
72
16
73
9
0
VERTEX
8
OBJECT__16
10
0
20
0
30
0
70
128
71
3
72
15
73
1
0
SEQEND
8
OBJECT__16
0
POLYLINE
8
OBJECT__17
66
1
70
64
71
6
72
4
62
253
0
VERTEX
8
OBJECT__17
10
-20.000000
20
-94.021004
30
-24.120001
70
192
0
VERTEX
8
OBJECT__17
10
-20.000000
20
-55.000000
30
-30.299999
70
192
0
VERTEX
8
OBJECT__17
10
-20.000000
20
-63.243999
30
-46.480000
70
192
0
VERTEX
8
OBJECT__17
10
-20.000000
20
-75.000000
30
-10.300000
70
192
0
VERTEX
8
OBJECT__17
10
-20.000000
20
-55.979000
30
-24.120001
70
192
0
VERTEX
8
OBJECT__17
10
-20.000000
20
-86.755997
30
-46.480000
70
192
0
VERTEX
8
OBJECT__17
10
0
20
0
30
0
70
128
71
1
72
2
73
3
0
VERTEX
8
OBJECT__17
10
0
20
0
30
0
70
128
71
1
72
4
73
5
0
VERTEX
8
OBJECT__17
10
0
20
0
30
0
70
128
71
5
72
2
73
1
0
VERTEX
8
OBJECT__17
10
0
20
0
30
0
70
128
71
3
72
6
73
1
0
SEQEND
8
OBJECT__17
0
POLYLINE
8
OBJECT__18
66
1
70
64
71
15
72
13
62
253
0
VERTEX
8
OBJECT__18
10
-11.815000
20
60.154999
30
-43.702999
70
192
0
VERTEX
8
OBJECT__18
10
-11.815000
20
-60.154999
30
-43.702999
70
192
0
VERTEX
8
OBJECT__18
10
-14.250000
20
0.000000
30
-35.599998
70
192
0
VERTEX
8
OBJECT__18
10
-14.250000
20
-55.715000
30
-35.599998
70
192
0
VERTEX
8
OBJECT__18
10
-14.250000
20
55.715000
30
-35.599998
70
192
0
VERTEX
8
OBJECT__18
10
-9.404000
20
63.091000
30
-45.195000
70
192
0
VERTEX
8
OBJECT__18
10
-9.404000
20
-63.091000
30
-45.195000
70
192
0
VERTEX
8
OBJECT__18
10
0.450000
20
-75.000000
30
-50.299999
70
192
0
VERTEX
8
OBJECT__18
10
-1.333000
20
72.918999
30
-50.191002
70
192
0
VERTEX
8
OBJECT__18
10
0.432000
20
74.978996
30
-50.299999
70
192
0
VERTEX
8
OBJECT__18
10
-8.863000
20
63.750000
30
-45.529999
70
192
0
VERTEX
8
OBJECT__18
10
-8.863000
20
-63.750000
30
-45.529999
70
192
0
VERTEX
8
OBJECT__18
10
-1.333000
20
-72.918999
30
-50.191002
70
192
0
VERTEX
8
OBJECT__18
10
0.432000
20
-74.978996
30
-50.299999
70
192
0
VERTEX
8
OBJECT__18
10
0.450000
20
75.000000
30
-50.299999
70
192
0
VERTEX
8
OBJECT__18
10
0
20
0
30
0
70
128
71
1
72
2
73
3
0
VERTEX
8
OBJECT__18
10
0
20
0
30
0
70
128
71
2
72
4
73
3
0
VERTEX
8
OBJECT__18
10
0
20
0
30
0
70
128
71
3
72
5
73
1
0
VERTEX
8
OBJECT__18
10
0
20
0
30
0
70
128
71
6
72
7
73
2
0
VERTEX
8
OBJECT__18
10
0
20
0
30
0
70
128
71
8
72
9
73
10
0
VERTEX
8
OBJECT__18
10
0
20
0
30
0
70
128
71
11
72
12
73
7
0
VERTEX
8
OBJECT__18
10
0
20
0
30
0
70
128
71
11
72
13
73
12
0
VERTEX
8
OBJECT__18
10
0
20
0
30
0
70
128
71
7
72
6
73
11
0
VERTEX
8
OBJECT__18
10
0
20
0
30
0
70
128
71
9
72
8
73
14
0
VERTEX
8
OBJECT__18
10
0
20
0
30
0
70
128
71
14
72
13
73
9
0
VERTEX
8
OBJECT__18
10
0
20
0
30
0
70
128
71
11
72
9
73
13
0
VERTEX
8
OBJECT__18
10
0
20
0
30
0
70
128
71
10
72
15
73
8
0
VERTEX
8
OBJECT__18
10
0
20
0
30
0
70
128
71
1
72
6
73
2
0
SEQEND
8
OBJECT__18
0
POLYLINE
8
OBJECT__19
66
1
70
64
71
28
72
28
62
253
0
VERTEX
8
OBJECT__19
10
-9.519000
20
56.417000
30
-24.152000
70
192
0
VERTEX
8
OBJECT__19
10
-20.000000
20
55.979000
30
-24.120001
70
192
0
VERTEX
8
OBJECT__19
10
-20.000000
20
55.000000
30
-30.299999
70
192
0
VERTEX
8
OBJECT__19
10
-20.000000
20
63.243999
30
-46.480000
70
192
0
VERTEX
8
OBJECT__19
10
-11.815000
20
60.154999
30
-43.702999
70
192
0
VERTEX
8
OBJECT__19
10
-14.250000
20
55.715000
30
-35.599998
70
192
0
VERTEX
8
OBJECT__19
10
-8.863000
20
63.750000
30
-45.529999
70
192
0
VERTEX
8
OBJECT__19
10
-9.404000
20
63.091000
30
-45.195000
70
192
0
VERTEX
8
OBJECT__19
10
-20.000000
20
75.000000
30
-10.300000
70
192
0
VERTEX
8
OBJECT__19
10
0.293000
20
62.257999
30
-14.884000
70
192
0
VERTEX
8
OBJECT__19
10
6.085000
20
70.859001
30
-10.733000
70
192
0
VERTEX
8
OBJECT__19
10
-8.372000
20
56.730000
30
-22.164000
70
192
0
VERTEX
8
OBJECT__19
10
-8.913000
20
56.507000
30
-22.684999
70
192
0
VERTEX
8
OBJECT__19
10
-0.154000
20
90.170998
30
-17.268000
70
192
0
VERTEX
8
OBJECT__19
10
-2.215000
20
92.762001
30
-23.099001
70
192
0
VERTEX
8
OBJECT__19
10
-20.000000
20
94.021004
30
-24.120001
70
192
0
VERTEX
8
OBJECT__19
10
6.733000
20
75.000000
30
-10.300000
70
192
0
VERTEX
8
OBJECT__19
10
-20.000000
20
86.755997
30
-46.480000
70
192
0
VERTEX
8
OBJECT__19
10
-3.867000
20
94.839996
30
-27.774000
70
192
0
VERTEX
8
OBJECT__19
10
-0.552000
20
90.695999
30
-42.694000
70
192
0
VERTEX
8
OBJECT__19
10
-2.680000
20
93.348000
30
-24.416000
70
192
0
VERTEX
8
OBJECT__19
10
-1.333000
20
72.918999
30
-50.191002
70
192
0
VERTEX
8
OBJECT__19
10
1.740000
20
86.028000
30
-45.091000
70
192
0
VERTEX
8
OBJECT__19
10
0.450000
20
75.000000
30
-50.299999
70
192
0
VERTEX
8
OBJECT__19
10
0.432000
20
74.978996
30
-50.299999
70
192
0
VERTEX
8
OBJECT__19
10
6.029000
20
77.292000
30
-49.576000
70
192
0
VERTEX
8
OBJECT__19
10
6.701000
20
75.921997
30
-50.278999
70
192
0
VERTEX
8
OBJECT__19
10
6.733000
20
75.000000
30
-50.299999
70
192
0
VERTEX
8
OBJECT__19
10
0
20
0
30
0
70
128
71
1
72
2
73
3
0
VERTEX
8
OBJECT__19
10
0
20
0
30
0
70
128
71
4
72
5
73
6
0
VERTEX
8
OBJECT__19
10
0
20
0
30
0
70
128
71
4
72
7
73
8
0
VERTEX
8
OBJECT__19
10
0
20
0
30
0
70
128
71
8
72
5
73
4
0
VERTEX
8
OBJECT__19
10
0
20
0
30
0
70
128
71
6
72
3
73
4
0
VERTEX
8
OBJECT__19
10
0
20
0
30
0
70
128
71
9
72
10
73
11
0
VERTEX
8
OBJECT__19
10
0
20
0
30
0
70
128
71
9
72
12
73
10
0
VERTEX
8
OBJECT__19
10
0
20
0
30
0
70
128
71
9
72
13
73
12
0
VERTEX
8
OBJECT__19
10
0
20
0
30
0
70
128
71
2
72
1
73
13
0
VERTEX
8
OBJECT__19
10
0
20
0
30
0
70
128
71
13
72
9
73
2
0
VERTEX
8
OBJECT__19
10
0
20
0
30
0
70
128
71
9
72
14
73
15
0
VERTEX
8
OBJECT__19
10
0
20
0
30
0
70
128
71
15
72
16
73
9
0
VERTEX
8
OBJECT__19
10
0
20
0
30
0
70
128
71
9
72
17
73
14
0
VERTEX
8
OBJECT__19
10
0
20
0
30
0
70
128
71
18
72
16
73
19
0
VERTEX
8
OBJECT__19
10
0
20
0
30
0
70
128
71
19
72
20
73
18
0
VERTEX
8
OBJECT__19
10
0
20
0
30
0
70
128
71
16
72
21
73
19
0
VERTEX
8
OBJECT__19
10
0
20
0
30
0
70
128
71
18
72
22
73
7
0
VERTEX
8
OBJECT__19
10
0
20
0
30
0
70
128
71
18
72
23
73
24
0
VERTEX
8
OBJECT__19
10
0
20
0
30
0
70
128
71
24
72
25
73
18
0
VERTEX
8
OBJECT__19
10
0
20
0
30
0
70
128
71
25
72
22
73
18
0
VERTEX
8
OBJECT__19
10
0
20
0
30
0
70
128
71
24
72
26
73
27
0
VERTEX
8
OBJECT__19
10
0
20
0
30
0
70
128
71
24
72
23
73
26
0
VERTEX
8
OBJECT__19
10
0
20
0
30
0
70
128
71
27
72
28
73
24
0
VERTEX
8
OBJECT__19
10
0
20
0
30
0
70
128
71
7
72
4
73
18
0
VERTEX
8
OBJECT__19
10
0
20
0
30
0
70
128
71
20
72
23
73
18
0
VERTEX
8
OBJECT__19
10
0
20
0
30
0
70
128
71
15
72
21
73
16
0
VERTEX
8
OBJECT__19
10
0
20
0
30
0
70
128
71
11
72
17
73
9
0
VERTEX
8
OBJECT__19
10
0
20
0
30
0
70
128
71
3
72
6
73
1
0
SEQEND
8
OBJECT__19
0
POLYLINE
8
OBJECT__20
66
1
70
64
71
6
72
4
62
253
0
VERTEX
8
OBJECT__20
10
-20.000000
20
94.021004
30
-24.120001
70
192
0
VERTEX
8
OBJECT__20
10
-20.000000
20
55.000000
30
-30.299999
70
192
0
VERTEX
8
OBJECT__20
10
-20.000000
20
55.979000
30
-24.120001
70
192
0
VERTEX
8
OBJECT__20
10
-20.000000
20
86.755997
30
-46.480000
70
192
0
VERTEX
8
OBJECT__20
10
-20.000000
20
63.243999
30
-46.480000
70
192
0
VERTEX
8
OBJECT__20
10
-20.000000
20
75.000000
30
-10.300000
70
192
0
VERTEX
8
OBJECT__20
10
0
20
0
30
0
70
128
71
1
72
2
73
3
0
VERTEX
8
OBJECT__20
10
0
20
0
30
0
70
128
71
1
72
4
73
5
0
VERTEX
8
OBJECT__20
10
0
20
0
30
0
70
128
71
5
72
2
73
1
0
VERTEX
8
OBJECT__20
10
0
20
0
30
0
70
128
71
3
72
6
73
1
0
SEQEND
8
OBJECT__20
0
POLYLINE
8
OBJECT__21
66
1
70
64
71
8
72
6
62
253
0
VERTEX
8
OBJECT__21
10
-14.250000
20
55.715000
30
-35.599998
70
192
0
VERTEX
8
OBJECT__21
10
-11.797000
20
10.009000
30
-26.448999
70
192
0
VERTEX
8
OBJECT__21
10
-8.372000
20
14.497000
30
-22.164000
70
192
0
VERTEX
8
OBJECT__21
10
-8.913000
20
56.507000
30
-22.684999
70
192
0
VERTEX
8
OBJECT__21
10
-9.519000
20
56.417000
30
-24.152000
70
192
0
VERTEX
8
OBJECT__21
10
-14.250000
20
0.000000
30
-35.599998
70
192
0
VERTEX
8
OBJECT__21
10
-12.427000
20
7.439000
30
-28.798000
70
192
0
VERTEX
8
OBJECT__21
10
-8.372000
20
56.730000
30
-22.164000
70
192
0
VERTEX
8
OBJECT__21
10
0
20
0
30
0
70
128
71
1
72
2
73
3
0
VERTEX
8
OBJECT__21
10
0
20
0
30
0
70
128
71
3
72
4
73
5
0
VERTEX
8
OBJECT__21
10
0
20
0
30
0
70
128
71
1
72
6
73
7
0
VERTEX
8
OBJECT__21
10
0
20
0
30
0
70
128
71
7
72
2
73
1
0
VERTEX
8
OBJECT__21
10
0
20
0
30
0
70
128
71
3
72
8
73
4
0
VERTEX
8
OBJECT__21
10
0
20
0
30
0
70
128
71
3
72
5
73
1
0
SEQEND
8
OBJECT__21
0
POLYLINE
8
OBJECT__22
66
1
70
64
71
8
72
6
62
253
0
VERTEX
8
OBJECT__22
10
-13.803000
20
-55.041000
30
-31.582001
70
192
0
VERTEX
8
OBJECT__22
10
-9.542000
20
-56.366001
30
-24.193001
70
192
0
VERTEX
8
OBJECT__22
10
-8.372000
20
-14.497000
30
-22.164000
70
192
0
VERTEX
8
OBJECT__22
10
-12.666000
20
-7.423000
30
-28.815001
70
192
0
VERTEX
8
OBJECT__22
10
-8.372000
20
-56.730000
30
-22.164000
70
192
0
VERTEX
8
OBJECT__22
10
-14.250000
20
-55.715000
30
-35.599998
70
192
0
VERTEX
8
OBJECT__22
10
-13.311000
20
-6.359000
30
-29.815001
70
192
0
VERTEX
8
OBJECT__22
10
-14.250000
20
0.000000
30
-35.599998
70
192
0
VERTEX
8
OBJECT__22
10
0
20
0
30
0
70
128
71
1
72
2
73
3
0
VERTEX
8
OBJECT__22
10
0
20
0
30
0
70
128
71
3
72
4
73
1
0
VERTEX
8
OBJECT__22
10
0
20
0
30
0
70
128
71
2
72
5
73
3
0
VERTEX
8
OBJECT__22
10
0
20
0
30
0
70
128
71
6
72
1
73
7
0
VERTEX
8
OBJECT__22
10
0
20
0
30
0
70
128
71
7
72
8
73
6
0
VERTEX
8
OBJECT__22
10
0
20
0
30
0
70
128
71
4
72
7
73
1
0
SEQEND
8
OBJECT__22
0
POLYLINE
8
OBJECT__23
66
1
70
64
71
8
72
6
62
253
0
VERTEX
8
OBJECT__23
10
1.782000
20
-17.250000
30
-13.767000
70
192
0
VERTEX
8
OBJECT__23
10
-7.390000
20
-15.194000
30
-21.267000
70
192
0
VERTEX
8
OBJECT__23
10
-8.372000
20
-56.730000
30
-22.164000
70
192
0
VERTEX
8
OBJECT__23
10
-0.519000
20
-61.537998
30
-15.509000
70
192
0
VERTEX
8
OBJECT__23
10
6.733000
20
-17.250000
30
-10.300000
70
192
0
VERTEX
8
OBJECT__23
10
4.116000
20
-66.737000
30
-12.087000
70
192
0
VERTEX
8
OBJECT__23
10
-8.372000
20
-14.497000
30
-22.164000
70
192
0
VERTEX
8
OBJECT__23
10
6.733000
20
-75.000000
30
-10.300000
70
192
0
VERTEX
8
OBJECT__23
10
0
20
0
30
0
70
128
71
1
72
2
73
3
0
VERTEX
8
OBJECT__23
10
0
20
0
30
0
70
128
71
4
72
5
73
1
0
VERTEX
8
OBJECT__23
10
0
20
0
30
0
70
128
71
3
72
4
73
1
0
VERTEX
8
OBJECT__23
10
0
20
0
30
0
70
128
71
4
72
6
73
5
0
VERTEX
8
OBJECT__23
10
0
20
0
30
0
70
128
71
2
72
7
73
3
0
VERTEX
8
OBJECT__23
10
0
20
0
30
0
70
128
71
6
72
8
73
5
0
SEQEND
8
OBJECT__23
0
POLYLINE
8
OBJECT__24
66
1
70
64
71
7
72
5
62
253
0
VERTEX
8
OBJECT__24
10
1.260000
20
-15.129000
30
-13.060000
70
192
0
VERTEX
8
OBJECT__24
10
0.000000
20
-14.250000
30
-11.354000
70
192
0
VERTEX
8
OBJECT__24
10
-8.656000
20
-11.320000
30
-19.226000
70
192
0
VERTEX
8
OBJECT__24
10
-8.079000
20
-13.532000
30
-21.681000
70
192
0
VERTEX
8
OBJECT__24
10
-7.390000
20
-15.194000
30
-21.267000
70
192
0
VERTEX
8
OBJECT__24
10
-8.372000
20
-14.497000
30
-22.164000
70
192
0
VERTEX
8
OBJECT__24
10
1.782000
20
-17.250000
30
-13.767000
70
192
0
VERTEX
8
OBJECT__24
10
0
20
0
30
0
70
128
71
1
72
2
73
3
0
VERTEX
8
OBJECT__24
10
0
20
0
30
0
70
128
71
1
72
4
73
5
0
VERTEX
8
OBJECT__24
10
0
20
0
30
0
70
128
71
4
72
6
73
5
0
VERTEX
8
OBJECT__24
10
0
20
0
30
0
70
128
71
5
72
7
73
1
0
VERTEX
8
OBJECT__24
10
0
20
0
30
0
70
128
71
3
72
4
73
1
0
SEQEND
8
OBJECT__24
0
POLYLINE
8
OBJECT__25
66
1
70
64
71
9
72
7
62
253
0
VERTEX
8
OBJECT__25
10
-8.079000
20
-13.532000
30
-21.681000
70
192
0
VERTEX
8
OBJECT__25
10
-11.115000
20
-8.918000
30
-22.836000
70
192
0
VERTEX
8
OBJECT__25
10
-11.576000
20
-7.607000
30
-24.712000
70
192
0
VERTEX
8
OBJECT__25
10
-8.656000
20
-11.320000
30
-19.226000
70
192
0
VERTEX
8
OBJECT__25
10
-12.666000
20
-7.423000
30
-28.815001
70
192
0
VERTEX
8
OBJECT__25
10
-8.372000
20
-14.497000
30
-22.164000
70
192
0
VERTEX
8
OBJECT__25
10
-12.226000
20
-5.756000
30
-27.361000
70
192
0
VERTEX
8
OBJECT__25
10
-14.250000
20
0.000000
30
-35.599998
70
192
0
VERTEX
8
OBJECT__25
10
-13.311000
20
-6.359000
30
-29.815001
70
192
0
VERTEX
8
OBJECT__25
10
0
20
0
30
0
70
128
71
1
72
2
73
3
0
VERTEX
8
OBJECT__25
10
0
20
0
30
0
70
128
71
1
72
4
73
2
0
VERTEX
8
OBJECT__25
10
0
20
0
30
0
70
128
71
3
72
5
73
1
0
VERTEX
8
OBJECT__25
10
0
20
0
30
0
70
128
71
5
72
6
73
1
0
VERTEX
8
OBJECT__25
10
0
20
0
30
0
70
128
71
7
72
8
73
9
0
VERTEX
8
OBJECT__25
10
0
20
0
30
0
70
128
71
9
72
5
73
7
0
VERTEX
8
OBJECT__25
10
0
20
0
30
0
70
128
71
3
72
7
73
5
0
SEQEND
8
OBJECT__25
0
POLYLINE
8
OBJECT__26
66
1
70
64
71
6
72
4
62
253
0
VERTEX
8
OBJECT__26
10
0.000000
20
-14.250000
30
-11.354000
70
192
0
VERTEX
8
OBJECT__26
10
1.260000
20
-15.129000
30
-13.060000
70
192
0
VERTEX
8
OBJECT__26
10
6.248000
20
-15.129000
30
-9.568000
70
192
0
VERTEX
8
OBJECT__26
10
1.782000
20
-17.250000
30
-13.767000
70
192
0
VERTEX
8
OBJECT__26
10
6.733000
20
-17.250000
30
-10.300000
70
192
0
VERTEX
8
OBJECT__26
10
5.075000
20
-14.250000
30
-7.800000
70
192
0
VERTEX
8
OBJECT__26
10
0
20
0
30
0
70
128
71
1
72
2
73
3
0
VERTEX
8
OBJECT__26
10
0
20
0
30
0
70
128
71
3
72
2
73
4
0
VERTEX
8
OBJECT__26
10
0
20
0
30
0
70
128
71
4
72
5
73
3
0
VERTEX
8
OBJECT__26
10
0
20
0
30
0
70
128
71
3
72
6
73
1
0
SEQEND
8
OBJECT__26
0
POLYLINE
8
OBJECT__27
66
1
70
64
71
4
72
2
62
253
0
VERTEX
8
OBJECT__27
10
0.000000
20
-14.250000
30
-6.300000
70
192
0
VERTEX
8
OBJECT__27
10
0.000000
20
-14.250000
30
-11.354000
70
192
0
VERTEX
8
OBJECT__27
10
5.075000
20
-14.250000
30
-7.800000
70
192
0
VERTEX
8
OBJECT__27
10
8.042000
20
-14.250000
30
-6.300000
70
192
0
VERTEX
8
OBJECT__27
10
0
20
0
30
0
70
128
71
1
72
2
73
3
0
VERTEX
8
OBJECT__27
10
0
20
0
30
0
70
128
71
3
72
4
73
1
0
SEQEND
8
OBJECT__27
0
POLYLINE
8
OBJECT__28
66
1
70
64
71
7
72
5
62
253
0
VERTEX
8
OBJECT__28
10
6.248000
20
-15.129000
30
-9.568000
70
192
0
VERTEX
8
OBJECT__28
10
6.733000
20
-17.250000
30
-10.300000
70
192
0
VERTEX
8
OBJECT__28
10
9.297000
20
-17.063999
30
-8.819000
70
192
0
VERTEX
8
OBJECT__28
10
8.929000
20
-15.074000
30
-8.081000
70
192
0
VERTEX
8
OBJECT__28
10
8.042000
20
-14.250000
30
-6.300000
70
192
0
VERTEX
8
OBJECT__28
10
5.075000
20
-14.250000
30
-7.800000
70
192
0
VERTEX
8
OBJECT__28
10
8.922000
20
-15.068000
30
-8.067000
70
192
0
VERTEX
8
OBJECT__28
10
0
20
0
30
0
70
128
71
1
72
2
73
3
0
VERTEX
8
OBJECT__28
10
0
20
0
30
0
70
128
71
3
72
4
73
1
0
VERTEX
8
OBJECT__28
10
0
20
0
30
0
70
128
71
5
72
6
73
1
0
VERTEX
8
OBJECT__28
10
0
20
0
30
0
70
128
71
1
72
7
73
5
0
VERTEX
8
OBJECT__28
10
0
20
0
30
0
70
128
71
4
72
7
73
1
0
SEQEND
8
OBJECT__28
0
POLYLINE
8
OBJECT__29
66
1
70
64
71
14
72
12
62
253
0
VERTEX
8
OBJECT__29
10
0.000000
20
14.250000
30
-6.300000
70
192
0
VERTEX
8
OBJECT__29
10
-11.951000
20
7.761000
30
-6.300000
70
192
0
VERTEX
8
OBJECT__29
10
-11.951000
20
-7.761000
30
-6.300000
70
192
0
VERTEX
8
OBJECT__29
10
19.974001
20
-14.250000
30
-6.300000
70
192
0
VERTEX
8
OBJECT__29
10
20.000000
20
-14.250000
30
-6.300000
70
192
0
VERTEX
8
OBJECT__29
10
20.000000
20
14.250000
30
-6.300000
70
192
0
VERTEX
8
OBJECT__29
10
19.974001
20
14.250000
30
-6.300000
70
192
0
VERTEX
8
OBJECT__29
10
14.116000
20
14.250000
30
-6.300000
70
192
0
VERTEX
8
OBJECT__29
10
14.116000
20
-14.250000
30
-6.300000
70
192
0
VERTEX
8
OBJECT__29
10
0.000000
20
-14.250000
30
-6.300000
70
192
0
VERTEX
8
OBJECT__29
10
11.462000
20
14.250000
30
-6.300000
70
192
0
VERTEX
8
OBJECT__29
10
11.462000
20
-14.250000
30
-6.300000
70
192
0
VERTEX
8
OBJECT__29
10
8.042000
20
-14.250000
30
-6.300000
70
192
0
VERTEX
8
OBJECT__29
10
8.042000
20
14.250000
30
-6.300000
70
192
0
VERTEX
8
OBJECT__29
10
0
20
0
30
0
70
128
71
1
72
2
73
3
0
VERTEX
8
OBJECT__29
10
0
20
0
30
0
70
128
71
4
72
5
73
6
0
VERTEX
8
OBJECT__29
10
0
20
0
30
0
70
128
71
7
72
8
73
9
0
VERTEX
8
OBJECT__29
10
0
20
0
30
0
70
128
71
3
72
10
73
1
0
VERTEX
8
OBJECT__29
10
0
20
0
30
0
70
128
71
8
72
11
73
12
0
VERTEX
8
OBJECT__29
10
0
20
0
30
0
70
128
71
9
72
4
73
7
0
VERTEX
8
OBJECT__29
10
0
20
0
30
0
70
128
71
13
72
14
73
1
0
VERTEX
8
OBJECT__29
10
0
20
0
30
0
70
128
71
13
72
12
73
11
0
VERTEX
8
OBJECT__29
10
0
20
0
30
0
70
128
71
6
72
7
73
4
0
VERTEX
8
OBJECT__29
10
0
20
0
30
0
70
128
71
11
72
14
73
13
0
VERTEX
8
OBJECT__29
10
0
20
0
30
0
70
128
71
10
72
13
73
1
0
VERTEX
8
OBJECT__29
10
0
20
0
30
0
70
128
71
12
72
9
73
8
0
SEQEND
8
OBJECT__29
0
POLYLINE
8
OBJECT__30
66
1
70
64
71
16
72
14
62
253
0
VERTEX
8
OBJECT__30
10
-11.951000
20
7.761000
30
-6.300000
70
192
0
VERTEX
8
OBJECT__30
10
0.000000
20
14.250000
30
-6.300000
70
192
0
VERTEX
8
OBJECT__30
10
0.000000
20
14.250000
30
-11.354000
70
192
0
VERTEX
8
OBJECT__30
10
-8.571000
20
11.385000
30
-19.125000
70
192
0
VERTEX
8
OBJECT__30
10
-8.656000
20
11.320000
30
-19.226000
70
192
0
VERTEX
8
OBJECT__30
10
-13.432000
20
4.759000
30
-28.846001
70
192
0
VERTEX
8
OBJECT__30
10
-14.250000
20
0.000000
30
-35.599998
70
192
0
VERTEX
8
OBJECT__30
10
-12.226000
20
-5.756000
30
-27.361000
70
192
0
VERTEX
8
OBJECT__30
10
-11.576000
20
-7.607000
30
-24.712000
70
192
0
VERTEX
8
OBJECT__30
10
-11.951000
20
-7.761000
30
-6.300000
70
192
0
VERTEX
8
OBJECT__30
10
-12.686000
20
5.783000
30
-27.344000
70
192
0
VERTEX
8
OBJECT__30
10
-11.487000
20
7.431000
30
-24.927999
70
192
0
VERTEX
8
OBJECT__30
10
-8.656000
20
-11.320000
30
-19.226000
70
192
0
VERTEX
8
OBJECT__30
10
0.000000
20
-14.250000
30
-11.354000
70
192
0
VERTEX
8
OBJECT__30
10
-11.115000
20
-8.918000
30
-22.836000
70
192
0
VERTEX
8
OBJECT__30
10
0.000000
20
-14.250000
30
-6.300000
70
192
0
VERTEX
8
OBJECT__30
10
0
20
0
30
0
70
128
71
1
72
2
73
3
0
VERTEX
8
OBJECT__30
10
0
20
0
30
0
70
128
71
3
72
4
73
1
0
VERTEX
8
OBJECT__30
10
0
20
0
30
0
70
128
71
4
72
5
73
1
0
VERTEX
8
OBJECT__30
10
0
20
0
30
0
70
128
71
6
72
7
73
8
0
VERTEX
8
OBJECT__30
10
0
20
0
30
0
70
128
71
9
72
10
73
11
0
VERTEX
8
OBJECT__30
10
0
20
0
30
0
70
128
71
10
72
1
73
12
0
VERTEX
8
OBJECT__30
10
0
20
0
30
0
70
128
71
12
72
11
73
10
0
VERTEX
8
OBJECT__30
10
0
20
0
30
0
70
128
71
11
72
6
73
9
0
VERTEX
8
OBJECT__30
10
0
20
0
30
0
70
128
71
10
72
13
73
14
0
VERTEX
8
OBJECT__30
10
0
20
0
30
0
70
128
71
10
72
15
73
13
0
VERTEX
8
OBJECT__30
10
0
20
0
30
0
70
128
71
10
72
9
73
15
0
VERTEX
8
OBJECT__30
10
0
20
0
30
0
70
128
71
14
72
16
73
10
0
VERTEX
8
OBJECT__30
10
0
20
0
30
0
70
128
71
8
72
9
73
6
0
VERTEX
8
OBJECT__30
10
0
20
0
30
0
70
128
71
5
72
12
73
1
0
SEQEND
8
OBJECT__30
0
POLYLINE
8
OBJECT__31
66
1
70
64
71
9
72
7
62
253
0
VERTEX
8
OBJECT__31
10
-8.079000
20
13.532000
30
-21.681000
70
192
0
VERTEX
8
OBJECT__31
10
-8.372000
20
14.497000
30
-22.164000
70
192
0
VERTEX
8
OBJECT__31
10
-11.797000
20
10.009000
30
-26.448999
70
192
0
VERTEX
8
OBJECT__31
10
-12.427000
20
7.439000
30
-28.798000
70
192
0
VERTEX
8
OBJECT__31
10
-11.487000
20
7.431000
30
-24.927999
70
192
0
VERTEX
8
OBJECT__31
10
-12.686000
20
5.783000
30
-27.344000
70
192
0
VERTEX
8
OBJECT__31
10
-8.656000
20
11.320000
30
-19.226000
70
192
0
VERTEX
8
OBJECT__31
10
-14.250000
20
0.000000
30
-35.599998
70
192
0
VERTEX
8
OBJECT__31
10
-13.432000
20
4.759000
30
-28.846001
70
192
0
VERTEX
8
OBJECT__31
10
0
20
0
30
0
70
128
71
1
72
2
73
3
0
VERTEX
8
OBJECT__31
10
0
20
0
30
0
70
128
71
1
72
4
73
5
0
VERTEX
8
OBJECT__31
10
0
20
0
30
0
70
128
71
4
72
6
73
5
0
VERTEX
8
OBJECT__31
10
0
20
0
30
0
70
128
71
5
72
7
73
1
0
VERTEX
8
OBJECT__31
10
0
20
0
30
0
70
128
71
4
72
8
73
9
0
VERTEX
8
OBJECT__31
10
0
20
0
30
0
70
128
71
9
72
6
73
4
0
VERTEX
8
OBJECT__31
10
0
20
0
30
0
70
128
71
3
72
4
73
1
0
SEQEND
8
OBJECT__31
0
POLYLINE
8
OBJECT__32
66
1
70
64
71
8
72
6
62
253
0
VERTEX
8
OBJECT__32
10
0.293000
20
62.257999
30
-14.884000
70
192
0
VERTEX
8
OBJECT__32
10
-8.372000
20
56.730000
30
-22.164000
70
192
0
VERTEX
8
OBJECT__32
10
-0.513000
20
17.191999
30
-15.504000
70
192
0
VERTEX
8
OBJECT__32
10
1.782000
20
17.250000
30
-13.767000
70
192
0
VERTEX
8
OBJECT__32
10
-8.372000
20
14.497000
30
-22.164000
70
192
0
VERTEX
8
OBJECT__32
10
6.733000
20
17.250000
30
-10.300000
70
192
0
VERTEX
8
OBJECT__32
10
6.085000
20
70.859001
30
-10.733000
70
192
0
VERTEX
8
OBJECT__32
10
6.733000
20
75.000000
30
-10.300000
70
192
0
VERTEX
8
OBJECT__32
10
0
20
0
30
0
70
128
71
1
72
2
73
3
0
VERTEX
8
OBJECT__32
10
0
20
0
30
0
70
128
71
3
72
4
73
1
0
VERTEX
8
OBJECT__32
10
0
20
0
30
0
70
128
71
2
72
5
73
3
0
VERTEX
8
OBJECT__32
10
0
20
0
30
0
70
128
71
6
72
7
73
1
0
VERTEX
8
OBJECT__32
10
0
20
0
30
0
70
128
71
6
72
8
73
7
0
VERTEX
8
OBJECT__32
10
0
20
0
30
0
70
128
71
4
72
6
73
1
0
SEQEND
8
OBJECT__32
0
POLYLINE
8
OBJECT__33
66
1
70
64
71
4
72
2
62
253
0
VERTEX
8
OBJECT__33
10
0.000000
20
14.250000
30
-6.300000
70
192
0
VERTEX
8
OBJECT__33
10
8.042000
20
14.250000
30
-6.300000
70
192
0
VERTEX
8
OBJECT__33
10
5.075000
20
14.250000
30
-7.800000
70
192
0
VERTEX
8
OBJECT__33
10
0.000000
20
14.250000
30
-11.354000
70
192
0
VERTEX
8
OBJECT__33
10
0
20
0
30
0
70
128
71
1
72
2
73
3
0
VERTEX
8
OBJECT__33
10
0
20
0
30
0
70
128
71
3
72
4
73
1
0
SEQEND
8
OBJECT__33
0
POLYLINE
8
OBJECT__34
66
1
70
64
71
7
72
5
62
253
0
VERTEX
8
OBJECT__34
10
8.042000
20
14.250000
30
-6.300000
70
192
0
VERTEX
8
OBJECT__34
10
8.922000
20
15.068000
30
-8.067000
70
192
0
VERTEX
8
OBJECT__34
10
6.248000
20
15.129000
30
-9.568000
70
192
0
VERTEX
8
OBJECT__34
10
8.929000
20
15.074000
30
-8.081000
70
192
0
VERTEX
8
OBJECT__34
10
6.733000
20
17.250000
30
-10.300000
70
192
0
VERTEX
8
OBJECT__34
10
9.297000
20
17.063999
30
-8.819000
70
192
0
VERTEX
8
OBJECT__34
10
5.075000
20
14.250000
30
-7.800000
70
192
0
VERTEX
8
OBJECT__34
10
0
20
0
30
0
70
128
71
1
72
2
73
3
0
VERTEX
8
OBJECT__34
10
0
20
0
30
0
70
128
71
3
72
2
73
4
0
VERTEX
8
OBJECT__34
10
0
20
0
30
0
70
128
71
4
72
5
73
3
0
VERTEX
8
OBJECT__34
10
0
20
0
30
0
70
128
71
4
72
6
73
5
0
VERTEX
8
OBJECT__34
10
0
20
0
30
0
70
128
71
3
72
7
73
1
0
SEQEND
8
OBJECT__34
0
POLYLINE
8
OBJECT__35
66
1
70
64
71
6
72
4
62
253
0
VERTEX
8
OBJECT__35
10
5.075000
20
14.250000
30
-7.800000
70
192
0
VERTEX
8
OBJECT__35
10
6.248000
20
15.129000
30
-9.568000
70
192
0
VERTEX
8
OBJECT__35
10
1.260000
20
15.129000
30
-13.060000
70
192
0
VERTEX
8
OBJECT__35
10
6.733000
20
17.250000
30
-10.300000
70
192
0
VERTEX
8
OBJECT__35
10
1.782000
20
17.250000
30
-13.767000
70
192
0
VERTEX
8
OBJECT__35
10
0.000000
20
14.250000
30
-11.354000
70
192
0
VERTEX
8
OBJECT__35
10
0
20
0
30
0
70
128
71
1
72
2
73
3
0
VERTEX
8
OBJECT__35
10
0
20
0
30
0
70
128
71
3
72
2
73
4
0
VERTEX
8
OBJECT__35
10
0
20
0
30
0
70
128
71
4
72
5
73
3
0
VERTEX
8
OBJECT__35
10
0
20
0
30
0
70
128
71
3
72
6
73
1
0
SEQEND
8
OBJECT__35
0
POLYLINE
8
OBJECT__36
66
1
70
64
71
8
72
6
62
253
0
VERTEX
8
OBJECT__36
10
-8.079000
20
13.532000
30
-21.681000
70
192
0
VERTEX
8
OBJECT__36
10
1.260000
20
15.129000
30
-13.060000
70
192
0
VERTEX
8
OBJECT__36
10
-0.513000
20
17.191999
30
-15.504000
70
192
0
VERTEX
8
OBJECT__36
10
1.782000
20
17.250000
30
-13.767000
70
192
0
VERTEX
8
OBJECT__36
10
-8.571000
20
11.385000
30
-19.125000
70
192
0
VERTEX
8
OBJECT__36
10
-8.656000
20
11.320000
30
-19.226000
70
192
0
VERTEX
8
OBJECT__36
10
0.000000
20
14.250000
30
-11.354000
70
192
0
VERTEX
8
OBJECT__36
10
-8.372000
20
14.497000
30
-22.164000
70
192
0
VERTEX
8
OBJECT__36
10
0
20
0
30
0
70
128
71
1
72
2
73
3
0
VERTEX
8
OBJECT__36
10
0
20
0
30
0
70
128
71
2
72
4
73
3
0
VERTEX
8
OBJECT__36
10
0
20
0
30
0
70
128
71
2
72
1
73
5
0
VERTEX
8
OBJECT__36
10
0
20
0
30
0
70
128
71
1
72
6
73
5
0
VERTEX
8
OBJECT__36
10
0
20
0
30
0
70
128
71
5
72
7
73
2
0
VERTEX
8
OBJECT__36
10
0
20
0
30
0
70
128
71
3
72
8
73
1
0
SEQEND
8
OBJECT__36
0
POLYLINE
8
OBJECT__37
66
1
70
64
71
8
72
8
62
253
0
VERTEX
8
OBJECT__37
10
0.000000
20
42.099998
30
419.399994
70
192
0
VERTEX
8
OBJECT__37
10
0.000000
20
42.099998
30
439.399994
70
192
0
VERTEX
8
OBJECT__37
10
7.150000
20
49.250000
30
439.399994
70
192
0
VERTEX
8
OBJECT__37
10
-7.150000
20
49.250000
30
419.399994
70
192
0
VERTEX
8
OBJECT__37
10
-7.150000
20
49.250000
30
439.399994
70
192
0
VERTEX
8
OBJECT__37
10
0.000000
20
56.400002
30
419.399994
70
192
0
VERTEX
8
OBJECT__37
10
0.000000
20
56.400002
30
439.399994
70
192
0
VERTEX
8
OBJECT__37
10
7.150000
20
49.250000
30
419.399994
70
192
0
VERTEX
8
OBJECT__37
10
0
20
0
30
0
70
128
71
1
72
2
73
3
0
VERTEX
8
OBJECT__37
10
0
20
0
30
0
70
128
71
4
72
5
73
2
0
VERTEX
8
OBJECT__37
10
0
20
0
30
0
70
128
71
6
72
7
73
5
0
VERTEX
8
OBJECT__37
10
0
20
0
30
0
70
128
71
8
72
3
73
7
0
VERTEX
8
OBJECT__37
10
0
20
0
30
0
70
128
71
7
72
6
73
8
0
VERTEX
8
OBJECT__37
10
0
20
0
30
0
70
128
71
5
72
4
73
6
0
VERTEX
8
OBJECT__37
10
0
20
0
30
0
70
128
71
2
72
1
73
4
0
VERTEX
8
OBJECT__37
10
0
20
0
30
0
70
128
71
3
72
8
73
1
0
SEQEND
8
OBJECT__37
0
POLYLINE
8
OBJECT__38
66
1
70
64
71
8
72
8
62
253
0
VERTEX
8
OBJECT__38
10
7.500000
20
49.250000
30
419.399994
70
192
0
VERTEX
8
OBJECT__38
10
7.150000
20
49.250000
30
419.399994
70
192
0
VERTEX
8
OBJECT__38
10
0.000000
20
56.400002
30
419.399994
70
192
0
VERTEX
8
OBJECT__38
10
0.000000
20
41.750000
30
419.399994
70
192
0
VERTEX
8
OBJECT__38
10
0.000000
20
42.099998
30
419.399994
70
192
0
VERTEX
8
OBJECT__38
10
-7.500000
20
49.250000
30
419.399994
70
192
0
VERTEX
8
OBJECT__38
10
-7.150000
20
49.250000
30
419.399994
70
192
0
VERTEX
8
OBJECT__38
10
0.000000
20
56.750000
30
419.399994
70
192
0
VERTEX
8
OBJECT__38
10
0
20
0
30
0
70
128
71
1
72
2
73
3
0
VERTEX
8
OBJECT__38
10
0
20
0
30
0
70
128
71
1
72
4
73
5
0
VERTEX
8
OBJECT__38
10
0
20
0
30
0
70
128
71
5
72
2
73
1
0
VERTEX
8
OBJECT__38
10
0
20
0
30
0
70
128
71
6
72
7
73
5
0
VERTEX
8
OBJECT__38
10
0
20
0
30
0
70
128
71
6
72
8
73
3
0
VERTEX
8
OBJECT__38
10
0
20
0
30
0
70
128
71
5
72
4
73
6
0
VERTEX
8
OBJECT__38
10
0
20
0
30
0
70
128
71
3
72
8
73
1
0
VERTEX
8
OBJECT__38
10
0
20
0
30
0
70
128
71
3
72
7
73
6
0
SEQEND
8
OBJECT__38
0
POLYLINE
8
OBJECT__40
66
1
70
64
71
8
72
8
62
253
0
VERTEX
8
OBJECT__40
10
0.000000
20
56.750000
30
419.399994
70
192
0
VERTEX
8
OBJECT__40
10
0.000000
20
56.750000
30
439.399994
70
192
0
VERTEX
8
OBJECT__40
10
7.500000
20
49.250000
30
439.399994
70
192
0
VERTEX
8
OBJECT__40
10
-7.500000
20
49.250000
30
419.399994
70
192
0
VERTEX
8
OBJECT__40
10
-7.500000
20
49.250000
30
439.399994
70
192
0
VERTEX
8
OBJECT__40
10
0.000000
20
41.750000
30
419.399994
70
192
0
VERTEX
8
OBJECT__40
10
0.000000
20
41.750000
30
439.399994
70
192
0
VERTEX
8
OBJECT__40
10
7.500000
20
49.250000
30
419.399994
70
192
0
VERTEX
8
OBJECT__40
10
0
20
0
30
0
70
128
71
1
72
2
73
3
0
VERTEX
8
OBJECT__40
10
0
20
0
30
0
70
128
71
4
72
5
73
2
0
VERTEX
8
OBJECT__40
10
0
20
0
30
0
70
128
71
6
72
7
73
5
0
VERTEX
8
OBJECT__40
10
0
20
0
30
0
70
128
71
8
72
3
73
7
0
VERTEX
8
OBJECT__40
10
0
20
0
30
0
70
128
71
7
72
6
73
8
0
VERTEX
8
OBJECT__40
10
0
20
0
30
0
70
128
71
5
72
4
73
6
0
VERTEX
8
OBJECT__40
10
0
20
0
30
0
70
128
71
2
72
1
73
4
0
VERTEX
8
OBJECT__40
10
0
20
0
30
0
70
128
71
3
72
8
73
1
0
SEQEND
8
OBJECT__40
0
POLYLINE
8
OBJECT__41
66
1
70
64
71
12
72
12
62
253
0
VERTEX
8
OBJECT__41
10
15.400000
20
0.000000
30
998.250000
70
192
0
VERTEX
8
OBJECT__41
10
23.423000
20
0.000000
30
998.250000
70
192
0
VERTEX
8
OBJECT__41
10
23.423000
20
13.510000
30
990.450012
70
192
0
VERTEX
8
OBJECT__41
10
15.400000
20
15.600000
30
982.650024
70
192
0
VERTEX
8
OBJECT__41
10
15.400000
20
0.000000
30
967.049988
70
192
0
VERTEX
8
OBJECT__41
10
23.423000
20
13.510000
30
974.849976
70
192
0
VERTEX
8
OBJECT__41
10
23.423000
20
13.510000
30
982.650024
70
192
0
VERTEX
8
OBJECT__41
10
23.423000
20
0.000000
30
967.049988
70
192
0
VERTEX
8
OBJECT__41
10
23.423000
20
-13.510000
30
974.849976
70
192
0
VERTEX
8
OBJECT__41
10
15.400000
20
-15.600000
30
982.650024
70
192
0
VERTEX
8
OBJECT__41
10
23.423000
20
-13.510000
30
990.450012
70
192
0
VERTEX
8
OBJECT__41
10
23.423000
20
-13.510000
30
982.650024
70
192
0
VERTEX
8
OBJECT__41
10
0
20
0
30
0
70
128
71
1
72
2
73
3
0
VERTEX
8
OBJECT__41
10
0
20
0
30
0
70
128
71
3
72
4
73
1
0
VERTEX
8
OBJECT__41
10
0
20
0
30
0
70
128
71
5
72
4
73
6
0
VERTEX
8
OBJECT__41
10
0
20
0
30
0
70
128
71
4
72
7
73
6
0
VERTEX
8
OBJECT__41
10
0
20
0
30
0
70
128
71
5
72
8
73
9
0
VERTEX
8
OBJECT__41
10
0
20
0
30
0
70
128
71
9
72
10
73
5
0
VERTEX
8
OBJECT__41
10
0
20
0
30
0
70
128
71
1
72
10
73
11
0
VERTEX
8
OBJECT__41
10
0
20
0
30
0
70
128
71
10
72
12
73
11
0
VERTEX
8
OBJECT__41
10
0
20
0
30
0
70
128
71
11
72
2
73
1
0
VERTEX
8
OBJECT__41
10
0
20
0
30
0
70
128
71
9
72
12
73
10
0
VERTEX
8
OBJECT__41
10
0
20
0
30
0
70
128
71
6
72
8
73
5
0
VERTEX
8
OBJECT__41
10
0
20
0
30
0
70
128
71
3
72
7
73
4
0
SEQEND
8
OBJECT__41
0
POLYLINE
8
OBJECT__42
66
1
70
64
71
9
72
8
62
253
0
VERTEX
8
OBJECT__42
10
24.400000
20
0.000000
30
982.650024
70
192
0
VERTEX
8
OBJECT__42
10
23.423000
20
13.510000
30
974.849976
70
192
0
VERTEX
8
OBJECT__42
10
23.423000
20
13.510000
30
982.650024
70
192
0
VERTEX
8
OBJECT__42
10
23.423000
20
-13.510000
30
990.450012
70
192
0
VERTEX
8
OBJECT__42
10
23.423000
20
-13.510000
30
982.650024
70
192
0
VERTEX
8
OBJECT__42
10
23.423000
20
0.000000
30
998.250000
70
192
0
VERTEX
8
OBJECT__42
10
23.423000
20
-13.510000
30
974.849976
70
192
0
VERTEX
8
OBJECT__42
10
23.423000
20
0.000000
30
967.049988
70
192
0
VERTEX
8
OBJECT__42
10
23.423000
20
13.510000
30
990.450012
70
192
0
VERTEX
8
OBJECT__42
10
0
20
0
30
0
70
128
71
1
72
2
73
3
0
VERTEX
8
OBJECT__42
10
0
20
0
30
0
70
128
71
1
72
4
73
5
0
VERTEX
8
OBJECT__42
10
0
20
0
30
0
70
128
71
6
72
4
73
1
0
VERTEX
8
OBJECT__42
10
0
20
0
30
0
70
128
71
5
72
7
73
1
0
VERTEX
8
OBJECT__42
10
0
20
0
30
0
70
128
71
7
72
8
73
1
0
VERTEX
8
OBJECT__42
10
0
20
0
30
0
70
128
71
8
72
2
73
1
0
VERTEX
8
OBJECT__42
10
0
20
0
30
0
70
128
71
3
72
9
73
1
0
VERTEX
8
OBJECT__42
10
0
20
0
30
0
70
128
71
9
72
6
73
1
0
SEQEND
8
OBJECT__42
0
POLYLINE
8
OBJECT__44
66
1
70
64
71
4
72
2
62
253
0
VERTEX
8
OBJECT__44
10
0.000000
20
56.250000
30
230.899994
70
192
0
VERTEX
8
OBJECT__44
10
7.000000
20
49.250000
30
230.899994
70
192
0
VERTEX
8
OBJECT__44
10
0.000000
20
42.250000
30
230.899994
70
192
0
VERTEX
8
OBJECT__44
10
-7.000000
20
49.250000
30
230.899994
70
192
0
VERTEX
8
OBJECT__44
10
0
20
0
30
0
70
128
71
1
72
2
73
3
0
VERTEX
8
OBJECT__44
10
0
20
0
30
0
70
128
71
3
72
4
73
1
0
SEQEND
8
OBJECT__44
0
POLYLINE
8
OBJECT__45
66
1
70
64
71
8
72
8
62
253
0
VERTEX
8
OBJECT__45
10
0.000000
20
42.250000
30
230.899994
70
192
0
VERTEX
8
OBJECT__45
10
7.000000
20
49.250000
30
230.899994
70
192
0
VERTEX
8
OBJECT__45
10
7.000000
20
49.250000
30
430.899994
70
192
0
VERTEX
8
OBJECT__45
10
-7.000000
20
49.250000
30
430.899994
70
192
0
VERTEX
8
OBJECT__45
10
-7.000000
20
49.250000
30
230.899994
70
192
0
VERTEX
8
OBJECT__45
10
0.000000
20
56.250000
30
430.899994
70
192
0
VERTEX
8
OBJECT__45
10
0.000000
20
56.250000
30
230.899994
70
192
0
VERTEX
8
OBJECT__45
10
0.000000
20
42.250000
30
430.899994
70
192
0
VERTEX
8
OBJECT__45
10
0
20
0
30
0
70
128
71
1
72
2
73
3
0
VERTEX
8
OBJECT__45
10
0
20
0
30
0
70
128
71
4
72
5
73
1
0
VERTEX
8
OBJECT__45
10
0
20
0
30
0
70
128
71
6
72
7
73
5
0
VERTEX
8
OBJECT__45
10
0
20
0
30
0
70
128
71
2
72
7
73
6
0
VERTEX
8
OBJECT__45
10
0
20
0
30
0
70
128
71
6
72
3
73
2
0
VERTEX
8
OBJECT__45
10
0
20
0
30
0
70
128
71
5
72
4
73
6
0
VERTEX
8
OBJECT__45
10
0
20
0
30
0
70
128
71
1
72
8
73
4
0
VERTEX
8
OBJECT__45
10
0
20
0
30
0
70
128
71
3
72
8
73
1
0
SEQEND
8
OBJECT__45
0
POLYLINE
8
OBJECT__47
66
1
70
64
71
4
72
2
62
253
0
VERTEX
8
OBJECT__47
10
0.000000
20
56.250000
30
430.899994
70
192
0
VERTEX
8
OBJECT__47
10
-7.000000
20
49.250000
30
430.899994
70
192
0
VERTEX
8
OBJECT__47
10
0.000000
20
42.250000
30
430.899994
70
192
0
VERTEX
8
OBJECT__47
10
7.000000
20
49.250000
30
430.899994
70
192
0
VERTEX
8
OBJECT__47
10
0
20
0
30
0
70
128
71
1
72
2
73
3
0
VERTEX
8
OBJECT__47
10
0
20
0
30
0
70
128
71
3
72
4
73
1
0
SEQEND
8
OBJECT__47
0
POLYLINE
8
OBJECT__48
66
1
70
64
71
4
72
2
62
253
0
VERTEX
8
OBJECT__48
10
8.500000
20
56.000000
30
-60.700001
70
192
0
VERTEX
8
OBJECT__48
10
20.000000
20
44.500000
30
-60.700001
70
192
0
VERTEX
8
OBJECT__48
10
31.500000
20
56.000000
30
-60.700001
70
192
0
VERTEX
8
OBJECT__48
10
20.000000
20
67.500000
30
-60.700001
70
192
0
VERTEX
8
OBJECT__48
10
0
20
0
30
0
70
128
71
1
72
2
73
3
0
VERTEX
8
OBJECT__48
10
0
20
0
30
0
70
128
71
3
72
4
73
1
0
SEQEND
8
OBJECT__48
0
POLYLINE
8
OBJECT__49
66
1
70
64
71
8
72
8
62
253
0
VERTEX
8
OBJECT__49
10
8.500000
20
56.000000
30
-60.700001
70
192
0
VERTEX
8
OBJECT__49
10
8.500000
20
56.000000
30
-73.199997
70
192
0
VERTEX
8
OBJECT__49
10
20.000000
20
44.500000
30
-73.199997
70
192
0
VERTEX
8
OBJECT__49
10
20.000000
20
67.500000
30
-60.700001
70
192
0
VERTEX
8
OBJECT__49
10
20.000000
20
67.500000
30
-73.199997
70
192
0
VERTEX
8
OBJECT__49
10
31.500000
20
56.000000
30
-60.700001
70
192
0
VERTEX
8
OBJECT__49
10
31.500000
20
56.000000
30
-73.199997
70
192
0
VERTEX
8
OBJECT__49
10
20.000000
20
44.500000
30
-60.700001
70
192
0
VERTEX
8
OBJECT__49
10
0
20
0
30
0
70
128
71
1
72
2
73
3
0
VERTEX
8
OBJECT__49
10
0
20
0
30
0
70
128
71
4
72
5
73
2
0
VERTEX
8
OBJECT__49
10
0
20
0
30
0
70
128
71
6
72
7
73
5
0
VERTEX
8
OBJECT__49
10
0
20
0
30
0
70
128
71
8
72
3
73
7
0
VERTEX
8
OBJECT__49
10
0
20
0
30
0
70
128
71
7
72
6
73
8
0
VERTEX
8
OBJECT__49
10
0
20
0
30
0
70
128
71
5
72
4
73
6
0
VERTEX
8
OBJECT__49
10
0
20
0
30
0
70
128
71
2
72
1
73
4
0
VERTEX
8
OBJECT__49
10
0
20
0
30
0
70
128
71
3
72
8
73
1
0
SEQEND
8
OBJECT__49
0
POLYLINE
8
OBJECT__51
66
1
70
64
71
8
72
8
62
253
0
VERTEX
8
OBJECT__51
10
20.000000
20
67.500000
30
-73.199997
70
192
0
VERTEX
8
OBJECT__51
10
20.000000
20
63.000000
30
-73.199997
70
192
0
VERTEX
8
OBJECT__51
10
13.000000
20
56.000000
30
-73.199997
70
192
0
VERTEX
8
OBJECT__51
10
31.500000
20
56.000000
30
-73.199997
70
192
0
VERTEX
8
OBJECT__51
10
27.000000
20
56.000000
30
-73.199997
70
192
0
VERTEX
8
OBJECT__51
10
20.000000
20
44.500000
30
-73.199997
70
192
0
VERTEX
8
OBJECT__51
10
20.000000
20
49.000000
30
-73.199997
70
192
0
VERTEX
8
OBJECT__51
10
8.500000
20
56.000000
30
-73.199997
70
192
0
VERTEX
8
OBJECT__51
10
0
20
0
30
0
70
128
71
1
72
2
73
3
0
VERTEX
8
OBJECT__51
10
0
20
0
30
0
70
128
71
4
72
5
73
2
0
VERTEX
8
OBJECT__51
10
0
20
0
30
0
70
128
71
2
72
1
73
4
0
VERTEX
8
OBJECT__51
10
0
20
0
30
0
70
128
71
4
72
6
73
7
0
VERTEX
8
OBJECT__51
10
0
20
0
30
0
70
128
71
7
72
5
73
4
0
VERTEX
8
OBJECT__51
10
0
20
0
30
0
70
128
71
8
72
3
73
7
0
VERTEX
8
OBJECT__51
10
0
20
0
30
0
70
128
71
7
72
6
73
8
0
VERTEX
8
OBJECT__51
10
0
20
0
30
0
70
128
71
3
72
8
73
1
0
SEQEND
8
OBJECT__51
0
POLYLINE
8
OBJECT__52
66
1
70
64
71
8
72
8
62
253
0
VERTEX
8
OBJECT__52
10
13.000000
20
56.000000
30
-73.199997
70
192
0
VERTEX
8
OBJECT__52
10
20.000000
20
63.000000
30
-73.199997
70
192
0
VERTEX
8
OBJECT__52
10
20.000000
20
63.000000
30
-272.700012
70
192
0
VERTEX
8
OBJECT__52
10
20.000000
20
49.000000
30
-272.700012
70
192
0
VERTEX
8
OBJECT__52
10
20.000000
20
49.000000
30
-73.199997
70
192
0
VERTEX
8
OBJECT__52
10
27.000000
20
56.000000
30
-272.700012
70
192
0
VERTEX
8
OBJECT__52
10
27.000000
20
56.000000
30
-73.199997
70
192
0
VERTEX
8
OBJECT__52
10
13.000000
20
56.000000
30
-272.700012
70
192
0
VERTEX
8
OBJECT__52
10
0
20
0
30
0
70
128
71
1
72
2
73
3
0
VERTEX
8
OBJECT__52
10
0
20
0
30
0
70
128
71
4
72
5
73
1
0
VERTEX
8
OBJECT__52
10
0
20
0
30
0
70
128
71
6
72
7
73
5
0
VERTEX
8
OBJECT__52
10
0
20
0
30
0
70
128
71
2
72
7
73
6
0
VERTEX
8
OBJECT__52
10
0
20
0
30
0
70
128
71
6
72
3
73
2
0
VERTEX
8
OBJECT__52
10
0
20
0
30
0
70
128
71
5
72
4
73
6
0
VERTEX
8
OBJECT__52
10
0
20
0
30
0
70
128
71
1
72
8
73
4
0
VERTEX
8
OBJECT__52
10
0
20
0
30
0
70
128
71
3
72
8
73
1
0
SEQEND
8
OBJECT__52
0
POLYLINE
8
OBJECT__53
66
1
70
64
71
4
72
2
62
253
0
VERTEX
8
OBJECT__53
10
27.000000
20
56.000000
30
-272.700012
70
192
0
VERTEX
8
OBJECT__53
10
20.000000
20
49.000000
30
-272.700012
70
192
0
VERTEX
8
OBJECT__53
10
13.000000
20
56.000000
30
-272.700012
70
192
0
VERTEX
8
OBJECT__53
10
20.000000
20
63.000000
30
-272.700012
70
192
0
VERTEX
8
OBJECT__53
10
0
20
0
30
0
70
128
71
1
72
2
73
3
0
VERTEX
8
OBJECT__53
10
0
20
0
30
0
70
128
71
3
72
4
73
1
0
SEQEND
8
OBJECT__53
0
POLYLINE
8
OBJECT__54
66
1
70
64
71
31
72
31
62
253
0
VERTEX
8
OBJECT__54
10
578.293030
20
85.861000
30
1008.898010
70
192
0
VERTEX
8
OBJECT__54
10
523.382019
20
154.716003
30
1008.898010
70
192
0
VERTEX
8
OBJECT__54
10
537.455994
20
125.306999
30
1008.898010
70
192
0
VERTEX
8
OBJECT__54
10
482.907013
20
166.500000
30
1008.898010
70
192
0
VERTEX
8
OBJECT__54
10
444.035004
20
192.927994
30
1008.898010
70
192
0
VERTEX
8
OBJECT__54
10
417.161987
20
185.207001
30
1008.898010
70
192
0
VERTEX
8
OBJECT__54
10
355.964996
20
192.927994
30
1008.898010
70
192
0
VERTEX
8
OBJECT__54
10
349.098999
20
178.899994
30
1008.898010
70
192
0
VERTEX
8
OBJECT__54
10
276.618011
20
154.716003
30
1008.898010
70
192
0
VERTEX
8
OBJECT__54
10
287.910004
20
148.431000
30
1008.898010
70
192
0
VERTEX
8
OBJECT__54
10
221.707001
20
85.861000
30
1008.898010
70
192
0
VERTEX
8
OBJECT__54
10
241.860001
20
97.916000
30
1008.898010
70
192
0
VERTEX
8
OBJECT__54
10
202.110001
20
0.000000
30
1008.898010
70
192
0
VERTEX
8
OBJECT__54
10
217.167007
20
34.176998
30
1008.898010
70
192
0
VERTEX
8
OBJECT__54
10
221.707001
20
-85.861000
30
1008.898010
70
192
0
VERTEX
8
OBJECT__54
10
241.860001
20
-97.916000
30
1008.898010
70
192
0
VERTEX
8
OBJECT__54
10
217.167007
20
-34.176998
30
1008.898010
70
192
0
VERTEX
8
OBJECT__54
10
276.618011
20
-154.716003
30
1008.898010
70
192
0
VERTEX
8
OBJECT__54
10
287.910004
20
-148.431000
30
1008.898010
70
192
0
VERTEX
8
OBJECT__54
10
355.964996
20
-192.927994
30
1008.898010
70
192
0
VERTEX
8
OBJECT__54
10
349.098999
20
-178.899994
30
1008.898010
70
192
0
VERTEX
8
OBJECT__54
10
444.035004
20
-192.927994
30
1008.898010
70
192
0
VERTEX
8
OBJECT__54
10
417.161987
20
-185.207001
30
1008.898010
70
192
0
VERTEX
8
OBJECT__54
10
523.382019
20
-154.716003
30
1008.898010
70
192
0
VERTEX
8
OBJECT__54
10
482.907013
20
-166.500000
30
1008.898010
70
192
0
VERTEX
8
OBJECT__54
10
537.455994
20
-125.306999
30
1008.898010
70
192
0
VERTEX
8
OBJECT__54
10
578.293030
20
-85.861000
30
1008.898010
70
192
0
VERTEX
8
OBJECT__54
10
573.440002
20
-67.191002
30
1008.898010
70
192
0
VERTEX
8
OBJECT__54
10
597.890015
20
0.000000
30
1008.898010
70
192
0
VERTEX
8
OBJECT__54
10
586.000000
20
0.000000
30
1008.898010
70
192
0
VERTEX
8
OBJECT__54
10
573.440002
20
67.191002
30
1008.898010
70
192
0
VERTEX
8
OBJECT__54
10
0
20
0
30
0
70
128
71
1
72
2
73
3
0
VERTEX
8
OBJECT__54
10
0
20
0
30
0
70
128
71
2
72
4
73
3
0
VERTEX
8
OBJECT__54
10
0
20
0
30
0
70
128
71
5
72
6
73
4
0
VERTEX
8
OBJECT__54
10
0
20
0
30
0
70
128
71
7
72
8
73
6
0
VERTEX
8
OBJECT__54
10
0
20
0
30
0
70
128
71
9
72
10
73
8
0
VERTEX
8
OBJECT__54
10
0
20
0
30
0
70
128
71
4
72
2
73
5
0
VERTEX
8
OBJECT__54
10
0
20
0
30
0
70
128
71
8
72
7
73
9
0
VERTEX
8
OBJECT__54
10
0
20
0
30
0
70
128
71
9
72
11
73
12
0
VERTEX
8
OBJECT__54
10
0
20
0
30
0
70
128
71
11
72
13
73
14
0
VERTEX
8
OBJECT__54
10
0
20
0
30
0
70
128
71
15
72
16
73
17
0
VERTEX
8
OBJECT__54
10
0
20
0
30
0
70
128
71
18
72
19
73
16
0
VERTEX
8
OBJECT__54
10
0
20
0
30
0
70
128
71
18
72
20
73
21
0
VERTEX
8
OBJECT__54
10
0
20
0
30
0
70
128
71
6
72
5
73
7
0
VERTEX
8
OBJECT__54
10
0
20
0
30
0
70
128
71
14
72
12
73
11
0
VERTEX
8
OBJECT__54
10
0
20
0
30
0
70
128
71
17
72
13
73
15
0
VERTEX
8
OBJECT__54
10
0
20
0
30
0
70
128
71
21
72
19
73
18
0
VERTEX
8
OBJECT__54
10
0
20
0
30
0
70
128
71
20
72
22
73
23
0
VERTEX
8
OBJECT__54
10
0
20
0
30
0
70
128
71
22
72
24
73
25
0
VERTEX
8
OBJECT__54
10
0
20
0
30
0
70
128
71
12
72
10
73
9
0
VERTEX
8
OBJECT__54
10
0
20
0
30
0
70
128
71
16
72
15
73
18
0
VERTEX
8
OBJECT__54
10
0
20
0
30
0
70
128
71
25
72
23
73
22
0
VERTEX
8
OBJECT__54
10
0
20
0
30
0
70
128
71
17
72
14
73
13
0
VERTEX
8
OBJECT__54
10
0
20
0
30
0
70
128
71
24
72
26
73
25
0
VERTEX
8
OBJECT__54
10
0
20
0
30
0
70
128
71
27
72
28
73
26
0
VERTEX
8
OBJECT__54
10
0
20
0
30
0
70
128
71
29
72
30
73
28
0
VERTEX
8
OBJECT__54
10
0
20
0
30
0
70
128
71
23
72
21
73
20
0
VERTEX
8
OBJECT__54
10
0
20
0
30
0
70
128
71
28
72
27
73
29
0
VERTEX
8
OBJECT__54
10
0
20
0
30
0
70
128
71
29
72
1
73
31
0
VERTEX
8
OBJECT__54
10
0
20
0
30
0
70
128
71
26
72
24
73
27
0
VERTEX
8
OBJECT__54
10
0
20
0
30
0
70
128
71
3
72
31
73
1
0
VERTEX
8
OBJECT__54
10
0
20
0
30
0
70
128
71
31
72
30
73
29
0
SEQEND
8
OBJECT__54
0
POLYLINE
8
OBJECT__55
66
1
70
64
71
28
72
28
62
253
0
VERTEX
8
OBJECT__55
10
598.007996
20
0.000000
30
1015.697998
70
192
0
VERTEX
8
OBJECT__55
10
578.398987
20
85.913002
30
1015.697998
70
192
0
VERTEX
8
OBJECT__55
10
578.293030
20
85.861000
30
1008.898010
70
192
0
VERTEX
8
OBJECT__55
10
523.455994
20
154.809006
30
1015.697998
70
192
0
VERTEX
8
OBJECT__55
10
523.382019
20
154.716003
30
1008.898010
70
192
0
VERTEX
8
OBJECT__55
10
444.061005
20
193.044006
30
1015.697998
70
192
0
VERTEX
8
OBJECT__55
10
444.035004
20
192.927994
30
1008.898010
70
192
0
VERTEX
8
OBJECT__55
10
355.938995
20
193.044006
30
1015.697998
70
192
0
VERTEX
8
OBJECT__55
10
355.964996
20
192.927994
30
1008.898010
70
192
0
VERTEX
8
OBJECT__55
10
276.544006
20
154.809006
30
1015.697998
70
192
0
VERTEX
8
OBJECT__55
10
276.618011
20
154.716003
30
1008.898010
70
192
0
VERTEX
8
OBJECT__55
10
221.600998
20
85.913002
30
1015.697998
70
192
0
VERTEX
8
OBJECT__55
10
221.707001
20
85.861000
30
1008.898010
70
192
0
VERTEX
8
OBJECT__55
10
201.992004
20
0.000000
30
1015.697998
70
192
0
VERTEX
8
OBJECT__55
10
202.110001
20
0.000000
30
1008.898010
70
192
0
VERTEX
8
OBJECT__55
10
221.600998
20
-85.913002
30
1015.697998
70
192
0
VERTEX
8
OBJECT__55
10
221.707001
20
-85.861000
30
1008.898010
70
192
0
VERTEX
8
OBJECT__55
10
276.544006
20
-154.809006
30
1015.697998
70
192
0
VERTEX
8
OBJECT__55
10
276.618011
20
-154.716003
30
1008.898010
70
192
0
VERTEX
8
OBJECT__55
10
355.938995
20
-193.044006
30
1015.697998
70
192
0
VERTEX
8
OBJECT__55
10
355.964996
20
-192.927994
30
1008.898010
70
192
0
VERTEX
8
OBJECT__55
10
444.061005
20
-193.044006
30
1015.697998
70
192
0
VERTEX
8
OBJECT__55
10
444.035004
20
-192.927994
30
1008.898010
70
192
0
VERTEX
8
OBJECT__55
10
523.455994
20
-154.809006
30
1015.697998
70
192
0
VERTEX
8
OBJECT__55
10
523.382019
20
-154.716003
30
1008.898010
70
192
0
VERTEX
8
OBJECT__55
10
578.398987
20
-85.913002
30
1015.697998
70
192
0
VERTEX
8
OBJECT__55
10
578.293030
20
-85.861000
30
1008.898010
70
192
0
VERTEX
8
OBJECT__55
10
597.890015
20
0.000000
30
1008.898010
70
192
0
VERTEX
8
OBJECT__55
10
0
20
0
30
0
70
128
71
1
72
2
73
3
0
VERTEX
8
OBJECT__55
10
0
20
0
30
0
70
128
71
2
72
4
73
5
0
VERTEX
8
OBJECT__55
10
0
20
0
30
0
70
128
71
4
72
6
73
7
0
VERTEX
8
OBJECT__55
10
0
20
0
30
0
70
128
71
6
72
8
73
9
0
VERTEX
8
OBJECT__55
10
0
20
0
30
0
70
128
71
10
72
11
73
9
0
VERTEX
8
OBJECT__55
10
0
20
0
30
0
70
128
71
12
72
13
73
11
0
VERTEX
8
OBJECT__55
10
0
20
0
30
0
70
128
71
12
72
14
73
15
0
VERTEX
8
OBJECT__55
10
0
20
0
30
0
70
128
71
14
72
16
73
17
0
VERTEX
8
OBJECT__55
10
0
20
0
30
0
70
128
71
18
72
19
73
17
0
VERTEX
8
OBJECT__55
10
0
20
0
30
0
70
128
71
20
72
21
73
19
0
VERTEX
8
OBJECT__55
10
0
20
0
30
0
70
128
71
20
72
22
73
23
0
VERTEX
8
OBJECT__55
10
0
20
0
30
0
70
128
71
22
72
24
73
25
0
VERTEX
8
OBJECT__55
10
0
20
0
30
0
70
128
71
26
72
27
73
25
0
VERTEX
8
OBJECT__55
10
0
20
0
30
0
70
128
71
1
72
28
73
27
0
VERTEX
8
OBJECT__55
10
0
20
0
30
0
70
128
71
27
72
26
73
1
0
VERTEX
8
OBJECT__55
10
0
20
0
30
0
70
128
71
25
72
24
73
26
0
VERTEX
8
OBJECT__55
10
0
20
0
30
0
70
128
71
25
72
23
73
22
0
VERTEX
8
OBJECT__55
10
0
20
0
30
0
70
128
71
23
72
21
73
20
0
VERTEX
8
OBJECT__55
10
0
20
0
30
0
70
128
71
19
72
18
73
20
0
VERTEX
8
OBJECT__55
10
0
20
0
30
0
70
128
71
17
72
16
73
18
0
VERTEX
8
OBJECT__55
10
0
20
0
30
0
70
128
71
17
72
15
73
14
0
VERTEX
8
OBJECT__55
10
0
20
0
30
0
70
128
71
15
72
13
73
12
0
VERTEX
8
OBJECT__55
10
0
20
0
30
0
70
128
71
11
72
10
73
12
0
VERTEX
8
OBJECT__55
10
0
20
0
30
0
70
128
71
9
72
8
73
10
0
VERTEX
8
OBJECT__55
10
0
20
0
30
0
70
128
71
9
72
7
73
6
0
VERTEX
8
OBJECT__55
10
0
20
0
30
0
70
128
71
7
72
5
73
4
0
VERTEX
8
OBJECT__55
10
0
20
0
30
0
70
128
71
5
72
3
73
2
0
VERTEX
8
OBJECT__55
10
0
20
0
30
0
70
128
71
3
72
28
73
1
0
SEQEND
8
OBJECT__55
0
POLYLINE
8
OBJECT__57
66
1
70
64
71
28
72
28
62
253
0
VERTEX
8
OBJECT__57
10
580.651978
20
86.997002
30
1015.697998
70
192
0
VERTEX
8
OBJECT__57
10
525.015015
20
156.764008
30
1015.697998
70
192
0
VERTEX
8
OBJECT__57
10
523.455994
20
154.809006
30
1015.697998
70
192
0
VERTEX
8
OBJECT__57
10
444.617004
20
195.481003
30
1015.697998
70
192
0
VERTEX
8
OBJECT__57
10
444.061005
20
193.044006
30
1015.697998
70
192
0
VERTEX
8
OBJECT__57
10
355.382996
20
195.481003
30
1015.697998
70
192
0
VERTEX
8
OBJECT__57
10
355.938995
20
193.044006
30
1015.697998
70
192
0
VERTEX
8
OBJECT__57
10
274.984985
20
156.764008
30
1015.697998
70
192
0
VERTEX
8
OBJECT__57
10
219.348007
20
86.997002
30
1015.697998
70
192
0
VERTEX
8
OBJECT__57
10
221.600998
20
85.913002
30
1015.697998
70
192
0
VERTEX
8
OBJECT__57
10
199.492004
20
0.000000
30
1015.697998
70
192
0
VERTEX
8
OBJECT__57
10
201.992004
20
0.000000
30
1015.697998
70
192
0
VERTEX
8
OBJECT__57
10
219.348007
20
-86.997002
30
1015.697998
70
192
0
VERTEX
8
OBJECT__57
10
221.600998
20
-85.913002
30
1015.697998
70
192
0
VERTEX
8
OBJECT__57
10
274.984985
20
-156.764008
30
1015.697998
70
192
0
VERTEX
8
OBJECT__57
10
276.544006
20
-154.809006
30
1015.697998
70
192
0
VERTEX
8
OBJECT__57
10
276.544006
20
154.809006
30
1015.697998
70
192
0
VERTEX
8
OBJECT__57
10
355.382996
20
-195.481003
30
1015.697998
70
192
0
VERTEX
8
OBJECT__57
10
355.938995
20
-193.044006
30
1015.697998
70
192
0
VERTEX
8
OBJECT__57
10
444.617004
20
-195.481003
30
1015.697998
70
192
0
VERTEX
8
OBJECT__57
10
444.061005
20
-193.044006
30
1015.697998
70
192
0
VERTEX
8
OBJECT__57
10
525.015015
20
-156.764008
30
1015.697998
70
192
0
VERTEX
8
OBJECT__57
10
523.455994
20
-154.809006
30
1015.697998
70
192
0
VERTEX
8
OBJECT__57
10
580.651978
20
-86.997002
30
1015.697998
70
192
0
VERTEX
8
OBJECT__57
10
578.398987
20
-85.913002
30
1015.697998
70
192
0
VERTEX
8
OBJECT__57
10
600.507996
20
0.000000
30
1015.697998
70
192
0
VERTEX
8
OBJECT__57
10
598.007996
20
0.000000
30
1015.697998
70
192
0
VERTEX
8
OBJECT__57
10
578.398987
20
85.913002
30
1015.697998
70
192
0
VERTEX
8
OBJECT__57
10
0
20
0
30
0
70
128
71
1
72
2
73
3
0
VERTEX
8
OBJECT__57
10
0
20
0
30
0
70
128
71
2
72
4
73
5
0
VERTEX
8
OBJECT__57
10
0
20
0
30
0
70
128
71
5
72
3
73
2
0
VERTEX
8
OBJECT__57
10
0
20
0
30
0
70
128
71
4
72
6
73
7
0
VERTEX
8
OBJECT__57
10
0
20
0
30
0
70
128
71
8
72
9
73
10
0
VERTEX
8
OBJECT__57
10
0
20
0
30
0
70
128
71
9
72
11
73
12
0
VERTEX
8
OBJECT__57
10
0
20
0
30
0
70
128
71
13
72
14
73
12
0
VERTEX
8
OBJECT__57
10
0
20
0
30
0
70
128
71
15
72
16
73
14
0
VERTEX
8
OBJECT__57
10
0
20
0
30
0
70
128
71
7
72
5
73
4
0
VERTEX
8
OBJECT__57
10
0
20
0
30
0
70
128
71
6
72
8
73
17
0
VERTEX
8
OBJECT__57
10
0
20
0
30
0
70
128
71
12
72
10
73
9
0
VERTEX
8
OBJECT__57
10
0
20
0
30
0
70
128
71
14
72
13
73
15
0
VERTEX
8
OBJECT__57
10
0
20
0
30
0
70
128
71
15
72
18
73
19
0
VERTEX
8
OBJECT__57
10
0
20
0
30
0
70
128
71
18
72
20
73
21
0
VERTEX
8
OBJECT__57
10
0
20
0
30
0
70
128
71
17
72
7
73
6
0
VERTEX
8
OBJECT__57
10
0
20
0
30
0
70
128
71
12
72
11
73
13
0
VERTEX
8
OBJECT__57
10
0
20
0
30
0
70
128
71
21
72
19
73
18
0
VERTEX
8
OBJECT__57
10
0
20
0
30
0
70
128
71
22
72
23
73
21
0
VERTEX
8
OBJECT__57
10
0
20
0
30
0
70
128
71
10
72
17
73
8
0
VERTEX
8
OBJECT__57
10
0
20
0
30
0
70
128
71
21
72
20
73
22
0
VERTEX
8
OBJECT__57
10
0
20
0
30
0
70
128
71
24
72
25
73
23
0
VERTEX
8
OBJECT__57
10
0
20
0
30
0
70
128
71
26
72
27
73
25
0
VERTEX
8
OBJECT__57
10
0
20
0
30
0
70
128
71
19
72
16
73
15
0
VERTEX
8
OBJECT__57
10
0
20
0
30
0
70
128
71
25
72
24
73
26
0
VERTEX
8
OBJECT__57
10
0
20
0
30
0
70
128
71
1
72
28
73
27
0
VERTEX
8
OBJECT__57
10
0
20
0
30
0
70
128
71
23
72
22
73
24
0
VERTEX
8
OBJECT__57
10
0
20
0
30
0
70
128
71
3
72
28
73
1
0
VERTEX
8
OBJECT__57
10
0
20
0
30
0
70
128
71
27
72
26
73
1
0
SEQEND
8
OBJECT__57
0
POLYLINE
8
OBJECT__58
66
1
70
64
71
28
72
28
62
253
0
VERTEX
8
OBJECT__58
10
580.651978
20
86.997002
30
1015.697998
70
192
0
VERTEX
8
OBJECT__58
10
600.507996
20
0.000000
30
1015.697998
70
192
0
VERTEX
8
OBJECT__58
10
600.346008
20
0.000000
30
1006.398010
70
192
0
VERTEX
8
OBJECT__58
10
580.505981
20
86.927002
30
1006.398010
70
192
0
VERTEX
8
OBJECT__58
10
524.914001
20
156.636993
30
1006.398010
70
192
0
VERTEX
8
OBJECT__58
10
525.015015
20
156.764008
30
1015.697998
70
192
0
VERTEX
8
OBJECT__58
10
444.580994
20
195.322998
30
1006.398010
70
192
0
VERTEX
8
OBJECT__58
10
355.382996
20
195.481003
30
1015.697998
70
192
0
VERTEX
8
OBJECT__58
10
444.617004
20
195.481003
30
1015.697998
70
192
0
VERTEX
8
OBJECT__58
10
274.984985
20
156.764008
30
1015.697998
70
192
0
VERTEX
8
OBJECT__58
10
355.419006
20
195.322998
30
1006.398010
70
192
0
VERTEX
8
OBJECT__58
10
219.348007
20
86.997002
30
1015.697998
70
192
0
VERTEX
8
OBJECT__58
10
275.085999
20
156.636993
30
1006.398010
70
192
0
VERTEX
8
OBJECT__58
10
219.494003
20
86.927002
30
1006.398010
70
192
0
VERTEX
8
OBJECT__58
10
199.654007
20
0.000000
30
1006.398010
70
192
0
VERTEX
8
OBJECT__58
10
219.348007
20
-86.997002
30
1015.697998
70
192
0
VERTEX
8
OBJECT__58
10
199.492004
20
0.000000
30
1015.697998
70
192
0
VERTEX
8
OBJECT__58
10
274.984985
20
-156.764008
30
1015.697998
70
192
0
VERTEX
8
OBJECT__58
10
219.494003
20
-86.927002
30
1006.398010
70
192
0
VERTEX
8
OBJECT__58
10
355.382996
20
-195.481003
30
1015.697998
70
192
0
VERTEX
8
OBJECT__58
10
275.085999
20
-156.636993
30
1006.398010
70
192
0
VERTEX
8
OBJECT__58
10
355.419006
20
-195.322998
30
1006.398010
70
192
0
VERTEX
8
OBJECT__58
10
444.580994
20
-195.322998
30
1006.398010
70
192
0
VERTEX
8
OBJECT__58
10
525.015015
20
-156.764008
30
1015.697998
70
192
0
VERTEX
8
OBJECT__58
10
444.617004
20
-195.481003
30
1015.697998
70
192
0
VERTEX
8
OBJECT__58
10
580.651978
20
-86.997002
30
1015.697998
70
192
0
VERTEX
8
OBJECT__58
10
524.914001
20
-156.636993
30
1006.398010
70
192
0
VERTEX
8
OBJECT__58
10
580.505981
20
-86.927002
30
1006.398010
70
192
0
VERTEX
8
OBJECT__58
10
0
20
0
30
0
70
128
71
1
72
2
73
3
0
VERTEX
8
OBJECT__58
10
0
20
0
30
0
70
128
71
1
72
4
73
5
0
VERTEX
8
OBJECT__58
10
0
20
0
30
0
70
128
71
6
72
5
73
7
0
VERTEX
8
OBJECT__58
10
0
20
0
30
0
70
128
71
8
72
9
73
7
0
VERTEX
8
OBJECT__58
10
0
20
0
30
0
70
128
71
10
72
8
73
11
0
VERTEX
8
OBJECT__58
10
0
20
0
30
0
70
128
71
12
72
10
73
13
0
VERTEX
8
OBJECT__58
10
0
20
0
30
0
70
128
71
12
72
14
73
15
0
VERTEX
8
OBJECT__58
10
0
20
0
30
0
70
128
71
16
72
17
73
15
0
VERTEX
8
OBJECT__58
10
0
20
0
30
0
70
128
71
18
72
16
73
19
0
VERTEX
8
OBJECT__58
10
0
20
0
30
0
70
128
71
20
72
18
73
21
0
VERTEX
8
OBJECT__58
10
0
20
0
30
0
70
128
71
20
72
22
73
23
0
VERTEX
8
OBJECT__58
10
0
20
0
30
0
70
128
71
24
72
25
73
23
0
VERTEX
8
OBJECT__58
10
0
20
0
30
0
70
128
71
26
72
24
73
27
0
VERTEX
8
OBJECT__58
10
0
20
0
30
0
70
128
71
2
72
26
73
28
0
VERTEX
8
OBJECT__58
10
0
20
0
30
0
70
128
71
28
72
3
73
2
0
VERTEX
8
OBJECT__58
10
0
20
0
30
0
70
128
71
27
72
28
73
26
0
VERTEX
8
OBJECT__58
10
0
20
0
30
0
70
128
71
23
72
27
73
24
0
VERTEX
8
OBJECT__58
10
0
20
0
30
0
70
128
71
23
72
25
73
20
0
VERTEX
8
OBJECT__58
10
0
20
0
30
0
70
128
71
21
72
22
73
20
0
VERTEX
8
OBJECT__58
10
0
20
0
30
0
70
128
71
19
72
21
73
18
0
VERTEX
8
OBJECT__58
10
0
20
0
30
0
70
128
71
15
72
19
73
16
0
VERTEX
8
OBJECT__58
10
0
20
0
30
0
70
128
71
15
72
17
73
12
0
VERTEX
8
OBJECT__58
10
0
20
0
30
0
70
128
71
13
72
14
73
12
0
VERTEX
8
OBJECT__58
10
0
20
0
30
0
70
128
71
11
72
13
73
10
0
VERTEX
8
OBJECT__58
10
0
20
0
30
0
70
128
71
7
72
11
73
8
0
VERTEX
8
OBJECT__58
10
0
20
0
30
0
70
128
71
7
72
9
73
6
0
VERTEX
8
OBJECT__58
10
0
20
0
30
0
70
128
71
5
72
6
73
1
0
VERTEX
8
OBJECT__58
10
0
20
0
30
0
70
128
71
3
72
4
73
1
0
SEQEND
8
OBJECT__58
0
POLYLINE
8
OBJECT__59
66
1
70
64
71
28
72
28
62
253
0
VERTEX
8
OBJECT__59
10
600.346008
20
0.000000
30
1006.398010
70
192
0
VERTEX
8
OBJECT__59
10
595.604980
20
0.000000
30
1006.398010
70
192
0
VERTEX
8
OBJECT__59
10
576.234009
20
84.870003
30
1006.398010
70
192
0
VERTEX
8
OBJECT__59
10
580.505981
20
-86.927002
30
1006.398010
70
192
0
VERTEX
8
OBJECT__59
10
576.234009
20
-84.870003
30
1006.398010
70
192
0
VERTEX
8
OBJECT__59
10
524.914001
20
-156.636993
30
1006.398010
70
192
0
VERTEX
8
OBJECT__59
10
521.958008
20
-152.929993
30
1006.398010
70
192
0
VERTEX
8
OBJECT__59
10
444.580994
20
-195.322998
30
1006.398010
70
192
0
VERTEX
8
OBJECT__59
10
443.526001
20
-190.701004
30
1006.398010
70
192
0
VERTEX
8
OBJECT__59
10
355.419006
20
-195.322998
30
1006.398010
70
192
0
VERTEX
8
OBJECT__59
10
356.473999
20
-190.701004
30
1006.398010
70
192
0
VERTEX
8
OBJECT__59
10
199.654007
20
0.000000
30
1006.398010
70
192
0
VERTEX
8
OBJECT__59
10
219.494003
20
86.927002
30
1006.398010
70
192
0
VERTEX
8
OBJECT__59
10
223.766006
20
84.870003
30
1006.398010
70
192
0
VERTEX
8
OBJECT__59
10
275.085999
20
156.636993
30
1006.398010
70
192
0
VERTEX
8
OBJECT__59
10
278.041992
20
152.929993
30
1006.398010
70
192
0
VERTEX
8
OBJECT__59
10
355.419006
20
195.322998
30
1006.398010
70
192
0
VERTEX
8
OBJECT__59
10
356.473999
20
190.701004
30
1006.398010
70
192
0
VERTEX
8
OBJECT__59
10
444.580994
20
195.322998
30
1006.398010
70
192
0
VERTEX
8
OBJECT__59
10
443.526001
20
190.701004
30
1006.398010
70
192
0
VERTEX
8
OBJECT__59
10
275.085999
20
-156.636993
30
1006.398010
70
192
0
VERTEX
8
OBJECT__59
10
278.041992
20
-152.929993
30
1006.398010
70
192
0
VERTEX
8
OBJECT__59
10
219.494003
20
-86.927002
30
1006.398010
70
192
0
VERTEX
8
OBJECT__59
10
223.766006
20
-84.870003
30
1006.398010
70
192
0
VERTEX
8
OBJECT__59
10
524.914001
20
156.636993
30
1006.398010
70
192
0
VERTEX
8
OBJECT__59
10
521.958008
20
152.929993
30
1006.398010
70
192
0
VERTEX
8
OBJECT__59
10
580.505981
20
86.927002
30
1006.398010
70
192
0
VERTEX
8
OBJECT__59
10
204.395004
20
0.000000
30
1006.398010
70
192
0
VERTEX
8
OBJECT__59
10
0
20
0
30
0
70
128
71
1
72
2
73
3
0
VERTEX
8
OBJECT__59
10
0
20
0
30
0
70
128
71
4
72
5
73
2
0
VERTEX
8
OBJECT__59
10
0
20
0
30
0
70
128
71
2
72
1
73
4
0
VERTEX
8
OBJECT__59
10
0
20
0
30
0
70
128
71
4
72
6
73
7
0
VERTEX
8
OBJECT__59
10
0
20
0
30
0
70
128
71
6
72
8
73
9
0
VERTEX
8
OBJECT__59
10
0
20
0
30
0
70
128
71
8
72
10
73
11
0
VERTEX
8
OBJECT__59
10
0
20
0
30
0
70
128
71
12
72
13
73
14
0
VERTEX
8
OBJECT__59
10
0
20
0
30
0
70
128
71
13
72
15
73
16
0
VERTEX
8
OBJECT__59
10
0
20
0
30
0
70
128
71
15
72
17
73
18
0
VERTEX
8
OBJECT__59
10
0
20
0
30
0
70
128
71
17
72
19
73
20
0
VERTEX
8
OBJECT__59
10
0
20
0
30
0
70
128
71
7
72
5
73
4
0
VERTEX
8
OBJECT__59
10
0
20
0
30
0
70
128
71
11
72
9
73
8
0
VERTEX
8
OBJECT__59
10
0
20
0
30
0
70
128
71
21
72
22
73
11
0
VERTEX
8
OBJECT__59
10
0
20
0
30
0
70
128
71
21
72
23
73
24
0
VERTEX
8
OBJECT__59
10
0
20
0
30
0
70
128
71
16
72
14
73
13
0
VERTEX
8
OBJECT__59
10
0
20
0
30
0
70
128
71
20
72
18
73
17
0
VERTEX
8
OBJECT__59
10
0
20
0
30
0
70
128
71
19
72
25
73
26
0
VERTEX
8
OBJECT__59
10
0
20
0
30
0
70
128
71
25
72
27
73
3
0
VERTEX
8
OBJECT__59
10
0
20
0
30
0
70
128
71
9
72
7
73
6
0
VERTEX
8
OBJECT__59
10
0
20
0
30
0
70
128
71
24
72
22
73
21
0
VERTEX
8
OBJECT__59
10
0
20
0
30
0
70
128
71
18
72
16
73
15
0
VERTEX
8
OBJECT__59
10
0
20
0
30
0
70
128
71
3
72
26
73
25
0
VERTEX
8
OBJECT__59
10
0
20
0
30
0
70
128
71
11
72
10
73
21
0
VERTEX
8
OBJECT__59
10
0
20
0
30
0
70
128
71
12
72
28
73
24
0
VERTEX
8
OBJECT__59
10
0
20
0
30
0
70
128
71
26
72
20
73
19
0
VERTEX
8
OBJECT__59
10
0
20
0
30
0
70
128
71
24
72
23
73
12
0
VERTEX
8
OBJECT__59
10
0
20
0
30
0
70
128
71
3
72
27
73
1
0
VERTEX
8
OBJECT__59
10
0
20
0
30
0
70
128
71
14
72
28
73
12
0
SEQEND
8
OBJECT__59
0
POLYLINE
8
OBJECT__60
66
1
70
64
71
28
72
28
62
253
0
VERTEX
8
OBJECT__60
10
576.234009
20
84.870003
30
1006.398010
70
192
0
VERTEX
8
OBJECT__60
10
595.604980
20
0.000000
30
1006.398010
70
192
0
VERTEX
8
OBJECT__60
10
595.471008
20
0.000000
30
998.697998
70
192
0
VERTEX
8
OBJECT__60
10
521.958008
20
152.929993
30
1006.398010
70
192
0
VERTEX
8
OBJECT__60
10
576.112976
20
84.810997
30
998.697998
70
192
0
VERTEX
8
OBJECT__60
10
443.526001
20
190.701004
30
1006.398010
70
192
0
VERTEX
8
OBJECT__60
10
521.874023
20
152.824997
30
998.697998
70
192
0
VERTEX
8
OBJECT__60
10
356.473999
20
190.701004
30
1006.398010
70
192
0
VERTEX
8
OBJECT__60
10
443.496002
20
190.570007
30
998.697998
70
192
0
VERTEX
8
OBJECT__60
10
356.503998
20
190.570007
30
998.697998
70
192
0
VERTEX
8
OBJECT__60
10
278.126007
20
152.824997
30
998.697998
70
192
0
VERTEX
8
OBJECT__60
10
223.766006
20
84.870003
30
1006.398010
70
192
0
VERTEX
8
OBJECT__60
10
278.041992
20
152.929993
30
1006.398010
70
192
0
VERTEX
8
OBJECT__60
10
204.395004
20
0.000000
30
1006.398010
70
192
0
VERTEX
8
OBJECT__60
10
223.886993
20
84.810997
30
998.697998
70
192
0
VERTEX
8
OBJECT__60
10
204.529007
20
0.000000
30
998.697998
70
192
0
VERTEX
8
OBJECT__60
10
223.886993
20
-84.810997
30
998.697998
70
192
0
VERTEX
8
OBJECT__60
10
278.041992
20
-152.929993
30
1006.398010
70
192
0
VERTEX
8
OBJECT__60
10
223.766006
20
-84.870003
30
1006.398010
70
192
0
VERTEX
8
OBJECT__60
10
356.473999
20
-190.701004
30
1006.398010
70
192
0
VERTEX
8
OBJECT__60
10
278.126007
20
-152.824997
30
998.697998
70
192
0
VERTEX
8
OBJECT__60
10
443.526001
20
-190.701004
30
1006.398010
70
192
0
VERTEX
8
OBJECT__60
10
356.503998
20
-190.570007
30
998.697998
70
192
0
VERTEX
8
OBJECT__60
10
521.958008
20
-152.929993
30
1006.398010
70
192
0
VERTEX
8
OBJECT__60
10
443.496002
20
-190.570007
30
998.697998
70
192
0
VERTEX
8
OBJECT__60
10
576.234009
20
-84.870003
30
1006.398010
70
192
0
VERTEX
8
OBJECT__60
10
521.874023
20
-152.824997
30
998.697998
70
192
0
VERTEX
8
OBJECT__60
10
576.112976
20
-84.810997
30
998.697998
70
192
0
VERTEX
8
OBJECT__60
10
0
20
0
30
0
70
128
71
1
72
2
73
3
0
VERTEX
8
OBJECT__60
10
0
20
0
30
0
70
128
71
4
72
1
73
5
0
VERTEX
8
OBJECT__60
10
0
20
0
30
0
70
128
71
6
72
4
73
7
0
VERTEX
8
OBJECT__60
10
0
20
0
30
0
70
128
71
8
72
6
73
9
0
VERTEX
8
OBJECT__60
10
0
20
0
30
0
70
128
71
8
72
10
73
11
0
VERTEX
8
OBJECT__60
10
0
20
0
30
0
70
128
71
12
72
13
73
11
0
VERTEX
8
OBJECT__60
10
0
20
0
30
0
70
128
71
14
72
12
73
15
0
VERTEX
8
OBJECT__60
10
0
20
0
30
0
70
128
71
14
72
16
73
17
0
VERTEX
8
OBJECT__60
10
0
20
0
30
0
70
128
71
18
72
19
73
17
0
VERTEX
8
OBJECT__60
10
0
20
0
30
0
70
128
71
20
72
18
73
21
0
VERTEX
8
OBJECT__60
10
0
20
0
30
0
70
128
71
22
72
20
73
23
0
VERTEX
8
OBJECT__60
10
0
20
0
30
0
70
128
71
24
72
22
73
25
0
VERTEX
8
OBJECT__60
10
0
20
0
30
0
70
128
71
26
72
24
73
27
0
VERTEX
8
OBJECT__60
10
0
20
0
30
0
70
128
71
2
72
26
73
28
0
VERTEX
8
OBJECT__60
10
0
20
0
30
0
70
128
71
28
72
3
73
2
0
VERTEX
8
OBJECT__60
10
0
20
0
30
0
70
128
71
27
72
28
73
26
0
VERTEX
8
OBJECT__60
10
0
20
0
30
0
70
128
71
25
72
27
73
24
0
VERTEX
8
OBJECT__60
10
0
20
0
30
0
70
128
71
23
72
25
73
22
0
VERTEX
8
OBJECT__60
10
0
20
0
30
0
70
128
71
21
72
23
73
20
0
VERTEX
8
OBJECT__60
10
0
20
0
30
0
70
128
71
17
72
21
73
18
0
VERTEX
8
OBJECT__60
10
0
20
0
30
0
70
128
71
17
72
19
73
14
0
VERTEX
8
OBJECT__60
10
0
20
0
30
0
70
128
71
15
72
16
73
14
0
VERTEX
8
OBJECT__60
10
0
20
0
30
0
70
128
71
11
72
15
73
12
0
VERTEX
8
OBJECT__60
10
0
20
0
30
0
70
128
71
11
72
13
73
8
0
VERTEX
8
OBJECT__60
10
0
20
0
30
0
70
128
71
9
72
10
73
8
0
VERTEX
8
OBJECT__60
10
0
20
0
30
0
70
128
71
7
72
9
73
6
0
VERTEX
8
OBJECT__60
10
0
20
0
30
0
70
128
71
5
72
7
73
4
0
VERTEX
8
OBJECT__60
10
0
20
0
30
0
70
128
71
3
72
5
73
1
0
SEQEND
8
OBJECT__60
0
POLYLINE
8
OBJECT__61
66
1
70
64
71
31
72
31
62
253
0
VERTEX
8
OBJECT__61
10
223.886993
20
84.810997
30
998.697998
70
192
0
VERTEX
8
OBJECT__61
10
243.985001
20
96.599998
30
998.697998
70
192
0
VERTEX
8
OBJECT__61
10
219.623993
20
33.717999
30
998.697998
70
192
0
VERTEX
8
OBJECT__61
10
278.126007
20
152.824997
30
998.697998
70
192
0
VERTEX
8
OBJECT__61
10
289.416992
20
146.436005
30
998.697998
70
192
0
VERTEX
8
OBJECT__61
10
595.471008
20
0.000000
30
998.697998
70
192
0
VERTEX
8
OBJECT__61
10
576.112976
20
-84.810997
30
998.697998
70
192
0
VERTEX
8
OBJECT__61
10
571.109009
20
-66.288002
30
998.697998
70
192
0
VERTEX
8
OBJECT__61
10
521.874023
20
-152.824997
30
998.697998
70
192
0
VERTEX
8
OBJECT__61
10
535.607971
20
-123.623001
30
998.697998
70
192
0
VERTEX
8
OBJECT__61
10
356.503998
20
-190.570007
30
998.697998
70
192
0
VERTEX
8
OBJECT__61
10
349.782990
20
-176.494995
30
998.697998
70
192
0
VERTEX
8
OBJECT__61
10
416.931000
20
-182.716995
30
998.697998
70
192
0
VERTEX
8
OBJECT__61
10
278.126007
20
-152.824997
30
998.697998
70
192
0
VERTEX
8
OBJECT__61
10
289.416992
20
-146.436005
30
998.697998
70
192
0
VERTEX
8
OBJECT__61
10
356.503998
20
190.570007
30
998.697998
70
192
0
VERTEX
8
OBJECT__61
10
349.782990
20
176.494995
30
998.697998
70
192
0
VERTEX
8
OBJECT__61
10
576.112976
20
84.810997
30
998.697998
70
192
0
VERTEX
8
OBJECT__61
10
571.109009
20
66.288002
30
998.697998
70
192
0
VERTEX
8
OBJECT__61
10
535.607971
20
123.623001
30
998.697998
70
192
0
VERTEX
8
OBJECT__61
10
583.500000
20
0.000000
30
998.697998
70
192
0
VERTEX
8
OBJECT__61
10
443.496002
20
-190.570007
30
998.697998
70
192
0
VERTEX
8
OBJECT__61
10
481.792999
20
-164.261993
30
998.697998
70
192
0
VERTEX
8
OBJECT__61
10
223.886993
20
-84.810997
30
998.697998
70
192
0
VERTEX
8
OBJECT__61
10
243.985001
20
-96.599998
30
998.697998
70
192
0
VERTEX
8
OBJECT__61
10
204.529007
20
0.000000
30
998.697998
70
192
0
VERTEX
8
OBJECT__61
10
219.623993
20
-33.717999
30
998.697998
70
192
0
VERTEX
8
OBJECT__61
10
443.496002
20
190.570007
30
998.697998
70
192
0
VERTEX
8
OBJECT__61
10
416.931000
20
182.716995
30
998.697998
70
192
0
VERTEX
8
OBJECT__61
10
521.874023
20
152.824997
30
998.697998
70
192
0
VERTEX
8
OBJECT__61
10
481.792999
20
164.261993
30
998.697998
70
192
0
VERTEX
8
OBJECT__61
10
0
20
0
30
0
70
128
71
1
72
2
73
3
0
VERTEX
8
OBJECT__61
10
0
20
0
30
0
70
128
71
4
72
5
73
2
0
VERTEX
8
OBJECT__61
10
0
20
0
30
0
70
128
71
6
72
7
73
8
0
VERTEX
8
OBJECT__61
10
0
20
0
30
0
70
128
71
7
72
9
73
10
0
VERTEX
8
OBJECT__61
10
0
20
0
30
0
70
128
71
11
72
12
73
13
0
VERTEX
8
OBJECT__61
10
0
20
0
30
0
70
128
71
14
72
15
73
12
0
VERTEX
8
OBJECT__61
10
0
20
0
30
0
70
128
71
2
72
1
73
4
0
VERTEX
8
OBJECT__61
10
0
20
0
30
0
70
128
71
4
72
16
73
17
0
VERTEX
8
OBJECT__61
10
0
20
0
30
0
70
128
71
18
72
19
73
20
0
VERTEX
8
OBJECT__61
10
0
20
0
30
0
70
128
71
6
72
21
73
19
0
VERTEX
8
OBJECT__61
10
0
20
0
30
0
70
128
71
10
72
8
73
7
0
VERTEX
8
OBJECT__61
10
0
20
0
30
0
70
128
71
22
72
13
73
23
0
VERTEX
8
OBJECT__61
10
0
20
0
30
0
70
128
71
12
72
11
73
14
0
VERTEX
8
OBJECT__61
10
0
20
0
30
0
70
128
71
14
72
24
73
25
0
VERTEX
8
OBJECT__61
10
0
20
0
30
0
70
128
71
24
72
26
73
27
0
VERTEX
8
OBJECT__61
10
0
20
0
30
0
70
128
71
17
72
5
73
4
0
VERTEX
8
OBJECT__61
10
0
20
0
30
0
70
128
71
16
72
28
73
29
0
VERTEX
8
OBJECT__61
10
0
20
0
30
0
70
128
71
28
72
30
73
31
0
VERTEX
8
OBJECT__61
10
0
20
0
30
0
70
128
71
20
72
30
73
18
0
VERTEX
8
OBJECT__61
10
0
20
0
30
0
70
128
71
8
72
21
73
6
0
VERTEX
8
OBJECT__61
10
0
20
0
30
0
70
128
71
23
72
9
73
22
0
VERTEX
8
OBJECT__61
10
0
20
0
30
0
70
128
71
25
72
15
73
14
0
VERTEX
8
OBJECT__61
10
0
20
0
30
0
70
128
71
26
72
3
73
27
0
VERTEX
8
OBJECT__61
10
0
20
0
30
0
70
128
71
29
72
17
73
16
0
VERTEX
8
OBJECT__61
10
0
20
0
30
0
70
128
71
20
72
31
73
30
0
VERTEX
8
OBJECT__61
10
0
20
0
30
0
70
128
71
23
72
10
73
9
0
VERTEX
8
OBJECT__61
10
0
20
0
30
0
70
128
71
27
72
25
73
24
0
VERTEX
8
OBJECT__61
10
0
20
0
30
0
70
128
71
31
72
29
73
28
0
VERTEX
8
OBJECT__61
10
0
20
0
30
0
70
128
71
13
72
22
73
11
0
VERTEX
8
OBJECT__61
10
0
20
0
30
0
70
128
71
19
72
18
73
6
0
VERTEX
8
OBJECT__61
10
0
20
0
30
0
70
128
71
3
72
26
73
1
0
SEQEND
8
OBJECT__61
0
POLYLINE
8
OBJECT__62
66
1
70
64
71
6
72
4
62
253
0
VERTEX
8
OBJECT__62
10
-72.000999
20
39.987000
30
-30.299999
70
192
0
VERTEX
8
OBJECT__62
10
-72.000999
20
110.013000
30
-30.299999
70
192
0
VERTEX
8
OBJECT__62
10
-72.000999
20
92.507004
30
-60.622002
70
192
0
VERTEX
8
OBJECT__62
10
-72.000999
20
57.493000
30
0.022000
70
192
0
VERTEX
8
OBJECT__62
10
-72.000999
20
92.507004
30
0.022000
70
192
0
VERTEX
8
OBJECT__62
10
-72.000999
20
57.493000
30
-60.622002
70
192
0
VERTEX
8
OBJECT__62
10
0
20
0
30
0
70
128
71
1
72
2
73
3
0
VERTEX
8
OBJECT__62
10
0
20
0
30
0
70
128
71
2
72
1
73
4
0
VERTEX
8
OBJECT__62
10
0
20
0
30
0
70
128
71
4
72
5
73
2
0
VERTEX
8
OBJECT__62
10
0
20
0
30
0
70
128
71
3
72
6
73
1
0
SEQEND
8
OBJECT__62
0
POLYLINE
8
OBJECT__63
66
1
70
64
71
18
72
18
62
253
0
VERTEX
8
OBJECT__63
10
-72.000999
20
39.987000
30
-30.299999
70
192
0
VERTEX
8
OBJECT__63
10
-39.383999
20
40.841000
30
-30.299999
70
192
0
VERTEX
8
OBJECT__63
10
-39.383999
20
50.846001
30
-6.146000
70
192
0
VERTEX
8
OBJECT__63
10
-72.000999
20
57.493000
30
0.022000
70
192
0
VERTEX
8
OBJECT__63
10
-39.383999
20
58.804001
30
-2.850000
70
192
0
VERTEX
8
OBJECT__63
10
-39.383999
20
75.000000
30
3.859000
70
192
0
VERTEX
8
OBJECT__63
10
-72.000999
20
92.507004
30
0.022000
70
192
0
VERTEX
8
OBJECT__63
10
-72.000999
20
110.013000
30
-30.299999
70
192
0
VERTEX
8
OBJECT__63
10
-39.383999
20
99.153999
30
-6.146000
70
192
0
VERTEX
8
OBJECT__63
10
-39.383999
20
91.195999
30
-2.850000
70
192
0
VERTEX
8
OBJECT__63
10
-39.383999
20
109.158997
30
-30.299999
70
192
0
VERTEX
8
OBJECT__63
10
-39.383999
20
99.153999
30
-54.453999
70
192
0
VERTEX
8
OBJECT__63
10
-72.000999
20
92.507004
30
-60.622002
70
192
0
VERTEX
8
OBJECT__63
10
-72.000999
20
57.493000
30
-60.622002
70
192
0
VERTEX
8
OBJECT__63
10
-39.383999
20
75.000000
30
-64.459000
70
192
0
VERTEX
8
OBJECT__63
10
-39.383999
20
91.195999
30
-57.750000
70
192
0
VERTEX
8
OBJECT__63
10
-39.383999
20
50.846001
30
-54.453999
70
192
0
VERTEX
8
OBJECT__63
10
-39.383999
20
58.804001
30
-57.750000
70
192
0
VERTEX
8
OBJECT__63
10
0
20
0
30
0
70
128
71
1
72
2
73
3
0
VERTEX
8
OBJECT__63
10
0
20
0
30
0
70
128
71
3
72
4
73
1
0
VERTEX
8
OBJECT__63
10
0
20
0
30
0
70
128
71
4
72
5
73
6
0
VERTEX
8
OBJECT__63
10
0
20
0
30
0
70
128
71
6
72
7
73
4
0
VERTEX
8
OBJECT__63
10
0
20
0
30
0
70
128
71
8
72
7
73
9
0
VERTEX
8
OBJECT__63
10
0
20
0
30
0
70
128
71
7
72
10
73
9
0
VERTEX
8
OBJECT__63
10
0
20
0
30
0
70
128
71
8
72
11
73
12
0
VERTEX
8
OBJECT__63
10
0
20
0
30
0
70
128
71
12
72
13
73
8
0
VERTEX
8
OBJECT__63
10
0
20
0
30
0
70
128
71
14
72
13
73
15
0
VERTEX
8
OBJECT__63
10
0
20
0
30
0
70
128
71
13
72
16
73
15
0
VERTEX
8
OBJECT__63
10
0
20
0
30
0
70
128
71
1
72
14
73
17
0
VERTEX
8
OBJECT__63
10
0
20
0
30
0
70
128
71
14
72
18
73
17
0
VERTEX
8
OBJECT__63
10
0
20
0
30
0
70
128
71
17
72
2
73
1
0
VERTEX
8
OBJECT__63
10
0
20
0
30
0
70
128
71
15
72
18
73
14
0
VERTEX
8
OBJECT__63
10
0
20
0
30
0
70
128
71
12
72
16
73
13
0
VERTEX
8
OBJECT__63
10
0
20
0
30
0
70
128
71
9
72
11
73
8
0
VERTEX
8
OBJECT__63
10
0
20
0
30
0
70
128
71
6
72
10
73
7
0
VERTEX
8
OBJECT__63
10
0
20
0
30
0
70
128
71
3
72
5
73
4
0
SEQEND
8
OBJECT__63
0
POLYLINE
8
OBJECT__65
66
1
70
64
71
13
72
12
62
253
0
VERTEX
8
OBJECT__65
10
-38.800999
20
75.000000
30
-30.299999
70
192
0
VERTEX
8
OBJECT__65
10
-39.383999
20
75.000000
30
3.859000
70
192
0
VERTEX
8
OBJECT__65
10
-39.383999
20
58.804001
30
-2.850000
70
192
0
VERTEX
8
OBJECT__65
10
-39.383999
20
50.846001
30
-54.453999
70
192
0
VERTEX
8
OBJECT__65
10
-39.383999
20
58.804001
30
-57.750000
70
192
0
VERTEX
8
OBJECT__65
10
-39.383999
20
75.000000
30
-64.459000
70
192
0
VERTEX
8
OBJECT__65
10
-39.383999
20
91.195999
30
-57.750000
70
192
0
VERTEX
8
OBJECT__65
10
-39.383999
20
99.153999
30
-6.146000
70
192
0
VERTEX
8
OBJECT__65
10
-39.383999
20
91.195999
30
-2.850000
70
192
0
VERTEX
8
OBJECT__65
10
-39.383999
20
109.158997
30
-30.299999
70
192
0
VERTEX
8
OBJECT__65
10
-39.383999
20
99.153999
30
-54.453999
70
192
0
VERTEX
8
OBJECT__65
10
-39.383999
20
40.841000
30
-30.299999
70
192
0
VERTEX
8
OBJECT__65
10
-39.383999
20
50.846001
30
-6.146000
70
192
0
VERTEX
8
OBJECT__65
10
0
20
0
30
0
70
128
71
1
72
2
73
3
0
VERTEX
8
OBJECT__65
10
0
20
0
30
0
70
128
71
1
72
4
73
5
0
VERTEX
8
OBJECT__65
10
0
20
0
30
0
70
128
71
1
72
6
73
7
0
VERTEX
8
OBJECT__65
10
0
20
0
30
0
70
128
71
1
72
8
73
9
0
VERTEX
8
OBJECT__65
10
0
20
0
30
0
70
128
71
9
72
2
73
1
0
VERTEX
8
OBJECT__65
10
0
20
0
30
0
70
128
71
1
72
10
73
8
0
VERTEX
8
OBJECT__65
10
0
20
0
30
0
70
128
71
1
72
11
73
10
0
VERTEX
8
OBJECT__65
10
0
20
0
30
0
70
128
71
7
72
11
73
1
0
VERTEX
8
OBJECT__65
10
0
20
0
30
0
70
128
71
5
72
6
73
1
0
VERTEX
8
OBJECT__65
10
0
20
0
30
0
70
128
71
1
72
12
73
4
0
VERTEX
8
OBJECT__65
10
0
20
0
30
0
70
128
71
1
72
13
73
12
0
VERTEX
8
OBJECT__65
10
0
20
0
30
0
70
128
71
3
72
13
73
1
0
SEQEND
8
OBJECT__65
0
POLYLINE
8
OBJECT__66
66
1
70
64
71
8
72
8
62
253
0
VERTEX
8
OBJECT__66
10
0.000000
20
55.750000
30
230.899994
70
192
0
VERTEX
8
OBJECT__66
10
0.000000
20
55.750000
30
230.399994
70
192
0
VERTEX
8
OBJECT__66
10
-6.500000
20
49.250000
30
230.399994
70
192
0
VERTEX
8
OBJECT__66
10
6.500000
20
49.250000
30
230.899994
70
192
0
VERTEX
8
OBJECT__66
10
6.500000
20
49.250000
30
230.399994
70
192
0
VERTEX
8
OBJECT__66
10
0.000000
20
42.750000
30
230.899994
70
192
0
VERTEX
8
OBJECT__66
10
0.000000
20
42.750000
30
230.399994
70
192
0
VERTEX
8
OBJECT__66
10
-6.500000
20
49.250000
30
230.899994
70
192
0
VERTEX
8
OBJECT__66
10
0
20
0
30
0
70
128
71
1
72
2
73
3
0
VERTEX
8
OBJECT__66
10
0
20
0
30
0
70
128
71
4
72
5
73
2
0
VERTEX
8
OBJECT__66
10
0
20
0
30
0
70
128
71
6
72
7
73
5
0
VERTEX
8
OBJECT__66
10
0
20
0
30
0
70
128
71
8
72
3
73
7
0
VERTEX
8
OBJECT__66
10
0
20
0
30
0
70
128
71
7
72
6
73
8
0
VERTEX
8
OBJECT__66
10
0
20
0
30
0
70
128
71
5
72
4
73
6
0
VERTEX
8
OBJECT__66
10
0
20
0
30
0
70
128
71
2
72
1
73
4
0
VERTEX
8
OBJECT__66
10
0
20
0
30
0
70
128
71
3
72
8
73
1
0
SEQEND
8
OBJECT__66
0
POLYLINE
8
OBJECT__67
66
1
70
64
71
8
72
8
62
253
0
VERTEX
8
OBJECT__67
10
-6.500000
20
49.250000
30
230.399994
70
192
0
VERTEX
8
OBJECT__67
10
0.000000
20
55.750000
30
230.399994
70
192
0
VERTEX
8
OBJECT__67
10
0.000000
20
55.250000
30
229.899994
70
192
0
VERTEX
8
OBJECT__67
10
6.500000
20
49.250000
30
230.399994
70
192
0
VERTEX
8
OBJECT__67
10
6.000000
20
49.250000
30
229.899994
70
192
0
VERTEX
8
OBJECT__67
10
0.000000
20
42.750000
30
230.399994
70
192
0
VERTEX
8
OBJECT__67
10
0.000000
20
43.250000
30
229.899994
70
192
0
VERTEX
8
OBJECT__67
10
-6.000000
20
49.250000
30
229.899994
70
192
0
VERTEX
8
OBJECT__67
10
0
20
0
30
0
70
128
71
1
72
2
73
3
0
VERTEX
8
OBJECT__67
10
0
20
0
30
0
70
128
71
2
72
4
73
5
0
VERTEX
8
OBJECT__67
10
0
20
0
30
0
70
128
71
4
72
6
73
7
0
VERTEX
8
OBJECT__67
10
0
20
0
30
0
70
128
71
6
72
1
73
8
0
VERTEX
8
OBJECT__67
10
0
20
0
30
0
70
128
71
8
72
7
73
6
0
VERTEX
8
OBJECT__67
10
0
20
0
30
0
70
128
71
7
72
5
73
4
0
VERTEX
8
OBJECT__67
10
0
20
0
30
0
70
128
71
5
72
3
73
2
0
VERTEX
8
OBJECT__67
10
0
20
0
30
0
70
128
71
3
72
8
73
1
0
SEQEND
8
OBJECT__67
0
POLYLINE
8
OBJECT__69
66
1
70
64
71
8
72
8
62
253
0
VERTEX
8
OBJECT__69
10
6.000000
20
49.250000
30
229.899994
70
192
0
VERTEX
8
OBJECT__69
10
3.500000
20
49.250000
30
229.899994
70
192
0
VERTEX
8
OBJECT__69
10
0.000000
20
52.750000
30
229.899994
70
192
0
VERTEX
8
OBJECT__69
10
0.000000
20
43.250000
30
229.899994
70
192
0
VERTEX
8
OBJECT__69
10
0.000000
20
45.750000
30
229.899994
70
192
0
VERTEX
8
OBJECT__69
10
-6.000000
20
49.250000
30
229.899994
70
192
0
VERTEX
8
OBJECT__69
10
0.000000
20
55.250000
30
229.899994
70
192
0
VERTEX
8
OBJECT__69
10
-3.500000
20
49.250000
30
229.899994
70
192
0
VERTEX
8
OBJECT__69
10
0
20
0
30
0
70
128
71
1
72
2
73
3
0
VERTEX
8
OBJECT__69
10
0
20
0
30
0
70
128
71
1
72
4
73
5
0
VERTEX
8
OBJECT__69
10
0
20
0
30
0
70
128
71
6
72
7
73
3
0
VERTEX
8
OBJECT__69
10
0
20
0
30
0
70
128
71
5
72
2
73
1
0
VERTEX
8
OBJECT__69
10
0
20
0
30
0
70
128
71
3
72
7
73
1
0
VERTEX
8
OBJECT__69
10
0
20
0
30
0
70
128
71
6
72
8
73
5
0
VERTEX
8
OBJECT__69
10
0
20
0
30
0
70
128
71
5
72
4
73
6
0
VERTEX
8
OBJECT__69
10
0
20
0
30
0
70
128
71
3
72
8
73
6
0
SEQEND
8
OBJECT__69
0
POLYLINE
8
OBJECT__70
66
1
70
64
71
8
72
8
62
253
0
VERTEX
8
OBJECT__70
10
0.000000
20
45.750000
30
241.399994
70
192
0
VERTEX
8
OBJECT__70
10
0.000000
20
45.750000
30
229.899994
70
192
0
VERTEX
8
OBJECT__70
10
-3.500000
20
49.250000
30
229.899994
70
192
0
VERTEX
8
OBJECT__70
10
3.500000
20
49.250000
30
241.399994
70
192
0
VERTEX
8
OBJECT__70
10
3.500000
20
49.250000
30
229.899994
70
192
0
VERTEX
8
OBJECT__70
10
0.000000
20
52.750000
30
241.399994
70
192
0
VERTEX
8
OBJECT__70
10
0.000000
20
52.750000
30
229.899994
70
192
0
VERTEX
8
OBJECT__70
10
-3.500000
20
49.250000
30
241.399994
70
192
0
VERTEX
8
OBJECT__70
10
0
20
0
30
0
70
128
71
1
72
2
73
3
0
VERTEX
8
OBJECT__70
10
0
20
0
30
0
70
128
71
4
72
5
73
2
0
VERTEX
8
OBJECT__70
10
0
20
0
30
0
70
128
71
6
72
7
73
5
0
VERTEX
8
OBJECT__70
10
0
20
0
30
0
70
128
71
8
72
3
73
7
0
VERTEX
8
OBJECT__70
10
0
20
0
30
0
70
128
71
7
72
6
73
8
0
VERTEX
8
OBJECT__70
10
0
20
0
30
0
70
128
71
5
72
4
73
6
0
VERTEX
8
OBJECT__70
10
0
20
0
30
0
70
128
71
2
72
1
73
4
0
VERTEX
8
OBJECT__70
10
0
20
0
30
0
70
128
71
3
72
8
73
1
0
SEQEND
8
OBJECT__70
0
POLYLINE
8
OBJECT__71
66
1
70
64
71
12
72
12
62
253
0
VERTEX
8
OBJECT__71
10
388.500000
20
0.000000
30
1035.500000
70
192
0
VERTEX
8
OBJECT__71
10
388.500000
20
0.000000
30
1047.500000
70
192
0
VERTEX
8
OBJECT__71
10
396.446014
20
10.937000
30
1047.500000
70
192
0
VERTEX
8
OBJECT__71
10
400.000000
20
11.500000
30
1035.500000
70
192
0
VERTEX
8
OBJECT__71
10
399.494995
20
9.946000
30
1047.500000
70
192
0
VERTEX
8
OBJECT__71
10
409.303986
20
6.760000
30
1047.500000
70
192
0
VERTEX
8
OBJECT__71
10
411.500000
20
0.000000
30
1035.500000
70
192
0
VERTEX
8
OBJECT__71
10
400.000000
20
-11.500000
30
1035.500000
70
192
0
VERTEX
8
OBJECT__71
10
409.303986
20
-6.760000
30
1047.500000
70
192
0
VERTEX
8
OBJECT__71
10
411.500000
20
0.000000
30
1047.500000
70
192
0
VERTEX
8
OBJECT__71
10
396.446014
20
-10.937000
30
1047.500000
70
192
0
VERTEX
8
OBJECT__71
10
399.494995
20
-9.946000
30
1047.500000
70
192
0
VERTEX
8
OBJECT__71
10
0
20
0
30
0
70
128
71
1
72
2
73
3
0
VERTEX
8
OBJECT__71
10
0
20
0
30
0
70
128
71
3
72
4
73
1
0
VERTEX
8
OBJECT__71
10
0
20
0
30
0
70
128
71
4
72
5
73
6
0
VERTEX
8
OBJECT__71
10
0
20
0
30
0
70
128
71
6
72
7
73
4
0
VERTEX
8
OBJECT__71
10
0
20
0
30
0
70
128
71
8
72
7
73
9
0
VERTEX
8
OBJECT__71
10
0
20
0
30
0
70
128
71
7
72
10
73
9
0
VERTEX
8
OBJECT__71
10
0
20
0
30
0
70
128
71
1
72
8
73
11
0
VERTEX
8
OBJECT__71
10
0
20
0
30
0
70
128
71
8
72
12
73
11
0
VERTEX
8
OBJECT__71
10
0
20
0
30
0
70
128
71
11
72
2
73
1
0
VERTEX
8
OBJECT__71
10
0
20
0
30
0
70
128
71
9
72
12
73
8
0
VERTEX
8
OBJECT__71
10
0
20
0
30
0
70
128
71
6
72
10
73
7
0
VERTEX
8
OBJECT__71
10
0
20
0
30
0
70
128
71
3
72
5
73
4
0
SEQEND
8
OBJECT__71
0
POLYLINE
8
OBJECT__72
66
1
70
64
71
26
72
36
62
253
0
VERTEX
8
OBJECT__72
10
377.972992
20
-10.937000
30
1079.495972
70
192
0
VERTEX
8
OBJECT__72
10
359.500000
20
-10.937000
30
1084.446045
70
192
0
VERTEX
8
OBJECT__72
10
359.500000
20
0.000000
30
1076.500000
70
192
0
VERTEX
8
OBJECT__72
10
374.000000
20
0.000000
30
1072.614990
70
192
0
VERTEX
8
OBJECT__72
10
384.614990
20
0.000000
30
1062.000000
70
192
0
VERTEX
8
OBJECT__72
10
391.496002
20
-10.937000
30
1065.973022
70
192
0
VERTEX
8
OBJECT__72
10
388.500000
20
0.000000
30
1047.500000
70
192
0
VERTEX
8
OBJECT__72
10
359.500000
20
-9.946000
30
1087.494995
70
192
0
VERTEX
8
OBJECT__72
10
384.402008
20
-6.760000
30
1090.630981
70
192
0
VERTEX
8
OBJECT__72
10
359.500000
20
-6.760000
30
1097.303955
70
192
0
VERTEX
8
OBJECT__72
10
402.631012
20
-6.760000
30
1072.401978
70
192
0
VERTEX
8
OBJECT__72
10
399.494995
20
-9.946000
30
1047.500000
70
192
0
VERTEX
8
OBJECT__72
10
396.446014
20
-10.937000
30
1047.500000
70
192
0
VERTEX
8
OBJECT__72
10
384.402008
20
6.760000
30
1090.630981
70
192
0
VERTEX
8
OBJECT__72
10
359.500000
20
0.000000
30
1099.500000
70
192
0
VERTEX
8
OBJECT__72
10
359.500000
20
6.760000
30
1097.303955
70
192
0
VERTEX
8
OBJECT__72
10
402.631012
20
6.760000
30
1072.401978
70
192
0
VERTEX
8
OBJECT__72
10
409.303986
20
-6.760000
30
1047.500000
70
192
0
VERTEX
8
OBJECT__72
10
411.500000
20
0.000000
30
1047.500000
70
192
0
VERTEX
8
OBJECT__72
10
359.500000
20
9.946000
30
1087.494995
70
192
0
VERTEX
8
OBJECT__72
10
377.972992
20
10.937000
30
1079.495972
70
192
0
VERTEX
8
OBJECT__72
10
359.500000
20
10.937000
30
1084.446045
70
192
0
VERTEX
8
OBJECT__72
10
391.496002
20
10.937000
30
1065.973022
70
192
0
VERTEX
8
OBJECT__72
10
399.494995
20
9.946000
30
1047.500000
70
192
0
VERTEX
8
OBJECT__72
10
396.446014
20
10.937000
30
1047.500000
70
192
0
VERTEX
8
OBJECT__72
10
409.303986
20
6.760000
30
1047.500000
70
192
0
VERTEX
8
OBJECT__72
10
0
20
0
30
0
70
128
71
1
72
2
73
3
0
VERTEX
8
OBJECT__72
10
0
20
0
30
0
70
128
71
4
72
5
73
6
0
VERTEX
8
OBJECT__72
10
0
20
0
30
0
70
128
71
6
72
5
73
7
0
VERTEX
8
OBJECT__72
10
0
20
0
30
0
70
128
71
8
72
2
73
1
0
VERTEX
8
OBJECT__72
10
0
20
0
30
0
70
128
71
9
72
10
73
8
0
VERTEX
8
OBJECT__72
10
0
20
0
30
0
70
128
71
1
72
6
73
11
0
VERTEX
8
OBJECT__72
10
0
20
0
30
0
70
128
71
12
72
11
73
6
0
VERTEX
8
OBJECT__72
10
0
20
0
30
0
70
128
71
6
72
13
73
12
0
VERTEX
8
OBJECT__72
10
0
20
0
30
0
70
128
71
9
72
14
73
15
0
VERTEX
8
OBJECT__72
10
0
20
0
30
0
70
128
71
14
72
16
73
15
0
VERTEX
8
OBJECT__72
10
0
20
0
30
0
70
128
71
9
72
11
73
17
0
VERTEX
8
OBJECT__72
10
0
20
0
30
0
70
128
71
11
72
18
73
19
0
VERTEX
8
OBJECT__72
10
0
20
0
30
0
70
128
71
19
72
17
73
11
0
VERTEX
8
OBJECT__72
10
0
20
0
30
0
70
128
71
20
72
14
73
21
0
VERTEX
8
OBJECT__72
10
0
20
0
30
0
70
128
71
21
72
22
73
20
0
VERTEX
8
OBJECT__72
10
0
20
0
30
0
70
128
71
14
72
17
73
23
0
VERTEX
8
OBJECT__72
10
0
20
0
30
0
70
128
71
24
72
25
73
23
0
VERTEX
8
OBJECT__72
10
0
20
0
30
0
70
128
71
17
72
26
73
24
0
VERTEX
8
OBJECT__72
10
0
20
0
30
0
70
128
71
21
72
4
73
3
0
VERTEX
8
OBJECT__72
10
0
20
0
30
0
70
128
71
21
72
23
73
5
0
VERTEX
8
OBJECT__72
10
0
20
0
30
0
70
128
71
23
72
25
73
7
0
VERTEX
8
OBJECT__72
10
0
20
0
30
0
70
128
71
7
72
5
73
23
0
VERTEX
8
OBJECT__72
10
0
20
0
30
0
70
128
71
5
72
4
73
21
0
VERTEX
8
OBJECT__72
10
0
20
0
30
0
70
128
71
3
72
22
73
21
0
VERTEX
8
OBJECT__72
10
0
20
0
30
0
70
128
71
23
72
17
73
24
0
VERTEX
8
OBJECT__72
10
0
20
0
30
0
70
128
71
23
72
21
73
14
0
VERTEX
8
OBJECT__72
10
0
20
0
30
0
70
128
71
20
72
16
73
14
0
VERTEX
8
OBJECT__72
10
0
20
0
30
0
70
128
71
19
72
26
73
17
0
VERTEX
8
OBJECT__72
10
0
20
0
30
0
70
128
71
17
72
14
73
9
0
VERTEX
8
OBJECT__72
10
0
20
0
30
0
70
128
71
15
72
10
73
9
0
VERTEX
8
OBJECT__72
10
0
20
0
30
0
70
128
71
12
72
18
73
11
0
VERTEX
8
OBJECT__72
10
0
20
0
30
0
70
128
71
11
72
9
73
1
0
VERTEX
8
OBJECT__72
10
0
20
0
30
0
70
128
71
1
72
9
73
8
0
VERTEX
8
OBJECT__72
10
0
20
0
30
0
70
128
71
7
72
13
73
6
0
VERTEX
8
OBJECT__72
10
0
20
0
30
0
70
128
71
6
72
1
73
4
0
VERTEX
8
OBJECT__72
10
0
20
0
30
0
70
128
71
3
72
4
73
1
0
SEQEND
8
OBJECT__72
0
POLYLINE
8
OBJECT__74
66
1
70
64
71
16
72
16
62
253
0
VERTEX
8
OBJECT__74
10
359.500000
20
9.946000
30
1087.494995
70
192
0
VERTEX
8
OBJECT__74
10
359.500000
20
10.937000
30
1084.446045
70
192
0
VERTEX
8
OBJECT__74
10
40.500000
20
10.937000
30
1084.446045
70
192
0
VERTEX
8
OBJECT__74
10
40.500000
20
0.000000
30
1076.500000
70
192
0
VERTEX
8
OBJECT__74
10
359.500000
20
0.000000
30
1076.500000
70
192
0
VERTEX
8
OBJECT__74
10
359.500000
20
0.000000
30
1099.500000
70
192
0
VERTEX
8
OBJECT__74
10
359.500000
20
6.760000
30
1097.303955
70
192
0
VERTEX
8
OBJECT__74
10
40.500000
20
6.760000
30
1097.303955
70
192
0
VERTEX
8
OBJECT__74
10
40.500000
20
9.946000
30
1087.494995
70
192
0
VERTEX
8
OBJECT__74
10
40.500000
20
-9.946000
30
1087.494995
70
192
0
VERTEX
8
OBJECT__74
10
359.500000
20
-9.946000
30
1087.494995
70
192
0
VERTEX
8
OBJECT__74
10
359.500000
20
-6.760000
30
1097.303955
70
192
0
VERTEX
8
OBJECT__74
10
40.500000
20
0.000000
30
1099.500000
70
192
0
VERTEX
8
OBJECT__74
10
40.500000
20
-6.760000
30
1097.303955
70
192
0
VERTEX
8
OBJECT__74
10
359.500000
20
-10.937000
30
1084.446045
70
192
0
VERTEX
8
OBJECT__74
10
40.500000
20
-10.937000
30
1084.446045
70
192
0
VERTEX
8
OBJECT__74
10
0
20
0
30
0
70
128
71
1
72
2
73
3
0
VERTEX
8
OBJECT__74
10
0
20
0
30
0
70
128
71
4
72
3
73
2
0
VERTEX
8
OBJECT__74
10
0
20
0
30
0
70
128
71
2
72
5
73
4
0
VERTEX
8
OBJECT__74
10
0
20
0
30
0
70
128
71
6
72
7
73
8
0
VERTEX
8
OBJECT__74
10
0
20
0
30
0
70
128
71
9
72
8
73
7
0
VERTEX
8
OBJECT__74
10
0
20
0
30
0
70
128
71
7
72
1
73
9
0
VERTEX
8
OBJECT__74
10
0
20
0
30
0
70
128
71
10
72
11
73
12
0
VERTEX
8
OBJECT__74
10
0
20
0
30
0
70
128
71
6
72
13
73
14
0
VERTEX
8
OBJECT__74
10
0
20
0
30
0
70
128
71
14
72
12
73
6
0
VERTEX
8
OBJECT__74
10
0
20
0
30
0
70
128
71
5
72
15
73
16
0
VERTEX
8
OBJECT__74
10
0
20
0
30
0
70
128
71
10
72
16
73
15
0
VERTEX
8
OBJECT__74
10
0
20
0
30
0
70
128
71
15
72
11
73
10
0
VERTEX
8
OBJECT__74
10
0
20
0
30
0
70
128
71
16
72
4
73
5
0
VERTEX
8
OBJECT__74
10
0
20
0
30
0
70
128
71
12
72
14
73
10
0
VERTEX
8
OBJECT__74
10
0
20
0
30
0
70
128
71
8
72
13
73
6
0
VERTEX
8
OBJECT__74
10
0
20
0
30
0
70
128
71
3
72
9
73
1
0
SEQEND
8
OBJECT__74
0
POLYLINE
8
OBJECT__75
66
1
70
64
71
26
72
36
62
253
0
VERTEX
8
OBJECT__75
10
3.554000
20
-10.937000
30
1047.500000
70
192
0
VERTEX
8
OBJECT__75
10
11.500000
20
0.000000
30
1047.500000
70
192
0
VERTEX
8
OBJECT__75
10
15.385000
20
0.000000
30
1062.000000
70
192
0
VERTEX
8
OBJECT__75
10
26.000000
20
0.000000
30
1072.614990
70
192
0
VERTEX
8
OBJECT__75
10
22.027000
20
-10.937000
30
1079.495972
70
192
0
VERTEX
8
OBJECT__75
10
40.500000
20
0.000000
30
1076.500000
70
192
0
VERTEX
8
OBJECT__75
10
0.505000
20
-9.946000
30
1047.500000
70
192
0
VERTEX
8
OBJECT__75
10
8.504000
20
-10.937000
30
1065.973022
70
192
0
VERTEX
8
OBJECT__75
10
-2.631000
20
-6.760000
30
1072.401978
70
192
0
VERTEX
8
OBJECT__75
10
-9.304000
20
-6.760000
30
1047.500000
70
192
0
VERTEX
8
OBJECT__75
10
15.598000
20
-6.760000
30
1090.630981
70
192
0
VERTEX
8
OBJECT__75
10
40.500000
20
-9.946000
30
1087.494995
70
192
0
VERTEX
8
OBJECT__75
10
40.500000
20
-10.937000
30
1084.446045
70
192
0
VERTEX
8
OBJECT__75
10
-2.631000
20
6.760000
30
1072.401978
70
192
0
VERTEX
8
OBJECT__75
10
-11.500000
20
0.000000
30
1047.500000
70
192
0
VERTEX
8
OBJECT__75
10
-9.304000
20
6.760000
30
1047.500000
70
192
0
VERTEX
8
OBJECT__75
10
15.598000
20
6.760000
30
1090.630981
70
192
0
VERTEX
8
OBJECT__75
10
40.500000
20
-6.760000
30
1097.303955
70
192
0
VERTEX
8
OBJECT__75
10
40.500000
20
0.000000
30
1099.500000
70
192
0
VERTEX
8
OBJECT__75
10
0.505000
20
9.946000
30
1047.500000
70
192
0
VERTEX
8
OBJECT__75
10
8.504000
20
10.937000
30
1065.973022
70
192
0
VERTEX
8
OBJECT__75
10
3.554000
20
10.937000
30
1047.500000
70
192
0
VERTEX
8
OBJECT__75
10
22.027000
20
10.937000
30
1079.495972
70
192
0
VERTEX
8
OBJECT__75
10
40.500000
20
9.946000
30
1087.494995
70
192
0
VERTEX
8
OBJECT__75
10
40.500000
20
10.937000
30
1084.446045
70
192
0
VERTEX
8
OBJECT__75
10
40.500000
20
6.760000
30
1097.303955
70
192
0
VERTEX
8
OBJECT__75
10
0
20
0
30
0
70
128
71
1
72
2
73
3
0
VERTEX
8
OBJECT__75
10
0
20
0
30
0
70
128
71
3
72
4
73
5
0
VERTEX
8
OBJECT__75
10
0
20
0
30
0
70
128
71
5
72
4
73
6
0
VERTEX
8
OBJECT__75
10
0
20
0
30
0
70
128
71
7
72
1
73
8
0
VERTEX
8
OBJECT__75
10
0
20
0
30
0
70
128
71
9
72
10
73
7
0
VERTEX
8
OBJECT__75
10
0
20
0
30
0
70
128
71
8
72
5
73
11
0
VERTEX
8
OBJECT__75
10
0
20
0
30
0
70
128
71
12
72
11
73
5
0
VERTEX
8
OBJECT__75
10
0
20
0
30
0
70
128
71
5
72
13
73
12
0
VERTEX
8
OBJECT__75
10
0
20
0
30
0
70
128
71
9
72
14
73
15
0
VERTEX
8
OBJECT__75
10
0
20
0
30
0
70
128
71
14
72
16
73
15
0
VERTEX
8
OBJECT__75
10
0
20
0
30
0
70
128
71
9
72
11
73
17
0
VERTEX
8
OBJECT__75
10
0
20
0
30
0
70
128
71
11
72
18
73
19
0
VERTEX
8
OBJECT__75
10
0
20
0
30
0
70
128
71
19
72
17
73
11
0
VERTEX
8
OBJECT__75
10
0
20
0
30
0
70
128
71
20
72
14
73
21
0
VERTEX
8
OBJECT__75
10
0
20
0
30
0
70
128
71
21
72
22
73
20
0
VERTEX
8
OBJECT__75
10
0
20
0
30
0
70
128
71
14
72
17
73
23
0
VERTEX
8
OBJECT__75
10
0
20
0
30
0
70
128
71
24
72
25
73
23
0
VERTEX
8
OBJECT__75
10
0
20
0
30
0
70
128
71
17
72
26
73
24
0
VERTEX
8
OBJECT__75
10
0
20
0
30
0
70
128
71
22
72
21
73
3
0
VERTEX
8
OBJECT__75
10
0
20
0
30
0
70
128
71
21
72
23
73
4
0
VERTEX
8
OBJECT__75
10
0
20
0
30
0
70
128
71
23
72
25
73
6
0
VERTEX
8
OBJECT__75
10
0
20
0
30
0
70
128
71
6
72
4
73
23
0
VERTEX
8
OBJECT__75
10
0
20
0
30
0
70
128
71
4
72
3
73
21
0
VERTEX
8
OBJECT__75
10
0
20
0
30
0
70
128
71
3
72
2
73
22
0
VERTEX
8
OBJECT__75
10
0
20
0
30
0
70
128
71
23
72
17
73
24
0
VERTEX
8
OBJECT__75
10
0
20
0
30
0
70
128
71
23
72
21
73
14
0
VERTEX
8
OBJECT__75
10
0
20
0
30
0
70
128
71
20
72
16
73
14
0
VERTEX
8
OBJECT__75
10
0
20
0
30
0
70
128
71
19
72
26
73
17
0
VERTEX
8
OBJECT__75
10
0
20
0
30
0
70
128
71
17
72
14
73
9
0
VERTEX
8
OBJECT__75
10
0
20
0
30
0
70
128
71
15
72
10
73
9
0
VERTEX
8
OBJECT__75
10
0
20
0
30
0
70
128
71
12
72
18
73
11
0
VERTEX
8
OBJECT__75
10
0
20
0
30
0
70
128
71
11
72
9
73
8
0
VERTEX
8
OBJECT__75
10
0
20
0
30
0
70
128
71
8
72
9
73
7
0
VERTEX
8
OBJECT__75
10
0
20
0
30
0
70
128
71
6
72
13
73
5
0
VERTEX
8
OBJECT__75
10
0
20
0
30
0
70
128
71
5
72
8
73
3
0
VERTEX
8
OBJECT__75
10
0
20
0
30
0
70
128
71
3
72
8
73
1
0
SEQEND
8
OBJECT__75
0
POLYLINE
8
OBJECT__76
66
1
70
64
71
12
72
12
62
253
0
VERTEX
8
OBJECT__76
10
11.500000
20
0.000000
30
992.000000
70
192
0
VERTEX
8
OBJECT__76
10
0.000000
20
11.500000
30
992.000000
70
192
0
VERTEX
8
OBJECT__76
10
3.554000
20
10.937000
30
1047.500000
70
192
0
VERTEX
8
OBJECT__76
10
0.505000
20
9.946000
30
1047.500000
70
192
0
VERTEX
8
OBJECT__76
10
-11.500000
20
0.000000
30
992.000000
70
192
0
VERTEX
8
OBJECT__76
10
-9.304000
20
6.760000
30
1047.500000
70
192
0
VERTEX
8
OBJECT__76
10
-11.500000
20
0.000000
30
1047.500000
70
192
0
VERTEX
8
OBJECT__76
10
0.000000
20
-11.500000
30
992.000000
70
192
0
VERTEX
8
OBJECT__76
10
0.505000
20
-9.946000
30
1047.500000
70
192
0
VERTEX
8
OBJECT__76
10
-9.304000
20
-6.760000
30
1047.500000
70
192
0
VERTEX
8
OBJECT__76
10
11.500000
20
0.000000
30
1047.500000
70
192
0
VERTEX
8
OBJECT__76
10
3.554000
20
-10.937000
30
1047.500000
70
192
0
VERTEX
8
OBJECT__76
10
0
20
0
30
0
70
128
71
1
72
2
73
3
0
VERTEX
8
OBJECT__76
10
0
20
0
30
0
70
128
71
2
72
4
73
3
0
VERTEX
8
OBJECT__76
10
0
20
0
30
0
70
128
71
2
72
5
73
6
0
VERTEX
8
OBJECT__76
10
0
20
0
30
0
70
128
71
5
72
7
73
6
0
VERTEX
8
OBJECT__76
10
0
20
0
30
0
70
128
71
8
72
9
73
10
0
VERTEX
8
OBJECT__76
10
0
20
0
30
0
70
128
71
10
72
5
73
8
0
VERTEX
8
OBJECT__76
10
0
20
0
30
0
70
128
71
1
72
11
73
12
0
VERTEX
8
OBJECT__76
10
0
20
0
30
0
70
128
71
12
72
8
73
1
0
VERTEX
8
OBJECT__76
10
0
20
0
30
0
70
128
71
12
72
9
73
8
0
VERTEX
8
OBJECT__76
10
0
20
0
30
0
70
128
71
10
72
7
73
5
0
VERTEX
8
OBJECT__76
10
0
20
0
30
0
70
128
71
6
72
4
73
2
0
VERTEX
8
OBJECT__76
10
0
20
0
30
0
70
128
71
3
72
11
73
1
0
SEQEND
8
OBJECT__76
0
POLYLINE
8
OBJECT__77
66
1
70
64
71
6
72
4
62
253
0
VERTEX
8
OBJECT__77
10
20.000000
20
101.750000
30
-54.299999
70
192
0
VERTEX
8
OBJECT__77
10
20.000000
20
101.750000
30
-6.300000
70
192
0
VERTEX
8
OBJECT__77
10
5.893000
20
101.750000
30
-10.884000
70
192
0
VERTEX
8
OBJECT__77
10
42.825001
20
101.750000
30
-37.716000
70
192
0
VERTEX
8
OBJECT__77
10
34.106998
20
101.750000
30
-10.884000
70
192
0
VERTEX
8
OBJECT__77
10
-2.826000
20
101.750000
30
-37.716000
70
192
0
VERTEX
8
OBJECT__77
10
0
20
0
30
0
70
128
71
1
72
2
73
3
0
VERTEX
8
OBJECT__77
10
0
20
0
30
0
70
128
71
1
72
4
73
5
0
VERTEX
8
OBJECT__77
10
0
20
0
30
0
70
128
71
5
72
2
73
1
0
VERTEX
8
OBJECT__77
10
0
20
0
30
0
70
128
71
3
72
6
73
1
0
SEQEND
8
OBJECT__77
0
POLYLINE
8
OBJECT__78
66
1
70
64
71
42
72
46
62
253
0
VERTEX
8
OBJECT__78
10
42.825001
20
158.750000
30
-37.716000
70
192
0
VERTEX
8
OBJECT__78
10
42.825001
20
101.750000
30
-37.716000
70
192
0
VERTEX
8
OBJECT__78
10
20.000000
20
101.750000
30
-54.299999
70
192
0
VERTEX
8
OBJECT__78
10
43.965000
20
106.099998
30
-31.552999
70
192
0
VERTEX
8
OBJECT__78
10
43.993000
20
107.559998
30
-30.889000
70
192
0
VERTEX
8
OBJECT__78
10
34.106998
20
158.750000
30
-10.884000
70
192
0
VERTEX
8
OBJECT__78
10
43.973999
20
107.140999
30
-29.188000
70
192
0
VERTEX
8
OBJECT__78
10
34.106998
20
101.750000
30
-10.884000
70
192
0
VERTEX
8
OBJECT__78
10
43.973999
20
106.191002
30
-29.190001
70
192
0
VERTEX
8
OBJECT__78
10
43.973999
20
105.233002
30
-29.193001
70
192
0
VERTEX
8
OBJECT__78
10
44.000000
20
104.685997
30
-30.299999
70
192
0
VERTEX
8
OBJECT__78
10
43.998001
20
104.713997
30
-30.028999
70
192
0
VERTEX
8
OBJECT__78
10
43.959999
20
105.806000
30
-31.687000
70
192
0
VERTEX
8
OBJECT__78
10
5.893000
20
158.750000
30
-10.884000
70
192
0
VERTEX
8
OBJECT__78
10
20.000000
20
101.750000
30
-6.300000
70
192
0
VERTEX
8
OBJECT__78
10
5.893000
20
101.750000
30
-10.884000
70
192
0
VERTEX
8
OBJECT__78
10
-3.474000
20
143.744003
30
-25.299999
70
192
0
VERTEX
8
OBJECT__78
10
-3.539000
20
145.503998
30
-25.618000
70
192
0
VERTEX
8
OBJECT__78
10
-3.768000
20
147.483002
30
-26.973000
70
192
0
VERTEX
8
OBJECT__78
10
-3.684000
20
146.899994
30
-26.417000
70
192
0
VERTEX
8
OBJECT__78
10
-2.826000
20
158.750000
30
-37.716000
70
192
0
VERTEX
8
OBJECT__78
10
-4.000000
20
148.750000
30
-30.299999
70
192
0
VERTEX
8
OBJECT__78
10
-3.997000
20
148.733002
30
-29.889999
70
192
0
VERTEX
8
OBJECT__78
10
-3.604000
20
146.231003
30
-34.640999
70
192
0
VERTEX
8
OBJECT__78
10
-3.768000
20
147.483002
30
-33.626999
70
192
0
VERTEX
8
OBJECT__78
10
-2.826000
20
101.750000
30
-37.716000
70
192
0
VERTEX
8
OBJECT__78
10
-3.474000
20
115.750000
30
-35.299999
70
192
0
VERTEX
8
OBJECT__78
10
-3.474000
20
143.750000
30
-35.299999
70
192
0
VERTEX
8
OBJECT__78
10
-3.480000
20
115.206001
30
-35.270000
70
192
0
VERTEX
8
OBJECT__78
10
-3.539000
20
113.996002
30
-34.981998
70
192
0
VERTEX
8
OBJECT__78
10
-3.480000
20
144.294006
30
-35.270000
70
192
0
VERTEX
8
OBJECT__78
10
-3.539000
20
145.503998
30
-34.981998
70
192
0
VERTEX
8
OBJECT__78
10
-3.814000
20
147.763000
30
-33.283001
70
192
0
VERTEX
8
OBJECT__78
10
-3.813000
20
111.745003
30
-33.292999
70
192
0
VERTEX
8
OBJECT__78
10
-3.768000
20
112.016998
30
-33.626999
70
192
0
VERTEX
8
OBJECT__78
10
-3.768000
20
112.016998
30
-26.973000
70
192
0
VERTEX
8
OBJECT__78
10
-3.997000
20
110.764999
30
-29.908001
70
192
0
VERTEX
8
OBJECT__78
10
-4.000000
20
110.750000
30
-30.299999
70
192
0
VERTEX
8
OBJECT__78
10
-3.539000
20
113.996002
30
-25.618000
70
192
0
VERTEX
8
OBJECT__78
10
-3.684000
20
112.599998
30
-26.417000
70
192
0
VERTEX
8
OBJECT__78
10
-3.474000
20
115.750000
30
-25.299999
70
192
0
VERTEX
8
OBJECT__78
10
20.000000
20
158.750000
30
-54.299999
70
192
0
VERTEX
8
OBJECT__78
10
0
20
0
30
0
70
128
71
1
72
2
73
3
0
VERTEX
8
OBJECT__78
10
0
20
0
30
0
70
128
71
2
72
1
73
4
0
VERTEX
8
OBJECT__78
10
0
20
0
30
0
70
128
71
1
72
5
73
4
0
VERTEX
8
OBJECT__78
10
0
20
0
30
0
70
128
71
6
72
7
73
5
0
VERTEX
8
OBJECT__78
10
0
20
0
30
0
70
128
71
8
72
9
73
7
0
VERTEX
8
OBJECT__78
10
0
20
0
30
0
70
128
71
8
72
10
73
9
0
VERTEX
8
OBJECT__78
10
0
20
0
30
0
70
128
71
2
72
11
73
12
0
VERTEX
8
OBJECT__78
10
0
20
0
30
0
70
128
71
12
72
8
73
2
0
VERTEX
8
OBJECT__78
10
0
20
0
30
0
70
128
71
2
72
13
73
11
0
VERTEX
8
OBJECT__78
10
0
20
0
30
0
70
128
71
12
72
10
73
8
0
VERTEX
8
OBJECT__78
10
0
20
0
30
0
70
128
71
7
72
6
73
8
0
VERTEX
8
OBJECT__78
10
0
20
0
30
0
70
128
71
5
72
1
73
6
0
VERTEX
8
OBJECT__78
10
0
20
0
30
0
70
128
71
6
72
14
73
15
0
VERTEX
8
OBJECT__78
10
0
20
0
30
0
70
128
71
14
72
16
73
15
0
VERTEX
8
OBJECT__78
10
0
20
0
30
0
70
128
71
16
72
14
73
17
0
VERTEX
8
OBJECT__78
10
0
20
0
30
0
70
128
71
14
72
18
73
17
0
VERTEX
8
OBJECT__78
10
0
20
0
30
0
70
128
71
14
72
19
73
20
0
VERTEX
8
OBJECT__78
10
0
20
0
30
0
70
128
71
20
72
18
73
14
0
VERTEX
8
OBJECT__78
10
0
20
0
30
0
70
128
71
21
72
22
73
23
0
VERTEX
8
OBJECT__78
10
0
20
0
30
0
70
128
71
21
72
24
73
25
0
VERTEX
8
OBJECT__78
10
0
20
0
30
0
70
128
71
26
72
27
73
28
0
VERTEX
8
OBJECT__78
10
0
20
0
30
0
70
128
71
28
72
21
73
26
0
VERTEX
8
OBJECT__78
10
0
20
0
30
0
70
128
71
26
72
29
73
27
0
VERTEX
8
OBJECT__78
10
0
20
0
30
0
70
128
71
26
72
30
73
29
0
VERTEX
8
OBJECT__78
10
0
20
0
30
0
70
128
71
28
72
31
73
21
0
VERTEX
8
OBJECT__78
10
0
20
0
30
0
70
128
71
31
72
32
73
21
0
VERTEX
8
OBJECT__78
10
0
20
0
30
0
70
128
71
32
72
24
73
21
0
VERTEX
8
OBJECT__78
10
0
20
0
30
0
70
128
71
25
72
33
73
21
0
VERTEX
8
OBJECT__78
10
0
20
0
30
0
70
128
71
33
72
22
73
21
0
VERTEX
8
OBJECT__78
10
0
20
0
30
0
70
128
71
23
72
14
73
21
0
VERTEX
8
OBJECT__78
10
0
20
0
30
0
70
128
71
26
72
34
73
35
0
VERTEX
8
OBJECT__78
10
0
20
0
30
0
70
128
71
16
72
36
73
37
0
VERTEX
8
OBJECT__78
10
0
20
0
30
0
70
128
71
37
72
26
73
16
0
VERTEX
8
OBJECT__78
10
0
20
0
30
0
70
128
71
37
72
38
73
26
0
VERTEX
8
OBJECT__78
10
0
20
0
30
0
70
128
71
38
72
34
73
26
0
VERTEX
8
OBJECT__78
10
0
20
0
30
0
70
128
71
35
72
30
73
26
0
VERTEX
8
OBJECT__78
10
0
20
0
30
0
70
128
71
23
72
19
73
14
0
VERTEX
8
OBJECT__78
10
0
20
0
30
0
70
128
71
16
72
39
73
40
0
VERTEX
8
OBJECT__78
10
0
20
0
30
0
70
128
71
16
72
41
73
39
0
VERTEX
8
OBJECT__78
10
0
20
0
30
0
70
128
71
40
72
36
73
16
0
VERTEX
8
OBJECT__78
10
0
20
0
30
0
70
128
71
42
72
3
73
26
0
VERTEX
8
OBJECT__78
10
0
20
0
30
0
70
128
71
26
72
21
73
42
0
VERTEX
8
OBJECT__78
10
0
20
0
30
0
70
128
71
17
72
41
73
16
0
VERTEX
8
OBJECT__78
10
0
20
0
30
0
70
128
71
15
72
8
73
6
0
VERTEX
8
OBJECT__78
10
0
20
0
30
0
70
128
71
4
72
13
73
2
0
VERTEX
8
OBJECT__78
10
0
20
0
30
0
70
128
71
3
72
42
73
1
0
SEQEND
8
OBJECT__78
0
POLYLINE
8
OBJECT__80
66
1
70
64
71
6
72
4
62
253
0
VERTEX
8
OBJECT__80
10
-2.000000
20
115.750000
30
-30.299999
70
192
0
VERTEX
8
OBJECT__80
10
-3.474000
20
115.750000
30
-25.299999
70
192
0
VERTEX
8
OBJECT__80
10
-3.474000
20
143.744003
30
-25.299999
70
192
0
VERTEX
8
OBJECT__80
10
-3.474000
20
115.750000
30
-35.299999
70
192
0
VERTEX
8
OBJECT__80
10
-2.000000
20
143.750000
30
-30.299999
70
192
0
VERTEX
8
OBJECT__80
10
-3.474000
20
143.750000
30
-35.299999
70
192
0
VERTEX
8
OBJECT__80
10
0
20
0
30
0
70
128
71
1
72
2
73
3
0
VERTEX
8
OBJECT__80
10
0
20
0
30
0
70
128
71
4
72
1
73
5
0
VERTEX
8
OBJECT__80
10
0
20
0
30
0
70
128
71
5
72
6
73
4
0
VERTEX
8
OBJECT__80
10
0
20
0
30
0
70
128
71
3
72
5
73
1
0
SEQEND
8
OBJECT__80
0
POLYLINE
8
OBJECT__81
66
1
70
64
71
13
72
16
62
253
0
VERTEX
8
OBJECT__81
10
43.667999
20
105.402000
30
-30.299999
70
192
0
VERTEX
8
OBJECT__81
10
43.959999
20
105.806000
30
-31.687000
70
192
0
VERTEX
8
OBJECT__81
10
43.965000
20
106.099998
30
-31.552999
70
192
0
VERTEX
8
OBJECT__81
10
43.667999
20
106.190002
30
-31.089001
70
192
0
VERTEX
8
OBJECT__81
10
43.993000
20
107.559998
30
-30.889000
70
192
0
VERTEX
8
OBJECT__81
10
43.667999
20
106.978996
30
-30.299999
70
192
0
VERTEX
8
OBJECT__81
10
43.973999
20
107.140999
30
-29.188000
70
192
0
VERTEX
8
OBJECT__81
10
43.973999
20
106.191002
30
-29.190001
70
192
0
VERTEX
8
OBJECT__81
10
43.667999
20
106.190002
30
-29.511000
70
192
0
VERTEX
8
OBJECT__81
10
43.973999
20
105.233002
30
-29.193001
70
192
0
VERTEX
8
OBJECT__81
10
43.998001
20
104.713997
30
-30.028999
70
192
0
VERTEX
8
OBJECT__81
10
44.000000
20
104.685997
30
-30.299999
70
192
0
VERTEX
8
OBJECT__81
10
43.549999
20
106.190002
30
-30.299999
70
192
0
VERTEX
8
OBJECT__81
10
0
20
0
30
0
70
128
71
1
72
2
73
3
0
VERTEX
8
OBJECT__81
10
0
20
0
30
0
70
128
71
3
72
4
73
1
0
VERTEX
8
OBJECT__81
10
0
20
0
30
0
70
128
71
5
72
6
73
4
0
VERTEX
8
OBJECT__81
10
0
20
0
30
0
70
128
71
7
72
8
73
9
0
VERTEX
8
OBJECT__81
10
0
20
0
30
0
70
128
71
9
72
6
73
7
0
VERTEX
8
OBJECT__81
10
0
20
0
30
0
70
128
71
10
72
11
73
1
0
VERTEX
8
OBJECT__81
10
0
20
0
30
0
70
128
71
1
72
9
73
10
0
VERTEX
8
OBJECT__81
10
0
20
0
30
0
70
128
71
9
72
8
73
10
0
VERTEX
8
OBJECT__81
10
0
20
0
30
0
70
128
71
11
72
12
73
1
0
VERTEX
8
OBJECT__81
10
0
20
0
30
0
70
128
71
6
72
5
73
7
0
VERTEX
8
OBJECT__81
10
0
20
0
30
0
70
128
71
4
72
3
73
5
0
VERTEX
8
OBJECT__81
10
0
20
0
30
0
70
128
71
1
72
12
73
2
0
VERTEX
8
OBJECT__81
10
0
20
0
30
0
70
128
71
13
72
6
73
9
0
VERTEX
8
OBJECT__81
10
0
20
0
30
0
70
128
71
13
72
1
73
4
0
VERTEX
8
OBJECT__81
10
0
20
0
30
0
70
128
71
9
72
1
73
13
0
VERTEX
8
OBJECT__81
10
0
20
0
30
0
70
128
71
4
72
6
73
13
0
SEQEND
8
OBJECT__81
0
POLYLINE
8
OBJECT__82
66
1
70
64
71
5
72
3
62
253
0
VERTEX
8
OBJECT__82
10
-2.826000
20
158.750000
30
-37.716000
70
192
0
VERTEX
8
OBJECT__82
10
5.893000
20
158.750000
30
-10.884000
70
192
0
VERTEX
8
OBJECT__82
10
34.106998
20
158.750000
30
-10.884000
70
192
0
VERTEX
8
OBJECT__82
10
42.825001
20
158.750000
30
-37.716000
70
192
0
VERTEX
8
OBJECT__82
10
20.000000
20
158.750000
30
-54.299999
70
192
0
VERTEX
8
OBJECT__82
10
0
20
0
30
0
70
128
71
1
72
2
73
3
0
VERTEX
8
OBJECT__82
10
0
20
0
30
0
70
128
71
3
72
4
73
1
0
VERTEX
8
OBJECT__82
10
0
20
0
30
0
70
128
71
4
72
5
73
1
0
SEQEND
8
OBJECT__82
0
POLYLINE
8
OBJECT__83
66
1
70
64
71
5
72
3
62
253
0
VERTEX
8
OBJECT__83
10
-3.474000
20
115.750000
30
-25.299999
70
192
0
VERTEX
8
OBJECT__83
10
-2.000000
20
115.750000
30
-30.299999
70
192
0
VERTEX
8
OBJECT__83
10
-2.895000
20
113.401001
30
-27.388000
70
192
0
VERTEX
8
OBJECT__83
10
-2.522000
20
113.056999
30
-30.299999
70
192
0
VERTEX
8
OBJECT__83
10
-3.539000
20
113.996002
30
-25.618000
70
192
0
VERTEX
8
OBJECT__83
10
0
20
0
30
0
70
128
71
1
72
2
73
3
0
VERTEX
8
OBJECT__83
10
0
20
0
30
0
70
128
71
2
72
4
73
3
0
VERTEX
8
OBJECT__83
10
0
20
0
30
0
70
128
71
3
72
5
73
1
0
SEQEND
8
OBJECT__83
0
POLYLINE
8
OBJECT__84
66
1
70
64
71
5
72
3
62
253
0
VERTEX
8
OBJECT__84
10
-3.997000
20
110.764999
30
-29.908001
70
192
0
VERTEX
8
OBJECT__84
10
-3.768000
20
112.016998
30
-26.973000
70
192
0
VERTEX
8
OBJECT__84
10
-3.192000
20
112.209999
30
-28.149000
70
192
0
VERTEX
8
OBJECT__84
10
-3.144000
20
111.828003
30
-30.299999
70
192
0
VERTEX
8
OBJECT__84
10
-4.000000
20
110.750000
30
-30.299999
70
192
0
VERTEX
8
OBJECT__84
10
0
20
0
30
0
70
128
71
1
72
2
73
3
0
VERTEX
8
OBJECT__84
10
0
20
0
30
0
70
128
71
4
72
5
73
1
0
VERTEX
8
OBJECT__84
10
0
20
0
30
0
70
128
71
3
72
4
73
1
0
SEQEND
8
OBJECT__84
0
POLYLINE
8
OBJECT__85
66
1
70
64
71
5
72
3
62
253
0
VERTEX
8
OBJECT__85
10
-2.895000
20
113.401001
30
-27.388000
70
192
0
VERTEX
8
OBJECT__85
10
-3.192000
20
112.209999
30
-28.149000
70
192
0
VERTEX
8
OBJECT__85
10
-3.768000
20
112.016998
30
-26.973000
70
192
0
VERTEX
8
OBJECT__85
10
-3.684000
20
112.599998
30
-26.417000
70
192
0
VERTEX
8
OBJECT__85
10
-3.539000
20
113.996002
30
-25.618000
70
192
0
VERTEX
8
OBJECT__85
10
0
20
0
30
0
70
128
71
1
72
2
73
3
0
VERTEX
8
OBJECT__85
10
0
20
0
30
0
70
128
71
3
72
4
73
1
0
VERTEX
8
OBJECT__85
10
0
20
0
30
0
70
128
71
4
72
5
73
1
0
SEQEND
8
OBJECT__85
0
POLYLINE
8
OBJECT__86
66
1
70
64
71
6
72
4
62
253
0
VERTEX
8
OBJECT__86
10
-3.480000
20
115.206001
30
-35.270000
70
192
0
VERTEX
8
OBJECT__86
10
-3.539000
20
113.996002
30
-34.981998
70
192
0
VERTEX
8
OBJECT__86
10
-2.895000
20
113.401001
30
-33.212002
70
192
0
VERTEX
8
OBJECT__86
10
-2.000000
20
115.750000
30
-30.299999
70
192
0
VERTEX
8
OBJECT__86
10
-3.474000
20
115.750000
30
-35.299999
70
192
0
VERTEX
8
OBJECT__86
10
-2.522000
20
113.056999
30
-30.299999
70
192
0
VERTEX
8
OBJECT__86
10
0
20
0
30
0
70
128
71
1
72
2
73
3
0
VERTEX
8
OBJECT__86
10
0
20
0
30
0
70
128
71
4
72
5
73
1
0
VERTEX
8
OBJECT__86
10
0
20
0
30
0
70
128
71
3
72
4
73
1
0
VERTEX
8
OBJECT__86
10
0
20
0
30
0
70
128
71
3
72
6
73
4
0
SEQEND
8
OBJECT__86
0
POLYLINE
8
OBJECT__87
66
1
70
64
71
4
72
2
62
253
0
VERTEX
8
OBJECT__87
10
-2.522000
20
113.056999
30
-30.299999
70
192
0
VERTEX
8
OBJECT__87
10
-3.144000
20
111.828003
30
-30.299999
70
192
0
VERTEX
8
OBJECT__87
10
-3.192000
20
112.209999
30
-28.149000
70
192
0
VERTEX
8
OBJECT__87
10
-2.895000
20
113.401001
30
-27.388000
70
192
0
VERTEX
8
OBJECT__87
10
0
20
0
30
0
70
128
71
1
72
2
73
3
0
VERTEX
8
OBJECT__87
10
0
20
0
30
0
70
128
71
3
72
4
73
1
0
SEQEND
8
OBJECT__87
0
POLYLINE
8
OBJECT__88
66
1
70
64
71
4
72
2
62
253
0
VERTEX
8
OBJECT__88
10
-2.522000
20
113.056999
30
-30.299999
70
192
0
VERTEX
8
OBJECT__88
10
-2.895000
20
113.401001
30
-33.212002
70
192
0
VERTEX
8
OBJECT__88
10
-3.193000
20
112.208000
30
-32.452999
70
192
0
VERTEX
8
OBJECT__88
10
-3.144000
20
111.828003
30
-30.299999
70
192
0
VERTEX
8
OBJECT__88
10
0
20
0
30
0
70
128
71
1
72
2
73
3
0
VERTEX
8
OBJECT__88
10
0
20
0
30
0
70
128
71
3
72
4
73
1
0
SEQEND
8
OBJECT__88
0
POLYLINE
8
OBJECT__89
66
1
70
64
71
4
72
2
62
253
0
VERTEX
8
OBJECT__89
10
-3.768000
20
112.016998
30
-33.626999
70
192
0
VERTEX
8
OBJECT__89
10
-3.193000
20
112.208000
30
-32.452999
70
192
0
VERTEX
8
OBJECT__89
10
-2.895000
20
113.401001
30
-33.212002
70
192
0
VERTEX
8
OBJECT__89
10
-3.539000
20
113.996002
30
-34.981998
70
192
0
VERTEX
8
OBJECT__89
10
0
20
0
30
0
70
128
71
1
72
2
73
3
0
VERTEX
8
OBJECT__89
10
0
20
0
30
0
70
128
71
3
72
4
73
1
0
SEQEND
8
OBJECT__89
0
POLYLINE
8
OBJECT__90
66
1
70
64
71
5
72
3
62
253
0
VERTEX
8
OBJECT__90
10
-4.000000
20
110.750000
30
-30.299999
70
192
0
VERTEX
8
OBJECT__90
10
-3.144000
20
111.828003
30
-30.299999
70
192
0
VERTEX
8
OBJECT__90
10
-3.193000
20
112.208000
30
-32.452999
70
192
0
VERTEX
8
OBJECT__90
10
-3.768000
20
112.016998
30
-33.626999
70
192
0
VERTEX
8
OBJECT__90
10
-3.813000
20
111.745003
30
-33.292999
70
192
0
VERTEX
8
OBJECT__90
10
0
20
0
30
0
70
128
71
1
72
2
73
3
0
VERTEX
8
OBJECT__90
10
0
20
0
30
0
70
128
71
3
72
4
73
5
0
VERTEX
8
OBJECT__90
10
0
20
0
30
0
70
128
71
3
72
5
73
1
0
SEQEND
8
OBJECT__90
0
POLYLINE
8
OBJECT__91
66
1
70
64
71
6
72
4
62
253
0
VERTEX
8
OBJECT__91
10
-3.480000
20
144.294006
30
-35.270000
70
192
0
VERTEX
8
OBJECT__91
10
-2.000000
20
143.750000
30
-30.299999
70
192
0
VERTEX
8
OBJECT__91
10
-2.895000
20
146.098999
30
-33.212002
70
192
0
VERTEX
8
OBJECT__91
10
-3.539000
20
145.503998
30
-34.981998
70
192
0
VERTEX
8
OBJECT__91
10
-2.522000
20
146.442993
30
-30.299999
70
192
0
VERTEX
8
OBJECT__91
10
-3.474000
20
143.750000
30
-35.299999
70
192
0
VERTEX
8
OBJECT__91
10
0
20
0
30
0
70
128
71
1
72
2
73
3
0
VERTEX
8
OBJECT__91
10
0
20
0
30
0
70
128
71
3
72
4
73
1
0
VERTEX
8
OBJECT__91
10
0
20
0
30
0
70
128
71
2
72
5
73
3
0
VERTEX
8
OBJECT__91
10
0
20
0
30
0
70
128
71
1
72
6
73
2
0
SEQEND
8
OBJECT__91
0
POLYLINE
8
OBJECT__92
66
1
70
64
71
5
72
3
62
253
0
VERTEX
8
OBJECT__92
10
-4.000000
20
148.750000
30
-30.299999
70
192
0
VERTEX
8
OBJECT__92
10
-3.814000
20
147.763000
30
-33.283001
70
192
0
VERTEX
8
OBJECT__92
10
-3.192000
20
147.289993
30
-32.451000
70
192
0
VERTEX
8
OBJECT__92
10
-3.144000
20
147.671997
30
-30.299999
70
192
0
VERTEX
8
OBJECT__92
10
-3.768000
20
147.483002
30
-33.626999
70
192
0
VERTEX
8
OBJECT__92
10
0
20
0
30
0
70
128
71
1
72
2
73
3
0
VERTEX
8
OBJECT__92
10
0
20
0
30
0
70
128
71
3
72
4
73
1
0
VERTEX
8
OBJECT__92
10
0
20
0
30
0
70
128
71
2
72
5
73
3
0
SEQEND
8
OBJECT__92
0
POLYLINE
8
OBJECT__93
66
1
70
64
71
5
72
3
62
253
0
VERTEX
8
OBJECT__93
10
-2.895000
20
146.098999
30
-33.212002
70
192
0
VERTEX
8
OBJECT__93
10
-3.192000
20
147.289993
30
-32.451000
70
192
0
VERTEX
8
OBJECT__93
10
-3.768000
20
147.483002
30
-33.626999
70
192
0
VERTEX
8
OBJECT__93
10
-3.604000
20
146.231003
30
-34.640999
70
192
0
VERTEX
8
OBJECT__93
10
-3.539000
20
145.503998
30
-34.981998
70
192
0
VERTEX
8
OBJECT__93
10
0
20
0
30
0
70
128
71
1
72
2
73
3
0
VERTEX
8
OBJECT__93
10
0
20
0
30
0
70
128
71
3
72
4
73
1
0
VERTEX
8
OBJECT__93
10
0
20
0
30
0
70
128
71
4
72
5
73
1
0
SEQEND
8
OBJECT__93
0
POLYLINE
8
OBJECT__94
66
1
70
64
71
5
72
3
62
253
0
VERTEX
8
OBJECT__94
10
-3.474000
20
143.744003
30
-25.299999
70
192
0
VERTEX
8
OBJECT__94
10
-3.539000
20
145.503998
30
-25.618000
70
192
0
VERTEX
8
OBJECT__94
10
-2.895000
20
146.098999
30
-27.388000
70
192
0
VERTEX
8
OBJECT__94
10
-2.000000
20
143.750000
30
-30.299999
70
192
0
VERTEX
8
OBJECT__94
10
-2.522000
20
146.442993
30
-30.299999
70
192
0
VERTEX
8
OBJECT__94
10
0
20
0
30
0
70
128
71
1
72
2
73
3
0
VERTEX
8
OBJECT__94
10
0
20
0
30
0
70
128
71
3
72
4
73
1
0
VERTEX
8
OBJECT__94
10
0
20
0
30
0
70
128
71
3
72
5
73
4
0
SEQEND
8
OBJECT__94
0
POLYLINE
8
OBJECT__95
66
1
70
64
71
5
72
3
62
253
0
VERTEX
8
OBJECT__95
10
-3.997000
20
148.733002
30
-29.889999
70
192
0
VERTEX
8
OBJECT__95
10
-3.144000
20
147.671997
30
-30.299999
70
192
0
VERTEX
8
OBJECT__95
10
-3.193000
20
147.292007
30
-28.146999
70
192
0
VERTEX
8
OBJECT__95
10
-3.768000
20
147.483002
30
-26.973000
70
192
0
VERTEX
8
OBJECT__95
10
-4.000000
20
148.750000
30
-30.299999
70
192
0
VERTEX
8
OBJECT__95
10
0
20
0
30
0
70
128
71
1
72
2
73
3
0
VERTEX
8
OBJECT__95
10
0
20
0
30
0
70
128
71
3
72
4
73
1
0
VERTEX
8
OBJECT__95
10
0
20
0
30
0
70
128
71
1
72
5
73
2
0
SEQEND
8
OBJECT__95
0
POLYLINE
8
OBJECT__96
66
1
70
64
71
4
72
2
62
253
0
VERTEX
8
OBJECT__96
10
-2.522000
20
146.442993
30
-30.299999
70
192
0
VERTEX
8
OBJECT__96
10
-3.144000
20
147.671997
30
-30.299999
70
192
0
VERTEX
8
OBJECT__96
10
-3.192000
20
147.289993
30
-32.451000
70
192
0
VERTEX
8
OBJECT__96
10
-2.895000
20
146.098999
30
-33.212002
70
192
0
VERTEX
8
OBJECT__96
10
0
20
0
30
0
70
128
71
1
72
2
73
3
0
VERTEX
8
OBJECT__96
10
0
20
0
30
0
70
128
71
3
72
4
73
1
0
SEQEND
8
OBJECT__96
0
POLYLINE
8
OBJECT__97
66
1
70
64
71
4
72
2
62
253
0
VERTEX
8
OBJECT__97
10
-2.522000
20
146.442993
30
-30.299999
70
192
0
VERTEX
8
OBJECT__97
10
-2.895000
20
146.098999
30
-27.388000
70
192
0
VERTEX
8
OBJECT__97
10
-3.193000
20
147.292007
30
-28.146999
70
192
0
VERTEX
8
OBJECT__97
10
-3.144000
20
147.671997
30
-30.299999
70
192
0
VERTEX
8
OBJECT__97
10
0
20
0
30
0
70
128
71
1
72
2
73
3
0
VERTEX
8
OBJECT__97
10
0
20
0
30
0
70
128
71
3
72
4
73
1
0
SEQEND
8
OBJECT__97
0
POLYLINE
8
OBJECT__98
66
1
70
64
71
5
72
3
62
253
0
VERTEX
8
OBJECT__98
10
-2.895000
20
146.098999
30
-27.388000
70
192
0
VERTEX
8
OBJECT__98
10
-3.684000
20
146.899994
30
-26.417000
70
192
0
VERTEX
8
OBJECT__98
10
-3.768000
20
147.483002
30
-26.973000
70
192
0
VERTEX
8
OBJECT__98
10
-3.539000
20
145.503998
30
-25.618000
70
192
0
VERTEX
8
OBJECT__98
10
-3.193000
20
147.292007
30
-28.146999
70
192
0
VERTEX
8
OBJECT__98
10
0
20
0
30
0
70
128
71
1
72
2
73
3
0
VERTEX
8
OBJECT__98
10
0
20
0
30
0
70
128
71
1
72
4
73
2
0
VERTEX
8
OBJECT__98
10
0
20
0
30
0
70
128
71
3
72
5
73
1
0
SEQEND
8
OBJECT__98
0
POLYLINE
8
OBJECT__99
66
1
70
64
71
16
72
18
62
253
0
VERTEX
8
OBJECT__99
10
-10.900000
20
0.000000
30
-10.800000
70
192
0
VERTEX
8
OBJECT__99
10
-10.900000
20
0.000000
30
979.200012
70
192
0
VERTEX
8
OBJECT__99
10
0.000000
20
10.900000
30
979.200012
70
192
0
VERTEX
8
OBJECT__99
10
0.000000
20
-10.900000
30
-10.800000
70
192
0
VERTEX
8
OBJECT__99
10
0.000000
20
-10.900000
30
979.200012
70
192
0
VERTEX
8
OBJECT__99
10
10.900000
20
0.000000
30
979.200012
70
192
0
VERTEX
8
OBJECT__99
10
10.730000
20
-1.920000
30
977.172974
70
192
0
VERTEX
8
OBJECT__99
10
10.900000
20
0.000000
30
-10.800000
70
192
0
VERTEX
8
OBJECT__99
10
10.820000
20
0.007000
30
972.486023
70
192
0
VERTEX
8
OBJECT__99
10
10.592000
20
-2.572000
30
973.659973
70
192
0
VERTEX
8
OBJECT__99
10
0.000000
20
10.900000
30
-10.800000
70
192
0
VERTEX
8
OBJECT__99
10
10.879000
20
0.678000
30
972.179993
70
192
0
VERTEX
8
OBJECT__99
10
10.507000
20
2.900000
30
975.000000
70
192
0
VERTEX
8
OBJECT__99
10
10.773000
20
1.662000
30
977.377014
70
192
0
VERTEX
8
OBJECT__99
10
10.539000
20
2.782000
30
975.818970
70
192
0
VERTEX
8
OBJECT__99
10
10.753000
20
0.002000
30
977.281982
70
192
0
VERTEX
8
OBJECT__99
10
0
20
0
30
0
70
128
71
1
72
2
73
3
0
VERTEX
8
OBJECT__99
10
0
20
0
30
0
70
128
71
1
72
4
73
5
0
VERTEX
8
OBJECT__99
10
0
20
0
30
0
70
128
71
6
72
5
73
7
0
VERTEX
8
OBJECT__99
10
0
20
0
30
0
70
128
71
4
72
8
73
9
0
VERTEX
8
OBJECT__99
10
0
20
0
30
0
70
128
71
9
72
10
73
4
0
VERTEX
8
OBJECT__99
10
0
20
0
30
0
70
128
71
10
72
5
73
4
0
VERTEX
8
OBJECT__99
10
0
20
0
30
0
70
128
71
10
72
7
73
5
0
VERTEX
8
OBJECT__99
10
0
20
0
30
0
70
128
71
8
72
11
73
12
0
VERTEX
8
OBJECT__99
10
0
20
0
30
0
70
128
71
11
72
3
73
13
0
VERTEX
8
OBJECT__99
10
0
20
0
30
0
70
128
71
3
72
14
73
15
0
VERTEX
8
OBJECT__99
10
0
20
0
30
0
70
128
71
15
72
13
73
3
0
VERTEX
8
OBJECT__99
10
0
20
0
30
0
70
128
71
6
72
16
73
14
0
VERTEX
8
OBJECT__99
10
0
20
0
30
0
70
128
71
14
72
3
73
6
0
VERTEX
8
OBJECT__99
10
0
20
0
30
0
70
128
71
13
72
12
73
11
0
VERTEX
8
OBJECT__99
10
0
20
0
30
0
70
128
71
12
72
9
73
8
0
VERTEX
8
OBJECT__99
10
0
20
0
30
0
70
128
71
7
72
16
73
6
0
VERTEX
8
OBJECT__99
10
0
20
0
30
0
70
128
71
5
72
2
73
1
0
VERTEX
8
OBJECT__99
10
0
20
0
30
0
70
128
71
3
72
11
73
1
0
SEQEND
8
OBJECT__99
0
POLYLINE
8
OBJECT__101
66
1
70
64
71
8
72
8
62
253
0
VERTEX
8
OBJECT__101
10
-9.500000
20
-16.000000
30
438.000000
70
192
0
VERTEX
8
OBJECT__101
10
-9.500000
20
-26.000000
30
438.000000
70
192
0
VERTEX
8
OBJECT__101
10
0.000000
20
-26.000000
30
447.500000
70
192
0
VERTEX
8
OBJECT__101
10
0.000000
20
-16.000000
30
428.500000
70
192
0
VERTEX
8
OBJECT__101
10
0.000000
20
-26.000000
30
428.500000
70
192
0
VERTEX
8
OBJECT__101
10
9.500000
20
-26.000000
30
438.000000
70
192
0
VERTEX
8
OBJECT__101
10
9.500000
20
-16.000000
30
438.000000
70
192
0
VERTEX
8
OBJECT__101
10
0.000000
20
-16.000000
30
447.500000
70
192
0
VERTEX
8
OBJECT__101
10
0
20
0
30
0
70
128
71
1
72
2
73
3
0
VERTEX
8
OBJECT__101
10
0
20
0
30
0
70
128
71
4
72
5
73
2
0
VERTEX
8
OBJECT__101
10
0
20
0
30
0
70
128
71
6
72
5
73
4
0
VERTEX
8
OBJECT__101
10
0
20
0
30
0
70
128
71
3
72
6
73
7
0
VERTEX
8
OBJECT__101
10
0
20
0
30
0
70
128
71
7
72
8
73
3
0
VERTEX
8
OBJECT__101
10
0
20
0
30
0
70
128
71
4
72
7
73
6
0
VERTEX
8
OBJECT__101
10
0
20
0
30
0
70
128
71
2
72
1
73
4
0
VERTEX
8
OBJECT__101
10
0
20
0
30
0
70
128
71
3
72
8
73
1
0
SEQEND
8
OBJECT__101
0
POLYLINE
8
OBJECT__102
66
1
70
64
71
9
72
9
62
253
0
VERTEX
8
OBJECT__102
10
10.580000
20
-16.000000
30
423.437988
70
192
0
VERTEX
8
OBJECT__102
10
17.118999
20
-16.000000
30
443.562012
70
192
0
VERTEX
8
OBJECT__102
10
9.500000
20
-16.000000
30
438.000000
70
192
0
VERTEX
8
OBJECT__102
10
0.000000
20
-16.000000
30
428.500000
70
192
0
VERTEX
8
OBJECT__102
10
0.000000
20
-16.000000
30
456.000000
70
192
0
VERTEX
8
OBJECT__102
10
0.000000
20
-16.000000
30
447.500000
70
192
0
VERTEX
8
OBJECT__102
10
-17.118999
20
-16.000000
30
443.562012
70
192
0
VERTEX
8
OBJECT__102
10
-9.500000
20
-16.000000
30
438.000000
70
192
0
VERTEX
8
OBJECT__102
10
-10.580000
20
-16.000000
30
423.437988
70
192
0
VERTEX
8
OBJECT__102
10
0
20
0
30
0
70
128
71
1
72
2
73
3
0
VERTEX
8
OBJECT__102
10
0
20
0
30
0
70
128
71
3
72
4
73
1
0
VERTEX
8
OBJECT__102
10
0
20
0
30
0
70
128
71
2
72
5
73
6
0
VERTEX
8
OBJECT__102
10
0
20
0
30
0
70
128
71
7
72
8
73
6
0
VERTEX
8
OBJECT__102
10
0
20
0
30
0
70
128
71
9
72
4
73
8
0
VERTEX
8
OBJECT__102
10
0
20
0
30
0
70
128
71
6
72
3
73
2
0
VERTEX
8
OBJECT__102
10
0
20
0
30
0
70
128
71
8
72
7
73
9
0
VERTEX
8
OBJECT__102
10
0
20
0
30
0
70
128
71
6
72
5
73
7
0
VERTEX
8
OBJECT__102
10
0
20
0
30
0
70
128
71
4
72
9
73
1
0
SEQEND
8
OBJECT__102
0
POLYLINE
8
OBJECT__104
66
1
70
64
71
10
72
10
62
253
0
VERTEX
8
OBJECT__104
10
-17.118999
20
15.600000
30
443.562012
70
192
0
VERTEX
8
OBJECT__104
10
-17.118999
20
-16.000000
30
443.562012
70
192
0
VERTEX
8
OBJECT__104
10
0.000000
20
-16.000000
30
456.000000
70
192
0
VERTEX
8
OBJECT__104
10
-10.580000
20
15.600000
30
423.437988
70
192
0
VERTEX
8
OBJECT__104
10
-10.580000
20
-16.000000
30
423.437988
70
192
0
VERTEX
8
OBJECT__104
10
10.580000
20
15.600000
30
423.437988
70
192
0
VERTEX
8
OBJECT__104
10
10.580000
20
-16.000000
30
423.437988
70
192
0
VERTEX
8
OBJECT__104
10
17.118999
20
-16.000000
30
443.562012
70
192
0
VERTEX
8
OBJECT__104
10
17.118999
20
15.600000
30
443.562012
70
192
0
VERTEX
8
OBJECT__104
10
0.000000
20
15.600000
30
456.000000
70
192
0
VERTEX
8
OBJECT__104
10
0
20
0
30
0
70
128
71
1
72
2
73
3
0
VERTEX
8
OBJECT__104
10
0
20
0
30
0
70
128
71
4
72
5
73
2
0
VERTEX
8
OBJECT__104
10
0
20
0
30
0
70
128
71
6
72
7
73
5
0
VERTEX
8
OBJECT__104
10
0
20
0
30
0
70
128
71
8
72
7
73
6
0
VERTEX
8
OBJECT__104
10
0
20
0
30
0
70
128
71
3
72
8
73
9
0
VERTEX
8
OBJECT__104
10
0
20
0
30
0
70
128
71
9
72
10
73
3
0
VERTEX
8
OBJECT__104
10
0
20
0
30
0
70
128
71
6
72
9
73
8
0
VERTEX
8
OBJECT__104
10
0
20
0
30
0
70
128
71
5
72
4
73
6
0
VERTEX
8
OBJECT__104
10
0
20
0
30
0
70
128
71
2
72
1
73
4
0
VERTEX
8
OBJECT__104
10
0
20
0
30
0
70
128
71
3
72
10
73
1
0
SEQEND
8
OBJECT__104
0
POLYLINE
8
OBJECT__105
66
1
70
64
71
9
72
9
62
253
0
VERTEX
8
OBJECT__105
10
10.580000
20
15.600000
30
423.437988
70
192
0
VERTEX
8
OBJECT__105
10
0.000000
20
15.600000
30
429.600006
70
192
0
VERTEX
8
OBJECT__105
10
8.400000
20
15.600000
30
438.000000
70
192
0
VERTEX
8
OBJECT__105
10
-10.580000
20
15.600000
30
423.437988
70
192
0
VERTEX
8
OBJECT__105
10
-17.118999
20
15.600000
30
443.562012
70
192
0
VERTEX
8
OBJECT__105
10
-8.400000
20
15.600000
30
438.000000
70
192
0
VERTEX
8
OBJECT__105
10
0.000000
20
15.600000
30
456.000000
70
192
0
VERTEX
8
OBJECT__105
10
0.000000
20
15.600000
30
446.399994
70
192
0
VERTEX
8
OBJECT__105
10
17.118999
20
15.600000
30
443.562012
70
192
0
VERTEX
8
OBJECT__105
10
0
20
0
30
0
70
128
71
1
72
2
73
3
0
VERTEX
8
OBJECT__105
10
0
20
0
30
0
70
128
71
1
72
4
73
2
0
VERTEX
8
OBJECT__105
10
0
20
0
30
0
70
128
71
4
72
5
73
6
0
VERTEX
8
OBJECT__105
10
0
20
0
30
0
70
128
71
5
72
7
73
8
0
VERTEX
8
OBJECT__105
10
0
20
0
30
0
70
128
71
3
72
9
73
1
0
VERTEX
8
OBJECT__105
10
0
20
0
30
0
70
128
71
8
72
6
73
5
0
VERTEX
8
OBJECT__105
10
0
20
0
30
0
70
128
71
6
72
2
73
4
0
VERTEX
8
OBJECT__105
10
0
20
0
30
0
70
128
71
3
72
8
73
9
0
VERTEX
8
OBJECT__105
10
0
20
0
30
0
70
128
71
8
72
7
73
9
0
SEQEND
8
OBJECT__105
0
POLYLINE
8
OBJECT__106
66
1
70
64
71
8
72
8
62
253
0
VERTEX
8
OBJECT__106
10
-8.400000
20
18.049999
30
438.000000
70
192
0
VERTEX
8
OBJECT__106
10
-8.400000
20
15.600000
30
438.000000
70
192
0
VERTEX
8
OBJECT__106
10
0.000000
20
15.600000
30
446.399994
70
192
0
VERTEX
8
OBJECT__106
10
0.000000
20
18.049999
30
429.600006
70
192
0
VERTEX
8
OBJECT__106
10
0.000000
20
15.600000
30
429.600006
70
192
0
VERTEX
8
OBJECT__106
10
8.400000
20
15.600000
30
438.000000
70
192
0
VERTEX
8
OBJECT__106
10
8.400000
20
18.049999
30
438.000000
70
192
0
VERTEX
8
OBJECT__106
10
0.000000
20
18.049999
30
446.399994
70
192
0
VERTEX
8
OBJECT__106
10
0
20
0
30
0
70
128
71
1
72
2
73
3
0
VERTEX
8
OBJECT__106
10
0
20
0
30
0
70
128
71
4
72
5
73
2
0
VERTEX
8
OBJECT__106
10
0
20
0
30
0
70
128
71
6
72
5
73
4
0
VERTEX
8
OBJECT__106
10
0
20
0
30
0
70
128
71
3
72
6
73
7
0
VERTEX
8
OBJECT__106
10
0
20
0
30
0
70
128
71
7
72
8
73
3
0
VERTEX
8
OBJECT__106
10
0
20
0
30
0
70
128
71
4
72
7
73
6
0
VERTEX
8
OBJECT__106
10
0
20
0
30
0
70
128
71
2
72
1
73
4
0
VERTEX
8
OBJECT__106
10
0
20
0
30
0
70
128
71
3
72
8
73
1
0
SEQEND
8
OBJECT__106
0
POLYLINE
8
OBJECT__107
66
1
70
64
71
10
72
10
62
253
0
VERTEX
8
OBJECT__107
10
-47.000000
20
75.000000
30
-49.799999
70
192
0
VERTEX
8
OBJECT__107
10
-47.000000
20
93.545998
30
-36.326000
70
192
0
VERTEX
8
OBJECT__107
10
-20.000000
20
93.545998
30
-36.326000
70
192
0
VERTEX
8
OBJECT__107
10
-20.000000
20
75.000000
30
-49.799999
70
192
0
VERTEX
8
OBJECT__107
10
-47.000000
20
86.461998
30
-14.524000
70
192
0
VERTEX
8
OBJECT__107
10
-20.000000
20
86.461998
30
-14.524000
70
192
0
VERTEX
8
OBJECT__107
10
-47.000000
20
63.537998
30
-14.524000
70
192
0
VERTEX
8
OBJECT__107
10
-20.000000
20
63.537998
30
-14.524000
70
192
0
VERTEX
8
OBJECT__107
10
-47.000000
20
56.453999
30
-36.326000
70
192
0
VERTEX
8
OBJECT__107
10
-20.000000
20
56.453999
30
-36.326000
70
192
0
VERTEX
8
OBJECT__107
10
0
20
0
30
0
70
128
71
1
72
2
73
3
0
VERTEX
8
OBJECT__107
10
0
20
0
30
0
70
128
71
1
72
3
73
4
0
VERTEX
8
OBJECT__107
10
0
20
0
30
0
70
128
71
2
72
5
73
6
0
VERTEX
8
OBJECT__107
10
0
20
0
30
0
70
128
71
2
72
6
73
3
0
VERTEX
8
OBJECT__107
10
0
20
0
30
0
70
128
71
5
72
7
73
8
0
VERTEX
8
OBJECT__107
10
0
20
0
30
0
70
128
71
5
72
8
73
6
0
VERTEX
8
OBJECT__107
10
0
20
0
30
0
70
128
71
7
72
9
73
10
0
VERTEX
8
OBJECT__107
10
0
20
0
30
0
70
128
71
7
72
10
73
8
0
VERTEX
8
OBJECT__107
10
0
20
0
30
0
70
128
71
9
72
1
73
4
0
VERTEX
8
OBJECT__107
10
0
20
0
30
0
70
128
71
9
72
4
73
10
0
SEQEND
8
OBJECT__107
0
POLYLINE
8
OBJECT__109
66
1
70
64
71
13
72
16
62
253
0
VERTEX
8
OBJECT__109
10
43.667999
20
-105.351997
30
-30.174999
70
192
0
VERTEX
8
OBJECT__109
10
43.952000
20
-105.755997
30
-28.787001
70
192
0
VERTEX
8
OBJECT__109
10
43.958000
20
-106.050003
30
-28.921000
70
192
0
VERTEX
8
OBJECT__109
10
43.664001
20
-106.139999
30
-29.386999
70
192
0
VERTEX
8
OBJECT__109
10
43.988998
20
-107.510002
30
-29.584999
70
192
0
VERTEX
8
OBJECT__109
10
43.667999
20
-106.929001
30
-30.174999
70
192
0
VERTEX
8
OBJECT__109
10
43.980000
20
-107.091003
30
-31.285999
70
192
0
VERTEX
8
OBJECT__109
10
43.980000
20
-106.140999
30
-31.283001
70
192
0
VERTEX
8
OBJECT__109
10
43.672001
20
-106.139999
30
-30.964001
70
192
0
VERTEX
8
OBJECT__109
10
43.980000
20
-105.182999
30
-31.281000
70
192
0
VERTEX
8
OBJECT__109
10
43.999001
20
-104.664001
30
-30.445000
70
192
0
VERTEX
8
OBJECT__109
10
44.000000
20
-104.636002
30
-30.174000
70
192
0
VERTEX
8
OBJECT__109
10
43.549999
20
-106.139999
30
-30.176001
70
192
0
VERTEX
8
OBJECT__109
10
0
20
0
30
0
70
128
71
1
72
2
73
3
0
VERTEX
8
OBJECT__109
10
0
20
0
30
0
70
128
71
3
72
4
73
1
0
VERTEX
8
OBJECT__109
10
0
20
0
30
0
70
128
71
5
72
6
73
4
0
VERTEX
8
OBJECT__109
10
0
20
0
30
0
70
128
71
7
72
8
73
9
0
VERTEX
8
OBJECT__109
10
0
20
0
30
0
70
128
71
9
72
6
73
7
0
VERTEX
8
OBJECT__109
10
0
20
0
30
0
70
128
71
10
72
11
73
1
0
VERTEX
8
OBJECT__109
10
0
20
0
30
0
70
128
71
1
72
9
73
10
0
VERTEX
8
OBJECT__109
10
0
20
0
30
0
70
128
71
9
72
8
73
10
0
VERTEX
8
OBJECT__109
10
0
20
0
30
0
70
128
71
11
72
12
73
1
0
VERTEX
8
OBJECT__109
10
0
20
0
30
0
70
128
71
6
72
5
73
7
0
VERTEX
8
OBJECT__109
10
0
20
0
30
0
70
128
71
4
72
3
73
5
0
VERTEX
8
OBJECT__109
10
0
20
0
30
0
70
128
71
1
72
12
73
2
0
VERTEX
8
OBJECT__109
10
0
20
0
30
0
70
128
71
13
72
6
73
9
0
VERTEX
8
OBJECT__109
10
0
20
0
30
0
70
128
71
13
72
1
73
4
0
VERTEX
8
OBJECT__109
10
0
20
0
30
0
70
128
71
9
72
1
73
13
0
VERTEX
8
OBJECT__109
10
0
20
0
30
0
70
128
71
4
72
6
73
13
0
SEQEND
8
OBJECT__109
0
POLYLINE
8
OBJECT__110
66
1
70
64
71
62
72
68
62
253
0
VERTEX
8
OBJECT__110
10
34.209000
20
-158.699997
30
-49.641998
70
192
0
VERTEX
8
OBJECT__110
10
5.995000
20
-158.699997
30
-49.790001
70
192
0
VERTEX
8
OBJECT__110
10
20.125999
20
-101.699997
30
-54.299999
70
192
0
VERTEX
8
OBJECT__110
10
5.995000
20
-101.699997
30
-49.790001
70
192
0
VERTEX
8
OBJECT__110
10
-2.864000
20
-101.699997
30
-23.004000
70
192
0
VERTEX
8
OBJECT__110
10
-3.500000
20
-115.699997
30
-25.424000
70
192
0
VERTEX
8
OBJECT__110
10
-3.500000
20
-143.699997
30
-25.424000
70
192
0
VERTEX
8
OBJECT__110
10
-3.563000
20
-113.945999
30
-25.742001
70
192
0
VERTEX
8
OBJECT__110
10
-3.786000
20
-111.967003
30
-27.098000
70
192
0
VERTEX
8
OBJECT__110
10
-3.704000
20
-112.550003
30
-26.541000
70
192
0
VERTEX
8
OBJECT__110
10
-4.000000
20
-110.699997
30
-30.426001
70
192
0
VERTEX
8
OBJECT__110
10
-3.798000
20
-111.686996
30
-33.408001
70
192
0
VERTEX
8
OBJECT__110
10
-3.514000
20
-113.945999
30
-35.105999
70
192
0
VERTEX
8
OBJECT__110
10
-3.751000
20
-111.967003
30
-33.751999
70
192
0
VERTEX
8
OBJECT__110
10
-3.447000
20
-143.699997
30
-35.424000
70
192
0
VERTEX
8
OBJECT__110
10
-3.447000
20
-115.699997
30
-35.424000
70
192
0
VERTEX
8
OBJECT__110
10
-3.453000
20
-115.155998
30
-35.394001
70
192
0
VERTEX
8
OBJECT__110
10
-3.514000
20
-145.453995
30
-35.105999
70
192
0
VERTEX
8
OBJECT__110
10
-3.751000
20
-147.432999
30
-33.751999
70
192
0
VERTEX
8
OBJECT__110
10
-3.581000
20
-146.181000
30
-34.764999
70
192
0
VERTEX
8
OBJECT__110
10
-2.864000
20
-158.699997
30
-23.004000
70
192
0
VERTEX
8
OBJECT__110
10
-4.000000
20
-148.699997
30
-30.426001
70
192
0
VERTEX
8
OBJECT__110
10
-3.786000
20
-147.432999
30
-27.098000
70
192
0
VERTEX
8
OBJECT__110
10
-3.999000
20
-148.684998
30
-30.035000
70
192
0
VERTEX
8
OBJECT__110
10
-3.563000
20
-145.453995
30
-25.742001
70
192
0
VERTEX
8
OBJECT__110
10
19.872999
20
-158.699997
30
-6.300000
70
192
0
VERTEX
8
OBJECT__110
10
19.872999
20
-101.699997
30
-6.300000
70
192
0
VERTEX
8
OBJECT__110
10
42.554001
20
-115.483002
30
-22.096001
70
192
0
VERTEX
8
OBJECT__110
10
42.778999
20
-114.487999
30
-22.766001
70
192
0
VERTEX
8
OBJECT__110
10
42.152000
20
-139.591995
30
-21.063999
70
192
0
VERTEX
8
OBJECT__110
10
42.152000
20
-119.708000
30
-21.063999
70
192
0
VERTEX
8
OBJECT__110
10
42.176998
20
-140.654007
30
-21.125000
70
192
0
VERTEX
8
OBJECT__110
10
42.554001
20
-143.817001
30
-22.096001
70
192
0
VERTEX
8
OBJECT__110
10
42.176998
20
-118.646004
30
-21.125000
70
192
0
VERTEX
8
OBJECT__110
10
42.785999
20
-158.699997
30
-22.763000
70
192
0
VERTEX
8
OBJECT__110
10
42.778999
20
-144.811996
30
-22.766001
70
192
0
VERTEX
8
OBJECT__110
10
43.695999
20
-147.942001
30
-26.490999
70
192
0
VERTEX
8
OBJECT__110
10
43.365002
20
-146.977997
30
-24.816999
70
192
0
VERTEX
8
OBJECT__110
10
42.938999
20
-145.520996
30
-23.243000
70
192
0
VERTEX
8
OBJECT__110
10
43.936001
20
-148.524994
30
-32.046001
70
192
0
VERTEX
8
OBJECT__110
10
43.313999
20
-146.621994
30
-35.994999
70
192
0
VERTEX
8
OBJECT__110
10
43.422001
20
-146.977997
30
-35.536999
70
192
0
VERTEX
8
OBJECT__110
10
44.000000
20
-148.718994
30
-30.174000
70
192
0
VERTEX
8
OBJECT__110
10
34.209000
20
-101.699997
30
-49.641998
70
192
0
VERTEX
8
OBJECT__110
10
42.248001
20
-119.699997
30
-39.301998
70
192
0
VERTEX
8
OBJECT__110
10
42.248001
20
-139.600006
30
-39.301998
70
192
0
VERTEX
8
OBJECT__110
10
42.292000
20
-118.289001
30
-39.192001
70
192
0
VERTEX
8
OBJECT__110
10
43.980000
20
-106.140999
30
-31.283001
70
192
0
VERTEX
8
OBJECT__110
10
43.980000
20
-107.091003
30
-31.285999
70
192
0
VERTEX
8
OBJECT__110
10
43.980000
20
-105.182999
30
-31.281000
70
192
0
VERTEX
8
OBJECT__110
10
43.422001
20
-112.321999
30
-35.536999
70
192
0
VERTEX
8
OBJECT__110
10
42.785999
20
-101.699997
30
-22.763000
70
192
0
VERTEX
8
OBJECT__110
10
44.000000
20
-104.636002
30
-30.174000
70
192
0
VERTEX
8
OBJECT__110
10
43.999001
20
-104.664001
30
-30.445000
70
192
0
VERTEX
8
OBJECT__110
10
43.952000
20
-105.755997
30
-28.787001
70
192
0
VERTEX
8
OBJECT__110
10
43.365002
20
-112.321999
30
-24.816999
70
192
0
VERTEX
8
OBJECT__110
10
43.958000
20
-106.050003
30
-28.921000
70
192
0
VERTEX
8
OBJECT__110
10
43.695999
20
-111.358002
30
-26.490999
70
192
0
VERTEX
8
OBJECT__110
10
43.988998
20
-107.510002
30
-29.584999
70
192
0
VERTEX
8
OBJECT__110
10
42.938999
20
-113.778999
30
-23.243000
70
192
0
VERTEX
8
OBJECT__110
10
44.000000
20
-110.581001
30
-30.174000
70
192
0
VERTEX
8
OBJECT__110
10
43.936001
20
-110.775002
30
-32.046001
70
192
0
VERTEX
8
OBJECT__110
10
0
20
0
30
0
70
128
71
1
72
2
73
3
0
VERTEX
8
OBJECT__110
10
0
20
0
30
0
70
128
71
2
72
4
73
3
0
VERTEX
8
OBJECT__110
10
0
20
0
30
0
70
128
71
5
72
6
73
7
0
VERTEX
8
OBJECT__110
10
0
20
0
30
0
70
128
71
5
72
8
73
6
0
VERTEX
8
OBJECT__110
10
0
20
0
30
0
70
128
71
5
72
9
73
10
0
VERTEX
8
OBJECT__110
10
0
20
0
30
0
70
128
71
10
72
8
73
5
0
VERTEX
8
OBJECT__110
10
0
20
0
30
0
70
128
71
5
72
11
73
9
0
VERTEX
8
OBJECT__110
10
0
20
0
30
0
70
128
71
4
72
12
73
11
0
VERTEX
8
OBJECT__110
10
0
20
0
30
0
70
128
71
4
72
13
73
14
0
VERTEX
8
OBJECT__110
10
0
20
0
30
0
70
128
71
14
72
12
73
4
0
VERTEX
8
OBJECT__110
10
0
20
0
30
0
70
128
71
4
72
2
73
15
0
VERTEX
8
OBJECT__110
10
0
20
0
30
0
70
128
71
15
72
16
73
4
0
VERTEX
8
OBJECT__110
10
0
20
0
30
0
70
128
71
16
72
17
73
4
0
VERTEX
8
OBJECT__110
10
0
20
0
30
0
70
128
71
2
72
18
73
15
0
VERTEX
8
OBJECT__110
10
0
20
0
30
0
70
128
71
2
72
19
73
20
0
VERTEX
8
OBJECT__110
10
0
20
0
30
0
70
128
71
20
72
18
73
2
0
VERTEX
8
OBJECT__110
10
0
20
0
30
0
70
128
71
17
72
13
73
4
0
VERTEX
8
OBJECT__110
10
0
20
0
30
0
70
128
71
2
72
21
73
22
0
VERTEX
8
OBJECT__110
10
0
20
0
30
0
70
128
71
21
72
23
73
24
0
VERTEX
8
OBJECT__110
10
0
20
0
30
0
70
128
71
24
72
22
73
21
0
VERTEX
8
OBJECT__110
10
0
20
0
30
0
70
128
71
22
72
19
73
2
0
VERTEX
8
OBJECT__110
10
0
20
0
30
0
70
128
71
21
72
7
73
25
0
VERTEX
8
OBJECT__110
10
0
20
0
30
0
70
128
71
25
72
23
73
21
0
VERTEX
8
OBJECT__110
10
0
20
0
30
0
70
128
71
11
72
5
73
4
0
VERTEX
8
OBJECT__110
10
0
20
0
30
0
70
128
71
26
72
27
73
5
0
VERTEX
8
OBJECT__110
10
0
20
0
30
0
70
128
71
27
72
28
73
29
0
VERTEX
8
OBJECT__110
10
0
20
0
30
0
70
128
71
27
72
26
73
30
0
VERTEX
8
OBJECT__110
10
0
20
0
30
0
70
128
71
30
72
31
73
27
0
VERTEX
8
OBJECT__110
10
0
20
0
30
0
70
128
71
26
72
32
73
30
0
VERTEX
8
OBJECT__110
10
0
20
0
30
0
70
128
71
26
72
33
73
32
0
VERTEX
8
OBJECT__110
10
0
20
0
30
0
70
128
71
31
72
34
73
27
0
VERTEX
8
OBJECT__110
10
0
20
0
30
0
70
128
71
26
72
35
73
36
0
VERTEX
8
OBJECT__110
10
0
20
0
30
0
70
128
71
36
72
33
73
26
0
VERTEX
8
OBJECT__110
10
0
20
0
30
0
70
128
71
34
72
28
73
27
0
VERTEX
8
OBJECT__110
10
0
20
0
30
0
70
128
71
35
72
37
73
38
0
VERTEX
8
OBJECT__110
10
0
20
0
30
0
70
128
71
38
72
39
73
35
0
VERTEX
8
OBJECT__110
10
0
20
0
30
0
70
128
71
35
72
1
73
40
0
VERTEX
8
OBJECT__110
10
0
20
0
30
0
70
128
71
1
72
41
73
42
0
VERTEX
8
OBJECT__110
10
0
20
0
30
0
70
128
71
42
72
40
73
1
0
VERTEX
8
OBJECT__110
10
0
20
0
30
0
70
128
71
40
72
43
73
35
0
VERTEX
8
OBJECT__110
10
0
20
0
30
0
70
128
71
43
72
37
73
35
0
VERTEX
8
OBJECT__110
10
0
20
0
30
0
70
128
71
44
72
45
73
46
0
VERTEX
8
OBJECT__110
10
0
20
0
30
0
70
128
71
44
72
47
73
45
0
VERTEX
8
OBJECT__110
10
0
20
0
30
0
70
128
71
46
72
1
73
44
0
VERTEX
8
OBJECT__110
10
0
20
0
30
0
70
128
71
46
72
41
73
1
0
VERTEX
8
OBJECT__110
10
0
20
0
30
0
70
128
71
44
72
48
73
49
0
VERTEX
8
OBJECT__110
10
0
20
0
30
0
70
128
71
44
72
50
73
48
0
VERTEX
8
OBJECT__110
10
0
20
0
30
0
70
128
71
49
72
51
73
44
0
VERTEX
8
OBJECT__110
10
0
20
0
30
0
70
128
71
51
72
47
73
44
0
VERTEX
8
OBJECT__110
10
0
20
0
30
0
70
128
71
52
72
53
73
54
0
VERTEX
8
OBJECT__110
10
0
20
0
30
0
70
128
71
54
72
44
73
52
0
VERTEX
8
OBJECT__110
10
0
20
0
30
0
70
128
71
52
72
55
73
53
0
VERTEX
8
OBJECT__110
10
0
20
0
30
0
70
128
71
54
72
50
73
44
0
VERTEX
8
OBJECT__110
10
0
20
0
30
0
70
128
71
56
72
57
73
55
0
VERTEX
8
OBJECT__110
10
0
20
0
30
0
70
128
71
57
72
56
73
58
0
VERTEX
8
OBJECT__110
10
0
20
0
30
0
70
128
71
58
72
59
73
57
0
VERTEX
8
OBJECT__110
10
0
20
0
30
0
70
128
71
52
72
60
73
56
0
VERTEX
8
OBJECT__110
10
0
20
0
30
0
70
128
71
52
72
29
73
60
0
VERTEX
8
OBJECT__110
10
0
20
0
30
0
70
128
71
55
72
52
73
56
0
VERTEX
8
OBJECT__110
10
0
20
0
30
0
70
128
71
49
72
59
73
61
0
VERTEX
8
OBJECT__110
10
0
20
0
30
0
70
128
71
59
72
58
73
61
0
VERTEX
8
OBJECT__110
10
0
20
0
30
0
70
128
71
61
72
62
73
49
0
VERTEX
8
OBJECT__110
10
0
20
0
30
0
70
128
71
62
72
51
73
49
0
VERTEX
8
OBJECT__110
10
0
20
0
30
0
70
128
71
39
72
36
73
35
0
VERTEX
8
OBJECT__110
10
0
20
0
30
0
70
128
71
29
72
52
73
27
0
VERTEX
8
OBJECT__110
10
0
20
0
30
0
70
128
71
5
72
21
73
26
0
VERTEX
8
OBJECT__110
10
0
20
0
30
0
70
128
71
7
72
21
73
5
0
VERTEX
8
OBJECT__110
10
0
20
0
30
0
70
128
71
3
72
44
73
1
0
SEQEND
8
OBJECT__110
0
POLYLINE
8
OBJECT__112
66
1
70
64
71
6
72
4
62
253
0
VERTEX
8
OBJECT__112
10
-2.000000
20
-143.699997
30
-30.416000
70
192
0
VERTEX
8
OBJECT__112
10
-2.000000
20
-115.699997
30
-30.416000
70
192
0
VERTEX
8
OBJECT__112
10
-3.447000
20
-115.699997
30
-35.424000
70
192
0
VERTEX
8
OBJECT__112
10
-3.500000
20
-143.699997
30
-25.424000
70
192
0
VERTEX
8
OBJECT__112
10
-3.500000
20
-115.699997
30
-25.424000
70
192
0
VERTEX
8
OBJECT__112
10
-3.447000
20
-143.699997
30
-35.424000
70
192
0
VERTEX
8
OBJECT__112
10
0
20
0
30
0
70
128
71
1
72
2
73
3
0
VERTEX
8
OBJECT__112
10
0
20
0
30
0
70
128
71
1
72
4
73
5
0
VERTEX
8
OBJECT__112
10
0
20
0
30
0
70
128
71
5
72
2
73
1
0
VERTEX
8
OBJECT__112
10
0
20
0
30
0
70
128
71
3
72
6
73
1
0
SEQEND
8
OBJECT__112
0
POLYLINE
8
OBJECT__113
66
1
70
64
71
4
72
2
62
253
0
VERTEX
8
OBJECT__113
10
42.248001
20
-119.699997
30
-39.301998
70
192
0
VERTEX
8
OBJECT__113
10
42.095001
20
-119.699997
30
-39.002998
70
192
0
VERTEX
8
OBJECT__113
10
42.095001
20
-139.600006
30
-39.002998
70
192
0
VERTEX
8
OBJECT__113
10
42.248001
20
-139.600006
30
-39.301998
70
192
0
VERTEX
8
OBJECT__113
10
0
20
0
30
0
70
128
71
1
72
2
73
3
0
VERTEX
8
OBJECT__113
10
0
20
0
30
0
70
128
71
3
72
4
73
1
0
SEQEND
8
OBJECT__113
0
POLYLINE
8
OBJECT__114
66
1
70
64
71
7
72
5
62
253
0
VERTEX
8
OBJECT__114
10
42.095001
20
-119.699997
30
-39.002998
70
192
0
VERTEX
8
OBJECT__114
10
42.248001
20
-119.699997
30
-39.301998
70
192
0
VERTEX
8
OBJECT__114
10
42.292000
20
-118.289001
30
-39.192001
70
192
0
VERTEX
8
OBJECT__114
10
43.422001
20
-112.321999
30
-35.536999
70
192
0
VERTEX
8
OBJECT__114
10
43.215000
20
-112.565002
30
-35.362000
70
192
0
VERTEX
8
OBJECT__114
10
42.213001
20
-117.417999
30
-38.702000
70
192
0
VERTEX
8
OBJECT__114
10
43.222000
20
-112.543999
30
-35.332001
70
192
0
VERTEX
8
OBJECT__114
10
0
20
0
30
0
70
128
71
1
72
2
73
3
0
VERTEX
8
OBJECT__114
10
0
20
0
30
0
70
128
71
4
72
5
73
6
0
VERTEX
8
OBJECT__114
10
0
20
0
30
0
70
128
71
4
72
7
73
5
0
VERTEX
8
OBJECT__114
10
0
20
0
30
0
70
128
71
6
72
3
73
4
0
VERTEX
8
OBJECT__114
10
0
20
0
30
0
70
128
71
3
72
6
73
1
0
SEQEND
8
OBJECT__114
0
POLYLINE
8
OBJECT__115
66
1
70
64
71
5
72
3
62
253
0
VERTEX
8
OBJECT__115
10
43.222000
20
-112.543999
30
-35.332001
70
192
0
VERTEX
8
OBJECT__115
10
43.422001
20
-112.321999
30
-35.536999
70
192
0
VERTEX
8
OBJECT__115
10
43.936001
20
-110.775002
30
-32.046001
70
192
0
VERTEX
8
OBJECT__115
10
43.768002
20
-110.880997
30
-30.174999
70
192
0
VERTEX
8
OBJECT__115
10
44.000000
20
-110.581001
30
-30.174000
70
192
0
VERTEX
8
OBJECT__115
10
0
20
0
30
0
70
128
71
1
72
2
73
3
0
VERTEX
8
OBJECT__115
10
0
20
0
30
0
70
128
71
3
72
4
73
1
0
VERTEX
8
OBJECT__115
10
0
20
0
30
0
70
128
71
3
72
5
73
4
0
SEQEND
8
OBJECT__115
0
POLYLINE
8
OBJECT__116
66
1
70
64
71
6
72
4
62
253
0
VERTEX
8
OBJECT__116
10
19.872999
20
-101.699997
30
-6.300000
70
192
0
VERTEX
8
OBJECT__116
10
20.125999
20
-101.699997
30
-54.299999
70
192
0
VERTEX
8
OBJECT__116
10
5.995000
20
-101.699997
30
-49.790001
70
192
0
VERTEX
8
OBJECT__116
10
42.785999
20
-101.699997
30
-22.763000
70
192
0
VERTEX
8
OBJECT__116
10
34.209000
20
-101.699997
30
-49.641998
70
192
0
VERTEX
8
OBJECT__116
10
-2.864000
20
-101.699997
30
-23.004000
70
192
0
VERTEX
8
OBJECT__116
10
0
20
0
30
0
70
128
71
1
72
2
73
3
0
VERTEX
8
OBJECT__116
10
0
20
0
30
0
70
128
71
1
72
4
73
5
0
VERTEX
8
OBJECT__116
10
0
20
0
30
0
70
128
71
5
72
2
73
1
0
VERTEX
8
OBJECT__116
10
0
20
0
30
0
70
128
71
3
72
6
73
1
0
SEQEND
8
OBJECT__116
0
POLYLINE
8
OBJECT__117
66
1
70
64
71
5
72
3
62
253
0
VERTEX
8
OBJECT__117
10
5.995000
20
-158.699997
30
-49.790001
70
192
0
VERTEX
8
OBJECT__117
10
34.209000
20
-158.699997
30
-49.641998
70
192
0
VERTEX
8
OBJECT__117
10
42.785999
20
-158.699997
30
-22.763000
70
192
0
VERTEX
8
OBJECT__117
10
19.872999
20
-158.699997
30
-6.300000
70
192
0
VERTEX
8
OBJECT__117
10
-2.864000
20
-158.699997
30
-23.004000
70
192
0
VERTEX
8
OBJECT__117
10
0
20
0
30
0
70
128
71
1
72
2
73
3
0
VERTEX
8
OBJECT__117
10
0
20
0
30
0
70
128
71
4
72
5
73
1
0
VERTEX
8
OBJECT__117
10
0
20
0
30
0
70
128
71
3
72
4
73
1
0
SEQEND
8
OBJECT__117
0
POLYLINE
8
OBJECT__118
66
1
70
64
71
4
72
2
62
253
0
VERTEX
8
OBJECT__118
10
42.002998
20
-119.699997
30
-21.365000
70
192
0
VERTEX
8
OBJECT__118
10
42.152000
20
-119.708000
30
-21.063999
70
192
0
VERTEX
8
OBJECT__118
10
42.152000
20
-139.591995
30
-21.063999
70
192
0
VERTEX
8
OBJECT__118
10
42.002998
20
-139.600006
30
-21.365000
70
192
0
VERTEX
8
OBJECT__118
10
0
20
0
30
0
70
128
71
1
72
2
73
3
0
VERTEX
8
OBJECT__118
10
0
20
0
30
0
70
128
71
3
72
4
73
1
0
SEQEND
8
OBJECT__118
0
POLYLINE
8
OBJECT__119
66
1
70
64
71
5
72
3
62
253
0
VERTEX
8
OBJECT__119
10
-3.500000
20
-143.699997
30
-25.424000
70
192
0
VERTEX
8
OBJECT__119
10
-2.000000
20
-143.699997
30
-30.416000
70
192
0
VERTEX
8
OBJECT__119
10
-2.910000
20
-146.048996
30
-27.509001
70
192
0
VERTEX
8
OBJECT__119
10
-2.522000
20
-146.393005
30
-30.419001
70
192
0
VERTEX
8
OBJECT__119
10
-3.563000
20
-145.453995
30
-25.742001
70
192
0
VERTEX
8
OBJECT__119
10
0
20
0
30
0
70
128
71
1
72
2
73
3
0
VERTEX
8
OBJECT__119
10
0
20
0
30
0
70
128
71
2
72
4
73
3
0
VERTEX
8
OBJECT__119
10
0
20
0
30
0
70
128
71
3
72
5
73
1
0
SEQEND
8
OBJECT__119
0
POLYLINE
8
OBJECT__120
66
1
70
64
71
4
72
2
62
253
0
VERTEX
8
OBJECT__120
10
-3.786000
20
-147.432999
30
-27.098000
70
192
0
VERTEX
8
OBJECT__120
10
-3.563000
20
-145.453995
30
-25.742001
70
192
0
VERTEX
8
OBJECT__120
10
-2.910000
20
-146.048996
30
-27.509001
70
192
0
VERTEX
8
OBJECT__120
10
-3.203000
20
-147.240005
30
-28.271000
70
192
0
VERTEX
8
OBJECT__120
10
0
20
0
30
0
70
128
71
1
72
2
73
3
0
VERTEX
8
OBJECT__120
10
0
20
0
30
0
70
128
71
3
72
4
73
1
0
SEQEND
8
OBJECT__120
0
POLYLINE
8
OBJECT__121
66
1
70
64
71
5
72
3
62
253
0
VERTEX
8
OBJECT__121
10
-3.999000
20
-148.684998
30
-30.035000
70
192
0
VERTEX
8
OBJECT__121
10
-3.786000
20
-147.432999
30
-27.098000
70
192
0
VERTEX
8
OBJECT__121
10
-3.203000
20
-147.240005
30
-28.271000
70
192
0
VERTEX
8
OBJECT__121
10
-3.143000
20
-147.621994
30
-30.422001
70
192
0
VERTEX
8
OBJECT__121
10
-4.000000
20
-148.699997
30
-30.426001
70
192
0
VERTEX
8
OBJECT__121
10
0
20
0
30
0
70
128
71
1
72
2
73
3
0
VERTEX
8
OBJECT__121
10
0
20
0
30
0
70
128
71
4
72
5
73
1
0
VERTEX
8
OBJECT__121
10
0
20
0
30
0
70
128
71
3
72
4
73
1
0
SEQEND
8
OBJECT__121
0
POLYLINE
8
OBJECT__122
66
1
70
64
71
5
72
3
62
253
0
VERTEX
8
OBJECT__122
10
-3.447000
20
-143.699997
30
-35.424000
70
192
0
VERTEX
8
OBJECT__122
10
-3.514000
20
-145.453995
30
-35.105999
70
192
0
VERTEX
8
OBJECT__122
10
-2.879000
20
-146.048996
30
-33.332001
70
192
0
VERTEX
8
OBJECT__122
10
-2.000000
20
-143.699997
30
-30.416000
70
192
0
VERTEX
8
OBJECT__122
10
-2.522000
20
-146.393005
30
-30.419001
70
192
0
VERTEX
8
OBJECT__122
10
0
20
0
30
0
70
128
71
1
72
2
73
3
0
VERTEX
8
OBJECT__122
10
0
20
0
30
0
70
128
71
3
72
4
73
1
0
VERTEX
8
OBJECT__122
10
0
20
0
30
0
70
128
71
3
72
5
73
4
0
SEQEND
8
OBJECT__122
0
POLYLINE
8
OBJECT__123
66
1
70
64
71
4
72
2
62
253
0
VERTEX
8
OBJECT__123
10
-2.522000
20
-146.393005
30
-30.419001
70
192
0
VERTEX
8
OBJECT__123
10
-3.143000
20
-147.621994
30
-30.422001
70
192
0
VERTEX
8
OBJECT__123
10
-3.203000
20
-147.240005
30
-28.271000
70
192
0
VERTEX
8
OBJECT__123
10
-2.910000
20
-146.048996
30
-27.509001
70
192
0
VERTEX
8
OBJECT__123
10
0
20
0
30
0
70
128
71
1
72
2
73
3
0
VERTEX
8
OBJECT__123
10
0
20
0
30
0
70
128
71
3
72
4
73
1
0
SEQEND
8
OBJECT__123
0
POLYLINE
8
OBJECT__124
66
1
70
64
71
4
72
2
62
253
0
VERTEX
8
OBJECT__124
10
-2.522000
20
-146.393005
30
-30.419001
70
192
0
VERTEX
8
OBJECT__124
10
-2.879000
20
-146.048996
30
-33.332001
70
192
0
VERTEX
8
OBJECT__124
10
-3.182000
20
-147.242004
30
-32.575001
70
192
0
VERTEX
8
OBJECT__124
10
-3.143000
20
-147.621994
30
-30.422001
70
192
0
VERTEX
8
OBJECT__124
10
0
20
0
30
0
70
128
71
1
72
2
73
3
0
VERTEX
8
OBJECT__124
10
0
20
0
30
0
70
128
71
3
72
4
73
1
0
SEQEND
8
OBJECT__124
0
POLYLINE
8
OBJECT__125
66
1
70
64
71
5
72
3
62
253
0
VERTEX
8
OBJECT__125
10
-2.879000
20
-146.048996
30
-33.332001
70
192
0
VERTEX
8
OBJECT__125
10
-3.581000
20
-146.181000
30
-34.764999
70
192
0
VERTEX
8
OBJECT__125
10
-3.751000
20
-147.432999
30
-33.751999
70
192
0
VERTEX
8
OBJECT__125
10
-3.514000
20
-145.453995
30
-35.105999
70
192
0
VERTEX
8
OBJECT__125
10
-3.182000
20
-147.242004
30
-32.575001
70
192
0
VERTEX
8
OBJECT__125
10
0
20
0
30
0
70
128
71
1
72
2
73
3
0
VERTEX
8
OBJECT__125
10
0
20
0
30
0
70
128
71
1
72
4
73
2
0
VERTEX
8
OBJECT__125
10
0
20
0
30
0
70
128
71
3
72
5
73
1
0
SEQEND
8
OBJECT__125
0
POLYLINE
8
OBJECT__126
66
1
70
64
71
4
72
2
62
253
0
VERTEX
8
OBJECT__126
10
-4.000000
20
-148.699997
30
-30.426001
70
192
0
VERTEX
8
OBJECT__126
10
-3.143000
20
-147.621994
30
-30.422001
70
192
0
VERTEX
8
OBJECT__126
10
-3.182000
20
-147.242004
30
-32.575001
70
192
0
VERTEX
8
OBJECT__126
10
-3.751000
20
-147.432999
30
-33.751999
70
192
0
VERTEX
8
OBJECT__126
10
0
20
0
30
0
70
128
71
1
72
2
73
3
0
VERTEX
8
OBJECT__126
10
0
20
0
30
0
70
128
71
3
72
4
73
1
0
SEQEND
8
OBJECT__126
0
POLYLINE
8
OBJECT__127
66
1
70
64
71
6
72
4
62
253
0
VERTEX
8
OBJECT__127
10
-3.453000
20
-115.155998
30
-35.394001
70
192
0
VERTEX
8
OBJECT__127
10
-2.000000
20
-115.699997
30
-30.416000
70
192
0
VERTEX
8
OBJECT__127
10
-2.879000
20
-113.350998
30
-33.332001
70
192
0
VERTEX
8
OBJECT__127
10
-3.514000
20
-113.945999
30
-35.105999
70
192
0
VERTEX
8
OBJECT__127
10
-2.522000
20
-113.007004
30
-30.419001
70
192
0
VERTEX
8
OBJECT__127
10
-3.447000
20
-115.699997
30
-35.424000
70
192
0
VERTEX
8
OBJECT__127
10
0
20
0
30
0
70
128
71
1
72
2
73
3
0
VERTEX
8
OBJECT__127
10
0
20
0
30
0
70
128
71
3
72
4
73
1
0
VERTEX
8
OBJECT__127
10
0
20
0
30
0
70
128
71
2
72
5
73
3
0
VERTEX
8
OBJECT__127
10
0
20
0
30
0
70
128
71
1
72
6
73
2
0
SEQEND
8
OBJECT__127
0
POLYLINE
8
OBJECT__128
66
1
70
64
71
5
72
3
62
253
0
VERTEX
8
OBJECT__128
10
-4.000000
20
-110.699997
30
-30.426001
70
192
0
VERTEX
8
OBJECT__128
10
-3.798000
20
-111.686996
30
-33.408001
70
192
0
VERTEX
8
OBJECT__128
10
-3.180000
20
-112.160004
30
-32.573002
70
192
0
VERTEX
8
OBJECT__128
10
-3.143000
20
-111.778000
30
-30.422001
70
192
0
VERTEX
8
OBJECT__128
10
-3.751000
20
-111.967003
30
-33.751999
70
192
0
VERTEX
8
OBJECT__128
10
0
20
0
30
0
70
128
71
1
72
2
73
3
0
VERTEX
8
OBJECT__128
10
0
20
0
30
0
70
128
71
3
72
4
73
1
0
VERTEX
8
OBJECT__128
10
0
20
0
30
0
70
128
71
2
72
5
73
3
0
SEQEND
8
OBJECT__128
0
POLYLINE
8
OBJECT__129
66
1
70
64
71
4
72
2
62
253
0
VERTEX
8
OBJECT__129
10
-3.751000
20
-111.967003
30
-33.751999
70
192
0
VERTEX
8
OBJECT__129
10
-3.514000
20
-113.945999
30
-35.105999
70
192
0
VERTEX
8
OBJECT__129
10
-2.879000
20
-113.350998
30
-33.332001
70
192
0
VERTEX
8
OBJECT__129
10
-3.180000
20
-112.160004
30
-32.573002
70
192
0
VERTEX
8
OBJECT__129
10
0
20
0
30
0
70
128
71
1
72
2
73
3
0
VERTEX
8
OBJECT__129
10
0
20
0
30
0
70
128
71
3
72
4
73
1
0
SEQEND
8
OBJECT__129
0
POLYLINE
8
OBJECT__130
66
1
70
64
71
5
72
3
62
253
0
VERTEX
8
OBJECT__130
10
-3.500000
20
-115.699997
30
-25.424000
70
192
0
VERTEX
8
OBJECT__130
10
-3.563000
20
-113.945999
30
-25.742001
70
192
0
VERTEX
8
OBJECT__130
10
-2.910000
20
-113.350998
30
-27.509001
70
192
0
VERTEX
8
OBJECT__130
10
-2.000000
20
-115.699997
30
-30.416000
70
192
0
VERTEX
8
OBJECT__130
10
-2.522000
20
-113.007004
30
-30.419001
70
192
0
VERTEX
8
OBJECT__130
10
0
20
0
30
0
70
128
71
1
72
2
73
3
0
VERTEX
8
OBJECT__130
10
0
20
0
30
0
70
128
71
3
72
4
73
1
0
VERTEX
8
OBJECT__130
10
0
20
0
30
0
70
128
71
3
72
5
73
4
0
SEQEND
8
OBJECT__130
0
POLYLINE
8
OBJECT__131
66
1
70
64
71
5
72
3
62
253
0
VERTEX
8
OBJECT__131
10
-2.910000
20
-113.350998
30
-27.509001
70
192
0
VERTEX
8
OBJECT__131
10
-3.704000
20
-112.550003
30
-26.541000
70
192
0
VERTEX
8
OBJECT__131
10
-3.786000
20
-111.967003
30
-27.098000
70
192
0
VERTEX
8
OBJECT__131
10
-3.563000
20
-113.945999
30
-25.742001
70
192
0
VERTEX
8
OBJECT__131
10
-3.204000
20
-112.157997
30
-28.268999
70
192
0
VERTEX
8
OBJECT__131
10
0
20
0
30
0
70
128
71
1
72
2
73
3
0
VERTEX
8
OBJECT__131
10
0
20
0
30
0
70
128
71
1
72
4
73
2
0
VERTEX
8
OBJECT__131
10
0
20
0
30
0
70
128
71
3
72
5
73
1
0
SEQEND
8
OBJECT__131
0
POLYLINE
8
OBJECT__132
66
1
70
64
71
4
72
2
62
253
0
VERTEX
8
OBJECT__132
10
-4.000000
20
-110.699997
30
-30.426001
70
192
0
VERTEX
8
OBJECT__132
10
-3.143000
20
-111.778000
30
-30.422001
70
192
0
VERTEX
8
OBJECT__132
10
-3.204000
20
-112.157997
30
-28.268999
70
192
0
VERTEX
8
OBJECT__132
10
-3.786000
20
-111.967003
30
-27.098000
70
192
0
VERTEX
8
OBJECT__132
10
0
20
0
30
0
70
128
71
1
72
2
73
3
0
VERTEX
8
OBJECT__132
10
0
20
0
30
0
70
128
71
3
72
4
73
1
0
SEQEND
8
OBJECT__132
0
POLYLINE
8
OBJECT__133
66
1
70
64
71
4
72
2
62
253
0
VERTEX
8
OBJECT__133
10
-2.522000
20
-113.007004
30
-30.419001
70
192
0
VERTEX
8
OBJECT__133
10
-3.143000
20
-111.778000
30
-30.422001
70
192
0
VERTEX
8
OBJECT__133
10
-3.180000
20
-112.160004
30
-32.573002
70
192
0
VERTEX
8
OBJECT__133
10
-2.879000
20
-113.350998
30
-33.332001
70
192
0
VERTEX
8
OBJECT__133
10
0
20
0
30
0
70
128
71
1
72
2
73
3
0
VERTEX
8
OBJECT__133
10
0
20
0
30
0
70
128
71
3
72
4
73
1
0
SEQEND
8
OBJECT__133
0
POLYLINE
8
OBJECT__134
66
1
70
64
71
4
72
2
62
253
0
VERTEX
8
OBJECT__134
10
-2.522000
20
-113.007004
30
-30.419001
70
192
0
VERTEX
8
OBJECT__134
10
-2.910000
20
-113.350998
30
-27.509001
70
192
0
VERTEX
8
OBJECT__134
10
-3.204000
20
-112.157997
30
-28.268999
70
192
0
VERTEX
8
OBJECT__134
10
-3.143000
20
-111.778000
30
-30.422001
70
192
0
VERTEX
8
OBJECT__134
10
0
20
0
30
0
70
128
71
1
72
2
73
3
0
VERTEX
8
OBJECT__134
10
0
20
0
30
0
70
128
71
3
72
4
73
1
0
SEQEND
8
OBJECT__134
0
POLYLINE
8
OBJECT__135
66
1
70
64
71
5
72
3
62
253
0
VERTEX
8
OBJECT__135
10
43.222000
20
-146.757004
30
-35.331001
70
192
0
VERTEX
8
OBJECT__135
10
43.766998
20
-148.419006
30
-30.174999
70
192
0
VERTEX
8
OBJECT__135
10
43.936001
20
-148.524994
30
-32.046001
70
192
0
VERTEX
8
OBJECT__135
10
44.000000
20
-148.718994
30
-30.174000
70
192
0
VERTEX
8
OBJECT__135
10
43.422001
20
-146.977997
30
-35.536999
70
192
0
VERTEX
8
OBJECT__135
10
0
20
0
30
0
70
128
71
1
72
2
73
3
0
VERTEX
8
OBJECT__135
10
0
20
0
30
0
70
128
71
2
72
4
73
3
0
VERTEX
8
OBJECT__135
10
0
20
0
30
0
70
128
71
3
72
5
73
1
0
SEQEND
8
OBJECT__135
0
POLYLINE
8
OBJECT__136
66
1
70
64
71
7
72
5
62
253
0
VERTEX
8
OBJECT__136
10
43.313999
20
-146.621994
30
-35.994999
70
192
0
VERTEX
8
OBJECT__136
10
42.248001
20
-139.600006
30
-39.301998
70
192
0
VERTEX
8
OBJECT__136
10
42.213001
20
-141.882004
30
-38.702000
70
192
0
VERTEX
8
OBJECT__136
10
43.215000
20
-146.735001
30
-35.362000
70
192
0
VERTEX
8
OBJECT__136
10
42.095001
20
-139.600006
30
-39.002998
70
192
0
VERTEX
8
OBJECT__136
10
43.422001
20
-146.977997
30
-35.536999
70
192
0
VERTEX
8
OBJECT__136
10
43.222000
20
-146.757004
30
-35.331001
70
192
0
VERTEX
8
OBJECT__136
10
0
20
0
30
0
70
128
71
1
72
2
73
3
0
VERTEX
8
OBJECT__136
10
0
20
0
30
0
70
128
71
3
72
4
73
1
0
VERTEX
8
OBJECT__136
10
0
20
0
30
0
70
128
71
2
72
5
73
3
0
VERTEX
8
OBJECT__136
10
0
20
0
30
0
70
128
71
4
72
6
73
1
0
VERTEX
8
OBJECT__136
10
0
20
0
30
0
70
128
71
4
72
7
73
6
0
SEQEND
8
OBJECT__136
0
POLYLINE
8
OBJECT__137
66
1
70
64
71
5
72
3
62
253
0
VERTEX
8
OBJECT__137
10
43.766998
20
-148.419006
30
-30.174999
70
192
0
VERTEX
8
OBJECT__137
10
43.167000
20
-146.757004
30
-25.024000
70
192
0
VERTEX
8
OBJECT__137
10
43.695999
20
-147.942001
30
-26.490999
70
192
0
VERTEX
8
OBJECT__137
10
43.365002
20
-146.977997
30
-24.816999
70
192
0
VERTEX
8
OBJECT__137
10
44.000000
20
-148.718994
30
-30.174000
70
192
0
VERTEX
8
OBJECT__137
10
0
20
0
30
0
70
128
71
1
72
2
73
3
0
VERTEX
8
OBJECT__137
10
0
20
0
30
0
70
128
71
2
72
4
73
3
0
VERTEX
8
OBJECT__137
10
0
20
0
30
0
70
128
71
3
72
5
73
1
0
SEQEND
8
OBJECT__137
0
POLYLINE
8
OBJECT__138
66
1
70
64
71
7
72
5
62
253
0
VERTEX
8
OBJECT__138
10
43.160000
20
-146.735001
30
-24.993999
70
192
0
VERTEX
8
OBJECT__138
10
42.390999
20
-143.703003
30
-22.375000
70
192
0
VERTEX
8
OBJECT__138
10
42.778999
20
-144.811996
30
-22.766001
70
192
0
VERTEX
8
OBJECT__138
10
42.938999
20
-145.520996
30
-23.243000
70
192
0
VERTEX
8
OBJECT__138
10
42.554001
20
-143.817001
30
-22.096001
70
192
0
VERTEX
8
OBJECT__138
10
43.365002
20
-146.977997
30
-24.816999
70
192
0
VERTEX
8
OBJECT__138
10
43.167000
20
-146.757004
30
-25.024000
70
192
0
VERTEX
8
OBJECT__138
10
0
20
0
30
0
70
128
71
1
72
2
73
3
0
VERTEX
8
OBJECT__138
10
0
20
0
30
0
70
128
71
3
72
4
73
1
0
VERTEX
8
OBJECT__138
10
0
20
0
30
0
70
128
71
2
72
5
73
3
0
VERTEX
8
OBJECT__138
10
0
20
0
30
0
70
128
71
6
72
7
73
1
0
VERTEX
8
OBJECT__138
10
0
20
0
30
0
70
128
71
4
72
6
73
1
0
SEQEND
8
OBJECT__138
0
POLYLINE
8
OBJECT__139
66
1
70
64
71
5
72
3
62
253
0
VERTEX
8
OBJECT__139
10
41.091999
20
-148.419006
30
-30.188999
70
192
0
VERTEX
8
OBJECT__139
10
43.766998
20
-148.419006
30
-30.174999
70
192
0
VERTEX
8
OBJECT__139
10
43.222000
20
-146.757004
30
-35.331001
70
192
0
VERTEX
8
OBJECT__139
10
40.487000
20
-146.735001
30
-35.375999
70
192
0
VERTEX
8
OBJECT__139
10
43.215000
20
-146.735001
30
-35.362000
70
192
0
VERTEX
8
OBJECT__139
10
0
20
0
30
0
70
128
71
1
72
2
73
3
0
VERTEX
8
OBJECT__139
10
0
20
0
30
0
70
128
71
3
72
4
73
1
0
VERTEX
8
OBJECT__139
10
0
20
0
30
0
70
128
71
3
72
5
73
4
0
SEQEND
8
OBJECT__139
0
POLYLINE
8
OBJECT__140
66
1
70
64
71
6
72
4
62
253
0
VERTEX
8
OBJECT__140
10
40.432999
20
-146.735001
30
-25.007999
70
192
0
VERTEX
8
OBJECT__140
10
43.160000
20
-146.735001
30
-24.993999
70
192
0
VERTEX
8
OBJECT__140
10
43.167000
20
-146.757004
30
-25.024000
70
192
0
VERTEX
8
OBJECT__140
10
43.766998
20
-148.419006
30
-30.174999
70
192
0
VERTEX
8
OBJECT__140
10
41.091999
20
-148.419006
30
-30.188999
70
192
0
VERTEX
8
OBJECT__140
10
40.916000
20
-148.016006
30
-27.555000
70
192
0
VERTEX
8
OBJECT__140
10
0
20
0
30
0
70
128
71
1
72
2
73
3
0
VERTEX
8
OBJECT__140
10
0
20
0
30
0
70
128
71
4
72
5
73
6
0
VERTEX
8
OBJECT__140
10
0
20
0
30
0
70
128
71
6
72
3
73
4
0
VERTEX
8
OBJECT__140
10
0
20
0
30
0
70
128
71
3
72
6
73
1
0
SEQEND
8
OBJECT__140
0
POLYLINE
8
OBJECT__141
66
1
70
64
71
6
72
4
62
253
0
VERTEX
8
OBJECT__141
10
-72.000999
20
-39.987000
30
-30.299999
70
192
0
VERTEX
8
OBJECT__141
10
-72.000999
20
-110.013000
30
-30.299999
70
192
0
VERTEX
8
OBJECT__141
10
-72.000999
20
-92.507004
30
0.022000
70
192
0
VERTEX
8
OBJECT__141
10
-72.000999
20
-57.493000
30
-60.622002
70
192
0
VERTEX
8
OBJECT__141
10
-72.000999
20
-92.507004
30
-60.622002
70
192
0
VERTEX
8
OBJECT__141
10
-72.000999
20
-57.493000
30
0.022000
70
192
0
VERTEX
8
OBJECT__141
10
0
20
0
30
0
70
128
71
1
72
2
73
3
0
VERTEX
8
OBJECT__141
10
0
20
0
30
0
70
128
71
2
72
1
73
4
0
VERTEX
8
OBJECT__141
10
0
20
0
30
0
70
128
71
4
72
5
73
2
0
VERTEX
8
OBJECT__141
10
0
20
0
30
0
70
128
71
3
72
6
73
1
0
SEQEND
8
OBJECT__141
0
POLYLINE
8
OBJECT__142
66
1
70
64
71
18
72
18
62
253
0
VERTEX
8
OBJECT__142
10
-72.000999
20
-39.987000
30
-30.299999
70
192
0
VERTEX
8
OBJECT__142
10
-39.383999
20
-40.841000
30
-30.299999
70
192
0
VERTEX
8
OBJECT__142
10
-39.383999
20
-50.846001
30
-54.453999
70
192
0
VERTEX
8
OBJECT__142
10
-72.000999
20
-57.493000
30
-60.622002
70
192
0
VERTEX
8
OBJECT__142
10
-72.000999
20
-92.507004
30
-60.622002
70
192
0
VERTEX
8
OBJECT__142
10
-39.383999
20
-75.000000
30
-64.459000
70
192
0
VERTEX
8
OBJECT__142
10
-39.383999
20
-58.804001
30
-57.750000
70
192
0
VERTEX
8
OBJECT__142
10
-72.000999
20
-110.013000
30
-30.299999
70
192
0
VERTEX
8
OBJECT__142
10
-39.383999
20
-99.153999
30
-54.453999
70
192
0
VERTEX
8
OBJECT__142
10
-39.383999
20
-91.195999
30
-57.750000
70
192
0
VERTEX
8
OBJECT__142
10
-39.383999
20
-109.158997
30
-30.299999
70
192
0
VERTEX
8
OBJECT__142
10
-39.383999
20
-99.153999
30
-6.146000
70
192
0
VERTEX
8
OBJECT__142
10
-72.000999
20
-92.507004
30
0.022000
70
192
0
VERTEX
8
OBJECT__142
10
-39.383999
20
-91.195999
30
-2.850000
70
192
0
VERTEX
8
OBJECT__142
10
-39.383999
20
-75.000000
30
3.859000
70
192
0
VERTEX
8
OBJECT__142
10
-72.000999
20
-57.493000
30
0.022000
70
192
0
VERTEX
8
OBJECT__142
10
-39.383999
20
-50.846001
30
-6.146000
70
192
0
VERTEX
8
OBJECT__142
10
-39.383999
20
-58.804001
30
-2.850000
70
192
0
VERTEX
8
OBJECT__142
10
0
20
0
30
0
70
128
71
1
72
2
73
3
0
VERTEX
8
OBJECT__142
10
0
20
0
30
0
70
128
71
3
72
4
73
1
0
VERTEX
8
OBJECT__142
10
0
20
0
30
0
70
128
71
5
72
4
73
6
0
VERTEX
8
OBJECT__142
10
0
20
0
30
0
70
128
71
4
72
7
73
6
0
VERTEX
8
OBJECT__142
10
0
20
0
30
0
70
128
71
8
72
5
73
9
0
VERTEX
8
OBJECT__142
10
0
20
0
30
0
70
128
71
5
72
10
73
9
0
VERTEX
8
OBJECT__142
10
0
20
0
30
0
70
128
71
8
72
11
73
12
0
VERTEX
8
OBJECT__142
10
0
20
0
30
0
70
128
71
12
72
13
73
8
0
VERTEX
8
OBJECT__142
10
0
20
0
30
0
70
128
71
13
72
14
73
15
0
VERTEX
8
OBJECT__142
10
0
20
0
30
0
70
128
71
15
72
16
73
13
0
VERTEX
8
OBJECT__142
10
0
20
0
30
0
70
128
71
1
72
16
73
17
0
VERTEX
8
OBJECT__142
10
0
20
0
30
0
70
128
71
16
72
18
73
17
0
VERTEX
8
OBJECT__142
10
0
20
0
30
0
70
128
71
17
72
2
73
1
0
VERTEX
8
OBJECT__142
10
0
20
0
30
0
70
128
71
15
72
18
73
16
0
VERTEX
8
OBJECT__142
10
0
20
0
30
0
70
128
71
12
72
14
73
13
0
VERTEX
8
OBJECT__142
10
0
20
0
30
0
70
128
71
9
72
11
73
8
0
VERTEX
8
OBJECT__142
10
0
20
0
30
0
70
128
71
6
72
10
73
5
0
VERTEX
8
OBJECT__142
10
0
20
0
30
0
70
128
71
3
72
7
73
4
0
SEQEND
8
OBJECT__142
0
POLYLINE
8
OBJECT__144
66
1
70
64
71
13
72
12
62
253
0
VERTEX
8
OBJECT__144
10
-38.800999
20
-75.000000
30
-30.299999
70
192
0
VERTEX
8
OBJECT__144
10
-39.383999
20
-75.000000
30
-64.459000
70
192
0
VERTEX
8
OBJECT__144
10
-39.383999
20
-58.804001
30
-57.750000
70
192
0
VERTEX
8
OBJECT__144
10
-39.383999
20
-50.846001
30
-6.146000
70
192
0
VERTEX
8
OBJECT__144
10
-39.383999
20
-58.804001
30
-2.850000
70
192
0
VERTEX
8
OBJECT__144
10
-39.383999
20
-75.000000
30
3.859000
70
192
0
VERTEX
8
OBJECT__144
10
-39.383999
20
-91.195999
30
-2.850000
70
192
0
VERTEX
8
OBJECT__144
10
-39.383999
20
-99.153999
30
-54.453999
70
192
0
VERTEX
8
OBJECT__144
10
-39.383999
20
-91.195999
30
-57.750000
70
192
0
VERTEX
8
OBJECT__144
10
-39.383999
20
-109.158997
30
-30.299999
70
192
0
VERTEX
8
OBJECT__144
10
-39.383999
20
-99.153999
30
-6.146000
70
192
0
VERTEX
8
OBJECT__144
10
-39.383999
20
-40.841000
30
-30.299999
70
192
0
VERTEX
8
OBJECT__144
10
-39.383999
20
-50.846001
30
-54.453999
70
192
0
VERTEX
8
OBJECT__144
10
0
20
0
30
0
70
128
71
1
72
2
73
3
0
VERTEX
8
OBJECT__144
10
0
20
0
30
0
70
128
71
1
72
4
73
5
0
VERTEX
8
OBJECT__144
10
0
20
0
30
0
70
128
71
1
72
6
73
7
0
VERTEX
8
OBJECT__144
10
0
20
0
30
0
70
128
71
1
72
8
73
9
0
VERTEX
8
OBJECT__144
10
0
20
0
30
0
70
128
71
9
72
2
73
1
0
VERTEX
8
OBJECT__144
10
0
20
0
30
0
70
128
71
1
72
10
73
8
0
VERTEX
8
OBJECT__144
10
0
20
0
30
0
70
128
71
1
72
11
73
10
0
VERTEX
8
OBJECT__144
10
0
20
0
30
0
70
128
71
7
72
11
73
1
0
VERTEX
8
OBJECT__144
10
0
20
0
30
0
70
128
71
5
72
6
73
1
0
VERTEX
8
OBJECT__144
10
0
20
0
30
0
70
128
71
1
72
12
73
4
0
VERTEX
8
OBJECT__144
10
0
20
0
30
0
70
128
71
1
72
13
73
12
0
VERTEX
8
OBJECT__144
10
0
20
0
30
0
70
128
71
3
72
13
73
1
0
SEQEND
8
OBJECT__144
0
POLYLINE
8
OBJECT__145
66
1
70
64
71
8
72
8
62
253
0
VERTEX
8
OBJECT__145
10
27.150000
20
56.000000
30
-72.199997
70
192
0
VERTEX
8
OBJECT__145
10
20.000000
20
63.150002
30
-72.199997
70
192
0
VERTEX
8
OBJECT__145
10
20.000000
20
63.150002
30
-92.199997
70
192
0
VERTEX
8
OBJECT__145
10
20.000000
20
48.849998
30
-92.199997
70
192
0
VERTEX
8
OBJECT__145
10
20.000000
20
48.849998
30
-72.199997
70
192
0
VERTEX
8
OBJECT__145
10
12.850000
20
56.000000
30
-92.199997
70
192
0
VERTEX
8
OBJECT__145
10
12.850000
20
56.000000
30
-72.199997
70
192
0
VERTEX
8
OBJECT__145
10
27.150000
20
56.000000
30
-92.199997
70
192
0
VERTEX
8
OBJECT__145
10
0
20
0
30
0
70
128
71
1
72
2
73
3
0
VERTEX
8
OBJECT__145
10
0
20
0
30
0
70
128
71
4
72
5
73
1
0
VERTEX
8
OBJECT__145
10
0
20
0
30
0
70
128
71
6
72
7
73
5
0
VERTEX
8
OBJECT__145
10
0
20
0
30
0
70
128
71
2
72
7
73
6
0
VERTEX
8
OBJECT__145
10
0
20
0
30
0
70
128
71
6
72
3
73
2
0
VERTEX
8
OBJECT__145
10
0
20
0
30
0
70
128
71
5
72
4
73
6
0
VERTEX
8
OBJECT__145
10
0
20
0
30
0
70
128
71
1
72
8
73
4
0
VERTEX
8
OBJECT__145
10
0
20
0
30
0
70
128
71
3
72
8
73
1
0
SEQEND
8
OBJECT__145
0
POLYLINE
8
OBJECT__146
66
1
70
64
71
8
72
8
62
253
0
VERTEX
8
OBJECT__146
10
27.500000
20
56.000000
30
-92.199997
70
192
0
VERTEX
8
OBJECT__146
10
27.150000
20
56.000000
30
-92.199997
70
192
0
VERTEX
8
OBJECT__146
10
20.000000
20
63.150002
30
-92.199997
70
192
0
VERTEX
8
OBJECT__146
10
20.000000
20
48.500000
30
-92.199997
70
192
0
VERTEX
8
OBJECT__146
10
20.000000
20
48.849998
30
-92.199997
70
192
0
VERTEX
8
OBJECT__146
10
20.000000
20
63.500000
30
-92.199997
70
192
0
VERTEX
8
OBJECT__146
10
12.500000
20
56.000000
30
-92.199997
70
192
0
VERTEX
8
OBJECT__146
10
12.850000
20
56.000000
30
-92.199997
70
192
0
VERTEX
8
OBJECT__146
10
0
20
0
30
0
70
128
71
1
72
2
73
3
0
VERTEX
8
OBJECT__146
10
0
20
0
30
0
70
128
71
4
72
5
73
2
0
VERTEX
8
OBJECT__146
10
0
20
0
30
0
70
128
71
2
72
1
73
4
0
VERTEX
8
OBJECT__146
10
0
20
0
30
0
70
128
71
3
72
6
73
1
0
VERTEX
8
OBJECT__146
10
0
20
0
30
0
70
128
71
4
72
7
73
8
0
VERTEX
8
OBJECT__146
10
0
20
0
30
0
70
128
71
8
72
5
73
4
0
VERTEX
8
OBJECT__146
10
0
20
0
30
0
70
128
71
3
72
8
73
6
0
VERTEX
8
OBJECT__146
10
0
20
0
30
0
70
128
71
8
72
7
73
6
0
SEQEND
8
OBJECT__146
0
POLYLINE
8
OBJECT__148
66
1
70
64
71
8
72
8
62
253
0
VERTEX
8
OBJECT__148
10
12.500000
20
56.000000
30
-92.199997
70
192
0
VERTEX
8
OBJECT__148
10
12.500000
20
56.000000
30
-72.199997
70
192
0
VERTEX
8
OBJECT__148
10
20.000000
20
63.500000
30
-72.199997
70
192
0
VERTEX
8
OBJECT__148
10
20.000000
20
48.500000
30
-72.199997
70
192
0
VERTEX
8
OBJECT__148
10
27.500000
20
56.000000
30
-72.199997
70
192
0
VERTEX
8
OBJECT__148
10
20.000000
20
48.500000
30
-92.199997
70
192
0
VERTEX
8
OBJECT__148
10
20.000000
20
63.500000
30
-92.199997
70
192
0
VERTEX
8
OBJECT__148
10
27.500000
20
56.000000
30
-92.199997
70
192
0
VERTEX
8
OBJECT__148
10
0
20
0
30
0
70
128
71
1
72
2
73
3
0
VERTEX
8
OBJECT__148
10
0
20
0
30
0
70
128
71
4
72
2
73
1
0
VERTEX
8
OBJECT__148
10
0
20
0
30
0
70
128
71
5
72
4
73
6
0
VERTEX
8
OBJECT__148
10
0
20
0
30
0
70
128
71
7
72
3
73
5
0
VERTEX
8
OBJECT__148
10
0
20
0
30
0
70
128
71
5
72
8
73
7
0
VERTEX
8
OBJECT__148
10
0
20
0
30
0
70
128
71
6
72
8
73
5
0
VERTEX
8
OBJECT__148
10
0
20
0
30
0
70
128
71
1
72
6
73
4
0
VERTEX
8
OBJECT__148
10
0
20
0
30
0
70
128
71
3
72
7
73
1
0
SEQEND
8
OBJECT__148
0
POLYLINE
8
OBJECT__149
66
1
70
64
71
7
72
5
62
253
0
VERTEX
8
OBJECT__149
10
-56.200001
20
17.750000
30
1013.393982
70
192
0
VERTEX
8
OBJECT__149
10
-56.200001
20
-17.750000
30
1013.393982
70
192
0
VERTEX
8
OBJECT__149
10
-56.200001
20
-35.500000
30
982.650024
70
192
0
VERTEX
8
OBJECT__149
10
-56.200001
20
0.000000
30
947.150024
70
192
0
VERTEX
8
OBJECT__149
10
-56.200001
20
17.750000
30
951.906006
70
192
0
VERTEX
8
OBJECT__149
10
-56.200001
20
-17.750000
30
951.906006
70
192
0
VERTEX
8
OBJECT__149
10
-56.200001
20
35.500000
30
982.650024
70
192
0
VERTEX
8
OBJECT__149
10
0
20
0
30
0
70
128
71
1
72
2
73
3
0
VERTEX
8
OBJECT__149
10
0
20
0
30
0
70
128
71
1
72
4
73
5
0
VERTEX
8
OBJECT__149
10
0
20
0
30
0
70
128
71
3
72
6
73
1
0
VERTEX
8
OBJECT__149
10
0
20
0
30
0
70
128
71
6
72
4
73
1
0
VERTEX
8
OBJECT__149
10
0
20
0
30
0
70
128
71
5
72
7
73
1
0
SEQEND
8
OBJECT__149
0
POLYLINE
8
OBJECT__150
66
1
70
64
71
14
72
14
62
253
0
VERTEX
8
OBJECT__150
10
-56.200001
20
17.750000
30
951.906006
70
192
0
VERTEX
8
OBJECT__150
10
-71.199997
20
17.750000
30
951.906006
70
192
0
VERTEX
8
OBJECT__150
10
-71.199997
20
35.500000
30
982.650024
70
192
0
VERTEX
8
OBJECT__150
10
-56.200001
20
0.000000
30
947.150024
70
192
0
VERTEX
8
OBJECT__150
10
-56.200001
20
-17.750000
30
951.906006
70
192
0
VERTEX
8
OBJECT__150
10
-71.199997
20
-17.750000
30
951.906006
70
192
0
VERTEX
8
OBJECT__150
10
-71.199997
20
0.000000
30
947.150024
70
192
0
VERTEX
8
OBJECT__150
10
-56.200001
20
-35.500000
30
982.650024
70
192
0
VERTEX
8
OBJECT__150
10
-71.199997
20
-35.500000
30
982.650024
70
192
0
VERTEX
8
OBJECT__150
10
-56.200001
20
-17.750000
30
1013.393982
70
192
0
VERTEX
8
OBJECT__150
10
-71.199997
20
-17.750000
30
1013.393982
70
192
0
VERTEX
8
OBJECT__150
10
-56.200001
20
17.750000
30
1013.393982
70
192
0
VERTEX
8
OBJECT__150
10
-71.199997
20
17.750000
30
1013.393982
70
192
0
VERTEX
8
OBJECT__150
10
-56.200001
20
35.500000
30
982.650024
70
192
0
VERTEX
8
OBJECT__150
10
0
20
0
30
0
70
128
71
1
72
2
73
3
0
VERTEX
8
OBJECT__150
10
0
20
0
30
0
70
128
71
2
72
1
73
4
0
VERTEX
8
OBJECT__150
10
0
20
0
30
0
70
128
71
5
72
6
73
7
0
VERTEX
8
OBJECT__150
10
0
20
0
30
0
70
128
71
7
72
4
73
5
0
VERTEX
8
OBJECT__150
10
0
20
0
30
0
70
128
71
5
72
8
73
9
0
VERTEX
8
OBJECT__150
10
0
20
0
30
0
70
128
71
10
72
11
73
9
0
VERTEX
8
OBJECT__150
10
0
20
0
30
0
70
128
71
10
72
12
73
13
0
VERTEX
8
OBJECT__150
10
0
20
0
30
0
70
128
71
14
72
3
73
13
0
VERTEX
8
OBJECT__150
10
0
20
0
30
0
70
128
71
13
72
12
73
14
0
VERTEX
8
OBJECT__150
10
0
20
0
30
0
70
128
71
13
72
11
73
10
0
VERTEX
8
OBJECT__150
10
0
20
0
30
0
70
128
71
9
72
8
73
10
0
VERTEX
8
OBJECT__150
10
0
20
0
30
0
70
128
71
9
72
6
73
5
0
VERTEX
8
OBJECT__150
10
0
20
0
30
0
70
128
71
4
72
7
73
2
0
VERTEX
8
OBJECT__150
10
0
20
0
30
0
70
128
71
3
72
14
73
1
0
SEQEND
8
OBJECT__150
0
POLYLINE
8
OBJECT__152
66
1
70
64
71
7
72
5
62
253
0
VERTEX
8
OBJECT__152
10
-71.199997
20
17.750000
30
1013.393982
70
192
0
VERTEX
8
OBJECT__152
10
-71.199997
20
-17.750000
30
951.906006
70
192
0
VERTEX
8
OBJECT__152
10
-71.199997
20
-35.500000
30
982.650024
70
192
0
VERTEX
8
OBJECT__152
10
-71.199997
20
0.000000
30
947.150024
70
192
0
VERTEX
8
OBJECT__152
10
-71.199997
20
35.500000
30
982.650024
70
192
0
VERTEX
8
OBJECT__152
10
-71.199997
20
17.750000
30
951.906006
70
192
0
VERTEX
8
OBJECT__152
10
-71.199997
20
-17.750000
30
1013.393982
70
192
0
VERTEX
8
OBJECT__152
10
0
20
0
30
0
70
128
71
1
72
2
73
3
0
VERTEX
8
OBJECT__152
10
0
20
0
30
0
70
128
71
1
72
4
73
2
0
VERTEX
8
OBJECT__152
10
0
20
0
30
0
70
128
71
1
72
5
73
6
0
VERTEX
8
OBJECT__152
10
0
20
0
30
0
70
128
71
6
72
4
73
1
0
VERTEX
8
OBJECT__152
10
0
20
0
30
0
70
128
71
3
72
7
73
1
0
SEQEND
8
OBJECT__152
0
POLYLINE
8
OBJECT__153
66
1
70
64
71
15
72
20
62
253
0
VERTEX
8
OBJECT__153
10
400.000000
20
12.405000
30
1020.010986
70
192
0
VERTEX
8
OBJECT__153
10
400.000000
20
11.500000
30
1034.484009
70
192
0
VERTEX
8
OBJECT__153
10
409.959015
20
5.750000
30
1034.484009
70
192
0
VERTEX
8
OBJECT__153
10
410.743011
20
-6.203000
30
1020.010986
70
192
0
VERTEX
8
OBJECT__153
10
410.743011
20
6.203000
30
1020.010986
70
192
0
VERTEX
8
OBJECT__153
10
409.959015
20
0.000000
30
1034.484009
70
192
0
VERTEX
8
OBJECT__153
10
400.000000
20
-12.405000
30
1020.010986
70
192
0
VERTEX
8
OBJECT__153
10
409.959015
20
-5.750000
30
1034.484009
70
192
0
VERTEX
8
OBJECT__153
10
400.000000
20
-11.500000
30
1034.484009
70
192
0
VERTEX
8
OBJECT__153
10
390.040985
20
-5.750000
30
1034.484009
70
192
0
VERTEX
8
OBJECT__153
10
389.256989
20
-6.203000
30
1020.010986
70
192
0
VERTEX
8
OBJECT__153
10
390.040985
20
0.000000
30
1034.484009
70
192
0
VERTEX
8
OBJECT__153
10
389.256989
20
6.203000
30
1020.010986
70
192
0
VERTEX
8
OBJECT__153
10
390.040985
20
5.750000
30
1034.484009
70
192
0
VERTEX
8
OBJECT__153
10
400.000000
20
0.000000
30
1012.500000
70
192
0
VERTEX
8
OBJECT__153
10
0
20
0
30
0
70
128
71
1
72
2
73
3
0
VERTEX
8
OBJECT__153
10
0
20
0
30
0
70
128
71
4
72
5
73
6
0
VERTEX
8
OBJECT__153
10
0
20
0
30
0
70
128
71
5
72
3
73
6
0
VERTEX
8
OBJECT__153
10
0
20
0
30
0
70
128
71
7
72
4
73
8
0
VERTEX
8
OBJECT__153
10
0
20
0
30
0
70
128
71
7
72
9
73
10
0
VERTEX
8
OBJECT__153
10
0
20
0
30
0
70
128
71
11
72
10
73
12
0
VERTEX
8
OBJECT__153
10
0
20
0
30
0
70
128
71
12
72
13
73
11
0
VERTEX
8
OBJECT__153
10
0
20
0
30
0
70
128
71
1
72
13
73
14
0
VERTEX
8
OBJECT__153
10
0
20
0
30
0
70
128
71
15
72
13
73
1
0
VERTEX
8
OBJECT__153
10
0
20
0
30
0
70
128
71
15
72
11
73
13
0
VERTEX
8
OBJECT__153
10
0
20
0
30
0
70
128
71
15
72
7
73
11
0
VERTEX
8
OBJECT__153
10
0
20
0
30
0
70
128
71
15
72
4
73
7
0
VERTEX
8
OBJECT__153
10
0
20
0
30
0
70
128
71
15
72
5
73
4
0
VERTEX
8
OBJECT__153
10
0
20
0
30
0
70
128
71
15
72
1
73
5
0
VERTEX
8
OBJECT__153
10
0
20
0
30
0
70
128
71
14
72
2
73
1
0
VERTEX
8
OBJECT__153
10
0
20
0
30
0
70
128
71
12
72
14
73
13
0
VERTEX
8
OBJECT__153
10
0
20
0
30
0
70
128
71
10
72
11
73
7
0
VERTEX
8
OBJECT__153
10
0
20
0
30
0
70
128
71
8
72
9
73
7
0
VERTEX
8
OBJECT__153
10
0
20
0
30
0
70
128
71
6
72
8
73
4
0
VERTEX
8
OBJECT__153
10
0
20
0
30
0
70
128
71
3
72
5
73
1
0
SEQEND
8
OBJECT__153
0
POLYLINE
8
OBJECT__154
66
1
70
64
71
12
72
12
62
253
0
VERTEX
8
OBJECT__154
10
400.000000
20
-11.500000
30
1037.267944
70
192
0
VERTEX
8
OBJECT__154
10
388.500000
20
0.000000
30
1037.267944
70
192
0
VERTEX
8
OBJECT__154
10
390.040985
20
-5.750000
30
1034.484009
70
192
0
VERTEX
8
OBJECT__154
10
390.040985
20
0.000000
30
1034.484009
70
192
0
VERTEX
8
OBJECT__154
10
400.000000
20
11.500000
30
1037.267944
70
192
0
VERTEX
8
OBJECT__154
10
400.000000
20
11.500000
30
1034.484009
70
192
0
VERTEX
8
OBJECT__154
10
390.040985
20
5.750000
30
1034.484009
70
192
0
VERTEX
8
OBJECT__154
10
411.500000
20
0.000000
30
1037.267944
70
192
0
VERTEX
8
OBJECT__154
10
409.959015
20
5.750000
30
1034.484009
70
192
0
VERTEX
8
OBJECT__154
10
409.959015
20
0.000000
30
1034.484009
70
192
0
VERTEX
8
OBJECT__154
10
400.000000
20
-11.500000
30
1034.484009
70
192
0
VERTEX
8
OBJECT__154
10
409.959015
20
-5.750000
30
1034.484009
70
192
0
VERTEX
8
OBJECT__154
10
0
20
0
30
0
70
128
71
1
72
2
73
3
0
VERTEX
8
OBJECT__154
10
0
20
0
30
0
70
128
71
2
72
4
73
3
0
VERTEX
8
OBJECT__154
10
0
20
0
30
0
70
128
71
5
72
6
73
7
0
VERTEX
8
OBJECT__154
10
0
20
0
30
0
70
128
71
7
72
2
73
5
0
VERTEX
8
OBJECT__154
10
0
20
0
30
0
70
128
71
5
72
8
73
9
0
VERTEX
8
OBJECT__154
10
0
20
0
30
0
70
128
71
8
72
10
73
9
0
VERTEX
8
OBJECT__154
10
0
20
0
30
0
70
128
71
1
72
11
73
12
0
VERTEX
8
OBJECT__154
10
0
20
0
30
0
70
128
71
12
72
8
73
1
0
VERTEX
8
OBJECT__154
10
0
20
0
30
0
70
128
71
12
72
10
73
8
0
VERTEX
8
OBJECT__154
10
0
20
0
30
0
70
128
71
9
72
6
73
5
0
VERTEX
8
OBJECT__154
10
0
20
0
30
0
70
128
71
7
72
4
73
2
0
VERTEX
8
OBJECT__154
10
0
20
0
30
0
70
128
71
3
72
11
73
1
0
SEQEND
8
OBJECT__154
0
POLYLINE
8
OBJECT__156
66
1
70
64
71
8
72
8
62
253
0
VERTEX
8
OBJECT__156
10
386.700012
20
0.000000
30
1037.750000
70
192
0
VERTEX
8
OBJECT__156
10
400.000000
20
13.300000
30
1037.750000
70
192
0
VERTEX
8
OBJECT__156
10
400.000000
20
11.500000
30
1037.267944
70
192
0
VERTEX
8
OBJECT__156
10
400.000000
20
-13.300000
30
1037.750000
70
192
0
VERTEX
8
OBJECT__156
10
388.500000
20
0.000000
30
1037.267944
70
192
0
VERTEX
8
OBJECT__156
10
413.299988
20
0.000000
30
1037.750000
70
192
0
VERTEX
8
OBJECT__156
10
400.000000
20
-11.500000
30
1037.267944
70
192
0
VERTEX
8
OBJECT__156
10
411.500000
20
0.000000
30
1037.267944
70
192
0
VERTEX
8
OBJECT__156
10
0
20
0
30
0
70
128
71
1
72
2
73
3
0
VERTEX
8
OBJECT__156
10
0
20
0
30
0
70
128
71
4
72
1
73
5
0
VERTEX
8
OBJECT__156
10
0
20
0
30
0
70
128
71
6
72
4
73
7
0
VERTEX
8
OBJECT__156
10
0
20
0
30
0
70
128
71
2
72
6
73
8
0
VERTEX
8
OBJECT__156
10
0
20
0
30
0
70
128
71
8
72
3
73
2
0
VERTEX
8
OBJECT__156
10
0
20
0
30
0
70
128
71
7
72
8
73
6
0
VERTEX
8
OBJECT__156
10
0
20
0
30
0
70
128
71
5
72
7
73
4
0
VERTEX
8
OBJECT__156
10
0
20
0
30
0
70
128
71
3
72
5
73
1
0
SEQEND
8
OBJECT__156
0
POLYLINE
8
OBJECT__157
66
1
70
64
71
8
72
8
62
253
0
VERTEX
8
OBJECT__157
10
386.700012
20
0.000000
30
1043.500000
70
192
0
VERTEX
8
OBJECT__157
10
386.700012
20
0.000000
30
1037.750000
70
192
0
VERTEX
8
OBJECT__157
10
400.000000
20
-13.300000
30
1037.750000
70
192
0
VERTEX
8
OBJECT__157
10
400.000000
20
13.300000
30
1043.500000
70
192
0
VERTEX
8
OBJECT__157
10
400.000000
20
13.300000
30
1037.750000
70
192
0
VERTEX
8
OBJECT__157
10
413.299988
20
0.000000
30
1043.500000
70
192
0
VERTEX
8
OBJECT__157
10
413.299988
20
0.000000
30
1037.750000
70
192
0
VERTEX
8
OBJECT__157
10
400.000000
20
-13.300000
30
1043.500000
70
192
0
VERTEX
8
OBJECT__157
10
0
20
0
30
0
70
128
71
1
72
2
73
3
0
VERTEX
8
OBJECT__157
10
0
20
0
30
0
70
128
71
4
72
5
73
2
0
VERTEX
8
OBJECT__157
10
0
20
0
30
0
70
128
71
6
72
7
73
5
0
VERTEX
8
OBJECT__157
10
0
20
0
30
0
70
128
71
8
72
3
73
7
0
VERTEX
8
OBJECT__157
10
0
20
0
30
0
70
128
71
7
72
6
73
8
0
VERTEX
8
OBJECT__157
10
0
20
0
30
0
70
128
71
5
72
4
73
6
0
VERTEX
8
OBJECT__157
10
0
20
0
30
0
70
128
71
2
72
1
73
4
0
VERTEX
8
OBJECT__157
10
0
20
0
30
0
70
128
71
3
72
8
73
1
0
SEQEND
8
OBJECT__157
0
POLYLINE
8
OBJECT__158
66
1
70
64
71
4
72
2
62
253
0
VERTEX
8
OBJECT__158
10
386.700012
20
0.000000
30
1043.500000
70
192
0
VERTEX
8
OBJECT__158
10
400.000000
20
-13.300000
30
1043.500000
70
192
0
VERTEX
8
OBJECT__158
10
413.299988
20
0.000000
30
1043.500000
70
192
0
VERTEX
8
OBJECT__158
10
400.000000
20
13.300000
30
1043.500000
70
192
0
VERTEX
8
OBJECT__158
10
0
20
0
30
0
70
128
71
1
72
2
73
3
0
VERTEX
8
OBJECT__158
10
0
20
0
30
0
70
128
71
3
72
4
73
1
0
SEQEND
8
OBJECT__158
0
POLYLINE
8
OBJECT__159
66
1
70
64
71
8
72
8
62
253
0
VERTEX
8
OBJECT__159
10
-57.700001
20
15.650000
30
982.650024
70
192
0
VERTEX
8
OBJECT__159
10
-57.700001
20
0.000000
30
998.299988
70
192
0
VERTEX
8
OBJECT__159
10
15.400000
20
0.000000
30
998.299988
70
192
0
VERTEX
8
OBJECT__159
10
15.400000
20
15.650000
30
982.650024
70
192
0
VERTEX
8
OBJECT__159
10
-57.700001
20
-15.650000
30
982.650024
70
192
0
VERTEX
8
OBJECT__159
10
15.400000
20
-15.650000
30
982.650024
70
192
0
VERTEX
8
OBJECT__159
10
-57.700001
20
0.000000
30
967.000000
70
192
0
VERTEX
8
OBJECT__159
10
15.400000
20
0.000000
30
967.000000
70
192
0
VERTEX
8
OBJECT__159
10
0
20
0
30
0
70
128
71
1
72
2
73
3
0
VERTEX
8
OBJECT__159
10
0
20
0
30
0
70
128
71
1
72
3
73
4
0
VERTEX
8
OBJECT__159
10
0
20
0
30
0
70
128
71
2
72
5
73
6
0
VERTEX
8
OBJECT__159
10
0
20
0
30
0
70
128
71
2
72
6
73
3
0
VERTEX
8
OBJECT__159
10
0
20
0
30
0
70
128
71
5
72
7
73
8
0
VERTEX
8
OBJECT__159
10
0
20
0
30
0
70
128
71
5
72
8
73
6
0
VERTEX
8
OBJECT__159
10
0
20
0
30
0
70
128
71
7
72
1
73
4
0
VERTEX
8
OBJECT__159
10
0
20
0
30
0
70
128
71
7
72
4
73
8
0
SEQEND
8
OBJECT__159
0
POLYLINE
8
OBJECT__161
66
1
70
64
71
5
72
3
62
253
0
VERTEX
8
OBJECT__161
10
17.118999
20
16.750000
30
443.562012
70
192
0
VERTEX
8
OBJECT__161
10
-17.118999
20
16.750000
30
443.562012
70
192
0
VERTEX
8
OBJECT__161
10
-10.580000
20
16.750000
30
423.437988
70
192
0
VERTEX
8
OBJECT__161
10
0.000000
20
16.750000
30
456.000000
70
192
0
VERTEX
8
OBJECT__161
10
10.580000
20
16.750000
30
423.437988
70
192
0
VERTEX
8
OBJECT__161
10
0
20
0
30
0
70
128
71
1
72
2
73
3
0
VERTEX
8
OBJECT__161
10
0
20
0
30
0
70
128
71
1
72
4
73
2
0
VERTEX
8
OBJECT__161
10
0
20
0
30
0
70
128
71
3
72
5
73
1
0
SEQEND
8
OBJECT__161
0
POLYLINE
8
OBJECT__162
66
1
70
64
71
36
72
36
62
253
0
VERTEX
8
OBJECT__162
10
17.118999
20
16.750000
30
443.562012
70
192
0
VERTEX
8
OBJECT__162
10
9.109000
20
40.694000
30
452.955994
70
192
0
VERTEX
8
OBJECT__162
10
-0.085000
20
36.314999
30
455.695007
70
192
0
VERTEX
8
OBJECT__162
10
10.683000
20
41.443001
30
452.487000
70
192
0
VERTEX
8
OBJECT__162
10
12.542000
20
45.299999
30
450.911987
70
192
0
VERTEX
8
OBJECT__162
10
17.118999
20
63.250000
30
443.562012
70
192
0
VERTEX
8
OBJECT__162
10
9.384000
20
63.250000
30
453.359985
70
192
0
VERTEX
8
OBJECT__162
10
9.384000
20
58.643002
30
453.359985
70
192
0
VERTEX
8
OBJECT__162
10
-17.118999
20
63.250000
30
443.562012
70
192
0
VERTEX
8
OBJECT__162
10
-11.495000
20
55.735001
30
451.851990
70
192
0
VERTEX
8
OBJECT__162
10
-9.384000
20
58.643002
30
453.359985
70
192
0
VERTEX
8
OBJECT__162
10
-17.118999
20
16.750000
30
443.562012
70
192
0
VERTEX
8
OBJECT__162
10
-12.553000
20
45.339001
30
450.901001
70
192
0
VERTEX
8
OBJECT__162
10
0.000000
20
16.750000
30
456.000000
70
192
0
VERTEX
8
OBJECT__162
10
-1.012000
20
35.874001
30
455.971985
70
192
0
VERTEX
8
OBJECT__162
10
-8.061000
20
41.654999
30
452.873993
70
192
0
VERTEX
8
OBJECT__162
10
-10.580000
20
63.250000
30
423.437988
70
192
0
VERTEX
8
OBJECT__162
10
-9.115000
20
63.250000
30
422.477997
70
192
0
VERTEX
8
OBJECT__162
10
-9.115000
20
56.516998
30
422.477997
70
192
0
VERTEX
8
OBJECT__162
10
-11.264000
20
45.962002
30
423.959991
70
192
0
VERTEX
8
OBJECT__162
10
-10.484000
20
45.421001
30
423.700012
70
192
0
VERTEX
8
OBJECT__162
10
-10.556000
20
49.438999
30
423.471985
70
192
0
VERTEX
8
OBJECT__162
10
10.580000
20
16.750000
30
423.437988
70
192
0
VERTEX
8
OBJECT__162
10
6.879000
20
39.911999
30
421.365997
70
192
0
VERTEX
8
OBJECT__162
10
7.512000
20
41.443001
30
421.750000
70
192
0
VERTEX
8
OBJECT__162
10
-10.580000
20
16.750000
30
423.437988
70
192
0
VERTEX
8
OBJECT__162
10
0.610000
20
37.738998
30
420.010010
70
192
0
VERTEX
8
OBJECT__162
10
-6.988000
20
43.000000
30
422.537994
70
192
0
VERTEX
8
OBJECT__162
10
10.728000
20
53.952000
30
423.545990
70
192
0
VERTEX
8
OBJECT__162
10
10.575000
20
54.194000
30
423.445007
70
192
0
VERTEX
8
OBJECT__162
10
11.574000
20
51.264000
30
424.213989
70
192
0
VERTEX
8
OBJECT__162
10
10.500000
20
48.667999
30
423.562988
70
192
0
VERTEX
8
OBJECT__162
10
10.580000
20
63.250000
30
423.437988
70
192
0
VERTEX
8
OBJECT__162
10
9.115000
20
56.516998
30
422.477997
70
192
0
VERTEX
8
OBJECT__162
10
9.115000
20
63.250000
30
422.477997
70
192
0
VERTEX
8
OBJECT__162
10
-9.384000
20
63.250000
30
453.359985
70
192
0
VERTEX
8
OBJECT__162
10
0
20
0
30
0
70
128
71
1
72
2
73
3
0
VERTEX
8
OBJECT__162
10
0
20
0
30
0
70
128
71
1
72
4
73
2
0
VERTEX
8
OBJECT__162
10
0
20
0
30
0
70
128
71
1
72
5
73
4
0
VERTEX
8
OBJECT__162
10
0
20
0
30
0
70
128
71
6
72
7
73
8
0
VERTEX
8
OBJECT__162
10
0
20
0
30
0
70
128
71
8
72
5
73
6
0
VERTEX
8
OBJECT__162
10
0
20
0
30
0
70
128
71
5
72
1
73
6
0
VERTEX
8
OBJECT__162
10
0
20
0
30
0
70
128
71
9
72
10
73
11
0
VERTEX
8
OBJECT__162
10
0
20
0
30
0
70
128
71
9
72
12
73
13
0
VERTEX
8
OBJECT__162
10
0
20
0
30
0
70
128
71
13
72
10
73
9
0
VERTEX
8
OBJECT__162
10
0
20
0
30
0
70
128
71
12
72
14
73
15
0
VERTEX
8
OBJECT__162
10
0
20
0
30
0
70
128
71
15
72
16
73
12
0
VERTEX
8
OBJECT__162
10
0
20
0
30
0
70
128
71
16
72
13
73
12
0
VERTEX
8
OBJECT__162
10
0
20
0
30
0
70
128
71
14
72
3
73
15
0
VERTEX
8
OBJECT__162
10
0
20
0
30
0
70
128
71
17
72
18
73
19
0
VERTEX
8
OBJECT__162
10
0
20
0
30
0
70
128
71
12
72
20
73
21
0
VERTEX
8
OBJECT__162
10
0
20
0
30
0
70
128
71
9
72
22
73
20
0
VERTEX
8
OBJECT__162
10
0
20
0
30
0
70
128
71
9
72
17
73
22
0
VERTEX
8
OBJECT__162
10
0
20
0
30
0
70
128
71
20
72
12
73
9
0
VERTEX
8
OBJECT__162
10
0
20
0
30
0
70
128
71
23
72
24
73
25
0
VERTEX
8
OBJECT__162
10
0
20
0
30
0
70
128
71
23
72
26
73
27
0
VERTEX
8
OBJECT__162
10
0
20
0
30
0
70
128
71
27
72
24
73
23
0
VERTEX
8
OBJECT__162
10
0
20
0
30
0
70
128
71
26
72
21
73
28
0
VERTEX
8
OBJECT__162
10
0
20
0
30
0
70
128
71
28
72
27
73
26
0
VERTEX
8
OBJECT__162
10
0
20
0
30
0
70
128
71
6
72
29
73
30
0
VERTEX
8
OBJECT__162
10
0
20
0
30
0
70
128
71
6
72
31
73
29
0
VERTEX
8
OBJECT__162
10
0
20
0
30
0
70
128
71
1
72
32
73
31
0
VERTEX
8
OBJECT__162
10
0
20
0
30
0
70
128
71
1
72
23
73
32
0
VERTEX
8
OBJECT__162
10
0
20
0
30
0
70
128
71
31
72
6
73
1
0
VERTEX
8
OBJECT__162
10
0
20
0
30
0
70
128
71
33
72
30
73
34
0
VERTEX
8
OBJECT__162
10
0
20
0
30
0
70
128
71
34
72
35
73
33
0
VERTEX
8
OBJECT__162
10
0
20
0
30
0
70
128
71
30
72
33
73
6
0
VERTEX
8
OBJECT__162
10
0
20
0
30
0
70
128
71
25
72
32
73
23
0
VERTEX
8
OBJECT__162
10
0
20
0
30
0
70
128
71
21
72
26
73
12
0
VERTEX
8
OBJECT__162
10
0
20
0
30
0
70
128
71
19
72
22
73
17
0
VERTEX
8
OBJECT__162
10
0
20
0
30
0
70
128
71
11
72
36
73
9
0
VERTEX
8
OBJECT__162
10
0
20
0
30
0
70
128
71
3
72
14
73
1
0
SEQEND
8
OBJECT__162
0
POLYLINE
8
OBJECT__164
66
1
70
64
71
5
72
3
62
253
0
VERTEX
8
OBJECT__164
10
9.384000
20
63.250000
30
453.359985
70
192
0
VERTEX
8
OBJECT__164
10
9.115000
20
63.250000
30
422.477997
70
192
0
VERTEX
8
OBJECT__164
10
9.185000
20
57.098000
30
430.563995
70
192
0
VERTEX
8
OBJECT__164
10
9.115000
20
56.516998
30
422.477997
70
192
0
VERTEX
8
OBJECT__164
10
9.384000
20
58.643002
30
453.359985
70
192
0
VERTEX
8
OBJECT__164
10
0
20
0
30
0
70
128
71
1
72
2
73
3
0
VERTEX
8
OBJECT__164
10
0
20
0
30
0
70
128
71
2
72
4
73
3
0
VERTEX
8
OBJECT__164
10
0
20
0
30
0
70
128
71
3
72
5
73
1
0
SEQEND
8
OBJECT__164
0
POLYLINE
8
OBJECT__165
66
1
70
64
71
5
72
3
62
253
0
VERTEX
8
OBJECT__165
10
-9.115000
20
63.250000
30
422.477997
70
192
0
VERTEX
8
OBJECT__165
10
-9.384000
20
63.250000
30
453.359985
70
192
0
VERTEX
8
OBJECT__165
10
-9.284000
20
57.876999
30
441.850006
70
192
0
VERTEX
8
OBJECT__165
10
-9.384000
20
58.643002
30
453.359985
70
192
0
VERTEX
8
OBJECT__165
10
-9.115000
20
56.516998
30
422.477997
70
192
0
VERTEX
8
OBJECT__165
10
0
20
0
30
0
70
128
71
1
72
2
73
3
0
VERTEX
8
OBJECT__165
10
0
20
0
30
0
70
128
71
2
72
4
73
3
0
VERTEX
8
OBJECT__165
10
0
20
0
30
0
70
128
71
3
72
5
73
1
0
SEQEND
8
OBJECT__165
0
POLYLINE
8
OBJECT__166
66
1
70
64
71
4
72
2
62
253
0
VERTEX
8
OBJECT__166
10
-9.384000
20
63.250000
30
453.359985
70
192
0
VERTEX
8
OBJECT__166
10
-9.115000
20
63.250000
30
422.477997
70
192
0
VERTEX
8
OBJECT__166
10
-10.580000
20
63.250000
30
423.437988
70
192
0
VERTEX
8
OBJECT__166
10
-17.118999
20
63.250000
30
443.562012
70
192
0
VERTEX
8
OBJECT__166
10
0
20
0
30
0
70
128
71
1
72
2
73
3
0
VERTEX
8
OBJECT__166
10
0
20
0
30
0
70
128
71
3
72
4
73
1
0
SEQEND
8
OBJECT__166
0
POLYLINE
8
OBJECT__167
66
1
70
64
71
4
72
2
62
253
0
VERTEX
8
OBJECT__167
10
9.384000
20
63.250000
30
453.359985
70
192
0
VERTEX
8
OBJECT__167
10
17.118999
20
63.250000
30
443.562012
70
192
0
VERTEX
8
OBJECT__167
10
10.580000
20
63.250000
30
423.437988
70
192
0
VERTEX
8
OBJECT__167
10
9.115000
20
63.250000
30
422.477997
70
192
0
VERTEX
8
OBJECT__167
10
0
20
0
30
0
70
128
71
1
72
2
73
3
0
VERTEX
8
OBJECT__167
10
0
20
0
30
0
70
128
71
3
72
4
73
1
0
SEQEND
8
OBJECT__167
0
POLYLINE
8
OBJECT__168
66
1
70
64
71
39
72
40
62
253
0
VERTEX
8
OBJECT__168
10
10.500000
20
48.667999
30
423.562988
70
192
0
VERTEX
8
OBJECT__168
10
7.512000
20
41.443001
30
421.750000
70
192
0
VERTEX
8
OBJECT__168
10
8.879000
20
40.539001
30
437.381012
70
192
0
VERTEX
8
OBJECT__168
10
10.683000
20
41.443001
30
452.487000
70
192
0
VERTEX
8
OBJECT__168
10
12.542000
20
45.299999
30
450.911987
70
192
0
VERTEX
8
OBJECT__168
10
11.574000
20
51.264000
30
424.213989
70
192
0
VERTEX
8
OBJECT__168
10
9.109000
20
40.694000
30
452.955994
70
192
0
VERTEX
8
OBJECT__168
10
9.384000
20
58.643002
30
453.359985
70
192
0
VERTEX
8
OBJECT__168
10
10.728000
20
53.952000
30
423.545990
70
192
0
VERTEX
8
OBJECT__168
10
9.185000
20
57.098000
30
430.563995
70
192
0
VERTEX
8
OBJECT__168
10
9.115000
20
56.516998
30
422.477997
70
192
0
VERTEX
8
OBJECT__168
10
10.575000
20
54.194000
30
423.445007
70
192
0
VERTEX
8
OBJECT__168
10
-9.284000
20
57.876999
30
441.850006
70
192
0
VERTEX
8
OBJECT__168
10
-9.078000
20
40.650002
30
438.638000
70
192
0
VERTEX
8
OBJECT__168
10
-11.264000
20
45.962002
30
423.959991
70
192
0
VERTEX
8
OBJECT__168
10
-10.556000
20
49.438999
30
423.471985
70
192
0
VERTEX
8
OBJECT__168
10
-10.484000
20
45.421001
30
423.700012
70
192
0
VERTEX
8
OBJECT__168
10
-8.891000
20
40.547001
30
438.304993
70
192
0
VERTEX
8
OBJECT__168
10
-6.988000
20
43.000000
30
422.537994
70
192
0
VERTEX
8
OBJECT__168
10
-12.553000
20
45.339001
30
450.901001
70
192
0
VERTEX
8
OBJECT__168
10
-8.061000
20
41.654999
30
452.873993
70
192
0
VERTEX
8
OBJECT__168
10
-8.897000
20
40.535999
30
438.864990
70
192
0
VERTEX
8
OBJECT__168
10
-11.495000
20
55.735001
30
451.851990
70
192
0
VERTEX
8
OBJECT__168
10
-9.384000
20
58.643002
30
453.359985
70
192
0
VERTEX
8
OBJECT__168
10
-2.652000
20
36.597000
30
446.704987
70
192
0
VERTEX
8
OBJECT__168
10
-1.012000
20
35.874001
30
455.971985
70
192
0
VERTEX
8
OBJECT__168
10
-0.085000
20
36.314999
30
455.695007
70
192
0
VERTEX
8
OBJECT__168
10
-0.300000
20
37.056000
30
446.035004
70
192
0
VERTEX
8
OBJECT__168
10
6.843000
20
38.449001
30
443.998993
70
192
0
VERTEX
8
OBJECT__168
10
7.851000
20
39.638000
30
437.799011
70
192
0
VERTEX
8
OBJECT__168
10
8.391000
20
40.275002
30
434.477997
70
192
0
VERTEX
8
OBJECT__168
10
6.115000
20
38.789001
30
431.260986
70
192
0
VERTEX
8
OBJECT__168
10
6.781000
20
39.165001
30
431.931000
70
192
0
VERTEX
8
OBJECT__168
10
-0.200000
20
38.278999
30
430.441986
70
192
0
VERTEX
8
OBJECT__168
10
6.879000
20
39.911999
30
421.365997
70
192
0
VERTEX
8
OBJECT__168
10
0.610000
20
37.738998
30
420.010010
70
192
0
VERTEX
8
OBJECT__168
10
-4.194000
20
37.956001
30
429.924011
70
192
0
VERTEX
8
OBJECT__168
10
-8.809000
20
40.501999
30
438.158997
70
192
0
VERTEX
8
OBJECT__168
10
-9.115000
20
56.516998
30
422.477997
70
192
0
VERTEX
8
OBJECT__168
10
0
20
0
30
0
70
128
71
1
72
2
73
3
0
VERTEX
8
OBJECT__168
10
0
20
0
30
0
70
128
71
1
72
4
73
5
0
VERTEX
8
OBJECT__168
10
0
20
0
30
0
70
128
71
5
72
6
73
1
0
VERTEX
8
OBJECT__168
10
0
20
0
30
0
70
128
71
3
72
7
73
4
0
VERTEX
8
OBJECT__168
10
0
20
0
30
0
70
128
71
8
72
9
73
6
0
VERTEX
8
OBJECT__168
10
0
20
0
30
0
70
128
71
9
72
8
73
10
0
VERTEX
8
OBJECT__168
10
0
20
0
30
0
70
128
71
10
72
11
73
12
0
VERTEX
8
OBJECT__168
10
0
20
0
30
0
70
128
71
10
72
12
73
9
0
VERTEX
8
OBJECT__168
10
0
20
0
30
0
70
128
71
6
72
5
73
8
0
VERTEX
8
OBJECT__168
10
0
20
0
30
0
70
128
71
13
72
14
73
15
0
VERTEX
8
OBJECT__168
10
0
20
0
30
0
70
128
71
15
72
16
73
13
0
VERTEX
8
OBJECT__168
10
0
20
0
30
0
70
128
71
17
72
14
73
18
0
VERTEX
8
OBJECT__168
10
0
20
0
30
0
70
128
71
18
72
19
73
17
0
VERTEX
8
OBJECT__168
10
0
20
0
30
0
70
128
71
17
72
15
73
14
0
VERTEX
8
OBJECT__168
10
0
20
0
30
0
70
128
71
20
72
21
73
22
0
VERTEX
8
OBJECT__168
10
0
20
0
30
0
70
128
71
13
72
23
73
20
0
VERTEX
8
OBJECT__168
10
0
20
0
30
0
70
128
71
13
72
24
73
23
0
VERTEX
8
OBJECT__168
10
0
20
0
30
0
70
128
71
20
72
14
73
13
0
VERTEX
8
OBJECT__168
10
0
20
0
30
0
70
128
71
22
72
14
73
20
0
VERTEX
8
OBJECT__168
10
0
20
0
30
0
70
128
71
25
72
21
73
26
0
VERTEX
8
OBJECT__168
10
0
20
0
30
0
70
128
71
27
72
28
73
25
0
VERTEX
8
OBJECT__168
10
0
20
0
30
0
70
128
71
7
72
29
73
28
0
VERTEX
8
OBJECT__168
10
0
20
0
30
0
70
128
71
28
72
27
73
7
0
VERTEX
8
OBJECT__168
10
0
20
0
30
0
70
128
71
3
72
30
73
29
0
VERTEX
8
OBJECT__168
10
0
20
0
30
0
70
128
71
3
72
31
73
30
0
VERTEX
8
OBJECT__168
10
0
20
0
30
0
70
128
71
3
72
2
73
31
0
VERTEX
8
OBJECT__168
10
0
20
0
30
0
70
128
71
2
72
32
73
33
0
VERTEX
8
OBJECT__168
10
0
20
0
30
0
70
128
71
34
72
32
73
35
0
VERTEX
8
OBJECT__168
10
0
20
0
30
0
70
128
71
32
72
2
73
35
0
VERTEX
8
OBJECT__168
10
0
20
0
30
0
70
128
71
36
72
19
73
37
0
VERTEX
8
OBJECT__168
10
0
20
0
30
0
70
128
71
37
72
34
73
36
0
VERTEX
8
OBJECT__168
10
0
20
0
30
0
70
128
71
35
72
36
73
34
0
VERTEX
8
OBJECT__168
10
0
20
0
30
0
70
128
71
33
72
31
73
2
0
VERTEX
8
OBJECT__168
10
0
20
0
30
0
70
128
71
29
72
7
73
3
0
VERTEX
8
OBJECT__168
10
0
20
0
30
0
70
128
71
19
72
18
73
38
0
VERTEX
8
OBJECT__168
10
0
20
0
30
0
70
128
71
38
72
37
73
19
0
VERTEX
8
OBJECT__168
10
0
20
0
30
0
70
128
71
26
72
27
73
25
0
VERTEX
8
OBJECT__168
10
0
20
0
30
0
70
128
71
25
72
22
73
21
0
VERTEX
8
OBJECT__168
10
0
20
0
30
0
70
128
71
16
72
39
73
13
0
VERTEX
8
OBJECT__168
10
0
20
0
30
0
70
128
71
3
72
4
73
1
0
SEQEND
8
OBJECT__168
0
POLYLINE
8
OBJECT__169
66
1
70
64
71
17
72
17
62
253
0
VERTEX
8
OBJECT__169
10
-9.100000
20
28.250000
30
438.000000
70
192
0
VERTEX
8
OBJECT__169
10
0.000000
20
28.250000
30
428.899994
70
192
0
VERTEX
8
OBJECT__169
10
-4.194000
20
37.956001
30
429.924011
70
192
0
VERTEX
8
OBJECT__169
10
-0.200000
20
38.278999
30
430.441986
70
192
0
VERTEX
8
OBJECT__169
10
-8.897000
20
40.535999
30
438.864990
70
192
0
VERTEX
8
OBJECT__169
10
-2.652000
20
36.597000
30
446.704987
70
192
0
VERTEX
8
OBJECT__169
10
-8.891000
20
40.547001
30
438.304993
70
192
0
VERTEX
8
OBJECT__169
10
-9.078000
20
40.650002
30
438.638000
70
192
0
VERTEX
8
OBJECT__169
10
-8.809000
20
40.501999
30
438.158997
70
192
0
VERTEX
8
OBJECT__169
10
0.000000
20
28.250000
30
447.100006
70
192
0
VERTEX
8
OBJECT__169
10
-0.300000
20
37.056000
30
446.035004
70
192
0
VERTEX
8
OBJECT__169
10
6.843000
20
38.449001
30
443.998993
70
192
0
VERTEX
8
OBJECT__169
10
9.100000
20
28.250000
30
438.000000
70
192
0
VERTEX
8
OBJECT__169
10
6.115000
20
38.789001
30
431.260986
70
192
0
VERTEX
8
OBJECT__169
10
7.851000
20
39.638000
30
437.799011
70
192
0
VERTEX
8
OBJECT__169
10
8.391000
20
40.275002
30
434.477997
70
192
0
VERTEX
8
OBJECT__169
10
6.781000
20
39.165001
30
431.931000
70
192
0
VERTEX
8
OBJECT__169
10
0
20
0
30
0
70
128
71
1
72
2
73
3
0
VERTEX
8
OBJECT__169
10
0
20
0
30
0
70
128
71
2
72
4
73
3
0
VERTEX
8
OBJECT__169
10
0
20
0
30
0
70
128
71
1
72
5
73
6
0
VERTEX
8
OBJECT__169
10
0
20
0
30
0
70
128
71
1
72
7
73
8
0
VERTEX
8
OBJECT__169
10
0
20
0
30
0
70
128
71
1
72
9
73
7
0
VERTEX
8
OBJECT__169
10
0
20
0
30
0
70
128
71
8
72
5
73
1
0
VERTEX
8
OBJECT__169
10
0
20
0
30
0
70
128
71
6
72
10
73
1
0
VERTEX
8
OBJECT__169
10
0
20
0
30
0
70
128
71
10
72
11
73
12
0
VERTEX
8
OBJECT__169
10
0
20
0
30
0
70
128
71
12
72
13
73
10
0
VERTEX
8
OBJECT__169
10
0
20
0
30
0
70
128
71
2
72
13
73
14
0
VERTEX
8
OBJECT__169
10
0
20
0
30
0
70
128
71
13
72
15
73
16
0
VERTEX
8
OBJECT__169
10
0
20
0
30
0
70
128
71
16
72
17
73
13
0
VERTEX
8
OBJECT__169
10
0
20
0
30
0
70
128
71
17
72
14
73
13
0
VERTEX
8
OBJECT__169
10
0
20
0
30
0
70
128
71
14
72
4
73
2
0
VERTEX
8
OBJECT__169
10
0
20
0
30
0
70
128
71
12
72
15
73
13
0
VERTEX
8
OBJECT__169
10
0
20
0
30
0
70
128
71
6
72
11
73
10
0
VERTEX
8
OBJECT__169
10
0
20
0
30
0
70
128
71
3
72
9
73
1
0
SEQEND
8
OBJECT__169
0
POLYLINE
8
OBJECT__170
66
1
70
64
71
4
72
2
62
253
0
VERTEX
8
OBJECT__170
10
12.000000
20
49.250000
30
457.600006
70
192
0
VERTEX
8
OBJECT__170
10
0.000000
20
37.250000
30
457.600006
70
192
0
VERTEX
8
OBJECT__170
10
-12.000000
20
49.250000
30
457.600006
70
192
0
VERTEX
8
OBJECT__170
10
0.000000
20
61.250000
30
457.600006
70
192
0
VERTEX
8
OBJECT__170
10
0
20
0
30
0
70
128
71
1
72
2
73
3
0
VERTEX
8
OBJECT__170
10
0
20
0
30
0
70
128
71
3
72
4
73
1
0
SEQEND
8
OBJECT__170
0
POLYLINE
8
OBJECT__171
66
1
70
64
71
8
72
8
62
253
0
VERTEX
8
OBJECT__171
10
0.000000
20
37.250000
30
587.599976
70
192
0
VERTEX
8
OBJECT__171
10
0.000000
20
37.250000
30
457.600006
70
192
0
VERTEX
8
OBJECT__171
10
12.000000
20
49.250000
30
457.600006
70
192
0
VERTEX
8
OBJECT__171
10
-12.000000
20
49.250000
30
457.600006
70
192
0
VERTEX
8
OBJECT__171
10
0.000000
20
61.250000
30
457.600006
70
192
0
VERTEX
8
OBJECT__171
10
-12.000000
20
49.250000
30
587.599976
70
192
0
VERTEX
8
OBJECT__171
10
12.000000
20
49.250000
30
587.599976
70
192
0
VERTEX
8
OBJECT__171
10
0.000000
20
61.250000
30
587.599976
70
192
0
VERTEX
8
OBJECT__171
10
0
20
0
30
0
70
128
71
1
72
2
73
3
0
VERTEX
8
OBJECT__171
10
0
20
0
30
0
70
128
71
4
72
2
73
1
0
VERTEX
8
OBJECT__171
10
0
20
0
30
0
70
128
71
5
72
4
73
6
0
VERTEX
8
OBJECT__171
10
0
20
0
30
0
70
128
71
7
72
3
73
5
0
VERTEX
8
OBJECT__171
10
0
20
0
30
0
70
128
71
5
72
8
73
7
0
VERTEX
8
OBJECT__171
10
0
20
0
30
0
70
128
71
6
72
8
73
5
0
VERTEX
8
OBJECT__171
10
0
20
0
30
0
70
128
71
1
72
6
73
4
0
VERTEX
8
OBJECT__171
10
0
20
0
30
0
70
128
71
3
72
7
73
1
0
SEQEND
8
OBJECT__171
0
POLYLINE
8
OBJECT__173
66
1
70
64
71
8
72
8
62
253
0
VERTEX
8
OBJECT__173
10
0.000000
20
33.250000
30
587.599976
70
192
0
VERTEX
8
OBJECT__173
10
-16.000000
20
49.250000
30
587.599976
70
192
0
VERTEX
8
OBJECT__173
10
-12.000000
20
49.250000
30
587.599976
70
192
0
VERTEX
8
OBJECT__173
10
0.000000
20
65.250000
30
587.599976
70
192
0
VERTEX
8
OBJECT__173
10
0.000000
20
61.250000
30
587.599976
70
192
0
VERTEX
8
OBJECT__173
10
0.000000
20
37.250000
30
587.599976
70
192
0
VERTEX
8
OBJECT__173
10
12.000000
20
49.250000
30
587.599976
70
192
0
VERTEX
8
OBJECT__173
10
16.000000
20
49.250000
30
587.599976
70
192
0
VERTEX
8
OBJECT__173
10
0
20
0
30
0
70
128
71
1
72
2
73
3
0
VERTEX
8
OBJECT__173
10
0
20
0
30
0
70
128
71
4
72
5
73
3
0
VERTEX
8
OBJECT__173
10
0
20
0
30
0
70
128
71
1
72
6
73
7
0
VERTEX
8
OBJECT__173
10
0
20
0
30
0
70
128
71
3
72
2
73
4
0
VERTEX
8
OBJECT__173
10
0
20
0
30
0
70
128
71
8
72
7
73
5
0
VERTEX
8
OBJECT__173
10
0
20
0
30
0
70
128
71
3
72
6
73
1
0
VERTEX
8
OBJECT__173
10
0
20
0
30
0
70
128
71
7
72
8
73
1
0
VERTEX
8
OBJECT__173
10
0
20
0
30
0
70
128
71
5
72
4
73
8
0
SEQEND
8
OBJECT__173
0
POLYLINE
8
OBJECT__174
66
1
70
64
71
8
72
8
62
253
0
VERTEX
8
OBJECT__174
10
0.000000
20
33.250000
30
662.599976
70
192
0
VERTEX
8
OBJECT__174
10
0.000000
20
33.250000
30
587.599976
70
192
0
VERTEX
8
OBJECT__174
10
16.000000
20
49.250000
30
587.599976
70
192
0
VERTEX
8
OBJECT__174
10
-16.000000
20
49.250000
30
587.599976
70
192
0
VERTEX
8
OBJECT__174
10
0.000000
20
65.250000
30
662.599976
70
192
0
VERTEX
8
OBJECT__174
10
0.000000
20
65.250000
30
587.599976
70
192
0
VERTEX
8
OBJECT__174
10
16.000000
20
49.250000
30
662.599976
70
192
0
VERTEX
8
OBJECT__174
10
-16.000000
20
49.250000
30
662.599976
70
192
0
VERTEX
8
OBJECT__174
10
0
20
0
30
0
70
128
71
1
72
2
73
3
0
VERTEX
8
OBJECT__174
10
0
20
0
30
0
70
128
71
4
72
2
73
1
0
VERTEX
8
OBJECT__174
10
0
20
0
30
0
70
128
71
5
72
6
73
4
0
VERTEX
8
OBJECT__174
10
0
20
0
30
0
70
128
71
7
72
3
73
6
0
VERTEX
8
OBJECT__174
10
0
20
0
30
0
70
128
71
6
72
5
73
7
0
VERTEX
8
OBJECT__174
10
0
20
0
30
0
70
128
71
4
72
8
73
5
0
VERTEX
8
OBJECT__174
10
0
20
0
30
0
70
128
71
1
72
8
73
4
0
VERTEX
8
OBJECT__174
10
0
20
0
30
0
70
128
71
3
72
7
73
1
0
SEQEND
8
OBJECT__174
0
POLYLINE
8
OBJECT__175
66
1
70
64
71
4
72
2
62
253
0
VERTEX
8
OBJECT__175
10
16.000000
20
49.250000
30
662.599976
70
192
0
VERTEX
8
OBJECT__175
10
0.000000
20
65.250000
30
662.599976
70
192
0
VERTEX
8
OBJECT__175
10
-16.000000
20
49.250000
30
662.599976
70
192
0
VERTEX
8
OBJECT__175
10
0.000000
20
33.250000
30
662.599976
70
192
0
VERTEX
8
OBJECT__175
10
0
20
0
30
0
70
128
71
1
72
2
73
3
0
VERTEX
8
OBJECT__175
10
0
20
0
30
0
70
128
71
3
72
4
73
1
0
SEQEND
8
OBJECT__175
0
POLYLINE
8
OBJECT__176
66
1
70
64
71
6
72
4
62
253
0
VERTEX
8
OBJECT__176
10
400.000000
20
-16.362000
30
1031.500000
70
192
0
VERTEX
8
OBJECT__176
10
400.000000
20
16.362000
30
1031.500000
70
192
0
VERTEX
8
OBJECT__176
10
385.829987
20
8.181000
30
1031.500000
70
192
0
VERTEX
8
OBJECT__176
10
414.170013
20
-8.181000
30
1031.500000
70
192
0
VERTEX
8
OBJECT__176
10
414.170013
20
8.181000
30
1031.500000
70
192
0
VERTEX
8
OBJECT__176
10
385.829987
20
-8.181000
30
1031.500000
70
192
0
VERTEX
8
OBJECT__176
10
0
20
0
30
0
70
128
71
1
72
2
73
3
0
VERTEX
8
OBJECT__176
10
0
20
0
30
0
70
128
71
2
72
1
73
4
0
VERTEX
8
OBJECT__176
10
0
20
0
30
0
70
128
71
4
72
5
73
2
0
VERTEX
8
OBJECT__176
10
0
20
0
30
0
70
128
71
3
72
6
73
1
0
SEQEND
8
OBJECT__176
0
POLYLINE
8
OBJECT__177
66
1
70
64
71
16
72
16
62
253
0
VERTEX
8
OBJECT__177
10
400.000000
20
-18.000000
30
1027.000000
70
192
0
VERTEX
8
OBJECT__177
10
400.000000
20
-16.362000
30
1031.500000
70
192
0
VERTEX
8
OBJECT__177
10
385.829987
20
-8.181000
30
1031.500000
70
192
0
VERTEX
8
OBJECT__177
10
385.829987
20
8.181000
30
1031.500000
70
192
0
VERTEX
8
OBJECT__177
10
384.411987
20
9.000000
30
1027.000000
70
192
0
VERTEX
8
OBJECT__177
10
384.411987
20
-5.562000
30
1027.000000
70
192
0
VERTEX
8
OBJECT__177
10
400.000000
20
16.362000
30
1031.500000
70
192
0
VERTEX
8
OBJECT__177
10
400.000000
20
18.000000
30
1027.000000
70
192
0
VERTEX
8
OBJECT__177
10
390.575989
20
12.559000
30
1027.000000
70
192
0
VERTEX
8
OBJECT__177
10
414.170013
20
8.181000
30
1031.500000
70
192
0
VERTEX
8
OBJECT__177
10
409.424011
20
12.559000
30
1027.000000
70
192
0
VERTEX
8
OBJECT__177
10
415.588013
20
9.000000
30
1027.000000
70
192
0
VERTEX
8
OBJECT__177
10
414.170013
20
-8.181000
30
1031.500000
70
192
0
VERTEX
8
OBJECT__177
10
415.588013
20
-5.562000
30
1027.000000
70
192
0
VERTEX
8
OBJECT__177
10
415.588013
20
-9.000000
30
1027.000000
70
192
0
VERTEX
8
OBJECT__177
10
384.411987
20
-9.000000
30
1027.000000
70
192
0
VERTEX
8
OBJECT__177
10
0
20
0
30
0
70
128
71
1
72
2
73
3
0
VERTEX
8
OBJECT__177
10
0
20
0
30
0
70
128
71
4
72
5
73
6
0
VERTEX
8
OBJECT__177
10
0
20
0
30
0
70
128
71
6
72
3
73
4
0
VERTEX
8
OBJECT__177
10
0
20
0
30
0
70
128
71
7
72
8
73
9
0
VERTEX
8
OBJECT__177
10
0
20
0
30
0
70
128
71
9
72
4
73
7
0
VERTEX
8
OBJECT__177
10
0
20
0
30
0
70
128
71
7
72
10
73
11
0
VERTEX
8
OBJECT__177
10
0
20
0
30
0
70
128
71
10
72
12
73
11
0
VERTEX
8
OBJECT__177
10
0
20
0
30
0
70
128
71
10
72
13
73
14
0
VERTEX
8
OBJECT__177
10
0
20
0
30
0
70
128
71
13
72
15
73
14
0
VERTEX
8
OBJECT__177
10
0
20
0
30
0
70
128
71
1
72
15
73
13
0
VERTEX
8
OBJECT__177
10
0
20
0
30
0
70
128
71
13
72
2
73
1
0
VERTEX
8
OBJECT__177
10
0
20
0
30
0
70
128
71
14
72
12
73
10
0
VERTEX
8
OBJECT__177
10
0
20
0
30
0
70
128
71
11
72
8
73
7
0
VERTEX
8
OBJECT__177
10
0
20
0
30
0
70
128
71
9
72
5
73
4
0
VERTEX
8
OBJECT__177
10
0
20
0
30
0
70
128
71
6
72
16
73
3
0
VERTEX
8
OBJECT__177
10
0
20
0
30
0
70
128
71
3
72
16
73
1
0
SEQEND
8
OBJECT__177
0
POLYLINE
8
OBJECT__179
66
1
70
64
71
16
72
16
62
253
0
VERTEX
8
OBJECT__179
10
400.000000
20
-18.000000
30
1025.000000
70
192
0
VERTEX
8
OBJECT__179
10
400.000000
20
-18.000000
30
1027.000000
70
192
0
VERTEX
8
OBJECT__179
10
384.411987
20
-9.000000
30
1027.000000
70
192
0
VERTEX
8
OBJECT__179
10
382.881012
20
-5.562000
30
1025.000000
70
192
0
VERTEX
8
OBJECT__179
10
389.420013
20
14.562000
30
1025.000000
70
192
0
VERTEX
8
OBJECT__179
10
384.411987
20
9.000000
30
1027.000000
70
192
0
VERTEX
8
OBJECT__179
10
390.575989
20
12.559000
30
1027.000000
70
192
0
VERTEX
8
OBJECT__179
10
384.411987
20
-5.562000
30
1027.000000
70
192
0
VERTEX
8
OBJECT__179
10
400.000000
20
18.000000
30
1025.000000
70
192
0
VERTEX
8
OBJECT__179
10
400.000000
20
18.000000
30
1027.000000
70
192
0
VERTEX
8
OBJECT__179
10
409.424011
20
12.559000
30
1027.000000
70
192
0
VERTEX
8
OBJECT__179
10
410.579987
20
14.562000
30
1025.000000
70
192
0
VERTEX
8
OBJECT__179
10
415.588013
20
9.000000
30
1027.000000
70
192
0
VERTEX
8
OBJECT__179
10
417.118988
20
-5.562000
30
1025.000000
70
192
0
VERTEX
8
OBJECT__179
10
415.588013
20
-5.562000
30
1027.000000
70
192
0
VERTEX
8
OBJECT__179
10
415.588013
20
-9.000000
30
1027.000000
70
192
0
VERTEX
8
OBJECT__179
10
0
20
0
30
0
70
128
71
1
72
2
73
3
0
VERTEX
8
OBJECT__179
10
0
20
0
30
0
70
128
71
3
72
4
73
1
0
VERTEX
8
OBJECT__179
10
0
20
0
30
0
70
128
71
5
72
4
73
6
0
VERTEX
8
OBJECT__179
10
0
20
0
30
0
70
128
71
6
72
7
73
5
0
VERTEX
8
OBJECT__179
10
0
20
0
30
0
70
128
71
4
72
8
73
6
0
VERTEX
8
OBJECT__179
10
0
20
0
30
0
70
128
71
9
72
10
73
11
0
VERTEX
8
OBJECT__179
10
0
20
0
30
0
70
128
71
9
72
5
73
7
0
VERTEX
8
OBJECT__179
10
0
20
0
30
0
70
128
71
7
72
10
73
9
0
VERTEX
8
OBJECT__179
10
0
20
0
30
0
70
128
71
12
72
11
73
13
0
VERTEX
8
OBJECT__179
10
0
20
0
30
0
70
128
71
13
72
14
73
12
0
VERTEX
8
OBJECT__179
10
0
20
0
30
0
70
128
71
13
72
15
73
14
0
VERTEX
8
OBJECT__179
10
0
20
0
30
0
70
128
71
1
72
14
73
16
0
VERTEX
8
OBJECT__179
10
0
20
0
30
0
70
128
71
14
72
15
73
16
0
VERTEX
8
OBJECT__179
10
0
20
0
30
0
70
128
71
16
72
2
73
1
0
VERTEX
8
OBJECT__179
10
0
20
0
30
0
70
128
71
11
72
12
73
9
0
VERTEX
8
OBJECT__179
10
0
20
0
30
0
70
128
71
3
72
8
73
4
0
SEQEND
8
OBJECT__179
0
POLYLINE
8
OBJECT__180
66
1
70
64
71
15
72
13
62
253
0
VERTEX
8
OBJECT__180
10
42.398998
20
-119.699997
30
-21.681999
70
192
0
VERTEX
8
OBJECT__180
10
43.547001
20
-113.389000
30
-26.591000
70
192
0
VERTEX
8
OBJECT__180
10
40.306000
20
-114.362000
30
-23.577999
70
192
0
VERTEX
8
OBJECT__180
10
39.959999
20
-115.792000
30
-22.646000
70
192
0
VERTEX
8
OBJECT__180
10
40.797001
20
-112.928001
30
-25.792000
70
192
0
VERTEX
8
OBJECT__180
10
41.293999
20
-111.478996
30
-28.028000
70
192
0
VERTEX
8
OBJECT__180
10
43.237999
20
-114.070999
30
-34.160000
70
192
0
VERTEX
8
OBJECT__180
10
40.508999
20
-114.177002
30
-34.105999
70
192
0
VERTEX
8
OBJECT__180
10
43.897999
20
-111.459000
30
-28.091999
70
192
0
VERTEX
8
OBJECT__180
10
40.039001
20
-115.792000
30
-37.743000
70
192
0
VERTEX
8
OBJECT__180
10
42.862999
20
-115.551003
30
-37.598000
70
192
0
VERTEX
8
OBJECT__180
10
42.530998
20
-118.304001
30
-38.566002
70
192
0
VERTEX
8
OBJECT__180
10
40.043999
20
-119.699997
30
-38.695000
70
192
0
VERTEX
8
OBJECT__180
10
42.488998
20
-119.692001
30
-38.681999
70
192
0
VERTEX
8
OBJECT__180
10
39.955002
20
-119.699997
30
-21.695000
70
192
0
VERTEX
8
OBJECT__180
10
0
20
0
30
0
70
128
71
1
72
2
73
3
0
VERTEX
8
OBJECT__180
10
0
20
0
30
0
70
128
71
3
72
4
73
1
0
VERTEX
8
OBJECT__180
10
0
20
0
30
0
70
128
71
2
72
5
73
3
0
VERTEX
8
OBJECT__180
10
0
20
0
30
0
70
128
71
6
72
5
73
2
0
VERTEX
8
OBJECT__180
10
0
20
0
30
0
70
128
71
7
72
8
73
6
0
VERTEX
8
OBJECT__180
10
0
20
0
30
0
70
128
71
6
72
9
73
7
0
VERTEX
8
OBJECT__180
10
0
20
0
30
0
70
128
71
10
72
11
73
12
0
VERTEX
8
OBJECT__180
10
0
20
0
30
0
70
128
71
8
72
7
73
11
0
VERTEX
8
OBJECT__180
10
0
20
0
30
0
70
128
71
11
72
10
73
8
0
VERTEX
8
OBJECT__180
10
0
20
0
30
0
70
128
71
12
72
13
73
10
0
VERTEX
8
OBJECT__180
10
0
20
0
30
0
70
128
71
12
72
14
73
13
0
VERTEX
8
OBJECT__180
10
0
20
0
30
0
70
128
71
2
72
9
73
6
0
VERTEX
8
OBJECT__180
10
0
20
0
30
0
70
128
71
4
72
15
73
1
0
SEQEND
8
OBJECT__180
0
POLYLINE
8
OBJECT__181
66
1
70
64
71
16
72
16
62
253
0
VERTEX
8
OBJECT__181
10
43.855999
20
-142.712006
30
-27.677000
70
192
0
VERTEX
8
OBJECT__181
10
43.570000
20
-145.824005
30
-33.820000
70
192
0
VERTEX
8
OBJECT__181
10
42.488998
20
-139.608002
30
-38.681999
70
192
0
VERTEX
8
OBJECT__181
10
43.879002
20
-116.540001
30
-32.702000
70
192
0
VERTEX
8
OBJECT__181
10
43.547001
20
-113.389000
30
-26.591000
70
192
0
VERTEX
8
OBJECT__181
10
42.398998
20
-119.699997
30
-21.681999
70
192
0
VERTEX
8
OBJECT__181
10
42.398998
20
-139.600006
30
-21.681999
70
192
0
VERTEX
8
OBJECT__181
10
42.488998
20
-119.692001
30
-38.681999
70
192
0
VERTEX
8
OBJECT__181
10
43.237999
20
-114.070999
30
-34.160000
70
192
0
VERTEX
8
OBJECT__181
10
43.897999
20
-111.459000
30
-28.091999
70
192
0
VERTEX
8
OBJECT__181
10
42.530998
20
-118.304001
30
-38.566002
70
192
0
VERTEX
8
OBJECT__181
10
42.862999
20
-115.551003
30
-37.598000
70
192
0
VERTEX
8
OBJECT__181
10
43.202000
20
-145.248001
30
-26.246000
70
192
0
VERTEX
8
OBJECT__181
10
43.921001
20
-147.845001
30
-32.237999
70
192
0
VERTEX
8
OBJECT__181
10
42.442001
20
-140.979004
30
-21.794001
70
192
0
VERTEX
8
OBJECT__181
10
42.782001
20
-143.733002
30
-22.753000
70
192
0
VERTEX
8
OBJECT__181
10
0
20
0
30
0
70
128
71
1
72
2
73
3
0
VERTEX
8
OBJECT__181
10
0
20
0
30
0
70
128
71
4
72
5
73
6
0
VERTEX
8
OBJECT__181
10
0
20
0
30
0
70
128
71
7
72
1
73
8
0
VERTEX
8
OBJECT__181
10
0
20
0
30
0
70
128
71
8
72
4
73
7
0
VERTEX
8
OBJECT__181
10
0
20
0
30
0
70
128
71
6
72
7
73
4
0
VERTEX
8
OBJECT__181
10
0
20
0
30
0
70
128
71
4
72
9
73
10
0
VERTEX
8
OBJECT__181
10
0
20
0
30
0
70
128
71
4
72
11
73
12
0
VERTEX
8
OBJECT__181
10
0
20
0
30
0
70
128
71
4
72
8
73
11
0
VERTEX
8
OBJECT__181
10
0
20
0
30
0
70
128
71
12
72
9
73
4
0
VERTEX
8
OBJECT__181
10
0
20
0
30
0
70
128
71
10
72
5
73
4
0
VERTEX
8
OBJECT__181
10
0
20
0
30
0
70
128
71
1
72
13
73
14
0
VERTEX
8
OBJECT__181
10
0
20
0
30
0
70
128
71
1
72
15
73
16
0
VERTEX
8
OBJECT__181
10
0
20
0
30
0
70
128
71
1
72
7
73
15
0
VERTEX
8
OBJECT__181
10
0
20
0
30
0
70
128
71
16
72
13
73
1
0
VERTEX
8
OBJECT__181
10
0
20
0
30
0
70
128
71
14
72
2
73
1
0
VERTEX
8
OBJECT__181
10
0
20
0
30
0
70
128
71
3
72
8
73
1
0
SEQEND
8
OBJECT__181
0
POLYLINE
8
OBJECT__183
66
1
70
64
71
4
72
2
62
253
0
VERTEX
8
OBJECT__183
10
39.955002
20
-139.600006
30
-21.695000
70
192
0
VERTEX
8
OBJECT__183
10
42.398998
20
-139.600006
30
-21.681999
70
192
0
VERTEX
8
OBJECT__183
10
42.398998
20
-119.699997
30
-21.681999
70
192
0
VERTEX
8
OBJECT__183
10
39.955002
20
-119.699997
30
-21.695000
70
192
0
VERTEX
8
OBJECT__183
10
0
20
0
30
0
70
128
71
1
72
2
73
3
0
VERTEX
8
OBJECT__183
10
0
20
0
30
0
70
128
71
3
72
4
73
1
0
SEQEND
8
OBJECT__183
0
POLYLINE
8
OBJECT__184
66
1
70
64
71
34
72
32
62
253
0
VERTEX
8
OBJECT__184
10
43.570000
20
-145.824005
30
-33.820000
70
192
0
VERTEX
8
OBJECT__184
10
41.851002
20
-139.600006
30
-38.685001
70
192
0
VERTEX
8
OBJECT__184
10
42.023998
20
-139.600006
30
-38.683998
70
192
0
VERTEX
8
OBJECT__184
10
41.729000
20
-139.600006
30
-38.686001
70
192
0
VERTEX
8
OBJECT__184
10
41.780998
20
-139.600006
30
-38.685001
70
192
0
VERTEX
8
OBJECT__184
10
40.223000
20
-145.352005
30
-34.560001
70
192
0
VERTEX
8
OBJECT__184
10
41.712002
20
-139.600006
30
-38.686001
70
192
0
VERTEX
8
OBJECT__184
10
41.573002
20
-139.600006
30
-38.686001
70
192
0
VERTEX
8
OBJECT__184
10
41.641998
20
-139.600006
30
-38.686001
70
192
0
VERTEX
8
OBJECT__184
10
41.469002
20
-139.600006
30
-38.687000
70
192
0
VERTEX
8
OBJECT__184
10
41.504002
20
-139.600006
30
-38.687000
70
192
0
VERTEX
8
OBJECT__184
10
41.223000
20
-139.600006
30
-38.688000
70
192
0
VERTEX
8
OBJECT__184
10
41.365002
20
-139.600006
30
-38.688000
70
192
0
VERTEX
8
OBJECT__184
10
41.433998
20
-139.600006
30
-38.687000
70
192
0
VERTEX
8
OBJECT__184
10
40.979000
20
-139.600006
30
-38.689999
70
192
0
VERTEX
8
OBJECT__184
10
41.140999
20
-139.600006
30
-38.688999
70
192
0
VERTEX
8
OBJECT__184
10
40.529999
20
-139.600006
30
-38.692001
70
192
0
VERTEX
8
OBJECT__184
10
40.598000
20
-139.600006
30
-38.692001
70
192
0
VERTEX
8
OBJECT__184
10
40.425999
20
-139.600006
30
-38.693001
70
192
0
VERTEX
8
OBJECT__184
10
40.460999
20
-139.600006
30
-38.692001
70
192
0
VERTEX
8
OBJECT__184
10
40.035000
20
-144.697998
30
-36.995998
70
192
0
VERTEX
8
OBJECT__184
10
40.043999
20
-139.600006
30
-38.695000
70
192
0
VERTEX
8
OBJECT__184
10
40.112999
20
-139.600006
30
-38.694000
70
192
0
VERTEX
8
OBJECT__184
10
40.818001
20
-147.417999
30
-26.855000
70
192
0
VERTEX
8
OBJECT__184
10
43.921001
20
-147.845001
30
-32.237999
70
192
0
VERTEX
8
OBJECT__184
10
43.202000
20
-145.248001
30
-26.246000
70
192
0
VERTEX
8
OBJECT__184
10
40.558998
20
-146.667007
30
-25.660999
70
192
0
VERTEX
8
OBJECT__184
10
39.964001
20
-144.697998
30
-23.393999
70
192
0
VERTEX
8
OBJECT__184
10
42.782001
20
-143.733002
30
-22.753000
70
192
0
VERTEX
8
OBJECT__184
10
42.442001
20
-140.979004
30
-21.794001
70
192
0
VERTEX
8
OBJECT__184
10
40.327000
20
-145.994003
30
-24.593000
70
192
0
VERTEX
8
OBJECT__184
10
39.955002
20
-139.600006
30
-21.695000
70
192
0
VERTEX
8
OBJECT__184
10
42.398998
20
-139.600006
30
-21.681999
70
192
0
VERTEX
8
OBJECT__184
10
42.488998
20
-139.608002
30
-38.681999
70
192
0
VERTEX
8
OBJECT__184
10
0
20
0
30
0
70
128
71
1
72
2
73
3
0
VERTEX
8
OBJECT__184
10
0
20
0
30
0
70
128
71
1
72
4
73
5
0
VERTEX
8
OBJECT__184
10
0
20
0
30
0
70
128
71
6
72
7
73
4
0
VERTEX
8
OBJECT__184
10
0
20
0
30
0
70
128
71
4
72
1
73
6
0
VERTEX
8
OBJECT__184
10
0
20
0
30
0
70
128
71
5
72
2
73
1
0
VERTEX
8
OBJECT__184
10
0
20
0
30
0
70
128
71
6
72
8
73
9
0
VERTEX
8
OBJECT__184
10
0
20
0
30
0
70
128
71
6
72
10
73
11
0
VERTEX
8
OBJECT__184
10
0
20
0
30
0
70
128
71
6
72
12
73
13
0
VERTEX
8
OBJECT__184
10
0
20
0
30
0
70
128
71
13
72
14
73
6
0
VERTEX
8
OBJECT__184
10
0
20
0
30
0
70
128
71
14
72
10
73
6
0
VERTEX
8
OBJECT__184
10
0
20
0
30
0
70
128
71
6
72
15
73
16
0
VERTEX
8
OBJECT__184
10
0
20
0
30
0
70
128
71
6
72
17
73
18
0
VERTEX
8
OBJECT__184
10
0
20
0
30
0
70
128
71
18
72
15
73
6
0
VERTEX
8
OBJECT__184
10
0
20
0
30
0
70
128
71
6
72
19
73
20
0
VERTEX
8
OBJECT__184
10
0
20
0
30
0
70
128
71
20
72
17
73
6
0
VERTEX
8
OBJECT__184
10
0
20
0
30
0
70
128
71
19
72
6
73
21
0
VERTEX
8
OBJECT__184
10
0
20
0
30
0
70
128
71
21
72
22
73
23
0
VERTEX
8
OBJECT__184
10
0
20
0
30
0
70
128
71
21
72
23
73
19
0
VERTEX
8
OBJECT__184
10
0
20
0
30
0
70
128
71
16
72
12
73
6
0
VERTEX
8
OBJECT__184
10
0
20
0
30
0
70
128
71
11
72
8
73
6
0
VERTEX
8
OBJECT__184
10
0
20
0
30
0
70
128
71
9
72
7
73
6
0
VERTEX
8
OBJECT__184
10
0
20
0
30
0
70
128
71
24
72
6
73
25
0
VERTEX
8
OBJECT__184
10
0
20
0
30
0
70
128
71
6
72
1
73
25
0
VERTEX
8
OBJECT__184
10
0
20
0
30
0
70
128
71
26
72
27
73
24
0
VERTEX
8
OBJECT__184
10
0
20
0
30
0
70
128
71
28
72
29
73
30
0
VERTEX
8
OBJECT__184
10
0
20
0
30
0
70
128
71
29
72
28
73
31
0
VERTEX
8
OBJECT__184
10
0
20
0
30
0
70
128
71
31
72
26
73
29
0
VERTEX
8
OBJECT__184
10
0
20
0
30
0
70
128
71
30
72
32
73
28
0
VERTEX
8
OBJECT__184
10
0
20
0
30
0
70
128
71
31
72
27
73
26
0
VERTEX
8
OBJECT__184
10
0
20
0
30
0
70
128
71
30
72
33
73
32
0
VERTEX
8
OBJECT__184
10
0
20
0
30
0
70
128
71
25
72
26
73
24
0
VERTEX
8
OBJECT__184
10
0
20
0
30
0
70
128
71
3
72
34
73
1
0
SEQEND
8
OBJECT__184
0
POLYLINE
8
OBJECT__185
66
1
70
64
71
10
72
10
62
253
0
VERTEX
8
OBJECT__185
10
-47.000000
20
-75.000000
30
-10.800000
70
192
0
VERTEX
8
OBJECT__185
10
-47.000000
20
-93.545998
30
-24.274000
70
192
0
VERTEX
8
OBJECT__185
10
-20.000000
20
-93.545998
30
-24.274000
70
192
0
VERTEX
8
OBJECT__185
10
-20.000000
20
-75.000000
30
-10.800000
70
192
0
VERTEX
8
OBJECT__185
10
-47.000000
20
-86.461998
30
-46.076000
70
192
0
VERTEX
8
OBJECT__185
10
-20.000000
20
-86.461998
30
-46.076000
70
192
0
VERTEX
8
OBJECT__185
10
-47.000000
20
-63.537998
30
-46.076000
70
192
0
VERTEX
8
OBJECT__185
10
-20.000000
20
-63.537998
30
-46.076000
70
192
0
VERTEX
8
OBJECT__185
10
-47.000000
20
-56.453999
30
-24.274000
70
192
0
VERTEX
8
OBJECT__185
10
-20.000000
20
-56.453999
30
-24.274000
70
192
0
VERTEX
8
OBJECT__185
10
0
20
0
30
0
70
128
71
1
72
2
73
3
0
VERTEX
8
OBJECT__185
10
0
20
0
30
0
70
128
71
1
72
3
73
4
0
VERTEX
8
OBJECT__185
10
0
20
0
30
0
70
128
71
2
72
5
73
6
0
VERTEX
8
OBJECT__185
10
0
20
0
30
0
70
128
71
2
72
6
73
3
0
VERTEX
8
OBJECT__185
10
0
20
0
30
0
70
128
71
5
72
7
73
8
0
VERTEX
8
OBJECT__185
10
0
20
0
30
0
70
128
71
5
72
8
73
6
0
VERTEX
8
OBJECT__185
10
0
20
0
30
0
70
128
71
7
72
9
73
10
0
VERTEX
8
OBJECT__185
10
0
20
0
30
0
70
128
71
7
72
10
73
8
0
VERTEX
8
OBJECT__185
10
0
20
0
30
0
70
128
71
9
72
1
73
4
0
VERTEX
8
OBJECT__185
10
0
20
0
30
0
70
128
71
9
72
4
73
10
0
SEQEND
8
OBJECT__185
0
POLYLINE
8
OBJECT__187
66
1
70
64
71
4
72
2
62
253
0
VERTEX
8
OBJECT__187
10
-9.950000
20
49.250000
30
426.299988
70
192
0
VERTEX
8
OBJECT__187
10
0.000000
20
59.200001
30
426.299988
70
192
0
VERTEX
8
OBJECT__187
10
9.950000
20
49.250000
30
426.299988
70
192
0
VERTEX
8
OBJECT__187
10
0.000000
20
39.299999
30
426.299988
70
192
0
VERTEX
8
OBJECT__187
10
0
20
0
30
0
70
128
71
1
72
2
73
3
0
VERTEX
8
OBJECT__187
10
0
20
0
30
0
70
128
71
3
72
4
73
1
0
SEQEND
8
OBJECT__187
0
POLYLINE
8
OBJECT__188
66
1
70
64
71
8
72
8
62
253
0
VERTEX
8
OBJECT__188
10
0.000000
20
59.200001
30
429.500000
70
192
0
VERTEX
8
OBJECT__188
10
0.000000
20
59.200001
30
426.299988
70
192
0
VERTEX
8
OBJECT__188
10
-9.950000
20
49.250000
30
426.299988
70
192
0
VERTEX
8
OBJECT__188
10
9.950000
20
49.250000
30
429.500000
70
192
0
VERTEX
8
OBJECT__188
10
9.950000
20
49.250000
30
426.299988
70
192
0
VERTEX
8
OBJECT__188
10
0.000000
20
39.299999
30
429.500000
70
192
0
VERTEX
8
OBJECT__188
10
0.000000
20
39.299999
30
426.299988
70
192
0
VERTEX
8
OBJECT__188
10
-9.950000
20
49.250000
30
429.500000
70
192
0
VERTEX
8
OBJECT__188
10
0
20
0
30
0
70
128
71
1
72
2
73
3
0
VERTEX
8
OBJECT__188
10
0
20
0
30
0
70
128
71
4
72
5
73
2
0
VERTEX
8
OBJECT__188
10
0
20
0
30
0
70
128
71
6
72
7
73
5
0
VERTEX
8
OBJECT__188
10
0
20
0
30
0
70
128
71
8
72
3
73
7
0
VERTEX
8
OBJECT__188
10
0
20
0
30
0
70
128
71
7
72
6
73
8
0
VERTEX
8
OBJECT__188
10
0
20
0
30
0
70
128
71
5
72
4
73
6
0
VERTEX
8
OBJECT__188
10
0
20
0
30
0
70
128
71
2
72
1
73
4
0
VERTEX
8
OBJECT__188
10
0
20
0
30
0
70
128
71
3
72
8
73
1
0
SEQEND
8
OBJECT__188
0
POLYLINE
8
OBJECT__190
66
1
70
64
71
8
72
8
62
253
0
VERTEX
8
OBJECT__190
10
0.000000
20
59.819000
30
430.118988
70
192
0
VERTEX
8
OBJECT__190
10
10.569000
20
49.250000
30
430.118988
70
192
0
VERTEX
8
OBJECT__190
10
9.950000
20
49.250000
30
429.500000
70
192
0
VERTEX
8
OBJECT__190
10
-10.569000
20
49.250000
30
430.118988
70
192
0
VERTEX
8
OBJECT__190
10
0.000000
20
59.200001
30
429.500000
70
192
0
VERTEX
8
OBJECT__190
10
0.000000
20
38.681000
30
430.118988
70
192
0
VERTEX
8
OBJECT__190
10
-9.950000
20
49.250000
30
429.500000
70
192
0
VERTEX
8
OBJECT__190
10
0.000000
20
39.299999
30
429.500000
70
192
0
VERTEX
8
OBJECT__190
10
0
20
0
30
0
70
128
71
1
72
2
73
3
0
VERTEX
8
OBJECT__190
10
0
20
0
30
0
70
128
71
4
72
1
73
5
0
VERTEX
8
OBJECT__190
10
0
20
0
30
0
70
128
71
6
72
4
73
7
0
VERTEX
8
OBJECT__190
10
0
20
0
30
0
70
128
71
2
72
6
73
8
0
VERTEX
8
OBJECT__190
10
0
20
0
30
0
70
128
71
8
72
3
73
2
0
VERTEX
8
OBJECT__190
10
0
20
0
30
0
70
128
71
7
72
8
73
6
0
VERTEX
8
OBJECT__190
10
0
20
0
30
0
70
128
71
5
72
7
73
4
0
VERTEX
8
OBJECT__190
10
0
20
0
30
0
70
128
71
3
72
5
73
1
0
SEQEND
8
OBJECT__190
0
POLYLINE
8
OBJECT__191
66
1
70
64
71
8
72
8
62
253
0
VERTEX
8
OBJECT__191
10
11.800000
20
49.250000
30
453.600006
70
192
0
VERTEX
8
OBJECT__191
10
10.569000
20
49.250000
30
430.118988
70
192
0
VERTEX
8
OBJECT__191
10
0.000000
20
59.819000
30
430.118988
70
192
0
VERTEX
8
OBJECT__191
10
-11.800000
20
49.250000
30
453.600006
70
192
0
VERTEX
8
OBJECT__191
10
0.000000
20
61.049999
30
453.600006
70
192
0
VERTEX
8
OBJECT__191
10
0.000000
20
37.450001
30
453.600006
70
192
0
VERTEX
8
OBJECT__191
10
-10.569000
20
49.250000
30
430.118988
70
192
0
VERTEX
8
OBJECT__191
10
0.000000
20
38.681000
30
430.118988
70
192
0
VERTEX
8
OBJECT__191
10
0
20
0
30
0
70
128
71
1
72
2
73
3
0
VERTEX
8
OBJECT__191
10
0
20
0
30
0
70
128
71
4
72
5
73
3
0
VERTEX
8
OBJECT__191
10
0
20
0
30
0
70
128
71
6
72
4
73
7
0
VERTEX
8
OBJECT__191
10
0
20
0
30
0
70
128
71
6
72
8
73
2
0
VERTEX
8
OBJECT__191
10
0
20
0
30
0
70
128
71
2
72
1
73
6
0
VERTEX
8
OBJECT__191
10
0
20
0
30
0
70
128
71
7
72
8
73
6
0
VERTEX
8
OBJECT__191
10
0
20
0
30
0
70
128
71
3
72
7
73
4
0
VERTEX
8
OBJECT__191
10
0
20
0
30
0
70
128
71
3
72
5
73
1
0
SEQEND
8
OBJECT__191
0
POLYLINE
8
OBJECT__192
66
1
70
64
71
8
72
8
62
253
0
VERTEX
8
OBJECT__192
10
0.000000
20
61.049999
30
453.600006
70
192
0
VERTEX
8
OBJECT__192
10
-11.800000
20
49.250000
30
453.600006
70
192
0
VERTEX
8
OBJECT__192
10
-11.300000
20
49.250000
30
454.100006
70
192
0
VERTEX
8
OBJECT__192
10
11.800000
20
49.250000
30
453.600006
70
192
0
VERTEX
8
OBJECT__192
10
0.000000
20
60.549999
30
454.100006
70
192
0
VERTEX
8
OBJECT__192
10
0.000000
20
37.450001
30
453.600006
70
192
0
VERTEX
8
OBJECT__192
10
11.300000
20
49.250000
30
454.100006
70
192
0
VERTEX
8
OBJECT__192
10
0.000000
20
37.950001
30
454.100006
70
192
0
VERTEX
8
OBJECT__192
10
0
20
0
30
0
70
128
71
1
72
2
73
3
0
VERTEX
8
OBJECT__192
10
0
20
0
30
0
70
128
71
4
72
1
73
5
0
VERTEX
8
OBJECT__192
10
0
20
0
30
0
70
128
71
6
72
4
73
7
0
VERTEX
8
OBJECT__192
10
0
20
0
30
0
70
128
71
2
72
6
73
8
0
VERTEX
8
OBJECT__192
10
0
20
0
30
0
70
128
71
8
72
3
73
2
0
VERTEX
8
OBJECT__192
10
0
20
0
30
0
70
128
71
7
72
8
73
6
0
VERTEX
8
OBJECT__192
10
0
20
0
30
0
70
128
71
5
72
7
73
4
0
VERTEX
8
OBJECT__192
10
0
20
0
30
0
70
128
71
3
72
5
73
1
0
SEQEND
8
OBJECT__192
0
POLYLINE
8
OBJECT__193
66
1
70
64
71
8
72
8
62
253
0
VERTEX
8
OBJECT__193
10
0.000000
20
60.549999
30
457.100006
70
192
0
VERTEX
8
OBJECT__193
10
0.000000
20
60.549999
30
454.100006
70
192
0
VERTEX
8
OBJECT__193
10
-11.300000
20
49.250000
30
454.100006
70
192
0
VERTEX
8
OBJECT__193
10
11.300000
20
49.250000
30
457.100006
70
192
0
VERTEX
8
OBJECT__193
10
11.300000
20
49.250000
30
454.100006
70
192
0
VERTEX
8
OBJECT__193
10
0.000000
20
37.950001
30
457.100006
70
192
0
VERTEX
8
OBJECT__193
10
0.000000
20
37.950001
30
454.100006
70
192
0
VERTEX
8
OBJECT__193
10
-11.300000
20
49.250000
30
457.100006
70
192
0
VERTEX
8
OBJECT__193
10
0
20
0
30
0
70
128
71
1
72
2
73
3
0
VERTEX
8
OBJECT__193
10
0
20
0
30
0
70
128
71
4
72
5
73
2
0
VERTEX
8
OBJECT__193
10
0
20
0
30
0
70
128
71
6
72
7
73
5
0
VERTEX
8
OBJECT__193
10
0
20
0
30
0
70
128
71
8
72
3
73
7
0
VERTEX
8
OBJECT__193
10
0
20
0
30
0
70
128
71
7
72
6
73
8
0
VERTEX
8
OBJECT__193
10
0
20
0
30
0
70
128
71
5
72
4
73
6
0
VERTEX
8
OBJECT__193
10
0
20
0
30
0
70
128
71
2
72
1
73
4
0
VERTEX
8
OBJECT__193
10
0
20
0
30
0
70
128
71
3
72
8
73
1
0
SEQEND
8
OBJECT__193
0
POLYLINE
8
OBJECT__194
66
1
70
64
71
8
72
8
62
253
0
VERTEX
8
OBJECT__194
10
13.500000
20
56.000000
30
-272.700012
70
192
0
VERTEX
8
OBJECT__194
10
13.500000
20
56.000000
30
-273.200012
70
192
0
VERTEX
8
OBJECT__194
10
20.000000
20
49.500000
30
-273.200012
70
192
0
VERTEX
8
OBJECT__194
10
20.000000
20
62.500000
30
-272.700012
70
192
0
VERTEX
8
OBJECT__194
10
20.000000
20
62.500000
30
-273.200012
70
192
0
VERTEX
8
OBJECT__194
10
26.500000
20
56.000000
30
-272.700012
70
192
0
VERTEX
8
OBJECT__194
10
26.500000
20
56.000000
30
-273.200012
70
192
0
VERTEX
8
OBJECT__194
10
20.000000
20
49.500000
30
-272.700012
70
192
0
VERTEX
8
OBJECT__194
10
0
20
0
30
0
70
128
71
1
72
2
73
3
0
VERTEX
8
OBJECT__194
10
0
20
0
30
0
70
128
71
4
72
5
73
2
0
VERTEX
8
OBJECT__194
10
0
20
0
30
0
70
128
71
6
72
7
73
5
0
VERTEX
8
OBJECT__194
10
0
20
0
30
0
70
128
71
8
72
3
73
7
0
VERTEX
8
OBJECT__194
10
0
20
0
30
0
70
128
71
7
72
6
73
8
0
VERTEX
8
OBJECT__194
10
0
20
0
30
0
70
128
71
5
72
4
73
6
0
VERTEX
8
OBJECT__194
10
0
20
0
30
0
70
128
71
2
72
1
73
4
0
VERTEX
8
OBJECT__194
10
0
20
0
30
0
70
128
71
3
72
8
73
1
0
SEQEND
8
OBJECT__194
0
POLYLINE
8
OBJECT__195
66
1
70
64
71
8
72
8
62
253
0
VERTEX
8
OBJECT__195
10
20.000000
20
49.500000
30
-273.200012
70
192
0
VERTEX
8
OBJECT__195
10
13.500000
20
56.000000
30
-273.200012
70
192
0
VERTEX
8
OBJECT__195
10
14.000000
20
56.000000
30
-273.700012
70
192
0
VERTEX
8
OBJECT__195
10
20.000000
20
62.500000
30
-273.200012
70
192
0
VERTEX
8
OBJECT__195
10
20.000000
20
62.000000
30
-273.700012
70
192
0
VERTEX
8
OBJECT__195
10
26.500000
20
56.000000
30
-273.200012
70
192
0
VERTEX
8
OBJECT__195
10
26.000000
20
56.000000
30
-273.700012
70
192
0
VERTEX
8
OBJECT__195
10
20.000000
20
50.000000
30
-273.700012
70
192
0
VERTEX
8
OBJECT__195
10
0
20
0
30
0
70
128
71
1
72
2
73
3
0
VERTEX
8
OBJECT__195
10
0
20
0
30
0
70
128
71
2
72
4
73
5
0
VERTEX
8
OBJECT__195
10
0
20
0
30
0
70
128
71
4
72
6
73
7
0
VERTEX
8
OBJECT__195
10
0
20
0
30
0
70
128
71
6
72
1
73
8
0
VERTEX
8
OBJECT__195
10
0
20
0
30
0
70
128
71
8
72
7
73
6
0
VERTEX
8
OBJECT__195
10
0
20
0
30
0
70
128
71
7
72
5
73
4
0
VERTEX
8
OBJECT__195
10
0
20
0
30
0
70
128
71
5
72
3
73
2
0
VERTEX
8
OBJECT__195
10
0
20
0
30
0
70
128
71
3
72
8
73
1
0
SEQEND
8
OBJECT__195
0
POLYLINE
8
OBJECT__197
66
1
70
64
71
8
72
8
62
253
0
VERTEX
8
OBJECT__197
10
20.000000
20
62.000000
30
-273.700012
70
192
0
VERTEX
8
OBJECT__197
10
20.000000
20
59.500000
30
-273.700012
70
192
0
VERTEX
8
OBJECT__197
10
16.500000
20
56.000000
30
-273.700012
70
192
0
VERTEX
8
OBJECT__197
10
26.000000
20
56.000000
30
-273.700012
70
192
0
VERTEX
8
OBJECT__197
10
23.500000
20
56.000000
30
-273.700012
70
192
0
VERTEX
8
OBJECT__197
10
20.000000
20
50.000000
30
-273.700012
70
192
0
VERTEX
8
OBJECT__197
10
20.000000
20
52.500000
30
-273.700012
70
192
0
VERTEX
8
OBJECT__197
10
14.000000
20
56.000000
30
-273.700012
70
192
0
VERTEX
8
OBJECT__197
10
0
20
0
30
0
70
128
71
1
72
2
73
3
0
VERTEX
8
OBJECT__197
10
0
20
0
30
0
70
128
71
4
72
5
73
2
0
VERTEX
8
OBJECT__197
10
0
20
0
30
0
70
128
71
6
72
7
73
5
0
VERTEX
8
OBJECT__197
10
0
20
0
30
0
70
128
71
8
72
3
73
7
0
VERTEX
8
OBJECT__197
10
0
20
0
30
0
70
128
71
2
72
1
73
4
0
VERTEX
8
OBJECT__197
10
0
20
0
30
0
70
128
71
7
72
6
73
8
0
VERTEX
8
OBJECT__197
10
0
20
0
30
0
70
128
71
5
72
4
73
6
0
VERTEX
8
OBJECT__197
10
0
20
0
30
0
70
128
71
3
72
8
73
1
0
SEQEND
8
OBJECT__197
0
POLYLINE
8
OBJECT__198
66
1
70
64
71
8
72
8
62
253
0
VERTEX
8
OBJECT__198
10
23.500000
20
56.000000
30
-262.200012
70
192
0
VERTEX
8
OBJECT__198
10
23.500000
20
56.000000
30
-273.700012
70
192
0
VERTEX
8
OBJECT__198
10
20.000000
20
52.500000
30
-273.700012
70
192
0
VERTEX
8
OBJECT__198
10
20.000000
20
59.500000
30
-273.700012
70
192
0
VERTEX
8
OBJECT__198
10
16.500000
20
56.000000
30
-273.700012
70
192
0
VERTEX
8
OBJECT__198
10
20.000000
20
59.500000
30
-262.200012
70
192
0
VERTEX
8
OBJECT__198
10
20.000000
20
52.500000
30
-262.200012
70
192
0
VERTEX
8
OBJECT__198
10
16.500000
20
56.000000
30
-262.200012
70
192
0
VERTEX
8
OBJECT__198
10
0
20
0
30
0
70
128
71
1
72
2
73
3
0
VERTEX
8
OBJECT__198
10
0
20
0
30
0
70
128
71
4
72
2
73
1
0
VERTEX
8
OBJECT__198
10
0
20
0
30
0
70
128
71
5
72
4
73
6
0
VERTEX
8
OBJECT__198
10
0
20
0
30
0
70
128
71
7
72
3
73
5
0
VERTEX
8
OBJECT__198
10
0
20
0
30
0
70
128
71
5
72
8
73
7
0
VERTEX
8
OBJECT__198
10
0
20
0
30
0
70
128
71
6
72
8
73
5
0
VERTEX
8
OBJECT__198
10
0
20
0
30
0
70
128
71
1
72
6
73
4
0
VERTEX
8
OBJECT__198
10
0
20
0
30
0
70
128
71
3
72
7
73
1
0
SEQEND
8
OBJECT__198
0
POLYLINE
8
OBJECT__199
66
1
70
64
71
8
72
8
62
253
0
VERTEX
8
OBJECT__199
10
20.000000
20
65.000000
30
-60.799999
70
192
0
VERTEX
8
OBJECT__199
10
11.000000
20
56.000000
30
-60.799999
70
192
0
VERTEX
8
OBJECT__199
10
11.000000
20
56.000000
30
-52.299999
70
192
0
VERTEX
8
OBJECT__199
10
20.000000
20
65.000000
30
-52.299999
70
192
0
VERTEX
8
OBJECT__199
10
20.000000
20
47.000000
30
-60.799999
70
192
0
VERTEX
8
OBJECT__199
10
20.000000
20
47.000000
30
-52.299999
70
192
0
VERTEX
8
OBJECT__199
10
29.000000
20
56.000000
30
-60.799999
70
192
0
VERTEX
8
OBJECT__199
10
29.000000
20
56.000000
30
-52.299999
70
192
0
VERTEX
8
OBJECT__199
10
0
20
0
30
0
70
128
71
1
72
2
73
3
0
VERTEX
8
OBJECT__199
10
0
20
0
30
0
70
128
71
1
72
3
73
4
0
VERTEX
8
OBJECT__199
10
0
20
0
30
0
70
128
71
2
72
5
73
6
0
VERTEX
8
OBJECT__199
10
0
20
0
30
0
70
128
71
2
72
6
73
3
0
VERTEX
8
OBJECT__199
10
0
20
0
30
0
70
128
71
5
72
7
73
8
0
VERTEX
8
OBJECT__199
10
0
20
0
30
0
70
128
71
5
72
8
73
6
0
VERTEX
8
OBJECT__199
10
0
20
0
30
0
70
128
71
7
72
1
73
4
0
VERTEX
8
OBJECT__199
10
0
20
0
30
0
70
128
71
7
72
4
73
8
0
SEQEND
8
OBJECT__199
0
POLYLINE
8
OBJECT__201
66
1
70
64
71
5
72
3
62
253
0
VERTEX
8
OBJECT__201
10
-17.118999
20
-17.350000
30
443.562012
70
192
0
VERTEX
8
OBJECT__201
10
17.118999
20
-17.350000
30
443.562012
70
192
0
VERTEX
8
OBJECT__201
10
10.580000
20
-17.350000
30
423.437988
70
192
0
VERTEX
8
OBJECT__201
10
-10.580000
20
-17.350000
30
423.437988
70
192
0
VERTEX
8
OBJECT__201
10
0.000000
20
-17.350000
30
456.000000
70
192
0
VERTEX
8
OBJECT__201
10
0
20
0
30
0
70
128
71
1
72
2
73
3
0
VERTEX
8
OBJECT__201
10
0
20
0
30
0
70
128
71
3
72
4
73
1
0
VERTEX
8
OBJECT__201
10
0
20
0
30
0
70
128
71
1
72
5
73
2
0
SEQEND
8
OBJECT__201
0
POLYLINE
8
OBJECT__202
66
1
70
64
71
20
72
22
62
253
0
VERTEX
8
OBJECT__202
10
-17.118999
20
-39.349998
30
443.562012
70
192
0
VERTEX
8
OBJECT__202
10
-17.118999
20
-17.350000
30
443.562012
70
192
0
VERTEX
8
OBJECT__202
10
-10.580000
20
-17.350000
30
423.437988
70
192
0
VERTEX
8
OBJECT__202
10
10.580000
20
-17.350000
30
423.437988
70
192
0
VERTEX
8
OBJECT__202
10
10.580000
20
-39.349998
30
423.437988
70
192
0
VERTEX
8
OBJECT__202
10
-10.580000
20
-39.349998
30
423.437988
70
192
0
VERTEX
8
OBJECT__202
10
17.118999
20
-17.350000
30
443.562012
70
192
0
VERTEX
8
OBJECT__202
10
17.118999
20
-39.349998
30
443.562012
70
192
0
VERTEX
8
OBJECT__202
10
0.000000
20
-39.349998
30
456.000000
70
192
0
VERTEX
8
OBJECT__202
10
3.394000
20
-31.305000
30
455.677002
70
192
0
VERTEX
8
OBJECT__202
10
3.667000
20
-25.740999
30
455.622986
70
192
0
VERTEX
8
OBJECT__202
10
3.541000
20
-28.302999
30
455.648010
70
192
0
VERTEX
8
OBJECT__202
10
0.000000
20
-17.350000
30
456.000000
70
192
0
VERTEX
8
OBJECT__202
10
1.233000
20
-24.021999
30
455.958008
70
192
0
VERTEX
8
OBJECT__202
10
0.000000
20
-23.850000
30
456.000000
70
192
0
VERTEX
8
OBJECT__202
10
-4.377000
20
-27.306999
30
455.459991
70
192
0
VERTEX
8
OBJECT__202
10
-4.003000
20
-28.122000
30
455.528015
70
192
0
VERTEX
8
OBJECT__202
10
-2.063000
20
-32.348999
30
455.881012
70
192
0
VERTEX
8
OBJECT__202
10
-0.165000
20
-31.986000
30
455.809998
70
192
0
VERTEX
8
OBJECT__202
10
-0.007000
20
-31.955999
30
455.803986
70
192
0
VERTEX
8
OBJECT__202
10
0
20
0
30
0
70
128
71
1
72
2
73
3
0
VERTEX
8
OBJECT__202
10
0
20
0
30
0
70
128
71
4
72
5
73
6
0
VERTEX
8
OBJECT__202
10
0
20
0
30
0
70
128
71
4
72
7
73
8
0
VERTEX
8
OBJECT__202
10
0
20
0
30
0
70
128
71
9
72
8
73
10
0
VERTEX
8
OBJECT__202
10
0
20
0
30
0
70
128
71
7
72
11
73
12
0
VERTEX
8
OBJECT__202
10
0
20
0
30
0
70
128
71
12
72
8
73
7
0
VERTEX
8
OBJECT__202
10
0
20
0
30
0
70
128
71
7
72
13
73
14
0
VERTEX
8
OBJECT__202
10
0
20
0
30
0
70
128
71
13
72
15
73
14
0
VERTEX
8
OBJECT__202
10
0
20
0
30
0
70
128
71
14
72
11
73
7
0
VERTEX
8
OBJECT__202
10
0
20
0
30
0
70
128
71
12
72
10
73
8
0
VERTEX
8
OBJECT__202
10
0
20
0
30
0
70
128
71
2
72
16
73
15
0
VERTEX
8
OBJECT__202
10
0
20
0
30
0
70
128
71
1
72
17
73
16
0
VERTEX
8
OBJECT__202
10
0
20
0
30
0
70
128
71
1
72
18
73
17
0
VERTEX
8
OBJECT__202
10
0
20
0
30
0
70
128
71
16
72
2
73
1
0
VERTEX
8
OBJECT__202
10
0
20
0
30
0
70
128
71
9
72
19
73
18
0
VERTEX
8
OBJECT__202
10
0
20
0
30
0
70
128
71
9
72
20
73
19
0
VERTEX
8
OBJECT__202
10
0
20
0
30
0
70
128
71
18
72
1
73
9
0
VERTEX
8
OBJECT__202
10
0
20
0
30
0
70
128
71
15
72
13
73
2
0
VERTEX
8
OBJECT__202
10
0
20
0
30
0
70
128
71
10
72
20
73
9
0
VERTEX
8
OBJECT__202
10
0
20
0
30
0
70
128
71
8
72
5
73
4
0
VERTEX
8
OBJECT__202
10
0
20
0
30
0
70
128
71
6
72
3
73
4
0
VERTEX
8
OBJECT__202
10
0
20
0
30
0
70
128
71
3
72
6
73
1
0
SEQEND
8
OBJECT__202
0
POLYLINE
8
OBJECT__204
66
1
70
64
71
5
72
3
62
253
0
VERTEX
8
OBJECT__204
10
-17.118999
20
-39.349998
30
443.562012
70
192
0
VERTEX
8
OBJECT__204
10
-10.580000
20
-39.349998
30
423.437988
70
192
0
VERTEX
8
OBJECT__204
10
10.580000
20
-39.349998
30
423.437988
70
192
0
VERTEX
8
OBJECT__204
10
17.118999
20
-39.349998
30
443.562012
70
192
0
VERTEX
8
OBJECT__204
10
0.000000
20
-39.349998
30
456.000000
70
192
0
VERTEX
8
OBJECT__204
10
0
20
0
30
0
70
128
71
1
72
2
73
3
0
VERTEX
8
OBJECT__204
10
0
20
0
30
0
70
128
71
4
72
5
73
1
0
VERTEX
8
OBJECT__204
10
0
20
0
30
0
70
128
71
3
72
4
73
1
0
SEQEND
8
OBJECT__204
0
POLYLINE
8
OBJECT__205
66
1
70
64
71
14
72
14
62
253
0
VERTEX
8
OBJECT__205
10
-4.500000
20
-28.350000
30
465.000000
70
192
0
VERTEX
8
OBJECT__205
10
0.000000
20
-23.850000
30
465.000000
70
192
0
VERTEX
8
OBJECT__205
10
0.000000
20
-23.850000
30
456.000000
70
192
0
VERTEX
8
OBJECT__205
10
-4.377000
20
-27.306999
30
455.459991
70
192
0
VERTEX
8
OBJECT__205
10
-4.003000
20
-28.122000
30
455.528015
70
192
0
VERTEX
8
OBJECT__205
10
-2.063000
20
-32.348999
30
455.881012
70
192
0
VERTEX
8
OBJECT__205
10
0.000000
20
-32.849998
30
465.000000
70
192
0
VERTEX
8
OBJECT__205
10
-0.007000
20
-31.955999
30
455.803986
70
192
0
VERTEX
8
OBJECT__205
10
3.394000
20
-31.305000
30
455.677002
70
192
0
VERTEX
8
OBJECT__205
10
4.500000
20
-28.350000
30
465.000000
70
192
0
VERTEX
8
OBJECT__205
10
-0.165000
20
-31.986000
30
455.809998
70
192
0
VERTEX
8
OBJECT__205
10
3.667000
20
-25.740999
30
455.622986
70
192
0
VERTEX
8
OBJECT__205
10
1.233000
20
-24.021999
30
455.958008
70
192
0
VERTEX
8
OBJECT__205
10
3.541000
20
-28.302999
30
455.648010
70
192
0
VERTEX
8
OBJECT__205
10
0
20
0
30
0
70
128
71
1
72
2
73
3
0
VERTEX
8
OBJECT__205
10
0
20
0
30
0
70
128
71
3
72
4
73
1
0
VERTEX
8
OBJECT__205
10
0
20
0
30
0
70
128
71
1
72
5
73
6
0
VERTEX
8
OBJECT__205
10
0
20
0
30
0
70
128
71
6
72
7
73
1
0
VERTEX
8
OBJECT__205
10
0
20
0
30
0
70
128
71
7
72
8
73
9
0
VERTEX
8
OBJECT__205
10
0
20
0
30
0
70
128
71
9
72
10
73
7
0
VERTEX
8
OBJECT__205
10
0
20
0
30
0
70
128
71
7
72
11
73
8
0
VERTEX
8
OBJECT__205
10
0
20
0
30
0
70
128
71
10
72
12
73
13
0
VERTEX
8
OBJECT__205
10
0
20
0
30
0
70
128
71
10
72
14
73
12
0
VERTEX
8
OBJECT__205
10
0
20
0
30
0
70
128
71
13
72
2
73
10
0
VERTEX
8
OBJECT__205
10
0
20
0
30
0
70
128
71
13
72
3
73
2
0
VERTEX
8
OBJECT__205
10
0
20
0
30
0
70
128
71
9
72
14
73
10
0
VERTEX
8
OBJECT__205
10
0
20
0
30
0
70
128
71
6
72
11
73
7
0
VERTEX
8
OBJECT__205
10
0
20
0
30
0
70
128
71
4
72
5
73
1
0
SEQEND
8
OBJECT__205
0
POLYLINE
8
OBJECT__206
66
1
70
64
71
4
72
2
62
253
0
VERTEX
8
OBJECT__206
10
0.000000
20
-32.849998
30
465.000000
70
192
0
VERTEX
8
OBJECT__206
10
4.500000
20
-28.350000
30
465.000000
70
192
0
VERTEX
8
OBJECT__206
10
0.000000
20
-23.850000
30
465.000000
70
192
0
VERTEX
8
OBJECT__206
10
-4.500000
20
-28.350000
30
465.000000
70
192
0
VERTEX
8
OBJECT__206
10
0
20
0
30
0
70
128
71
1
72
2
73
3
0
VERTEX
8
OBJECT__206
10
0
20
0
30
0
70
128
71
3
72
4
73
1
0
SEQEND
8
OBJECT__206
0
ENDSEC
0
EOF
