  0
SECTION
  2
HEADER
  9
$ACADVER
  1
AC1015
  9
$ACADMAINTVER
 70
     6
  9
$DWGCODEPAGE
  3
ANSI_1252
  9
$INSBASE
 10
0.0
 20
0.0
 30
0.0
  9
$EXTMIN
 10
0.0
 20
0.0
 30
0.0
  9
$EXTMAX
 10
1682.0
 20
2378.0
 30
0.0
  9
$LIMMIN
 10
0.0
 20
0.0
  9
$LIMMAX
 10
1682.0
 20
2378.0
  9
$ORTHOMODE
 70
     0
  9
$REGENMODE
 70
     1
  9
$FILLMODE
 70
     1
  9
$QTEXTMODE
 70
     0
  9
$MIRRTEXT
 70
     1
  9
$LTSCALE
 40
1.0
  9
$ATTMODE
 70
     1
  9
$TEXTSIZE
 40
2.5
  9
$TRACEWID
 40
1.0
  9
$TEXTSTYLE
  7
Standard
  9
$CLAYER
  8
0
  9
$CELTYPE
  6
ByLayer
  9
$CECOLOR
 62
   256
  9
$CELTSCALE
 40
1.0
  9
$DISPSILH
 70
     0
  9
$DIMSCALE
 40
1.0
  9
$DIMASZ
 40
2.5
  9
$DIMEXO
 40
0.625
  9
$DIMDLI
 40
3.75
  9
$DIMRND
 40
0.0
  9
$DIMDLE
 40
0.0
  9
$DIMEXE
 40
1.25
  9
$DIMTP
 40
0.0
  9
$DIMTM
 40
0.0
  9
$DIMTXT
 40
2.5
  9
$DIMCEN
 40
2.5
  9
$DIMTSZ
 40
0.0
  9
$DIMTOL
 70
     0
  9
$DIMLIM
 70
     0
  9
$DIMTIH
 70
     0
  9
$DIMTOH
 70
     0
  9
$DIMSE1
 70
     0
  9
$DIMSE2
 70
     0
  9
$DIMTAD
 70
     1
  9
$DIMZIN
 70
     8
  9
$DIMBLK
  1

  9
$DIMASO
 70
     1
  9
$DIMSHO
 70
     1
  9
$DIMPOST
  1

  9
$DIMAPOST
  1

  9
$DIMALT
 70
     0
  9
$DIMALTD
 70
     3
  9
$DIMALTF
 40
0.0393700787
  9
$DIMLFAC
 40
1.0
  9
$DIMTOFL
 70
     1
  9
$DIMTVP
 40
0.0
  9
$DIMTIX
 70
     0
  9
$DIMSOXD
 70
     0
  9
$DIMSAH
 70
     0
  9
$DIMBLK1
  1

  9
$DIMBLK2
  1

  9
$DIMSTYLE
  2
ISO-25
  9
$DIMCLRD
 70
     0
  9
$DIMCLRE
 70
     0
  9
$DIMCLRT
 70
     0
  9
$DIMTFAC
 40
1.0
  9
$DIMGAP
 40
0.625
  9
$DIMJUST
 70
     0
  9
$DIMSD1
 70
     0
  9
$DIMSD2
 70
     0
  9
$DIMTOLJ
 70
     0
  9
$DIMTZIN
 70
     8
  9
$DIMALTZ
 70
     0
  9
$DIMALTTZ
 70
     0
  9
$DIMUPT
 70
     0
  9
$DIMDEC
 70
     2
  9
$DIMTDEC
 70
     2
  9
$DIMALTU
 70
     2
  9
$DIMALTTD
 70
     3
  9
$DIMTXSTY
  7
Standard
  9
$DIMAUNIT
 70
     0
  9
$DIMADEC
 70
     0
  9
$DIMALTRND
 40
0.0
  9
$DIMAZIN
 70
     0
  9
$DIMDSEP
 70
    44
  9
$DIMATFIT
 70
     3
  9
$DIMFRAC
 70
     0
  9
$DIMLDRBLK
  1

  9
$DIMLUNIT
 70
     2
  9
$DIMLWD
 70
    -2
  9
$DIMLWE
 70
    -2
  9
$DIMTMOVE
 70
     0
  9
$LUNITS
 70
     2
  9
$LUPREC
 70
     4
  9
$SKETCHINC
 40
1.0
  9
$FILLETRAD
 40
10.0
  9
$AUNITS
 70
     0
  9
$AUPREC
 70
     0
  9
$MENU
  1
.
  9
$ELEVATION
 40
0.0
  9
$PELEVATION
 40
0.0
  9
$THICKNESS
 40
0.0
  9
$LIMCHECK
 70
     0
  9
$CHAMFERA
 40
10.0
  9
$CHAMFERB
 40
10.0
  9
$CHAMFERC
 40
20.0
  9
$CHAMFERD
 40
0.0
  9
$SKPOLY
 70
     0
  9
$TDCREATE
 40
2455274.608408241
  9
$TDUCREATE
 40
2455274.566741574
  9
$TDUPDATE
 40
2455274.608408252
  9
$TDUUPDATE
 40
2455274.566741586
  9
$TDINDWG
 40
0.0000000116
  9
$TDUSRTIMER
 40
0.0000000116
  9
$USRTIMER
 70
     1
  9
$ANGBASE
 50
0.0
  9
$ANGDIR
 70
     0
  9
$PDMODE
 70
     0
  9
$PDSIZE
 40
0.0
  9
$PLINEWID
 40
0.0
  9
$SPLFRAME
 70
     0
  9
$SPLINETYPE
 70
     6
  9
$SPLINESEGS
 70
     8
  9
$HANDSEED
  5
157
  9
$SURFTAB1
 70
     6
  9
$SURFTAB2
 70
     6
  9
$SURFTYPE
 70
     6
  9
$SURFU
 70
     6
  9
$SURFV
 70
     6
  9
$UCSBASE
  2

  9
$UCSNAME
  2

  9
$UCSORG
 10
0.0
 20
0.0
 30
0.0
  9
$UCSXDIR
 10
1.0
 20
0.0
 30
0.0
  9
$UCSYDIR
 10
0.0
 20
1.0
 30
0.0
  9
$UCSORTHOREF
  2

  9
$UCSORTHOVIEW
 70
     0
  9
$UCSORGTOP
 10
0.0
 20
0.0
 30
0.0
  9
$UCSORGBOTTOM
 10
0.0
 20
0.0
 30
0.0
  9
$UCSORGLEFT
 10
0.0
 20
0.0
 30
0.0
  9
$UCSORGRIGHT
 10
0.0
 20
0.0
 30
0.0
  9
$UCSORGFRONT
 10
0.0
 20
0.0
 30
0.0
  9
$UCSORGBACK
 10
0.0
 20
0.0
 30
0.0
  9
$PUCSBASE
  2

  9
$PUCSNAME
  2

  9
$PUCSORG
 10
0.0
 20
0.0
 30
0.0
  9
$PUCSXDIR
 10
1.0
 20
0.0
 30
0.0
  9
$PUCSYDIR
 10
0.0
 20
1.0
 30
0.0
  9
$PUCSORTHOREF
  2

  9
$PUCSORTHOVIEW
 70
     0
  9
$PUCSORGTOP
 10
0.0
 20
0.0
 30
0.0
  9
$PUCSORGBOTTOM
 10
0.0
 20
0.0
 30
0.0
  9
$PUCSORGLEFT
 10
0.0
 20
0.0
 30
0.0
  9
$PUCSORGRIGHT
 10
0.0
 20
0.0
 30
0.0
  9
$PUCSORGFRONT
 10
0.0
 20
0.0
 30
0.0
  9
$PUCSORGBACK
 10
0.0
 20
0.0
 30
0.0
  9
$USERI1
 70
     0
  9
$USERI2
 70
     0
  9
$USERI3
 70
     0
  9
$USERI4
 70
     0
  9
$USERI5
 70
     0
  9
$USERR1
 40
0.0
  9
$USERR2
 40
0.0
  9
$USERR3
 40
0.0
  9
$USERR4
 40
0.0
  9
$USERR5
 40
0.0
  9
$WORLDVIEW
 70
     1
  9
$SHADEDGE
 70
     3
  9
$SHADEDIF
 70
    70
  9
$TILEMODE
 70
     1
  9
$MAXACTVP
 70
    64
  9
$PINSBASE
 10
0.0
 20
0.0
 30
0.0
  9
$PLIMCHECK
 70
     0
  9
$PEXTMIN
 10
0.0
 20
0.0
 30
0.0
  9
$PEXTMAX
 10
1682.0
 20
2378.0
 30
0.0
  9
$PLIMMIN
 10
0.0
 20
0.0
  9
$PLIMMAX
 10
1682.0
 20
2378.0
  9
$UNITMODE
 70
     0
  9
$VISRETAIN
 70
     1
  9
$PLINEGEN
 70
     0
  9
$PSLTSCALE
 70
     1
  9
$TREEDEPTH
 70
  3020
  9
$CMLSTYLE
  2
Standard
  9
$CMLJUST
 70
     0
  9
$CMLSCALE
 40
20.0
  9
$PROXYGRAPHICS
 70
     1
  9
$MEASUREMENT
 70
     1
  9
$CELWEIGHT
370
    -1
  9
$ENDCAPS
280
     0
  9
$JOINSTYLE
280
     0
  9
$LWDISPLAY
290
     0
  9
$INSUNITS
 70
     4
  9
$HYPERLINKBASE
  1

  9
$STYLESHEET
  1

  9
$XEDIT
290
     1
  9
$CEPSNTYPE
380
     0
  9
$PSTYLEMODE
290
     1
  9
$FINGERPRINTGUID
  2
{14812D48-9FDA-4A5E-9B43-20B4613BC6EB}
  9
$VERSIONGUID
  2
{FAEB1C32-E019-11D5-929B-00C0DF256EC4}
  9
$EXTNAMES
290
     1
  9
$PSVPSCALE
 40
0.0
  9
$OLESTARTUP
290
     0
  0
ENDSEC
  0
SECTION
  2
CLASSES
  0
CLASS
  1
ACDBDICTIONARYWDFLT
  2
AcDbDictionaryWithDefault
  3
ObjectDBX Classes
 90
        0
280
     0
281
     0
  0
CLASS
  1
VISUALSTYLE
  2
AcDbVisualStyle
  3
ObjectDBX Classes
 90
     4095
280
     0
281
     0
  0
CLASS
  1
SCALE
  2
AcDbScale
  3
ObjectDBX Classes
 90
     1153
280
     0
281
     0
  0
CLASS
  1
DICTIONARYVAR
  2
AcDbDictionaryVar
  3
ObjectDBX Classes
 90
        0
280
     0
281
     0
  0
CLASS
  1
ACDBPLACEHOLDER
  2
AcDbPlaceHolder
  3
ObjectDBX Classes
 90
        0
280
     0
281
     0
  0
CLASS
  1
LAYOUT
  2
AcDbLayout
  3
ObjectDBX Classes
 90
        0
280
     0
281
     0
  0
ENDSEC
  0
SECTION
  2
TABLES
  0
TABLE
  2
VPORT
  5
8
330
0
100
AcDbSymbolTable
 70
     1
  0
VPORT
  5
29
330
8
100
AcDbSymbolTableRecord
100
AcDbViewportTableRecord
  2
*Active
 70
     0
 10
0.0
 20
0.0
 11
1.0
 21
1.0
 12
344.1869158879
 22
148.5
 13
0.0
 23
0.0
 14
10.0
 24
10.0
 15
10.0
 25
10.0
 16
0.0
 26
0.0
 36
1.0
 17
0.0
 27
0.0
 37
0.0
 40
297.0
 41
1.9729729729
 42
50.0
 43
0.0
 44
0.0
 50
0.0
 51
0.0
 71
     0
 72
   100
 73
     1
 74
     3
 75
     0
 76
     0
 77
     0
 78
     0
281
     0
 65
     1
110
0.0
120
0.0
130
0.0
111
1.0
121
0.0
131
0.0
112
0.0
122
1.0
132
0.0
 79
     0
146
0.0
  0
ENDTAB
  0
TABLE
  2
LTYPE
  5
5
330
0
100
AcDbSymbolTable
 70
     2
  0
LTYPE
  5
14
330
5
100
AcDbSymbolTableRecord
100
AcDbLinetypeTableRecord
  2
ByBlock
 70
     0
  3

 72
    65
 73
     0
 40
0.0
  0
LTYPE
  5
15
330
5
100
AcDbSymbolTableRecord
100
AcDbLinetypeTableRecord
  2
ByLayer
 70
     0
  3

 72
    65
 73
     0
 40
0.0
  0
LTYPE
  5
16
330
5
100
AcDbSymbolTableRecord
100
AcDbLinetypeTableRecord
  2
Continuous
 70
     0
  3
Solid line
 72
    65
 73
     0
 40
0.0
  0
LTYPE
  5
C2
330
5
100
AcDbSymbolTableRecord
100
AcDbLinetypeTableRecord
  2
CENTER2
 70
     0
  3
Center (.5x) ___ _ ___ _ ___ _ ___ _ ___ _ ___
 72
    65
 73
     4
 40
28.575
 49
19.05
 74
     4
 75
     0
340
0
 46
0.0
 50
0.0
 44
0.0
 45
0.0
 49
-3.175
 74
     4
 75
     0
340
0
 46
0.0
 50
0.0
 44
0.0
 45
0.0
 49
3.175
 74
     4
 75
     0
340
0
 46
0.0
 50
0.0
 44
0.0
 45
0.0
 49
-3.175
 74
     4
 75
     0
340
0
 46
0.0
 50
0.0
 44
0.0
 45
0.0
  0
ENDTAB
  0
TABLE
  2
LAYER
  5
2
330
0
100
AcDbSymbolTable
 70
    16
  0
LAYER
  5
10
330
2
100
AcDbSymbolTableRecord
100
AcDbLayerTableRecord
  2
0
 70
     0
 62
     7
  6
Continuous
370
    -3
390
F
  0
LAYER
  5
5D
330
2
100
AcDbSymbolTableRecord
100
AcDbLayerTableRecord
  2
Default
 70
     0
 62
     7
  6
Continuous
370
    -3
390
F
  0
LAYER
  5
60
330
2
100
AcDbSymbolTableRecord
100
AcDbLayerTableRecord
  2
$DDT_AUDIT_GENERATED_(60)
 70
     0
 62
     7
  6
Continuous
370
    -3
390
F
  0
LAYER
  5
6D
330
2
100
AcDbSymbolTableRecord
100
AcDbLayerTableRecord
  2
$DDT_AUDIT_GENERATED_(6D)
 70
     0
 62
     7
  6
Continuous
370
    -3
390
F
  0
LAYER
  5
71
330
2
100
AcDbSymbolTableRecord
100
AcDbLayerTableRecord
  2
$DDT_AUDIT_GENERATED_(71)
 70
     0
 62
     7
  6
Continuous
370
    -3
390
F
  0
LAYER
  5
7A
330
2
100
AcDbSymbolTableRecord
100
AcDbLayerTableRecord
  2
$DDT_AUDIT_GENERATED_(7A)
 70
     0
 62
     7
  6
Continuous
370
    -3
390
F
  0
LAYER
  5
7E
330
2
100
AcDbSymbolTableRecord
100
AcDbLayerTableRecord
  2
$DDT_AUDIT_GENERATED_(7E)
 70
     0
 62
     7
  6
Continuous
370
    -3
390
F
  0
LAYER
  5
8B
330
2
100
AcDbSymbolTableRecord
100
AcDbLayerTableRecord
  2
$DDT_AUDIT_GENERATED_(8B)
 70
     0
 62
     7
  6
Continuous
370
    -3
390
F
  0
LAYER
  5
94
330
2
100
AcDbSymbolTableRecord
100
AcDbLayerTableRecord
  2
$DDT_AUDIT_GENERATED_(94)
 70
     0
 62
     7
  6
Continuous
370
    -3
390
F
  0
LAYER
  5
A3
330
2
100
AcDbSymbolTableRecord
100
AcDbLayerTableRecord
  2
$DDT_AUDIT_GENERATED_(A3)
 70
     0
 62
     7
  6
Continuous
370
    -3
390
F
  0
LAYER
  5
BE
330
2
100
AcDbSymbolTableRecord
100
AcDbLayerTableRecord
  2
$DDT_AUDIT_GENERATED_(BE)
 70
     0
 62
     7
  6
Continuous
370
    -3
390
F
  0
LAYER
  5
C1
330
2
100
AcDbSymbolTableRecord
100
AcDbLayerTableRecord
  2
DV1_Standard
 70
     0
 62
     7
  6
Continuous
370
    -3
390
F
  0
LAYER
  5
E5
330
2
100
AcDbSymbolTableRecord
100
AcDbLayerTableRecord
  2
$DDT_AUDIT_GENERATED_(E5)
 70
     0
 62
     7
  6
Continuous
370
    -3
390
F
  0
LAYER
  5
EF
330
2
100
AcDbSymbolTableRecord
100
AcDbLayerTableRecord
  2
DV2_Standard
 70
     0
 62
     7
  6
Continuous
370
    -3
390
F
  0
LAYER
  5
102
330
2
100
AcDbSymbolTableRecord
100
AcDbLayerTableRecord
  2
$DDT_AUDIT_GENERATED_(102)
 70
     0
 62
     7
  6
Continuous
370
    -3
390
F
  0
LAYER
  5
13D
330
2
100
AcDbSymbolTableRecord
100
AcDbLayerTableRecord
  2
DV3_Standard
 70
     0
 62
     7
  6
Continuous
370
    -3
390
F
  0
ENDTAB
  0
TABLE
  2
STYLE
  5
3
330
0
100
AcDbSymbolTable
 70
     2
  0
STYLE
  5
11
330
3
100
AcDbSymbolTableRecord
100
AcDbTextStyleTableRecord
  2
Standard
 70
     0
 40
0.0
 41
1.0
 50
0.0
 71
     0
 42
2.5
  3
txt
  4

  0
STYLE
  5
146
330
3
100
AcDbSymbolTableRecord
100
AcDbTextStyleTableRecord
  2
SEACAD_seiso_ttf
 70
     0
 40
0.0
 41
1.0
 50
0.0
 71
     0
 42
0.2
  3
seiso.ttf
  4

  0
ENDTAB
  0
TABLE
  2
VIEW
  5
6
330
0
100
AcDbSymbolTable
 70
     0
  0
ENDTAB
  0
TABLE
  2
UCS
  5
7
330
0
100
AcDbSymbolTable
 70
     0
  0
ENDTAB
  0
TABLE
  2
APPID
  5
9
330
0
100
AcDbSymbolTable
 70
     1
  0
APPID
  5
12
330
9
100
AcDbSymbolTableRecord
100
AcDbRegAppTableRecord
  2
ACAD
 70
     0
  0
ENDTAB
  0
TABLE
  2
DIMSTYLE
  5
A
330
0
100
AcDbSymbolTable
 70
     1
100
AcDbDimStyleTable
  0
DIMSTYLE
105
27
330
A
100
AcDbSymbolTableRecord
100
AcDbDimStyleTableRecord
  2
ISO-25
 70
     0
 41
2.5
 42
0.625
 43
3.75
 44
1.25
 73
     0
 74
     0
 77
     1
 78
     8
140
2.5
141
2.5
143
0.0393700787
147
0.625
171
     3
172
     1
271
     2
272
     2
274
     3
278
    44
283
     0
284
     8
340
11
  0
ENDTAB
  0
TABLE
  2
BLOCK_RECORD
  5
1
330
0
100
AcDbSymbolTable
 70
     4
  0
BLOCK_RECORD
  5
1F
330
1
100
AcDbSymbolTableRecord
100
AcDbBlockTableRecord
  2
*Model_Space
340
22
  0
BLOCK_RECORD
  5
1B
330
1
100
AcDbSymbolTableRecord
100
AcDbBlockTableRecord
  2
*Paper_Space
340
1E
  0
BLOCK_RECORD
  5
5E
330
1
100
AcDbSymbolTableRecord
100
AcDbBlockTableRecord
  2
SE
340
0
102
{BLKREFS
331
5F
102
}
  0
BLOCK_RECORD
  5
C7
330
1
100
AcDbSymbolTableRecord
100
AcDbBlockTableRecord
  2
SE1
340
0
102
{BLKREFS
331
C8
102
}
  0
BLOCK_RECORD
  5
F4
330
1
100
AcDbSymbolTableRecord
100
AcDbBlockTableRecord
  2
SE2
340
0
102
{BLKREFS
331
F5
102
}
  0
ENDTAB
  0
ENDSEC
  0
SECTION
  2
BLOCKS
  0
BLOCK
  5
20
330
1F
100
AcDbEntity
  8
0
100
AcDbBlockBegin
  2
*Model_Space
 70
     0
 10
0.0
 20
0.0
 30
0.0
  3
*Model_Space
  1

  0
ENDBLK
  5
21
330
1F
100
AcDbEntity
  8
0
100
AcDbBlockEnd
  0
BLOCK
  5
1C
330
1B
100
AcDbEntity
 67
     1
  8
0
100
AcDbBlockBegin
  2
*Paper_Space
 70
     0
 10
0.0
 20
0.0
 30
0.0
  3
*Paper_Space
  1

  0
ENDBLK
  5
1D
330
1B
100
AcDbEntity
 67
     1
  8
0
100
AcDbBlockEnd
  0
BLOCK
  5
C5
330
5E
100
AcDbEntity
  8
0
100
AcDbBlockBegin
  2
SE
 70
     0
 10
0.0
 20
0.0
 30
0.0
  3
SE
  1

  0
LINE
  5
61
330
5E
100
AcDbEntity
  8
$DDT_AUDIT_GENERATED_(60)
  6
Continuous
 62
     7
100
AcDbLine
 10
78.69
 20
545.032174464
 30
0.0
 11
78.69
 21
494.032174464
 31
0.0
  0
SPLINE
  5
62
330
5E
100
AcDbEntity
  8
$DDT_AUDIT_GENERATED_(60)
  6
Continuous
 62
     7
100
AcDbSpline
210
0.0
220
0.0
230
1.0
 70
     8
 71
     3
 72
    34
 73
    30
 74
     0
 42
0.0000000001250112
 43
0.0000000001
 40
0.5003300637028508
 40
0.5003300637028508
 40
0.5003300637028508
 40
0.5003300637028508
 40
0.5312499999999989
 40
0.5312499999999989
 40
0.562499999999999
 40
0.562499999999999
 40
0.624999999999999
 40
0.624999999999999
 40
0.656249999999999
 40
0.656249999999999
 40
0.6874999999999991
 40
0.6874999999999991
 40
0.7187499999999991
 40
0.7187499999999991
 40
0.7499999999999992
 40
0.7499999999999992
 40
0.7812499999999993
 40
0.7812499999999993
 40
0.8124999999999996
 40
0.8124999999999996
 40
0.8749999999999997
 40
0.8749999999999997
 40
0.9062499999999997
 40
0.9062499999999997
 40
0.9374999999999998
 40
0.9374999999999998
 40
0.9687499999999998
 40
0.9687499999999998
 40
1.0
 40
1.0
 40
1.0
 40
1.0
 10
51.98999912933804
 20
493.5321752252391
 30
0.0
 10
51.98994611237122
 20
493.5322217127317
 30
0.0
 10
51.86483773682535
 20
493.620231836049
 30
0.0
 10
51.37410984696558
 20
493.9601337646275
 30
0.0
 10
51.01163849522398
 20
494.2098128843365
 30
0.0
 10
49.59560280998723
 20
495.1583004544297
 30
0.0
 10
48.24610826031184
 20
496.0387776929132
 30
0.0
 10
45.80063045692093
 20
497.4286588969118
 30
0.0
 10
44.91842435262161
 20
497.9012415803192
 30
0.0
 10
43.00426629840756
 20
498.8208700081167
 30
0.0
 10
41.97461850455063
 20
499.2657001626682
 30
0.0
 10
39.81403485616833
 20
500.0377907474043
 30
0.0
 10
38.66064773555181
 20
500.3722408589628
 30
0.0
 10
36.26551657186661
 20
500.8370406403762
 30
0.0
 10
35.04185647446776
 20
500.9645656839886
 30
0.0
 10
32.53502673520563
 20
500.9643552848332
 30
0.0
 10
31.30766142609087
 20
500.836015683751
 30
0.0
 10
28.91631893195081
 20
500.3713520522712
 30
0.0
 10
27.76002045362561
 20
500.035916318869
 30
0.0
 10
24.52111049061809
 20
498.8777312115892
 30
0.0
 10
22.58963355252589
 20
497.8894183163767
 30
0.0
 10
20.14388332496642
 20
496.4990098619561
 30
0.0
 10
19.39374501693559
 20
496.0427176854175
 30
0.0
 10
18.08715765041264
 20
495.220003025162
 30
0.0
 10
17.52252872283991
 20
494.848802491489
 30
0.0
 10
16.58292359412349
 20
494.2196931826684
 30
0.0
 10
16.21056281863616
 20
493.9633440389802
 30
0.0
 10
15.71832276382416
 20
493.6224466418402
 30
0.0
 10
15.59
 20
493.5321744640207
 30
0.0
 10
15.59000000000001
 20
493.5321744640207
 30
0.0
  0
ARC
  5
63
330
5E
100
AcDbEntity
  8
$DDT_AUDIT_GENERATED_(60)
  6
Continuous
 62
     7
100
AcDbCircle
 10
33.7900002952
 20
567.587704664
 30
0.0
 40
25.88530322634087
100
AcDbArc
 50
238.4351677547
 51
301.5648318117
  0
ARC
  5
64
330
5E
100
AcDbEntity
  8
$DDT_AUDIT_GENERATED_(60)
  6
Continuous
 62
     7
100
AcDbCircle
 10
106.35
 20
519.532174464
 30
0.0
 40
100.0
100
AcDbArc
 50
165.1504721945
 51
194.8495278055
  0
ARC
  5
65
330
5E
100
AcDbEntity
  8
$DDT_AUDIT_GENERATED_(60)
  6
Continuous
 62
     7
100
AcDbCircle
 10
78.19
 20
494.032174464
 30
0.0
 40
0.5000000000000004
100
AcDbArc
 50
270.0
 51
0.0
  0
ARC
  5
66
330
5E
100
AcDbEntity
  8
$DDT_AUDIT_GENERATED_(60)
  6
Continuous
 62
     7
100
AcDbCircle
 10
78.19
 20
545.032174464
 30
0.0
 40
0.5000000000000004
100
AcDbArc
 50
0.0
 51
90.0
  0
ARC
  5
67
330
5E
100
AcDbEntity
  8
$DDT_AUDIT_GENERATED_(60)
  6
Continuous
 62
     7
100
AcDbCircle
 10
10.1730796916
 20
545.032174464
 30
0.0
 40
0.5000000000000004
100
AcDbArc
 50
90.0
 51
165.1504721945
  0
ARC
  5
68
330
5E
100
AcDbEntity
  8
$DDT_AUDIT_GENERATED_(60)
  6
Continuous
 62
     7
100
AcDbCircle
 10
10.1730796916
 20
494.032174464
 30
0.0
 40
0.49999999999999
100
AcDbArc
 50
194.8495278055
 51
270.0
  0
LINE
  5
69
330
5E
100
AcDbEntity
  8
$DDT_AUDIT_GENERATED_(60)
  6
Continuous
 62
     7
100
AcDbLine
 10
20.2727613587
 20
545.532174464
 30
0.0
 11
10.1730796916
 21
545.532174464
 31
0.0
  0
LINE
  5
6A
330
5E
100
AcDbEntity
  8
$DDT_AUDIT_GENERATED_(60)
  6
Continuous
 62
     7
100
AcDbLine
 10
78.19
 20
545.532174464
 30
0.0
 11
47.3285703028
 21
545.532174464
 31
0.0
  0
LINE
  5
6B
330
5E
100
AcDbEntity
  8
$DDT_AUDIT_GENERATED_(60)
  6
Continuous
 62
     7
100
AcDbLine
 10
51.9893535408
 20
493.532174464
 30
0.0
 11
78.19
 21
493.532174464
 31
0.0
  0
LINE
  5
6C
330
5E
100
AcDbEntity
  8
$DDT_AUDIT_GENERATED_(60)
  6
Continuous
 62
     7
100
AcDbLine
 10
10.1730796916
 20
493.532174464
 30
0.0
 11
15.59
 21
493.532174464
 31
0.0
  0
LINE
  5
6E
330
5E
100
AcDbEntity
  8
$DDT_AUDIT_GENERATED_(6D)
  6
Continuous
 62
     7
100
AcDbLine
 10
15.79
 20
435.832174464
 30
0.0
 11
51.79
 21
435.832174464
 31
0.0
  0
LINE
  5
6F
330
5E
100
AcDbEntity
  8
$DDT_AUDIT_GENERATED_(6D)
  6
Continuous
 62
     7
100
AcDbLine
 10
15.79
 20
493.6717131866
 30
0.0
 11
15.79
 21
435.832174464
 31
0.0
  0
LINE
  5
70
330
5E
100
AcDbEntity
  8
$DDT_AUDIT_GENERATED_(6D)
  6
Continuous
 62
     7
100
AcDbLine
 10
51.79
 20
435.832174464
 30
0.0
 11
51.79
 21
493.6717748506
 31
0.0
  0
LINE
  5
72
330
5E
100
AcDbEntity
  8
$DDT_AUDIT_GENERATED_(71)
  6
Continuous
 62
     7
100
AcDbLine
 10
6.79
 20
431.332174464
 30
0.0
 11
60.79
 21
431.332174464
 31
0.0
  0
LINE
  5
73
330
5E
100
AcDbEntity
  8
$DDT_AUDIT_GENERATED_(71)
  6
Continuous
 62
     7
100
AcDbLine
 10
15.79
 20
435.832174464
 30
0.0
 11
51.79
 21
435.832174464
 31
0.0
  0
LINE
  5
74
330
5E
100
AcDbEntity
  8
$DDT_AUDIT_GENERATED_(71)
  6
Continuous
 62
     7
100
AcDbLine
 10
6.79
 20
434.2131930355
 30
0.0
 11
6.79
 21
431.332174464
 31
0.0
  0
LINE
  5
75
330
5E
100
AcDbEntity
  8
$DDT_AUDIT_GENERATED_(71)
  6
Continuous
 62
     7
100
AcDbLine
 10
60.79
 20
431.332174464
 30
0.0
 11
60.79
 21
434.2131930355
 31
0.0
  0
ARC
  5
76
330
5E
100
AcDbEntity
  8
$DDT_AUDIT_GENERATED_(71)
  6
Continuous
 62
     7
100
AcDbCircle
 10
24.4927455131
 20
336.211583116
 30
0.0
 40
100.0
100
AcDbArc
 50
94.9926216254
 51
99.9560038527
  0
ARC
  5
77
330
5E
100
AcDbEntity
  8
$DDT_AUDIT_GENERATED_(71)
  6
Continuous
 62
     7
100
AcDbCircle
 10
43.0872544869
 20
336.211583116
 30
0.0
 40
100.0
100
AcDbArc
 50
80.0439961473
 51
85.0073783746
  0
ARC
  5
78
330
5E
100
AcDbEntity
  8
$DDT_AUDIT_GENERATED_(71)
  6
Continuous
 62
     7
100
AcDbCircle
 10
60.29
 20
434.2131930355
 30
0.0
 40
0.5000000000000004
100
AcDbArc
 50
0.0
 51
80.0439961473
  0
ARC
  5
79
330
5E
100
AcDbEntity
  8
$DDT_AUDIT_GENERATED_(71)
  6
Continuous
 62
     7
100
AcDbCircle
 10
7.29
 20
434.2131930355
 30
0.0
 40
0.5000000000000148
100
AcDbArc
 50
99.9560038527
 51
180.0
  0
LINE
  5
7B
330
5E
100
AcDbEntity
  8
$DDT_AUDIT_GENERATED_(7A)
  6
Continuous
 62
     7
100
AcDbLine
 10
20.29
 20
561.532174464
 30
0.0
 11
47.29
 21
561.532174464
 31
0.0
  0
LINE
  5
7C
330
5E
100
AcDbEntity
  8
$DDT_AUDIT_GENERATED_(7A)
  6
Continuous
 62
     7
100
AcDbLine
 10
20.29
 20
561.532174464
 30
0.0
 11
20.29
 21
545.5192605886
 31
0.0
  0
LINE
  5
7D
330
5E
100
AcDbEntity
  8
$DDT_AUDIT_GENERATED_(7A)
  6
Continuous
 62
     7
100
AcDbLine
 10
47.29
 20
545.5312771036
 30
0.0
 11
47.29
 21
561.532174464
 31
0.0
  0
ARC
  5
7F
330
5E
100
AcDbEntity
  8
$DDT_AUDIT_GENERATED_(7E)
  6
Continuous
 62
     7
100
AcDbCircle
 10
33.79
 20
776.032174464
 30
0.0
 40
11.5
100
AcDbArc
 50
0.0
 51
180.0
  0
LINE
  5
80
330
5E
100
AcDbEntity
  8
$DDT_AUDIT_GENERATED_(7E)
  6
Continuous
 62
     7
100
AcDbLine
 10
45.29
 20
665.532174464
 30
0.0
 11
45.29
 21
668.2194134854
 31
0.0
  0
LINE
  5
81
330
5E
100
AcDbEntity
  8
$DDT_AUDIT_GENERATED_(7E)
  6
Continuous
 62
     7
100
AcDbLine
 10
45.29
 20
679.1561342917
 30
0.0
 11
45.29
 21
680.7810670842
 31
0.0
  0
LINE
  5
82
330
5E
100
AcDbEntity
  8
$DDT_AUDIT_GENERATED_(7E)
  6
Continuous
 62
     7
100
AcDbLine
 10
45.29
 20
684.7202980962
 30
0.0
 11
45.29
 21
776.032174464
 31
0.0
  0
LINE
  5
83
330
5E
100
AcDbEntity
  8
$DDT_AUDIT_GENERATED_(7E)
  6
Continuous
 62
     7
100
AcDbLine
 10
22.29
 20
776.032174464
 30
0.0
 11
22.29
 21
684.7202980962
 31
0.0
  0
LINE
  5
84
330
5E
100
AcDbEntity
  8
$DDT_AUDIT_GENERATED_(7E)
  6
Continuous
 62
     7
100
AcDbLine
 10
22.29
 20
680.7810670842
 30
0.0
 11
22.29
 21
679.1554923158
 31
0.0
  0
LINE
  5
85
330
5E
100
AcDbEntity
  8
$DDT_AUDIT_GENERATED_(7E)
  6
Continuous
 62
     7
100
AcDbLine
 10
22.29
 20
668.2194134854
 30
0.0
 11
22.29
 21
665.532174464
 31
0.0
  0
LINE
  5
86
330
5E
100
AcDbEntity
  8
$DDT_AUDIT_GENERATED_(7E)
  6
Continuous
 62
     7
100
AcDbLine
 10
45.29
 20
561.532174464
 30
0.0
 11
45.29
 21
665.532174464
 31
0.0
  0
LINE
  5
87
330
5E
100
AcDbEntity
  8
$DDT_AUDIT_GENERATED_(7E)
  6
Continuous
 62
     7
100
AcDbLine
 10
22.29
 20
665.532174464
 30
0.0
 11
22.29
 21
561.532174464
 31
0.0
  0
LINE
  5
88
330
5E
100
AcDbEntity
  8
$DDT_AUDIT_GENERATED_(7E)
  6
Continuous
 62
     7
100
AcDbLine
 10
45.29
 20
680.7810670842
 30
0.0
 11
45.29
 21
684.7202980962
 31
0.0
  0
LINE
  5
89
330
5E
100
AcDbEntity
  8
$DDT_AUDIT_GENERATED_(7E)
  6
Continuous
 62
     7
100
AcDbLine
 10
22.29
 20
684.7202980962
 30
0.0
 11
22.29
 21
680.7810670842
 31
0.0
  0
ARC
  5
8A
330
5E
100
AcDbEntity
  8
$DDT_AUDIT_GENERATED_(7E)
  6
Continuous
 62
     7
100
AcDbCircle
 10
24.6450296113
 20
680.7877502288
 30
0.0
 40
2.35283803817979
100
AcDbArc
 50
208.3078850179
 51
208.4686429482
  0
ELLIPSE
  5
8C
330
5E
100
AcDbEntity
  8
$DDT_AUDIT_GENERATED_(8B)
  6
Continuous
 62
     7
100
AcDbEllipse
 10
33.79
 20
662.5621236534
 30
0.0
 11
-10.5
 21
0.0
 31
0.0
210
0.0
220
0.0
230
1.0
 40
0.1736481777
 41
0.0
 42
6.283185307179586
  0
ELLIPSE
  5
8D
330
5E
100
AcDbEntity
  8
$DDT_AUDIT_GENERATED_(8B)
  6
Continuous
 62
     7
100
AcDbEllipse
 10
33.79
 20
679.1561342917
 30
0.0
 11
-11.49999999999999
 21
0.0
 31
0.0
210
0.0
220
0.0
230
1.0
 40
0.1736481777
 41
0.0
 42
0.0018316160677463
  0
ELLIPSE
  5
8E
330
5E
100
AcDbEntity
  8
$DDT_AUDIT_GENERATED_(8B)
  6
Continuous
 62
     7
100
AcDbEllipse
 10
33.79
 20
679.1561342917
 30
0.0
 11
-11.49999999999999
 21
0.0
 31
0.0
210
0.0
220
0.0
230
1.0
 40
0.1736481777
 41
3.140492379296874
 42
3.141592653589736
  0
ARC
  5
8F
330
5E
100
AcDbEntity
  8
$DDT_AUDIT_GENERATED_(8B)
  6
Continuous
 62
     7
100
AcDbCircle
 10
39.0556775673
 20
668.2024899884
 30
0.0
 40
16.76326194569181
100
AcDbArc
 50
179.9420808143
 51
200.0921045163
  0
ARC
  5
90
330
5E
100
AcDbEntity
  8
$DDT_AUDIT_GENERATED_(8B)
  6
Continuous
 62
     7
100
AcDbCircle
 10
28.5778317231
 20
668.1987401916
 30
0.0
 40
16.70975687985116
100
AcDbArc
 50
339.8563570898
 51
0.0708460617
  0
LINE
  5
91
330
5E
100
AcDbEntity
  8
$DDT_AUDIT_GENERATED_(8B)
  6
Continuous
 62
     7
100
AcDbLine
 10
45.29
 20
668.2194134854
 30
0.0
 11
45.29
 21
679.1561342917
 31
0.0
  0
LINE
  5
92
330
5E
100
AcDbEntity
  8
$DDT_AUDIT_GENERATED_(8B)
  6
Continuous
 62
     7
100
AcDbLine
 10
22.29
 20
679.1561342917
 30
0.0
 11
22.29
 21
668.2194134854
 31
0.0
  0
SPLINE
  5
93
330
5E
100
AcDbEntity
  8
$DDT_AUDIT_GENERATED_(8B)
  6
Continuous
 62
     7
100
AcDbSpline
210
0.0
220
0.0
230
1.0
 70
     8
 71
     3
 72
    85
 73
    81
 74
     0
 42
0.0000000004150108
 43
0.0000000001
 40
0.0
 40
0.0
 40
0.0
 40
0.0
 40
0.004693171765051
 40
0.0158178415195524
 40
0.0270332295886443
 40
0.0386804360133705
 40
0.0509881733469004
 40
0.0639731310043557
 40
0.0774318434745601
 40
0.0910896882239256
 40
0.1047420211686469
 40
0.1183208205512051
 40
0.1318212803208228
 40
0.1452535208577298
 40
0.1586302363977506
 40
0.1719628054595648
 40
0.1852604657233559
 40
0.1985304521458819
 40
0.2117783654474608
 40
0.2250085378105646
 40
0.238224335093454
 40
0.2514283907742584
 40
0.2646227823800924
 40
0.277809163328914
 40
0.2909888613692806
 40
0.3041629523391824
 40
0.3173323157577976
 40
0.3304976770264996
 40
0.3436596397184039
 40
0.356818710490137
 40
0.3699753184669107
 40
0.383129830460545
 40
0.3962825630258193
 40
0.409433792104255
 40
0.4225837608182169
 40
0.4357326858421895
 40
0.4488807626783734
 40
0.4620281700903682
 40
0.4751750738946278
 40
0.4883216302697949
 40
0.501467988715189
 40
0.5146142947693845
 40
0.5277606628069984
 40
0.5409072194013427
 40
0.5540541121562221
 40
0.5672014941417732
 40
0.5803495267030392
 40
0.5934983825552388
 40
0.6066482492806269
 40
0.6197993333673915
 40
0.6329518649632102
 40
0.6461061035599825
 40
0.6592623448859322
 40
0.6724209293621235
 40
0.6855822525901262
 40
0.6987467784870239
 40
0.7119150558883439
 40
0.7250877397205623
 40
0.73826561823242
 40
0.7514496483108527
 40
0.7646410016492702
 40
0.7778411255576219
 40
0.7910518235908798
 40
0.8042753629998212
 40
0.8175146182566084
 40
0.8307732622328382
 40
0.8440560176966951
 40
0.8573689776279876
 40
0.8707199819868762
 40
0.8841189693301562
 40
0.8975780172748167
 40
0.911110212858267
 40
0.9247249629587545
 40
0.9384136892037539
 40
0.9520845235207775
 40
0.9654926794495676
 40
0.9768704568352213
 40
0.9877118407765914
 40
0.9991989657149972
 40
1.0
 40
1.0
 40
1.0
 40
1.0
 10
45.2875416081871
 20
679.1530438227976
 30
0.0
 10
45.28834429671038
 20
679.168214951481
 30
0.0
 10
45.29038968385268
 20
679.2116869080818
 30
0.0
 10
45.27365433028
 20
679.2925265336264
 30
0.0
 10
45.23854290729237
 20
679.386371192209
 30
0.0
 10
45.18410384977356
 20
679.4787569252879
 30
0.0
 10
45.11081446589111
 20
679.5696875133035
 30
0.0
 10
45.01695793126569
 20
679.6599863671488
 30
0.0
 10
44.90216078140572
 20
679.7491942319004
 30
0.0
 10
44.76710453531327
 20
679.8365651651009
 30
0.0
 10
44.61309408933329
 20
679.9215123484023
 30
0.0
 10
44.44122569128216
 20
680.0038606149957
 30
0.0
 10
44.25208967165144
 20
680.083716068631
 30
0.0
 10
44.046017652413
 20
680.1612304283232
 30
0.0
 10
43.82327985382365
 20
680.2365089940412
 30
0.0
 10
43.58414965652667
 20
680.3096051598995
 30
0.0
 10
43.32893000044384
 20
680.3805297883672
 30
0.0
 10
43.05796217988001
 20
680.4492624666556
 30
0.0
 10
42.77162740315197
 20
680.5157608765475
 30
0.0
 10
42.47034553092659
 20
680.5799678613178
 30
0.0
 10
42.15457285663
 20
680.6418165740324
 30
0.0
 10
41.82479967388281
 20
680.701234201562
 30
0.0
 10
41.48154791292845
 20
680.7581446706207
 30
0.0
 10
41.1253689333255
 20
680.8124706354665
 30
0.0
 10
40.75684148248875
 20
680.8641349583945
 30
0.0
 10
40.37656980110349
 20
680.9130618297247
 30
0.0
 10
39.98518184869891
 20
680.9591776288344
 30
0.0
 10
39.58332762321061
 20
681.0024115968166
 30
0.0
 10
39.17167755183529
 20
681.0426963700992
 30
0.0
 10
38.75092093460482
 20
681.079968409805
 30
0.0
 10
38.32176442598215
 20
681.1141683515633
 30
0.0
 10
37.88493054311301
 20
681.145241293491
 30
0.0
 10
37.44115619210901
 20
681.1731370351457
 30
0.0
 10
36.99119120594057
 20
681.1978102767735
 30
0.0
 10
36.53579688926945
 20
681.2192207856993
 30
0.0
 10
36.07574456692674
 20
681.2373335348794
 30
0.0
 10
35.61181413382279
 20
681.2521188173725
 30
0.0
 10
35.14479260491462
 20
681.2635523394756
 30
0.0
 10
34.67547266451017
 20
681.2716152945721
 30
0.0
 10
34.20465121467237
 20
681.2762944191892
 30
0.0
 10
33.73312792290892
 20
681.2775820323202
 30
0.0
 10
33.26170412536673
 20
681.2754760603391
 30
0.0
 10
32.79118123906461
 20
681.269980057289
 30
0.0
 10
32.32235909128237
 20
681.2611032020767
 30
0.0
 10
31.85603411928954
 20
681.2488602629751
 30
0.0
 10
31.39299806792745
 20
681.2332715517929
 30
0.0
 10
30.93403676277488
 20
681.2143628723402
 30
0.0
 10
30.47992866992909
 20
681.1921654493202
 30
0.0
 10
30.03144345944623
 20
681.1667158389911
 30
0.0
 10
29.58934057218886
 20
681.1380558199198
 30
0.0
 10
29.15436778925719
 20
681.1062322615544
 30
0.0
 10
28.72725980250172
 20
681.071296967522
 30
0.0
 10
28.30873678372625
 20
681.0333064894562
 30
0.0
 10
27.89950294904214
 20
680.9923219056915
 30
0.0
 10
27.50024511335071
 20
680.9484085570525
 30
0.0
 10
27.11163122802249
 20
680.9016357291317
 30
0.0
 10
26.73430889238186
 20
680.8520762663192
 30
0.0
 10
26.3689038264588
 20
680.7998060970718
 30
0.0
 10
26.0160182884644
 20
680.7449036414563
 30
0.0
 10
25.67622941543774
 20
680.6874490597223
 30
0.0
 10
25.35008745941483
 20
680.6275232824557
 30
0.0
 10
25.03811388448951
 20
680.5652067356074
 30
0.0
 10
24.74079928306996
 20
680.5005776324138
 30
0.0
 10
24.45860106510538
 20
680.4337096410566
 30
0.0
 10
24.19194087761939
 20
680.364668639054
 30
0.0
 10
23.94120174055326
 20
680.2935081148187
 30
0.0
 10
23.70672496463295
 20
680.2202625398583
 30
0.0
 10
23.48880715985627
 20
680.1449376947287
 30
0.0
 10
23.28769811704461
 20
680.0674963900249
 30
0.0
 10
23.10360193209281
 20
679.9878376244168
 30
0.0
 10
22.93668575574173
 20
679.9057664305893
 30
0.0
 10
22.78711133338857
 20
679.820956263222
 30
0.0
 10
22.65510336270611
 20
679.7329077046132
 30
0.0
 10
22.54122284056902
 20
679.6410419348626
 30
0.0
 10
22.44654271801776
 20
679.5449159825994
 30
0.0
 10
22.37558992018055
 20
679.4484666099748
 30
0.0
 10
22.32639309946828
 20
679.3526372901097
 30
0.0
 10
22.29840187884945
 20
679.2580979990147
 30
0.0
 10
22.28696190960198
 20
679.1875543854267
 30
0.0
 10
22.29041295915815
 20
679.1535475958246
 30
0.0
 10
22.29067677601498
 20
679.150972250075
 30
0.0
  0
LINE
  5
95
330
5E
100
AcDbEntity
  8
$DDT_AUDIT_GENERATED_(94)
  6
Continuous
 62
     7
100
AcDbLine
 10
115.29
 20
504.3691872006
 30
0.0
 11
115.29
 21
505.4366168745
 31
0.0
  0
LINE
  5
96
330
5E
100
AcDbEntity
  8
$DDT_AUDIT_GENERATED_(94)
  6
Continuous
 62
     7
100
AcDbLine
 10
101.99
 20
544.8331930486
 30
0.0
 11
101.99
 21
494.2311558795
 31
0.0
  0
SPLINE
  5
97
330
5E
100
AcDbEntity
  8
$DDT_AUDIT_GENERATED_(94)
  6
Continuous
 62
     7
100
AcDbSpline
210
0.0
220
0.0
230
1.0
 70
    12
 71
     2
 72
     6
 73
     3
 74
     0
 42
0.0000000404085156
 43
0.0000000001
 40
0.0
 40
0.0
 40
0.0
 40
1.0
 40
1.0
 40
1.0
 10
115.29
 20
504.3691872005513
 30
0.0
 41
1.0
 10
115.2101786457889
 20
504.2746677553752
 30
0.0
 41
1.0
 10
115.1293727122987
 20
504.1809321203237
 30
0.0
 41
1.0
  0
LINE
  5
98
330
5E
100
AcDbEntity
  8
$DDT_AUDIT_GENERATED_(94)
  6
Continuous
 62
     7
100
AcDbLine
 10
115.1293727123
 20
504.1809321203
 30
0.0
 11
115.1293727123
 21
503.532174464
 31
0.0
  0
LINE
  5
99
330
5E
100
AcDbEntity
  8
$DDT_AUDIT_GENERATED_(94)
  6
Continuous
 62
     7
100
AcDbLine
 10
78.69
 20
494.032174464
 30
0.0
 11
78.69
 21
545.032174464
 31
0.0
  0
LINE
  5
9A
330
5E
100
AcDbEntity
  8
$DDT_AUDIT_GENERATED_(94)
  6
Continuous
 62
     7
100
AcDbLine
 10
79.1899809635
 20
545.5278114201
 30
0.0
 11
79.1899809635
 21
493.5365375079
 31
0.0
  0
ARC
  5
9B
330
5E
100
AcDbEntity
  8
$DDT_AUDIT_GENERATED_(94)
  6
Continuous
 62
     7
100
AcDbCircle
 10
95.92
 20
519.532174464
 30
0.0
 40
25.00000000000012
100
AcDbArc
 50
73.3749131307
 51
75.9481422426
  0
ARC
  5
9C
330
5E
100
AcDbEntity
  8
$DDT_AUDIT_GENERATED_(94)
  6
Continuous
 62
     7
100
AcDbCircle
 10
95.92
 20
519.532174464
 30
0.0
 40
25.00000000000012
100
AcDbArc
 50
284.0518577574
 51
320.2081805004
  0
LINE
  5
9D
330
5E
100
AcDbEntity
  8
$DDT_AUDIT_GENERATED_(94)
  6
Continuous
 62
     7
100
AcDbLine
 10
79.1899809635
 20
493.5365375079
 30
0.0
 11
101.4943630439
 21
493.731174916
 31
0.0
  0
LINE
  5
9E
330
5E
100
AcDbEntity
  8
$DDT_AUDIT_GENERATED_(94)
  6
Continuous
 62
     7
100
AcDbLine
 10
101.4943630439
 20
545.3331740121
 30
0.0
 11
79.1899809635
 21
545.5278114201
 31
0.0
  0
ARC
  5
9F
330
5E
100
AcDbEntity
  8
$DDT_AUDIT_GENERATED_(94)
  6
Continuous
 62
     7
100
AcDbCircle
 10
101.49
 20
544.8331930486
 30
0.0
 40
0.5000000000000004
100
AcDbArc
 50
0.0
 51
89.500025649
  0
ARC
  5
A0
330
5E
100
AcDbEntity
  8
$DDT_AUDIT_GENERATED_(94)
  6
Continuous
 62
     7
100
AcDbCircle
 10
101.49
 20
494.2311558795
 30
0.0
 40
0.4999999999999991
100
AcDbArc
 50
270.499974351
 51
0.0
  0
LINE
  5
A1
330
5E
100
AcDbEntity
  8
$DDT_AUDIT_GENERATED_(94)
  6
Continuous
 62
     7
100
AcDbLine
 10
79.1899809635
 20
545.5278114201
 30
0.0
 11
78.69
 21
545.032174464
 31
0.0
  0
LINE
  5
A2
330
5E
100
AcDbEntity
  8
$DDT_AUDIT_GENERATED_(94)
  6
Continuous
 62
     7
100
AcDbLine
 10
78.69
 20
494.032174464
 30
0.0
 11
79.1899809635
 21
493.5365375079
 31
0.0
  0
ARC
  5
A4
330
5E
100
AcDbEntity
  8
$DDT_AUDIT_GENERATED_(A3)
  6
Continuous
 62
     7
100
AcDbCircle
 10
354.7038461281
 20
546.1162572066
 30
0.0
 40
228.2748081443867
100
AcDbArc
 50
180.044192841
 51
182.8253026517
  0
ARC
  5
A5
330
5E
100
AcDbEntity
  8
$DDT_AUDIT_GENERATED_(A3)
  6
Continuous
 62
     7
100
AcDbCircle
 10
128.6297787235
 20
572.2884204371
 30
0.0
 40
26.43997721682722
100
AcDbArc
 50
265.2255894535
 51
277.0046049336
  0
ARC
  5
A6
330
5E
100
AcDbEntity
  8
$DDT_AUDIT_GENERATED_(A3)
  6
Continuous
 62
     7
100
AcDbCircle
 10
133.7378483392
 20
545.3804338448
 30
0.0
 40
0.4994741676347043
100
AcDbArc
 50
16.0203349729
 51
85.0369489162
  0
SPLINE
  5
A7
330
5E
100
AcDbEntity
  8
$DDT_AUDIT_GENERATED_(A3)
  6
Continuous
 62
     7
100
AcDbSpline
210
0.0
220
0.0
230
1.0
 70
    12
 71
     3
 72
     8
 73
     4
 74
     0
 42
0.0000000156023001
 43
0.0000000001
 40
0.0
 40
0.0
 40
0.0
 40
0.0
 40
1.0
 40
1.0
 40
1.0
 40
1.0
 10
134.2179503768133
 20
545.5173025282728
 30
0.0
 41
1.113456490516337
 10
134.1591742819149
 20
545.7214388291924
 30
0.0
 41
0.9740574968076379
 10
133.9951173939698
 20
545.8583036029963
 30
0.0
 41
0.9631135568285436
 10
133.7810962655128
 20
545.8771691938172
 30
0.0
 41
1.080624670579054
  0
LINE
  5
A8
330
5E
100
AcDbEntity
  8
$DDT_AUDIT_GENERATED_(A3)
  6
Continuous
 62
     7
100
AcDbLine
 10
124.7089171448
 20
611.14952466
 30
0.0
 11
120.2037960987
 21
610.9528268212
 31
0.0
  0
SPLINE
  5
A9
330
5E
100
AcDbEntity
  8
$DDT_AUDIT_GENERATED_(A3)
  6
Continuous
 62
     7
100
AcDbSpline
210
0.0
220
0.0
230
1.0
 70
    12
 71
     3
 72
     8
 73
     4
 74
     0
 42
0.0000000115416441
 43
0.0000000001
 40
0.0
 40
0.0
 40
0.0
 40
0.0
 40
1.0
 40
1.0
 40
1.0
 40
1.0
 10
129.722299814392
 20
610.7019824014388
 30
0.0
 41
1.163242404995534
 10
129.7146741735432
 20
610.9911123758546
 30
0.0
 41
0.9428760857259246
 10
129.5065353262933
 20
611.1913355642109
 30
0.0
 41
0.9456196011974826
 10
129.2181584491549
 20
611.1888762067277
 30
0.0
 41
1.171472951410208
  0
LINE
  5
AA
330
5E
100
AcDbEntity
  8
$DDT_AUDIT_GENERATED_(A3)
  6
Continuous
 62
     7
100
AcDbLine
 10
129.2181584492
 20
611.1888762067
 30
0.0
 11
124.7089171448
 21
611.14952466
 31
0.0
  0
SPLINE
  5
AB
330
5E
100
AcDbEntity
  8
$DDT_AUDIT_GENERATED_(A3)
  6
Continuous
 62
     7
100
AcDbSpline
210
0.0
220
0.0
230
1.0
 70
    12
 71
     3
 72
     8
 73
     4
 74
     0
 42
0.0000000115397766
 43
0.0000000001
 40
0.0
 40
0.0
 40
0.0
 40
0.0
 40
1.0
 40
1.0
 40
1.0
 40
1.0
 10
121.3923249606085
 20
546.7973201230573
 30
0.0
 41
1.167371657067465
 10
121.3998863240605
 20
546.5085631367884
 30
0.0
 41
0.9442094510680739
 10
121.2028870323205
 20
546.2973072522605
 30
0.0
 41
0.944209447644345
 10
120.9143059946991
 20
546.2847075364557
 30
0.0
 41
1.167371646796279
  0
SPLINE
  5
AC
330
5E
100
AcDbEntity
  8
$DDT_AUDIT_GENERATED_(A3)
  6
Continuous
 62
     7
100
AcDbSpline
210
0.0
220
0.0
230
1.0
 70
    12
 71
     3
 72
     8
 73
     4
 74
     0
 42
0.0000000115416441
 43
0.0000000001
 40
0.0
 40
0.0
 40
0.0
 40
0.0
 40
1.0
 40
1.0
 40
1.0
 40
1.0
 10
119.7258276945299
 20
610.4402155665396
 30
0.0
 41
1.163242404999177
 10
119.7183109910098
 20
610.7293483935816
 30
0.0
 41
0.9428760857258672
 10
119.9156857191786
 20
610.9401903286214
 30
0.0
 41
0.9456196011963411
 10
120.2037960986586
 20
610.9528268212214
 30
0.0
 41
1.171472951410599
  0
ARC
  5
AD
330
5E
100
AcDbEntity
  8
$DDT_AUDIT_GENERATED_(A3)
  6
Continuous
 62
     7
100
AcDbCircle
 10
120.8970278989
 20
546.783427488
 30
0.0
 40
0.4999987688226591
100
AcDbArc
 50
272.5515247176
 51
1.4988821828
  0
LINE
  5
AE
330
5E
100
AcDbEntity
  8
$DDT_AUDIT_GENERATED_(A3)
  6
Continuous
 62
     7
100
AcDbLine
 10
131.8589293572
 20
546.0463509074
 30
0.0
 11
131.8541105493
 21
546.0457818597
 31
0.0
  0
LINE
  5
AF
330
5E
100
AcDbEntity
  8
$DDT_AUDIT_GENERATED_(A3)
  6
Continuous
 62
     7
100
AcDbLine
 10
103.3083994591
 20
534.4860529165
 30
0.0
 11
103.0199253852
 21
545.5024333466
 31
0.0
  0
LINE
  5
B0
330
5E
100
AcDbEntity
  8
$DDT_AUDIT_GENERATED_(A3)
  6
Continuous
 62
     7
100
AcDbLine
 10
131.402717394
 20
546.5313563837
 30
0.0
 11
131.3983382137
 21
546.530779659
 31
0.0
  0
SPLINE
  5
B1
330
5E
100
AcDbEntity
  8
$DDT_AUDIT_GENERATED_(A3)
  6
Continuous
 62
     7
100
AcDbSpline
210
0.0
220
0.0
230
1.0
 70
    12
 71
     3
 72
     8
 73
     4
 74
     0
 42
0.000000012476068
 43
0.0000000001
 40
0.0
 40
0.0
 40
0.0
 40
0.0
 40
1.0
 40
1.0
 40
1.0
 40
1.0
 10
131.4027173964352
 20
546.5313563838106
 30
0.0
 41
1.145420715203314
 10
131.4097113091955
 20
546.2642697427434
 30
0.0
 41
0.9515264314949649
 10
131.59276967451
 20
546.069657763853
 30
0.0
 41
0.9515264282656619
 10
131.8589293575099
 20
546.046350905689
 30
0.0
 41
1.145420705515406
  0
ARC
  5
B2
330
5E
100
AcDbEntity
  8
$DDT_AUDIT_GENERATED_(A3)
  6
Continuous
 62
     7
100
AcDbCircle
 10
106.5301753271
 20
526.0560463413
 30
0.0
 40
2.999999999526636
100
AcDbArc
 50
181.499999999
 51
207.5170947389
  0
LINE
  5
B3
330
5E
100
AcDbEntity
  8
$DDT_AUDIT_GENERATED_(A3)
  6
Continuous
 62
     7
100
AcDbLine
 10
103.5312033526
 20
525.9775154964
 30
0.0
 11
103.3083994588
 21
534.4860529275
 31
0.0
  0
ARC
  5
B4
330
5E
100
AcDbEntity
  8
$DDT_AUDIT_GENERATED_(A3)
  6
Continuous
 62
     7
100
AcDbCircle
 10
281.2573345402
 20
617.0795141129
 30
0.0
 40
200.0148518555138
100
AcDbArc
 50
207.5170939592
 51
217.8375438716
  0
ARC
  5
B5
330
5E
100
AcDbEntity
  8
$DDT_AUDIT_GENERATED_(A3)
  6
Continuous
 62
     7
100
AcDbCircle
 10
130.5813319255
 20
468.971031397
 30
0.0
 40
25.91542671261376
100
AcDbArc
 50
85.2495494698
 51
89.5180523319
  0
LINE
  5
B6
330
5E
100
AcDbEntity
  8
$DDT_AUDIT_GENERATED_(A3)
  6
Continuous
 62
     7
100
AcDbLine
 10
120.9219584088
 20
546.2850416498
 30
0.0
 11
103.0198995257
 21
545.503420879
 31
0.0
  0
LINE
  5
B7
330
5E
100
AcDbEntity
  8
$DDT_AUDIT_GENERATED_(A3)
  6
Continuous
 62
     7
100
AcDbLine
 10
133.7926213975
 20
545.8770228857
 30
0.0
 11
131.8425226903
 21
546.0477875935
 31
0.0
  0
ARC
  5
B8
330
5E
100
AcDbEntity
  8
$DDT_AUDIT_GENERATED_(A3)
  6
Continuous
 62
     7
100
AcDbCircle
 10
38.1215175183
 20
517.8509596878
 30
0.0
 40
99.9999999999999
100
AcDbArc
 50
346.9592706397
 51
16.0617151217
  0
LINE
  5
B9
330
5E
100
AcDbEntity
  8
$DDT_AUDIT_GENERATED_(A3)
  6
Continuous
 62
     7
100
AcDbLine
 10
131.402717394
 20
546.5313563837
 30
0.0
 11
129.7223503793
 21
610.7019837255
 31
0.0
  0
LINE
  5
BA
330
5E
100
AcDbEntity
  8
$DDT_AUDIT_GENERATED_(A3)
  6
Continuous
 62
     7
100
AcDbLine
 10
119.7257771296
 20
610.4402142424
 30
0.0
 11
121.3923249634
 21
546.7973201231
 31
0.0
  0
ARC
  5
BB
330
5E
100
AcDbEntity
  8
$DDT_AUDIT_GENERATED_(A3)
  6
Continuous
 62
     7
100
AcDbCircle
 10
135.0554034332
 20
495.39941717
 30
0.0
 40
0.4999999999959131
100
AcDbArc
 50
272.5000000002
 51
346.9593155761
  0
LINE
  5
BC
330
5E
100
AcDbEntity
  8
$DDT_AUDIT_GENERATED_(A3)
  6
Continuous
 62
     7
100
AcDbLine
 10
132.682682166
 20
494.7953455796
 30
0.0
 11
135.0772131269
 21
494.8998930592
 31
0.0
  0
LINE
  5
BD
330
5E
100
AcDbEntity
  8
$DDT_AUDIT_GENERATED_(A3)
  6
Continuous
 62
     7
100
AcDbLine
 10
123.2924409037
 20
494.385358792
 30
0.0
 11
126.0915612512
 21
494.5075710257
 31
0.0
  0
LINE
  5
BF
330
5E
100
AcDbEntity
  8
$DDT_AUDIT_GENERATED_(BE)
  6
Continuous
 62
     7
100
AcDbLine
 10
130.8473362881
 20
494.8949134162
 30
0.0
 11
126.1480956595
 21
494.1506268193
 31
0.0
  0
LINE
  5
C0
330
5E
100
AcDbEntity
  8
$DDT_AUDIT_GENERATED_(BE)
  6
Continuous
 62
     7
100
AcDbLine
 10
126.0915612512
 20
494.5075710257
 30
0.0
 11
126.1480956595
 21
494.1506268193
 31
0.0
  0
LINE
  5
C3
330
5E
100
AcDbEntity
  8
DV1_Standard
  6
CENTER2
 62
     7
100
AcDbLine
 10
53.789999553
 20
431.332174464
 30
0.0
 11
13.790000447
 21
431.332174464
 31
0.0
  0
LINE
  5
C4
330
5E
100
AcDbEntity
  8
DV1_Standard
  6
CENTER2
 62
     7
100
AcDbLine
 10
33.79
 20
451.332174017
 30
0.0
 11
33.79
 21
411.3321749111
 31
0.0
  0
ENDBLK
  5
C6
330
5E
100
AcDbEntity
  8
0
100
AcDbBlockEnd
  0
BLOCK
  5
F2
330
C7
100
AcDbEntity
  8
0
100
AcDbBlockBegin
  2
SE1
 70
     0
 10
0.0
 20
0.0
 30
0.0
  3
SE1
  1

  0
CIRCLE
  5
C9
330
C7
100
AcDbEntity
  8
$DDT_AUDIT_GENERATED_(60)
  6
Continuous
 62
     7
100
AcDbCircle
 10
228.1382368723
 20
519.532174464
 30
0.0
 40
26.0
  0
LINE
  5
CA
330
C7
100
AcDbEntity
  8
$DDT_AUDIT_GENERATED_(6D)
  6
Continuous
 62
     7
100
AcDbLine
 10
246.1382368723
 20
435.832174464
 30
0.0
 11
210.1382368723
 21
435.832174464
 31
0.0
  0
LINE
  5
CB
330
C7
100
AcDbEntity
  8
$DDT_AUDIT_GENERATED_(6D)
  6
Continuous
 62
     7
100
AcDbLine
 10
210.1382368723
 20
500.7705114247
 30
0.0
 11
210.1382368723
 21
435.832174464
 31
0.0
  0
LINE
  5
CC
330
C7
100
AcDbEntity
  8
$DDT_AUDIT_GENERATED_(6D)
  6
Continuous
 62
     7
100
AcDbLine
 10
246.1382368723
 20
435.832174464
 30
0.0
 11
246.1382368723
 21
500.7705114247
 31
0.0
  0
LINE
  5
CD
330
C7
100
AcDbEntity
  8
$DDT_AUDIT_GENERATED_(71)
  6
Continuous
 62
     7
100
AcDbLine
 10
255.1382368723
 20
431.332174464
 30
0.0
 11
201.1382368723
 21
431.332174464
 31
0.0
  0
LINE
  5
CE
330
C7
100
AcDbEntity
  8
$DDT_AUDIT_GENERATED_(71)
  6
Continuous
 62
     7
100
AcDbLine
 10
246.1382368723
 20
435.832174464
 30
0.0
 11
210.1382368723
 21
435.832174464
 31
0.0
  0
LINE
  5
CF
330
C7
100
AcDbEntity
  8
$DDT_AUDIT_GENERATED_(71)
  6
Continuous
 62
     7
100
AcDbLine
 10
201.1382368723
 20
434.2131930355
 30
0.0
 11
201.1382368723
 21
431.332174464
 31
0.0
  0
LINE
  5
D0
330
C7
100
AcDbEntity
  8
$DDT_AUDIT_GENERATED_(71)
  6
Continuous
 62
     7
100
AcDbLine
 10
255.1382368723
 20
431.332174464
 30
0.0
 11
255.1382368723
 21
434.2131930355
 31
0.0
  0
ARC
  5
D1
330
C7
100
AcDbEntity
  8
$DDT_AUDIT_GENERATED_(71)
  6
Continuous
 62
     7
100
AcDbCircle
 10
218.8409823854
 20
336.211583116
 30
0.0
 40
100.0
100
AcDbArc
 50
94.9926216254
 51
99.9560038527
  0
ARC
  5
D2
330
C7
100
AcDbEntity
  8
$DDT_AUDIT_GENERATED_(71)
  6
Continuous
 62
     7
100
AcDbCircle
 10
237.4354913593
 20
336.211583116
 30
0.0
 40
100.0
100
AcDbArc
 50
80.0439961473
 51
85.0073783746
  0
ARC
  5
D3
330
C7
100
AcDbEntity
  8
$DDT_AUDIT_GENERATED_(71)
  6
Continuous
 62
     7
100
AcDbCircle
 10
254.6382368723
 20
434.2131930355
 30
0.0
 40
0.5000000000000004
100
AcDbArc
 50
0.0
 51
80.0439961473
  0
ARC
  5
D4
330
C7
100
AcDbEntity
  8
$DDT_AUDIT_GENERATED_(71)
  6
Continuous
 62
     7
100
AcDbCircle
 10
201.6382368723
 20
434.2131930355
 30
0.0
 40
0.5000000000000148
100
AcDbArc
 50
99.9560038527
 51
180.0
  0
LINE
  5
D5
330
C7
100
AcDbEntity
  8
$DDT_AUDIT_GENERATED_(7A)
  6
Continuous
 62
     7
100
AcDbLine
 10
241.6382368723
 20
561.532174464
 30
0.0
 11
214.6382368723
 21
561.532174464
 31
0.0
  0
LINE
  5
D6
330
C7
100
AcDbEntity
  8
$DDT_AUDIT_GENERATED_(7A)
  6
Continuous
 62
     7
100
AcDbLine
 10
214.6382368723
 20
556.907174464
 30
0.0
 11
214.6382368723
 21
541.7526605073
 31
0.0
  0
LINE
  5
D7
330
C7
100
AcDbEntity
  8
$DDT_AUDIT_GENERATED_(7A)
  6
Continuous
 62
     7
100
AcDbLine
 10
214.6382368723
 20
561.532174464
 30
0.0
 11
214.6382368723
 21
558.732174464
 31
0.0
  0
LINE
  5
D8
330
C7
100
AcDbEntity
  8
$DDT_AUDIT_GENERATED_(7A)
  6
Continuous
 62
     7
100
AcDbLine
 10
241.6382368723
 20
541.7526605073
 30
0.0
 11
241.6382368723
 21
561.532174464
 31
0.0
  0
ARC
  5
D9
330
C7
100
AcDbEntity
  8
$DDT_AUDIT_GENERATED_(7E)
  6
Continuous
 62
     7
100
AcDbCircle
 10
338.6382368723
 20
665.532174464
 30
0.0
 40
98.99999999999999
100
AcDbArc
 50
90.0
 51
180.0
  0
ARC
  5
DA
330
C7
100
AcDbEntity
  8
$DDT_AUDIT_GENERATED_(7E)
  6
Continuous
 62
     7
100
AcDbCircle
 10
338.6382368723
 20
665.532174464
 30
0.0
 40
99.0
100
AcDbArc
 50
10.0
 51
90.0
  0
ARC
  5
DB
330
C7
100
AcDbEntity
  8
$DDT_AUDIT_GENERATED_(7E)
  6
Continuous
 62
     7
100
AcDbCircle
 10
338.6382368723
 20
665.532174464
 30
0.0
 40
122.0
100
AcDbArc
 50
10.0
 51
180.0
  0
LINE
  5
DC
330
C7
100
AcDbEntity
  8
$DDT_AUDIT_GENERATED_(7E)
  6
Continuous
 62
     7
100
AcDbLine
 10
239.6382368723
 20
561.532174464
 30
0.0
 11
239.6382368723
 21
665.532174464
 31
0.0
  0
LINE
  5
DD
330
C7
100
AcDbEntity
  8
$DDT_AUDIT_GENERATED_(7E)
  6
Continuous
 62
     7
100
AcDbLine
 10
216.6382368723
 20
665.532174464
 30
0.0
 11
216.6382368723
 21
561.532174464
 31
0.0
  0
LINE
  5
DE
330
C7
100
AcDbEntity
  8
$DDT_AUDIT_GENERATED_(7E)
  6
Continuous
 62
     7
100
AcDbLine
 10
459.4793754505
 20
682.7780211273
 30
0.0
 11
458.7847827398
 21
686.7172521394
 31
0.0
  0
LINE
  5
DF
330
C7
100
AcDbEntity
  8
$DDT_AUDIT_GENERATED_(7E)
  6
Continuous
 62
     7
100
AcDbLine
 10
436.1342044206
 20
682.723344053
 30
0.0
 11
436.8287971312
 21
678.784113041
 31
0.0
  0
ARC
  5
E0
330
C7
100
AcDbEntity
  8
$DDT_AUDIT_GENERATED_(7E)
  6
Continuous
 62
     7
100
AcDbCircle
 10
457.5097599445
 20
682.430724772
 30
0.0
 40
2.000000000012581
100
AcDbArc
 50
328.5903778909
 51
10.0
  0
ARC
  5
E1
330
C7
100
AcDbEntity
  8
$DDT_AUDIT_GENERATED_(7E)
  6
Continuous
 62
     7
100
AcDbCircle
 10
438.7984126373
 20
679.1314093963
 30
0.0
 40
2.000000000012604
100
AcDbArc
 50
190.0
 51
231.4096221091
  0
LINE
  5
E2
330
C7
100
AcDbEntity
  8
$DDT_AUDIT_GENERATED_(7E)
  6
Continuous
 62
     7
100
AcDbLine
 10
459.2474438405
 20
681.213985409
 30
0.0
 11
459.2166865209
 21
681.3884188367
 31
0.0
  0
LINE
  5
E3
330
C7
100
AcDbEntity
  8
$DDT_AUDIT_GENERATED_(7E)
  6
Continuous
 62
     7
100
AcDbLine
 10
437.5509159546
 20
677.568158928
 30
0.0
 11
437.5816732742
 21
677.3937255003
 31
0.0
  0
LINE
  5
E4
330
C7
100
AcDbEntity
  8
$DDT_AUDIT_GENERATED_(7E)
  6
Continuous
 62
     7
100
AcDbLine
 10
459.2474438405
 20
681.213985409
 30
0.0
 11
437.5816732742
 21
677.3937255003
 31
0.0
  0
LINE
  5
E6
330
C7
100
AcDbEntity
  8
$DDT_AUDIT_GENERATED_(E5)
  6
Continuous
 62
     7
100
AcDbLine
 10
214.6382368723
 20
558.407174464
 30
0.0
 11
214.6382368723
 21
556.907174464
 31
0.0
  0
LINE
  5
E7
330
C7
100
AcDbEntity
  8
$DDT_AUDIT_GENERATED_(8B)
  6
Continuous
 62
     7
100
AcDbLine
 10
441.0260961711
 20
660.7388177879
 30
0.0
 11
461.7070589843
 21
664.3854295189
 31
0.0
  0
LINE
  5
E8
330
C7
100
AcDbEntity
  8
$DDT_AUDIT_GENERATED_(8B)
  6
Continuous
 62
     7
100
AcDbLine
 10
459.5921265541
 20
681.2747622712
 30
0.0
 11
437.2369905607
 21
677.3329486381
 31
0.0
  0
ARC
  5
E9
330
C7
100
AcDbEntity
  8
$DDT_AUDIT_GENERATED_(8B)
  6
Continuous
 62
     7
100
AcDbCircle
 10
455.7854873842
 20
669.1744784626
 30
0.0
 40
16.99999999999983
100
AcDbArc
 50
190.0
 51
209.7499227956
  0
ARC
  5
EA
330
C7
100
AcDbEntity
  8
$DDT_AUDIT_GENERATED_(8B)
  6
Continuous
 62
     7
100
AcDbCircle
 10
444.9526021011
 20
667.2643485082
 30
0.0
 40
16.99999999999983
100
AcDbArc
 50
350.2500772044
 51
10.0
  0
LINE
  5
EB
330
C7
100
AcDbEntity
  8
$DDT_AUDIT_GENERATED_(8B)
  6
Continuous
 62
     7
100
AcDbLine
 10
461.6943339023
 20
670.2163675286
 30
0.0
 11
459.7658949437
 21
681.1530883349
 31
0.0
  0
LINE
  5
EC
330
C7
100
AcDbEntity
  8
$DDT_AUDIT_GENERATED_(8B)
  6
Continuous
 62
     7
100
AcDbLine
 10
437.1153166244
 20
677.1591802485
 30
0.0
 11
439.043755583
 21
666.2224594422
 31
0.0
  0
ARC
  5
ED
330
C7
100
AcDbEntity
  8
$DDT_AUDIT_GENERATED_(8B)
  6
Continuous
 62
     7
100
AcDbCircle
 10
459.6181737807
 20
681.1270411082
 30
0.0
 40
0.1500000000000037
100
AcDbArc
 50
10.0
 51
100.0
  0
ARC
  5
EE
330
C7
100
AcDbEntity
  8
$DDT_AUDIT_GENERATED_(8B)
  6
Continuous
 62
     7
100
AcDbCircle
 10
437.2630377873
 20
677.1852274752
 30
0.0
 40
0.1500000000000085
100
AcDbArc
 50
100.0
 51
190.0
  0
LINE
  5
F0
330
C7
100
AcDbEntity
  8
DV2_Standard
  6
CENTER2
 62
     7
100
AcDbLine
 10
248.1382364253
 20
431.332174464
 30
0.0
 11
208.1382373194
 21
431.332174464
 31
0.0
  0
LINE
  5
F1
330
C7
100
AcDbEntity
  8
DV2_Standard
  6
CENTER2
 62
     7
100
AcDbLine
 10
228.1382368723
 20
451.332174017
 30
0.0
 11
228.1382368723
 21
411.3321749111
 31
0.0
  0
ENDBLK
  5
F3
330
C7
100
AcDbEntity
  8
0
100
AcDbBlockEnd
  0
BLOCK
  5
144
330
F4
100
AcDbEntity
  8
0
100
AcDbBlockBegin
  2
SE2
 70
     0
 10
0.0
 20
0.0
 30
0.0
  3
SE2
  1

  0
LINE
  5
F6
330
F4
100
AcDbEntity
  8
$DDT_AUDIT_GENERATED_(60)
  6
Continuous
 62
     7
100
AcDbLine
 10
78.69
 20
365.6633848063
 30
0.0
 11
78.69
 21
314.6633848063
 31
0.0
  0
ARC
  5
F7
330
F4
100
AcDbEntity
  8
$DDT_AUDIT_GENERATED_(60)
  6
Continuous
 62
     7
100
AcDbCircle
 10
106.35
 20
340.1633848063
 30
0.0
 40
100.0
100
AcDbArc
 50
165.1504721945
 51
194.8495278055
  0
ARC
  5
F8
330
F4
100
AcDbEntity
  8
$DDT_AUDIT_GENERATED_(60)
  6
Continuous
 62
     7
100
AcDbCircle
 10
78.19
 20
314.6633848063
 30
0.0
 40
0.5000000000000004
100
AcDbArc
 50
270.0
 51
0.0
  0
ARC
  5
F9
330
F4
100
AcDbEntity
  8
$DDT_AUDIT_GENERATED_(60)
  6
Continuous
 62
     7
100
AcDbCircle
 10
78.19
 20
365.6633848063
 30
0.0
 40
0.5000000000000004
100
AcDbArc
 50
0.0
 51
90.0
  0
ARC
  5
FA
330
F4
100
AcDbEntity
  8
$DDT_AUDIT_GENERATED_(60)
  6
Continuous
 62
     7
100
AcDbCircle
 10
10.1730796916
 20
365.6633848063
 30
0.0
 40
0.5000000000000004
100
AcDbArc
 50
90.0
 51
165.1504721945
  0
ARC
  5
FB
330
F4
100
AcDbEntity
  8
$DDT_AUDIT_GENERATED_(60)
  6
Continuous
 62
     7
100
AcDbCircle
 10
10.1730796916
 20
314.6633848063
 30
0.0
 40
0.4999999999999919
100
AcDbArc
 50
194.8495278055
 51
270.0
  0
LINE
  5
FC
330
F4
100
AcDbEntity
  8
$DDT_AUDIT_GENERATED_(60)
  6
Continuous
 62
     7
100
AcDbLine
 10
78.19
 20
366.1633848063
 30
0.0
 11
10.1730796916
 21
366.1633848063
 31
0.0
  0
LINE
  5
FD
330
F4
100
AcDbEntity
  8
$DDT_AUDIT_GENERATED_(60)
  6
Continuous
 62
     7
100
AcDbLine
 10
10.1730796916
 20
314.1633848063
 30
0.0
 11
22.29
 21
314.1633848063
 31
0.0
  0
LINE
  5
FE
330
F4
100
AcDbEntity
  8
$DDT_AUDIT_GENERATED_(60)
  6
Continuous
 62
     7
100
AcDbLine
 10
45.29
 20
314.1633848063
 30
0.0
 11
78.19
 21
314.1633848063
 31
0.0
  0
ARC
  5
FF
330
F4
100
AcDbEntity
  8
$DDT_AUDIT_GENERATED_(71)
  6
Continuous
 62
     7
100
AcDbCircle
 10
33.79
 20
340.1633848063
 30
0.0
 40
26.99999999999999
100
AcDbArc
 50
74.357528987
 51
105.642471013
  0
ARC
  5
100
330
F4
100
AcDbEntity
  8
$DDT_AUDIT_GENERATED_(7A)
  6
Continuous
 62
     7
100
AcDbCircle
 10
33.79
 20
340.1633848063
 30
0.0
 40
13.5
100
AcDbArc
 50
0.0
 51
211.5863380965
  0
ARC
  5
101
330
F4
100
AcDbEntity
  8
$DDT_AUDIT_GENERATED_(7A)
  6
Continuous
 62
     7
100
AcDbCircle
 10
33.79
 20
340.1633848063
 30
0.0
 40
13.5
100
AcDbArc
 50
328.4136619035
 51
0.0
  0
LINE
  5
103
330
F4
100
AcDbEntity
  8
$DDT_AUDIT_GENERATED_(102)
  6
Continuous
 62
     7
100
AcDbLine
 10
46.99
 20
343.1633848063
 30
0.0
 11
46.99
 21
342.9935791459
 31
0.0
  0
LINE
  5
104
330
F4
100
AcDbEntity
  8
$DDT_AUDIT_GENERATED_(102)
  6
Continuous
 62
     7
100
AcDbLine
 10
46.99
 20
337.3331904667
 30
0.0
 11
46.99
 21
337.1633848063
 31
0.0
  0
ARC
  5
105
330
F4
100
AcDbEntity
  8
$DDT_AUDIT_GENERATED_(7E)
  6
Continuous
 62
     7
100
AcDbCircle
 10
33.79
 20
340.1633848063
 30
0.0
 40
11.5
100
AcDbArc
 50
0.0
 51
180.0
  0
ELLIPSE
  5
106
330
F4
100
AcDbEntity
  8
$DDT_AUDIT_GENERATED_(7E)
  6
Continuous
 62
     7
100
AcDbEllipse
 10
33.79
 20
120.1475353878
 30
0.0
 11
-11.50000000000004
 21
-5.828670879282072E-13
 31
0.0
210
0.0
220
0.0
230
1.0
 40
0.984807753
 41
2.867912738917262
 42
3.141592653589793
  0
ELLIPSE
  5
107
330
F4
100
AcDbEntity
  8
$DDT_AUDIT_GENERATED_(7E)
  6
Continuous
 62
     7
100
AcDbEllipse
 10
33.79
 20
120.1475353878
 30
0.0
 11
-11.50000000000004
 21
-5.828670879282072E-13
 31
0.0
210
0.0
220
0.0
230
1.0
 40
0.984807753
 41
0.0
 42
0.305053852261617
  0
LINE
  5
108
330
F4
100
AcDbEntity
  8
$DDT_AUDIT_GENERATED_(7E)
  6
Continuous
 62
     7
100
AcDbLine
 10
45.29
 20
120.8421280985
 30
0.0
 11
45.29
 21
340.1633848063
 31
0.0
  0
LINE
  5
109
330
F4
100
AcDbEntity
  8
$DDT_AUDIT_GENERATED_(7E)
  6
Continuous
 62
     7
100
AcDbLine
 10
22.29
 20
340.1633848063
 30
0.0
 11
22.29
 21
120.8421280985
 31
0.0
  0
LINE
  5
10A
330
F4
100
AcDbEntity
  8
$DDT_AUDIT_GENERATED_(7E)
  6
Continuous
 62
     7
100
AcDbLine
 10
45.29
 20
120.1475353878
 30
0.0
 11
45.29
 21
120.8421280985
 31
0.0
  0
LINE
  5
10B
330
F4
100
AcDbEntity
  8
$DDT_AUDIT_GENERATED_(7E)
  6
Continuous
 62
     7
100
AcDbLine
 10
22.29
 20
120.8421280985
 30
0.0
 11
22.29
 21
120.1475353878
 31
0.0
  0
ARC
  5
10C
330
F4
100
AcDbEntity
  8
$DDT_AUDIT_GENERATED_(7E)
  6
Continuous
 62
     7
100
AcDbCircle
 10
33.7878810176
 20
120.336063565
 30
0.0
 40
11.54158528779816
100
AcDbArc
 50
198.2126699435
 51
343.5688986528
  0
ELLIPSE
  5
10D
330
F4
100
AcDbEntity
  8
$DDT_AUDIT_GENERATED_(8B)
  6
Continuous
 62
     7
100
AcDbEllipse
 10
33.79
 20
119.8610158946
 30
0.0
 11
-11.50000000000001
 21
-6.938893903907228E-13
 31
0.0
210
0.0
220
0.0
230
1.0
 40
0.984807753
 41
6.270535425541423
 42
6.283185307179586
  0
ELLIPSE
  5
10E
330
F4
100
AcDbEntity
  8
$DDT_AUDIT_GENERATED_(8B)
  6
Continuous
 62
     7
100
AcDbEllipse
 10
33.79
 20
119.8610158946
 30
0.0
 11
-11.50000000000001
 21
-6.938893903907228E-13
 31
0.0
210
0.0
220
0.0
230
1.0
 40
0.984807753
 41
3.141592653589793
 42
3.154242535228589
  0
ARC
  5
10F
330
F4
100
AcDbEntity
  8
$DDT_AUDIT_GENERATED_(8B)
  6
Continuous
 62
     7
100
AcDbCircle
 10
33.794890431
 20
117.8433162708
 30
0.0
 40
11.49331627084137
100
AcDbArc
 50
179.5393696828
 51
0.6551407815
  0
LINE
  5
110
330
F4
100
AcDbEntity
  8
$DDT_AUDIT_GENERATED_(8B)
  6
Continuous
 62
     7
100
AcDbLine
 10
45.29
 20
117.932576936
 30
0.0
 11
45.29
 21
119.8610158946
 31
0.0
  0
LINE
  5
111
330
F4
100
AcDbEntity
  8
$DDT_AUDIT_GENERATED_(8B)
  6
Continuous
 62
     7
100
AcDbLine
 10
22.29
 20
119.8610158946
 30
0.0
 11
22.29
 21
117.932576936
 31
0.0
  0
LINE
  5
112
330
F4
100
AcDbEntity
  8
$DDT_AUDIT_GENERATED_(94)
  6
Continuous
 62
     7
100
AcDbLine
 10
101.99
 20
365.4644033909
 30
0.0
 11
101.99
 21
314.8623662218
 31
0.0
  0
LINE
  5
113
330
F4
100
AcDbEntity
  8
$DDT_AUDIT_GENERATED_(94)
  6
Continuous
 62
     7
100
AcDbLine
 10
78.69
 20
314.6633848063
 30
0.0
 11
78.69
 21
365.6633848063
 31
0.0
  0
LINE
  5
114
330
F4
100
AcDbEntity
  8
$DDT_AUDIT_GENERATED_(94)
  6
Continuous
 62
     7
100
AcDbLine
 10
79.1899809635
 20
366.1590217624
 30
0.0
 11
79.1899809635
 21
314.1677478502
 31
0.0
  0
ARC
  5
115
330
F4
100
AcDbEntity
  8
$DDT_AUDIT_GENERATED_(94)
  6
Continuous
 62
     7
100
AcDbCircle
 10
95.92
 20
340.1633848063
 30
0.0
 40
25.00000000000012
100
AcDbArc
 50
72.5263611985
 51
75.9481422426
  0
ARC
  5
116
330
F4
100
AcDbEntity
  8
$DDT_AUDIT_GENERATED_(94)
  6
Continuous
 62
     7
100
AcDbCircle
 10
95.92
 20
340.1633848063
 30
0.0
 40
25.00000000000011
100
AcDbArc
 50
284.0518577574
 51
287.4736388014
  0
LINE
  5
117
330
F4
100
AcDbEntity
  8
$DDT_AUDIT_GENERATED_(94)
  6
Continuous
 62
     7
100
AcDbLine
 10
79.1899809635
 20
314.1677478502
 30
0.0
 11
101.4943630439
 21
314.3623852583
 31
0.0
  0
LINE
  5
118
330
F4
100
AcDbEntity
  8
$DDT_AUDIT_GENERATED_(94)
  6
Continuous
 62
     7
100
AcDbLine
 10
101.4943630439
 20
365.9643843544
 30
0.0
 11
79.1899809635
 21
366.1590217624
 31
0.0
  0
ARC
  5
119
330
F4
100
AcDbEntity
  8
$DDT_AUDIT_GENERATED_(94)
  6
Continuous
 62
     7
100
AcDbCircle
 10
101.49
 20
365.4644033909
 30
0.0
 40
0.5000000000000004
100
AcDbArc
 50
0.0
 51
89.500025649
  0
ARC
  5
11A
330
F4
100
AcDbEntity
  8
$DDT_AUDIT_GENERATED_(94)
  6
Continuous
 62
     7
100
AcDbCircle
 10
101.49
 20
314.8623662218
 30
0.0
 40
0.5000000000000024
100
AcDbArc
 50
270.499974351
 51
0.0
  0
LINE
  5
11B
330
F4
100
AcDbEntity
  8
$DDT_AUDIT_GENERATED_(94)
  6
Continuous
 62
     7
100
AcDbLine
 10
79.1899809635
 20
366.1590217624
 30
0.0
 11
78.69
 21
365.6633848063
 31
0.0
  0
LINE
  5
11C
330
F4
100
AcDbEntity
  8
$DDT_AUDIT_GENERATED_(94)
  6
Continuous
 62
     7
100
AcDbLine
 10
78.69
 20
314.6633848063
 30
0.0
 11
79.1899809635
 21
314.1677478502
 31
0.0
  0
ARC
  5
11D
330
F4
100
AcDbEntity
  8
$DDT_AUDIT_GENERATED_(A3)
  6
Continuous
 62
     7
100
AcDbCircle
 10
462.7804317106
 20
347.3641800692
 30
0.0
 40
336.3561814157346
100
AcDbArc
 50
177.652554933
 51
180.307861098
  0
ARC
  5
11E
330
F4
100
AcDbEntity
  8
$DDT_AUDIT_GENERATED_(A3)
  6
Continuous
 62
     7
100
AcDbCircle
 10
1094.0886939194
 20
340.1633848063
 30
0.0
 40
991.0687943941357
100
AcDbArc
 50
179.9869112065
 51
180.013088782
  0
ARC
  5
11F
330
F4
100
AcDbEntity
  8
$DDT_AUDIT_GENERATED_(A3)
  6
Continuous
 62
     7
100
AcDbCircle
 10
472.3550809277
 20
333.1330217818
 30
0.0
 40
345.9298477065297
100
AcDbArc
 50
179.7288878433
 51
182.3106953525
  0
ARC
  5
120
330
F4
100
AcDbEntity
  8
$DDT_AUDIT_GENERATED_(A3)
  6
Continuous
 62
     7
100
AcDbCircle
 10
130.2286540407
 20
345.4379810282
 30
0.0
 40
3.801408251465343
100
AcDbArc
 50
178.2075848318
 51
184.1440929183
  0
ARC
  5
121
330
F4
100
AcDbEntity
  8
$DDT_AUDIT_GENERATED_(A3)
  6
Continuous
 62
     7
100
AcDbCircle
 10
126.4086642711
 20
340.1695491387
 30
0.0
 40
4.993804488427001
100
AcDbArc
 50
2.430770903
 51
89.6727726889
  0
ARC
  5
122
330
F4
100
AcDbEntity
  8
$DDT_AUDIT_GENERATED_(A3)
  6
Continuous
 62
     7
100
AcDbCircle
 10
124.7221972681
 20
340.1634874324
 30
0.0
 40
5.000102547384511
100
AcDbArc
 50
346.2389585975
 51
359.998824156
  0
ARC
  5
123
330
F4
100
AcDbEntity
  8
$DDT_AUDIT_GENERATED_(A3)
  6
Continuous
 62
     7
100
AcDbCircle
 10
124.7221972681
 20
340.1634874324
 30
0.0
 40
5.000102547384511
100
AcDbArc
 50
269.9976772022
 51
346.2389585975
  0
ARC
  5
124
330
F4
100
AcDbEntity
  8
$DDT_AUDIT_GENERATED_(A3)
  6
Continuous
 62
     7
100
AcDbCircle
 10
130.2591564736
 20
334.8881643931
 30
0.0
 40
3.831876455792963
100
AcDbArc
 50
175.8795575559
 51
181.7688209973
  0
ARC
  5
125
330
F4
100
AcDbEntity
  8
$DDT_AUDIT_GENERATED_(A3)
  6
Continuous
 62
     7
100
AcDbCircle
 10
124.7238732762
 20
340.1653391032
 30
0.0
 40
4.998045963766094
100
AcDbArc
 50
90.0212405765
 51
180.0224035572
  0
ARC
  5
126
330
F4
100
AcDbEntity
  8
$DDT_AUDIT_GENERATED_(A3)
  6
Continuous
 62
     7
100
AcDbCircle
 10
124.722192097
 20
340.1632770079
 30
0.0
 40
5.000107718561973
100
AcDbArc
 50
13.7813930675
 51
90.0019673379
  0
ARC
  5
127
330
F4
100
AcDbEntity
  8
$DDT_AUDIT_GENERATED_(A3)
  6
Continuous
 62
     7
100
AcDbCircle
 10
124.722192097
 20
340.1632770079
 30
0.0
 40
5.000107718561973
100
AcDbArc
 50
0.0012353916
 51
13.7813930675
  0
ARC
  5
128
330
F4
100
AcDbEntity
  8
$DDT_AUDIT_GENERATED_(A3)
  6
Continuous
 62
     7
100
AcDbCircle
 10
756.6963991565
 20
338.3349881556
 30
0.0
 40
653.6784368085599
100
AcDbArc
 50
179.8595829221
 51
181.7080386212
  0
ELLIPSE
  5
129
330
F4
100
AcDbEntity
  8
$DDT_AUDIT_GENERATED_(A3)
  6
Continuous
 62
     7
100
AcDbEllipse
 10
134.885288653
 20
340.1633848063
 30
0.0
 11
1.046251835168377E-7
 21
-25.10681546381
 31
0.0
210
0.0
220
0.0
230
1.0
 40
0.0261769454
 41
0.0605743179965983
 42
0.1011294743903728
  0
ELLIPSE
  5
12A
330
F4
100
AcDbEntity
  8
$DDT_AUDIT_GENERATED_(A3)
  6
Continuous
 62
     7
100
AcDbEllipse
 10
134.885288653
 20
340.1633848063
 30
0.0
 11
1.046251835168377E-7
 21
-25.10681546381
 31
0.0
210
0.0
220
0.0
230
1.0
 40
0.0261769454
 41
-3.242722443124456
 42
-3.210663329006202
  0
ARC
  5
12B
330
F4
100
AcDbEntity
  8
$DDT_AUDIT_GENERATED_(A3)
  6
Continuous
 62
     7
100
AcDbCircle
 10
126.4086813926
 20
340.1572158677
 30
0.0
 40
4.993799794901532
100
AcDbArc
 50
270.3270301579
 51
357.6659604591
  0
LINE
  5
12C
330
F4
100
AcDbEntity
  8
$DDT_AUDIT_GENERATED_(A3)
  6
Continuous
 62
     7
100
AcDbLine
 10
131.402717394
 20
340.1633848063
 30
0.0
 11
131.3983382137
 21
339.9538413292
 31
0.0
  0
LINE
  5
12D
330
F4
100
AcDbEntity
  8
$DDT_AUDIT_GENERATED_(A3)
  6
Continuous
 62
     7
100
AcDbLine
 10
131.3978869661
 20
340.3834524397
 30
0.0
 11
131.402717394
 21
340.1633848063
 31
0.0
  0
ARC
  5
12E
330
F4
100
AcDbEntity
  8
$DDT_AUDIT_GENERATED_(A3)
  6
Continuous
 62
     7
100
AcDbCircle
 10
124.7237138255
 20
340.1612711713
 30
0.0
 40
4.997886577888417
100
AcDbArc
 50
179.975769492
 51
269.9802903552
  0
ARC
  5
12F
330
F4
100
AcDbEntity
  8
$DDT_AUDIT_GENERATED_(A3)
  6
Continuous
 62
     7
100
AcDbCircle
 10
756.7741621637
 20
341.9907175974
 30
0.0
 40
653.756196975863
100
AcDbArc
 50
178.2920713204
 51
180.1403071269
  0
SPLINE
  5
130
330
F4
100
AcDbEntity
  8
$DDT_AUDIT_GENERATED_(A3)
  6
Continuous
 62
     7
100
AcDbSpline
210
0.0
220
0.0
230
1.0
 70
     8
 71
     3
 72
    10
 73
     6
 74
     0
 42
0.0000000210109957
 43
0.0000000001
 40
0.0
 40
0.0
 40
0.0
 40
0.0
 40
0.5
 40
0.5
 40
1.0
 40
1.0
 40
1.0
 40
1.0
 10
103.5312033526356
 20
314.9483087843657
 30
0.0
 10
103.5371389725626
 20
314.8906521432805
 30
0.0
 10
103.5683668155635
 20
314.8375453286402
 30
0.0
 10
103.6807808543579
 20
314.739740368491
 30
0.0
 10
103.7629845002399
 20
314.6948291170335
 30
0.0
 10
103.8695562476371
 20
314.6552203231083
 30
0.0
  0
ELLIPSE
  5
131
330
F4
100
AcDbEntity
  8
$DDT_AUDIT_GENERATED_(A3)
  6
Continuous
 62
     7
100
AcDbEllipse
 10
103.6990380367
 20
340.1633848063
 30
0.0
 11
-1.387778780781446E-13
 21
-26.01745508411335
 31
0.0
210
0.0
220
0.0
230
1.0
 40
0.0261769483
 41
-0.6108652381820772
 42
-0.2489974431181503
  0
ELLIPSE
  5
132
330
F4
100
AcDbEntity
  8
$DDT_AUDIT_GENERATED_(A3)
  6
Continuous
 62
     7
100
AcDbEllipse
 10
103.6990380367
 20
340.1633848063
 30
0.0
 11
0.0
 21
25.21563456023022
 31
0.0
210
0.0
220
0.0
230
1.0
 40
1.0
 41
0.0066560261605564
 42
0.0183272442900646
  0
SPLINE
  5
133
330
F4
100
AcDbEntity
  8
$DDT_AUDIT_GENERATED_(A3)
  6
Continuous
 62
     7
100
AcDbSpline
210
0.0
220
0.0
230
1.0
 70
     8
 71
     3
 72
    10
 73
     6
 74
     0
 42
0.0000000210109257
 43
0.0000000001
 40
0.0
 40
0.0
 40
0.0
 40
0.0
 40
0.5
 40
0.5
 40
1.0
 40
1.0
 40
1.0
 40
1.0
 10
103.8695562481191
 20
365.6715492897084
 30
0.0
 10
103.7629628829461
 20
365.6319324612485
 30
0.0
 10
103.6821789528426
 20
365.5879071946869
 30
0.0
 10
103.5691300332935
 20
365.4902203424624
 30
0.0
 10
103.5371402761649
 20
365.4361301321172
 30
0.0
 10
103.5312033526358
 20
365.3784608084708
 30
0.0
  0
SPLINE
  5
134
330
F4
100
AcDbEntity
  8
$DDT_AUDIT_GENERATED_(A3)
  6
Continuous
 62
     7
100
AcDbSpline
210
0.0
220
0.0
230
1.0
 70
     8
 71
     3
 72
     8
 73
     4
 74
     0
 42
0.0000000002076339
 43
0.0000000001
 40
0.0
 40
0.0
 40
0.0
 40
0.0
 40
0.0578945538096647
 40
0.0578945538096647
 40
0.0578945538096647
 40
0.0578945538096647
 10
103.8695562481191
 20
365.6715492897084
 30
0.0
 10
104.751420247144
 20
365.9993056629463
 30
0.0
 10
105.6571798531999
 20
366.1469791328604
 30
0.0
 10
106.586811583576
 20
366.1304521771217
 30
0.0
  0
SPLINE
  5
135
330
F4
100
AcDbEntity
  8
$DDT_AUDIT_GENERATED_(A3)
  6
Continuous
 62
     7
100
AcDbSpline
210
0.0
220
0.0
230
1.0
 70
     8
 71
     3
 72
     8
 73
     4
 74
     0
 42
0.0000000002058542
 43
0.0000000001
 40
0.9425566973074977
 40
0.9425566973074977
 40
0.9425566973074977
 40
0.9425566973074977
 40
1.0
 40
1.0
 40
1.0
 40
1.0
 10
106.5892005006662
 20
314.1968711121317
 30
0.0
 10
105.6572754967405
 20
314.1803201799035
 30
0.0
 10
104.7455968030801
 20
314.3296283093945
 30
0.0
 10
103.8695562476371
 20
314.6552203231083
 30
0.0
  0
ARC
  5
136
330
F4
100
AcDbEntity
  8
$DDT_AUDIT_GENERATED_(A3)
  6
Continuous
 62
     7
100
AcDbCircle
 10
38.1215175183
 20
340.1633848063
 30
0.0
 40
99.99999999999989
100
AcDbArc
 50
345.5351868885
 51
14.4648131115
  0
LINE
  5
137
330
F4
100
AcDbEntity
  8
$DDT_AUDIT_GENERATED_(A3)
  6
Continuous
 62
     7
100
AcDbLine
 10
126.4036881632
 20
345.1633848063
 30
0.0
 11
124.7217081156
 21
345.1633848063
 31
0.0
  0
LINE
  5
138
330
F4
100
AcDbEntity
  8
$DDT_AUDIT_GENERATED_(A3)
  6
Continuous
 62
     7
100
AcDbLine
 10
124.7217081156
 20
335.1633848063
 30
0.0
 11
126.4036881621
 21
335.1633848063
 31
0.0
  0
SPLINE
  5
139
330
F4
100
AcDbEntity
  8
$DDT_AUDIT_GENERATED_(A3)
  6
Continuous
 62
     7
100
AcDbSpline
210
0.0
220
0.0
230
1.0
 70
     8
 71
     3
 72
    12
 73
     8
 74
     0
 42
0.0000000148951414
 43
0.0000000001
 40
0.0
 40
0.0
 40
0.0
 40
0.0
 40
0.216624432194617
 40
0.5018612549908088
 40
0.696769948588661
 40
0.8832760646792064
 40
1.0
 40
1.0
 40
1.0
 40
1.0
 10
134.9092250018315
 20
365.2663356077495
 30
0.0
 10
134.9026875181108
 20
365.2879028380833
 30
0.0
 10
134.8867456991664
 20
365.3315759134024
 30
0.0
 10
134.8341863549714
 20
365.4259815410056
 30
0.0
 10
134.7273004695075
 20
365.539168099689
 30
0.0
 10
134.5734783828474
 20
365.6317254552444
 30
0.0
 10
134.4644028425672
 20
365.6334984625076
 30
0.0
 10
134.4144187400714
 20
365.6343339702485
 30
0.0
  0
SPLINE
  5
13A
330
F4
100
AcDbEntity
  8
$DDT_AUDIT_GENERATED_(A3)
  6
Continuous
 62
     7
100
AcDbSpline
210
0.0
220
0.0
230
1.0
 70
     8
 71
     3
 72
    13
 73
     9
 74
     0
 42
0.0000000155047109
 43
0.0000000001
 40
0.0
 40
0.0
 40
0.0
 40
0.0
 40
0.0544027755712697
 40
0.2667645265106071
 40
0.4688281216229362
 40
0.6897042483242255
 40
0.969422589598636
 40
1.0
 40
1.0
 40
1.0
 40
1.0
 10
134.4103545420296
 20
314.6905249271715
 30
0.0
 10
134.4305734294606
 20
314.6881044201045
 30
0.0
 10
134.5148997746553
 20
314.6779969661707
 30
0.0
 10
134.6685679867712
 20
314.7468406821952
 30
0.0
 10
134.7883208432328
 20
314.8458792647057
 30
0.0
 10
134.8581771076408
 20
314.9426048726577
 30
0.0
 10
134.8893496506349
 20
315.0016978186958
 30
0.0
 10
134.8984990058424
 20
315.0268035490349
 30
0.0
 10
134.899526534109
 20
315.0296659277662
 30
0.0
  0
LINE
  5
13B
330
F4
100
AcDbEntity
  8
$DDT_AUDIT_GENERATED_(A3)
  6
Continuous
 62
     7
100
AcDbLine
 10
106.592413789
 20
314.1964484029
 30
0.0
 11
134.4104977915
 21
314.6821813646
 31
0.0
  0
LINE
  5
13C
330
F4
100
AcDbEntity
  8
$DDT_AUDIT_GENERATED_(A3)
  6
Continuous
 62
     7
100
AcDbLine
 10
134.4104977915
 20
365.644588248
 30
0.0
 11
106.5887572595
 21
366.1303850566
 31
0.0
  0
LINE
  5
13E
330
F4
100
AcDbEntity
  8
DV3_Standard
  6
CENTER2
 62
     7
100
AcDbLine
 10
53.789999553
 20
340.1633848063
 30
0.0
 11
13.790000447
 21
340.1633848063
 31
0.0
  0
LINE
  5
13F
330
F4
100
AcDbEntity
  8
DV3_Standard
  6
CENTER2
 62
     7
100
AcDbLine
 10
33.79
 20
360.1633843593
 30
0.0
 11
33.79
 21
320.1633852534
 31
0.0
  0
LINE
  5
140
330
F4
100
AcDbEntity
  8
DV3_Standard
  6
CENTER2
 62
     7
100
AcDbLine
 10
58.7899994412
 20
340.1633848063
 30
0.0
 11
64.29
 21
340.1633848063
 31
0.0
  0
LINE
  5
141
330
F4
100
AcDbEntity
  8
DV3_Standard
  6
CENTER2
 62
     7
100
AcDbLine
 10
33.79
 20
365.1633842475
 30
0.0
 11
33.79
 21
370.6633848063
 31
0.0
  0
LINE
  5
142
330
F4
100
AcDbEntity
  8
DV3_Standard
  6
CENTER2
 62
     7
100
AcDbLine
 10
8.7900005588
 20
340.1633848063
 30
0.0
 11
3.29
 21
340.1633848063
 31
0.0
  0
LINE
  5
143
330
F4
100
AcDbEntity
  8
DV3_Standard
  6
CENTER2
 62
     7
100
AcDbLine
 10
33.79
 20
315.1633853651
 30
0.0
 11
33.79
 21
309.6633848063
 31
0.0
  0
ENDBLK
  5
145
330
F4
100
AcDbEntity
  8
0
100
AcDbBlockEnd
  0
ENDSEC
  0
SECTION
  2
ENTITIES
  0
INSERT
  5
5F
330
1F
100
AcDbEntity
  8
Default
100
AcDbBlockReference
  2
SE
 10
0.0
 20
0.0
 30
0.0
  0
INSERT
  5
C8
330
1F
100
AcDbEntity
  8
Default
100
AcDbBlockReference
  2
SE1
 10
0.0
 20
0.0
 30
0.0
  0
INSERT
  5
F5
330
1F
100
AcDbEntity
  8
Default
100
AcDbBlockReference
  2
SE2
 10
0.0
 20
0.0
 30
0.0
  0
TEXT
  5
147
330
1F
100
AcDbEntity
  8
Default
  6
Continuous
 62
     7
100
AcDbText
 10
5.9362635081
 20
53.4225120485
 30
0.0
 40
10.0
  1
Grohe AG^J
  7
SEACAD_seiso_ttf
 11
5.9362635081
 21
63.4225120485
 31
0.0
100
AcDbText
 73
     3
  0
TEXT
  5
148
330
1F
100
AcDbEntity
  8
Default
  6
Continuous
 62
     7
100
AcDbText
 10
5.9362635081
 20
37.0588756849
 30
0.0
 40
10.0
  1
 
  7
SEACAD_seiso_ttf
 11
5.9362635081
 21
47.0588756849
 31
0.0
100
AcDbText
 73
     3
  0
TEXT
  5
149
330
1F
100
AcDbEntity
  8
Default
  6
Continuous
 62
     7
100
AcDbText
 10
5.9362635081
 20
20.6952393213
 30
0.0
 40
10.0
  1
ecn: 
  7
SEACAD_seiso_ttf
 11
5.9362635081
 21
30.6952393213
 31
0.0
100
AcDbText
 73
     3
  0
TEXT
  5
14A
330
1F
100
AcDbEntity
  8
Default
  6
Continuous
 62
     7
100
AcDbText
 10
5.9362635081
 20
4.3316029576
 30
0.0
 40
10.0
  1
unit: mm
  7
SEACAD_seiso_ttf
 11
5.9362635081
 21
14.3316029576
 31
0.0
100
AcDbText
 73
     3
  0
LINE
  5
14B
330
1F
100
AcDbEntity
  8
Default
  6
Continuous
 62
     7
100
AcDbLine
 10
0.0
 20
0.0
 30
0.0
 11
100.0
 21
0.0
 31
0.0
  0
LINE
  5
14C
330
1F
100
AcDbEntity
  8
Default
  6
Continuous
 62
     7
100
AcDbLine
 10
0.0
 20
0.0
 30
0.0
 11
0.0
 21
100.0
 31
0.0
  0
TEXT
  5
14D
330
1F
100
AcDbEntity
  8
Default
  6
Continuous
 62
     7
100
AcDbText
 10
24.3923665681
 20
-18.2375342018
 30
0.0
 40
10.0
  1
100 mm
  7
SEACAD_seiso_ttf
 11
24.3923665681
 21
-8.2375342018
 31
0.0
100
AcDbText
 73
     3
  0
TEXT
  5
14E
330
1F
100
AcDbEntity
  8
Default
  6
Continuous
 62
     7
100
AcDbText
 10
-7.6150308803
 20
24.6231930421
 30
0.0
 40
10.0
  1
100 mm
 50
90.0
  7
SEACAD_seiso_ttf
 11
-17.6150308803
 21
24.6231930421
 31
0.0
100
AcDbText
 73
     3
  0
TEXT
  5
14F
330
1F
100
AcDbEntity
  8
Default
  6
Continuous
 62
     7
100
AcDbText
 10
28.4878128572
 20
20.0907663715
 30
0.0
 40
10.0
  1
217532
  7
SEACAD_seiso_ttf
 11
28.4878128572
 21
30.0907663715
 31
0.0
100
AcDbText
 73
     3
  0
TEXT
  5
150
330
1F
100
AcDbEntity
  8
Default
  6
Continuous
 62
     7
100
AcDbText
 10
5.9012241913
 20
36.7242780188
 30
0.0
 40
10.0
  1
32917000
  7
SEACAD_seiso_ttf
 11
5.9012241913
 21
46.7242780188
 31
0.0
100
AcDbText
 73
     3
  0
ENDSEC
  0
SECTION
  2
OBJECTS
  0
DICTIONARY
  5
C
330
0
100
AcDbDictionary
281
     1
  3
ACAD_GROUP
350
D
  3
ACAD_LAYOUT
350
1A
  3
ACAD_MLEADERSTYLE
350
154
  3
ACAD_MLINESTYLE
350
17
  3
ACAD_PLOTSETTINGS
350
19
  3
ACAD_PLOTSTYLENAME
350
E
  3
ACAD_SCALELIST
350
3B
  3
ACAD_TABLESTYLE
350
153
  3
ACAD_VISUALSTYLE
350
2A
  3
AcDbVariableDictionary
350
151
  0
DICTIONARY
  5
D
102
{ACAD_REACTORS
330
C
102
}
330
C
100
AcDbDictionary
281
     1
  0
DICTIONARY
  5
1A
102
{ACAD_REACTORS
330
C
102
}
330
C
100
AcDbDictionary
281
     1
  3
Layout1
350
1E
  3
Model
350
22
  0
DICTIONARY
  5
154
102
{ACAD_REACTORS
330
C
102
}
330
C
100
AcDbDictionary
281
     1
  0
DICTIONARY
  5
17
102
{ACAD_REACTORS
330
C
102
}
330
C
100
AcDbDictionary
281
     1
  3
Standard
350
18
  0
DICTIONARY
  5
19
102
{ACAD_REACTORS
330
C
102
}
330
C
100
AcDbDictionary
281
     1
  0
ACDBDICTIONARYWDFLT
  5
E
102
{ACAD_REACTORS
330
C
102
}
330
C
100
AcDbDictionary
281
     1
  3
Normal
350
F
100
AcDbDictionaryWithDefault
340
F
  0
DICTIONARY
  5
3B
102
{ACAD_REACTORS
330
C
102
}
330
C
100
AcDbDictionary
281
     1
  3
A0
350
3C
  3
A1
350
3D
  3
A2
350
3E
  3
A3
350
3F
  3
A4
350
40
  3
A5
350
41
  3
A6
350
42
  3
A7
350
43
  3
A8
350
44
  3
A9
350
45
  3
B0
350
46
  3
B1
350
47
  3
B2
350
48
  3
B3
350
49
  3
B4
350
4A
  3
B5
350
4B
  3
B6
350
4C
  3
B7
350
4D
  3
B8
350
4E
  3
B9
350
4F
  3
C0
350
50
  3
C1
350
51
  3
C2
350
52
  3
C3
350
53
  3
C4
350
54
  3
C5
350
55
  3
C6
350
56
  3
C7
350
57
  3
C8
350
58
  3
C9
350
59
  3
D0
350
5A
  3
D1
350
5B
  3
D2
350
5C
  0
DICTIONARY
  5
153
102
{ACAD_REACTORS
330
C
102
}
330
C
100
AcDbDictionary
281
     1
  0
DICTIONARY
  5
2A
102
{ACAD_REACTORS
330
C
102
}
330
C
100
AcDbDictionary
281
     1
  3
2dWireframe
350
2F
  3
3D Hidden
350
31
  3
3dWireframe
350
30
  3
Basic
350
32
  3
Brighten
350
36
  3
ColorChange
350
3A
  3
Conceptual
350
34
  3
Dim
350
35
  3
Facepattern
350
39
  3
Flat
350
2B
  3
FlatWithEdges
350
2C
  3
Gouraud
350
2D
  3
GouraudWithEdges
350
2E
  3
Linepattern
350
38
  3
Realistic
350
33
  3
Thicken
350
37
  0
DICTIONARY
  5
151
102
{ACAD_REACTORS
330
C
102
}
330
C
100
AcDbDictionary
281
     1
  3
CANNOSCALE
350
152
  3
PSOLHEIGHT
350
156
  3
PSOLWIDTH
350
155
  0
LAYOUT
  5
1E
102
{ACAD_REACTORS
330
1A
102
}
330
1A
100
AcDbPlotSettings
  1

  2
none_device
  4

  6

 40
0.0
 41
0.0
 42
0.0
 43
0.0
 44
0.0
 45
0.0
 46
0.0
 47
0.0
 48
0.0
 49
0.0
140
0.0
141
0.0
142
1.0
143
1.0
 70
   688
 72
     0
 73
     0
 74
     5
  7

 75
    16
147
1.0
148
0.0
149
0.0
100
AcDbLayout
  1
Layout1
 70
     1
 71
     1
 10
0.0
 20
0.0
 11
1682.0
 21
2378.0
 12
0.0
 22
0.0
 32
0.0
 14
0.0
 24
0.0
 34
0.0
 15
1682.0
 25
2378.0
 35
0.0
146
0.0
 13
0.0
 23
0.0
 33
0.0
 16
1.0
 26
0.0
 36
0.0
 17
0.0
 27
1.0
 37
0.0
 76
     0
330
1B
  0
LAYOUT
  5
22
102
{ACAD_REACTORS
330
1A
102
}
330
1A
100
AcDbPlotSettings
  1

  2
none_device
  4

  6

 40
0.0
 41
0.0
 42
0.0
 43
0.0
 44
0.0
 45
0.0
 46
0.0
 47
0.0
 48
0.0
 49
0.0
140
0.0
141
0.0
142
1.0
143
1.0
 70
  1712
 72
     0
 73
     0
 74
     0
  7

 75
     0
147
1.0
148
0.0
149
0.0
100
AcDbLayout
  1
Model
 70
     1
 71
     0
 10
0.0
 20
0.0
 11
1682.0
 21
2378.0
 12
0.0
 22
0.0
 32
0.0
 14
0.0
 24
0.0
 34
0.0
 15
1682.0
 25
2378.0
 35
0.0
146
0.0
 13
0.0
 23
0.0
 33
0.0
 16
1.0
 26
0.0
 36
0.0
 17
0.0
 27
1.0
 37
0.0
 76
     0
330
1F
331
29
  0
MLINESTYLE
  5
18
102
{ACAD_REACTORS
330
17
102
}
330
17
100
AcDbMlineStyle
  2
Standard
 70
     0
  3

 62
   256
 51
90.0
 52
90.0
 71
     2
 49
0.5
 62
   256
  6
BYLAYER
 49
-0.5
 62
   256
  6
BYLAYER
  0
ACDBPLACEHOLDER
  5
F
102
{ACAD_REACTORS
330
E
102
}
330
E
  0
SCALE
  5
3C
102
{ACAD_REACTORS
330
3B
102
}
330
3B
100
AcDbScale
 70
     0
300
1:1
140
1.0
141
1.0
290
     1
  0
SCALE
  5
3D
102
{ACAD_REACTORS
330
3B
102
}
330
3B
100
AcDbScale
 70
     0
300
1:2
140
1.0
141
2.0
290
     0
  0
SCALE
  5
3E
102
{ACAD_REACTORS
330
3B
102
}
330
3B
100
AcDbScale
 70
     0
300
1:4
140
1.0
141
4.0
290
     0
  0
SCALE
  5
3F
102
{ACAD_REACTORS
330
3B
102
}
330
3B
100
AcDbScale
 70
     0
300
1:5
140
1.0
141
5.0
290
     0
  0
SCALE
  5
40
102
{ACAD_REACTORS
330
3B
102
}
330
3B
100
AcDbScale
 70
     0
300
1:8
140
1.0
141
8.0
290
     0
  0
SCALE
  5
41
102
{ACAD_REACTORS
330
3B
102
}
330
3B
100
AcDbScale
 70
     0
300
1:10
140
1.0
141
10.0
290
     0
  0
SCALE
  5
42
102
{ACAD_REACTORS
330
3B
102
}
330
3B
100
AcDbScale
 70
     0
300
1:16
140
1.0
141
16.0
290
     0
  0
SCALE
  5
43
102
{ACAD_REACTORS
330
3B
102
}
330
3B
100
AcDbScale
 70
     0
300
1:20
140
1.0
141
20.0
290
     0
  0
SCALE
  5
44
102
{ACAD_REACTORS
330
3B
102
}
330
3B
100
AcDbScale
 70
     0
300
1:30
140
1.0
141
30.0
290
     0
  0
SCALE
  5
45
102
{ACAD_REACTORS
330
3B
102
}
330
3B
100
AcDbScale
 70
     0
300
1:40
140
1.0
141
40.0
290
     0
  0
SCALE
  5
46
102
{ACAD_REACTORS
330
3B
102
}
330
3B
100
AcDbScale
 70
     0
300
1:50
140
1.0
141
50.0
290
     0
  0
SCALE
  5
47
102
{ACAD_REACTORS
330
3B
102
}
330
3B
100
AcDbScale
 70
     0
300
1:100
140
1.0
141
100.0
290
     0
  0
SCALE
  5
48
102
{ACAD_REACTORS
330
3B
102
}
330
3B
100
AcDbScale
 70
     0
300
2:1
140
2.0
141
1.0
290
     0
  0
SCALE
  5
49
102
{ACAD_REACTORS
330
3B
102
}
330
3B
100
AcDbScale
 70
     0
300
4:1
140
4.0
141
1.0
290
     0
  0
SCALE
  5
4A
102
{ACAD_REACTORS
330
3B
102
}
330
3B
100
AcDbScale
 70
     0
300
8:1
140
8.0
141
1.0
290
     0
  0
SCALE
  5
4B
102
{ACAD_REACTORS
330
3B
102
}
330
3B
100
AcDbScale
 70
     0
300
10:1
140
10.0
141
1.0
290
     0
  0
SCALE
  5
4C
102
{ACAD_REACTORS
330
3B
102
}
330
3B
100
AcDbScale
 70
     0
300
100:1
140
100.0
141
1.0
290
     0
  0
SCALE
  5
4D
102
{ACAD_REACTORS
330
3B
102
}
330
3B
100
AcDbScale
 70
     0
300
1/128" = 1'-0"
140
0.0078125
141
12.0
290
     0
  0
SCALE
  5
4E
102
{ACAD_REACTORS
330
3B
102
}
330
3B
100
AcDbScale
 70
     0
300
1/64" = 1'-0"
140
0.015625
141
12.0
290
     0
  0
SCALE
  5
4F
102
{ACAD_REACTORS
330
3B
102
}
330
3B
100
AcDbScale
 70
     0
300
1/32" = 1'-0"
140
0.03125
141
12.0
290
     0
  0
SCALE
  5
50
102
{ACAD_REACTORS
330
3B
102
}
330
3B
100
AcDbScale
 70
     0
300
1/16" = 1'-0"
140
0.0625
141
12.0
290
     0
  0
SCALE
  5
51
102
{ACAD_REACTORS
330
3B
102
}
330
3B
100
AcDbScale
 70
     0
300
3/32" = 1'-0"
140
0.09375
141
12.0
290
     0
  0
SCALE
  5
52
102
{ACAD_REACTORS
330
3B
102
}
330
3B
100
AcDbScale
 70
     0
300
1/8" = 1'-0"
140
0.125
141
12.0
290
     0
  0
SCALE
  5
53
102
{ACAD_REACTORS
330
3B
102
}
330
3B
100
AcDbScale
 70
     0
300
3/16" = 1'-0"
140
0.1875
141
12.0
290
     0
  0
SCALE
  5
54
102
{ACAD_REACTORS
330
3B
102
}
330
3B
100
AcDbScale
 70
     0
300
1/4" = 1'-0"
140
0.25
141
12.0
290
     0
  0
SCALE
  5
55
102
{ACAD_REACTORS
330
3B
102
}
330
3B
100
AcDbScale
 70
     0
300
3/8" = 1'-0"
140
0.375
141
12.0
290
     0
  0
SCALE
  5
56
102
{ACAD_REACTORS
330
3B
102
}
330
3B
100
AcDbScale
 70
     0
300
1/2" = 1'-0"
140
0.5
141
12.0
290
     0
  0
SCALE
  5
57
102
{ACAD_REACTORS
330
3B
102
}
330
3B
100
AcDbScale
 70
     0
300
3/4" = 1'-0"
140
0.75
141
12.0
290
     0
  0
SCALE
  5
58
102
{ACAD_REACTORS
330
3B
102
}
330
3B
100
AcDbScale
 70
     0
300
1" = 1'-0"
140
1.0
141
12.0
290
     0
  0
SCALE
  5
59
102
{ACAD_REACTORS
330
3B
102
}
330
3B
100
AcDbScale
 70
     0
300
1-1/2" = 1'-0"
140
1.5
141
12.0
290
     0
  0
SCALE
  5
5A
102
{ACAD_REACTORS
330
3B
102
}
330
3B
100
AcDbScale
 70
     0
300
3" = 1'-0"
140
3.0
141
12.0
290
     0
  0
SCALE
  5
5B
102
{ACAD_REACTORS
330
3B
102
}
330
3B
100
AcDbScale
 70
     0
300
6" = 1'-0"
140
6.0
141
12.0
290
     0
  0
SCALE
  5
5C
102
{ACAD_REACTORS
330
3B
102
}
330
3B
100
AcDbScale
 70
     0
300
1'-0" = 1'-0"
140
12.0
141
12.0
290
     0
  0
VISUALSTYLE
  5
2F
102
{ACAD_REACTORS
330
2A
102
}
330
2A
100
AcDbVisualStyle
  2
2dWireframe
 70
     4
 71
     0
 72
     2
 73
     0
 90
        0
 40
-0.6
 41
-30.0
 62
     5
 63
     7
 74
     1
 91
        4
 64
     7
 65
   257
 75
     1
175
     1
 42
1.0
 92
        0
 66
   257
 43
1.0
 76
     1
 77
     6
 78
     2
 67
     7
 79
     5
170
     0
171
     0
290
     0
174
     0
 93
        1
 44
0.0
173
     0
291
     0
 45
0.0
1001
ACAD
1000
AcDbSavedByObjectVersion
1070
     0
  0
VISUALSTYLE
  5
31
102
{ACAD_REACTORS
330
2A
102
}
330
2A
100
AcDbVisualStyle
  2
3D Hidden
 70
     6
 71
     1
 72
     2
 73
     2
 90
        0
 40
-0.6
 41
-30.0
 62
     5
 63
     7
 74
     2
 91
        2
 64
     7
 65
   257
 75
     2
175
     1
 42
40.0
 92
        0
 66
   257
 43
1.0
 76
     1
 77
     6
 78
     2
 67
     7
 79
     3
170
     0
171
     0
290
     0
174
     0
 93
        1
 44
0.0
173
     0
291
     0
 45
0.0
1001
ACAD
1000
AcDbSavedByObjectVersion
1070
     0
  0
VISUALSTYLE
  5
30
102
{ACAD_REACTORS
330
2A
102
}
330
2A
100
AcDbVisualStyle
  2
3dWireframe
 70
     5
 71
     0
 72
     2
 73
     0
 90
        0
 40
-0.6
 41
-30.0
 62
     5
 63
     7
 74
     1
 91
        4
 64
     7
 65
   257
 75
     1
175
     1
 42
1.0
 92
        0
 66
   257
 43
1.0
 76
     1
 77
     6
 78
     2
 67
     7
 79
     5
170
     0
171
     0
290
     0
174
     0
 93
        1
 44
0.0
173
     0
291
     0
 45
0.0
1001
ACAD
1000
AcDbSavedByObjectVersion
1070
     0
  0
VISUALSTYLE
  5
32
102
{ACAD_REACTORS
330
2A
102
}
330
2A
100
AcDbVisualStyle
  2
Basic
 70
     7
 71
     1
 72
     0
 73
     1
 90
        0
 40
-0.6
 41
-30.0
 62
     5
 63
     7
 74
     0
 91
        4
 64
     7
 65
   257
 75
     1
175
     1
 42
1.0
 92
        8
 66
     7
 43
1.0
 76
     1
 77
     6
 78
     2
 67
     7
 79
     5
170
     0
171
     0
290
     0
174
     0
 93
        1
 44
0.0
173
     0
291
     1
 45
0.0
1001
ACAD
1000
AcDbSavedByObjectVersion
1070
     0
  0
VISUALSTYLE
  5
36
102
{ACAD_REACTORS
330
2A
102
}
330
2A
100
AcDbVisualStyle
  2
Brighten
 70
    12
 71
     2
 72
     2
 73
     0
 90
        0
 40
-0.6
 41
-30.0
 62
     5
 63
     7
 74
     1
 91
        4
 64
     7
 65
   257
 75
     1
175
     1
 42
1.0
 92
        8
 66
     7
 43
1.0
 76
     1
 77
     6
 78
     2
 67
     7
 79
     5
170
     0
171
     0
290
     0
174
     0
 93
        1
 44
50.0
173
     0
291
     1
 45
0.0
1001
ACAD
1000
AcDbSavedByObjectVersion
1070
     0
  0
VISUALSTYLE
  5
3A
102
{ACAD_REACTORS
330
2A
102
}
330
2A
100
AcDbVisualStyle
  2
ColorChange
 70
    16
 71
     2
 72
     2
 73
     3
 90
        0
 40
-0.6
 41
-30.0
 62
     5
 63
     8
 74
     1
 91
        4
 64
     7
 65
   257
 75
     1
175
     1
 42
1.0
 92
        8
 66
     8
 43
1.0
 76
     1
 77
     6
 78
     2
 67
     7
 79
     5
170
     0
171
     0
290
     0
174
     0
 93
        1
 44
0.0
173
     0
291
     1
 45
0.0
1001
ACAD
1000
AcDbSavedByObjectVersion
1070
     0
  0
VISUALSTYLE
  5
34
102
{ACAD_REACTORS
330
2A
102
}
330
2A
100
AcDbVisualStyle
  2
Conceptual
 70
     9
 71
     3
 72
     2
 73
     0
 90
        0
 40
-0.6
 41
-30.0
 62
     5
 63
     7
 74
     2
 91
        2
 64
     7
 65
   257
 75
     1
175
     1
 42
40.0
 92
        8
 66
     7
 43
1.0
 76
     1
 77
     6
 78
     2
 67
     7
 79
     3
170
     0
171
     0
290
     0
174
     0
 93
        1
 44
0.0
173
     0
291
     0
 45
0.0
1001
ACAD
1000
AcDbSavedByObjectVersion
1070
     0
  0
VISUALSTYLE
  5
35
102
{ACAD_REACTORS
330
2A
102
}
330
2A
100
AcDbVisualStyle
  2
Dim
 70
    11
 71
     2
 72
     2
 73
     0
 90
        0
 40
-0.6
 41
-30.0
 62
     5
 63
     7
 74
     1
 91
        4
 64
     7
 65
   257
 75
     1
175
     1
 42
1.0
 92
        8
 66
     7
 43
1.0
 76
     1
 77
     6
 78
     2
 67
     7
 79
     5
170
     0
171
     0
290
     0
174
     0
 93
        1
 44
-50.0
173
     0
291
     1
 45
0.0
1001
ACAD
1000
AcDbSavedByObjectVersion
1070
     0
  0
VISUALSTYLE
  5
39
102
{ACAD_REACTORS
330
2A
102
}
330
2A
100
AcDbVisualStyle
  2
Facepattern
 70
    15
 71
     2
 72
     2
 73
     0
 90
        0
 40
-0.6
 41
-30.0
 62
     5
 63
     7
 74
     1
 91
        4
 64
     7
 65
   257
 75
     1
175
     1
 42
1.0
 92
        8
 66
     7
 43
1.0
 76
     1
 77
     6
 78
     2
 67
     7
 79
     5
170
     0
171
     0
290
     0
174
     0
 93
        1
 44
0.0
173
     0
291
     1
 45
0.0
1001
ACAD
1000
AcDbSavedByObjectVersion
1070
     0
  0
VISUALSTYLE
  5
2B
102
{ACAD_REACTORS
330
2A
102
}
330
2A
100
AcDbVisualStyle
  2
Flat
 70
     0
 71
     2
 72
     1
 73
     1
 90
        2
 40
-0.6
 41
30.0
 62
     5
 63
     7
 74
     0
 91
        4
 64
     7
 65
   257
 75
     1
175
     1
 42
1.0
 92
        8
 66
     7
 43
1.0
 76
     1
 77
     6
 78
     2
 67
     7
 79
     5
170
     0
171
     0
290
     0
174
     0
 93
       13
 44
0.0
173
     0
291
     1
 45
0.0
1001
ACAD
1000
AcDbSavedByObjectVersion
1070
     0
  0
VISUALSTYLE
  5
2C
102
{ACAD_REACTORS
330
2A
102
}
330
2A
100
AcDbVisualStyle
  2
FlatWithEdges
 70
     1
 71
     2
 72
     1
 73
     1
 90
        2
 40
-0.6
 41
30.0
 62
     5
 63
     7
 74
     1
 91
        4
 64
     7
 65
   257
 75
     1
175
     1
 42
1.0
 92
        0
 66
   257
 43
1.0
 76
     1
 77
     6
 78
     2
 67
     7
 79
     5
170
     0
171
     0
290
     0
174
     0
 93
       13
 44
0.0
173
     0
291
     1
 45
0.0
1001
ACAD
1000
AcDbSavedByObjectVersion
1070
     0
  0
VISUALSTYLE
  5
2D
102
{ACAD_REACTORS
330
2A
102
}
330
2A
100
AcDbVisualStyle
  2
Gouraud
 70
     2
 71
     2
 72
     2
 73
     1
 90
        2
 40
-0.6
 41
30.0
 62
     5
 63
     7
 74
     0
 91
        4
 64
     7
 65
   257
 75
     1
175
     1
 42
1.0
 92
        0
 66
     7
 43
1.0
 76
     1
 77
     6
 78
     2
 67
     7
 79
     5
170
     0
171
     0
290
     0
174
     0
 93
       13
 44
0.0
173
     0
291
     1
 45
0.0
1001
ACAD
1000
AcDbSavedByObjectVersion
1070
     0
  0
VISUALSTYLE
  5
2E
102
{ACAD_REACTORS
330
2A
102
}
330
2A
100
AcDbVisualStyle
  2
GouraudWithEdges
 70
     3
 71
     2
 72
     2
 73
     1
 90
        2
 40
-0.6
 41
30.0
 62
     5
 63
     7
 74
     1
 91
        4
 64
     7
 65
   257
 75
     1
175
     1
 42
1.0
 92
        0
 66
   257
 43
1.0
 76
     1
 77
     6
 78
     2
 67
     7
 79
     5
170
     0
171
     0
290
     0
174
     0
 93
       13
 44
0.0
173
     0
291
     1
 45
0.0
1001
ACAD
1000
AcDbSavedByObjectVersion
1070
     0
  0
VISUALSTYLE
  5
38
102
{ACAD_REACTORS
330
2A
102
}
330
2A
100
AcDbVisualStyle
  2
Linepattern
 70
    14
 71
     2
 72
     2
 73
     0
 90
        0
 40
-0.6
 41
-30.0
 62
     5
 63
     7
 74
     1
 91
        4
 64
     7
 65
   257
 75
     7
175
     7
 42
1.0
 92
        8
 66
     7
 43
1.0
 76
     1
 77
     6
 78
     2
 67
     7
 79
     5
170
     0
171
     0
290
     0
174
     0
 93
        1
 44
0.0
173
     0
291
     1
 45
0.0
1001
ACAD
1000
AcDbSavedByObjectVersion
1070
     0
  0
VISUALSTYLE
  5
33
102
{ACAD_REACTORS
330
2A
102
}
330
2A
100
AcDbVisualStyle
  2
Realistic
 70
     8
 71
     2
 72
     2
 73
     0
 90
        0
 40
-0.6
 41
-30.0
 62
     5
 63
     7
 74
     1
 91
        0
 64
     7
 65
   257
 75
     1
175
     1
 42
1.0
 92
        8
 66
     8
 43
1.0
 76
     1
 77
     6
 78
     2
 67
     7
 79
     5
170
     0
171
     0
290
     0
174
     0
 93
       13
 44
0.0
173
     0
291
     0
 45
0.0
1001
ACAD
1000
AcDbSavedByObjectVersion
1070
     0
  0
VISUALSTYLE
  5
37
102
{ACAD_REACTORS
330
2A
102
}
330
2A
100
AcDbVisualStyle
  2
Thicken
 70
    13
 71
     2
 72
     2
 73
     0
 90
        0
 40
-0.6
 41
-30.0
 62
     5
 63
     7
 74
     1
 91
        4
 64
     7
 65
   257
 75
     1
175
     1
 42
1.0
 92
       12
 66
     7
 43
1.0
 76
     1
 77
     6
 78
     2
 67
     7
 79
     5
170
     0
171
     0
290
     0
174
     0
 93
        1
 44
0.0
173
     0
291
     1
 45
0.0
1001
ACAD
1000
AcDbSavedByObjectVersion
1070
     0
  0
DICTIONARYVAR
  5
152
102
{ACAD_REACTORS
330
151
102
}
330
151
100
DictionaryVariables
280
     0
  1
1:1
  0
DICTIONARYVAR
  5
156
102
{ACAD_REACTORS
330
151
102
}
330
151
100
DictionaryVariables
280
     0
  1
80.000000
  0
DICTIONARYVAR
  5
155
102
{ACAD_REACTORS
330
151
102
}
330
151
100
DictionaryVariables
280
     0
  1
5.000000
  0
ENDSEC
  0
EOF
