  0
SECTION
  2
HEADER
  9
$ACADVER
  1
AC1015
  9
$ACADMAINTVER
 70
     6
  9
$DWGCODEPAGE
  3
ANSI_1252
  9
$INSBASE
 10
0.0
 20
0.0
 30
0.0
  9
$EXTMIN
 10
0.0
 20
0.0
 30
0.0
  9
$EXTMAX
 10
1682.0
 20
2378.0
 30
0.0
  9
$LIMMIN
 10
0.0
 20
0.0
  9
$LIMMAX
 10
1682.0
 20
2378.0
  9
$ORTHOMODE
 70
     0
  9
$REGENMODE
 70
     1
  9
$FILLMODE
 70
     1
  9
$QTEXTMODE
 70
     0
  9
$MIRRTEXT
 70
     1
  9
$LTSCALE
 40
1.0
  9
$ATTMODE
 70
     1
  9
$TEXTSIZE
 40
2.5
  9
$TRACEWID
 40
1.0
  9
$TEXTSTYLE
  7
Standard
  9
$CLAYER
  8
0
  9
$CELTYPE
  6
ByLayer
  9
$CECOLOR
 62
   256
  9
$CELTSCALE
 40
1.0
  9
$DISPSILH
 70
     0
  9
$DIMSCALE
 40
1.0
  9
$DIMASZ
 40
2.5
  9
$DIMEXO
 40
0.625
  9
$DIMDLI
 40
3.75
  9
$DIMRND
 40
0.0
  9
$DIMDLE
 40
0.0
  9
$DIMEXE
 40
1.25
  9
$DIMTP
 40
0.0
  9
$DIMTM
 40
0.0
  9
$DIMTXT
 40
2.5
  9
$DIMCEN
 40
2.5
  9
$DIMTSZ
 40
0.0
  9
$DIMTOL
 70
     0
  9
$DIMLIM
 70
     0
  9
$DIMTIH
 70
     0
  9
$DIMTOH
 70
     0
  9
$DIMSE1
 70
     0
  9
$DIMSE2
 70
     0
  9
$DIMTAD
 70
     1
  9
$DIMZIN
 70
     8
  9
$DIMBLK
  1

  9
$DIMASO
 70
     1
  9
$DIMSHO
 70
     1
  9
$DIMPOST
  1

  9
$DIMAPOST
  1

  9
$DIMALT
 70
     0
  9
$DIMALTD
 70
     3
  9
$DIMALTF
 40
0.0393700787
  9
$DIMLFAC
 40
1.0
  9
$DIMTOFL
 70
     1
  9
$DIMTVP
 40
0.0
  9
$DIMTIX
 70
     0
  9
$DIMSOXD
 70
     0
  9
$DIMSAH
 70
     0
  9
$DIMBLK1
  1

  9
$DIMBLK2
  1

  9
$DIMSTYLE
  2
ISO-25
  9
$DIMCLRD
 70
     0
  9
$DIMCLRE
 70
     0
  9
$DIMCLRT
 70
     0
  9
$DIMTFAC
 40
1.0
  9
$DIMGAP
 40
0.625
  9
$DIMJUST
 70
     0
  9
$DIMSD1
 70
     0
  9
$DIMSD2
 70
     0
  9
$DIMTOLJ
 70
     0
  9
$DIMTZIN
 70
     8
  9
$DIMALTZ
 70
     0
  9
$DIMALTTZ
 70
     0
  9
$DIMUPT
 70
     0
  9
$DIMDEC
 70
     2
  9
$DIMTDEC
 70
     2
  9
$DIMALTU
 70
     2
  9
$DIMALTTD
 70
     3
  9
$DIMTXSTY
  7
Standard
  9
$DIMAUNIT
 70
     0
  9
$DIMADEC
 70
     0
  9
$DIMALTRND
 40
0.0
  9
$DIMAZIN
 70
     0
  9
$DIMDSEP
 70
    44
  9
$DIMATFIT
 70
     3
  9
$DIMFRAC
 70
     0
  9
$DIMLDRBLK
  1

  9
$DIMLUNIT
 70
     2
  9
$DIMLWD
 70
    -2
  9
$DIMLWE
 70
    -2
  9
$DIMTMOVE
 70
     0
  9
$LUNITS
 70
     2
  9
$LUPREC
 70
     4
  9
$SKETCHINC
 40
1.0
  9
$FILLETRAD
 40
10.0
  9
$AUNITS
 70
     0
  9
$AUPREC
 70
     0
  9
$MENU
  1
.
  9
$ELEVATION
 40
0.0
  9
$PELEVATION
 40
0.0
  9
$THICKNESS
 40
0.0
  9
$LIMCHECK
 70
     0
  9
$CHAMFERA
 40
10.0
  9
$CHAMFERB
 40
10.0
  9
$CHAMFERC
 40
20.0
  9
$CHAMFERD
 40
0.0
  9
$SKPOLY
 70
     0
  9
$TDCREATE
 40
2455274.476993715
  9
$TDUCREATE
 40
2455274.435327048
  9
$TDUPDATE
 40
2455274.476993727
  9
$TDUUPDATE
 40
2455274.43532706
  9
$TDINDWG
 40
0.0000000116
  9
$TDUSRTIMER
 40
0.0000000116
  9
$USRTIMER
 70
     1
  9
$ANGBASE
 50
0.0
  9
$ANGDIR
 70
     0
  9
$PDMODE
 70
     0
  9
$PDSIZE
 40
0.0
  9
$PLINEWID
 40
0.0
  9
$SPLFRAME
 70
     0
  9
$SPLINETYPE
 70
     6
  9
$SPLINESEGS
 70
     8
  9
$HANDSEED
  5
17A
  9
$SURFTAB1
 70
     6
  9
$SURFTAB2
 70
     6
  9
$SURFTYPE
 70
     6
  9
$SURFU
 70
     6
  9
$SURFV
 70
     6
  9
$UCSBASE
  2

  9
$UCSNAME
  2

  9
$UCSORG
 10
0.0
 20
0.0
 30
0.0
  9
$UCSXDIR
 10
1.0
 20
0.0
 30
0.0
  9
$UCSYDIR
 10
0.0
 20
1.0
 30
0.0
  9
$UCSORTHOREF
  2

  9
$UCSORTHOVIEW
 70
     0
  9
$UCSORGTOP
 10
0.0
 20
0.0
 30
0.0
  9
$UCSORGBOTTOM
 10
0.0
 20
0.0
 30
0.0
  9
$UCSORGLEFT
 10
0.0
 20
0.0
 30
0.0
  9
$UCSORGRIGHT
 10
0.0
 20
0.0
 30
0.0
  9
$UCSORGFRONT
 10
0.0
 20
0.0
 30
0.0
  9
$UCSORGBACK
 10
0.0
 20
0.0
 30
0.0
  9
$PUCSBASE
  2

  9
$PUCSNAME
  2

  9
$PUCSORG
 10
0.0
 20
0.0
 30
0.0
  9
$PUCSXDIR
 10
1.0
 20
0.0
 30
0.0
  9
$PUCSYDIR
 10
0.0
 20
1.0
 30
0.0
  9
$PUCSORTHOREF
  2

  9
$PUCSORTHOVIEW
 70
     0
  9
$PUCSORGTOP
 10
0.0
 20
0.0
 30
0.0
  9
$PUCSORGBOTTOM
 10
0.0
 20
0.0
 30
0.0
  9
$PUCSORGLEFT
 10
0.0
 20
0.0
 30
0.0
  9
$PUCSORGRIGHT
 10
0.0
 20
0.0
 30
0.0
  9
$PUCSORGFRONT
 10
0.0
 20
0.0
 30
0.0
  9
$PUCSORGBACK
 10
0.0
 20
0.0
 30
0.0
  9
$USERI1
 70
     0
  9
$USERI2
 70
     0
  9
$USERI3
 70
     0
  9
$USERI4
 70
     0
  9
$USERI5
 70
     0
  9
$USERR1
 40
0.0
  9
$USERR2
 40
0.0
  9
$USERR3
 40
0.0
  9
$USERR4
 40
0.0
  9
$USERR5
 40
0.0
  9
$WORLDVIEW
 70
     1
  9
$SHADEDGE
 70
     3
  9
$SHADEDIF
 70
    70
  9
$TILEMODE
 70
     1
  9
$MAXACTVP
 70
    64
  9
$PINSBASE
 10
0.0
 20
0.0
 30
0.0
  9
$PLIMCHECK
 70
     0
  9
$PEXTMIN
 10
0.0
 20
0.0
 30
0.0
  9
$PEXTMAX
 10
1682.0
 20
2378.0
 30
0.0
  9
$PLIMMIN
 10
0.0
 20
0.0
  9
$PLIMMAX
 10
1682.0
 20
2378.0
  9
$UNITMODE
 70
     0
  9
$VISRETAIN
 70
     1
  9
$PLINEGEN
 70
     0
  9
$PSLTSCALE
 70
     1
  9
$TREEDEPTH
 70
  3020
  9
$CMLSTYLE
  2
Standard
  9
$CMLJUST
 70
     0
  9
$CMLSCALE
 40
20.0
  9
$PROXYGRAPHICS
 70
     1
  9
$MEASUREMENT
 70
     1
  9
$CELWEIGHT
370
    -1
  9
$ENDCAPS
280
     0
  9
$JOINSTYLE
280
     0
  9
$LWDISPLAY
290
     0
  9
$INSUNITS
 70
     4
  9
$HYPERLINKBASE
  1

  9
$STYLESHEET
  1

  9
$XEDIT
290
     1
  9
$CEPSNTYPE
380
     0
  9
$PSTYLEMODE
290
     1
  9
$FINGERPRINTGUID
  2
{E8BCAFC3-D06D-4953-A731-B4A6D16C1738}
  9
$VERSIONGUID
  2
{FAEB1C32-E019-11D5-929B-00C0DF256EC4}
  9
$EXTNAMES
290
     1
  9
$PSVPSCALE
 40
0.0
  9
$OLESTARTUP
290
     0
  0
ENDSEC
  0
SECTION
  2
CLASSES
  0
CLASS
  1
ACDBDICTIONARYWDFLT
  2
AcDbDictionaryWithDefault
  3
ObjectDBX Classes
 90
        0
280
     0
281
     0
  0
CLASS
  1
VISUALSTYLE
  2
AcDbVisualStyle
  3
ObjectDBX Classes
 90
     4095
280
     0
281
     0
  0
CLASS
  1
SCALE
  2
AcDbScale
  3
ObjectDBX Classes
 90
     1153
280
     0
281
     0
  0
CLASS
  1
DICTIONARYVAR
  2
AcDbDictionaryVar
  3
ObjectDBX Classes
 90
        0
280
     0
281
     0
  0
CLASS
  1
ACDBPLACEHOLDER
  2
AcDbPlaceHolder
  3
ObjectDBX Classes
 90
        0
280
     0
281
     0
  0
CLASS
  1
LAYOUT
  2
AcDbLayout
  3
ObjectDBX Classes
 90
        0
280
     0
281
     0
  0
ENDSEC
  0
SECTION
  2
TABLES
  0
TABLE
  2
VPORT
  5
8
330
0
100
AcDbSymbolTable
 70
     1
  0
VPORT
  5
29
330
8
100
AcDbSymbolTableRecord
100
AcDbViewportTableRecord
  2
*Active
 70
     0
 10
0.0
 20
0.0
 11
1.0
 21
1.0
 12
344.1869158879
 22
148.5
 13
0.0
 23
0.0
 14
10.0
 24
10.0
 15
10.0
 25
10.0
 16
0.0
 26
0.0
 36
1.0
 17
0.0
 27
0.0
 37
0.0
 40
297.0
 41
1.9729729729
 42
50.0
 43
0.0
 44
0.0
 50
0.0
 51
0.0
 71
     0
 72
   100
 73
     1
 74
     3
 75
     0
 76
     0
 77
     0
 78
     0
281
     0
 65
     1
110
0.0
120
0.0
130
0.0
111
1.0
121
0.0
131
0.0
112
0.0
122
1.0
132
0.0
 79
     0
146
0.0
  0
ENDTAB
  0
TABLE
  2
LTYPE
  5
5
330
0
100
AcDbSymbolTable
 70
     2
  0
LTYPE
  5
14
330
5
100
AcDbSymbolTableRecord
100
AcDbLinetypeTableRecord
  2
ByBlock
 70
     0
  3

 72
    65
 73
     0
 40
0.0
  0
LTYPE
  5
15
330
5
100
AcDbSymbolTableRecord
100
AcDbLinetypeTableRecord
  2
ByLayer
 70
     0
  3

 72
    65
 73
     0
 40
0.0
  0
LTYPE
  5
16
330
5
100
AcDbSymbolTableRecord
100
AcDbLinetypeTableRecord
  2
Continuous
 70
     0
  3
Solid line
 72
    65
 73
     0
 40
0.0
  0
LTYPE
  5
C8
330
5
100
AcDbSymbolTableRecord
100
AcDbLinetypeTableRecord
  2
CENTER2
 70
     0
  3
Center (.5x) ___ _ ___ _ ___ _ ___ _ ___ _ ___
 72
    65
 73
     4
 40
28.575
 49
19.05
 74
     4
 75
     0
340
0
 46
0.0
 50
0.0
 44
0.0
 45
0.0
 49
-3.175
 74
     4
 75
     0
340
0
 46
0.0
 50
0.0
 44
0.0
 45
0.0
 49
3.175
 74
     4
 75
     0
340
0
 46
0.0
 50
0.0
 44
0.0
 45
0.0
 49
-3.175
 74
     4
 75
     0
340
0
 46
0.0
 50
0.0
 44
0.0
 45
0.0
  0
ENDTAB
  0
TABLE
  2
LAYER
  5
2
330
0
100
AcDbSymbolTable
 70
    15
  0
LAYER
  5
10
330
2
100
AcDbSymbolTableRecord
100
AcDbLayerTableRecord
  2
0
 70
     0
 62
     7
  6
Continuous
370
    -3
390
F
  0
LAYER
  5
5D
330
2
100
AcDbSymbolTableRecord
100
AcDbLayerTableRecord
  2
Default
 70
     0
 62
     7
  6
Continuous
370
    -3
390
F
  0
LAYER
  5
60
330
2
100
AcDbSymbolTableRecord
100
AcDbLayerTableRecord
  2
$DDT_AUDIT_GENERATED_(60)
 70
     0
 62
     7
  6
Continuous
370
    -3
390
F
  0
LAYER
  5
6D
330
2
100
AcDbSymbolTableRecord
100
AcDbLayerTableRecord
  2
$DDT_AUDIT_GENERATED_(6D)
 70
     0
 62
     7
  6
Continuous
370
    -3
390
F
  0
LAYER
  5
71
330
2
100
AcDbSymbolTableRecord
100
AcDbLayerTableRecord
  2
$DDT_AUDIT_GENERATED_(71)
 70
     0
 62
     7
  6
Continuous
370
    -3
390
F
  0
LAYER
  5
7A
330
2
100
AcDbSymbolTableRecord
100
AcDbLayerTableRecord
  2
$DDT_AUDIT_GENERATED_(7A)
 70
     0
 62
     7
  6
Continuous
370
    -3
390
F
  0
LAYER
  5
89
330
2
100
AcDbSymbolTableRecord
100
AcDbLayerTableRecord
  2
$DDT_AUDIT_GENERATED_(89)
 70
     0
 62
     7
  6
Continuous
370
    -3
390
F
  0
LAYER
  5
98
330
2
100
AcDbSymbolTableRecord
100
AcDbLayerTableRecord
  2
$DDT_AUDIT_GENERATED_(98)
 70
     0
 62
     7
  6
Continuous
370
    -3
390
F
  0
LAYER
  5
B4
330
2
100
AcDbSymbolTableRecord
100
AcDbLayerTableRecord
  2
$DDT_AUDIT_GENERATED_(B4)
 70
     0
 62
     7
  6
Continuous
370
    -3
390
F
  0
LAYER
  5
B8
330
2
100
AcDbSymbolTableRecord
100
AcDbLayerTableRecord
  2
$DDT_AUDIT_GENERATED_(B8)
 70
     0
 62
     7
  6
Continuous
370
    -3
390
F
  0
LAYER
  5
C7
330
2
100
AcDbSymbolTableRecord
100
AcDbLayerTableRecord
  2
DV1_Standard
 70
     0
 62
     7
  6
Continuous
370
    -3
390
F
  0
LAYER
  5
ED
330
2
100
AcDbSymbolTableRecord
100
AcDbLayerTableRecord
  2
$DDT_AUDIT_GENERATED_(ED)
 70
     0
 62
     7
  6
Continuous
370
    -3
390
F
  0
LAYER
  5
F3
330
2
100
AcDbSymbolTableRecord
100
AcDbLayerTableRecord
  2
$DDT_AUDIT_GENERATED_(F3)
 70
     0
 62
     7
  6
Continuous
370
    -3
390
F
  0
LAYER
  5
10E
330
2
100
AcDbSymbolTableRecord
100
AcDbLayerTableRecord
  2
DV2_Standard
 70
     0
 62
     7
  6
Continuous
370
    -3
390
F
  0
LAYER
  5
160
330
2
100
AcDbSymbolTableRecord
100
AcDbLayerTableRecord
  2
DV3_Standard
 70
     0
 62
     7
  6
Continuous
370
    -3
390
F
  0
ENDTAB
  0
TABLE
  2
STYLE
  5
3
330
0
100
AcDbSymbolTable
 70
     2
  0
STYLE
  5
11
330
3
100
AcDbSymbolTableRecord
100
AcDbTextStyleTableRecord
  2
Standard
 70
     0
 40
0.0
 41
1.0
 50
0.0
 71
     0
 42
2.5
  3
txt
  4

  0
STYLE
  5
169
330
3
100
AcDbSymbolTableRecord
100
AcDbTextStyleTableRecord
  2
SEACAD_seiso_ttf
 70
     0
 40
0.0
 41
1.0
 50
0.0
 71
     0
 42
0.2
  3
seiso.ttf
  4

  0
ENDTAB
  0
TABLE
  2
VIEW
  5
6
330
0
100
AcDbSymbolTable
 70
     0
  0
ENDTAB
  0
TABLE
  2
UCS
  5
7
330
0
100
AcDbSymbolTable
 70
     0
  0
ENDTAB
  0
TABLE
  2
APPID
  5
9
330
0
100
AcDbSymbolTable
 70
     1
  0
APPID
  5
12
330
9
100
AcDbSymbolTableRecord
100
AcDbRegAppTableRecord
  2
ACAD
 70
     0
  0
ENDTAB
  0
TABLE
  2
DIMSTYLE
  5
A
330
0
100
AcDbSymbolTable
 70
     1
100
AcDbDimStyleTable
  0
DIMSTYLE
105
27
330
A
100
AcDbSymbolTableRecord
100
AcDbDimStyleTableRecord
  2
ISO-25
 70
     0
 41
2.5
 42
0.625
 43
3.75
 44
1.25
 73
     0
 74
     0
 77
     1
 78
     8
140
2.5
141
2.5
143
0.0393700787
147
0.625
171
     3
172
     1
271
     2
272
     2
274
     3
278
    44
283
     0
284
     8
340
11
  0
ENDTAB
  0
TABLE
  2
BLOCK_RECORD
  5
1
330
0
100
AcDbSymbolTable
 70
     4
  0
BLOCK_RECORD
  5
1F
330
1
100
AcDbSymbolTableRecord
100
AcDbBlockTableRecord
  2
*Model_Space
340
22
  0
BLOCK_RECORD
  5
1B
330
1
100
AcDbSymbolTableRecord
100
AcDbBlockTableRecord
  2
*Paper_Space
340
1E
  0
BLOCK_RECORD
  5
5E
330
1
100
AcDbSymbolTableRecord
100
AcDbBlockTableRecord
  2
SE
340
0
102
{BLKREFS
331
5F
102
}
  0
BLOCK_RECORD
  5
CD
330
1
100
AcDbSymbolTableRecord
100
AcDbBlockTableRecord
  2
SE1
340
0
102
{BLKREFS
331
CE
102
}
  0
BLOCK_RECORD
  5
114
330
1
100
AcDbSymbolTableRecord
100
AcDbBlockTableRecord
  2
SE2
340
0
102
{BLKREFS
331
115
102
}
  0
ENDTAB
  0
ENDSEC
  0
SECTION
  2
BLOCKS
  0
BLOCK
  5
20
330
1F
100
AcDbEntity
  8
0
100
AcDbBlockBegin
  2
*Model_Space
 70
     0
 10
0.0
 20
0.0
 30
0.0
  3
*Model_Space
  1

  0
ENDBLK
  5
21
330
1F
100
AcDbEntity
  8
0
100
AcDbBlockEnd
  0
BLOCK
  5
1C
330
1B
100
AcDbEntity
 67
     1
  8
0
100
AcDbBlockBegin
  2
*Paper_Space
 70
     0
 10
0.0
 20
0.0
 30
0.0
  3
*Paper_Space
  1

  0
ENDBLK
  5
1D
330
1B
100
AcDbEntity
 67
     1
  8
0
100
AcDbBlockEnd
  0
BLOCK
  5
CB
330
5E
100
AcDbEntity
  8
0
100
AcDbBlockBegin
  2
SE
 70
     0
 10
0.0
 20
0.0
 30
0.0
  3
SE
  1

  0
LINE
  5
61
330
5E
100
AcDbEntity
  8
$DDT_AUDIT_GENERATED_(60)
  6
Continuous
 62
     7
100
AcDbLine
 10
78.69
 20
626.2814742932
 30
0.0
 11
78.69
 21
575.2814742932
 31
0.0
  0
SPLINE
  5
62
330
5E
100
AcDbEntity
  8
$DDT_AUDIT_GENERATED_(60)
  6
Continuous
 62
     7
100
AcDbSpline
210
0.0
220
0.0
230
1.0
 70
     8
 71
     3
 72
    34
 73
    30
 74
     0
 42
0.0000000001250112
 43
0.0000000001
 40
0.5003300637028526
 40
0.5003300637028526
 40
0.5003300637028526
 40
0.5003300637028526
 40
0.5312500000000008
 40
0.5312500000000008
 40
0.5625000000000007
 40
0.5625000000000007
 40
0.6250000000000008
 40
0.6250000000000008
 40
0.6562500000000007
 40
0.6562500000000007
 40
0.6875000000000007
 40
0.6875000000000007
 40
0.7187500000000007
 40
0.7187500000000007
 40
0.7500000000000006
 40
0.7500000000000006
 40
0.7812500000000006
 40
0.7812500000000006
 40
0.8125000000000006
 40
0.8125000000000006
 40
0.8750000000000003
 40
0.8750000000000003
 40
0.9062500000000003
 40
0.9062500000000003
 40
0.9375000000000003
 40
0.9375000000000003
 40
0.9687500000000001
 40
0.9687500000000001
 40
1.0
 40
1.0
 40
1.0
 40
1.0
 10
51.98999912933802
 20
574.7814750544234
 30
0.0
 10
51.9899461123712
 20
574.7815215419159
 30
0.0
 10
51.86483773682533
 20
574.8695316652332
 30
0.0
 10
51.37410984696555
 20
575.2094335938118
 30
0.0
 10
51.01163849522396
 20
575.4591127135208
 30
0.0
 10
49.59560280998721
 20
576.407600283614
 30
0.0
 10
48.24610826031182
 20
577.2880775220975
 30
0.0
 10
45.80063045692091
 20
578.6779587260962
 30
0.0
 10
44.91842435262159
 20
579.1505414095035
 30
0.0
 10
43.00426629840753
 20
580.0701698373011
 30
0.0
 10
41.9746185045506
 20
580.5149999918525
 30
0.0
 10
39.81403485616831
 20
581.2870905765885
 30
0.0
 10
38.66064773555179
 20
581.6215406881472
 30
0.0
 10
36.2655165718666
 20
582.0863404695606
 30
0.0
 10
35.04185647446772
 20
582.213865513173
 30
0.0
 10
32.5350267352056
 20
582.2136551140175
 30
0.0
 10
31.30766142609084
 20
582.0853155129353
 30
0.0
 10
28.9163189319508
 20
581.6206518814556
 30
0.0
 10
27.76002045362559
 20
581.2852161480535
 30
0.0
 10
24.52111049061807
 20
580.1270310407735
 30
0.0
 10
22.58963355252586
 20
579.138718145561
 30
0.0
 10
20.1438833249664
 20
577.7483096911404
 30
0.0
 10
19.3937450169356
 20
577.2920175146018
 30
0.0
 10
18.08715765041259
 20
576.4693028543463
 30
0.0
 10
17.52252872283988
 20
576.0981023206733
 30
0.0
 10
16.58292359412349
 20
575.4689930118527
 30
0.0
 10
16.21056281863616
 20
575.2126438681646
 30
0.0
 10
15.71832276382414
 20
574.8717464710245
 30
0.0
 10
15.58999999999999
 20
574.781474293205
 30
0.0
 10
15.58999999999999
 20
574.781474293205
 30
0.0
  0
ARC
  5
63
330
5E
100
AcDbEntity
  8
$DDT_AUDIT_GENERATED_(60)
  6
Continuous
 62
     7
100
AcDbCircle
 10
27.3900004413
 20
648.2816652109
 30
0.0
 40
25.84919192063088
100
AcDbArc
 50
236.2794347318
 51
303.7205656109
  0
ARC
  5
64
330
5E
100
AcDbEntity
  8
$DDT_AUDIT_GENERATED_(60)
  6
Continuous
 62
     7
100
AcDbCircle
 10
106.35
 20
600.7814742932
 30
0.0
 40
100.0
100
AcDbArc
 50
165.1504721945
 51
194.8495278055
  0
ARC
  5
65
330
5E
100
AcDbEntity
  8
$DDT_AUDIT_GENERATED_(60)
  6
Continuous
 62
     7
100
AcDbCircle
 10
78.19
 20
575.2814742932
 30
0.0
 40
0.5000000000000004
100
AcDbArc
 50
270.0
 51
0.0
  0
ARC
  5
66
330
5E
100
AcDbEntity
  8
$DDT_AUDIT_GENERATED_(60)
  6
Continuous
 62
     7
100
AcDbCircle
 10
78.19
 20
626.2814742932
 30
0.0
 40
0.5000000000000004
100
AcDbArc
 50
0.0
 51
90.0
  0
ARC
  5
67
330
5E
100
AcDbEntity
  8
$DDT_AUDIT_GENERATED_(60)
  6
Continuous
 62
     7
100
AcDbCircle
 10
10.1730796916
 20
626.2814742932
 30
0.0
 40
0.5000000000000004
100
AcDbArc
 50
90.0
 51
165.1504721945
  0
ARC
  5
68
330
5E
100
AcDbEntity
  8
$DDT_AUDIT_GENERATED_(60)
  6
Continuous
 62
     7
100
AcDbCircle
 10
10.1730796916
 20
575.2814742932
 30
0.0
 40
0.49999999999999
100
AcDbArc
 50
194.8495278055
 51
270.0
  0
LINE
  5
69
330
5E
100
AcDbEntity
  8
$DDT_AUDIT_GENERATED_(60)
  6
Continuous
 62
     7
100
AcDbLine
 10
13.0492837109
 20
626.7814742932
 30
0.0
 11
10.1730796916
 21
626.7814742932
 31
0.0
  0
LINE
  5
6A
330
5E
100
AcDbEntity
  8
$DDT_AUDIT_GENERATED_(60)
  6
Continuous
 62
     7
100
AcDbLine
 10
78.19
 20
626.7814742932
 30
0.0
 11
41.7269903588
 21
626.7814742932
 31
0.0
  0
LINE
  5
6B
330
5E
100
AcDbEntity
  8
$DDT_AUDIT_GENERATED_(60)
  6
Continuous
 62
     7
100
AcDbLine
 10
51.9893535408
 20
574.7814742932
 30
0.0
 11
78.19
 21
574.7814742932
 31
0.0
  0
LINE
  5
6C
330
5E
100
AcDbEntity
  8
$DDT_AUDIT_GENERATED_(60)
  6
Continuous
 62
     7
100
AcDbLine
 10
10.1730796916
 20
574.7814742932
 30
0.0
 11
15.59
 21
574.7814742932
 31
0.0
  0
LINE
  5
6E
330
5E
100
AcDbEntity
  8
$DDT_AUDIT_GENERATED_(6D)
  6
Continuous
 62
     7
100
AcDbLine
 10
15.79
 20
517.0814742932
 30
0.0
 11
51.79
 21
517.0814742932
 31
0.0
  0
LINE
  5
6F
330
5E
100
AcDbEntity
  8
$DDT_AUDIT_GENERATED_(6D)
  6
Continuous
 62
     7
100
AcDbLine
 10
15.79
 20
574.9210130157
 30
0.0
 11
15.79
 21
517.0814742932
 31
0.0
  0
LINE
  5
70
330
5E
100
AcDbEntity
  8
$DDT_AUDIT_GENERATED_(6D)
  6
Continuous
 62
     7
100
AcDbLine
 10
51.79
 20
517.0814742932
 30
0.0
 11
51.79
 21
574.9210746798
 31
0.0
  0
LINE
  5
72
330
5E
100
AcDbEntity
  8
$DDT_AUDIT_GENERATED_(71)
  6
Continuous
 62
     7
100
AcDbLine
 10
6.79
 20
512.5814742932
 30
0.0
 11
60.79
 21
512.5814742932
 31
0.0
  0
LINE
  5
73
330
5E
100
AcDbEntity
  8
$DDT_AUDIT_GENERATED_(71)
  6
Continuous
 62
     7
100
AcDbLine
 10
15.79
 20
517.0814742932
 30
0.0
 11
51.79
 21
517.0814742932
 31
0.0
  0
LINE
  5
74
330
5E
100
AcDbEntity
  8
$DDT_AUDIT_GENERATED_(71)
  6
Continuous
 62
     7
100
AcDbLine
 10
6.79
 20
515.4624928647
 30
0.0
 11
6.79
 21
512.5814742932
 31
0.0
  0
LINE
  5
75
330
5E
100
AcDbEntity
  8
$DDT_AUDIT_GENERATED_(71)
  6
Continuous
 62
     7
100
AcDbLine
 10
60.79
 20
512.5814742932
 30
0.0
 11
60.79
 21
515.4624928647
 31
0.0
  0
ARC
  5
76
330
5E
100
AcDbEntity
  8
$DDT_AUDIT_GENERATED_(71)
  6
Continuous
 62
     7
100
AcDbCircle
 10
24.4927455131
 20
417.4608829452
 30
0.0
 40
100.0
100
AcDbArc
 50
94.9926216254
 51
99.9560038527
  0
ARC
  5
77
330
5E
100
AcDbEntity
  8
$DDT_AUDIT_GENERATED_(71)
  6
Continuous
 62
     7
100
AcDbCircle
 10
43.0872544869
 20
417.4608829452
 30
0.0
 40
100.0
100
AcDbArc
 50
80.0439961473
 51
85.0073783746
  0
ARC
  5
78
330
5E
100
AcDbEntity
  8
$DDT_AUDIT_GENERATED_(71)
  6
Continuous
 62
     7
100
AcDbCircle
 10
60.29
 20
515.4624928647
 30
0.0
 40
0.5000000000000004
100
AcDbArc
 50
0.0
 51
80.0439961473
  0
ARC
  5
79
330
5E
100
AcDbEntity
  8
$DDT_AUDIT_GENERATED_(71)
  6
Continuous
 62
     7
100
AcDbCircle
 10
7.29
 20
515.4624928647
 30
0.0
 40
0.500000000000016
100
AcDbArc
 50
99.9560038527
 51
180.0
  0
ARC
  5
7B
330
5E
100
AcDbEntity
  8
$DDT_AUDIT_GENERATED_(7A)
  6
Continuous
 62
     7
100
AcDbCircle
 10
27.39
 20
851.8160199532
 30
0.0
 40
14.00000000000001
100
AcDbArc
 50
0.0
 51
90.0
  0
ARC
  5
7C
330
5E
100
AcDbEntity
  8
$DDT_AUDIT_GENERATED_(7A)
  6
Continuous
 62
     7
100
AcDbCircle
 10
27.39
 20
851.8160199532
 30
0.0
 40
13.99999999999996
100
AcDbArc
 50
90.0
 51
180.0
  0
LINE
  5
7D
330
5E
100
AcDbEntity
  8
$DDT_AUDIT_GENERATED_(7A)
  6
Continuous
 62
     7
100
AcDbLine
 10
41.39
 20
626.590487864
 30
0.0
 11
41.39
 21
731.572468816
 31
0.0
  0
LINE
  5
7E
330
5E
100
AcDbEntity
  8
$DDT_AUDIT_GENERATED_(7A)
  6
Continuous
 62
     7
100
AcDbLine
 10
41.39
 20
770.339133049
 30
0.0
 11
41.39
 21
803.8160199532
 31
0.0
  0
LINE
  5
7F
330
5E
100
AcDbEntity
  8
$DDT_AUDIT_GENERATED_(7A)
  6
Continuous
 62
     7
100
AcDbLine
 10
13.39
 20
803.8160199532
 30
0.0
 11
13.39
 21
775.8153842334
 31
0.0
  0
LINE
  5
80
330
5E
100
AcDbEntity
  8
$DDT_AUDIT_GENERATED_(7A)
  6
Continuous
 62
     7
100
AcDbLine
 10
13.39
 20
770.8145907036
 30
0.0
 11
13.39
 21
770.339133049
 31
0.0
  0
LINE
  5
81
330
5E
100
AcDbEntity
  8
$DDT_AUDIT_GENERATED_(7A)
  6
Continuous
 62
     7
100
AcDbLine
 10
13.39
 20
731.572468816
 30
0.0
 11
13.39
 21
626.5899675375
 31
0.0
  0
ELLIPSE
  5
82
330
5E
100
AcDbEntity
  8
$DDT_AUDIT_GENERATED_(7A)
  6
Continuous
 62
     7
100
AcDbEllipse
 10
27.389965446
 20
775.8146067064
 30
0.0
 11
14.00003633226352
 21
-2.775557561562892E-14
 31
0.0
210
0.0
220
0.0
230
1.0
 40
0.0174524064
 41
-0.0000008019480853
 42
3.141592653589907
  0
LINE
  5
83
330
5E
100
AcDbEntity
  8
$DDT_AUDIT_GENERATED_(7A)
  6
Continuous
 62
     7
100
AcDbLine
 10
41.39
 20
775.8146065105
 30
0.0
 11
41.39
 21
804.6537354622
 31
0.0
  0
LINE
  5
84
330
5E
100
AcDbEntity
  8
$DDT_AUDIT_GENERATED_(7A)
  6
Continuous
 62
     7
100
AcDbLine
 10
13.39
 20
804.6537354622
 30
0.0
 11
13.39
 21
775.8153842334
 31
0.0
  0
LINE
  5
85
330
5E
100
AcDbEntity
  8
$DDT_AUDIT_GENERATED_(7A)
  6
Continuous
 62
     7
100
AcDbLine
 10
41.39
 20
804.6537354622
 30
0.0
 11
41.39
 21
851.8160199532
 31
0.0
  0
LINE
  5
86
330
5E
100
AcDbEntity
  8
$DDT_AUDIT_GENERATED_(7A)
  6
Continuous
 62
     7
100
AcDbLine
 10
13.39
 20
851.8160199532
 30
0.0
 11
13.39
 21
804.6537354622
 31
0.0
  0
LINE
  5
87
330
5E
100
AcDbEntity
  8
$DDT_AUDIT_GENERATED_(7A)
  6
Continuous
 62
     7
100
AcDbLine
 10
13.3899291137
 20
775.8146067064
 30
0.0
 11
13.3899291137
 21
770.8153682306
 31
0.0
  0
LINE
  5
88
330
5E
100
AcDbEntity
  8
$DDT_AUDIT_GENERATED_(7A)
  6
Continuous
 62
     7
100
AcDbLine
 10
41.3900017782
 20
770.8153682306
 30
0.0
 11
41.3900017782
 21
775.8146067064
 31
0.0
  0
LINE
  5
8A
330
5E
100
AcDbEntity
  8
$DDT_AUDIT_GENERATED_(89)
  6
Continuous
 62
     7
100
AcDbLine
 10
115.29
 20
585.6184870297
 30
0.0
 11
115.29
 21
586.6153927276
 31
0.0
  0
LINE
  5
8B
330
5E
100
AcDbEntity
  8
$DDT_AUDIT_GENERATED_(89)
  6
Continuous
 62
     7
100
AcDbLine
 10
101.99
 20
626.0824928778
 30
0.0
 11
101.99
 21
575.4804557087
 31
0.0
  0
SPLINE
  5
8C
330
5E
100
AcDbEntity
  8
$DDT_AUDIT_GENERATED_(89)
  6
Continuous
 62
     7
100
AcDbSpline
210
0.0
220
0.0
230
1.0
 70
    12
 71
     2
 72
     6
 73
     3
 74
     0
 42
0.0000000404085156
 43
0.0000000001
 40
0.0
 40
0.0
 40
0.0
 40
1.0
 40
1.0
 40
1.0
 10
115.29
 20
585.6184870297355
 30
0.0
 41
1.0
 10
115.2101786457889
 20
585.5239675845595
 30
0.0
 41
1.0
 10
115.1293727122987
 20
585.430231949508
 30
0.0
 41
1.0
  0
LINE
  5
8D
330
5E
100
AcDbEntity
  8
$DDT_AUDIT_GENERATED_(89)
  6
Continuous
 62
     7
100
AcDbLine
 10
115.1293727123
 20
585.4302319495
 30
0.0
 11
115.1293727123
 21
584.7814742932
 31
0.0
  0
LINE
  5
8E
330
5E
100
AcDbEntity
  8
$DDT_AUDIT_GENERATED_(89)
  6
Continuous
 62
     7
100
AcDbLine
 10
78.69
 20
575.2814742932
 30
0.0
 11
78.69
 21
626.2814742932
 31
0.0
  0
LINE
  5
8F
330
5E
100
AcDbEntity
  8
$DDT_AUDIT_GENERATED_(89)
  6
Continuous
 62
     7
100
AcDbLine
 10
79.1899809635
 20
626.7771112493
 30
0.0
 11
79.1899809635
 21
574.7858373371
 31
0.0
  0
ARC
  5
90
330
5E
100
AcDbEntity
  8
$DDT_AUDIT_GENERATED_(89)
  6
Continuous
 62
     7
100
AcDbCircle
 10
95.92
 20
600.7814742932
 30
0.0
 40
25.00000000000011
100
AcDbArc
 50
73.2877234421
 51
75.9481422426
  0
ARC
  5
91
330
5E
100
AcDbEntity
  8
$DDT_AUDIT_GENERATED_(89)
  6
Continuous
 62
     7
100
AcDbCircle
 10
95.92
 20
600.7814742932
 30
0.0
 40
25.00000000000011
100
AcDbArc
 50
284.0518577574
 51
320.2081805004
  0
LINE
  5
92
330
5E
100
AcDbEntity
  8
$DDT_AUDIT_GENERATED_(89)
  6
Continuous
 62
     7
100
AcDbLine
 10
79.1899809635
 20
574.7858373371
 30
0.0
 11
101.4943630439
 21
574.9804747452
 31
0.0
  0
LINE
  5
93
330
5E
100
AcDbEntity
  8
$DDT_AUDIT_GENERATED_(89)
  6
Continuous
 62
     7
100
AcDbLine
 10
101.4943630439
 20
626.5824738412
 30
0.0
 11
79.1899809635
 21
626.7771112493
 31
0.0
  0
ARC
  5
94
330
5E
100
AcDbEntity
  8
$DDT_AUDIT_GENERATED_(89)
  6
Continuous
 62
     7
100
AcDbCircle
 10
101.49
 20
626.0824928778
 30
0.0
 40
0.5000000000000004
100
AcDbArc
 50
0.0
 51
89.500025649
  0
ARC
  5
95
330
5E
100
AcDbEntity
  8
$DDT_AUDIT_GENERATED_(89)
  6
Continuous
 62
     7
100
AcDbCircle
 10
101.49
 20
575.4804557087
 30
0.0
 40
0.5000000000000024
100
AcDbArc
 50
270.499974351
 51
0.0
  0
LINE
  5
96
330
5E
100
AcDbEntity
  8
$DDT_AUDIT_GENERATED_(89)
  6
Continuous
 62
     7
100
AcDbLine
 10
79.1899809635
 20
626.7771112493
 30
0.0
 11
78.69
 21
626.2814742932
 31
0.0
  0
LINE
  5
97
330
5E
100
AcDbEntity
  8
$DDT_AUDIT_GENERATED_(89)
  6
Continuous
 62
     7
100
AcDbLine
 10
78.69
 20
575.2814742932
 30
0.0
 11
79.1899809635
 21
574.7858373371
 31
0.0
  0
ARC
  5
99
330
5E
100
AcDbEntity
  8
$DDT_AUDIT_GENERATED_(98)
  6
Continuous
 62
     7
100
AcDbCircle
 10
354.7436394046
 20
627.2267813885
 30
0.0
 40
228.2748081442879
100
AcDbArc
 50
180.044192841
 51
182.8253026518
  0
ARC
  5
9A
330
5E
100
AcDbEntity
  8
$DDT_AUDIT_GENERATED_(98)
  6
Continuous
 62
     7
100
AcDbCircle
 10
128.669572
 20
653.398944619
 30
0.0
 40
26.43997721682813
100
AcDbArc
 50
265.2255894535
 51
277.0046049336
  0
ARC
  5
9B
330
5E
100
AcDbEntity
  8
$DDT_AUDIT_GENERATED_(98)
  6
Continuous
 62
     7
100
AcDbCircle
 10
133.7776416157
 20
626.4909580267
 30
0.0
 40
0.499474167634688
100
AcDbArc
 50
16.0203349729
 51
85.0369489162
  0
SPLINE
  5
9C
330
5E
100
AcDbEntity
  8
$DDT_AUDIT_GENERATED_(98)
  6
Continuous
 62
     7
100
AcDbSpline
210
0.0
220
0.0
230
1.0
 70
    12
 71
     3
 72
     8
 73
     4
 74
     0
 42
0.0000000156023001
 43
0.0000000001
 40
0.0
 40
0.0
 40
0.0
 40
0.0
 40
1.0
 40
1.0
 40
1.0
 40
1.0
 10
134.2577436533325
 20
626.6278267101511
 30
0.0
 41
1.113456490516337
 10
134.1989675584339
 20
626.8319630110708
 30
0.0
 41
0.9740574968076379
 10
134.0349106704889
 20
626.9688277848747
 30
0.0
 41
0.9631135568285436
 10
133.8208895420319
 20
626.9876933756955
 30
0.0
 41
1.080624670579054
  0
LINE
  5
9D
330
5E
100
AcDbEntity
  8
$DDT_AUDIT_GENERATED_(98)
  6
Continuous
 62
     7
100
AcDbLine
 10
124.7487104213
 20
692.2600488419
 30
0.0
 11
120.2435893752
 21
692.0633510031
 31
0.0
  0
SPLINE
  5
9E
330
5E
100
AcDbEntity
  8
$DDT_AUDIT_GENERATED_(98)
  6
Continuous
 62
     7
100
AcDbSpline
210
0.0
220
0.0
230
1.0
 70
    12
 71
     3
 72
     8
 73
     4
 74
     0
 42
0.0000000115416441
 43
0.0000000001
 40
0.0
 40
0.0
 40
0.0
 40
0.0
 40
1.0
 40
1.0
 40
1.0
 40
1.0
 10
129.7620930909042
 20
691.8125065833167
 30
0.0
 41
1.163242404995534
 10
129.7544674500553
 20
692.1016365577326
 30
0.0
 41
0.9428760857259246
 10
129.5463286028054
 20
692.3018597460888
 30
0.0
 41
0.9456196011974826
 10
129.2579517256671
 20
692.2994003886056
 30
0.0
 41
1.171472951410208
  0
LINE
  5
9F
330
5E
100
AcDbEntity
  8
$DDT_AUDIT_GENERATED_(98)
  6
Continuous
 62
     7
100
AcDbLine
 10
129.2579517257
 20
692.2994003886
 30
0.0
 11
124.7487104213
 21
692.2600488419
 31
0.0
  0
SPLINE
  5
A0
330
5E
100
AcDbEntity
  8
$DDT_AUDIT_GENERATED_(98)
  6
Continuous
 62
     7
100
AcDbSpline
210
0.0
220
0.0
230
1.0
 70
    12
 71
     3
 72
     8
 73
     4
 74
     0
 42
0.0000000115397766
 43
0.0000000001
 40
0.0
 40
0.0
 40
0.0
 40
0.0
 40
1.0
 40
1.0
 40
1.0
 40
1.0
 10
121.4321182371275
 20
627.9078443049343
 30
0.0
 41
1.167371657067465
 10
121.4396796005795
 20
627.6190873186655
 30
0.0
 41
0.9442094510680739
 10
121.2426803088396
 20
627.4078314341375
 30
0.0
 41
0.944209447644345
 10
120.9540992712182
 20
627.3952317183328
 30
0.0
 41
1.167371646796279
  0
SPLINE
  5
A1
330
5E
100
AcDbEntity
  8
$DDT_AUDIT_GENERATED_(98)
  6
Continuous
 62
     7
100
AcDbSpline
210
0.0
220
0.0
230
1.0
 70
    12
 71
     3
 72
     8
 73
     4
 74
     0
 42
0.0000000115416441
 43
0.0000000001
 40
0.0
 40
0.0
 40
0.0
 40
0.0
 40
1.0
 40
1.0
 40
1.0
 40
1.0
 10
119.7656209710421
 20
691.5507397484164
 30
0.0
 41
1.163242404999177
 10
119.758104267522
 20
691.8398725754585
 30
0.0
 41
0.9428760857258672
 10
119.9554789956908
 20
692.0507145104982
 30
0.0
 41
0.9456196011963411
 10
120.2435893751708
 20
692.0633510030983
 30
0.0
 41
1.171472951410599
  0
ARC
  5
A2
330
5E
100
AcDbEntity
  8
$DDT_AUDIT_GENERATED_(98)
  6
Continuous
 62
     7
100
AcDbCircle
 10
120.9368211754
 20
627.8939516699
 30
0.0
 40
0.4999987688226303
100
AcDbArc
 50
272.5515247176
 51
1.4988821829
  0
LINE
  5
A3
330
5E
100
AcDbEntity
  8
$DDT_AUDIT_GENERATED_(98)
  6
Continuous
 62
     7
100
AcDbLine
 10
131.8987226337
 20
627.1568750893
 30
0.0
 11
131.8939038258
 21
627.1563060416
 31
0.0
  0
LINE
  5
A4
330
5E
100
AcDbEntity
  8
$DDT_AUDIT_GENERATED_(98)
  6
Continuous
 62
     7
100
AcDbLine
 10
103.3481927356
 20
615.5965770983
 30
0.0
 11
103.0597186617
 21
626.6129575285
 31
0.0
  0
LINE
  5
A5
330
5E
100
AcDbEntity
  8
$DDT_AUDIT_GENERATED_(98)
  6
Continuous
 62
     7
100
AcDbLine
 10
131.4425106705
 20
627.6418805656
 30
0.0
 11
131.4381314902
 21
627.6413038408
 31
0.0
  0
SPLINE
  5
A6
330
5E
100
AcDbEntity
  8
$DDT_AUDIT_GENERATED_(98)
  6
Continuous
 62
     7
100
AcDbSpline
210
0.0
220
0.0
230
1.0
 70
    12
 71
     3
 72
     8
 73
     4
 74
     0
 42
0.000000012476068
 43
0.0000000001
 40
0.0
 40
0.0
 40
0.0
 40
0.0
 40
1.0
 40
1.0
 40
1.0
 40
1.0
 10
131.4425106729542
 20
627.6418805656886
 30
0.0
 41
1.145420715203314
 10
131.4495045857145
 20
627.3747939246215
 30
0.0
 41
0.9515264314949649
 10
131.632562951029
 20
627.1801819457311
 30
0.0
 41
0.9515264282656619
 10
131.898722634029
 20
627.1568750875671
 30
0.0
 41
1.145420705515406
  0
ARC
  5
A7
330
5E
100
AcDbEntity
  8
$DDT_AUDIT_GENERATED_(98)
  6
Continuous
 62
     7
100
AcDbCircle
 10
106.5699686036
 20
607.1665705232
 30
0.0
 40
2.999999999526601
100
AcDbArc
 50
181.499999999
 51
207.5170947389
  0
LINE
  5
A8
330
5E
100
AcDbEntity
  8
$DDT_AUDIT_GENERATED_(98)
  6
Continuous
 62
     7
100
AcDbLine
 10
103.5709966292
 20
607.0880396783
 30
0.0
 11
103.3481927353
 21
615.5965771093
 31
0.0
  0
ARC
  5
A9
330
5E
100
AcDbEntity
  8
$DDT_AUDIT_GENERATED_(98)
  6
Continuous
 62
     7
100
AcDbCircle
 10
281.2971278167
 20
698.1900382948
 30
0.0
 40
200.0148518555112
100
AcDbArc
 50
207.5170939592
 51
217.8375438716
  0
ARC
  5
AA
330
5E
100
AcDbEntity
  8
$DDT_AUDIT_GENERATED_(98)
  6
Continuous
 62
     7
100
AcDbCircle
 10
130.621125202
 20
550.0815555789
 30
0.0
 40
25.91542671261327
100
AcDbArc
 50
85.2495494699
 51
87.7147184555
  0
ARC
  5
AB
330
5E
100
AcDbEntity
  8
$DDT_AUDIT_GENERATED_(98)
  6
Continuous
 62
     7
100
AcDbCircle
 10
130.621125202
 20
550.0815555789
 30
0.0
 40
25.91542671261327
100
AcDbArc
 50
98.3001371204
 51
99.7505100506
  0
LINE
  5
AC
330
5E
100
AcDbEntity
  8
$DDT_AUDIT_GENERATED_(98)
  6
Continuous
 62
     7
100
AcDbLine
 10
120.9617516854
 20
627.3955658317
 30
0.0
 11
103.0596928022
 21
626.6139450608
 31
0.0
  0
LINE
  5
AD
330
5E
100
AcDbEntity
  8
$DDT_AUDIT_GENERATED_(98)
  6
Continuous
 62
     7
100
AcDbLine
 10
133.832414674
 20
626.9875470675
 30
0.0
 11
131.8823159669
 21
627.1583117753
 31
0.0
  0
ARC
  5
AE
330
5E
100
AcDbEntity
  8
$DDT_AUDIT_GENERATED_(98)
  6
Continuous
 62
     7
100
AcDbCircle
 10
38.1613107948
 20
598.9614838697
 30
0.0
 40
99.99999999999984
100
AcDbArc
 50
346.9592706397
 51
16.0617197966
  0
LINE
  5
AF
330
5E
100
AcDbEntity
  8
$DDT_AUDIT_GENERATED_(98)
  6
Continuous
 62
     7
100
AcDbLine
 10
131.4425106705
 20
627.6418805656
 30
0.0
 11
129.7621436559
 21
691.8125079074
 31
0.0
  0
LINE
  5
B0
330
5E
100
AcDbEntity
  8
$DDT_AUDIT_GENERATED_(98)
  6
Continuous
 62
     7
100
AcDbLine
 10
119.7655704061
 20
691.5507384243
 30
0.0
 11
121.4321182399
 21
627.907844305
 31
0.0
  0
ARC
  5
B1
330
5E
100
AcDbEntity
  8
$DDT_AUDIT_GENERATED_(98)
  6
Continuous
 62
     7
100
AcDbCircle
 10
135.0951967097
 20
576.5099413519
 30
0.0
 40
0.4999999999959184
100
AcDbArc
 50
272.5000000002
 51
346.9593155761
  0
LINE
  5
B2
330
5E
100
AcDbEntity
  8
$DDT_AUDIT_GENERATED_(98)
  6
Continuous
 62
     7
100
AcDbLine
 10
132.7224754426
 20
575.9058697615
 30
0.0
 11
135.1170064034
 21
576.0104172411
 31
0.0
  0
LINE
  5
B3
330
5E
100
AcDbEntity
  8
$DDT_AUDIT_GENERATED_(98)
  6
Continuous
 62
     7
100
AcDbLine
 10
123.3322341803
 20
575.4958829738
 30
0.0
 11
126.2319057074
 21
575.6224853668
 31
0.0
  0
LINE
  5
B5
330
5E
100
AcDbEntity
  8
$DDT_AUDIT_GENERATED_(B4)
  6
Continuous
 62
     7
100
AcDbLine
 10
126.8446370188
 20
575.7195324727
 30
0.0
 11
126.1331368733
 21
575.6068419203
 31
0.0
  0
LINE
  5
B6
330
5E
100
AcDbEntity
  8
$DDT_AUDIT_GENERATED_(B4)
  6
Continuous
 62
     7
100
AcDbLine
 10
131.7660392001
 20
575.9927734399
 30
0.0
 11
126.2113541058
 21
575.11299775
 31
0.0
  0
LINE
  5
B7
330
5E
100
AcDbEntity
  8
$DDT_AUDIT_GENERATED_(B4)
  6
Continuous
 62
     7
100
AcDbLine
 10
126.1331368733
 20
575.6068419203
 30
0.0
 11
126.2113541058
 21
575.11299775
 31
0.0
  0
ELLIPSE
  5
B9
330
5E
100
AcDbEntity
  8
$DDT_AUDIT_GENERATED_(B8)
  6
Continuous
 62
     7
100
AcDbEllipse
 10
27.39
 20
730.6214906894
 30
0.0
 11
12.99999999999816
 21
0.0
 31
0.0
210
0.0
220
0.0
230
1.0
 40
0.0174524064
 41
0.1143013266064783
 42
3.027720198818757
  0
ARC
  5
BA
330
5E
100
AcDbEntity
  8
$DDT_AUDIT_GENERATED_(B8)
  6
Continuous
 62
     7
100
AcDbCircle
 10
14.3816951305
 20
731.6217194401
 30
0.0
 40
1.000228823221485
100
AcDbArc
 50
180.0218278823
 51
270.0218128791
  0
ARC
  5
BB
330
5E
100
AcDbEntity
  8
$DDT_AUDIT_GENERATED_(B8)
  6
Continuous
 62
     7
100
AcDbCircle
 10
40.3983048695
 20
731.6217194401
 30
0.0
 40
1.000228823225897
100
AcDbArc
 50
269.9781871211
 51
359.9781721175
  0
LINE
  5
BC
330
5E
100
AcDbEntity
  8
$DDT_AUDIT_GENERATED_(B8)
  6
Continuous
 62
     7
100
AcDbLine
 10
41.3985336202
 20
731.6213383845
 30
0.0
 11
41.3985336202
 21
770.3154441871
 31
0.0
  0
ARC
  5
BD
330
5E
100
AcDbEntity
  8
$DDT_AUDIT_GENERATED_(B8)
  6
Continuous
 62
     7
100
AcDbCircle
 10
41.0984649961
 20
770.3153298715
 30
0.0
 40
0.3000686458422937
100
AcDbArc
 50
0.0218276677
 51
63.3447214766
  0
ELLIPSE
  5
BE
330
5E
100
AcDbEntity
  8
$DDT_AUDIT_GENERATED_(B8)
  6
Continuous
 62
     7
100
AcDbEllipse
 10
27.39
 20
770.6153984956
 30
0.0
 11
-13.69999999999767
 21
2.775557561562891E-14
 31
0.0
210
0.0
220
0.0
230
1.0
 40
0.0174524064
 41
3.197019859137983
 42
6.205666228629115
  0
ARC
  5
BF
330
5E
100
AcDbEntity
  8
$DDT_AUDIT_GENERATED_(B8)
  6
Continuous
 62
     7
100
AcDbCircle
 10
13.6815350039
 20
770.3153298715
 30
0.0
 40
0.3000686458369317
100
AcDbArc
 50
116.6552785239
 51
179.9781723335
  0
LINE
  5
C0
330
5E
100
AcDbEntity
  8
$DDT_AUDIT_GENERATED_(B8)
  6
Continuous
 62
     7
100
AcDbLine
 10
13.3814663798
 20
731.6213383845
 30
0.0
 11
13.3814663798
 21
770.3154441871
 31
0.0
  0
LINE
  5
C1
330
5E
100
AcDbEntity
  8
$DDT_AUDIT_GENERATED_(B8)
  6
Continuous
 62
     7
100
AcDbLine
 10
13.9344806703
 20
730.7271019168
 30
0.0
 11
13.9508691547
 21
730.7189114189
 31
0.0
  0
LINE
  5
C2
330
5E
100
AcDbEntity
  8
$DDT_AUDIT_GENERATED_(B8)
  6
Continuous
 62
     7
100
AcDbLine
 10
40.8291308453
 20
730.7189114189
 30
0.0
 11
40.8455193297
 21
730.7271019168
 31
0.0
  0
LINE
  5
C3
330
5E
100
AcDbEntity
  8
$DDT_AUDIT_GENERATED_(B8)
  6
Continuous
 62
     7
100
AcDbLine
 10
41.232629333
 20
770.5837151274
 30
0.0
 11
41.2157693584
 21
770.5921412628
 31
0.0
  0
ARC
  5
C4
330
5E
100
AcDbEntity
  8
$DDT_AUDIT_GENERATED_(B8)
  6
Continuous
 62
     7
100
AcDbCircle
 10
13.7355794634
 20
770.2432457836
 30
0.0
 40
0.3887010085871998
100
AcDbArc
 50
100.469051216
 51
116.1564819151
  0
LINE
  5
C5
330
5E
100
AcDbEntity
  8
$DDT_AUDIT_GENERATED_(B8)
  6
Continuous
 62
     7
100
AcDbLine
 10
41.2157693584
 20
770.5921412628
 30
0.0
 11
41.164716811
 21
770.6103757884
 31
0.0
  0
LINE
  5
C6
330
5E
100
AcDbEntity
  8
$DDT_AUDIT_GENERATED_(B8)
  6
Continuous
 62
     7
100
AcDbLine
 10
13.5642306416
 20
770.5921412628
 30
0.0
 11
13.547370667
 21
770.5837151274
 31
0.0
  0
LINE
  5
C9
330
5E
100
AcDbEntity
  8
DV1_Standard
  6
CENTER2
 62
     7
100
AcDbLine
 10
53.789999553
 20
512.5814742932
 30
0.0
 11
13.790000447
 21
512.5814742932
 31
0.0
  0
LINE
  5
CA
330
5E
100
AcDbEntity
  8
DV1_Standard
  6
CENTER2
 62
     7
100
AcDbLine
 10
33.79
 20
532.5814738462
 30
0.0
 11
33.79
 21
492.5814747402
 31
0.0
  0
ENDBLK
  5
CC
330
5E
100
AcDbEntity
  8
0
100
AcDbBlockEnd
  0
BLOCK
  5
112
330
CD
100
AcDbEntity
  8
0
100
AcDbBlockBegin
  2
SE1
 70
     0
 10
0.0
 20
0.0
 30
0.0
  3
SE1
  1

  0
CIRCLE
  5
CF
330
CD
100
AcDbEntity
  8
$DDT_AUDIT_GENERATED_(60)
  6
Continuous
 62
     7
100
AcDbCircle
 10
226.674958393
 20
600.7814742932
 30
0.0
 40
26.0
  0
LINE
  5
D0
330
CD
100
AcDbEntity
  8
$DDT_AUDIT_GENERATED_(6D)
  6
Continuous
 62
     7
100
AcDbLine
 10
244.674958393
 20
517.0814742932
 30
0.0
 11
208.674958393
 21
517.0814742932
 31
0.0
  0
LINE
  5
D1
330
CD
100
AcDbEntity
  8
$DDT_AUDIT_GENERATED_(6D)
  6
Continuous
 62
     7
100
AcDbLine
 10
208.674958393
 20
582.0198112539
 30
0.0
 11
208.674958393
 21
517.0814742932
 31
0.0
  0
LINE
  5
D2
330
CD
100
AcDbEntity
  8
$DDT_AUDIT_GENERATED_(6D)
  6
Continuous
 62
     7
100
AcDbLine
 10
244.674958393
 20
517.0814742932
 30
0.0
 11
244.674958393
 21
582.0198112539
 31
0.0
  0
LINE
  5
D3
330
CD
100
AcDbEntity
  8
$DDT_AUDIT_GENERATED_(71)
  6
Continuous
 62
     7
100
AcDbLine
 10
253.674958393
 20
512.5814742932
 30
0.0
 11
199.674958393
 21
512.5814742932
 31
0.0
  0
LINE
  5
D4
330
CD
100
AcDbEntity
  8
$DDT_AUDIT_GENERATED_(71)
  6
Continuous
 62
     7
100
AcDbLine
 10
244.674958393
 20
517.0814742932
 30
0.0
 11
208.674958393
 21
517.0814742932
 31
0.0
  0
LINE
  5
D5
330
CD
100
AcDbEntity
  8
$DDT_AUDIT_GENERATED_(71)
  6
Continuous
 62
     7
100
AcDbLine
 10
199.674958393
 20
515.4624928647
 30
0.0
 11
199.674958393
 21
512.5814742932
 31
0.0
  0
LINE
  5
D6
330
CD
100
AcDbEntity
  8
$DDT_AUDIT_GENERATED_(71)
  6
Continuous
 62
     7
100
AcDbLine
 10
253.674958393
 20
512.5814742932
 30
0.0
 11
253.674958393
 21
515.4624928647
 31
0.0
  0
ARC
  5
D7
330
CD
100
AcDbEntity
  8
$DDT_AUDIT_GENERATED_(71)
  6
Continuous
 62
     7
100
AcDbCircle
 10
217.3777039061
 20
417.4608829452
 30
0.0
 40
100.0
100
AcDbArc
 50
94.9926216254
 51
99.9560038527
  0
ARC
  5
D8
330
CD
100
AcDbEntity
  8
$DDT_AUDIT_GENERATED_(71)
  6
Continuous
 62
     7
100
AcDbCircle
 10
235.97221288
 20
417.4608829452
 30
0.0
 40
100.0
100
AcDbArc
 50
80.0439961473
 51
85.0073783746
  0
ARC
  5
D9
330
CD
100
AcDbEntity
  8
$DDT_AUDIT_GENERATED_(71)
  6
Continuous
 62
     7
100
AcDbCircle
 10
253.174958393
 20
515.4624928647
 30
0.0
 40
0.5000000000000004
100
AcDbArc
 50
0.0
 51
80.0439961473
  0
ARC
  5
DA
330
CD
100
AcDbEntity
  8
$DDT_AUDIT_GENERATED_(71)
  6
Continuous
 62
     7
100
AcDbCircle
 10
200.174958393
 20
515.4624928647
 30
0.0
 40
0.5000000000000148
100
AcDbArc
 50
99.9560038527
 51
180.0
  0
LINE
  5
DB
330
CD
100
AcDbEntity
  8
$DDT_AUDIT_GENERATED_(7A)
  6
Continuous
 62
     7
100
AcDbLine
 10
463.6655154927
 20
804.8980691523
 30
0.0
 11
464.1689043611
 21
776.0589402006
 31
0.0
  0
LINE
  5
DC
330
CD
100
AcDbEntity
  8
$DDT_AUDIT_GENERATED_(7A)
  6
Continuous
 62
     7
100
AcDbLine
 10
436.1644426935
 20
776.0701966679
 30
0.0
 11
435.8721148856
 21
792.8176455618
 31
0.0
  0
ARC
  5
DD
330
CD
100
AcDbEntity
  8
$DDT_AUDIT_GENERATED_(7A)
  6
Continuous
 62
     7
100
AcDbCircle
 10
401.674958393
 20
803.8160199532
 30
0.0
 40
34.0000000000002
100
AcDbArc
 50
1.0
 51
90.0
  0
ARC
  5
DE
330
CD
100
AcDbEntity
  8
$DDT_AUDIT_GENERATED_(7A)
  6
Continuous
 62
     7
100
AcDbCircle
 10
401.674958393
 20
803.8160199532
 30
0.0
 40
62.0000000000005
100
AcDbArc
 50
1.0
 51
90.0
  0
ARC
  5
DF
330
CD
100
AcDbEntity
  8
$DDT_AUDIT_GENERATED_(7A)
  6
Continuous
 62
     7
100
AcDbCircle
 10
274.674958393
 20
803.8160199532
 30
0.0
 40
34.00000000000003
100
AcDbArc
 50
90.0
 51
180.0
  0
ARC
  5
E0
330
CD
100
AcDbEntity
  8
$DDT_AUDIT_GENERATED_(7A)
  6
Continuous
 62
     7
100
AcDbCircle
 10
274.674958393
 20
803.8160199532
 30
0.0
 40
62.0
100
AcDbArc
 50
90.0
 51
180.0
  0
LINE
  5
E1
330
CD
100
AcDbEntity
  8
$DDT_AUDIT_GENERATED_(7A)
  6
Continuous
 62
     7
100
AcDbLine
 10
435.7761266502
 20
798.3168078851
 30
0.0
 11
435.6697800284
 21
804.4094017721
 31
0.0
  0
ARC
  5
E2
330
CD
100
AcDbEntity
  8
$DDT_AUDIT_GENERATED_(7A)
  6
Continuous
 62
     7
100
AcDbCircle
 10
422.0797076749
 20
795.3273171005
 30
0.0
 40
14.0188782682684
100
AcDbArc
 50
349.6872675646
 51
12.3127324353
  0
ARC
  5
E3
330
CD
100
AcDbEntity
  8
$DDT_AUDIT_GENERATED_(7A)
  6
Continuous
 62
     7
100
AcDbCircle
 10
422.0797076749
 20
795.3273171005
 30
0.0
 40
14.01887826826784
100
AcDbArc
 50
12.2711411984
 51
12.3127324353
  0
LINE
  5
E4
330
CD
100
AcDbEntity
  8
$DDT_AUDIT_GENERATED_(7A)
  6
Continuous
 62
     7
100
AcDbLine
 10
436.4166466117
 20
775.5745227397
 30
0.0
 11
464.1689519134
 21
776.0589410306
 31
0.0
  0
LINE
  5
E5
330
CD
100
AcDbEntity
  8
$DDT_AUDIT_GENERATED_(7A)
  6
Continuous
 62
     7
100
AcDbLine
 10
436.4166466117
 20
775.5745227397
 30
0.0
 11
436.5039086438
 21
770.5752842639
 31
0.0
  0
LINE
  5
E6
330
CD
100
AcDbEntity
  8
$DDT_AUDIT_GENERATED_(7A)
  6
Continuous
 62
     7
100
AcDbLine
 10
436.4079526825
 20
776.0744471506
 30
0.0
 11
436.1644426935
 21
776.0701966679
 31
0.0
  0
LINE
  5
E7
330
CD
100
AcDbEntity
  8
$DDT_AUDIT_GENERATED_(7A)
  6
Continuous
 62
     7
100
AcDbLine
 10
436.4079526825
 20
776.0744471506
 30
0.0
 11
436.4166788857
 21
775.574523303
 31
0.0
  0
LINE
  5
E8
330
CD
100
AcDbEntity
  8
$DDT_AUDIT_GENERATED_(7A)
  6
Continuous
 62
     7
100
AcDbLine
 10
274.674958393
 20
837.8160199532
 30
0.0
 11
401.674958393
 21
837.8160199532
 31
0.0
  0
LINE
  5
E9
330
CD
100
AcDbEntity
  8
$DDT_AUDIT_GENERATED_(7A)
  6
Continuous
 62
     7
100
AcDbLine
 10
401.674958393
 20
865.8160199532
 30
0.0
 11
274.674958393
 21
865.8160199532
 31
0.0
  0
LINE
  5
EA
330
CD
100
AcDbEntity
  8
$DDT_AUDIT_GENERATED_(7A)
  6
Continuous
 62
     7
100
AcDbLine
 10
240.674958393
 20
622.6903765934
 30
0.0
 11
240.674958393
 21
803.8160199532
 31
0.0
  0
LINE
  5
EB
330
CD
100
AcDbEntity
  8
$DDT_AUDIT_GENERATED_(7A)
  6
Continuous
 62
     7
100
AcDbLine
 10
212.674958393
 20
803.8160199532
 30
0.0
 11
212.674958393
 21
622.6903765934
 31
0.0
  0
LINE
  5
EC
330
CD
100
AcDbEntity
  8
$DDT_AUDIT_GENERATED_(7A)
  6
Continuous
 62
     7
100
AcDbLine
 10
464.2562139456
 20
771.0597025548
 30
0.0
 11
464.1689519134
 21
776.0589410306
 31
0.0
  0
LINE
  5
EE
330
CD
100
AcDbEntity
  8
$DDT_AUDIT_GENERATED_(ED)
  6
Continuous
 62
     7
100
AcDbLine
 10
437.5635019928
 20
770.393749069
 30
0.0
 11
436.4711381256
 21
770.3746817867
 31
0.0
  0
LINE
  5
EF
330
CD
100
AcDbEntity
  8
$DDT_AUDIT_GENERATED_(ED)
  6
Continuous
 62
     7
100
AcDbLine
 10
435.8598982011
 20
793.5175389484
 30
0.0
 11
435.8328469712
 21
795.0673028759
 31
0.0
  0
LINE
  5
F0
330
CD
100
AcDbEntity
  8
$DDT_AUDIT_GENERATED_(ED)
  6
Continuous
 62
     7
100
AcDbLine
 10
436.0485308779
 20
794.1705178313
 30
0.0
 11
436.0249604817
 21
795.5208649261
 31
0.0
  0
LINE
  5
F1
330
CD
100
AcDbEntity
  8
$DDT_AUDIT_GENERATED_(ED)
  6
Continuous
 62
     7
100
AcDbLine
 10
435.8328469712
 20
795.0673028759
 30
0.0
 11
436.0249604817
 21
795.5208649261
 31
0.0
  0
LINE
  5
F2
330
CD
100
AcDbEntity
  8
$DDT_AUDIT_GENERATED_(ED)
  6
Continuous
 62
     7
100
AcDbLine
 10
435.8598982011
 20
793.5175389484
 30
0.0
 11
435.9662211624
 21
793.4148640582
 31
0.0
  0
LINE
  5
F4
330
CD
100
AcDbEntity
  8
$DDT_AUDIT_GENERATED_(F3)
  6
Continuous
 62
     7
100
AcDbLine
 10
436.6395539911
 20
762.3575126063
 30
0.0
 11
435.2922650261
 21
762.3222326031
 31
0.0
  0
LINE
  5
F5
330
CD
100
AcDbEntity
  8
$DDT_AUDIT_GENERATED_(F3)
  6
Continuous
 62
     7
100
AcDbLine
 10
435.4657193073
 20
752.385043484
 30
0.0
 11
436.8135305786
 21
752.3968056548
 31
0.0
  0
ARC
  5
F6
330
CD
100
AcDbEntity
  8
$DDT_AUDIT_GENERATED_(F3)
  6
Continuous
 62
     7
100
AcDbCircle
 10
435.3184419744
 20
761.3225752781
 30
0.0
 40
0.9999999999999343
100
AcDbArc
 50
91.5000000001
 51
163.9006878118
  0
ARC
  5
F7
330
CD
100
AcDbEntity
  8
$DDT_AUDIT_GENERATED_(F3)
  6
Continuous
 62
     7
100
AcDbCircle
 10
435.4569927718
 20
753.3850054071
 30
0.0
 40
0.9999999999999029
100
AcDbArc
 50
198.0993121882
 51
270.4999999999
  0
ARC
  5
F8
330
CD
100
AcDbEntity
  8
$DDT_AUDIT_GENERATED_(F3)
  6
Continuous
 62
     7
100
AcDbCircle
 10
448.2890054967
 20
757.5789831644
 30
0.0
 40
14.49999999999844
100
AcDbArc
 50
163.9006878118
 51
198.0993121882
  0
LINE
  5
F9
330
CD
100
AcDbEntity
  8
$DDT_AUDIT_GENERATED_(B8)
  6
Continuous
 62
     7
100
AcDbLine
 10
463.9579054369
 20
730.8483719731
 30
0.0
 11
451.4135097573
 21
730.629408732
 31
0.0
  0
LINE
  5
FA
330
CD
100
AcDbEntity
  8
$DDT_AUDIT_GENERATED_(B8)
  6
Continuous
 62
     7
100
AcDbLine
 10
437.9618653628
 20
730.3946094057
 30
0.0
 11
450.5062610424
 21
730.6135726468
 31
0.0
  0
LINE
  5
FB
330
CD
100
AcDbEntity
  8
$DDT_AUDIT_GENERATED_(B8)
  6
Continuous
 62
     7
100
AcDbLine
 10
451.4135097573
 20
730.629408732
 30
0.0
 11
450.9598853999
 21
730.6214906894
 31
0.0
  0
LINE
  5
FC
330
CD
100
AcDbEntity
  8
$DDT_AUDIT_GENERATED_(B8)
  6
Continuous
 62
     7
100
AcDbLine
 10
450.9598853999
 20
730.6214906894
 30
0.0
 11
450.5062610424
 21
730.6135726468
 31
0.0
  0
LINE
  5
FD
330
CD
100
AcDbEntity
  8
$DDT_AUDIT_GENERATED_(B8)
  6
Continuous
 62
     7
100
AcDbLine
 10
463.959702566
 20
770.8544964638
 30
0.0
 11
450.7398394267
 21
770.6237428944
 31
0.0
  0
LINE
  5
FE
330
CD
100
AcDbEntity
  8
$DDT_AUDIT_GENERATED_(B8)
  6
Continuous
 62
     7
100
AcDbLine
 10
436.7757005107
 20
770.3799979429
 30
0.0
 11
449.783738858
 21
770.6070540969
 31
0.0
  0
LINE
  5
FF
330
CD
100
AcDbEntity
  8
$DDT_AUDIT_GENERATED_(B8)
  6
Continuous
 62
     7
100
AcDbLine
 10
449.783738858
 20
770.6070540969
 30
0.0
 11
450.2617891423
 21
770.6153984956
 31
0.0
  0
LINE
  5
100
330
CD
100
AcDbEntity
  8
$DDT_AUDIT_GENERATED_(B8)
  6
Continuous
 62
     7
100
AcDbLine
 10
450.2617891423
 20
770.6153984956
 30
0.0
 11
450.7398394267
 21
770.6237428944
 31
0.0
  0
ARC
  5
101
330
CD
100
AcDbEntity
  8
$DDT_AUDIT_GENERATED_(B8)
  6
Continuous
 62
     7
100
AcDbCircle
 10
422.7284718334
 20
757.3198625079
 30
0.0
 40
14.92846587861566
100
AcDbArc
 50
338.1916707249
 51
0.2822264837
  0
ARC
  5
102
330
CD
100
AcDbEntity
  8
$DDT_AUDIT_GENERATED_(B8)
  6
Continuous
 62
     7
100
AcDbCircle
 10
422.7349994379
 20
756.9458962113
 30
0.0
 40
14.9284658800804
100
AcDbArc
 50
1.7177735167
 51
23.8083292736
  0
LINE
  5
103
330
CD
100
AcDbEntity
  8
$DDT_AUDIT_GENERATED_(B8)
  6
Continuous
 62
     7
100
AcDbLine
 10
464.3543870673
 20
765.4326430793
 30
0.0
 11
464.2648925965
 21
770.5597778772
 31
0.0
  0
LINE
  5
104
330
CD
100
AcDbEntity
  8
$DDT_AUDIT_GENERATED_(B8)
  6
Continuous
 62
     7
100
AcDbLine
 10
464.9403007256
 20
731.8656720747
 30
0.0
 11
464.4522473056
 21
759.8262337794
 31
0.0
  0
ARC
  5
105
330
CD
100
AcDbEntity
  8
$DDT_AUDIT_GENERATED_(B8)
  6
Continuous
 62
     7
100
AcDbCircle
 10
463.9404530304
 20
731.8482196682
 30
0.0
 40
0.9999999999999831
100
AcDbArc
 50
271.0
 51
1.0
  0
ARC
  5
106
330
CD
100
AcDbEntity
  8
$DDT_AUDIT_GENERATED_(B8)
  6
Continuous
 62
     7
100
AcDbCircle
 10
437.9444129564
 20
731.3944571009
 30
0.0
 40
1.000000000000011
100
AcDbArc
 50
181.0
 51
271.0
  0
ARC
  5
107
330
CD
100
AcDbEntity
  8
$DDT_AUDIT_GENERATED_(B8)
  6
Continuous
 62
     7
100
AcDbCircle
 10
463.9649382879
 20
770.5545421553
 30
0.0
 40
0.3000000000000116
100
AcDbArc
 50
1.0
 51
91.0
  0
LINE
  5
108
330
CD
100
AcDbEntity
  8
$DDT_AUDIT_GENERATED_(B8)
  6
Continuous
 62
     7
100
AcDbLine
 10
436.5885362071
 20
751.7738955447
 30
0.0
 11
436.9445652612
 21
731.3770046944
 31
0.0
  0
LINE
  5
109
330
CD
100
AcDbEntity
  8
$DDT_AUDIT_GENERATED_(B8)
  6
Continuous
 62
     7
100
AcDbLine
 10
436.2691571321
 20
770.071110497
 30
0.0
 11
436.3930691806
 21
762.9721939923
 31
0.0
  0
ARC
  5
10A
330
CD
100
AcDbEntity
  8
$DDT_AUDIT_GENERATED_(B8)
  6
Continuous
 62
     7
100
AcDbCircle
 10
436.5691114406
 20
770.0763462189
 30
0.0
 40
0.2999999999999839
100
AcDbArc
 50
91.0
 51
181.0
  0
ARC
  5
10B
330
CD
100
AcDbEntity
  8
$DDT_AUDIT_GENERATED_(B8)
  6
Continuous
 62
     7
100
AcDbCircle
 10
436.6794371974
 20
762.9707762048
 30
0.0
 40
0.285035193237668
100
AcDbArc
 50
179.8454870695
 51
214.6573197104
  0
ARC
  5
10C
330
CD
100
AcDbEntity
  8
$DDT_AUDIT_GENERATED_(B8)
  6
Continuous
 62
     7
100
AcDbCircle
 10
436.8746802915
 20
751.7853065697
 30
0.0
 40
0.2850351885095316
100
AcDbArc
 50
147.3426800043
 51
182.154514004
  0
LINE
  5
10D
330
CD
100
AcDbEntity
  8
$DDT_AUDIT_GENERATED_(B8)
  6
Continuous
 62
     7
100
AcDbLine
 10
464.3882484109
 20
765.4382293657
 30
0.0
 11
464.3860641242
 21
765.4381912388
 31
0.0
  0
LINE
  5
10F
330
CD
100
AcDbEntity
  8
DV2_Standard
  6
Continuous
 62
     7
100
AcDbLine
 10
464.3543870673
 20
765.4326430793
 30
0.0
 11
464.4522473056
 21
759.8262337794
 31
0.0
  0
LINE
  5
110
330
CD
100
AcDbEntity
  8
DV2_Standard
  6
CENTER2
 62
     7
100
AcDbLine
 10
246.674957946
 20
512.5814742932
 30
0.0
 11
206.6749588401
 21
512.5814742932
 31
0.0
  0
LINE
  5
111
330
CD
100
AcDbEntity
  8
DV2_Standard
  6
CENTER2
 62
     7
100
AcDbLine
 10
226.674958393
 20
532.5814738462
 30
0.0
 11
226.674958393
 21
492.5814747402
 31
0.0
  0
ENDBLK
  5
113
330
CD
100
AcDbEntity
  8
0
100
AcDbBlockEnd
  0
BLOCK
  5
167
330
114
100
AcDbEntity
  8
0
100
AcDbBlockBegin
  2
SE2
 70
     0
 10
0.0
 20
0.0
 30
0.0
  3
SE2
  1

  0
LINE
  5
116
330
114
100
AcDbEntity
  8
$DDT_AUDIT_GENERATED_(60)
  6
Continuous
 62
     7
100
AcDbLine
 10
78.69
 20
370.1153423325
 30
0.0
 11
78.69
 21
319.1153423325
 31
0.0
  0
ARC
  5
117
330
114
100
AcDbEntity
  8
$DDT_AUDIT_GENERATED_(60)
  6
Continuous
 62
     7
100
AcDbCircle
 10
106.35
 20
344.6153423325
 30
0.0
 40
100.0
100
AcDbArc
 50
165.1504721945
 51
194.8495278055
  0
ARC
  5
118
330
114
100
AcDbEntity
  8
$DDT_AUDIT_GENERATED_(60)
  6
Continuous
 62
     7
100
AcDbCircle
 10
78.19
 20
319.1153423325
 30
0.0
 40
0.5000000000000004
100
AcDbArc
 50
270.0
 51
0.0
  0
ARC
  5
119
330
114
100
AcDbEntity
  8
$DDT_AUDIT_GENERATED_(60)
  6
Continuous
 62
     7
100
AcDbCircle
 10
78.19
 20
370.1153423325
 30
0.0
 40
0.5000000000000004
100
AcDbArc
 50
0.0
 51
90.0
  0
ARC
  5
11A
330
114
100
AcDbEntity
  8
$DDT_AUDIT_GENERATED_(60)
  6
Continuous
 62
     7
100
AcDbCircle
 10
10.1730796916
 20
370.1153423325
 30
0.0
 40
0.5000000000000004
100
AcDbArc
 50
90.0
 51
165.1504721945
  0
ARC
  5
11B
330
114
100
AcDbEntity
  8
$DDT_AUDIT_GENERATED_(60)
  6
Continuous
 62
     7
100
AcDbCircle
 10
10.1730796916
 20
319.1153423325
 30
0.0
 40
0.4999999999999919
100
AcDbArc
 50
194.8495278055
 51
270.0
  0
LINE
  5
11C
330
114
100
AcDbEntity
  8
$DDT_AUDIT_GENERATED_(60)
  6
Continuous
 62
     7
100
AcDbLine
 10
78.19
 20
370.6153423325
 30
0.0
 11
10.1730796916
 21
370.6153423325
 31
0.0
  0
LINE
  5
11D
330
114
100
AcDbEntity
  8
$DDT_AUDIT_GENERATED_(60)
  6
Continuous
 62
     7
100
AcDbLine
 10
10.1730796916
 20
318.6153423325
 30
0.0
 11
13.39
 21
318.6153423325
 31
0.0
  0
LINE
  5
11E
330
114
100
AcDbEntity
  8
$DDT_AUDIT_GENERATED_(60)
  6
Continuous
 62
     7
100
AcDbLine
 10
41.39
 20
318.6153423325
 30
0.0
 11
78.19
 21
318.6153423325
 31
0.0
  0
ARC
  5
11F
330
114
100
AcDbEntity
  8
$DDT_AUDIT_GENERATED_(71)
  6
Continuous
 62
     7
100
AcDbCircle
 10
33.79
 20
344.6153423325
 30
0.0
 40
26.99999999999999
100
AcDbArc
 50
74.357528987
 51
105.642471013
  0
LINE
  5
120
330
114
100
AcDbEntity
  8
$DDT_AUDIT_GENERATED_(7A)
  6
Continuous
 62
     7
100
AcDbLine
 10
41.39
 20
296.6153423325
 30
0.0
 11
41.39
 21
169.6153423325
 31
0.0
  0
LINE
  5
121
330
114
100
AcDbEntity
  8
$DDT_AUDIT_GENERATED_(7A)
  6
Continuous
 62
     7
100
AcDbLine
 10
13.39
 20
169.6153423325
 30
0.0
 11
13.39
 21
296.6153423325
 31
0.0
  0
ARC
  5
122
330
114
100
AcDbEntity
  8
$DDT_AUDIT_GENERATED_(7A)
  6
Continuous
 62
     7
100
AcDbCircle
 10
27.39
 20
344.6153423325
 30
0.0
 40
14.0
100
AcDbArc
 50
0.0
 51
90.0
  0
ARC
  5
123
330
114
100
AcDbEntity
  8
$DDT_AUDIT_GENERATED_(7A)
  6
Continuous
 62
     7
100
AcDbCircle
 10
27.39
 20
344.6153423325
 30
0.0
 40
14.0
100
AcDbArc
 50
90.0
 51
180.0
  0
LINE
  5
124
330
114
100
AcDbEntity
  8
$DDT_AUDIT_GENERATED_(7A)
  6
Continuous
 62
     7
100
AcDbLine
 10
41.39
 20
121.1192640967
 30
0.0
 11
41.39
 21
121.622652965
 31
0.0
  0
LINE
  5
125
330
114
100
AcDbEntity
  8
$DDT_AUDIT_GENERATED_(7A)
  6
Continuous
 62
     7
100
AcDbLine
 10
13.39
 20
121.622652965
 30
0.0
 11
13.39
 21
121.1192640967
 31
0.0
  0
LINE
  5
126
330
114
100
AcDbEntity
  8
$DDT_AUDIT_GENERATED_(7A)
  6
Continuous
 62
     7
100
AcDbLine
 10
41.39
 20
121.622652965
 30
0.0
 11
41.39
 21
169.6153423325
 31
0.0
  0
LINE
  5
127
330
114
100
AcDbEntity
  8
$DDT_AUDIT_GENERATED_(7A)
  6
Continuous
 62
     7
100
AcDbLine
 10
13.39
 20
169.6153423325
 30
0.0
 11
13.39
 21
121.622652965
 31
0.0
  0
LINE
  5
128
330
114
100
AcDbEntity
  8
$DDT_AUDIT_GENERATED_(7A)
  6
Continuous
 62
     7
100
AcDbLine
 10
41.39
 20
296.6153423325
 30
0.0
 11
41.39
 21
344.6153423325
 31
0.0
  0
LINE
  5
129
330
114
100
AcDbEntity
  8
$DDT_AUDIT_GENERATED_(7A)
  6
Continuous
 62
     7
100
AcDbLine
 10
13.39
 20
344.6153423325
 30
0.0
 11
13.39
 21
296.6153423325
 31
0.0
  0
LINE
  5
12A
330
114
100
AcDbEntity
  8
$DDT_AUDIT_GENERATED_(7A)
  6
Continuous
 62
     7
100
AcDbLine
 10
13.3899291137
 20
121.1192528711
 30
0.0
 11
13.3899291137
 21
121.031990839
 31
0.0
  0
LINE
  5
12B
330
114
100
AcDbEntity
  8
$DDT_AUDIT_GENERATED_(7A)
  6
Continuous
 62
     7
100
AcDbLine
 10
41.3900017782
 20
121.031990839
 30
0.0
 11
41.3900017782
 21
121.1192528711
 31
0.0
  0
LINE
  5
12C
330
114
100
AcDbEntity
  8
$DDT_AUDIT_GENERATED_(89)
  6
Continuous
 62
     7
100
AcDbLine
 10
101.99
 20
369.9163609171
 30
0.0
 11
101.99
 21
319.314323748
 31
0.0
  0
LINE
  5
12D
330
114
100
AcDbEntity
  8
$DDT_AUDIT_GENERATED_(89)
  6
Continuous
 62
     7
100
AcDbLine
 10
78.69
 20
319.1153423326
 30
0.0
 11
78.69
 21
370.1153423325
 31
0.0
  0
LINE
  5
12E
330
114
100
AcDbEntity
  8
$DDT_AUDIT_GENERATED_(89)
  6
Continuous
 62
     7
100
AcDbLine
 10
79.1899809635
 20
370.6109792886
 30
0.0
 11
79.1899809635
 21
318.6197053765
 31
0.0
  0
ARC
  5
12F
330
114
100
AcDbEntity
  8
$DDT_AUDIT_GENERATED_(89)
  6
Continuous
 62
     7
100
AcDbCircle
 10
95.92
 20
344.6153423325
 30
0.0
 40
25.00000000000011
100
AcDbArc
 50
284.0518577574
 51
287.5767469425
  0
ARC
  5
130
330
114
100
AcDbEntity
  8
$DDT_AUDIT_GENERATED_(89)
  6
Continuous
 62
     7
100
AcDbCircle
 10
95.92
 20
344.6153423325
 30
0.0
 40
25.00000000000012
100
AcDbArc
 50
72.4415965413
 51
75.9481422426
  0
LINE
  5
131
330
114
100
AcDbEntity
  8
$DDT_AUDIT_GENERATED_(89)
  6
Continuous
 62
     7
100
AcDbLine
 10
79.1899809635
 20
318.6197053765
 30
0.0
 11
101.4943630439
 21
318.8143427845
 31
0.0
  0
LINE
  5
132
330
114
100
AcDbEntity
  8
$DDT_AUDIT_GENERATED_(89)
  6
Continuous
 62
     7
100
AcDbLine
 10
101.4943630439
 20
370.4163418806
 30
0.0
 11
79.1899809635
 21
370.6109792886
 31
0.0
  0
ARC
  5
133
330
114
100
AcDbEntity
  8
$DDT_AUDIT_GENERATED_(89)
  6
Continuous
 62
     7
100
AcDbCircle
 10
101.49
 20
369.9163609171
 30
0.0
 40
0.5000000000000004
100
AcDbArc
 50
0.0
 51
89.500025649
  0
ARC
  5
134
330
114
100
AcDbEntity
  8
$DDT_AUDIT_GENERATED_(89)
  6
Continuous
 62
     7
100
AcDbCircle
 10
101.49
 20
319.314323748
 30
0.0
 40
0.5000000000000024
100
AcDbArc
 50
270.499974351
 51
0.0
  0
LINE
  5
135
330
114
100
AcDbEntity
  8
$DDT_AUDIT_GENERATED_(89)
  6
Continuous
 62
     7
100
AcDbLine
 10
79.1899809635
 20
370.6109792886
 30
0.0
 11
78.69
 21
370.1153423325
 31
0.0
  0
LINE
  5
136
330
114
100
AcDbEntity
  8
$DDT_AUDIT_GENERATED_(89)
  6
Continuous
 62
     7
100
AcDbLine
 10
78.69
 20
319.1153423325
 30
0.0
 11
79.1899809635
 21
318.6197053765
 31
0.0
  0
ARC
  5
137
330
114
100
AcDbEntity
  8
$DDT_AUDIT_GENERATED_(98)
  6
Continuous
 62
     7
100
AcDbCircle
 10
462.8202249863
 20
351.8811375954
 30
0.0
 40
336.3561814149002
100
AcDbArc
 50
177.652554933
 51
180.307861098
  0
ARC
  5
138
330
114
100
AcDbEntity
  8
$DDT_AUDIT_GENERATED_(98)
  6
Continuous
 62
     7
100
AcDbCircle
 10
1094.1284871294
 20
344.6803423325
 30
0.0
 40
991.068794327667
100
AcDbArc
 50
179.9869112065
 51
180.013088782
  0
ARC
  5
139
330
114
100
AcDbEntity
  8
$DDT_AUDIT_GENERATED_(98)
  6
Continuous
 62
     7
100
AcDbCircle
 10
472.3948742034
 20
337.649979308
 30
0.0
 40
345.9298477056577
100
AcDbArc
 50
179.7288878433
 51
182.3106953525
  0
ARC
  5
13A
330
114
100
AcDbEntity
  8
$DDT_AUDIT_GENERATED_(98)
  6
Continuous
 62
     7
100
AcDbCircle
 10
130.2684473173
 20
349.9549385544
 30
0.0
 40
3.801408251475353
100
AcDbArc
 50
178.2075848318
 51
184.1440929182
  0
ARC
  5
13B
330
114
100
AcDbEntity
  8
$DDT_AUDIT_GENERATED_(98)
  6
Continuous
 62
     7
100
AcDbCircle
 10
126.4484575476
 20
344.686506665
 30
0.0
 40
4.993804488426973
100
AcDbArc
 50
2.430770903
 51
89.6727726889
  0
ARC
  5
13C
330
114
100
AcDbEntity
  8
$DDT_AUDIT_GENERATED_(98)
  6
Continuous
 62
     7
100
AcDbCircle
 10
124.7619905446
 20
344.6804449586
 30
0.0
 40
5.000102547384517
100
AcDbArc
 50
346.2389585948
 51
359.998824156
  0
ARC
  5
13D
330
114
100
AcDbEntity
  8
$DDT_AUDIT_GENERATED_(98)
  6
Continuous
 62
     7
100
AcDbCircle
 10
124.7619905446
 20
344.6804449586
 30
0.0
 40
5.000102547384517
100
AcDbArc
 50
269.9976772022
 51
346.2389585948
  0
ARC
  5
13E
330
114
100
AcDbEntity
  8
$DDT_AUDIT_GENERATED_(98)
  6
Continuous
 62
     7
100
AcDbCircle
 10
130.2989497501
 20
339.4051219193
 30
0.0
 40
3.8318764558064
100
AcDbArc
 50
175.8795575559
 51
181.7688209973
  0
ARC
  5
13F
330
114
100
AcDbEntity
  8
$DDT_AUDIT_GENERATED_(98)
  6
Continuous
 62
     7
100
AcDbCircle
 10
124.7636665527
 20
344.6822966295
 30
0.0
 40
4.998045963766082
100
AcDbArc
 50
90.0212405765
 51
180.0224035572
  0
ARC
  5
140
330
114
100
AcDbEntity
  8
$DDT_AUDIT_GENERATED_(98)
  6
Continuous
 62
     7
100
AcDbCircle
 10
124.7619853735
 20
344.6802345342
 30
0.0
 40
5.00010771856198
100
AcDbArc
 50
13.7813930698
 51
90.0019673379
  0
ARC
  5
141
330
114
100
AcDbEntity
  8
$DDT_AUDIT_GENERATED_(98)
  6
Continuous
 62
     7
100
AcDbCircle
 10
124.7619853735
 20
344.6802345342
 30
0.0
 40
5.00010771856198
100
AcDbArc
 50
0.0012353916
 51
13.7813930698
  0
ARC
  5
142
330
114
100
AcDbEntity
  8
$DDT_AUDIT_GENERATED_(98)
  6
Continuous
 62
     7
100
AcDbCircle
 10
756.7361924303
 20
342.8519456818
 30
0.0
 40
653.6784368058837
100
AcDbArc
 50
179.8595829221
 51
181.7080386212
  0
ELLIPSE
  5
143
330
114
100
AcDbEntity
  8
$DDT_AUDIT_GENERATED_(98)
  6
Continuous
 62
     7
100
AcDbEllipse
 10
134.9250819295
 20
344.6803423325
 30
0.0
 11
1.046251835168377E-7
 21
-25.10681546381002
 31
0.0
210
0.0
220
0.0
230
1.0
 40
0.0261769454
 41
0.0604619658724903
 42
0.1011294743907958
  0
ELLIPSE
  5
144
330
114
100
AcDbEntity
  8
$DDT_AUDIT_GENERATED_(98)
  6
Continuous
 62
     7
100
AcDbEllipse
 10
134.9250819295
 20
344.6803423325
 30
0.0
 11
1.046251835168377E-7
 21
-25.10681546381002
 31
0.0
210
0.0
220
0.0
230
1.0
 40
0.0261769454
 41
-3.24272244312488
 42
-3.210509492418915
  0
ARC
  5
145
330
114
100
AcDbEntity
  8
$DDT_AUDIT_GENERATED_(98)
  6
Continuous
 62
     7
100
AcDbCircle
 10
126.4484746691
 20
344.6741733939
 30
0.0
 40
4.993799794901527
100
AcDbArc
 50
270.3270301579
 51
357.6659604591
  0
LINE
  5
146
330
114
100
AcDbEntity
  8
$DDT_AUDIT_GENERATED_(98)
  6
Continuous
 62
     7
100
AcDbLine
 10
131.4425106705
 20
344.6803423325
 30
0.0
 11
131.4381314902
 21
344.4707988555
 31
0.0
  0
LINE
  5
147
330
114
100
AcDbEntity
  8
$DDT_AUDIT_GENERATED_(98)
  6
Continuous
 62
     7
100
AcDbLine
 10
131.4376802426
 20
344.900409966
 30
0.0
 11
131.4425106705
 21
344.6803423325
 31
0.0
  0
ARC
  5
148
330
114
100
AcDbEntity
  8
$DDT_AUDIT_GENERATED_(98)
  6
Continuous
 62
     7
100
AcDbCircle
 10
124.763507102
 20
344.6782286975
 30
0.0
 40
4.997886577888393
100
AcDbArc
 50
179.975769492
 51
269.9802903552
  0
ARC
  5
149
330
114
100
AcDbEntity
  8
$DDT_AUDIT_GENERATED_(98)
  6
Continuous
 62
     7
100
AcDbCircle
 10
756.8139554376
 20
346.5076751236
 30
0.0
 40
653.7561969732552
100
AcDbArc
 50
178.2920713204
 51
180.1403071269
  0
SPLINE
  5
14A
330
114
100
AcDbEntity
  8
$DDT_AUDIT_GENERATED_(98)
  6
Continuous
 62
     7
100
AcDbSpline
210
0.0
220
0.0
230
1.0
 70
     8
 71
     3
 72
    10
 73
     6
 74
     0
 42
0.0000000210109957
 43
0.0000000001
 40
0.0
 40
0.0
 40
0.0
 40
0.0
 40
0.5
 40
0.5
 40
1.0
 40
1.0
 40
1.0
 40
1.0
 10
103.5709966291568
 20
319.4652663105986
 30
0.0
 10
103.5769322490839
 20
319.4076096695132
 30
0.0
 10
103.6081600920847
 20
319.354502854873
 30
0.0
 10
103.7205741308792
 20
319.2566978947238
 30
0.0
 10
103.8027777767612
 20
319.2117866432662
 30
0.0
 10
103.9093495241584
 20
319.1721778493412
 30
0.0
  0
ELLIPSE
  5
14B
330
114
100
AcDbEntity
  8
$DDT_AUDIT_GENERATED_(98)
  6
Continuous
 62
     7
100
AcDbEllipse
 10
103.7388313132
 20
344.6803423325
 30
0.0
 11
-3.469446951953614E-13
 21
-26.01745508411326
 31
0.0
210
0.0
220
0.0
230
1.0
 40
0.0261769483
 41
-0.6108652381820612
 42
-0.2489974431181441
  0
ELLIPSE
  5
14C
330
114
100
AcDbEntity
  8
$DDT_AUDIT_GENERATED_(98)
  6
Continuous
 62
     7
100
AcDbEllipse
 10
103.7388313132
 20
344.6803423325
 30
0.0
 11
0.0
 21
25.21563456025393
 31
0.0
210
0.0
220
0.0
230
1.0
 40
1.0
 41
0.0066560261605895
 42
0.0183272442901323
  0
SPLINE
  5
14D
330
114
100
AcDbEntity
  8
$DDT_AUDIT_GENERATED_(98)
  6
Continuous
 62
     7
100
AcDbSpline
210
0.0
220
0.0
230
1.0
 70
     8
 71
     3
 72
    10
 73
     6
 74
     0
 42
0.0000000210109257
 43
0.0000000001
 40
0.0
 40
0.0
 40
0.0
 40
0.0
 40
0.5
 40
0.5
 40
1.0
 40
1.0
 40
1.0
 40
1.0
 10
103.9093495246404
 20
370.1885068159412
 30
0.0
 10
103.8027561594675
 20
370.1488899874813
 30
0.0
 10
103.7219722293639
 20
370.1048647209197
 30
0.0
 10
103.6089233098148
 20
370.0071778686951
 30
0.0
 10
103.5769335526861
 20
369.95308765835
 30
0.0
 10
103.570996629157
 20
369.8954183347036
 30
0.0
  0
SPLINE
  5
14E
330
114
100
AcDbEntity
  8
$DDT_AUDIT_GENERATED_(98)
  6
Continuous
 62
     7
100
AcDbSpline
210
0.0
220
0.0
230
1.0
 70
     8
 71
     3
 72
     8
 73
     4
 74
     0
 42
0.0000000002076339
 43
0.0000000001
 40
0.0
 40
0.0
 40
0.0
 40
0.0
 40
0.0578945538096651
 40
0.0578945538096651
 40
0.0578945538096651
 40
0.0578945538096651
 10
103.9093495246404
 20
370.1885068159412
 30
0.0
 10
104.7912135236655
 20
370.5162631891791
 30
0.0
 10
105.6969731297216
 20
370.6639366590932
 30
0.0
 10
106.6266048600978
 20
370.6474097033545
 30
0.0
  0
SPLINE
  5
14F
330
114
100
AcDbEntity
  8
$DDT_AUDIT_GENERATED_(98)
  6
Continuous
 62
     7
100
AcDbSpline
210
0.0
220
0.0
230
1.0
 70
     8
 71
     3
 72
     8
 73
     4
 74
     0
 42
0.0000000002058542
 43
0.0000000001
 40
0.942556697307497
 40
0.942556697307497
 40
0.942556697307497
 40
0.942556697307497
 40
1.0
 40
1.0
 40
1.0
 40
1.0
 10
106.6289937771882
 20
318.7138286383645
 30
0.0
 10
105.6970687732622
 20
318.6972777061363
 30
0.0
 10
104.7853900796016
 20
318.8465858356274
 30
0.0
 10
103.9093495241584
 20
319.1721778493412
 30
0.0
  0
ARC
  5
150
330
114
100
AcDbEntity
  8
$DDT_AUDIT_GENERATED_(98)
  6
Continuous
 62
     7
100
AcDbCircle
 10
38.1613107948
 20
344.6803423325
 30
0.0
 40
99.99999999999986
100
AcDbArc
 50
345.5351868885
 51
14.4648131115
  0
LINE
  5
151
330
114
100
AcDbEntity
  8
$DDT_AUDIT_GENERATED_(98)
  6
Continuous
 62
     7
100
AcDbLine
 10
126.4434814397
 20
349.6803423325
 30
0.0
 11
124.7615013921
 21
349.6803423325
 31
0.0
  0
LINE
  5
152
330
114
100
AcDbEntity
  8
$DDT_AUDIT_GENERATED_(98)
  6
Continuous
 62
     7
100
AcDbLine
 10
124.7615013921
 20
339.6803423325
 30
0.0
 11
126.4434814386
 21
339.6803423325
 31
0.0
  0
SPLINE
  5
153
330
114
100
AcDbEntity
  8
$DDT_AUDIT_GENERATED_(98)
  6
Continuous
 62
     7
100
AcDbSpline
210
0.0
220
0.0
230
1.0
 70
     8
 71
     3
 72
    12
 73
     8
 74
     0
 42
0.0000000149104349
 43
0.0000000001
 40
0.0
 40
0.0
 40
0.0
 40
0.0
 40
0.2142790891658694
 40
0.4990620455644806
 40
0.6946029708195764
 40
0.8815823713106153
 40
1.0
 40
1.0
 40
1.0
 40
1.0
 10
134.9489462299545
 20
369.7837922661196
 30
0.0
 10
134.9424086308793
 20
369.8051372244558
 30
0.0
 10
134.9264739853121
 20
369.8485779656498
 30
0.0
 10
134.8743323824425
 20
369.942317053586
 30
0.0
 10
134.7682283000034
 20
370.0552024336288
 30
0.0
 10
134.6145388150875
 20
370.1482524446056
 30
0.0
 10
134.5049425985966
 20
370.1503747027724
 30
0.0
 10
134.4543438241467
 20
370.1513788216389
 30
0.0
  0
SPLINE
  5
154
330
114
100
AcDbEntity
  8
$DDT_AUDIT_GENERATED_(98)
  6
Continuous
 62
     7
100
AcDbSpline
210
0.0
220
0.0
230
1.0
 70
     8
 71
     3
 72
    13
 73
     9
 74
     0
 42
0.0000000155160948
 43
0.0000000001
 40
0.0
 40
0.0
 40
0.0
 40
0.0
 40
0.05520500106802
 40
0.2678952123526209
 40
0.4703493485507804
 40
0.691770393319234
 40
0.9723268976188442
 40
1.0
 40
1.0
 40
1.0
 40
1.0
 10
134.4501756828439
 20
319.2075574890056
 30
0.0
 10
134.4706659490171
 20
319.2051263100242
 30
0.0
 10
134.5552263995527
 20
319.195080982541
 30
0.0
 10
134.708904418123
 20
319.264125304838
 30
0.0
 10
134.8284468257655
 20
319.3632099772733
 30
0.0
 10
134.8981600134972
 20
319.4598929310599
 30
0.0
 10
134.929188003788
 20
319.5187195697296
 30
0.0
 10
134.9382611689256
 20
319.5436250781356
 30
0.0
 10
134.9391910078923
 20
319.5462124135394
 30
0.0
  0
LINE
  5
155
330
114
100
AcDbEntity
  8
$DDT_AUDIT_GENERATED_(98)
  6
Continuous
 62
     7
100
AcDbLine
 10
106.6322070655
 20
318.7134059292
 30
0.0
 11
134.450291068
 21
319.1991388909
 31
0.0
  0
LINE
  5
156
330
114
100
AcDbEntity
  8
$DDT_AUDIT_GENERATED_(98)
  6
Continuous
 62
     7
100
AcDbLine
 10
134.450291068
 20
370.1615457742
 30
0.0
 11
106.628550536
 21
370.6473425828
 31
0.0
  0
ELLIPSE
  5
157
330
114
100
AcDbEntity
  8
$DDT_AUDIT_GENERATED_(B8)
  6
Continuous
 62
     7
100
AcDbEllipse
 10
27.39
 20
120.3478677322
 30
0.0
 11
13.99999999999704
 21
5.251910017989303E-10
 31
0.0
210
0.0
220
0.0
230
1.0
 40
0.9998476952
 41
3.176499238592137
 42
6.248278722101918
  0
LINE
  5
158
330
114
100
AcDbEntity
  8
$DDT_AUDIT_GENERATED_(B8)
  6
Continuous
 62
     7
100
AcDbLine
 10
41.3985336202
 20
121.0232758613
 30
0.0
 11
41.39
 21
121.2676095514
 31
0.0
  0
LINE
  5
159
330
114
100
AcDbEntity
  8
$DDT_AUDIT_GENERATED_(B8)
  6
Continuous
 62
     7
100
AcDbLine
 10
41.3985336202
 20
120.3478677322
 30
0.0
 11
41.3985336202
 21
121.0232758613
 31
0.0
  0
LINE
  5
15A
330
114
100
AcDbEntity
  8
$DDT_AUDIT_GENERATED_(B8)
  6
Continuous
 62
     7
100
AcDbLine
 10
41.3985336202
 20
120.3478677322
 30
0.0
 11
41.3814715783
 21
119.8593491934
 31
0.0
  0
ARC
  5
15B
330
114
100
AcDbEntity
  8
$DDT_AUDIT_GENERATED_(B8)
  6
Continuous
 62
     7
100
AcDbCircle
 10
41.1733771638
 20
116.7221445485
 30
0.0
 40
4.307020547884739
100
AcDbArc
 50
87.0034046444
 51
87.3120798211
  0
ARC
  5
15C
330
114
100
AcDbEntity
  8
$DDT_AUDIT_GENERATED_(B8)
  6
Continuous
 62
     7
100
AcDbCircle
 10
13.6066228387
 20
116.7221443574
 30
0.0
 40
4.307020738851126
100
AcDbArc
 50
92.6890009179
 51
92.996595255
  0
LINE
  5
15D
330
114
100
AcDbEntity
  8
$DDT_AUDIT_GENERATED_(B8)
  6
Continuous
 62
     7
100
AcDbLine
 10
13.3814663798
 20
120.3478677322
 30
0.0
 11
13.3814663798
 21
121.0232758614
 31
0.0
  0
LINE
  5
15E
330
114
100
AcDbEntity
  8
$DDT_AUDIT_GENERATED_(B8)
  6
Continuous
 62
     7
100
AcDbLine
 10
13.3985284217
 20
119.8593491934
 30
0.0
 11
13.3814663798
 21
120.3478677322
 31
0.0
  0
LINE
  5
15F
330
114
100
AcDbEntity
  8
$DDT_AUDIT_GENERATED_(B8)
  6
Continuous
 62
     7
100
AcDbLine
 10
13.39
 20
121.2676095514
 30
0.0
 11
13.3814663798
 21
121.0232758614
 31
0.0
  0
LINE
  5
161
330
114
100
AcDbEntity
  8
DV3_Standard
  6
CENTER2
 62
     7
100
AcDbLine
 10
53.789999553
 20
344.6153423325
 30
0.0
 11
13.790000447
 21
344.6153423325
 31
0.0
  0
LINE
  5
162
330
114
100
AcDbEntity
  8
DV3_Standard
  6
CENTER2
 62
     7
100
AcDbLine
 10
33.79
 20
364.6153418855
 30
0.0
 11
33.79
 21
324.6153427796
 31
0.0
  0
LINE
  5
163
330
114
100
AcDbEntity
  8
DV3_Standard
  6
CENTER2
 62
     7
100
AcDbLine
 10
58.7899994412
 20
344.6153423325
 30
0.0
 11
64.29
 21
344.6153423325
 31
0.0
  0
LINE
  5
164
330
114
100
AcDbEntity
  8
DV3_Standard
  6
CENTER2
 62
     7
100
AcDbLine
 10
33.79
 20
369.6153417738
 30
0.0
 11
33.79
 21
375.1153423325
 31
0.0
  0
LINE
  5
165
330
114
100
AcDbEntity
  8
DV3_Standard
  6
CENTER2
 62
     7
100
AcDbLine
 10
8.7900005588
 20
344.6153423325
 30
0.0
 11
3.29
 21
344.6153423325
 31
0.0
  0
LINE
  5
166
330
114
100
AcDbEntity
  8
DV3_Standard
  6
CENTER2
 62
     7
100
AcDbLine
 10
33.79
 20
319.6153428913
 30
0.0
 11
33.79
 21
314.1153423325
 31
0.0
  0
ENDBLK
  5
168
330
114
100
AcDbEntity
  8
0
100
AcDbBlockEnd
  0
ENDSEC
  0
SECTION
  2
ENTITIES
  0
INSERT
  5
5F
330
1F
100
AcDbEntity
  8
Default
100
AcDbBlockReference
  2
SE
 10
0.0
 20
0.0
 30
0.0
  0
INSERT
  5
CE
330
1F
100
AcDbEntity
  8
Default
100
AcDbBlockReference
  2
SE1
 10
0.0
 20
0.0
 30
0.0
  0
INSERT
  5
115
330
1F
100
AcDbEntity
  8
Default
100
AcDbBlockReference
  2
SE2
 10
0.0
 20
0.0
 30
0.0
  0
TEXT
  5
16A
330
1F
100
AcDbEntity
  8
Default
  6
Continuous
 62
     7
100
AcDbText
 10
5.9362635081
 20
53.4225120485
 30
0.0
 40
10.0
  1
Grohe AG^J
  7
SEACAD_seiso_ttf
 11
5.9362635081
 21
63.4225120485
 31
0.0
100
AcDbText
 73
     3
  0
TEXT
  5
16B
330
1F
100
AcDbEntity
  8
Default
  6
Continuous
 62
     7
100
AcDbText
 10
5.9362635081
 20
37.0588756849
 30
0.0
 40
10.0
  1
 
  7
SEACAD_seiso_ttf
 11
5.9362635081
 21
47.0588756849
 31
0.0
100
AcDbText
 73
     3
  0
TEXT
  5
16C
330
1F
100
AcDbEntity
  8
Default
  6
Continuous
 62
     7
100
AcDbText
 10
5.9362635081
 20
20.6952393213
 30
0.0
 40
10.0
  1
ecn: 
  7
SEACAD_seiso_ttf
 11
5.9362635081
 21
30.6952393213
 31
0.0
100
AcDbText
 73
     3
  0
TEXT
  5
16D
330
1F
100
AcDbEntity
  8
Default
  6
Continuous
 62
     7
100
AcDbText
 10
5.9362635081
 20
4.3316029576
 30
0.0
 40
10.0
  1
unit: mm
  7
SEACAD_seiso_ttf
 11
5.9362635081
 21
14.3316029576
 31
0.0
100
AcDbText
 73
     3
  0
LINE
  5
16E
330
1F
100
AcDbEntity
  8
Default
  6
Continuous
 62
     7
100
AcDbLine
 10
0.0
 20
0.0
 30
0.0
 11
100.0
 21
0.0
 31
0.0
  0
LINE
  5
16F
330
1F
100
AcDbEntity
  8
Default
  6
Continuous
 62
     7
100
AcDbLine
 10
0.0
 20
0.0
 30
0.0
 11
0.0
 21
100.0
 31
0.0
  0
TEXT
  5
170
330
1F
100
AcDbEntity
  8
Default
  6
Continuous
 62
     7
100
AcDbText
 10
24.3923665681
 20
-18.2375342018
 30
0.0
 40
10.0
  1
100 mm
  7
SEACAD_seiso_ttf
 11
24.3923665681
 21
-8.2375342018
 31
0.0
100
AcDbText
 73
     3
  0
TEXT
  5
171
330
1F
100
AcDbEntity
  8
Default
  6
Continuous
 62
     7
100
AcDbText
 10
-7.6150308803
 20
24.6231930421
 30
0.0
 40
10.0
  1
100 mm
 50
90.0
  7
SEACAD_seiso_ttf
 11
-17.6150308803
 21
24.6231930421
 31
0.0
100
AcDbText
 73
     3
  0
TEXT
  5
172
330
1F
100
AcDbEntity
  8
Default
  6
Continuous
 62
     7
100
AcDbText
 10
28.4878128572
 20
20.0907663715
 30
0.0
 40
10.0
  1
217532
  7
SEACAD_seiso_ttf
 11
28.4878128572
 21
30.0907663715
 31
0.0
100
AcDbText
 73
     3
  0
TEXT
  5
173
330
1F
100
AcDbEntity
  8
Default
  6
Continuous
 62
     7
100
AcDbText
 10
5.9012241913
 20
36.7242780188
 30
0.0
 40
10.0
  1
32322000
  7
SEACAD_seiso_ttf
 11
5.9012241913
 21
46.7242780188
 31
0.0
100
AcDbText
 73
     3
  0
ENDSEC
  0
SECTION
  2
OBJECTS
  0
DICTIONARY
  5
C
330
0
100
AcDbDictionary
281
     1
  3
ACAD_GROUP
350
D
  3
ACAD_LAYOUT
350
1A
  3
ACAD_MLEADERSTYLE
350
177
  3
ACAD_MLINESTYLE
350
17
  3
ACAD_PLOTSETTINGS
350
19
  3
ACAD_PLOTSTYLENAME
350
E
  3
ACAD_SCALELIST
350
3B
  3
ACAD_TABLESTYLE
350
176
  3
ACAD_VISUALSTYLE
350
2A
  3
AcDbVariableDictionary
350
174
  0
DICTIONARY
  5
D
102
{ACAD_REACTORS
330
C
102
}
330
C
100
AcDbDictionary
281
     1
  0
DICTIONARY
  5
1A
102
{ACAD_REACTORS
330
C
102
}
330
C
100
AcDbDictionary
281
     1
  3
Layout1
350
1E
  3
Model
350
22
  0
DICTIONARY
  5
177
102
{ACAD_REACTORS
330
C
102
}
330
C
100
AcDbDictionary
281
     1
  0
DICTIONARY
  5
17
102
{ACAD_REACTORS
330
C
102
}
330
C
100
AcDbDictionary
281
     1
  3
Standard
350
18
  0
DICTIONARY
  5
19
102
{ACAD_REACTORS
330
C
102
}
330
C
100
AcDbDictionary
281
     1
  0
ACDBDICTIONARYWDFLT
  5
E
102
{ACAD_REACTORS
330
C
102
}
330
C
100
AcDbDictionary
281
     1
  3
Normal
350
F
100
AcDbDictionaryWithDefault
340
F
  0
DICTIONARY
  5
3B
102
{ACAD_REACTORS
330
C
102
}
330
C
100
AcDbDictionary
281
     1
  3
A0
350
3C
  3
A1
350
3D
  3
A2
350
3E
  3
A3
350
3F
  3
A4
350
40
  3
A5
350
41
  3
A6
350
42
  3
A7
350
43
  3
A8
350
44
  3
A9
350
45
  3
B0
350
46
  3
B1
350
47
  3
B2
350
48
  3
B3
350
49
  3
B4
350
4A
  3
B5
350
4B
  3
B6
350
4C
  3
B7
350
4D
  3
B8
350
4E
  3
B9
350
4F
  3
C0
350
50
  3
C1
350
51
  3
C2
350
52
  3
C3
350
53
  3
C4
350
54
  3
C5
350
55
  3
C6
350
56
  3
C7
350
57
  3
C8
350
58
  3
C9
350
59
  3
D0
350
5A
  3
D1
350
5B
  3
D2
350
5C
  0
DICTIONARY
  5
176
102
{ACAD_REACTORS
330
C
102
}
330
C
100
AcDbDictionary
281
     1
  0
DICTIONARY
  5
2A
102
{ACAD_REACTORS
330
C
102
}
330
C
100
AcDbDictionary
281
     1
  3
2dWireframe
350
2F
  3
3D Hidden
350
31
  3
3dWireframe
350
30
  3
Basic
350
32
  3
Brighten
350
36
  3
ColorChange
350
3A
  3
Conceptual
350
34
  3
Dim
350
35
  3
Facepattern
350
39
  3
Flat
350
2B
  3
FlatWithEdges
350
2C
  3
Gouraud
350
2D
  3
GouraudWithEdges
350
2E
  3
Linepattern
350
38
  3
Realistic
350
33
  3
Thicken
350
37
  0
DICTIONARY
  5
174
102
{ACAD_REACTORS
330
C
102
}
330
C
100
AcDbDictionary
281
     1
  3
CANNOSCALE
350
175
  3
PSOLHEIGHT
350
179
  3
PSOLWIDTH
350
178
  0
LAYOUT
  5
1E
102
{ACAD_REACTORS
330
1A
102
}
330
1A
100
AcDbPlotSettings
  1

  2
none_device
  4

  6

 40
0.0
 41
0.0
 42
0.0
 43
0.0
 44
0.0
 45
0.0
 46
0.0
 47
0.0
 48
0.0
 49
0.0
140
0.0
141
0.0
142
1.0
143
1.0
 70
   688
 72
     0
 73
     0
 74
     5
  7

 75
    16
147
1.0
148
0.0
149
0.0
100
AcDbLayout
  1
Layout1
 70
     1
 71
     1
 10
0.0
 20
0.0
 11
1682.0
 21
2378.0
 12
0.0
 22
0.0
 32
0.0
 14
0.0
 24
0.0
 34
0.0
 15
1682.0
 25
2378.0
 35
0.0
146
0.0
 13
0.0
 23
0.0
 33
0.0
 16
1.0
 26
0.0
 36
0.0
 17
0.0
 27
1.0
 37
0.0
 76
     0
330
1B
  0
LAYOUT
  5
22
102
{ACAD_REACTORS
330
1A
102
}
330
1A
100
AcDbPlotSettings
  1

  2
none_device
  4

  6

 40
0.0
 41
0.0
 42
0.0
 43
0.0
 44
0.0
 45
0.0
 46
0.0
 47
0.0
 48
0.0
 49
0.0
140
0.0
141
0.0
142
1.0
143
1.0
 70
  1712
 72
     0
 73
     0
 74
     0
  7

 75
     0
147
1.0
148
0.0
149
0.0
100
AcDbLayout
  1
Model
 70
     1
 71
     0
 10
0.0
 20
0.0
 11
1682.0
 21
2378.0
 12
0.0
 22
0.0
 32
0.0
 14
0.0
 24
0.0
 34
0.0
 15
1682.0
 25
2378.0
 35
0.0
146
0.0
 13
0.0
 23
0.0
 33
0.0
 16
1.0
 26
0.0
 36
0.0
 17
0.0
 27
1.0
 37
0.0
 76
     0
330
1F
331
29
  0
MLINESTYLE
  5
18
102
{ACAD_REACTORS
330
17
102
}
330
17
100
AcDbMlineStyle
  2
Standard
 70
     0
  3

 62
   256
 51
90.0
 52
90.0
 71
     2
 49
0.5
 62
   256
  6
BYLAYER
 49
-0.5
 62
   256
  6
BYLAYER
  0
ACDBPLACEHOLDER
  5
F
102
{ACAD_REACTORS
330
E
102
}
330
E
  0
SCALE
  5
3C
102
{ACAD_REACTORS
330
3B
102
}
330
3B
100
AcDbScale
 70
     0
300
1:1
140
1.0
141
1.0
290
     1
  0
SCALE
  5
3D
102
{ACAD_REACTORS
330
3B
102
}
330
3B
100
AcDbScale
 70
     0
300
1:2
140
1.0
141
2.0
290
     0
  0
SCALE
  5
3E
102
{ACAD_REACTORS
330
3B
102
}
330
3B
100
AcDbScale
 70
     0
300
1:4
140
1.0
141
4.0
290
     0
  0
SCALE
  5
3F
102
{ACAD_REACTORS
330
3B
102
}
330
3B
100
AcDbScale
 70
     0
300
1:5
140
1.0
141
5.0
290
     0
  0
SCALE
  5
40
102
{ACAD_REACTORS
330
3B
102
}
330
3B
100
AcDbScale
 70
     0
300
1:8
140
1.0
141
8.0
290
     0
  0
SCALE
  5
41
102
{ACAD_REACTORS
330
3B
102
}
330
3B
100
AcDbScale
 70
     0
300
1:10
140
1.0
141
10.0
290
     0
  0
SCALE
  5
42
102
{ACAD_REACTORS
330
3B
102
}
330
3B
100
AcDbScale
 70
     0
300
1:16
140
1.0
141
16.0
290
     0
  0
SCALE
  5
43
102
{ACAD_REACTORS
330
3B
102
}
330
3B
100
AcDbScale
 70
     0
300
1:20
140
1.0
141
20.0
290
     0
  0
SCALE
  5
44
102
{ACAD_REACTORS
330
3B
102
}
330
3B
100
AcDbScale
 70
     0
300
1:30
140
1.0
141
30.0
290
     0
  0
SCALE
  5
45
102
{ACAD_REACTORS
330
3B
102
}
330
3B
100
AcDbScale
 70
     0
300
1:40
140
1.0
141
40.0
290
     0
  0
SCALE
  5
46
102
{ACAD_REACTORS
330
3B
102
}
330
3B
100
AcDbScale
 70
     0
300
1:50
140
1.0
141
50.0
290
     0
  0
SCALE
  5
47
102
{ACAD_REACTORS
330
3B
102
}
330
3B
100
AcDbScale
 70
     0
300
1:100
140
1.0
141
100.0
290
     0
  0
SCALE
  5
48
102
{ACAD_REACTORS
330
3B
102
}
330
3B
100
AcDbScale
 70
     0
300
2:1
140
2.0
141
1.0
290
     0
  0
SCALE
  5
49
102
{ACAD_REACTORS
330
3B
102
}
330
3B
100
AcDbScale
 70
     0
300
4:1
140
4.0
141
1.0
290
     0
  0
SCALE
  5
4A
102
{ACAD_REACTORS
330
3B
102
}
330
3B
100
AcDbScale
 70
     0
300
8:1
140
8.0
141
1.0
290
     0
  0
SCALE
  5
4B
102
{ACAD_REACTORS
330
3B
102
}
330
3B
100
AcDbScale
 70
     0
300
10:1
140
10.0
141
1.0
290
     0
  0
SCALE
  5
4C
102
{ACAD_REACTORS
330
3B
102
}
330
3B
100
AcDbScale
 70
     0
300
100:1
140
100.0
141
1.0
290
     0
  0
SCALE
  5
4D
102
{ACAD_REACTORS
330
3B
102
}
330
3B
100
AcDbScale
 70
     0
300
1/128" = 1'-0"
140
0.0078125
141
12.0
290
     0
  0
SCALE
  5
4E
102
{ACAD_REACTORS
330
3B
102
}
330
3B
100
AcDbScale
 70
     0
300
1/64" = 1'-0"
140
0.015625
141
12.0
290
     0
  0
SCALE
  5
4F
102
{ACAD_REACTORS
330
3B
102
}
330
3B
100
AcDbScale
 70
     0
300
1/32" = 1'-0"
140
0.03125
141
12.0
290
     0
  0
SCALE
  5
50
102
{ACAD_REACTORS
330
3B
102
}
330
3B
100
AcDbScale
 70
     0
300
1/16" = 1'-0"
140
0.0625
141
12.0
290
     0
  0
SCALE
  5
51
102
{ACAD_REACTORS
330
3B
102
}
330
3B
100
AcDbScale
 70
     0
300
3/32" = 1'-0"
140
0.09375
141
12.0
290
     0
  0
SCALE
  5
52
102
{ACAD_REACTORS
330
3B
102
}
330
3B
100
AcDbScale
 70
     0
300
1/8" = 1'-0"
140
0.125
141
12.0
290
     0
  0
SCALE
  5
53
102
{ACAD_REACTORS
330
3B
102
}
330
3B
100
AcDbScale
 70
     0
300
3/16" = 1'-0"
140
0.1875
141
12.0
290
     0
  0
SCALE
  5
54
102
{ACAD_REACTORS
330
3B
102
}
330
3B
100
AcDbScale
 70
     0
300
1/4" = 1'-0"
140
0.25
141
12.0
290
     0
  0
SCALE
  5
55
102
{ACAD_REACTORS
330
3B
102
}
330
3B
100
AcDbScale
 70
     0
300
3/8" = 1'-0"
140
0.375
141
12.0
290
     0
  0
SCALE
  5
56
102
{ACAD_REACTORS
330
3B
102
}
330
3B
100
AcDbScale
 70
     0
300
1/2" = 1'-0"
140
0.5
141
12.0
290
     0
  0
SCALE
  5
57
102
{ACAD_REACTORS
330
3B
102
}
330
3B
100
AcDbScale
 70
     0
300
3/4" = 1'-0"
140
0.75
141
12.0
290
     0
  0
SCALE
  5
58
102
{ACAD_REACTORS
330
3B
102
}
330
3B
100
AcDbScale
 70
     0
300
1" = 1'-0"
140
1.0
141
12.0
290
     0
  0
SCALE
  5
59
102
{ACAD_REACTORS
330
3B
102
}
330
3B
100
AcDbScale
 70
     0
300
1-1/2" = 1'-0"
140
1.5
141
12.0
290
     0
  0
SCALE
  5
5A
102
{ACAD_REACTORS
330
3B
102
}
330
3B
100
AcDbScale
 70
     0
300
3" = 1'-0"
140
3.0
141
12.0
290
     0
  0
SCALE
  5
5B
102
{ACAD_REACTORS
330
3B
102
}
330
3B
100
AcDbScale
 70
     0
300
6" = 1'-0"
140
6.0
141
12.0
290
     0
  0
SCALE
  5
5C
102
{ACAD_REACTORS
330
3B
102
}
330
3B
100
AcDbScale
 70
     0
300
1'-0" = 1'-0"
140
12.0
141
12.0
290
     0
  0
VISUALSTYLE
  5
2F
102
{ACAD_REACTORS
330
2A
102
}
330
2A
100
AcDbVisualStyle
  2
2dWireframe
 70
     4
 71
     0
 72
     2
 73
     0
 90
        0
 40
-0.6
 41
-30.0
 62
     5
 63
     7
 74
     1
 91
        4
 64
     7
 65
   257
 75
     1
175
     1
 42
1.0
 92
        0
 66
   257
 43
1.0
 76
     1
 77
     6
 78
     2
 67
     7
 79
     5
170
     0
171
     0
290
     0
174
     0
 93
        1
 44
0.0
173
     0
291
     0
 45
0.0
1001
ACAD
1000
AcDbSavedByObjectVersion
1070
     0
  0
VISUALSTYLE
  5
31
102
{ACAD_REACTORS
330
2A
102
}
330
2A
100
AcDbVisualStyle
  2
3D Hidden
 70
     6
 71
     1
 72
     2
 73
     2
 90
        0
 40
-0.6
 41
-30.0
 62
     5
 63
     7
 74
     2
 91
        2
 64
     7
 65
   257
 75
     2
175
     1
 42
40.0
 92
        0
 66
   257
 43
1.0
 76
     1
 77
     6
 78
     2
 67
     7
 79
     3
170
     0
171
     0
290
     0
174
     0
 93
        1
 44
0.0
173
     0
291
     0
 45
0.0
1001
ACAD
1000
AcDbSavedByObjectVersion
1070
     0
  0
VISUALSTYLE
  5
30
102
{ACAD_REACTORS
330
2A
102
}
330
2A
100
AcDbVisualStyle
  2
3dWireframe
 70
     5
 71
     0
 72
     2
 73
     0
 90
        0
 40
-0.6
 41
-30.0
 62
     5
 63
     7
 74
     1
 91
        4
 64
     7
 65
   257
 75
     1
175
     1
 42
1.0
 92
        0
 66
   257
 43
1.0
 76
     1
 77
     6
 78
     2
 67
     7
 79
     5
170
     0
171
     0
290
     0
174
     0
 93
        1
 44
0.0
173
     0
291
     0
 45
0.0
1001
ACAD
1000
AcDbSavedByObjectVersion
1070
     0
  0
VISUALSTYLE
  5
32
102
{ACAD_REACTORS
330
2A
102
}
330
2A
100
AcDbVisualStyle
  2
Basic
 70
     7
 71
     1
 72
     0
 73
     1
 90
        0
 40
-0.6
 41
-30.0
 62
     5
 63
     7
 74
     0
 91
        4
 64
     7
 65
   257
 75
     1
175
     1
 42
1.0
 92
        8
 66
     7
 43
1.0
 76
     1
 77
     6
 78
     2
 67
     7
 79
     5
170
     0
171
     0
290
     0
174
     0
 93
        1
 44
0.0
173
     0
291
     1
 45
0.0
1001
ACAD
1000
AcDbSavedByObjectVersion
1070
     0
  0
VISUALSTYLE
  5
36
102
{ACAD_REACTORS
330
2A
102
}
330
2A
100
AcDbVisualStyle
  2
Brighten
 70
    12
 71
     2
 72
     2
 73
     0
 90
        0
 40
-0.6
 41
-30.0
 62
     5
 63
     7
 74
     1
 91
        4
 64
     7
 65
   257
 75
     1
175
     1
 42
1.0
 92
        8
 66
     7
 43
1.0
 76
     1
 77
     6
 78
     2
 67
     7
 79
     5
170
     0
171
     0
290
     0
174
     0
 93
        1
 44
50.0
173
     0
291
     1
 45
0.0
1001
ACAD
1000
AcDbSavedByObjectVersion
1070
     0
  0
VISUALSTYLE
  5
3A
102
{ACAD_REACTORS
330
2A
102
}
330
2A
100
AcDbVisualStyle
  2
ColorChange
 70
    16
 71
     2
 72
     2
 73
     3
 90
        0
 40
-0.6
 41
-30.0
 62
     5
 63
     8
 74
     1
 91
        4
 64
     7
 65
   257
 75
     1
175
     1
 42
1.0
 92
        8
 66
     8
 43
1.0
 76
     1
 77
     6
 78
     2
 67
     7
 79
     5
170
     0
171
     0
290
     0
174
     0
 93
        1
 44
0.0
173
     0
291
     1
 45
0.0
1001
ACAD
1000
AcDbSavedByObjectVersion
1070
     0
  0
VISUALSTYLE
  5
34
102
{ACAD_REACTORS
330
2A
102
}
330
2A
100
AcDbVisualStyle
  2
Conceptual
 70
     9
 71
     3
 72
     2
 73
     0
 90
        0
 40
-0.6
 41
-30.0
 62
     5
 63
     7
 74
     2
 91
        2
 64
     7
 65
   257
 75
     1
175
     1
 42
40.0
 92
        8
 66
     7
 43
1.0
 76
     1
 77
     6
 78
     2
 67
     7
 79
     3
170
     0
171
     0
290
     0
174
     0
 93
        1
 44
0.0
173
     0
291
     0
 45
0.0
1001
ACAD
1000
AcDbSavedByObjectVersion
1070
     0
  0
VISUALSTYLE
  5
35
102
{ACAD_REACTORS
330
2A
102
}
330
2A
100
AcDbVisualStyle
  2
Dim
 70
    11
 71
     2
 72
     2
 73
     0
 90
        0
 40
-0.6
 41
-30.0
 62
     5
 63
     7
 74
     1
 91
        4
 64
     7
 65
   257
 75
     1
175
     1
 42
1.0
 92
        8
 66
     7
 43
1.0
 76
     1
 77
     6
 78
     2
 67
     7
 79
     5
170
     0
171
     0
290
     0
174
     0
 93
        1
 44
-50.0
173
     0
291
     1
 45
0.0
1001
ACAD
1000
AcDbSavedByObjectVersion
1070
     0
  0
VISUALSTYLE
  5
39
102
{ACAD_REACTORS
330
2A
102
}
330
2A
100
AcDbVisualStyle
  2
Facepattern
 70
    15
 71
     2
 72
     2
 73
     0
 90
        0
 40
-0.6
 41
-30.0
 62
     5
 63
     7
 74
     1
 91
        4
 64
     7
 65
   257
 75
     1
175
     1
 42
1.0
 92
        8
 66
     7
 43
1.0
 76
     1
 77
     6
 78
     2
 67
     7
 79
     5
170
     0
171
     0
290
     0
174
     0
 93
        1
 44
0.0
173
     0
291
     1
 45
0.0
1001
ACAD
1000
AcDbSavedByObjectVersion
1070
     0
  0
VISUALSTYLE
  5
2B
102
{ACAD_REACTORS
330
2A
102
}
330
2A
100
AcDbVisualStyle
  2
Flat
 70
     0
 71
     2
 72
     1
 73
     1
 90
        2
 40
-0.6
 41
30.0
 62
     5
 63
     7
 74
     0
 91
        4
 64
     7
 65
   257
 75
     1
175
     1
 42
1.0
 92
        8
 66
     7
 43
1.0
 76
     1
 77
     6
 78
     2
 67
     7
 79
     5
170
     0
171
     0
290
     0
174
     0
 93
       13
 44
0.0
173
     0
291
     1
 45
0.0
1001
ACAD
1000
AcDbSavedByObjectVersion
1070
     0
  0
VISUALSTYLE
  5
2C
102
{ACAD_REACTORS
330
2A
102
}
330
2A
100
AcDbVisualStyle
  2
FlatWithEdges
 70
     1
 71
     2
 72
     1
 73
     1
 90
        2
 40
-0.6
 41
30.0
 62
     5
 63
     7
 74
     1
 91
        4
 64
     7
 65
   257
 75
     1
175
     1
 42
1.0
 92
        0
 66
   257
 43
1.0
 76
     1
 77
     6
 78
     2
 67
     7
 79
     5
170
     0
171
     0
290
     0
174
     0
 93
       13
 44
0.0
173
     0
291
     1
 45
0.0
1001
ACAD
1000
AcDbSavedByObjectVersion
1070
     0
  0
VISUALSTYLE
  5
2D
102
{ACAD_REACTORS
330
2A
102
}
330
2A
100
AcDbVisualStyle
  2
Gouraud
 70
     2
 71
     2
 72
     2
 73
     1
 90
        2
 40
-0.6
 41
30.0
 62
     5
 63
     7
 74
     0
 91
        4
 64
     7
 65
   257
 75
     1
175
     1
 42
1.0
 92
        0
 66
     7
 43
1.0
 76
     1
 77
     6
 78
     2
 67
     7
 79
     5
170
     0
171
     0
290
     0
174
     0
 93
       13
 44
0.0
173
     0
291
     1
 45
0.0
1001
ACAD
1000
AcDbSavedByObjectVersion
1070
     0
  0
VISUALSTYLE
  5
2E
102
{ACAD_REACTORS
330
2A
102
}
330
2A
100
AcDbVisualStyle
  2
GouraudWithEdges
 70
     3
 71
     2
 72
     2
 73
     1
 90
        2
 40
-0.6
 41
30.0
 62
     5
 63
     7
 74
     1
 91
        4
 64
     7
 65
   257
 75
     1
175
     1
 42
1.0
 92
        0
 66
   257
 43
1.0
 76
     1
 77
     6
 78
     2
 67
     7
 79
     5
170
     0
171
     0
290
     0
174
     0
 93
       13
 44
0.0
173
     0
291
     1
 45
0.0
1001
ACAD
1000
AcDbSavedByObjectVersion
1070
     0
  0
VISUALSTYLE
  5
38
102
{ACAD_REACTORS
330
2A
102
}
330
2A
100
AcDbVisualStyle
  2
Linepattern
 70
    14
 71
     2
 72
     2
 73
     0
 90
        0
 40
-0.6
 41
-30.0
 62
     5
 63
     7
 74
     1
 91
        4
 64
     7
 65
   257
 75
     7
175
     7
 42
1.0
 92
        8
 66
     7
 43
1.0
 76
     1
 77
     6
 78
     2
 67
     7
 79
     5
170
     0
171
     0
290
     0
174
     0
 93
        1
 44
0.0
173
     0
291
     1
 45
0.0
1001
ACAD
1000
AcDbSavedByObjectVersion
1070
     0
  0
VISUALSTYLE
  5
33
102
{ACAD_REACTORS
330
2A
102
}
330
2A
100
AcDbVisualStyle
  2
Realistic
 70
     8
 71
     2
 72
     2
 73
     0
 90
        0
 40
-0.6
 41
-30.0
 62
     5
 63
     7
 74
     1
 91
        0
 64
     7
 65
   257
 75
     1
175
     1
 42
1.0
 92
        8
 66
     8
 43
1.0
 76
     1
 77
     6
 78
     2
 67
     7
 79
     5
170
     0
171
     0
290
     0
174
     0
 93
       13
 44
0.0
173
     0
291
     0
 45
0.0
1001
ACAD
1000
AcDbSavedByObjectVersion
1070
     0
  0
VISUALSTYLE
  5
37
102
{ACAD_REACTORS
330
2A
102
}
330
2A
100
AcDbVisualStyle
  2
Thicken
 70
    13
 71
     2
 72
     2
 73
     0
 90
        0
 40
-0.6
 41
-30.0
 62
     5
 63
     7
 74
     1
 91
        4
 64
     7
 65
   257
 75
     1
175
     1
 42
1.0
 92
       12
 66
     7
 43
1.0
 76
     1
 77
     6
 78
     2
 67
     7
 79
     5
170
     0
171
     0
290
     0
174
     0
 93
        1
 44
0.0
173
     0
291
     1
 45
0.0
1001
ACAD
1000
AcDbSavedByObjectVersion
1070
     0
  0
DICTIONARYVAR
  5
175
102
{ACAD_REACTORS
330
174
102
}
330
174
100
DictionaryVariables
280
     0
  1
1:1
  0
DICTIONARYVAR
  5
179
102
{ACAD_REACTORS
330
174
102
}
330
174
100
DictionaryVariables
280
     0
  1
80.000000
  0
DICTIONARYVAR
  5
178
102
{ACAD_REACTORS
330
174
102
}
330
174
100
DictionaryVariables
280
     0
  1
5.000000
  0
ENDSEC
  0
EOF
