999
Converted by 3D Exploration 
999
XDimension Software, LLC
999
http://www.xdsoft.com/explorer/
0
SECTION
2
HEADER
9
$ACADVER
1
AC1008
9
$UCSORG
10
0.0
20
0.0
30
0.0
9
$UCSXDIR
10
1.0
20
0.0
30
0.0
9
$TILEMODE
70
1
9
$UCSYDIR
10
0.0
20
1.0
30
0.0
9
$EXTMIN
10
0.000000
20
-196.656998
30
-196.656998
9
$EXTMAX
10
650.508972
20
196.656998
30
1127.800049
0
ENDSEC
0
SECTION
2
TABLES
0
TABLE
2
LTYPE
70
1
0
LTYPE
2
CONTINUOUS
70
64
3
Solid line
72
65
73
0
40
0.0
0
ENDTAB
0
TABLE
2
LAYER
70
133
0
LAYER
2
OBJECT__0
70
0
62
253
6
CONTINUOUS
0
LAYER
2
OBJECT__1
70
0
62
253
6
CONTINUOUS
0
LAYER
2
OBJECT__3
70
0
62
253
6
CONTINUOUS
0
LAYER
2
OBJECT__4
70
0
62
253
6
CONTINUOUS
0
LAYER
2
OBJECT__5
70
0
62
253
6
CONTINUOUS
0
LAYER
2
OBJECT__6
70
0
62
253
6
CONTINUOUS
0
LAYER
2
OBJECT__7
70
0
62
253
6
CONTINUOUS
0
LAYER
2
OBJECT__8
70
0
62
253
6
CONTINUOUS
0
LAYER
2
OBJECT__9
70
0
62
253
6
CONTINUOUS
0
LAYER
2
OBJECT__11
70
0
62
253
6
CONTINUOUS
0
LAYER
2
OBJECT__12
70
0
62
253
6
CONTINUOUS
0
LAYER
2
OBJECT__13
70
0
62
253
6
CONTINUOUS
0
LAYER
2
OBJECT__14
70
0
62
253
6
CONTINUOUS
0
LAYER
2
OBJECT__16
70
0
62
253
6
CONTINUOUS
0
LAYER
2
OBJECT__17
70
0
62
253
6
CONTINUOUS
0
LAYER
2
OBJECT__19
70
0
62
253
6
CONTINUOUS
0
LAYER
2
OBJECT__20
70
0
62
253
6
CONTINUOUS
0
LAYER
2
OBJECT__22
70
0
62
253
6
CONTINUOUS
0
LAYER
2
OBJECT__24
70
0
62
253
6
CONTINUOUS
0
LAYER
2
OBJECT__25
70
0
62
253
6
CONTINUOUS
0
LAYER
2
OBJECT__27
70
0
62
253
6
CONTINUOUS
0
LAYER
2
OBJECT__28
70
0
62
253
6
CONTINUOUS
0
LAYER
2
OBJECT__29
70
0
62
253
6
CONTINUOUS
0
LAYER
2
OBJECT__30
70
0
62
253
6
CONTINUOUS
0
LAYER
2
OBJECT__31
70
0
62
253
6
CONTINUOUS
0
LAYER
2
OBJECT__33
70
0
62
253
6
CONTINUOUS
0
LAYER
2
OBJECT__34
70
0
62
253
6
CONTINUOUS
0
LAYER
2
OBJECT__35
70
0
62
253
6
CONTINUOUS
0
LAYER
2
OBJECT__36
70
0
62
253
6
CONTINUOUS
0
LAYER
2
OBJECT__37
70
0
62
253
6
CONTINUOUS
0
LAYER
2
OBJECT__38
70
0
62
253
6
CONTINUOUS
0
LAYER
2
OBJECT__39
70
0
62
253
6
CONTINUOUS
0
LAYER
2
OBJECT__41
70
0
62
253
6
CONTINUOUS
0
LAYER
2
OBJECT__42
70
0
62
253
6
CONTINUOUS
0
LAYER
2
OBJECT__44
70
0
62
253
6
CONTINUOUS
0
LAYER
2
OBJECT__45
70
0
62
253
6
CONTINUOUS
0
LAYER
2
OBJECT__47
70
0
62
253
6
CONTINUOUS
0
LAYER
2
OBJECT__48
70
0
62
253
6
CONTINUOUS
0
LAYER
2
OBJECT__50
70
0
62
253
6
CONTINUOUS
0
LAYER
2
OBJECT__51
70
0
62
253
6
CONTINUOUS
0
LAYER
2
OBJECT__52
70
0
62
253
6
CONTINUOUS
0
LAYER
2
OBJECT__54
70
0
62
253
6
CONTINUOUS
0
LAYER
2
OBJECT__55
70
0
62
253
6
CONTINUOUS
0
LAYER
2
OBJECT__56
70
0
62
253
6
CONTINUOUS
0
LAYER
2
OBJECT__58
70
0
62
253
6
CONTINUOUS
0
LAYER
2
OBJECT__59
70
0
62
253
6
CONTINUOUS
0
LAYER
2
OBJECT__60
70
0
62
253
6
CONTINUOUS
0
LAYER
2
OBJECT__62
70
0
62
253
6
CONTINUOUS
0
LAYER
2
OBJECT__63
70
0
62
253
6
CONTINUOUS
0
LAYER
2
OBJECT__64
70
0
62
253
6
CONTINUOUS
0
LAYER
2
OBJECT__66
70
0
62
253
6
CONTINUOUS
0
LAYER
2
OBJECT__67
70
0
62
253
6
CONTINUOUS
0
LAYER
2
OBJECT__69
70
0
62
253
6
CONTINUOUS
0
LAYER
2
OBJECT__70
70
0
62
253
6
CONTINUOUS
0
LAYER
2
OBJECT__71
70
0
62
253
6
CONTINUOUS
0
LAYER
2
OBJECT__72
70
0
62
253
6
CONTINUOUS
0
LAYER
2
OBJECT__73
70
0
62
253
6
CONTINUOUS
0
LAYER
2
OBJECT__74
70
0
62
253
6
CONTINUOUS
0
LAYER
2
OBJECT__75
70
0
62
253
6
CONTINUOUS
0
LAYER
2
OBJECT__77
70
0
62
253
6
CONTINUOUS
0
LAYER
2
OBJECT__78
70
0
62
253
6
CONTINUOUS
0
LAYER
2
OBJECT__80
70
0
62
253
6
CONTINUOUS
0
LAYER
2
OBJECT__81
70
0
62
253
6
CONTINUOUS
0
LAYER
2
OBJECT__83
70
0
62
253
6
CONTINUOUS
0
LAYER
2
OBJECT__84
70
0
62
253
6
CONTINUOUS
0
LAYER
2
OBJECT__85
70
0
62
253
6
CONTINUOUS
0
LAYER
2
OBJECT__86
70
0
62
253
6
CONTINUOUS
0
LAYER
2
OBJECT__87
70
0
62
253
6
CONTINUOUS
0
LAYER
2
OBJECT__88
70
0
62
253
6
CONTINUOUS
0
LAYER
2
OBJECT__90
70
0
62
253
6
CONTINUOUS
0
LAYER
2
OBJECT__91
70
0
62
253
6
CONTINUOUS
0
LAYER
2
OBJECT__92
70
0
62
253
6
CONTINUOUS
0
LAYER
2
OBJECT__93
70
0
62
253
6
CONTINUOUS
0
LAYER
2
OBJECT__95
70
0
62
253
6
CONTINUOUS
0
LAYER
2
OBJECT__96
70
0
62
253
6
CONTINUOUS
0
LAYER
2
OBJECT__98
70
0
62
253
6
CONTINUOUS
0
LAYER
2
OBJECT__99
70
0
62
253
6
CONTINUOUS
0
LAYER
2
OBJECT__101
70
0
62
253
6
CONTINUOUS
0
LAYER
2
OBJECT__102
70
0
62
253
6
CONTINUOUS
0
LAYER
2
OBJECT__104
70
0
62
253
6
CONTINUOUS
0
LAYER
2
OBJECT__105
70
0
62
253
6
CONTINUOUS
0
LAYER
2
OBJECT__107
70
0
62
253
6
CONTINUOUS
0
LAYER
2
OBJECT__108
70
0
62
253
6
CONTINUOUS
0
LAYER
2
OBJECT__109
70
0
62
253
6
CONTINUOUS
0
LAYER
2
OBJECT__110
70
0
62
253
6
CONTINUOUS
0
LAYER
2
OBJECT__111
70
0
62
253
6
CONTINUOUS
0
LAYER
2
OBJECT__113
70
0
62
253
6
CONTINUOUS
0
LAYER
2
OBJECT__114
70
0
62
253
6
CONTINUOUS
0
LAYER
2
OBJECT__115
70
0
62
253
6
CONTINUOUS
0
LAYER
2
OBJECT__117
70
0
62
253
6
CONTINUOUS
0
LAYER
2
OBJECT__118
70
0
62
253
6
CONTINUOUS
0
LAYER
2
OBJECT__119
70
0
62
253
6
CONTINUOUS
0
LAYER
2
OBJECT__120
70
0
62
253
6
CONTINUOUS
0
LAYER
2
OBJECT__122
70
0
62
253
6
CONTINUOUS
0
LAYER
2
OBJECT__123
70
0
62
253
6
CONTINUOUS
0
LAYER
2
OBJECT__124
70
0
62
253
6
CONTINUOUS
0
LAYER
2
OBJECT__125
70
0
62
253
6
CONTINUOUS
0
LAYER
2
OBJECT__126
70
0
62
253
6
CONTINUOUS
0
LAYER
2
OBJECT__128
70
0
62
253
6
CONTINUOUS
0
LAYER
2
OBJECT__129
70
0
62
253
6
CONTINUOUS
0
LAYER
2
OBJECT__130
70
0
62
253
6
CONTINUOUS
0
LAYER
2
OBJECT__131
70
0
62
253
6
CONTINUOUS
0
ENDTAB
0
TABLE
2
STYLE
70
1
0
STYLE
2
STANDARD
70
0
40
0.0
41
1.0
50
0.0
71
0
42
0.2
3
txt
4
1
0
ENDTAB
0
TABLE
2
UCS
70
0
0
ENDTAB
0
ENDSEC
0
SECTION
2
ENTITIES
0
POLYLINE
8
OBJECT__0
66
1
70
64
71
7
72
5
62
253
0
VERTEX
8
OBJECT__0
10
42.465000
20
-4.317000
30
-221.600006
70
192
0
VERTEX
8
OBJECT__0
10
35.714001
20
9.701000
30
-221.600006
70
192
0
VERTEX
8
OBJECT__0
10
27.296000
20
7.779000
30
-221.600006
70
192
0
VERTEX
8
OBJECT__0
10
42.465000
20
4.317000
30
-221.600006
70
192
0
VERTEX
8
OBJECT__0
10
23.549999
20
0.000000
30
-221.600006
70
192
0
VERTEX
8
OBJECT__0
10
27.296000
20
-7.779000
30
-221.600006
70
192
0
VERTEX
8
OBJECT__0
10
35.714001
20
-9.701000
30
-221.600006
70
192
0
VERTEX
8
OBJECT__0
10
0
20
0
30
0
70
128
71
1
72
2
73
3
0
VERTEX
8
OBJECT__0
10
0
20
0
30
0
70
128
71
1
72
4
73
2
0
VERTEX
8
OBJECT__0
10
0
20
0
30
0
70
128
71
1
72
5
73
6
0
VERTEX
8
OBJECT__0
10
0
20
0
30
0
70
128
71
6
72
7
73
1
0
VERTEX
8
OBJECT__0
10
0
20
0
30
0
70
128
71
3
72
5
73
1
0
SEQEND
8
OBJECT__0
0
POLYLINE
8
OBJECT__1
66
1
70
64
71
21
72
21
62
253
0
VERTEX
8
OBJECT__1
10
23.549999
20
0.000000
30
-221.600006
70
192
0
VERTEX
8
OBJECT__1
10
23.549999
20
0.000000
30
-224.800003
70
192
0
VERTEX
8
OBJECT__1
10
26.464001
20
-7.036000
30
-224.800003
70
192
0
VERTEX
8
OBJECT__1
10
27.296000
20
-7.779000
30
-221.600006
70
192
0
VERTEX
8
OBJECT__1
10
27.437000
20
-7.439000
30
-224.800003
70
192
0
VERTEX
8
OBJECT__1
10
33.500000
20
-9.950000
30
-224.800003
70
192
0
VERTEX
8
OBJECT__1
10
35.714001
20
-9.701000
30
-221.600006
70
192
0
VERTEX
8
OBJECT__1
10
35.478001
20
-9.131000
30
-224.800003
70
192
0
VERTEX
8
OBJECT__1
10
40.535999
20
-7.036000
30
-224.800003
70
192
0
VERTEX
8
OBJECT__1
10
42.465000
20
-4.317000
30
-221.600006
70
192
0
VERTEX
8
OBJECT__1
10
42.465000
20
4.317000
30
-221.600006
70
192
0
VERTEX
8
OBJECT__1
10
43.450001
20
0.000000
30
-224.800003
70
192
0
VERTEX
8
OBJECT__1
10
41.778999
20
-4.033000
30
-224.800003
70
192
0
VERTEX
8
OBJECT__1
10
35.714001
20
9.701000
30
-221.600006
70
192
0
VERTEX
8
OBJECT__1
10
40.535999
20
7.036000
30
-224.800003
70
192
0
VERTEX
8
OBJECT__1
10
41.778999
20
4.033000
30
-224.800003
70
192
0
VERTEX
8
OBJECT__1
10
27.296000
20
7.779000
30
-221.600006
70
192
0
VERTEX
8
OBJECT__1
10
33.500000
20
9.950000
30
-224.800003
70
192
0
VERTEX
8
OBJECT__1
10
35.478001
20
9.131000
30
-224.800003
70
192
0
VERTEX
8
OBJECT__1
10
26.464001
20
7.036000
30
-224.800003
70
192
0
VERTEX
8
OBJECT__1
10
27.437000
20
7.439000
30
-224.800003
70
192
0
VERTEX
8
OBJECT__1
10
0
20
0
30
0
70
128
71
1
72
2
73
3
0
VERTEX
8
OBJECT__1
10
0
20
0
30
0
70
128
71
3
72
4
73
1
0
VERTEX
8
OBJECT__1
10
0
20
0
30
0
70
128
71
4
72
5
73
6
0
VERTEX
8
OBJECT__1
10
0
20
0
30
0
70
128
71
6
72
7
73
4
0
VERTEX
8
OBJECT__1
10
0
20
0
30
0
70
128
71
7
72
8
73
9
0
VERTEX
8
OBJECT__1
10
0
20
0
30
0
70
128
71
9
72
10
73
7
0
VERTEX
8
OBJECT__1
10
0
20
0
30
0
70
128
71
11
72
10
73
12
0
VERTEX
8
OBJECT__1
10
0
20
0
30
0
70
128
71
10
72
13
73
12
0
VERTEX
8
OBJECT__1
10
0
20
0
30
0
70
128
71
14
72
11
73
15
0
VERTEX
8
OBJECT__1
10
0
20
0
30
0
70
128
71
11
72
16
73
15
0
VERTEX
8
OBJECT__1
10
0
20
0
30
0
70
128
71
17
72
14
73
18
0
VERTEX
8
OBJECT__1
10
0
20
0
30
0
70
128
71
14
72
19
73
18
0
VERTEX
8
OBJECT__1
10
0
20
0
30
0
70
128
71
1
72
17
73
20
0
VERTEX
8
OBJECT__1
10
0
20
0
30
0
70
128
71
17
72
21
73
20
0
VERTEX
8
OBJECT__1
10
0
20
0
30
0
70
128
71
20
72
2
73
1
0
VERTEX
8
OBJECT__1
10
0
20
0
30
0
70
128
71
18
72
21
73
17
0
VERTEX
8
OBJECT__1
10
0
20
0
30
0
70
128
71
15
72
19
73
14
0
VERTEX
8
OBJECT__1
10
0
20
0
30
0
70
128
71
12
72
16
73
11
0
VERTEX
8
OBJECT__1
10
0
20
0
30
0
70
128
71
9
72
13
73
10
0
VERTEX
8
OBJECT__1
10
0
20
0
30
0
70
128
71
6
72
8
73
7
0
VERTEX
8
OBJECT__1
10
0
20
0
30
0
70
128
71
3
72
5
73
4
0
SEQEND
8
OBJECT__1
0
POLYLINE
8
OBJECT__3
66
1
70
64
71
22
72
22
62
253
0
VERTEX
8
OBJECT__3
10
44.069000
20
0.000000
30
-225.419006
70
192
0
VERTEX
8
OBJECT__3
10
43.450001
20
0.000000
30
-224.800003
70
192
0
VERTEX
8
OBJECT__3
10
41.778999
20
-4.033000
30
-224.800003
70
192
0
VERTEX
8
OBJECT__3
10
40.973999
20
-7.474000
30
-225.419006
70
192
0
VERTEX
8
OBJECT__3
10
40.535999
20
-7.036000
30
-224.800003
70
192
0
VERTEX
8
OBJECT__3
10
35.478001
20
-9.131000
30
-224.800003
70
192
0
VERTEX
8
OBJECT__3
10
33.500000
20
-10.569000
30
-225.419006
70
192
0
VERTEX
8
OBJECT__3
10
33.500000
20
-9.950000
30
-224.800003
70
192
0
VERTEX
8
OBJECT__3
10
27.437000
20
-7.439000
30
-224.800003
70
192
0
VERTEX
8
OBJECT__3
10
26.025999
20
-7.474000
30
-225.419006
70
192
0
VERTEX
8
OBJECT__3
10
26.464001
20
-7.036000
30
-224.800003
70
192
0
VERTEX
8
OBJECT__3
10
23.549999
20
0.000000
30
-224.800003
70
192
0
VERTEX
8
OBJECT__3
10
22.931000
20
0.000000
30
-225.419006
70
192
0
VERTEX
8
OBJECT__3
10
26.464001
20
7.036000
30
-224.800003
70
192
0
VERTEX
8
OBJECT__3
10
33.500000
20
10.569000
30
-225.419006
70
192
0
VERTEX
8
OBJECT__3
10
26.025999
20
7.474000
30
-225.419006
70
192
0
VERTEX
8
OBJECT__3
10
27.437000
20
7.439000
30
-224.800003
70
192
0
VERTEX
8
OBJECT__3
10
40.973999
20
7.474000
30
-225.419006
70
192
0
VERTEX
8
OBJECT__3
10
35.478001
20
9.131000
30
-224.800003
70
192
0
VERTEX
8
OBJECT__3
10
33.500000
20
9.950000
30
-224.800003
70
192
0
VERTEX
8
OBJECT__3
10
41.778999
20
4.033000
30
-224.800003
70
192
0
VERTEX
8
OBJECT__3
10
40.535999
20
7.036000
30
-224.800003
70
192
0
VERTEX
8
OBJECT__3
10
0
20
0
30
0
70
128
71
1
72
2
73
3
0
VERTEX
8
OBJECT__3
10
0
20
0
30
0
70
128
71
3
72
4
73
1
0
VERTEX
8
OBJECT__3
10
0
20
0
30
0
70
128
71
4
72
5
73
6
0
VERTEX
8
OBJECT__3
10
0
20
0
30
0
70
128
71
6
72
7
73
4
0
VERTEX
8
OBJECT__3
10
0
20
0
30
0
70
128
71
7
72
8
73
9
0
VERTEX
8
OBJECT__3
10
0
20
0
30
0
70
128
71
9
72
10
73
7
0
VERTEX
8
OBJECT__3
10
0
20
0
30
0
70
128
71
10
72
11
73
12
0
VERTEX
8
OBJECT__3
10
0
20
0
30
0
70
128
71
13
72
12
73
14
0
VERTEX
8
OBJECT__3
10
0
20
0
30
0
70
128
71
15
72
16
73
17
0
VERTEX
8
OBJECT__3
10
0
20
0
30
0
70
128
71
16
72
14
73
17
0
VERTEX
8
OBJECT__3
10
0
20
0
30
0
70
128
71
18
72
15
73
19
0
VERTEX
8
OBJECT__3
10
0
20
0
30
0
70
128
71
15
72
20
73
19
0
VERTEX
8
OBJECT__3
10
0
20
0
30
0
70
128
71
1
72
18
73
21
0
VERTEX
8
OBJECT__3
10
0
20
0
30
0
70
128
71
18
72
22
73
21
0
VERTEX
8
OBJECT__3
10
0
20
0
30
0
70
128
71
21
72
2
73
1
0
VERTEX
8
OBJECT__3
10
0
20
0
30
0
70
128
71
19
72
22
73
18
0
VERTEX
8
OBJECT__3
10
0
20
0
30
0
70
128
71
17
72
20
73
15
0
VERTEX
8
OBJECT__3
10
0
20
0
30
0
70
128
71
14
72
16
73
13
0
VERTEX
8
OBJECT__3
10
0
20
0
30
0
70
128
71
12
72
13
73
10
0
VERTEX
8
OBJECT__3
10
0
20
0
30
0
70
128
71
9
72
11
73
10
0
VERTEX
8
OBJECT__3
10
0
20
0
30
0
70
128
71
6
72
8
73
7
0
VERTEX
8
OBJECT__3
10
0
20
0
30
0
70
128
71
3
72
5
73
4
0
SEQEND
8
OBJECT__3
0
POLYLINE
8
OBJECT__4
66
1
70
64
71
16
72
16
62
253
0
VERTEX
8
OBJECT__4
10
41.844002
20
-8.344000
30
-248.899994
70
192
0
VERTEX
8
OBJECT__4
10
45.299999
20
0.000000
30
-248.899994
70
192
0
VERTEX
8
OBJECT__4
10
44.069000
20
0.000000
30
-225.419006
70
192
0
VERTEX
8
OBJECT__4
10
33.500000
20
-11.800000
30
-248.899994
70
192
0
VERTEX
8
OBJECT__4
10
40.973999
20
-7.474000
30
-225.419006
70
192
0
VERTEX
8
OBJECT__4
10
25.156000
20
-8.344000
30
-248.899994
70
192
0
VERTEX
8
OBJECT__4
10
33.500000
20
-10.569000
30
-225.419006
70
192
0
VERTEX
8
OBJECT__4
10
26.025999
20
-7.474000
30
-225.419006
70
192
0
VERTEX
8
OBJECT__4
10
22.931000
20
0.000000
30
-225.419006
70
192
0
VERTEX
8
OBJECT__4
10
21.700001
20
0.000000
30
-248.899994
70
192
0
VERTEX
8
OBJECT__4
10
26.025999
20
7.474000
30
-225.419006
70
192
0
VERTEX
8
OBJECT__4
10
25.156000
20
8.344000
30
-248.899994
70
192
0
VERTEX
8
OBJECT__4
10
33.500000
20
10.569000
30
-225.419006
70
192
0
VERTEX
8
OBJECT__4
10
33.500000
20
11.800000
30
-248.899994
70
192
0
VERTEX
8
OBJECT__4
10
40.973999
20
7.474000
30
-225.419006
70
192
0
VERTEX
8
OBJECT__4
10
41.844002
20
8.344000
30
-248.899994
70
192
0
VERTEX
8
OBJECT__4
10
0
20
0
30
0
70
128
71
1
72
2
73
3
0
VERTEX
8
OBJECT__4
10
0
20
0
30
0
70
128
71
4
72
1
73
5
0
VERTEX
8
OBJECT__4
10
0
20
0
30
0
70
128
71
6
72
4
73
7
0
VERTEX
8
OBJECT__4
10
0
20
0
30
0
70
128
71
6
72
8
73
9
0
VERTEX
8
OBJECT__4
10
0
20
0
30
0
70
128
71
10
72
9
73
11
0
VERTEX
8
OBJECT__4
10
0
20
0
30
0
70
128
71
12
72
11
73
13
0
VERTEX
8
OBJECT__4
10
0
20
0
30
0
70
128
71
14
72
13
73
15
0
VERTEX
8
OBJECT__4
10
0
20
0
30
0
70
128
71
2
72
16
73
15
0
VERTEX
8
OBJECT__4
10
0
20
0
30
0
70
128
71
15
72
3
73
2
0
VERTEX
8
OBJECT__4
10
0
20
0
30
0
70
128
71
15
72
16
73
14
0
VERTEX
8
OBJECT__4
10
0
20
0
30
0
70
128
71
13
72
14
73
12
0
VERTEX
8
OBJECT__4
10
0
20
0
30
0
70
128
71
11
72
12
73
10
0
VERTEX
8
OBJECT__4
10
0
20
0
30
0
70
128
71
9
72
10
73
6
0
VERTEX
8
OBJECT__4
10
0
20
0
30
0
70
128
71
7
72
8
73
6
0
VERTEX
8
OBJECT__4
10
0
20
0
30
0
70
128
71
5
72
7
73
4
0
VERTEX
8
OBJECT__4
10
0
20
0
30
0
70
128
71
3
72
5
73
1
0
SEQEND
8
OBJECT__4
0
POLYLINE
8
OBJECT__5
66
1
70
64
71
16
72
16
62
253
0
VERTEX
8
OBJECT__5
10
21.700001
20
0.000000
30
-248.899994
70
192
0
VERTEX
8
OBJECT__5
10
22.200001
20
0.000000
30
-249.399994
70
192
0
VERTEX
8
OBJECT__5
10
25.510000
20
-7.990000
30
-249.399994
70
192
0
VERTEX
8
OBJECT__5
10
33.500000
20
-11.800000
30
-248.899994
70
192
0
VERTEX
8
OBJECT__5
10
25.156000
20
-8.344000
30
-248.899994
70
192
0
VERTEX
8
OBJECT__5
10
33.500000
20
-11.300000
30
-249.399994
70
192
0
VERTEX
8
OBJECT__5
10
41.490002
20
-7.990000
30
-249.399994
70
192
0
VERTEX
8
OBJECT__5
10
41.844002
20
-8.344000
30
-248.899994
70
192
0
VERTEX
8
OBJECT__5
10
44.799999
20
0.000000
30
-249.399994
70
192
0
VERTEX
8
OBJECT__5
10
41.844002
20
8.344000
30
-248.899994
70
192
0
VERTEX
8
OBJECT__5
10
45.299999
20
0.000000
30
-248.899994
70
192
0
VERTEX
8
OBJECT__5
10
33.500000
20
11.800000
30
-248.899994
70
192
0
VERTEX
8
OBJECT__5
10
41.490002
20
7.990000
30
-249.399994
70
192
0
VERTEX
8
OBJECT__5
10
25.156000
20
8.344000
30
-248.899994
70
192
0
VERTEX
8
OBJECT__5
10
33.500000
20
11.300000
30
-249.399994
70
192
0
VERTEX
8
OBJECT__5
10
25.510000
20
7.990000
30
-249.399994
70
192
0
VERTEX
8
OBJECT__5
10
0
20
0
30
0
70
128
71
1
72
2
73
3
0
VERTEX
8
OBJECT__5
10
0
20
0
30
0
70
128
71
4
72
5
73
3
0
VERTEX
8
OBJECT__5
10
0
20
0
30
0
70
128
71
4
72
6
73
7
0
VERTEX
8
OBJECT__5
10
0
20
0
30
0
70
128
71
8
72
7
73
9
0
VERTEX
8
OBJECT__5
10
0
20
0
30
0
70
128
71
10
72
11
73
9
0
VERTEX
8
OBJECT__5
10
0
20
0
30
0
70
128
71
12
72
10
73
13
0
VERTEX
8
OBJECT__5
10
0
20
0
30
0
70
128
71
14
72
12
73
15
0
VERTEX
8
OBJECT__5
10
0
20
0
30
0
70
128
71
14
72
16
73
2
0
VERTEX
8
OBJECT__5
10
0
20
0
30
0
70
128
71
2
72
1
73
14
0
VERTEX
8
OBJECT__5
10
0
20
0
30
0
70
128
71
15
72
16
73
14
0
VERTEX
8
OBJECT__5
10
0
20
0
30
0
70
128
71
13
72
15
73
12
0
VERTEX
8
OBJECT__5
10
0
20
0
30
0
70
128
71
9
72
13
73
10
0
VERTEX
8
OBJECT__5
10
0
20
0
30
0
70
128
71
9
72
11
73
8
0
VERTEX
8
OBJECT__5
10
0
20
0
30
0
70
128
71
7
72
8
73
4
0
VERTEX
8
OBJECT__5
10
0
20
0
30
0
70
128
71
3
72
6
73
4
0
VERTEX
8
OBJECT__5
10
0
20
0
30
0
70
128
71
3
72
5
73
1
0
SEQEND
8
OBJECT__5
0
POLYLINE
8
OBJECT__6
66
1
70
64
71
16
72
16
62
253
0
VERTEX
8
OBJECT__6
10
25.510000
20
-7.990000
30
-252.399994
70
192
0
VERTEX
8
OBJECT__6
10
25.510000
20
-7.990000
30
-249.399994
70
192
0
VERTEX
8
OBJECT__6
10
22.200001
20
0.000000
30
-249.399994
70
192
0
VERTEX
8
OBJECT__6
10
33.500000
20
-11.300000
30
-252.399994
70
192
0
VERTEX
8
OBJECT__6
10
33.500000
20
-11.300000
30
-249.399994
70
192
0
VERTEX
8
OBJECT__6
10
41.490002
20
-7.990000
30
-249.399994
70
192
0
VERTEX
8
OBJECT__6
10
41.490002
20
-7.990000
30
-252.399994
70
192
0
VERTEX
8
OBJECT__6
10
44.799999
20
0.000000
30
-252.399994
70
192
0
VERTEX
8
OBJECT__6
10
44.799999
20
0.000000
30
-249.399994
70
192
0
VERTEX
8
OBJECT__6
10
41.490002
20
7.990000
30
-249.399994
70
192
0
VERTEX
8
OBJECT__6
10
33.500000
20
11.300000
30
-249.399994
70
192
0
VERTEX
8
OBJECT__6
10
41.490002
20
7.990000
30
-252.399994
70
192
0
VERTEX
8
OBJECT__6
10
25.510000
20
7.990000
30
-252.399994
70
192
0
VERTEX
8
OBJECT__6
10
25.510000
20
7.990000
30
-249.399994
70
192
0
VERTEX
8
OBJECT__6
10
22.200001
20
0.000000
30
-252.399994
70
192
0
VERTEX
8
OBJECT__6
10
33.500000
20
11.300000
30
-252.399994
70
192
0
VERTEX
8
OBJECT__6
10
0
20
0
30
0
70
128
71
1
72
2
73
3
0
VERTEX
8
OBJECT__6
10
0
20
0
30
0
70
128
71
4
72
5
73
2
0
VERTEX
8
OBJECT__6
10
0
20
0
30
0
70
128
71
6
72
5
73
4
0
VERTEX
8
OBJECT__6
10
0
20
0
30
0
70
128
71
7
72
8
73
9
0
VERTEX
8
OBJECT__6
10
0
20
0
30
0
70
128
71
10
72
9
73
8
0
VERTEX
8
OBJECT__6
10
0
20
0
30
0
70
128
71
11
72
10
73
12
0
VERTEX
8
OBJECT__6
10
0
20
0
30
0
70
128
71
13
72
14
73
11
0
VERTEX
8
OBJECT__6
10
0
20
0
30
0
70
128
71
14
72
13
73
15
0
VERTEX
8
OBJECT__6
10
0
20
0
30
0
70
128
71
15
72
3
73
14
0
VERTEX
8
OBJECT__6
10
0
20
0
30
0
70
128
71
11
72
16
73
13
0
VERTEX
8
OBJECT__6
10
0
20
0
30
0
70
128
71
12
72
16
73
11
0
VERTEX
8
OBJECT__6
10
0
20
0
30
0
70
128
71
8
72
12
73
10
0
VERTEX
8
OBJECT__6
10
0
20
0
30
0
70
128
71
9
72
6
73
7
0
VERTEX
8
OBJECT__6
10
0
20
0
30
0
70
128
71
4
72
7
73
6
0
VERTEX
8
OBJECT__6
10
0
20
0
30
0
70
128
71
2
72
1
73
4
0
VERTEX
8
OBJECT__6
10
0
20
0
30
0
70
128
71
3
72
15
73
1
0
SEQEND
8
OBJECT__6
0
POLYLINE
8
OBJECT__7
66
1
70
64
71
8
72
6
62
253
0
VERTEX
8
OBJECT__7
10
44.799999
20
0.000000
30
-252.399994
70
192
0
VERTEX
8
OBJECT__7
10
41.490002
20
-7.990000
30
-252.399994
70
192
0
VERTEX
8
OBJECT__7
10
33.500000
20
-11.300000
30
-252.399994
70
192
0
VERTEX
8
OBJECT__7
10
41.490002
20
7.990000
30
-252.399994
70
192
0
VERTEX
8
OBJECT__7
10
22.200001
20
0.000000
30
-252.399994
70
192
0
VERTEX
8
OBJECT__7
10
25.510000
20
7.990000
30
-252.399994
70
192
0
VERTEX
8
OBJECT__7
10
25.510000
20
-7.990000
30
-252.399994
70
192
0
VERTEX
8
OBJECT__7
10
33.500000
20
11.300000
30
-252.399994
70
192
0
VERTEX
8
OBJECT__7
10
0
20
0
30
0
70
128
71
1
72
2
73
3
0
VERTEX
8
OBJECT__7
10
0
20
0
30
0
70
128
71
4
72
5
73
6
0
VERTEX
8
OBJECT__7
10
0
20
0
30
0
70
128
71
7
72
4
73
1
0
VERTEX
8
OBJECT__7
10
0
20
0
30
0
70
128
71
4
72
7
73
5
0
VERTEX
8
OBJECT__7
10
0
20
0
30
0
70
128
71
6
72
8
73
4
0
VERTEX
8
OBJECT__7
10
0
20
0
30
0
70
128
71
3
72
7
73
1
0
SEQEND
8
OBJECT__7
0
POLYLINE
8
OBJECT__8
66
1
70
64
71
6
72
4
62
253
0
VERTEX
8
OBJECT__8
10
91.050003
20
-7.107000
30
21.874001
70
192
0
VERTEX
8
OBJECT__8
10
91.050003
20
0.000000
30
-23.000000
70
192
0
VERTEX
8
OBJECT__8
10
91.050003
20
-7.107000
30
-21.874001
70
192
0
VERTEX
8
OBJECT__8
10
91.050003
20
18.607000
30
13.519000
70
192
0
VERTEX
8
OBJECT__8
10
91.050003
20
18.607000
30
-13.519000
70
192
0
VERTEX
8
OBJECT__8
10
91.050003
20
-23.000000
30
0.000000
70
192
0
VERTEX
8
OBJECT__8
10
0
20
0
30
0
70
128
71
1
72
2
73
3
0
VERTEX
8
OBJECT__8
10
0
20
0
30
0
70
128
71
1
72
4
73
5
0
VERTEX
8
OBJECT__8
10
0
20
0
30
0
70
128
71
5
72
2
73
1
0
VERTEX
8
OBJECT__8
10
0
20
0
30
0
70
128
71
3
72
6
73
1
0
SEQEND
8
OBJECT__8
0
POLYLINE
8
OBJECT__9
66
1
70
64
71
28
72
30
62
253
0
VERTEX
8
OBJECT__9
10
91.050003
20
-23.000000
30
0.000000
70
192
0
VERTEX
8
OBJECT__9
10
103.087997
20
-22.790001
30
0.000000
70
192
0
VERTEX
8
OBJECT__9
10
103.087997
20
-17.818001
30
14.209000
70
192
0
VERTEX
8
OBJECT__9
10
91.050003
20
-7.107000
30
21.874001
70
192
0
VERTEX
8
OBJECT__9
10
103.087997
20
-6.153000
30
19.827000
70
192
0
VERTEX
8
OBJECT__9
10
97.037003
20
-4.339000
30
22.479000
70
192
0
VERTEX
8
OBJECT__9
10
96.436996
20
-4.455000
30
22.468000
70
192
0
VERTEX
8
OBJECT__9
10
99.324997
20
-3.893000
30
22.521999
70
192
0
VERTEX
8
OBJECT__9
10
100.225998
20
-3.206000
30
22.614000
70
192
0
VERTEX
8
OBJECT__9
10
103.087997
20
0.000000
30
22.790001
70
192
0
VERTEX
8
OBJECT__9
10
103.087997
20
17.818001
30
14.209000
70
192
0
VERTEX
8
OBJECT__9
10
100.910004
20
2.344000
30
22.707001
70
192
0
VERTEX
8
OBJECT__9
10
100.635002
20
0.115000
30
22.670000
70
192
0
VERTEX
8
OBJECT__9
10
96.828003
20
3.843000
30
22.559999
70
192
0
VERTEX
8
OBJECT__9
10
103.087997
20
18.025000
30
13.301000
70
192
0
VERTEX
8
OBJECT__9
10
91.050003
20
18.607000
30
13.519000
70
192
0
VERTEX
8
OBJECT__9
10
95.656998
20
4.273000
30
22.518000
70
192
0
VERTEX
8
OBJECT__9
10
92.587997
20
-0.413000
30
22.969000
70
192
0
VERTEX
8
OBJECT__9
10
92.772003
20
-0.132000
30
22.941999
70
192
0
VERTEX
8
OBJECT__9
10
103.087997
20
22.218000
30
-5.071000
70
192
0
VERTEX
8
OBJECT__9
10
91.050003
20
18.607000
30
-13.519000
70
192
0
VERTEX
8
OBJECT__9
10
103.087997
20
-7.042000
30
-20.533001
70
192
0
VERTEX
8
OBJECT__9
10
91.050003
20
-7.107000
30
-21.874001
70
192
0
VERTEX
8
OBJECT__9
10
91.050003
20
0.000000
30
-23.000000
70
192
0
VERTEX
8
OBJECT__9
10
103.087997
20
16.691000
30
-12.003000
70
192
0
VERTEX
8
OBJECT__9
10
103.087997
20
9.888000
30
-20.533001
70
192
0
VERTEX
8
OBJECT__9
10
103.087997
20
-9.888000
30
-20.533001
70
192
0
VERTEX
8
OBJECT__9
10
103.087997
20
-22.218000
30
-5.071000
70
192
0
VERTEX
8
OBJECT__9
10
0
20
0
30
0
70
128
71
1
72
2
73
3
0
VERTEX
8
OBJECT__9
10
0
20
0
30
0
70
128
71
3
72
4
73
1
0
VERTEX
8
OBJECT__9
10
0
20
0
30
0
70
128
71
5
72
6
73
7
0
VERTEX
8
OBJECT__9
10
0
20
0
30
0
70
128
71
5
72
8
73
6
0
VERTEX
8
OBJECT__9
10
0
20
0
30
0
70
128
71
5
72
9
73
8
0
VERTEX
8
OBJECT__9
10
0
20
0
30
0
70
128
71
10
72
11
73
12
0
VERTEX
8
OBJECT__9
10
0
20
0
30
0
70
128
71
10
72
13
73
9
0
VERTEX
8
OBJECT__9
10
0
20
0
30
0
70
128
71
9
72
5
73
10
0
VERTEX
8
OBJECT__9
10
0
20
0
30
0
70
128
71
12
72
13
73
10
0
VERTEX
8
OBJECT__9
10
0
20
0
30
0
70
128
71
14
72
12
73
11
0
VERTEX
8
OBJECT__9
10
0
20
0
30
0
70
128
71
15
72
16
73
17
0
VERTEX
8
OBJECT__9
10
0
20
0
30
0
70
128
71
17
72
14
73
15
0
VERTEX
8
OBJECT__9
10
0
20
0
30
0
70
128
71
11
72
15
73
14
0
VERTEX
8
OBJECT__9
10
0
20
0
30
0
70
128
71
16
72
18
73
19
0
VERTEX
8
OBJECT__9
10
0
20
0
30
0
70
128
71
16
72
4
73
18
0
VERTEX
8
OBJECT__9
10
0
20
0
30
0
70
128
71
19
72
17
73
16
0
VERTEX
8
OBJECT__9
10
0
20
0
30
0
70
128
71
4
72
7
73
18
0
VERTEX
8
OBJECT__9
10
0
20
0
30
0
70
128
71
16
72
15
73
20
0
VERTEX
8
OBJECT__9
10
0
20
0
30
0
70
128
71
20
72
21
73
16
0
VERTEX
8
OBJECT__9
10
0
20
0
30
0
70
128
71
22
72
23
73
24
0
VERTEX
8
OBJECT__9
10
0
20
0
30
0
70
128
71
21
72
25
73
26
0
VERTEX
8
OBJECT__9
10
0
20
0
30
0
70
128
71
26
72
24
73
21
0
VERTEX
8
OBJECT__9
10
0
20
0
30
0
70
128
71
23
72
27
73
28
0
VERTEX
8
OBJECT__9
10
0
20
0
30
0
70
128
71
28
72
1
73
23
0
VERTEX
8
OBJECT__9
10
0
20
0
30
0
70
128
71
23
72
22
73
27
0
VERTEX
8
OBJECT__9
10
0
20
0
30
0
70
128
71
28
72
2
73
1
0
VERTEX
8
OBJECT__9
10
0
20
0
30
0
70
128
71
24
72
26
73
22
0
VERTEX
8
OBJECT__9
10
0
20
0
30
0
70
128
71
20
72
25
73
21
0
VERTEX
8
OBJECT__9
10
0
20
0
30
0
70
128
71
7
72
4
73
5
0
VERTEX
8
OBJECT__9
10
0
20
0
30
0
70
128
71
3
72
5
73
4
0
SEQEND
8
OBJECT__9
0
POLYLINE
8
OBJECT__11
66
1
70
64
71
13
72
12
62
253
0
VERTEX
8
OBJECT__11
10
105.100998
20
0.000000
30
0.000000
70
192
0
VERTEX
8
OBJECT__11
10
103.087997
20
0.000000
30
22.790001
70
192
0
VERTEX
8
OBJECT__11
10
103.087997
20
-6.153000
30
19.827000
70
192
0
VERTEX
8
OBJECT__11
10
103.087997
20
-17.818001
30
14.209000
70
192
0
VERTEX
8
OBJECT__11
10
103.087997
20
-22.790001
30
0.000000
70
192
0
VERTEX
8
OBJECT__11
10
103.087997
20
-9.888000
30
-20.533001
70
192
0
VERTEX
8
OBJECT__11
10
103.087997
20
-7.042000
30
-20.533001
70
192
0
VERTEX
8
OBJECT__11
10
103.087997
20
9.888000
30
-20.533001
70
192
0
VERTEX
8
OBJECT__11
10
103.087997
20
16.691000
30
-12.003000
70
192
0
VERTEX
8
OBJECT__11
10
103.087997
20
22.218000
30
-5.071000
70
192
0
VERTEX
8
OBJECT__11
10
103.087997
20
18.025000
30
13.301000
70
192
0
VERTEX
8
OBJECT__11
10
103.087997
20
17.818001
30
14.209000
70
192
0
VERTEX
8
OBJECT__11
10
103.087997
20
-22.218000
30
-5.071000
70
192
0
VERTEX
8
OBJECT__11
10
0
20
0
30
0
70
128
71
1
72
2
73
3
0
VERTEX
8
OBJECT__11
10
0
20
0
30
0
70
128
71
1
72
4
73
5
0
VERTEX
8
OBJECT__11
10
0
20
0
30
0
70
128
71
1
72
6
73
7
0
VERTEX
8
OBJECT__11
10
0
20
0
30
0
70
128
71
1
72
8
73
9
0
VERTEX
8
OBJECT__11
10
0
20
0
30
0
70
128
71
1
72
10
73
11
0
VERTEX
8
OBJECT__11
10
0
20
0
30
0
70
128
71
1
72
12
73
2
0
VERTEX
8
OBJECT__11
10
0
20
0
30
0
70
128
71
11
72
12
73
1
0
VERTEX
8
OBJECT__11
10
0
20
0
30
0
70
128
71
9
72
10
73
1
0
VERTEX
8
OBJECT__11
10
0
20
0
30
0
70
128
71
7
72
8
73
1
0
VERTEX
8
OBJECT__11
10
0
20
0
30
0
70
128
71
1
72
13
73
6
0
VERTEX
8
OBJECT__11
10
0
20
0
30
0
70
128
71
5
72
13
73
1
0
VERTEX
8
OBJECT__11
10
0
20
0
30
0
70
128
71
3
72
4
73
1
0
SEQEND
8
OBJECT__11
0
POLYLINE
8
OBJECT__12
66
1
70
64
71
17
72
18
62
253
0
VERTEX
8
OBJECT__12
10
96.828003
20
3.843000
30
22.559999
70
192
0
VERTEX
8
OBJECT__12
10
97.891998
20
3.074000
30
59.709999
70
192
0
VERTEX
8
OBJECT__12
10
99.319000
20
3.897000
30
59.709999
70
192
0
VERTEX
8
OBJECT__12
10
101.569000
20
0.000000
30
59.709999
70
192
0
VERTEX
8
OBJECT__12
10
100.635002
20
0.115000
30
22.670000
70
192
0
VERTEX
8
OBJECT__12
10
100.910004
20
2.344000
30
22.707001
70
192
0
VERTEX
8
OBJECT__12
10
95.656998
20
4.273000
30
22.518000
70
192
0
VERTEX
8
OBJECT__12
10
92.772003
20
-0.132000
30
22.941999
70
192
0
VERTEX
8
OBJECT__12
10
96.436996
20
-4.455000
30
22.468000
70
192
0
VERTEX
8
OBJECT__12
10
97.037003
20
-4.339000
30
22.479000
70
192
0
VERTEX
8
OBJECT__12
10
94.036003
20
-3.325000
30
22.725000
70
192
0
VERTEX
8
OBJECT__12
10
92.587997
20
-0.413000
30
22.969000
70
192
0
VERTEX
8
OBJECT__12
10
97.891998
20
-3.074000
30
59.709999
70
192
0
VERTEX
8
OBJECT__12
10
92.569000
20
0.000000
30
59.709999
70
192
0
VERTEX
8
OBJECT__12
10
100.225998
20
-3.206000
30
22.614000
70
192
0
VERTEX
8
OBJECT__12
10
99.319000
20
-3.897000
30
59.709999
70
192
0
VERTEX
8
OBJECT__12
10
99.324997
20
-3.893000
30
22.521999
70
192
0
VERTEX
8
OBJECT__12
10
0
20
0
30
0
70
128
71
1
72
2
73
3
0
VERTEX
8
OBJECT__12
10
0
20
0
30
0
70
128
71
4
72
5
73
6
0
VERTEX
8
OBJECT__12
10
0
20
0
30
0
70
128
71
6
72
3
73
4
0
VERTEX
8
OBJECT__12
10
0
20
0
30
0
70
128
71
2
72
7
73
8
0
VERTEX
8
OBJECT__12
10
0
20
0
30
0
70
128
71
2
72
1
73
7
0
VERTEX
8
OBJECT__12
10
0
20
0
30
0
70
128
71
9
72
10
73
11
0
VERTEX
8
OBJECT__12
10
0
20
0
30
0
70
128
71
11
72
12
73
9
0
VERTEX
8
OBJECT__12
10
0
20
0
30
0
70
128
71
13
72
12
73
11
0
VERTEX
8
OBJECT__12
10
0
20
0
30
0
70
128
71
14
72
8
73
12
0
VERTEX
8
OBJECT__12
10
0
20
0
30
0
70
128
71
12
72
13
73
14
0
VERTEX
8
OBJECT__12
10
0
20
0
30
0
70
128
71
11
72
10
73
13
0
VERTEX
8
OBJECT__12
10
0
20
0
30
0
70
128
71
15
72
5
73
16
0
VERTEX
8
OBJECT__12
10
0
20
0
30
0
70
128
71
16
72
13
73
15
0
VERTEX
8
OBJECT__12
10
0
20
0
30
0
70
128
71
5
72
4
73
16
0
VERTEX
8
OBJECT__12
10
0
20
0
30
0
70
128
71
13
72
10
73
17
0
VERTEX
8
OBJECT__12
10
0
20
0
30
0
70
128
71
17
72
15
73
13
0
VERTEX
8
OBJECT__12
10
0
20
0
30
0
70
128
71
8
72
14
73
2
0
VERTEX
8
OBJECT__12
10
0
20
0
30
0
70
128
71
3
72
6
73
1
0
SEQEND
8
OBJECT__12
0
POLYLINE
8
OBJECT__13
66
1
70
64
71
7
72
6
62
253
0
VERTEX
8
OBJECT__13
10
97.069000
20
0.000000
30
60.000000
70
192
0
VERTEX
8
OBJECT__13
10
92.569000
20
0.000000
30
59.709999
70
192
0
VERTEX
8
OBJECT__13
10
97.891998
20
-3.074000
30
59.709999
70
192
0
VERTEX
8
OBJECT__13
10
99.319000
20
-3.897000
30
59.709999
70
192
0
VERTEX
8
OBJECT__13
10
101.569000
20
0.000000
30
59.709999
70
192
0
VERTEX
8
OBJECT__13
10
99.319000
20
3.897000
30
59.709999
70
192
0
VERTEX
8
OBJECT__13
10
97.891998
20
3.074000
30
59.709999
70
192
0
VERTEX
8
OBJECT__13
10
0
20
0
30
0
70
128
71
1
72
2
73
3
0
VERTEX
8
OBJECT__13
10
0
20
0
30
0
70
128
71
1
72
4
73
5
0
VERTEX
8
OBJECT__13
10
0
20
0
30
0
70
128
71
1
72
6
73
7
0
VERTEX
8
OBJECT__13
10
0
20
0
30
0
70
128
71
7
72
2
73
1
0
VERTEX
8
OBJECT__13
10
0
20
0
30
0
70
128
71
5
72
6
73
1
0
VERTEX
8
OBJECT__13
10
0
20
0
30
0
70
128
71
3
72
4
73
1
0
SEQEND
8
OBJECT__13
0
POLYLINE
8
OBJECT__14
66
1
70
64
71
16
72
18
62
253
0
VERTEX
8
OBJECT__14
10
39.099998
20
0.000000
30
17.500000
70
192
0
VERTEX
8
OBJECT__14
10
39.099998
20
0.000000
30
1007.500000
70
192
0
VERTEX
8
OBJECT__14
10
50.000000
20
10.900000
30
1007.500000
70
192
0
VERTEX
8
OBJECT__14
10
50.000000
20
-10.900000
30
17.500000
70
192
0
VERTEX
8
OBJECT__14
10
50.000000
20
-10.900000
30
1007.500000
70
192
0
VERTEX
8
OBJECT__14
10
60.900002
20
0.000000
30
1007.500000
70
192
0
VERTEX
8
OBJECT__14
10
60.730000
20
-1.920000
30
1005.473022
70
192
0
VERTEX
8
OBJECT__14
10
60.900002
20
0.000000
30
17.500000
70
192
0
VERTEX
8
OBJECT__14
10
60.820000
20
0.007000
30
1000.786011
70
192
0
VERTEX
8
OBJECT__14
10
60.591999
20
-2.572000
30
1001.960022
70
192
0
VERTEX
8
OBJECT__14
10
50.000000
20
10.900000
30
17.500000
70
192
0
VERTEX
8
OBJECT__14
10
60.879002
20
0.678000
30
1000.479980
70
192
0
VERTEX
8
OBJECT__14
10
60.507000
20
2.900000
30
1003.299988
70
192
0
VERTEX
8
OBJECT__14
10
60.772999
20
1.662000
30
1005.677002
70
192
0
VERTEX
8
OBJECT__14
10
60.539001
20
2.782000
30
1004.119019
70
192
0
VERTEX
8
OBJECT__14
10
60.752998
20
0.002000
30
1005.581970
70
192
0
VERTEX
8
OBJECT__14
10
0
20
0
30
0
70
128
71
1
72
2
73
3
0
VERTEX
8
OBJECT__14
10
0
20
0
30
0
70
128
71
4
72
5
73
2
0
VERTEX
8
OBJECT__14
10
0
20
0
30
0
70
128
71
6
72
5
73
7
0
VERTEX
8
OBJECT__14
10
0
20
0
30
0
70
128
71
4
72
8
73
9
0
VERTEX
8
OBJECT__14
10
0
20
0
30
0
70
128
71
9
72
10
73
4
0
VERTEX
8
OBJECT__14
10
0
20
0
30
0
70
128
71
10
72
5
73
4
0
VERTEX
8
OBJECT__14
10
0
20
0
30
0
70
128
71
10
72
7
73
5
0
VERTEX
8
OBJECT__14
10
0
20
0
30
0
70
128
71
8
72
11
73
12
0
VERTEX
8
OBJECT__14
10
0
20
0
30
0
70
128
71
11
72
3
73
13
0
VERTEX
8
OBJECT__14
10
0
20
0
30
0
70
128
71
3
72
14
73
15
0
VERTEX
8
OBJECT__14
10
0
20
0
30
0
70
128
71
15
72
13
73
3
0
VERTEX
8
OBJECT__14
10
0
20
0
30
0
70
128
71
6
72
16
73
14
0
VERTEX
8
OBJECT__14
10
0
20
0
30
0
70
128
71
14
72
3
73
6
0
VERTEX
8
OBJECT__14
10
0
20
0
30
0
70
128
71
13
72
12
73
11
0
VERTEX
8
OBJECT__14
10
0
20
0
30
0
70
128
71
12
72
9
73
8
0
VERTEX
8
OBJECT__14
10
0
20
0
30
0
70
128
71
7
72
16
73
6
0
VERTEX
8
OBJECT__14
10
0
20
0
30
0
70
128
71
2
72
1
73
4
0
VERTEX
8
OBJECT__14
10
0
20
0
30
0
70
128
71
3
72
11
73
1
0
SEQEND
8
OBJECT__14
0
POLYLINE
8
OBJECT__16
66
1
70
64
71
8
72
8
62
253
0
VERTEX
8
OBJECT__16
10
67.000000
20
-7.500000
30
-59.400002
70
192
0
VERTEX
8
OBJECT__16
10
67.000000
20
-7.500000
30
-38.900002
70
192
0
VERTEX
8
OBJECT__16
10
59.500000
20
0.000000
30
-38.900002
70
192
0
VERTEX
8
OBJECT__16
10
74.500000
20
0.000000
30
-38.900002
70
192
0
VERTEX
8
OBJECT__16
10
67.000000
20
7.500000
30
-59.400002
70
192
0
VERTEX
8
OBJECT__16
10
67.000000
20
7.500000
30
-38.900002
70
192
0
VERTEX
8
OBJECT__16
10
59.500000
20
0.000000
30
-59.400002
70
192
0
VERTEX
8
OBJECT__16
10
74.500000
20
0.000000
30
-59.400002
70
192
0
VERTEX
8
OBJECT__16
10
0
20
0
30
0
70
128
71
1
72
2
73
3
0
VERTEX
8
OBJECT__16
10
0
20
0
30
0
70
128
71
4
72
2
73
1
0
VERTEX
8
OBJECT__16
10
0
20
0
30
0
70
128
71
5
72
6
73
4
0
VERTEX
8
OBJECT__16
10
0
20
0
30
0
70
128
71
7
72
3
73
6
0
VERTEX
8
OBJECT__16
10
0
20
0
30
0
70
128
71
6
72
5
73
7
0
VERTEX
8
OBJECT__16
10
0
20
0
30
0
70
128
71
4
72
8
73
5
0
VERTEX
8
OBJECT__16
10
0
20
0
30
0
70
128
71
1
72
8
73
4
0
VERTEX
8
OBJECT__16
10
0
20
0
30
0
70
128
71
3
72
7
73
1
0
SEQEND
8
OBJECT__16
0
POLYLINE
8
OBJECT__17
66
1
70
64
71
4
72
2
62
253
0
VERTEX
8
OBJECT__17
10
67.000000
20
7.500000
30
-59.400002
70
192
0
VERTEX
8
OBJECT__17
10
74.500000
20
0.000000
30
-59.400002
70
192
0
VERTEX
8
OBJECT__17
10
67.000000
20
-7.500000
30
-59.400002
70
192
0
VERTEX
8
OBJECT__17
10
59.500000
20
0.000000
30
-59.400002
70
192
0
VERTEX
8
OBJECT__17
10
0
20
0
30
0
70
128
71
1
72
2
73
3
0
VERTEX
8
OBJECT__17
10
0
20
0
30
0
70
128
71
3
72
4
73
1
0
SEQEND
8
OBJECT__17
0
POLYLINE
8
OBJECT__19
66
1
70
64
71
8
72
8
62
253
0
VERTEX
8
OBJECT__19
10
33.500000
20
7.500000
30
-59.900002
70
192
0
VERTEX
8
OBJECT__19
10
33.500000
20
7.500000
30
-39.400002
70
192
0
VERTEX
8
OBJECT__19
10
41.000000
20
0.000000
30
-39.400002
70
192
0
VERTEX
8
OBJECT__19
10
26.000000
20
0.000000
30
-59.900002
70
192
0
VERTEX
8
OBJECT__19
10
26.000000
20
0.000000
30
-39.400002
70
192
0
VERTEX
8
OBJECT__19
10
33.500000
20
-7.500000
30
-59.900002
70
192
0
VERTEX
8
OBJECT__19
10
33.500000
20
-7.500000
30
-39.400002
70
192
0
VERTEX
8
OBJECT__19
10
41.000000
20
0.000000
30
-59.900002
70
192
0
VERTEX
8
OBJECT__19
10
0
20
0
30
0
70
128
71
1
72
2
73
3
0
VERTEX
8
OBJECT__19
10
0
20
0
30
0
70
128
71
4
72
5
73
2
0
VERTEX
8
OBJECT__19
10
0
20
0
30
0
70
128
71
6
72
7
73
5
0
VERTEX
8
OBJECT__19
10
0
20
0
30
0
70
128
71
8
72
3
73
7
0
VERTEX
8
OBJECT__19
10
0
20
0
30
0
70
128
71
7
72
6
73
8
0
VERTEX
8
OBJECT__19
10
0
20
0
30
0
70
128
71
5
72
4
73
6
0
VERTEX
8
OBJECT__19
10
0
20
0
30
0
70
128
71
2
72
1
73
4
0
VERTEX
8
OBJECT__19
10
0
20
0
30
0
70
128
71
3
72
8
73
1
0
SEQEND
8
OBJECT__19
0
POLYLINE
8
OBJECT__20
66
1
70
64
71
4
72
2
62
253
0
VERTEX
8
OBJECT__20
10
33.500000
20
-7.500000
30
-59.900002
70
192
0
VERTEX
8
OBJECT__20
10
26.000000
20
0.000000
30
-59.900002
70
192
0
VERTEX
8
OBJECT__20
10
33.500000
20
7.500000
30
-59.900002
70
192
0
VERTEX
8
OBJECT__20
10
41.000000
20
0.000000
30
-59.900002
70
192
0
VERTEX
8
OBJECT__20
10
0
20
0
30
0
70
128
71
1
72
2
73
3
0
VERTEX
8
OBJECT__20
10
0
20
0
30
0
70
128
71
3
72
4
73
1
0
SEQEND
8
OBJECT__20
0
POLYLINE
8
OBJECT__22
66
1
70
64
71
8
72
8
62
253
0
VERTEX
8
OBJECT__22
10
76.000000
20
0.000000
30
-28.500000
70
192
0
VERTEX
8
OBJECT__22
10
67.000000
20
9.000000
30
-28.500000
70
192
0
VERTEX
8
OBJECT__22
10
67.000000
20
9.000000
30
-20.000000
70
192
0
VERTEX
8
OBJECT__22
10
76.000000
20
0.000000
30
-20.000000
70
192
0
VERTEX
8
OBJECT__22
10
58.000000
20
0.000000
30
-28.500000
70
192
0
VERTEX
8
OBJECT__22
10
58.000000
20
0.000000
30
-20.000000
70
192
0
VERTEX
8
OBJECT__22
10
67.000000
20
-9.000000
30
-28.500000
70
192
0
VERTEX
8
OBJECT__22
10
67.000000
20
-9.000000
30
-20.000000
70
192
0
VERTEX
8
OBJECT__22
10
0
20
0
30
0
70
128
71
1
72
2
73
3
0
VERTEX
8
OBJECT__22
10
0
20
0
30
0
70
128
71
1
72
3
73
4
0
VERTEX
8
OBJECT__22
10
0
20
0
30
0
70
128
71
2
72
5
73
6
0
VERTEX
8
OBJECT__22
10
0
20
0
30
0
70
128
71
2
72
6
73
3
0
VERTEX
8
OBJECT__22
10
0
20
0
30
0
70
128
71
5
72
7
73
8
0
VERTEX
8
OBJECT__22
10
0
20
0
30
0
70
128
71
5
72
8
73
6
0
VERTEX
8
OBJECT__22
10
0
20
0
30
0
70
128
71
7
72
1
73
4
0
VERTEX
8
OBJECT__22
10
0
20
0
30
0
70
128
71
7
72
4
73
8
0
SEQEND
8
OBJECT__22
0
POLYLINE
8
OBJECT__24
66
1
70
64
71
8
72
8
62
253
0
VERTEX
8
OBJECT__24
10
38.000000
20
-24.500000
30
417.500000
70
192
0
VERTEX
8
OBJECT__24
10
50.000000
20
-24.500000
30
429.500000
70
192
0
VERTEX
8
OBJECT__24
10
50.000000
20
-16.000000
30
429.500000
70
192
0
VERTEX
8
OBJECT__24
10
50.000000
20
-24.500000
30
405.500000
70
192
0
VERTEX
8
OBJECT__24
10
38.000000
20
-16.000000
30
417.500000
70
192
0
VERTEX
8
OBJECT__24
10
62.000000
20
-16.000000
30
417.500000
70
192
0
VERTEX
8
OBJECT__24
10
62.000000
20
-24.500000
30
417.500000
70
192
0
VERTEX
8
OBJECT__24
10
50.000000
20
-16.000000
30
405.500000
70
192
0
VERTEX
8
OBJECT__24
10
0
20
0
30
0
70
128
71
1
72
2
73
3
0
VERTEX
8
OBJECT__24
10
0
20
0
30
0
70
128
71
4
72
1
73
5
0
VERTEX
8
OBJECT__24
10
0
20
0
30
0
70
128
71
6
72
7
73
4
0
VERTEX
8
OBJECT__24
10
0
20
0
30
0
70
128
71
3
72
2
73
7
0
VERTEX
8
OBJECT__24
10
0
20
0
30
0
70
128
71
7
72
6
73
3
0
VERTEX
8
OBJECT__24
10
0
20
0
30
0
70
128
71
4
72
8
73
6
0
VERTEX
8
OBJECT__24
10
0
20
0
30
0
70
128
71
5
72
8
73
4
0
VERTEX
8
OBJECT__24
10
0
20
0
30
0
70
128
71
3
72
5
73
1
0
SEQEND
8
OBJECT__24
0
POLYLINE
8
OBJECT__25
66
1
70
64
71
8
72
8
62
253
0
VERTEX
8
OBJECT__25
10
50.000000
20
-16.000000
30
435.500000
70
192
0
VERTEX
8
OBJECT__25
10
32.000000
20
-16.000000
30
417.500000
70
192
0
VERTEX
8
OBJECT__25
10
38.000000
20
-16.000000
30
417.500000
70
192
0
VERTEX
8
OBJECT__25
10
50.000000
20
-16.000000
30
399.500000
70
192
0
VERTEX
8
OBJECT__25
10
50.000000
20
-16.000000
30
405.500000
70
192
0
VERTEX
8
OBJECT__25
10
68.000000
20
-16.000000
30
417.500000
70
192
0
VERTEX
8
OBJECT__25
10
62.000000
20
-16.000000
30
417.500000
70
192
0
VERTEX
8
OBJECT__25
10
50.000000
20
-16.000000
30
429.500000
70
192
0
VERTEX
8
OBJECT__25
10
0
20
0
30
0
70
128
71
1
72
2
73
3
0
VERTEX
8
OBJECT__25
10
0
20
0
30
0
70
128
71
2
72
4
73
5
0
VERTEX
8
OBJECT__25
10
0
20
0
30
0
70
128
71
5
72
3
73
2
0
VERTEX
8
OBJECT__25
10
0
20
0
30
0
70
128
71
6
72
7
73
5
0
VERTEX
8
OBJECT__25
10
0
20
0
30
0
70
128
71
1
72
8
73
7
0
VERTEX
8
OBJECT__25
10
0
20
0
30
0
70
128
71
5
72
4
73
6
0
VERTEX
8
OBJECT__25
10
0
20
0
30
0
70
128
71
3
72
8
73
1
0
VERTEX
8
OBJECT__25
10
0
20
0
30
0
70
128
71
7
72
6
73
1
0
SEQEND
8
OBJECT__25
0
POLYLINE
8
OBJECT__27
66
1
70
64
71
8
72
8
62
253
0
VERTEX
8
OBJECT__27
10
32.000000
20
-16.000000
30
417.500000
70
192
0
VERTEX
8
OBJECT__27
10
50.000000
20
-16.000000
30
435.500000
70
192
0
VERTEX
8
OBJECT__27
10
50.000000
20
16.000000
30
435.500000
70
192
0
VERTEX
8
OBJECT__27
10
50.000000
20
-16.000000
30
399.500000
70
192
0
VERTEX
8
OBJECT__27
10
32.000000
20
16.000000
30
417.500000
70
192
0
VERTEX
8
OBJECT__27
10
50.000000
20
16.000000
30
399.500000
70
192
0
VERTEX
8
OBJECT__27
10
68.000000
20
16.000000
30
417.500000
70
192
0
VERTEX
8
OBJECT__27
10
68.000000
20
-16.000000
30
417.500000
70
192
0
VERTEX
8
OBJECT__27
10
0
20
0
30
0
70
128
71
1
72
2
73
3
0
VERTEX
8
OBJECT__27
10
0
20
0
30
0
70
128
71
4
72
1
73
5
0
VERTEX
8
OBJECT__27
10
0
20
0
30
0
70
128
71
4
72
6
73
7
0
VERTEX
8
OBJECT__27
10
0
20
0
30
0
70
128
71
8
72
7
73
3
0
VERTEX
8
OBJECT__27
10
0
20
0
30
0
70
128
71
3
72
2
73
8
0
VERTEX
8
OBJECT__27
10
0
20
0
30
0
70
128
71
7
72
8
73
4
0
VERTEX
8
OBJECT__27
10
0
20
0
30
0
70
128
71
5
72
6
73
4
0
VERTEX
8
OBJECT__27
10
0
20
0
30
0
70
128
71
3
72
5
73
1
0
SEQEND
8
OBJECT__27
0
POLYLINE
8
OBJECT__28
66
1
70
64
71
8
72
8
62
253
0
VERTEX
8
OBJECT__28
10
50.000000
20
16.000000
30
435.500000
70
192
0
VERTEX
8
OBJECT__28
10
68.000000
20
16.000000
30
417.500000
70
192
0
VERTEX
8
OBJECT__28
10
63.000000
20
16.000000
30
417.500000
70
192
0
VERTEX
8
OBJECT__28
10
50.000000
20
16.000000
30
399.500000
70
192
0
VERTEX
8
OBJECT__28
10
50.000000
20
16.000000
30
404.500000
70
192
0
VERTEX
8
OBJECT__28
10
32.000000
20
16.000000
30
417.500000
70
192
0
VERTEX
8
OBJECT__28
10
37.000000
20
16.000000
30
417.500000
70
192
0
VERTEX
8
OBJECT__28
10
50.000000
20
16.000000
30
430.500000
70
192
0
VERTEX
8
OBJECT__28
10
0
20
0
30
0
70
128
71
1
72
2
73
3
0
VERTEX
8
OBJECT__28
10
0
20
0
30
0
70
128
71
2
72
4
73
5
0
VERTEX
8
OBJECT__28
10
0
20
0
30
0
70
128
71
5
72
3
73
2
0
VERTEX
8
OBJECT__28
10
0
20
0
30
0
70
128
71
6
72
7
73
5
0
VERTEX
8
OBJECT__28
10
0
20
0
30
0
70
128
71
6
72
1
73
8
0
VERTEX
8
OBJECT__28
10
0
20
0
30
0
70
128
71
5
72
4
73
6
0
VERTEX
8
OBJECT__28
10
0
20
0
30
0
70
128
71
3
72
8
73
1
0
VERTEX
8
OBJECT__28
10
0
20
0
30
0
70
128
71
8
72
7
73
6
0
SEQEND
8
OBJECT__28
0
POLYLINE
8
OBJECT__29
66
1
70
64
71
8
72
8
62
253
0
VERTEX
8
OBJECT__29
10
37.000000
20
17.000000
30
417.500000
70
192
0
VERTEX
8
OBJECT__29
10
37.000000
20
16.000000
30
417.500000
70
192
0
VERTEX
8
OBJECT__29
10
50.000000
20
16.000000
30
430.500000
70
192
0
VERTEX
8
OBJECT__29
10
50.000000
20
16.000000
30
404.500000
70
192
0
VERTEX
8
OBJECT__29
10
63.000000
20
16.000000
30
417.500000
70
192
0
VERTEX
8
OBJECT__29
10
50.000000
20
17.000000
30
404.500000
70
192
0
VERTEX
8
OBJECT__29
10
50.000000
20
17.000000
30
430.500000
70
192
0
VERTEX
8
OBJECT__29
10
63.000000
20
17.000000
30
417.500000
70
192
0
VERTEX
8
OBJECT__29
10
0
20
0
30
0
70
128
71
1
72
2
73
3
0
VERTEX
8
OBJECT__29
10
0
20
0
30
0
70
128
71
4
72
2
73
1
0
VERTEX
8
OBJECT__29
10
0
20
0
30
0
70
128
71
5
72
4
73
6
0
VERTEX
8
OBJECT__29
10
0
20
0
30
0
70
128
71
7
72
3
73
5
0
VERTEX
8
OBJECT__29
10
0
20
0
30
0
70
128
71
5
72
8
73
7
0
VERTEX
8
OBJECT__29
10
0
20
0
30
0
70
128
71
6
72
8
73
5
0
VERTEX
8
OBJECT__29
10
0
20
0
30
0
70
128
71
1
72
6
73
4
0
VERTEX
8
OBJECT__29
10
0
20
0
30
0
70
128
71
3
72
7
73
1
0
SEQEND
8
OBJECT__29
0
POLYLINE
8
OBJECT__30
66
1
70
64
71
4
72
2
62
253
0
VERTEX
8
OBJECT__30
10
67.000000
20
9.950000
30
-235.300003
70
192
0
VERTEX
8
OBJECT__30
10
57.049999
20
0.000000
30
-235.300003
70
192
0
VERTEX
8
OBJECT__30
10
67.000000
20
-9.950000
30
-235.300003
70
192
0
VERTEX
8
OBJECT__30
10
76.949997
20
0.000000
30
-235.300003
70
192
0
VERTEX
8
OBJECT__30
10
0
20
0
30
0
70
128
71
1
72
2
73
3
0
VERTEX
8
OBJECT__30
10
0
20
0
30
0
70
128
71
3
72
4
73
1
0
SEQEND
8
OBJECT__30
0
POLYLINE
8
OBJECT__31
66
1
70
64
71
10
72
10
62
253
0
VERTEX
8
OBJECT__31
10
76.949997
20
0.000000
30
-235.300003
70
192
0
VERTEX
8
OBJECT__31
10
71.974998
20
8.617000
30
-238.500000
70
192
0
VERTEX
8
OBJECT__31
10
68.820999
20
6.796000
30
-238.500000
70
192
0
VERTEX
8
OBJECT__31
10
67.000000
20
9.950000
30
-235.300003
70
192
0
VERTEX
8
OBJECT__31
10
76.949997
20
0.000000
30
-238.500000
70
192
0
VERTEX
8
OBJECT__31
10
57.049999
20
0.000000
30
-235.300003
70
192
0
VERTEX
8
OBJECT__31
10
57.049999
20
0.000000
30
-238.500000
70
192
0
VERTEX
8
OBJECT__31
10
68.820999
20
-6.796000
30
-238.500000
70
192
0
VERTEX
8
OBJECT__31
10
71.974998
20
-8.617000
30
-238.500000
70
192
0
VERTEX
8
OBJECT__31
10
67.000000
20
-9.950000
30
-235.300003
70
192
0
VERTEX
8
OBJECT__31
10
0
20
0
30
0
70
128
71
1
72
2
73
3
0
VERTEX
8
OBJECT__31
10
0
20
0
30
0
70
128
71
3
72
4
73
1
0
VERTEX
8
OBJECT__31
10
0
20
0
30
0
70
128
71
1
72
5
73
2
0
VERTEX
8
OBJECT__31
10
0
20
0
30
0
70
128
71
6
72
4
73
3
0
VERTEX
8
OBJECT__31
10
0
20
0
30
0
70
128
71
6
72
7
73
8
0
VERTEX
8
OBJECT__31
10
0
20
0
30
0
70
128
71
8
72
9
73
1
0
VERTEX
8
OBJECT__31
10
0
20
0
30
0
70
128
71
1
72
10
73
8
0
VERTEX
8
OBJECT__31
10
0
20
0
30
0
70
128
71
9
72
5
73
1
0
VERTEX
8
OBJECT__31
10
0
20
0
30
0
70
128
71
8
72
10
73
6
0
VERTEX
8
OBJECT__31
10
0
20
0
30
0
70
128
71
3
72
7
73
6
0
SEQEND
8
OBJECT__31
0
POLYLINE
8
OBJECT__33
66
1
70
64
71
12
72
12
62
253
0
VERTEX
8
OBJECT__33
10
67.000000
20
10.569000
30
-239.119003
70
192
0
VERTEX
8
OBJECT__33
10
56.431000
20
0.000000
30
-239.119003
70
192
0
VERTEX
8
OBJECT__33
10
57.049999
20
0.000000
30
-238.500000
70
192
0
VERTEX
8
OBJECT__33
10
68.820999
20
6.796000
30
-238.500000
70
192
0
VERTEX
8
OBJECT__33
10
71.974998
20
8.617000
30
-238.500000
70
192
0
VERTEX
8
OBJECT__33
10
70.349998
20
7.219000
30
-239.119003
70
192
0
VERTEX
8
OBJECT__33
10
76.949997
20
0.000000
30
-238.500000
70
192
0
VERTEX
8
OBJECT__33
10
71.974998
20
-8.617000
30
-238.500000
70
192
0
VERTEX
8
OBJECT__33
10
70.349998
20
-7.219000
30
-239.119003
70
192
0
VERTEX
8
OBJECT__33
10
77.569000
20
0.000000
30
-239.119003
70
192
0
VERTEX
8
OBJECT__33
10
67.000000
20
-10.569000
30
-239.119003
70
192
0
VERTEX
8
OBJECT__33
10
68.820999
20
-6.796000
30
-238.500000
70
192
0
VERTEX
8
OBJECT__33
10
0
20
0
30
0
70
128
71
1
72
2
73
3
0
VERTEX
8
OBJECT__33
10
0
20
0
30
0
70
128
71
4
72
5
73
6
0
VERTEX
8
OBJECT__33
10
0
20
0
30
0
70
128
71
6
72
1
73
4
0
VERTEX
8
OBJECT__33
10
0
20
0
30
0
70
128
71
7
72
8
73
9
0
VERTEX
8
OBJECT__33
10
0
20
0
30
0
70
128
71
9
72
10
73
7
0
VERTEX
8
OBJECT__33
10
0
20
0
30
0
70
128
71
7
72
10
73
6
0
VERTEX
8
OBJECT__33
10
0
20
0
30
0
70
128
71
6
72
5
73
7
0
VERTEX
8
OBJECT__33
10
0
20
0
30
0
70
128
71
11
72
12
73
3
0
VERTEX
8
OBJECT__33
10
0
20
0
30
0
70
128
71
12
72
11
73
9
0
VERTEX
8
OBJECT__33
10
0
20
0
30
0
70
128
71
9
72
8
73
12
0
VERTEX
8
OBJECT__33
10
0
20
0
30
0
70
128
71
3
72
2
73
11
0
VERTEX
8
OBJECT__33
10
0
20
0
30
0
70
128
71
3
72
4
73
1
0
SEQEND
8
OBJECT__33
0
POLYLINE
8
OBJECT__34
66
1
70
64
71
10
72
10
62
253
0
VERTEX
8
OBJECT__34
10
67.000000
20
11.800000
30
-262.600006
70
192
0
VERTEX
8
OBJECT__34
10
55.200001
20
0.000000
30
-262.600006
70
192
0
VERTEX
8
OBJECT__34
10
56.431000
20
0.000000
30
-239.119003
70
192
0
VERTEX
8
OBJECT__34
10
78.800003
20
0.000000
30
-262.600006
70
192
0
VERTEX
8
OBJECT__34
10
70.349998
20
7.219000
30
-239.119003
70
192
0
VERTEX
8
OBJECT__34
10
67.000000
20
10.569000
30
-239.119003
70
192
0
VERTEX
8
OBJECT__34
10
77.569000
20
0.000000
30
-239.119003
70
192
0
VERTEX
8
OBJECT__34
10
70.349998
20
-7.219000
30
-239.119003
70
192
0
VERTEX
8
OBJECT__34
10
67.000000
20
-11.800000
30
-262.600006
70
192
0
VERTEX
8
OBJECT__34
10
67.000000
20
-10.569000
30
-239.119003
70
192
0
VERTEX
8
OBJECT__34
10
0
20
0
30
0
70
128
71
1
72
2
73
3
0
VERTEX
8
OBJECT__34
10
0
20
0
30
0
70
128
71
4
72
1
73
5
0
VERTEX
8
OBJECT__34
10
0
20
0
30
0
70
128
71
1
72
6
73
5
0
VERTEX
8
OBJECT__34
10
0
20
0
30
0
70
128
71
4
72
7
73
8
0
VERTEX
8
OBJECT__34
10
0
20
0
30
0
70
128
71
8
72
9
73
4
0
VERTEX
8
OBJECT__34
10
0
20
0
30
0
70
128
71
9
72
10
73
3
0
VERTEX
8
OBJECT__34
10
0
20
0
30
0
70
128
71
3
72
2
73
9
0
VERTEX
8
OBJECT__34
10
0
20
0
30
0
70
128
71
8
72
10
73
9
0
VERTEX
8
OBJECT__34
10
0
20
0
30
0
70
128
71
5
72
7
73
4
0
VERTEX
8
OBJECT__34
10
0
20
0
30
0
70
128
71
3
72
6
73
1
0
SEQEND
8
OBJECT__34
0
POLYLINE
8
OBJECT__35
66
1
70
64
71
8
72
8
62
253
0
VERTEX
8
OBJECT__35
10
67.000000
20
11.800000
30
-262.600006
70
192
0
VERTEX
8
OBJECT__35
10
78.800003
20
0.000000
30
-262.600006
70
192
0
VERTEX
8
OBJECT__35
10
78.300003
20
0.000000
30
-263.100006
70
192
0
VERTEX
8
OBJECT__35
10
55.200001
20
0.000000
30
-262.600006
70
192
0
VERTEX
8
OBJECT__35
10
67.000000
20
11.300000
30
-263.100006
70
192
0
VERTEX
8
OBJECT__35
10
67.000000
20
-11.800000
30
-262.600006
70
192
0
VERTEX
8
OBJECT__35
10
55.700001
20
0.000000
30
-263.100006
70
192
0
VERTEX
8
OBJECT__35
10
67.000000
20
-11.300000
30
-263.100006
70
192
0
VERTEX
8
OBJECT__35
10
0
20
0
30
0
70
128
71
1
72
2
73
3
0
VERTEX
8
OBJECT__35
10
0
20
0
30
0
70
128
71
4
72
1
73
5
0
VERTEX
8
OBJECT__35
10
0
20
0
30
0
70
128
71
6
72
4
73
7
0
VERTEX
8
OBJECT__35
10
0
20
0
30
0
70
128
71
2
72
6
73
8
0
VERTEX
8
OBJECT__35
10
0
20
0
30
0
70
128
71
8
72
3
73
2
0
VERTEX
8
OBJECT__35
10
0
20
0
30
0
70
128
71
7
72
8
73
6
0
VERTEX
8
OBJECT__35
10
0
20
0
30
0
70
128
71
5
72
7
73
4
0
VERTEX
8
OBJECT__35
10
0
20
0
30
0
70
128
71
3
72
5
73
1
0
SEQEND
8
OBJECT__35
0
POLYLINE
8
OBJECT__36
66
1
70
64
71
8
72
8
62
253
0
VERTEX
8
OBJECT__36
10
67.000000
20
11.300000
30
-263.100006
70
192
0
VERTEX
8
OBJECT__36
10
78.300003
20
0.000000
30
-263.100006
70
192
0
VERTEX
8
OBJECT__36
10
78.300003
20
0.000000
30
-266.100006
70
192
0
VERTEX
8
OBJECT__36
10
55.700001
20
0.000000
30
-266.100006
70
192
0
VERTEX
8
OBJECT__36
10
55.700001
20
0.000000
30
-263.100006
70
192
0
VERTEX
8
OBJECT__36
10
67.000000
20
-11.300000
30
-266.100006
70
192
0
VERTEX
8
OBJECT__36
10
67.000000
20
-11.300000
30
-263.100006
70
192
0
VERTEX
8
OBJECT__36
10
67.000000
20
11.300000
30
-266.100006
70
192
0
VERTEX
8
OBJECT__36
10
0
20
0
30
0
70
128
71
1
72
2
73
3
0
VERTEX
8
OBJECT__36
10
0
20
0
30
0
70
128
71
4
72
5
73
1
0
VERTEX
8
OBJECT__36
10
0
20
0
30
0
70
128
71
6
72
7
73
5
0
VERTEX
8
OBJECT__36
10
0
20
0
30
0
70
128
71
2
72
7
73
6
0
VERTEX
8
OBJECT__36
10
0
20
0
30
0
70
128
71
6
72
3
73
2
0
VERTEX
8
OBJECT__36
10
0
20
0
30
0
70
128
71
5
72
4
73
6
0
VERTEX
8
OBJECT__36
10
0
20
0
30
0
70
128
71
1
72
8
73
4
0
VERTEX
8
OBJECT__36
10
0
20
0
30
0
70
128
71
3
72
8
73
1
0
SEQEND
8
OBJECT__36
0
POLYLINE
8
OBJECT__37
66
1
70
64
71
4
72
2
62
253
0
VERTEX
8
OBJECT__37
10
78.300003
20
0.000000
30
-266.100006
70
192
0
VERTEX
8
OBJECT__37
10
67.000000
20
-11.300000
30
-266.100006
70
192
0
VERTEX
8
OBJECT__37
10
55.700001
20
0.000000
30
-266.100006
70
192
0
VERTEX
8
OBJECT__37
10
67.000000
20
11.300000
30
-266.100006
70
192
0
VERTEX
8
OBJECT__37
10
0
20
0
30
0
70
128
71
1
72
2
73
3
0
VERTEX
8
OBJECT__37
10
0
20
0
30
0
70
128
71
3
72
4
73
1
0
SEQEND
8
OBJECT__37
0
POLYLINE
8
OBJECT__38
66
1
70
64
71
12
72
12
62
253
0
VERTEX
8
OBJECT__38
10
65.000000
20
0.000000
30
995.349976
70
192
0
VERTEX
8
OBJECT__38
10
73.023003
20
0.000000
30
995.349976
70
192
0
VERTEX
8
OBJECT__38
10
73.023003
20
-13.510000
30
1003.150024
70
192
0
VERTEX
8
OBJECT__38
10
65.000000
20
-15.600000
30
1010.950012
70
192
0
VERTEX
8
OBJECT__38
10
65.000000
20
0.000000
30
1026.550049
70
192
0
VERTEX
8
OBJECT__38
10
73.023003
20
-13.510000
30
1018.750000
70
192
0
VERTEX
8
OBJECT__38
10
73.023003
20
-13.510000
30
1010.950012
70
192
0
VERTEX
8
OBJECT__38
10
73.023003
20
0.000000
30
1026.550049
70
192
0
VERTEX
8
OBJECT__38
10
73.023003
20
13.510000
30
1018.750000
70
192
0
VERTEX
8
OBJECT__38
10
65.000000
20
15.600000
30
1010.950012
70
192
0
VERTEX
8
OBJECT__38
10
73.023003
20
13.510000
30
1003.150024
70
192
0
VERTEX
8
OBJECT__38
10
73.023003
20
13.510000
30
1010.950012
70
192
0
VERTEX
8
OBJECT__38
10
0
20
0
30
0
70
128
71
1
72
2
73
3
0
VERTEX
8
OBJECT__38
10
0
20
0
30
0
70
128
71
3
72
4
73
1
0
VERTEX
8
OBJECT__38
10
0
20
0
30
0
70
128
71
5
72
4
73
6
0
VERTEX
8
OBJECT__38
10
0
20
0
30
0
70
128
71
4
72
7
73
6
0
VERTEX
8
OBJECT__38
10
0
20
0
30
0
70
128
71
5
72
8
73
9
0
VERTEX
8
OBJECT__38
10
0
20
0
30
0
70
128
71
9
72
10
73
5
0
VERTEX
8
OBJECT__38
10
0
20
0
30
0
70
128
71
1
72
10
73
11
0
VERTEX
8
OBJECT__38
10
0
20
0
30
0
70
128
71
10
72
12
73
11
0
VERTEX
8
OBJECT__38
10
0
20
0
30
0
70
128
71
11
72
2
73
1
0
VERTEX
8
OBJECT__38
10
0
20
0
30
0
70
128
71
9
72
12
73
10
0
VERTEX
8
OBJECT__38
10
0
20
0
30
0
70
128
71
6
72
8
73
5
0
VERTEX
8
OBJECT__38
10
0
20
0
30
0
70
128
71
3
72
7
73
4
0
SEQEND
8
OBJECT__38
0
POLYLINE
8
OBJECT__39
66
1
70
64
71
9
72
8
62
253
0
VERTEX
8
OBJECT__39
10
74.000000
20
0.000000
30
1010.950012
70
192
0
VERTEX
8
OBJECT__39
10
73.023003
20
-13.510000
30
1018.750000
70
192
0
VERTEX
8
OBJECT__39
10
73.023003
20
-13.510000
30
1010.950012
70
192
0
VERTEX
8
OBJECT__39
10
73.023003
20
13.510000
30
1003.150024
70
192
0
VERTEX
8
OBJECT__39
10
73.023003
20
13.510000
30
1010.950012
70
192
0
VERTEX
8
OBJECT__39
10
73.023003
20
0.000000
30
995.349976
70
192
0
VERTEX
8
OBJECT__39
10
73.023003
20
13.510000
30
1018.750000
70
192
0
VERTEX
8
OBJECT__39
10
73.023003
20
0.000000
30
1026.550049
70
192
0
VERTEX
8
OBJECT__39
10
73.023003
20
-13.510000
30
1003.150024
70
192
0
VERTEX
8
OBJECT__39
10
0
20
0
30
0
70
128
71
1
72
2
73
3
0
VERTEX
8
OBJECT__39
10
0
20
0
30
0
70
128
71
1
72
4
73
5
0
VERTEX
8
OBJECT__39
10
0
20
0
30
0
70
128
71
6
72
4
73
1
0
VERTEX
8
OBJECT__39
10
0
20
0
30
0
70
128
71
5
72
7
73
1
0
VERTEX
8
OBJECT__39
10
0
20
0
30
0
70
128
71
7
72
8
73
1
0
VERTEX
8
OBJECT__39
10
0
20
0
30
0
70
128
71
8
72
2
73
1
0
VERTEX
8
OBJECT__39
10
0
20
0
30
0
70
128
71
3
72
9
73
1
0
VERTEX
8
OBJECT__39
10
0
20
0
30
0
70
128
71
9
72
6
73
1
0
SEQEND
8
OBJECT__39
0
POLYLINE
8
OBJECT__41
66
1
70
64
71
12
72
12
62
253
0
VERTEX
8
OBJECT__41
10
438.500000
20
0.000000
30
1065.567993
70
192
0
VERTEX
8
OBJECT__41
10
440.053986
20
0.505000
30
1062.784058
70
192
0
VERTEX
8
OBJECT__41
10
443.239990
20
-9.304000
30
1062.784058
70
192
0
VERTEX
8
OBJECT__41
10
450.000000
20
-11.500000
30
1065.567993
70
192
0
VERTEX
8
OBJECT__41
10
450.000000
20
11.500000
30
1065.567993
70
192
0
VERTEX
8
OBJECT__41
10
450.000000
20
11.500000
30
1062.784058
70
192
0
VERTEX
8
OBJECT__41
10
439.062988
20
3.554000
30
1062.784058
70
192
0
VERTEX
8
OBJECT__41
10
461.500000
20
0.000000
30
1065.567993
70
192
0
VERTEX
8
OBJECT__41
10
460.937012
20
3.554000
30
1062.784058
70
192
0
VERTEX
8
OBJECT__41
10
459.946014
20
0.505000
30
1062.784058
70
192
0
VERTEX
8
OBJECT__41
10
456.760010
20
-9.304000
30
1062.784058
70
192
0
VERTEX
8
OBJECT__41
10
450.000000
20
-11.500000
30
1062.784058
70
192
0
VERTEX
8
OBJECT__41
10
0
20
0
30
0
70
128
71
1
72
2
73
3
0
VERTEX
8
OBJECT__41
10
0
20
0
30
0
70
128
71
3
72
4
73
1
0
VERTEX
8
OBJECT__41
10
0
20
0
30
0
70
128
71
5
72
6
73
7
0
VERTEX
8
OBJECT__41
10
0
20
0
30
0
70
128
71
7
72
1
73
5
0
VERTEX
8
OBJECT__41
10
0
20
0
30
0
70
128
71
5
72
8
73
9
0
VERTEX
8
OBJECT__41
10
0
20
0
30
0
70
128
71
8
72
10
73
9
0
VERTEX
8
OBJECT__41
10
0
20
0
30
0
70
128
71
8
72
4
73
11
0
VERTEX
8
OBJECT__41
10
0
20
0
30
0
70
128
71
4
72
12
73
11
0
VERTEX
8
OBJECT__41
10
0
20
0
30
0
70
128
71
11
72
10
73
8
0
VERTEX
8
OBJECT__41
10
0
20
0
30
0
70
128
71
9
72
6
73
5
0
VERTEX
8
OBJECT__41
10
0
20
0
30
0
70
128
71
7
72
2
73
1
0
VERTEX
8
OBJECT__41
10
0
20
0
30
0
70
128
71
3
72
12
73
4
0
SEQEND
8
OBJECT__41
0
POLYLINE
8
OBJECT__42
66
1
70
64
71
14
72
18
62
253
0
VERTEX
8
OBJECT__42
10
450.000000
20
12.405000
30
1048.311035
70
192
0
VERTEX
8
OBJECT__42
10
450.000000
20
11.500000
30
1062.784058
70
192
0
VERTEX
8
OBJECT__42
10
460.937012
20
3.554000
30
1062.784058
70
192
0
VERTEX
8
OBJECT__42
10
457.291992
20
-10.036000
30
1048.311035
70
192
0
VERTEX
8
OBJECT__42
10
461.798004
20
3.833000
30
1048.311035
70
192
0
VERTEX
8
OBJECT__42
10
459.946014
20
0.505000
30
1062.784058
70
192
0
VERTEX
8
OBJECT__42
10
442.708008
20
-10.036000
30
1048.311035
70
192
0
VERTEX
8
OBJECT__42
10
450.000000
20
-11.500000
30
1062.784058
70
192
0
VERTEX
8
OBJECT__42
10
456.760010
20
-9.304000
30
1062.784058
70
192
0
VERTEX
8
OBJECT__42
10
443.239990
20
-9.304000
30
1062.784058
70
192
0
VERTEX
8
OBJECT__42
10
440.053986
20
0.505000
30
1062.784058
70
192
0
VERTEX
8
OBJECT__42
10
438.201996
20
3.833000
30
1048.311035
70
192
0
VERTEX
8
OBJECT__42
10
439.062988
20
3.554000
30
1062.784058
70
192
0
VERTEX
8
OBJECT__42
10
450.000000
20
0.000000
30
1040.800049
70
192
0
VERTEX
8
OBJECT__42
10
0
20
0
30
0
70
128
71
1
72
2
73
3
0
VERTEX
8
OBJECT__42
10
0
20
0
30
0
70
128
71
4
72
5
73
6
0
VERTEX
8
OBJECT__42
10
0
20
0
30
0
70
128
71
5
72
3
73
6
0
VERTEX
8
OBJECT__42
10
0
20
0
30
0
70
128
71
7
72
4
73
8
0
VERTEX
8
OBJECT__42
10
0
20
0
30
0
70
128
71
4
72
9
73
8
0
VERTEX
8
OBJECT__42
10
0
20
0
30
0
70
128
71
7
72
10
73
11
0
VERTEX
8
OBJECT__42
10
0
20
0
30
0
70
128
71
11
72
12
73
7
0
VERTEX
8
OBJECT__42
10
0
20
0
30
0
70
128
71
1
72
12
73
13
0
VERTEX
8
OBJECT__42
10
0
20
0
30
0
70
128
71
14
72
12
73
1
0
VERTEX
8
OBJECT__42
10
0
20
0
30
0
70
128
71
14
72
7
73
12
0
VERTEX
8
OBJECT__42
10
0
20
0
30
0
70
128
71
14
72
4
73
7
0
VERTEX
8
OBJECT__42
10
0
20
0
30
0
70
128
71
14
72
5
73
4
0
VERTEX
8
OBJECT__42
10
0
20
0
30
0
70
128
71
14
72
1
73
5
0
VERTEX
8
OBJECT__42
10
0
20
0
30
0
70
128
71
13
72
2
73
1
0
VERTEX
8
OBJECT__42
10
0
20
0
30
0
70
128
71
11
72
13
73
12
0
VERTEX
8
OBJECT__42
10
0
20
0
30
0
70
128
71
8
72
10
73
7
0
VERTEX
8
OBJECT__42
10
0
20
0
30
0
70
128
71
6
72
9
73
4
0
VERTEX
8
OBJECT__42
10
0
20
0
30
0
70
128
71
3
72
5
73
1
0
SEQEND
8
OBJECT__42
0
POLYLINE
8
OBJECT__44
66
1
70
64
71
8
72
8
62
253
0
VERTEX
8
OBJECT__44
10
33.500000
20
-7.500000
30
-241.399994
70
192
0
VERTEX
8
OBJECT__44
10
41.000000
20
0.000000
30
-241.399994
70
192
0
VERTEX
8
OBJECT__44
10
41.000000
20
0.000000
30
-220.899994
70
192
0
VERTEX
8
OBJECT__44
10
26.000000
20
0.000000
30
-220.899994
70
192
0
VERTEX
8
OBJECT__44
10
26.000000
20
0.000000
30
-241.399994
70
192
0
VERTEX
8
OBJECT__44
10
33.500000
20
7.500000
30
-220.899994
70
192
0
VERTEX
8
OBJECT__44
10
33.500000
20
7.500000
30
-241.399994
70
192
0
VERTEX
8
OBJECT__44
10
33.500000
20
-7.500000
30
-220.899994
70
192
0
VERTEX
8
OBJECT__44
10
0
20
0
30
0
70
128
71
1
72
2
73
3
0
VERTEX
8
OBJECT__44
10
0
20
0
30
0
70
128
71
4
72
5
73
1
0
VERTEX
8
OBJECT__44
10
0
20
0
30
0
70
128
71
6
72
7
73
5
0
VERTEX
8
OBJECT__44
10
0
20
0
30
0
70
128
71
2
72
7
73
6
0
VERTEX
8
OBJECT__44
10
0
20
0
30
0
70
128
71
6
72
3
73
2
0
VERTEX
8
OBJECT__44
10
0
20
0
30
0
70
128
71
5
72
4
73
6
0
VERTEX
8
OBJECT__44
10
0
20
0
30
0
70
128
71
1
72
8
73
4
0
VERTEX
8
OBJECT__44
10
0
20
0
30
0
70
128
71
3
72
8
73
1
0
SEQEND
8
OBJECT__44
0
POLYLINE
8
OBJECT__45
66
1
70
64
71
4
72
2
62
253
0
VERTEX
8
OBJECT__45
10
26.000000
20
0.000000
30
-220.899994
70
192
0
VERTEX
8
OBJECT__45
10
33.500000
20
-7.500000
30
-220.899994
70
192
0
VERTEX
8
OBJECT__45
10
41.000000
20
0.000000
30
-220.899994
70
192
0
VERTEX
8
OBJECT__45
10
33.500000
20
7.500000
30
-220.899994
70
192
0
VERTEX
8
OBJECT__45
10
0
20
0
30
0
70
128
71
1
72
2
73
3
0
VERTEX
8
OBJECT__45
10
0
20
0
30
0
70
128
71
3
72
4
73
1
0
SEQEND
8
OBJECT__45
0
POLYLINE
8
OBJECT__47
66
1
70
64
71
4
72
2
62
253
0
VERTEX
8
OBJECT__47
10
22.000000
20
0.000000
30
-40.900002
70
192
0
VERTEX
8
OBJECT__47
10
33.500000
20
11.500000
30
-40.900002
70
192
0
VERTEX
8
OBJECT__47
10
45.000000
20
0.000000
30
-40.900002
70
192
0
VERTEX
8
OBJECT__47
10
33.500000
20
-11.500000
30
-40.900002
70
192
0
VERTEX
8
OBJECT__47
10
0
20
0
30
0
70
128
71
1
72
2
73
3
0
VERTEX
8
OBJECT__47
10
0
20
0
30
0
70
128
71
3
72
4
73
1
0
SEQEND
8
OBJECT__47
0
POLYLINE
8
OBJECT__48
66
1
70
64
71
8
72
8
62
253
0
VERTEX
8
OBJECT__48
10
33.500000
20
11.500000
30
-40.900002
70
192
0
VERTEX
8
OBJECT__48
10
22.000000
20
0.000000
30
-40.900002
70
192
0
VERTEX
8
OBJECT__48
10
22.000000
20
0.000000
30
-28.400000
70
192
0
VERTEX
8
OBJECT__48
10
45.000000
20
0.000000
30
-40.900002
70
192
0
VERTEX
8
OBJECT__48
10
33.500000
20
11.500000
30
-28.400000
70
192
0
VERTEX
8
OBJECT__48
10
33.500000
20
-11.500000
30
-28.400000
70
192
0
VERTEX
8
OBJECT__48
10
33.500000
20
-11.500000
30
-40.900002
70
192
0
VERTEX
8
OBJECT__48
10
45.000000
20
0.000000
30
-28.400000
70
192
0
VERTEX
8
OBJECT__48
10
0
20
0
30
0
70
128
71
1
72
2
73
3
0
VERTEX
8
OBJECT__48
10
0
20
0
30
0
70
128
71
4
72
1
73
5
0
VERTEX
8
OBJECT__48
10
0
20
0
30
0
70
128
71
6
72
7
73
4
0
VERTEX
8
OBJECT__48
10
0
20
0
30
0
70
128
71
3
72
2
73
7
0
VERTEX
8
OBJECT__48
10
0
20
0
30
0
70
128
71
7
72
6
73
3
0
VERTEX
8
OBJECT__48
10
0
20
0
30
0
70
128
71
4
72
8
73
6
0
VERTEX
8
OBJECT__48
10
0
20
0
30
0
70
128
71
5
72
8
73
4
0
VERTEX
8
OBJECT__48
10
0
20
0
30
0
70
128
71
3
72
5
73
1
0
SEQEND
8
OBJECT__48
0
POLYLINE
8
OBJECT__50
66
1
70
64
71
4
72
2
62
253
0
VERTEX
8
OBJECT__50
10
33.500000
20
11.500000
30
-28.400000
70
192
0
VERTEX
8
OBJECT__50
10
22.000000
20
0.000000
30
-28.400000
70
192
0
VERTEX
8
OBJECT__50
10
33.500000
20
-11.500000
30
-28.400000
70
192
0
VERTEX
8
OBJECT__50
10
45.000000
20
0.000000
30
-28.400000
70
192
0
VERTEX
8
OBJECT__50
10
0
20
0
30
0
70
128
71
1
72
2
73
3
0
VERTEX
8
OBJECT__50
10
0
20
0
30
0
70
128
71
3
72
4
73
1
0
SEQEND
8
OBJECT__50
0
POLYLINE
8
OBJECT__51
66
1
70
64
71
7
72
5
62
253
0
VERTEX
8
OBJECT__51
10
15.000000
20
30.743999
30
1028.699951
70
192
0
VERTEX
8
OBJECT__51
10
15.000000
20
-30.743999
30
993.200012
70
192
0
VERTEX
8
OBJECT__51
10
15.000000
20
0.000000
30
975.450012
70
192
0
VERTEX
8
OBJECT__51
10
15.000000
20
-35.500000
30
1010.950012
70
192
0
VERTEX
8
OBJECT__51
10
15.000000
20
0.000000
30
1046.449951
70
192
0
VERTEX
8
OBJECT__51
10
15.000000
20
-30.743999
30
1028.699951
70
192
0
VERTEX
8
OBJECT__51
10
15.000000
20
30.743999
30
993.200012
70
192
0
VERTEX
8
OBJECT__51
10
0
20
0
30
0
70
128
71
1
72
2
73
3
0
VERTEX
8
OBJECT__51
10
0
20
0
30
0
70
128
71
1
72
4
73
2
0
VERTEX
8
OBJECT__51
10
0
20
0
30
0
70
128
71
1
72
5
73
6
0
VERTEX
8
OBJECT__51
10
0
20
0
30
0
70
128
71
6
72
4
73
1
0
VERTEX
8
OBJECT__51
10
0
20
0
30
0
70
128
71
3
72
7
73
1
0
SEQEND
8
OBJECT__51
0
POLYLINE
8
OBJECT__52
66
1
70
64
71
14
72
14
62
253
0
VERTEX
8
OBJECT__52
10
15.000000
20
-30.743999
30
993.200012
70
192
0
VERTEX
8
OBJECT__52
10
0.000000
20
-30.743999
30
993.200012
70
192
0
VERTEX
8
OBJECT__52
10
0.000000
20
0.000000
30
975.450012
70
192
0
VERTEX
8
OBJECT__52
10
0.000000
20
-35.500000
30
1010.950012
70
192
0
VERTEX
8
OBJECT__52
10
15.000000
20
-35.500000
30
1010.950012
70
192
0
VERTEX
8
OBJECT__52
10
15.000000
20
-30.743999
30
1028.699951
70
192
0
VERTEX
8
OBJECT__52
10
15.000000
20
0.000000
30
1046.449951
70
192
0
VERTEX
8
OBJECT__52
10
0.000000
20
0.000000
30
1046.449951
70
192
0
VERTEX
8
OBJECT__52
10
0.000000
20
-30.743999
30
1028.699951
70
192
0
VERTEX
8
OBJECT__52
10
0.000000
20
30.743999
30
1028.699951
70
192
0
VERTEX
8
OBJECT__52
10
0.000000
20
30.743999
30
993.200012
70
192
0
VERTEX
8
OBJECT__52
10
15.000000
20
30.743999
30
1028.699951
70
192
0
VERTEX
8
OBJECT__52
10
15.000000
20
30.743999
30
993.200012
70
192
0
VERTEX
8
OBJECT__52
10
15.000000
20
0.000000
30
975.450012
70
192
0
VERTEX
8
OBJECT__52
10
0
20
0
30
0
70
128
71
1
72
2
73
3
0
VERTEX
8
OBJECT__52
10
0
20
0
30
0
70
128
71
4
72
5
73
6
0
VERTEX
8
OBJECT__52
10
0
20
0
30
0
70
128
71
5
72
4
73
2
0
VERTEX
8
OBJECT__52
10
0
20
0
30
0
70
128
71
2
72
1
73
5
0
VERTEX
8
OBJECT__52
10
0
20
0
30
0
70
128
71
7
72
8
73
9
0
VERTEX
8
OBJECT__52
10
0
20
0
30
0
70
128
71
10
72
8
73
7
0
VERTEX
8
OBJECT__52
10
0
20
0
30
0
70
128
71
11
72
10
73
12
0
VERTEX
8
OBJECT__52
10
0
20
0
30
0
70
128
71
3
72
11
73
13
0
VERTEX
8
OBJECT__52
10
0
20
0
30
0
70
128
71
13
72
14
73
3
0
VERTEX
8
OBJECT__52
10
0
20
0
30
0
70
128
71
12
72
13
73
11
0
VERTEX
8
OBJECT__52
10
0
20
0
30
0
70
128
71
7
72
12
73
10
0
VERTEX
8
OBJECT__52
10
0
20
0
30
0
70
128
71
9
72
6
73
7
0
VERTEX
8
OBJECT__52
10
0
20
0
30
0
70
128
71
6
72
9
73
4
0
VERTEX
8
OBJECT__52
10
0
20
0
30
0
70
128
71
3
72
14
73
1
0
SEQEND
8
OBJECT__52
0
POLYLINE
8
OBJECT__54
66
1
70
64
71
7
72
5
62
253
0
VERTEX
8
OBJECT__54
10
0.000000
20
30.743999
30
1028.699951
70
192
0
VERTEX
8
OBJECT__54
10
0.000000
20
30.743999
30
993.200012
70
192
0
VERTEX
8
OBJECT__54
10
0.000000
20
0.000000
30
975.450012
70
192
0
VERTEX
8
OBJECT__54
10
0.000000
20
-35.500000
30
1010.950012
70
192
0
VERTEX
8
OBJECT__54
10
0.000000
20
-30.743999
30
1028.699951
70
192
0
VERTEX
8
OBJECT__54
10
0.000000
20
-30.743999
30
993.200012
70
192
0
VERTEX
8
OBJECT__54
10
0.000000
20
0.000000
30
1046.449951
70
192
0
VERTEX
8
OBJECT__54
10
0
20
0
30
0
70
128
71
1
72
2
73
3
0
VERTEX
8
OBJECT__54
10
0
20
0
30
0
70
128
71
1
72
4
73
5
0
VERTEX
8
OBJECT__54
10
0
20
0
30
0
70
128
71
3
72
6
73
1
0
VERTEX
8
OBJECT__54
10
0
20
0
30
0
70
128
71
6
72
4
73
1
0
VERTEX
8
OBJECT__54
10
0
20
0
30
0
70
128
71
5
72
7
73
1
0
SEQEND
8
OBJECT__54
0
POLYLINE
8
OBJECT__55
66
1
70
64
71
20
72
18
62
253
0
VERTEX
8
OBJECT__55
10
440.937012
20
9.845000
30
1023.072998
70
192
0
VERTEX
8
OBJECT__55
10
453.285004
20
12.972000
30
1023.072998
70
192
0
VERTEX
8
OBJECT__55
10
457.319000
20
11.203000
30
1023.072998
70
192
0
VERTEX
8
OBJECT__55
10
444.625000
20
12.255000
30
1023.072998
70
192
0
VERTEX
8
OBJECT__55
10
448.894989
20
13.336000
30
1023.072998
70
192
0
VERTEX
8
OBJECT__55
10
440.937012
20
-9.845000
30
1023.072998
70
192
0
VERTEX
8
OBJECT__55
10
453.285004
20
-12.972000
30
1023.072998
70
192
0
VERTEX
8
OBJECT__55
10
448.894989
20
-13.336000
30
1023.072998
70
192
0
VERTEX
8
OBJECT__55
10
460.559998
20
-8.219000
30
1023.072998
70
192
0
VERTEX
8
OBJECT__55
10
457.319000
20
-11.203000
30
1023.072998
70
192
0
VERTEX
8
OBJECT__55
10
460.559998
20
8.219000
30
1023.072998
70
192
0
VERTEX
8
OBJECT__55
10
436.800995
20
2.203000
30
1023.072998
70
192
0
VERTEX
8
OBJECT__55
10
438.230988
20
6.369000
30
1023.072998
70
192
0
VERTEX
8
OBJECT__55
10
438.230988
20
-6.369000
30
1023.072998
70
192
0
VERTEX
8
OBJECT__55
10
462.657013
20
4.345000
30
1023.072998
70
192
0
VERTEX
8
OBJECT__55
10
444.625000
20
-12.255000
30
1023.072998
70
192
0
VERTEX
8
OBJECT__55
10
436.800995
20
-2.203000
30
1023.072998
70
192
0
VERTEX
8
OBJECT__55
10
463.381989
20
0.000000
30
1023.072998
70
192
0
VERTEX
8
OBJECT__55
10
462.657013
20
-4.345000
30
1023.072998
70
192
0
VERTEX
8
OBJECT__55
10
436.618011
20
0.000000
30
1023.072998
70
192
0
VERTEX
8
OBJECT__55
10
0
20
0
30
0
70
128
71
1
72
2
73
3
0
VERTEX
8
OBJECT__55
10
0
20
0
30
0
70
128
71
1
72
4
73
5
0
VERTEX
8
OBJECT__55
10
0
20
0
30
0
70
128
71
6
72
7
73
8
0
VERTEX
8
OBJECT__55
10
0
20
0
30
0
70
128
71
6
72
9
73
10
0
VERTEX
8
OBJECT__55
10
0
20
0
30
0
70
128
71
5
72
2
73
1
0
VERTEX
8
OBJECT__55
10
0
20
0
30
0
70
128
71
11
72
12
73
13
0
VERTEX
8
OBJECT__55
10
0
20
0
30
0
70
128
71
9
72
6
73
14
0
VERTEX
8
OBJECT__55
10
0
20
0
30
0
70
128
71
10
72
7
73
6
0
VERTEX
8
OBJECT__55
10
0
20
0
30
0
70
128
71
12
72
11
73
15
0
VERTEX
8
OBJECT__55
10
0
20
0
30
0
70
128
71
13
72
1
73
11
0
VERTEX
8
OBJECT__55
10
0
20
0
30
0
70
128
71
8
72
16
73
6
0
VERTEX
8
OBJECT__55
10
0
20
0
30
0
70
128
71
17
72
18
73
19
0
VERTEX
8
OBJECT__55
10
0
20
0
30
0
70
128
71
3
72
11
73
1
0
VERTEX
8
OBJECT__55
10
0
20
0
30
0
70
128
71
19
72
9
73
17
0
VERTEX
8
OBJECT__55
10
0
20
0
30
0
70
128
71
18
72
20
73
12
0
VERTEX
8
OBJECT__55
10
0
20
0
30
0
70
128
71
14
72
17
73
9
0
VERTEX
8
OBJECT__55
10
0
20
0
30
0
70
128
71
17
72
20
73
18
0
VERTEX
8
OBJECT__55
10
0
20
0
30
0
70
128
71
15
72
18
73
12
0
SEQEND
8
OBJECT__55
0
POLYLINE
8
OBJECT__56
66
1
70
64
71
52
72
52
62
253
0
VERTEX
8
OBJECT__56
10
623.685974
20
-59.625999
30
1026.427979
70
192
0
VERTEX
8
OBJECT__56
10
462.657013
20
-4.345000
30
1023.072998
70
192
0
VERTEX
8
OBJECT__56
10
463.381989
20
0.000000
30
1023.072998
70
192
0
VERTEX
8
OBJECT__56
10
613.427002
20
-78.582001
30
1026.427979
70
192
0
VERTEX
8
OBJECT__56
10
594.914001
20
-112.791000
30
1026.427979
70
192
0
VERTEX
8
OBJECT__56
10
460.559998
20
-8.219000
30
1023.072998
70
192
0
VERTEX
8
OBJECT__56
10
563.111023
20
-142.069000
30
1026.427979
70
192
0
VERTEX
8
OBJECT__56
10
457.319000
20
-11.203000
30
1023.072998
70
192
0
VERTEX
8
OBJECT__56
10
550.439026
20
-153.733994
30
1026.427979
70
192
0
VERTEX
8
OBJECT__56
10
495.079987
20
-178.016006
30
1026.427979
70
192
0
VERTEX
8
OBJECT__56
10
453.285004
20
-12.972000
30
1023.072998
70
192
0
VERTEX
8
OBJECT__56
10
490.808014
20
-178.369995
30
1026.427979
70
192
0
VERTEX
8
OBJECT__56
10
434.834991
20
-183.007996
30
1026.427979
70
192
0
VERTEX
8
OBJECT__56
10
448.894989
20
-13.336000
30
1023.072998
70
192
0
VERTEX
8
OBJECT__56
10
409.739014
20
-176.653000
30
1026.427979
70
192
0
VERTEX
8
OBJECT__56
10
376.234009
20
-168.169006
30
1026.427979
70
192
0
VERTEX
8
OBJECT__56
10
444.625000
20
-12.255000
30
1023.072998
70
192
0
VERTEX
8
OBJECT__56
10
336.427002
20
-142.160995
30
1026.427979
70
192
0
VERTEX
8
OBJECT__56
10
440.937012
20
-9.845000
30
1023.072998
70
192
0
VERTEX
8
OBJECT__56
10
288.497009
20
-87.401001
30
1026.427979
70
192
0
VERTEX
8
OBJECT__56
10
438.230988
20
-6.369000
30
1023.072998
70
192
0
VERTEX
8
OBJECT__56
10
285.709015
20
-79.278999
30
1026.427979
70
192
0
VERTEX
8
OBJECT__56
10
268.868988
20
-30.225000
30
1026.427979
70
192
0
VERTEX
8
OBJECT__56
10
436.800995
20
-2.203000
30
1023.072998
70
192
0
VERTEX
8
OBJECT__56
10
266.364014
20
0.000000
30
1026.427979
70
192
0
VERTEX
8
OBJECT__56
10
436.618011
20
0.000000
30
1023.072998
70
192
0
VERTEX
8
OBJECT__56
10
268.868988
20
30.225000
30
1026.427979
70
192
0
VERTEX
8
OBJECT__56
10
436.800995
20
2.203000
30
1023.072998
70
192
0
VERTEX
8
OBJECT__56
10
285.709015
20
79.278999
30
1026.427979
70
192
0
VERTEX
8
OBJECT__56
10
438.230988
20
6.369000
30
1023.072998
70
192
0
VERTEX
8
OBJECT__56
10
288.497009
20
87.401001
30
1026.427979
70
192
0
VERTEX
8
OBJECT__56
10
325.627014
20
135.104996
30
1026.427979
70
192
0
VERTEX
8
OBJECT__56
10
440.937012
20
9.845000
30
1023.072998
70
192
0
VERTEX
8
OBJECT__56
10
336.427002
20
142.160995
30
1026.427979
70
192
0
VERTEX
8
OBJECT__56
10
376.234009
20
168.169006
30
1026.427979
70
192
0
VERTEX
8
OBJECT__56
10
444.625000
20
12.255000
30
1023.072998
70
192
0
VERTEX
8
OBJECT__56
10
409.739014
20
176.653000
30
1026.427979
70
192
0
VERTEX
8
OBJECT__56
10
448.894989
20
13.336000
30
1023.072998
70
192
0
VERTEX
8
OBJECT__56
10
490.808014
20
178.369995
30
1026.427979
70
192
0
VERTEX
8
OBJECT__56
10
453.285004
20
12.972000
30
1023.072998
70
192
0
VERTEX
8
OBJECT__56
10
434.834991
20
183.007996
30
1026.427979
70
192
0
VERTEX
8
OBJECT__56
10
550.439026
20
153.733994
30
1026.427979
70
192
0
VERTEX
8
OBJECT__56
10
457.319000
20
11.203000
30
1023.072998
70
192
0
VERTEX
8
OBJECT__56
10
563.111023
20
142.069000
30
1026.427979
70
192
0
VERTEX
8
OBJECT__56
10
594.914001
20
112.791000
30
1026.427979
70
192
0
VERTEX
8
OBJECT__56
10
460.559998
20
8.219000
30
1023.072998
70
192
0
VERTEX
8
OBJECT__56
10
613.427002
20
78.582001
30
1026.427979
70
192
0
VERTEX
8
OBJECT__56
10
462.657013
20
4.345000
30
1023.072998
70
192
0
VERTEX
8
OBJECT__56
10
623.685974
20
59.625999
30
1026.427979
70
192
0
VERTEX
8
OBJECT__56
10
633.635986
20
0.000000
30
1026.427979
70
192
0
VERTEX
8
OBJECT__56
10
495.079987
20
178.016006
30
1026.427979
70
192
0
VERTEX
8
OBJECT__56
10
325.627014
20
-135.104996
30
1026.427979
70
192
0
VERTEX
8
OBJECT__56
10
0
20
0
30
0
70
128
71
1
72
2
73
3
0
VERTEX
8
OBJECT__56
10
0
20
0
30
0
70
128
71
4
72
5
73
6
0
VERTEX
8
OBJECT__56
10
0
20
0
30
0
70
128
71
2
72
1
73
4
0
VERTEX
8
OBJECT__56
10
0
20
0
30
0
70
128
71
7
72
8
73
6
0
VERTEX
8
OBJECT__56
10
0
20
0
30
0
70
128
71
6
72
5
73
7
0
VERTEX
8
OBJECT__56
10
0
20
0
30
0
70
128
71
9
72
10
73
11
0
VERTEX
8
OBJECT__56
10
0
20
0
30
0
70
128
71
12
72
13
73
14
0
VERTEX
8
OBJECT__56
10
0
20
0
30
0
70
128
71
11
72
10
73
12
0
VERTEX
8
OBJECT__56
10
0
20
0
30
0
70
128
71
15
72
16
73
17
0
VERTEX
8
OBJECT__56
10
0
20
0
30
0
70
128
71
14
72
13
73
15
0
VERTEX
8
OBJECT__56
10
0
20
0
30
0
70
128
71
18
72
19
73
17
0
VERTEX
8
OBJECT__56
10
0
20
0
30
0
70
128
71
17
72
16
73
18
0
VERTEX
8
OBJECT__56
10
0
20
0
30
0
70
128
71
20
72
21
73
19
0
VERTEX
8
OBJECT__56
10
0
20
0
30
0
70
128
71
22
72
23
73
24
0
VERTEX
8
OBJECT__56
10
0
20
0
30
0
70
128
71
21
72
20
73
22
0
VERTEX
8
OBJECT__56
10
0
20
0
30
0
70
128
71
23
72
25
73
26
0
VERTEX
8
OBJECT__56
10
0
20
0
30
0
70
128
71
27
72
28
73
26
0
VERTEX
8
OBJECT__56
10
0
20
0
30
0
70
128
71
26
72
25
73
27
0
VERTEX
8
OBJECT__56
10
0
20
0
30
0
70
128
71
29
72
30
73
28
0
VERTEX
8
OBJECT__56
10
0
20
0
30
0
70
128
71
28
72
27
73
29
0
VERTEX
8
OBJECT__56
10
0
20
0
30
0
70
128
71
31
72
32
73
33
0
VERTEX
8
OBJECT__56
10
0
20
0
30
0
70
128
71
34
72
35
73
36
0
VERTEX
8
OBJECT__56
10
0
20
0
30
0
70
128
71
33
72
32
73
34
0
VERTEX
8
OBJECT__56
10
0
20
0
30
0
70
128
71
37
72
38
73
36
0
VERTEX
8
OBJECT__56
10
0
20
0
30
0
70
128
71
36
72
35
73
37
0
VERTEX
8
OBJECT__56
10
0
20
0
30
0
70
128
71
39
72
40
73
38
0
VERTEX
8
OBJECT__56
10
0
20
0
30
0
70
128
71
38
72
41
73
39
0
VERTEX
8
OBJECT__56
10
0
20
0
30
0
70
128
71
42
72
43
73
40
0
VERTEX
8
OBJECT__56
10
0
20
0
30
0
70
128
71
44
72
45
73
46
0
VERTEX
8
OBJECT__56
10
0
20
0
30
0
70
128
71
43
72
42
73
44
0
VERTEX
8
OBJECT__56
10
0
20
0
30
0
70
128
71
47
72
48
73
46
0
VERTEX
8
OBJECT__56
10
0
20
0
30
0
70
128
71
46
72
45
73
47
0
VERTEX
8
OBJECT__56
10
0
20
0
30
0
70
128
71
49
72
50
73
3
0
VERTEX
8
OBJECT__56
10
0
20
0
30
0
70
128
71
3
72
48
73
49
0
VERTEX
8
OBJECT__56
10
0
20
0
30
0
70
128
71
47
72
49
73
48
0
VERTEX
8
OBJECT__56
10
0
20
0
30
0
70
128
71
46
72
43
73
44
0
VERTEX
8
OBJECT__56
10
0
20
0
30
0
70
128
71
40
72
51
73
42
0
VERTEX
8
OBJECT__56
10
0
20
0
30
0
70
128
71
39
72
51
73
40
0
VERTEX
8
OBJECT__56
10
0
20
0
30
0
70
128
71
37
72
41
73
38
0
VERTEX
8
OBJECT__56
10
0
20
0
30
0
70
128
71
36
72
33
73
34
0
VERTEX
8
OBJECT__56
10
0
20
0
30
0
70
128
71
33
72
30
73
31
0
VERTEX
8
OBJECT__56
10
0
20
0
30
0
70
128
71
29
72
31
73
30
0
VERTEX
8
OBJECT__56
10
0
20
0
30
0
70
128
71
26
72
24
73
23
0
VERTEX
8
OBJECT__56
10
0
20
0
30
0
70
128
71
24
72
21
73
22
0
VERTEX
8
OBJECT__56
10
0
20
0
30
0
70
128
71
19
72
52
73
20
0
VERTEX
8
OBJECT__56
10
0
20
0
30
0
70
128
71
18
72
52
73
19
0
VERTEX
8
OBJECT__56
10
0
20
0
30
0
70
128
71
17
72
14
73
15
0
VERTEX
8
OBJECT__56
10
0
20
0
30
0
70
128
71
14
72
11
73
12
0
VERTEX
8
OBJECT__56
10
0
20
0
30
0
70
128
71
11
72
8
73
9
0
VERTEX
8
OBJECT__56
10
0
20
0
30
0
70
128
71
7
72
9
73
8
0
VERTEX
8
OBJECT__56
10
0
20
0
30
0
70
128
71
6
72
2
73
4
0
VERTEX
8
OBJECT__56
10
0
20
0
30
0
70
128
71
3
72
50
73
1
0
SEQEND
8
OBJECT__56
0
POLYLINE
8
OBJECT__58
66
1
70
64
71
46
72
46
62
253
0
VERTEX
8
OBJECT__58
10
634.200012
20
0.000000
30
1037.197998
70
192
0
VERTEX
8
OBJECT__58
10
633.635986
20
0.000000
30
1026.427979
70
192
0
VERTEX
8
OBJECT__58
10
623.685974
20
59.625999
30
1026.427979
70
192
0
VERTEX
8
OBJECT__58
10
615.958008
20
79.920998
30
1037.197998
70
192
0
VERTEX
8
OBJECT__58
10
564.846985
20
144.013000
30
1037.197998
70
192
0
VERTEX
8
OBJECT__58
10
594.914001
20
112.791000
30
1026.427979
70
192
0
VERTEX
8
OBJECT__58
10
613.427002
20
78.582001
30
1026.427979
70
192
0
VERTEX
8
OBJECT__58
10
490.988007
20
179.582001
30
1037.197998
70
192
0
VERTEX
8
OBJECT__58
10
550.439026
20
153.733994
30
1026.427979
70
192
0
VERTEX
8
OBJECT__58
10
563.111023
20
142.069000
30
1026.427979
70
192
0
VERTEX
8
OBJECT__58
10
495.079987
20
178.016006
30
1026.427979
70
192
0
VERTEX
8
OBJECT__58
10
490.808014
20
178.369995
30
1026.427979
70
192
0
VERTEX
8
OBJECT__58
10
434.834991
20
183.007996
30
1026.427979
70
192
0
VERTEX
8
OBJECT__58
10
409.011993
20
179.582001
30
1037.197998
70
192
0
VERTEX
8
OBJECT__58
10
335.153015
20
144.013000
30
1037.197998
70
192
0
VERTEX
8
OBJECT__58
10
376.234009
20
168.169006
30
1026.427979
70
192
0
VERTEX
8
OBJECT__58
10
409.739014
20
176.653000
30
1026.427979
70
192
0
VERTEX
8
OBJECT__58
10
284.041992
20
79.920998
30
1037.197998
70
192
0
VERTEX
8
OBJECT__58
10
325.627014
20
135.104996
30
1026.427979
70
192
0
VERTEX
8
OBJECT__58
10
336.427002
20
142.160995
30
1026.427979
70
192
0
VERTEX
8
OBJECT__58
10
288.497009
20
87.401001
30
1026.427979
70
192
0
VERTEX
8
OBJECT__58
10
285.709015
20
79.278999
30
1026.427979
70
192
0
VERTEX
8
OBJECT__58
10
268.868988
20
30.225000
30
1026.427979
70
192
0
VERTEX
8
OBJECT__58
10
265.799988
20
0.000000
30
1037.197998
70
192
0
VERTEX
8
OBJECT__58
10
284.041992
20
-79.920998
30
1037.197998
70
192
0
VERTEX
8
OBJECT__58
10
268.868988
20
-30.225000
30
1026.427979
70
192
0
VERTEX
8
OBJECT__58
10
266.364014
20
0.000000
30
1026.427979
70
192
0
VERTEX
8
OBJECT__58
10
288.497009
20
-87.401001
30
1026.427979
70
192
0
VERTEX
8
OBJECT__58
10
325.627014
20
-135.104996
30
1026.427979
70
192
0
VERTEX
8
OBJECT__58
10
335.153015
20
-144.013000
30
1037.197998
70
192
0
VERTEX
8
OBJECT__58
10
285.709015
20
-79.278999
30
1026.427979
70
192
0
VERTEX
8
OBJECT__58
10
336.427002
20
-142.160995
30
1026.427979
70
192
0
VERTEX
8
OBJECT__58
10
376.234009
20
-168.169006
30
1026.427979
70
192
0
VERTEX
8
OBJECT__58
10
409.011993
20
-179.582001
30
1037.197998
70
192
0
VERTEX
8
OBJECT__58
10
490.988007
20
-179.582001
30
1037.197998
70
192
0
VERTEX
8
OBJECT__58
10
434.834991
20
-183.007996
30
1026.427979
70
192
0
VERTEX
8
OBJECT__58
10
409.739014
20
-176.653000
30
1026.427979
70
192
0
VERTEX
8
OBJECT__58
10
495.079987
20
-178.016006
30
1026.427979
70
192
0
VERTEX
8
OBJECT__58
10
550.439026
20
-153.733994
30
1026.427979
70
192
0
VERTEX
8
OBJECT__58
10
564.846985
20
-144.013000
30
1037.197998
70
192
0
VERTEX
8
OBJECT__58
10
490.808014
20
-178.369995
30
1026.427979
70
192
0
VERTEX
8
OBJECT__58
10
563.111023
20
-142.069000
30
1026.427979
70
192
0
VERTEX
8
OBJECT__58
10
594.914001
20
-112.791000
30
1026.427979
70
192
0
VERTEX
8
OBJECT__58
10
615.958008
20
-79.920998
30
1037.197998
70
192
0
VERTEX
8
OBJECT__58
10
623.685974
20
-59.625999
30
1026.427979
70
192
0
VERTEX
8
OBJECT__58
10
613.427002
20
-78.582001
30
1026.427979
70
192
0
VERTEX
8
OBJECT__58
10
0
20
0
30
0
70
128
71
1
72
2
73
3
0
VERTEX
8
OBJECT__58
10
0
20
0
30
0
70
128
71
3
72
4
73
1
0
VERTEX
8
OBJECT__58
10
0
20
0
30
0
70
128
71
5
72
4
73
6
0
VERTEX
8
OBJECT__58
10
0
20
0
30
0
70
128
71
4
72
7
73
6
0
VERTEX
8
OBJECT__58
10
0
20
0
30
0
70
128
71
8
72
5
73
9
0
VERTEX
8
OBJECT__58
10
0
20
0
30
0
70
128
71
5
72
10
73
9
0
VERTEX
8
OBJECT__58
10
0
20
0
30
0
70
128
71
9
72
11
73
8
0
VERTEX
8
OBJECT__58
10
0
20
0
30
0
70
128
71
8
72
12
73
13
0
VERTEX
8
OBJECT__58
10
0
20
0
30
0
70
128
71
13
72
14
73
8
0
VERTEX
8
OBJECT__58
10
0
20
0
30
0
70
128
71
15
72
14
73
16
0
VERTEX
8
OBJECT__58
10
0
20
0
30
0
70
128
71
14
72
17
73
16
0
VERTEX
8
OBJECT__58
10
0
20
0
30
0
70
128
71
18
72
15
73
19
0
VERTEX
8
OBJECT__58
10
0
20
0
30
0
70
128
71
15
72
20
73
19
0
VERTEX
8
OBJECT__58
10
0
20
0
30
0
70
128
71
19
72
21
73
18
0
VERTEX
8
OBJECT__58
10
0
20
0
30
0
70
128
71
18
72
22
73
23
0
VERTEX
8
OBJECT__58
10
0
20
0
30
0
70
128
71
23
72
24
73
18
0
VERTEX
8
OBJECT__58
10
0
20
0
30
0
70
128
71
25
72
24
73
26
0
VERTEX
8
OBJECT__58
10
0
20
0
30
0
70
128
71
24
72
27
73
26
0
VERTEX
8
OBJECT__58
10
0
20
0
30
0
70
128
71
25
72
28
73
29
0
VERTEX
8
OBJECT__58
10
0
20
0
30
0
70
128
71
29
72
30
73
25
0
VERTEX
8
OBJECT__58
10
0
20
0
30
0
70
128
71
25
72
31
73
28
0
VERTEX
8
OBJECT__58
10
0
20
0
30
0
70
128
71
30
72
32
73
33
0
VERTEX
8
OBJECT__58
10
0
20
0
30
0
70
128
71
33
72
34
73
30
0
VERTEX
8
OBJECT__58
10
0
20
0
30
0
70
128
71
35
72
34
73
36
0
VERTEX
8
OBJECT__58
10
0
20
0
30
0
70
128
71
34
72
37
73
36
0
VERTEX
8
OBJECT__58
10
0
20
0
30
0
70
128
71
35
72
38
73
39
0
VERTEX
8
OBJECT__58
10
0
20
0
30
0
70
128
71
39
72
40
73
35
0
VERTEX
8
OBJECT__58
10
0
20
0
30
0
70
128
71
35
72
41
73
38
0
VERTEX
8
OBJECT__58
10
0
20
0
30
0
70
128
71
40
72
42
73
43
0
VERTEX
8
OBJECT__58
10
0
20
0
30
0
70
128
71
43
72
44
73
40
0
VERTEX
8
OBJECT__58
10
0
20
0
30
0
70
128
71
1
72
44
73
45
0
VERTEX
8
OBJECT__58
10
0
20
0
30
0
70
128
71
44
72
46
73
45
0
VERTEX
8
OBJECT__58
10
0
20
0
30
0
70
128
71
45
72
2
73
1
0
VERTEX
8
OBJECT__58
10
0
20
0
30
0
70
128
71
43
72
46
73
44
0
VERTEX
8
OBJECT__58
10
0
20
0
30
0
70
128
71
39
72
42
73
40
0
VERTEX
8
OBJECT__58
10
0
20
0
30
0
70
128
71
36
72
41
73
35
0
VERTEX
8
OBJECT__58
10
0
20
0
30
0
70
128
71
33
72
37
73
34
0
VERTEX
8
OBJECT__58
10
0
20
0
30
0
70
128
71
29
72
32
73
30
0
VERTEX
8
OBJECT__58
10
0
20
0
30
0
70
128
71
26
72
31
73
25
0
VERTEX
8
OBJECT__58
10
0
20
0
30
0
70
128
71
23
72
27
73
24
0
VERTEX
8
OBJECT__58
10
0
20
0
30
0
70
128
71
21
72
22
73
18
0
VERTEX
8
OBJECT__58
10
0
20
0
30
0
70
128
71
16
72
20
73
15
0
VERTEX
8
OBJECT__58
10
0
20
0
30
0
70
128
71
13
72
17
73
14
0
VERTEX
8
OBJECT__58
10
0
20
0
30
0
70
128
71
11
72
12
73
8
0
VERTEX
8
OBJECT__58
10
0
20
0
30
0
70
128
71
6
72
10
73
5
0
VERTEX
8
OBJECT__58
10
0
20
0
30
0
70
128
71
3
72
7
73
4
0
SEQEND
8
OBJECT__58
0
POLYLINE
8
OBJECT__59
66
1
70
64
71
7
72
5
62
253
0
VERTEX
8
OBJECT__59
10
433.477997
20
-20.719000
30
1053.300049
70
192
0
VERTEX
8
OBJECT__59
10
455.897003
20
25.836000
30
1053.300049
70
192
0
VERTEX
8
OBJECT__59
10
433.477997
20
20.719000
30
1053.300049
70
192
0
VERTEX
8
OBJECT__59
10
455.897003
20
-25.836000
30
1053.300049
70
192
0
VERTEX
8
OBJECT__59
10
473.876007
20
-11.498000
30
1053.300049
70
192
0
VERTEX
8
OBJECT__59
10
473.876007
20
11.498000
30
1053.300049
70
192
0
VERTEX
8
OBJECT__59
10
423.500000
20
0.000000
30
1053.300049
70
192
0
VERTEX
8
OBJECT__59
10
0
20
0
30
0
70
128
71
1
72
2
73
3
0
VERTEX
8
OBJECT__59
10
0
20
0
30
0
70
128
71
1
72
4
73
5
0
VERTEX
8
OBJECT__59
10
0
20
0
30
0
70
128
71
1
72
6
73
2
0
VERTEX
8
OBJECT__59
10
0
20
0
30
0
70
128
71
3
72
7
73
1
0
VERTEX
8
OBJECT__59
10
0
20
0
30
0
70
128
71
5
72
6
73
1
0
SEQEND
8
OBJECT__59
0
POLYLINE
8
OBJECT__60
66
1
70
64
71
14
72
14
62
253
0
VERTEX
8
OBJECT__60
10
401.591003
20
0.000000
30
1044.000000
70
192
0
VERTEX
8
OBJECT__60
10
423.500000
20
0.000000
30
1053.300049
70
192
0
VERTEX
8
OBJECT__60
10
433.477997
20
20.719000
30
1053.300049
70
192
0
VERTEX
8
OBJECT__60
10
419.816986
20
37.848000
30
1044.000000
70
192
0
VERTEX
8
OBJECT__60
10
455.897003
20
25.836000
30
1053.300049
70
192
0
VERTEX
8
OBJECT__60
10
493.614990
20
21.004000
30
1044.000000
70
192
0
VERTEX
8
OBJECT__60
10
460.772003
20
47.195999
30
1044.000000
70
192
0
VERTEX
8
OBJECT__60
10
493.614990
20
-21.004000
30
1044.000000
70
192
0
VERTEX
8
OBJECT__60
10
473.876007
20
11.498000
30
1053.300049
70
192
0
VERTEX
8
OBJECT__60
10
473.876007
20
-11.498000
30
1053.300049
70
192
0
VERTEX
8
OBJECT__60
10
455.897003
20
-25.836000
30
1053.300049
70
192
0
VERTEX
8
OBJECT__60
10
460.772003
20
-47.195999
30
1044.000000
70
192
0
VERTEX
8
OBJECT__60
10
433.477997
20
-20.719000
30
1053.300049
70
192
0
VERTEX
8
OBJECT__60
10
419.816986
20
-37.848000
30
1044.000000
70
192
0
VERTEX
8
OBJECT__60
10
0
20
0
30
0
70
128
71
1
72
2
73
3
0
VERTEX
8
OBJECT__60
10
0
20
0
30
0
70
128
71
4
72
3
73
5
0
VERTEX
8
OBJECT__60
10
0
20
0
30
0
70
128
71
6
72
7
73
5
0
VERTEX
8
OBJECT__60
10
0
20
0
30
0
70
128
71
8
72
6
73
9
0
VERTEX
8
OBJECT__60
10
0
20
0
30
0
70
128
71
8
72
10
73
11
0
VERTEX
8
OBJECT__60
10
0
20
0
30
0
70
128
71
12
72
11
73
13
0
VERTEX
8
OBJECT__60
10
0
20
0
30
0
70
128
71
1
72
14
73
13
0
VERTEX
8
OBJECT__60
10
0
20
0
30
0
70
128
71
13
72
2
73
1
0
VERTEX
8
OBJECT__60
10
0
20
0
30
0
70
128
71
13
72
14
73
12
0
VERTEX
8
OBJECT__60
10
0
20
0
30
0
70
128
71
11
72
12
73
8
0
VERTEX
8
OBJECT__60
10
0
20
0
30
0
70
128
71
9
72
10
73
8
0
VERTEX
8
OBJECT__60
10
0
20
0
30
0
70
128
71
5
72
9
73
6
0
VERTEX
8
OBJECT__60
10
0
20
0
30
0
70
128
71
5
72
7
73
4
0
VERTEX
8
OBJECT__60
10
0
20
0
30
0
70
128
71
3
72
4
73
1
0
SEQEND
8
OBJECT__60
0
POLYLINE
8
OBJECT__62
66
1
70
64
71
24
72
24
62
253
0
VERTEX
8
OBJECT__62
10
431.777008
20
196.656998
30
1044.000000
70
192
0
VERTEX
8
OBJECT__62
10
361.967010
20
176.794998
30
1044.000000
70
192
0
VERTEX
8
OBJECT__62
10
419.816986
20
37.848000
30
1044.000000
70
192
0
VERTEX
8
OBJECT__62
10
460.772003
20
47.195999
30
1044.000000
70
192
0
VERTEX
8
OBJECT__62
10
504.048004
20
189.960999
30
1044.000000
70
192
0
VERTEX
8
OBJECT__62
10
265.837006
20
71.345001
30
1044.000000
70
192
0
VERTEX
8
OBJECT__62
10
401.591003
20
0.000000
30
1044.000000
70
192
0
VERTEX
8
OBJECT__62
10
431.777008
20
-196.656998
30
1044.000000
70
192
0
VERTEX
8
OBJECT__62
10
460.772003
20
-47.195999
30
1044.000000
70
192
0
VERTEX
8
OBJECT__62
10
419.816986
20
-37.848000
30
1044.000000
70
192
0
VERTEX
8
OBJECT__62
10
304.045990
20
133.054993
30
1044.000000
70
192
0
VERTEX
8
OBJECT__62
10
265.837006
20
-71.345001
30
1044.000000
70
192
0
VERTEX
8
OBJECT__62
10
304.045990
20
-133.054993
30
1044.000000
70
192
0
VERTEX
8
OBJECT__62
10
361.967010
20
-176.794998
30
1044.000000
70
192
0
VERTEX
8
OBJECT__62
10
569.020020
20
-157.608002
30
1044.000000
70
192
0
VERTEX
8
OBJECT__62
10
617.918030
20
-103.970001
30
1044.000000
70
192
0
VERTEX
8
OBJECT__62
10
493.614990
20
-21.004000
30
1044.000000
70
192
0
VERTEX
8
OBJECT__62
10
644.137024
20
-36.291000
30
1044.000000
70
192
0
VERTEX
8
OBJECT__62
10
644.137024
20
36.291000
30
1044.000000
70
192
0
VERTEX
8
OBJECT__62
10
493.614990
20
21.004000
30
1044.000000
70
192
0
VERTEX
8
OBJECT__62
10
569.020020
20
157.608002
30
1044.000000
70
192
0
VERTEX
8
OBJECT__62
10
252.500000
20
0.000000
30
1044.000000
70
192
0
VERTEX
8
OBJECT__62
10
504.048004
20
-189.960999
30
1044.000000
70
192
0
VERTEX
8
OBJECT__62
10
617.918030
20
103.970001
30
1044.000000
70
192
0
VERTEX
8
OBJECT__62
10
0
20
0
30
0
70
128
71
1
72
2
73
3
0
VERTEX
8
OBJECT__62
10
0
20
0
30
0
70
128
71
4
72
5
73
1
0
VERTEX
8
OBJECT__62
10
0
20
0
30
0
70
128
71
6
72
7
73
3
0
VERTEX
8
OBJECT__62
10
0
20
0
30
0
70
128
71
8
72
9
73
10
0
VERTEX
8
OBJECT__62
10
0
20
0
30
0
70
128
71
3
72
4
73
1
0
VERTEX
8
OBJECT__62
10
0
20
0
30
0
70
128
71
3
72
11
73
6
0
VERTEX
8
OBJECT__62
10
0
20
0
30
0
70
128
71
12
72
13
73
10
0
VERTEX
8
OBJECT__62
10
0
20
0
30
0
70
128
71
10
72
13
73
14
0
VERTEX
8
OBJECT__62
10
0
20
0
30
0
70
128
71
15
72
16
73
17
0
VERTEX
8
OBJECT__62
10
0
20
0
30
0
70
128
71
18
72
19
73
20
0
VERTEX
8
OBJECT__62
10
0
20
0
30
0
70
128
71
21
72
4
73
20
0
VERTEX
8
OBJECT__62
10
0
20
0
30
0
70
128
71
6
72
22
73
7
0
VERTEX
8
OBJECT__62
10
0
20
0
30
0
70
128
71
7
72
22
73
12
0
VERTEX
8
OBJECT__62
10
0
20
0
30
0
70
128
71
10
72
14
73
8
0
VERTEX
8
OBJECT__62
10
0
20
0
30
0
70
128
71
9
72
23
73
15
0
VERTEX
8
OBJECT__62
10
0
20
0
30
0
70
128
71
17
72
16
73
18
0
VERTEX
8
OBJECT__62
10
0
20
0
30
0
70
128
71
20
72
24
73
21
0
VERTEX
8
OBJECT__62
10
0
20
0
30
0
70
128
71
10
72
7
73
12
0
VERTEX
8
OBJECT__62
10
0
20
0
30
0
70
128
71
17
72
9
73
15
0
VERTEX
8
OBJECT__62
10
0
20
0
30
0
70
128
71
20
72
17
73
18
0
VERTEX
8
OBJECT__62
10
0
20
0
30
0
70
128
71
2
72
11
73
3
0
VERTEX
8
OBJECT__62
10
0
20
0
30
0
70
128
71
19
72
24
73
20
0
VERTEX
8
OBJECT__62
10
0
20
0
30
0
70
128
71
8
72
23
73
9
0
VERTEX
8
OBJECT__62
10
0
20
0
30
0
70
128
71
21
72
5
73
4
0
SEQEND
8
OBJECT__62
0
POLYLINE
8
OBJECT__63
66
1
70
64
71
4
72
2
62
253
0
VERTEX
8
OBJECT__63
10
436.700012
20
0.000000
30
1071.800049
70
192
0
VERTEX
8
OBJECT__63
10
450.000000
20
-13.300000
30
1071.800049
70
192
0
VERTEX
8
OBJECT__63
10
463.299988
20
0.000000
30
1071.800049
70
192
0
VERTEX
8
OBJECT__63
10
450.000000
20
13.300000
30
1071.800049
70
192
0
VERTEX
8
OBJECT__63
10
0
20
0
30
0
70
128
71
1
72
2
73
3
0
VERTEX
8
OBJECT__63
10
0
20
0
30
0
70
128
71
3
72
4
73
1
0
SEQEND
8
OBJECT__63
0
POLYLINE
8
OBJECT__64
66
1
70
64
71
8
72
8
62
253
0
VERTEX
8
OBJECT__64
10
436.700012
20
0.000000
30
1071.800049
70
192
0
VERTEX
8
OBJECT__64
10
436.700012
20
0.000000
30
1066.050049
70
192
0
VERTEX
8
OBJECT__64
10
450.000000
20
-13.300000
30
1066.050049
70
192
0
VERTEX
8
OBJECT__64
10
450.000000
20
13.300000
30
1071.800049
70
192
0
VERTEX
8
OBJECT__64
10
450.000000
20
13.300000
30
1066.050049
70
192
0
VERTEX
8
OBJECT__64
10
463.299988
20
0.000000
30
1066.050049
70
192
0
VERTEX
8
OBJECT__64
10
463.299988
20
0.000000
30
1071.800049
70
192
0
VERTEX
8
OBJECT__64
10
450.000000
20
-13.300000
30
1071.800049
70
192
0
VERTEX
8
OBJECT__64
10
0
20
0
30
0
70
128
71
1
72
2
73
3
0
VERTEX
8
OBJECT__64
10
0
20
0
30
0
70
128
71
4
72
5
73
2
0
VERTEX
8
OBJECT__64
10
0
20
0
30
0
70
128
71
6
72
5
73
4
0
VERTEX
8
OBJECT__64
10
0
20
0
30
0
70
128
71
3
72
6
73
7
0
VERTEX
8
OBJECT__64
10
0
20
0
30
0
70
128
71
7
72
8
73
3
0
VERTEX
8
OBJECT__64
10
0
20
0
30
0
70
128
71
4
72
7
73
6
0
VERTEX
8
OBJECT__64
10
0
20
0
30
0
70
128
71
2
72
1
73
4
0
VERTEX
8
OBJECT__64
10
0
20
0
30
0
70
128
71
3
72
8
73
1
0
SEQEND
8
OBJECT__64
0
POLYLINE
8
OBJECT__66
66
1
70
64
71
4
72
2
62
253
0
VERTEX
8
OBJECT__66
10
68.000000
20
16.650000
30
417.500000
70
192
0
VERTEX
8
OBJECT__66
10
50.000000
20
16.650000
30
435.500000
70
192
0
VERTEX
8
OBJECT__66
10
32.000000
20
16.650000
30
417.500000
70
192
0
VERTEX
8
OBJECT__66
10
50.000000
20
16.650000
30
399.500000
70
192
0
VERTEX
8
OBJECT__66
10
0
20
0
30
0
70
128
71
1
72
2
73
3
0
VERTEX
8
OBJECT__66
10
0
20
0
30
0
70
128
71
3
72
4
73
1
0
SEQEND
8
OBJECT__66
0
POLYLINE
8
OBJECT__67
66
1
70
64
71
30
72
30
62
253
0
VERTEX
8
OBJECT__67
10
50.000000
20
16.650000
30
435.500000
70
192
0
VERTEX
8
OBJECT__67
10
68.000000
20
16.650000
30
417.500000
70
192
0
VERTEX
8
OBJECT__67
10
59.026001
20
39.401001
30
433.072998
70
192
0
VERTEX
8
OBJECT__67
10
68.000000
20
63.150002
30
417.500000
70
192
0
VERTEX
8
OBJECT__67
10
62.959999
20
51.222000
30
429.992004
70
192
0
VERTEX
8
OBJECT__67
10
59.325001
20
40.299999
30
432.838989
70
192
0
VERTEX
8
OBJECT__67
10
58.500000
20
63.150002
30
433.367004
70
192
0
VERTEX
8
OBJECT__67
10
58.500000
20
59.381001
30
433.367004
70
192
0
VERTEX
8
OBJECT__67
10
59.729000
20
58.164001
30
432.644012
70
192
0
VERTEX
8
OBJECT__67
10
32.000000
20
63.150002
30
417.500000
70
192
0
VERTEX
8
OBJECT__67
10
37.257999
20
45.955002
30
430.213989
70
192
0
VERTEX
8
OBJECT__67
10
41.500000
20
59.381001
30
433.367004
70
192
0
VERTEX
8
OBJECT__67
10
32.000000
20
16.650000
30
417.500000
70
192
0
VERTEX
8
OBJECT__67
10
45.577999
20
36.518002
30
434.947998
70
192
0
VERTEX
8
OBJECT__67
10
41.444000
20
41.207001
30
432.596008
70
192
0
VERTEX
8
OBJECT__67
10
49.842999
20
37.431999
30
434.354004
70
192
0
VERTEX
8
OBJECT__67
10
42.778000
20
42.749001
30
401.872986
70
192
0
VERTEX
8
OBJECT__67
10
48.380001
20
37.734001
30
399.572998
70
192
0
VERTEX
8
OBJECT__67
10
38.554001
20
46.530998
30
403.608002
70
192
0
VERTEX
8
OBJECT__67
10
40.257000
20
55.584999
30
402.364990
70
192
0
VERTEX
8
OBJECT__67
10
41.500000
20
63.150002
30
401.632996
70
192
0
VERTEX
8
OBJECT__67
10
41.500000
20
57.099998
30
401.632996
70
192
0
VERTEX
8
OBJECT__67
10
50.000000
20
16.650000
30
399.500000
70
192
0
VERTEX
8
OBJECT__67
10
61.417000
20
46.410999
30
403.584015
70
192
0
VERTEX
8
OBJECT__67
10
58.500000
20
57.099998
30
401.632996
70
192
0
VERTEX
8
OBJECT__67
10
60.056000
20
43.195000
30
402.571014
70
192
0
VERTEX
8
OBJECT__67
10
49.889000
20
38.439999
30
399.959991
70
192
0
VERTEX
8
OBJECT__67
10
58.084000
20
42.272999
30
402.065002
70
192
0
VERTEX
8
OBJECT__67
10
58.500000
20
63.150002
30
401.632996
70
192
0
VERTEX
8
OBJECT__67
10
41.500000
20
63.150002
30
433.367004
70
192
0
VERTEX
8
OBJECT__67
10
0
20
0
30
0
70
128
71
1
72
2
73
3
0
VERTEX
8
OBJECT__67
10
0
20
0
30
0
70
128
71
2
72
4
73
5
0
VERTEX
8
OBJECT__67
10
0
20
0
30
0
70
128
71
5
72
6
73
2
0
VERTEX
8
OBJECT__67
10
0
20
0
30
0
70
128
71
6
72
3
73
2
0
VERTEX
8
OBJECT__67
10
0
20
0
30
0
70
128
71
4
72
7
73
8
0
VERTEX
8
OBJECT__67
10
0
20
0
30
0
70
128
71
8
72
9
73
4
0
VERTEX
8
OBJECT__67
10
0
20
0
30
0
70
128
71
9
72
5
73
4
0
VERTEX
8
OBJECT__67
10
0
20
0
30
0
70
128
71
10
72
11
73
12
0
VERTEX
8
OBJECT__67
10
0
20
0
30
0
70
128
71
10
72
13
73
11
0
VERTEX
8
OBJECT__67
10
0
20
0
30
0
70
128
71
13
72
1
73
14
0
VERTEX
8
OBJECT__67
10
0
20
0
30
0
70
128
71
14
72
15
73
13
0
VERTEX
8
OBJECT__67
10
0
20
0
30
0
70
128
71
1
72
16
73
14
0
VERTEX
8
OBJECT__67
10
0
20
0
30
0
70
128
71
15
72
11
73
13
0
VERTEX
8
OBJECT__67
10
0
20
0
30
0
70
128
71
13
72
17
73
18
0
VERTEX
8
OBJECT__67
10
0
20
0
30
0
70
128
71
13
72
19
73
17
0
VERTEX
8
OBJECT__67
10
0
20
0
30
0
70
128
71
10
72
20
73
19
0
VERTEX
8
OBJECT__67
10
0
20
0
30
0
70
128
71
10
72
21
73
22
0
VERTEX
8
OBJECT__67
10
0
20
0
30
0
70
128
71
22
72
20
73
10
0
VERTEX
8
OBJECT__67
10
0
20
0
30
0
70
128
71
19
72
13
73
10
0
VERTEX
8
OBJECT__67
10
0
20
0
30
0
70
128
71
18
72
23
73
13
0
VERTEX
8
OBJECT__67
10
0
20
0
30
0
70
128
71
4
72
24
73
25
0
VERTEX
8
OBJECT__67
10
0
20
0
30
0
70
128
71
2
72
26
73
24
0
VERTEX
8
OBJECT__67
10
0
20
0
30
0
70
128
71
2
72
23
73
27
0
VERTEX
8
OBJECT__67
10
0
20
0
30
0
70
128
71
27
72
28
73
2
0
VERTEX
8
OBJECT__67
10
0
20
0
30
0
70
128
71
28
72
26
73
2
0
VERTEX
8
OBJECT__67
10
0
20
0
30
0
70
128
71
24
72
4
73
2
0
VERTEX
8
OBJECT__67
10
0
20
0
30
0
70
128
71
25
72
29
73
4
0
VERTEX
8
OBJECT__67
10
0
20
0
30
0
70
128
71
18
72
27
73
23
0
VERTEX
8
OBJECT__67
10
0
20
0
30
0
70
128
71
12
72
30
73
10
0
VERTEX
8
OBJECT__67
10
0
20
0
30
0
70
128
71
3
72
16
73
1
0
SEQEND
8
OBJECT__67
0
POLYLINE
8
OBJECT__69
66
1
70
64
71
22
72
20
62
253
0
VERTEX
8
OBJECT__69
10
40.257000
20
55.584999
30
402.364990
70
192
0
VERTEX
8
OBJECT__69
10
41.500000
20
57.099998
30
401.632996
70
192
0
VERTEX
8
OBJECT__69
10
41.500000
20
57.292000
30
404.154999
70
192
0
VERTEX
8
OBJECT__69
10
41.500000
20
59.381001
30
433.367004
70
192
0
VERTEX
8
OBJECT__69
10
37.257999
20
45.955002
30
430.213989
70
192
0
VERTEX
8
OBJECT__69
10
38.554001
20
46.530998
30
403.608002
70
192
0
VERTEX
8
OBJECT__69
10
41.444000
20
41.207001
30
432.596008
70
192
0
VERTEX
8
OBJECT__69
10
42.778000
20
42.749001
30
401.872986
70
192
0
VERTEX
8
OBJECT__69
10
49.889000
20
38.439999
30
399.959991
70
192
0
VERTEX
8
OBJECT__69
10
48.380001
20
37.734001
30
399.572998
70
192
0
VERTEX
8
OBJECT__69
10
59.026001
20
39.401001
30
433.072998
70
192
0
VERTEX
8
OBJECT__69
10
59.325001
20
40.299999
30
432.838989
70
192
0
VERTEX
8
OBJECT__69
10
49.842999
20
37.431999
30
434.354004
70
192
0
VERTEX
8
OBJECT__69
10
45.577999
20
36.518002
30
434.947998
70
192
0
VERTEX
8
OBJECT__69
10
58.084000
20
42.272999
30
402.065002
70
192
0
VERTEX
8
OBJECT__69
10
62.959999
20
51.222000
30
429.992004
70
192
0
VERTEX
8
OBJECT__69
10
59.729000
20
58.164001
30
432.644012
70
192
0
VERTEX
8
OBJECT__69
10
58.500000
20
58.905998
30
426.467010
70
192
0
VERTEX
8
OBJECT__69
10
58.500000
20
57.099998
30
401.632996
70
192
0
VERTEX
8
OBJECT__69
10
61.417000
20
46.410999
30
403.584015
70
192
0
VERTEX
8
OBJECT__69
10
60.056000
20
43.195000
30
402.571014
70
192
0
VERTEX
8
OBJECT__69
10
58.500000
20
59.381001
30
433.367004
70
192
0
VERTEX
8
OBJECT__69
10
0
20
0
30
0
70
128
71
1
72
2
73
3
0
VERTEX
8
OBJECT__69
10
0
20
0
30
0
70
128
71
1
72
4
73
5
0
VERTEX
8
OBJECT__69
10
0
20
0
30
0
70
128
71
5
72
6
73
1
0
VERTEX
8
OBJECT__69
10
0
20
0
30
0
70
128
71
3
72
4
73
1
0
VERTEX
8
OBJECT__69
10
0
20
0
30
0
70
128
71
7
72
8
73
6
0
VERTEX
8
OBJECT__69
10
0
20
0
30
0
70
128
71
7
72
9
73
10
0
VERTEX
8
OBJECT__69
10
0
20
0
30
0
70
128
71
9
72
11
73
12
0
VERTEX
8
OBJECT__69
10
0
20
0
30
0
70
128
71
9
72
13
73
11
0
VERTEX
8
OBJECT__69
10
0
20
0
30
0
70
128
71
9
72
7
73
14
0
VERTEX
8
OBJECT__69
10
0
20
0
30
0
70
128
71
14
72
13
73
9
0
VERTEX
8
OBJECT__69
10
0
20
0
30
0
70
128
71
12
72
15
73
9
0
VERTEX
8
OBJECT__69
10
0
20
0
30
0
70
128
71
16
72
17
73
18
0
VERTEX
8
OBJECT__69
10
0
20
0
30
0
70
128
71
18
72
19
73
16
0
VERTEX
8
OBJECT__69
10
0
20
0
30
0
70
128
71
12
72
20
73
21
0
VERTEX
8
OBJECT__69
10
0
20
0
30
0
70
128
71
20
72
12
73
16
0
VERTEX
8
OBJECT__69
10
0
20
0
30
0
70
128
71
16
72
19
73
20
0
VERTEX
8
OBJECT__69
10
0
20
0
30
0
70
128
71
21
72
15
73
12
0
VERTEX
8
OBJECT__69
10
0
20
0
30
0
70
128
71
17
72
22
73
18
0
VERTEX
8
OBJECT__69
10
0
20
0
30
0
70
128
71
10
72
8
73
7
0
VERTEX
8
OBJECT__69
10
0
20
0
30
0
70
128
71
5
72
7
73
6
0
SEQEND
8
OBJECT__69
0
POLYLINE
8
OBJECT__70
66
1
70
64
71
5
72
3
62
253
0
VERTEX
8
OBJECT__70
10
41.500000
20
63.150002
30
433.367004
70
192
0
VERTEX
8
OBJECT__70
10
41.500000
20
59.381001
30
433.367004
70
192
0
VERTEX
8
OBJECT__70
10
41.500000
20
57.292000
30
404.154999
70
192
0
VERTEX
8
OBJECT__70
10
41.500000
20
63.150002
30
401.632996
70
192
0
VERTEX
8
OBJECT__70
10
41.500000
20
57.099998
30
401.632996
70
192
0
VERTEX
8
OBJECT__70
10
0
20
0
30
0
70
128
71
1
72
2
73
3
0
VERTEX
8
OBJECT__70
10
0
20
0
30
0
70
128
71
3
72
4
73
1
0
VERTEX
8
OBJECT__70
10
0
20
0
30
0
70
128
71
3
72
5
73
4
0
SEQEND
8
OBJECT__70
0
POLYLINE
8
OBJECT__71
66
1
70
64
71
5
72
3
62
253
0
VERTEX
8
OBJECT__71
10
58.500000
20
63.150002
30
401.632996
70
192
0
VERTEX
8
OBJECT__71
10
58.500000
20
57.099998
30
401.632996
70
192
0
VERTEX
8
OBJECT__71
10
58.500000
20
58.905998
30
426.467010
70
192
0
VERTEX
8
OBJECT__71
10
58.500000
20
63.150002
30
433.367004
70
192
0
VERTEX
8
OBJECT__71
10
58.500000
20
59.381001
30
433.367004
70
192
0
VERTEX
8
OBJECT__71
10
0
20
0
30
0
70
128
71
1
72
2
73
3
0
VERTEX
8
OBJECT__71
10
0
20
0
30
0
70
128
71
3
72
4
73
1
0
VERTEX
8
OBJECT__71
10
0
20
0
30
0
70
128
71
3
72
5
73
4
0
SEQEND
8
OBJECT__71
0
POLYLINE
8
OBJECT__72
66
1
70
64
71
3
72
1
62
253
0
VERTEX
8
OBJECT__72
10
58.500000
20
63.150002
30
401.632996
70
192
0
VERTEX
8
OBJECT__72
10
58.500000
20
63.150002
30
433.367004
70
192
0
VERTEX
8
OBJECT__72
10
68.000000
20
63.150002
30
417.500000
70
192
0
VERTEX
8
OBJECT__72
10
0
20
0
30
0
70
128
71
1
72
2
73
3
0
SEQEND
8
OBJECT__72
0
POLYLINE
8
OBJECT__73
66
1
70
64
71
3
72
1
62
253
0
VERTEX
8
OBJECT__73
10
41.500000
20
63.150002
30
433.367004
70
192
0
VERTEX
8
OBJECT__73
10
41.500000
20
63.150002
30
401.632996
70
192
0
VERTEX
8
OBJECT__73
10
32.000000
20
63.150002
30
417.500000
70
192
0
VERTEX
8
OBJECT__73
10
0
20
0
30
0
70
128
71
1
72
2
73
3
0
SEQEND
8
OBJECT__73
0
POLYLINE
8
OBJECT__74
66
1
70
64
71
8
72
8
62
253
0
VERTEX
8
OBJECT__74
10
67.000000
20
7.500000
30
-248.899994
70
192
0
VERTEX
8
OBJECT__74
10
59.500000
20
0.000000
30
-248.899994
70
192
0
VERTEX
8
OBJECT__74
10
59.500000
20
0.000000
30
-228.399994
70
192
0
VERTEX
8
OBJECT__74
10
74.500000
20
0.000000
30
-248.899994
70
192
0
VERTEX
8
OBJECT__74
10
67.000000
20
7.500000
30
-228.399994
70
192
0
VERTEX
8
OBJECT__74
10
67.000000
20
-7.500000
30
-228.399994
70
192
0
VERTEX
8
OBJECT__74
10
67.000000
20
-7.500000
30
-248.899994
70
192
0
VERTEX
8
OBJECT__74
10
74.500000
20
0.000000
30
-228.399994
70
192
0
VERTEX
8
OBJECT__74
10
0
20
0
30
0
70
128
71
1
72
2
73
3
0
VERTEX
8
OBJECT__74
10
0
20
0
30
0
70
128
71
4
72
1
73
5
0
VERTEX
8
OBJECT__74
10
0
20
0
30
0
70
128
71
6
72
7
73
4
0
VERTEX
8
OBJECT__74
10
0
20
0
30
0
70
128
71
3
72
2
73
7
0
VERTEX
8
OBJECT__74
10
0
20
0
30
0
70
128
71
7
72
6
73
3
0
VERTEX
8
OBJECT__74
10
0
20
0
30
0
70
128
71
4
72
8
73
6
0
VERTEX
8
OBJECT__74
10
0
20
0
30
0
70
128
71
5
72
8
73
4
0
VERTEX
8
OBJECT__74
10
0
20
0
30
0
70
128
71
3
72
5
73
1
0
SEQEND
8
OBJECT__74
0
POLYLINE
8
OBJECT__75
66
1
70
64
71
4
72
2
62
253
0
VERTEX
8
OBJECT__75
10
59.500000
20
0.000000
30
-228.399994
70
192
0
VERTEX
8
OBJECT__75
10
67.000000
20
-7.500000
30
-228.399994
70
192
0
VERTEX
8
OBJECT__75
10
74.500000
20
0.000000
30
-228.399994
70
192
0
VERTEX
8
OBJECT__75
10
67.000000
20
7.500000
30
-228.399994
70
192
0
VERTEX
8
OBJECT__75
10
0
20
0
30
0
70
128
71
1
72
2
73
3
0
VERTEX
8
OBJECT__75
10
0
20
0
30
0
70
128
71
3
72
4
73
1
0
SEQEND
8
OBJECT__75
0
POLYLINE
8
OBJECT__77
66
1
70
64
71
4
72
2
62
253
0
VERTEX
8
OBJECT__77
10
55.000000
20
-28.150000
30
444.500000
70
192
0
VERTEX
8
OBJECT__77
10
50.000000
20
-23.150000
30
444.500000
70
192
0
VERTEX
8
OBJECT__77
10
45.000000
20
-28.150000
30
444.500000
70
192
0
VERTEX
8
OBJECT__77
10
50.000000
20
-33.150002
30
444.500000
70
192
0
VERTEX
8
OBJECT__77
10
0
20
0
30
0
70
128
71
1
72
2
73
3
0
VERTEX
8
OBJECT__77
10
0
20
0
30
0
70
128
71
3
72
4
73
1
0
SEQEND
8
OBJECT__77
0
POLYLINE
8
OBJECT__78
66
1
70
64
71
8
72
8
62
253
0
VERTEX
8
OBJECT__78
10
50.000000
20
-33.150002
30
444.500000
70
192
0
VERTEX
8
OBJECT__78
10
45.000000
20
-28.150000
30
444.500000
70
192
0
VERTEX
8
OBJECT__78
10
45.000000
20
-28.150000
30
433.674988
70
192
0
VERTEX
8
OBJECT__78
10
55.000000
20
-28.150000
30
444.500000
70
192
0
VERTEX
8
OBJECT__78
10
50.000000
20
-33.150002
30
433.674988
70
192
0
VERTEX
8
OBJECT__78
10
50.000000
20
-23.150000
30
433.674988
70
192
0
VERTEX
8
OBJECT__78
10
50.000000
20
-23.150000
30
444.500000
70
192
0
VERTEX
8
OBJECT__78
10
55.000000
20
-28.150000
30
433.674988
70
192
0
VERTEX
8
OBJECT__78
10
0
20
0
30
0
70
128
71
1
72
2
73
3
0
VERTEX
8
OBJECT__78
10
0
20
0
30
0
70
128
71
4
72
1
73
5
0
VERTEX
8
OBJECT__78
10
0
20
0
30
0
70
128
71
6
72
7
73
4
0
VERTEX
8
OBJECT__78
10
0
20
0
30
0
70
128
71
3
72
2
73
7
0
VERTEX
8
OBJECT__78
10
0
20
0
30
0
70
128
71
7
72
6
73
3
0
VERTEX
8
OBJECT__78
10
0
20
0
30
0
70
128
71
4
72
8
73
6
0
VERTEX
8
OBJECT__78
10
0
20
0
30
0
70
128
71
5
72
8
73
4
0
VERTEX
8
OBJECT__78
10
0
20
0
30
0
70
128
71
3
72
5
73
1
0
SEQEND
8
OBJECT__78
0
POLYLINE
8
OBJECT__80
66
1
70
64
71
4
72
2
62
253
0
VERTEX
8
OBJECT__80
10
38.046001
20
49.150002
30
440.500000
70
192
0
VERTEX
8
OBJECT__80
10
38.046001
20
49.150002
30
437.500000
70
192
0
VERTEX
8
OBJECT__80
10
38.046001
20
47.150002
30
437.500000
70
192
0
VERTEX
8
OBJECT__80
10
38.046001
20
47.150002
30
440.500000
70
192
0
VERTEX
8
OBJECT__80
10
0
20
0
30
0
70
128
71
1
72
2
73
3
0
VERTEX
8
OBJECT__80
10
0
20
0
30
0
70
128
71
3
72
4
73
1
0
SEQEND
8
OBJECT__80
0
POLYLINE
8
OBJECT__81
66
1
70
64
71
14
72
14
62
253
0
VERTEX
8
OBJECT__81
10
60.854000
20
49.150002
30
437.500000
70
192
0
VERTEX
8
OBJECT__81
10
60.480000
20
48.150002
30
437.500000
70
192
0
VERTEX
8
OBJECT__81
10
50.000000
20
58.630001
30
437.500000
70
192
0
VERTEX
8
OBJECT__81
10
60.854000
20
47.150002
30
437.500000
70
192
0
VERTEX
8
OBJECT__81
10
50.000000
20
37.250000
30
437.500000
70
192
0
VERTEX
8
OBJECT__81
10
50.000000
20
37.669998
30
437.500000
70
192
0
VERTEX
8
OBJECT__81
10
61.953999
20
49.150002
30
437.500000
70
192
0
VERTEX
8
OBJECT__81
10
61.953999
20
47.150002
30
437.500000
70
192
0
VERTEX
8
OBJECT__81
10
39.146000
20
47.150002
30
437.500000
70
192
0
VERTEX
8
OBJECT__81
10
39.520000
20
48.150002
30
437.500000
70
192
0
VERTEX
8
OBJECT__81
10
39.146000
20
49.150002
30
437.500000
70
192
0
VERTEX
8
OBJECT__81
10
50.000000
20
59.049999
30
437.500000
70
192
0
VERTEX
8
OBJECT__81
10
38.046001
20
47.150002
30
437.500000
70
192
0
VERTEX
8
OBJECT__81
10
38.046001
20
49.150002
30
437.500000
70
192
0
VERTEX
8
OBJECT__81
10
0
20
0
30
0
70
128
71
1
72
2
73
3
0
VERTEX
8
OBJECT__81
10
0
20
0
30
0
70
128
71
4
72
5
73
6
0
VERTEX
8
OBJECT__81
10
0
20
0
30
0
70
128
71
7
72
8
73
4
0
VERTEX
8
OBJECT__81
10
0
20
0
30
0
70
128
71
9
72
10
73
6
0
VERTEX
8
OBJECT__81
10
0
20
0
30
0
70
128
71
11
72
12
73
3
0
VERTEX
8
OBJECT__81
10
0
20
0
30
0
70
128
71
13
72
14
73
11
0
VERTEX
8
OBJECT__81
10
0
20
0
30
0
70
128
71
3
72
12
73
1
0
VERTEX
8
OBJECT__81
10
0
20
0
30
0
70
128
71
4
72
2
73
7
0
VERTEX
8
OBJECT__81
10
0
20
0
30
0
70
128
71
6
72
5
73
9
0
VERTEX
8
OBJECT__81
10
0
20
0
30
0
70
128
71
11
72
10
73
13
0
VERTEX
8
OBJECT__81
10
0
20
0
30
0
70
128
71
6
72
2
73
4
0
VERTEX
8
OBJECT__81
10
0
20
0
30
0
70
128
71
3
72
10
73
11
0
VERTEX
8
OBJECT__81
10
0
20
0
30
0
70
128
71
9
72
13
73
10
0
VERTEX
8
OBJECT__81
10
0
20
0
30
0
70
128
71
1
72
7
73
2
0
SEQEND
8
OBJECT__81
0
POLYLINE
8
OBJECT__83
66
1
70
64
71
4
72
2
62
253
0
VERTEX
8
OBJECT__83
10
61.953999
20
47.150002
30
437.500000
70
192
0
VERTEX
8
OBJECT__83
10
61.953999
20
49.150002
30
437.500000
70
192
0
VERTEX
8
OBJECT__83
10
61.953999
20
49.150002
30
440.500000
70
192
0
VERTEX
8
OBJECT__83
10
61.953999
20
47.150002
30
440.500000
70
192
0
VERTEX
8
OBJECT__83
10
0
20
0
30
0
70
128
71
1
72
2
73
3
0
VERTEX
8
OBJECT__83
10
0
20
0
30
0
70
128
71
3
72
4
73
1
0
SEQEND
8
OBJECT__83
0
POLYLINE
8
OBJECT__84
66
1
70
64
71
10
72
10
62
253
0
VERTEX
8
OBJECT__84
10
50.000000
20
37.669998
30
437.500000
70
192
0
VERTEX
8
OBJECT__84
10
51.917999
20
40.992001
30
428.730011
70
192
0
VERTEX
8
OBJECT__84
10
55.240002
20
39.074001
30
428.730011
70
192
0
VERTEX
8
OBJECT__84
10
60.480000
20
48.150002
30
437.500000
70
192
0
VERTEX
8
OBJECT__84
10
55.240002
20
48.150002
30
428.730011
70
192
0
VERTEX
8
OBJECT__84
10
39.520000
20
48.150002
30
437.500000
70
192
0
VERTEX
8
OBJECT__84
10
39.520000
20
48.150002
30
428.730011
70
192
0
VERTEX
8
OBJECT__84
10
50.000000
20
58.630001
30
437.500000
70
192
0
VERTEX
8
OBJECT__84
10
51.917999
20
55.307999
30
428.730011
70
192
0
VERTEX
8
OBJECT__84
10
55.240002
20
57.226002
30
428.730011
70
192
0
VERTEX
8
OBJECT__84
10
0
20
0
30
0
70
128
71
1
72
2
73
3
0
VERTEX
8
OBJECT__84
10
0
20
0
30
0
70
128
71
3
72
4
73
1
0
VERTEX
8
OBJECT__84
10
0
20
0
30
0
70
128
71
3
72
5
73
4
0
VERTEX
8
OBJECT__84
10
0
20
0
30
0
70
128
71
6
72
7
73
2
0
VERTEX
8
OBJECT__84
10
0
20
0
30
0
70
128
71
6
72
8
73
9
0
VERTEX
8
OBJECT__84
10
0
20
0
30
0
70
128
71
8
72
4
73
10
0
VERTEX
8
OBJECT__84
10
0
20
0
30
0
70
128
71
4
72
5
73
10
0
VERTEX
8
OBJECT__84
10
0
20
0
30
0
70
128
71
10
72
9
73
8
0
VERTEX
8
OBJECT__84
10
0
20
0
30
0
70
128
71
9
72
7
73
6
0
VERTEX
8
OBJECT__84
10
0
20
0
30
0
70
128
71
2
72
1
73
6
0
SEQEND
8
OBJECT__84
0
POLYLINE
8
OBJECT__85
66
1
70
64
71
10
72
10
62
253
0
VERTEX
8
OBJECT__85
10
55.240002
20
57.226002
30
428.730011
70
192
0
VERTEX
8
OBJECT__85
10
54.625000
20
40.139000
30
427.500000
70
192
0
VERTEX
8
OBJECT__85
10
59.250000
20
48.150002
30
427.500000
70
192
0
VERTEX
8
OBJECT__85
10
55.240002
20
39.074001
30
428.730011
70
192
0
VERTEX
8
OBJECT__85
10
57.860001
20
48.150002
30
426.109985
70
192
0
VERTEX
8
OBJECT__85
10
40.750000
20
48.150002
30
427.500000
70
192
0
VERTEX
8
OBJECT__85
10
51.917999
20
40.992001
30
428.730011
70
192
0
VERTEX
8
OBJECT__85
10
39.520000
20
48.150002
30
428.730011
70
192
0
VERTEX
8
OBJECT__85
10
51.917999
20
55.307999
30
428.730011
70
192
0
VERTEX
8
OBJECT__85
10
54.625000
20
56.160999
30
427.500000
70
192
0
VERTEX
8
OBJECT__85
10
0
20
0
30
0
70
128
71
1
72
2
73
3
0
VERTEX
8
OBJECT__85
10
0
20
0
30
0
70
128
71
1
72
4
73
2
0
VERTEX
8
OBJECT__85
10
0
20
0
30
0
70
128
71
1
72
5
73
4
0
VERTEX
8
OBJECT__85
10
0
20
0
30
0
70
128
71
6
72
2
73
7
0
VERTEX
8
OBJECT__85
10
0
20
0
30
0
70
128
71
2
72
4
73
7
0
VERTEX
8
OBJECT__85
10
0
20
0
30
0
70
128
71
6
72
8
73
9
0
VERTEX
8
OBJECT__85
10
0
20
0
30
0
70
128
71
9
72
10
73
6
0
VERTEX
8
OBJECT__85
10
0
20
0
30
0
70
128
71
9
72
1
73
10
0
VERTEX
8
OBJECT__85
10
0
20
0
30
0
70
128
71
3
72
10
73
1
0
VERTEX
8
OBJECT__85
10
0
20
0
30
0
70
128
71
7
72
8
73
6
0
SEQEND
8
OBJECT__85
0
POLYLINE
8
OBJECT__86
66
1
70
64
71
4
72
2
62
253
0
VERTEX
8
OBJECT__86
10
40.750000
20
48.150002
30
427.500000
70
192
0
VERTEX
8
OBJECT__86
10
54.625000
20
56.160999
30
427.500000
70
192
0
VERTEX
8
OBJECT__86
10
59.250000
20
48.150002
30
427.500000
70
192
0
VERTEX
8
OBJECT__86
10
54.625000
20
40.139000
30
427.500000
70
192
0
VERTEX
8
OBJECT__86
10
0
20
0
30
0
70
128
71
1
72
2
73
3
0
VERTEX
8
OBJECT__86
10
0
20
0
30
0
70
128
71
3
72
4
73
1
0
SEQEND
8
OBJECT__86
0
POLYLINE
8
OBJECT__87
66
1
70
64
71
4
72
2
62
253
0
VERTEX
8
OBJECT__87
10
62.000000
20
48.150002
30
437.500000
70
192
0
VERTEX
8
OBJECT__87
10
50.000000
20
36.150002
30
437.500000
70
192
0
VERTEX
8
OBJECT__87
10
38.000000
20
48.150002
30
437.500000
70
192
0
VERTEX
8
OBJECT__87
10
50.000000
20
60.150002
30
437.500000
70
192
0
VERTEX
8
OBJECT__87
10
0
20
0
30
0
70
128
71
1
72
2
73
3
0
VERTEX
8
OBJECT__87
10
0
20
0
30
0
70
128
71
3
72
4
73
1
0
SEQEND
8
OBJECT__87
0
POLYLINE
8
OBJECT__88
66
1
70
64
71
8
72
8
62
253
0
VERTEX
8
OBJECT__88
10
50.000000
20
36.150002
30
437.500000
70
192
0
VERTEX
8
OBJECT__88
10
62.000000
20
48.150002
30
437.500000
70
192
0
VERTEX
8
OBJECT__88
10
62.000000
20
48.150002
30
567.500000
70
192
0
VERTEX
8
OBJECT__88
10
38.000000
20
48.150002
30
567.500000
70
192
0
VERTEX
8
OBJECT__88
10
38.000000
20
48.150002
30
437.500000
70
192
0
VERTEX
8
OBJECT__88
10
50.000000
20
60.150002
30
567.500000
70
192
0
VERTEX
8
OBJECT__88
10
50.000000
20
60.150002
30
437.500000
70
192
0
VERTEX
8
OBJECT__88
10
50.000000
20
36.150002
30
567.500000
70
192
0
VERTEX
8
OBJECT__88
10
0
20
0
30
0
70
128
71
1
72
2
73
3
0
VERTEX
8
OBJECT__88
10
0
20
0
30
0
70
128
71
4
72
5
73
1
0
VERTEX
8
OBJECT__88
10
0
20
0
30
0
70
128
71
6
72
7
73
5
0
VERTEX
8
OBJECT__88
10
0
20
0
30
0
70
128
71
2
72
7
73
6
0
VERTEX
8
OBJECT__88
10
0
20
0
30
0
70
128
71
6
72
3
73
2
0
VERTEX
8
OBJECT__88
10
0
20
0
30
0
70
128
71
5
72
4
73
6
0
VERTEX
8
OBJECT__88
10
0
20
0
30
0
70
128
71
1
72
8
73
4
0
VERTEX
8
OBJECT__88
10
0
20
0
30
0
70
128
71
3
72
8
73
1
0
SEQEND
8
OBJECT__88
0
POLYLINE
8
OBJECT__90
66
1
70
64
71
8
72
8
62
253
0
VERTEX
8
OBJECT__90
10
50.000000
20
64.150002
30
567.500000
70
192
0
VERTEX
8
OBJECT__90
10
66.000000
20
48.150002
30
567.500000
70
192
0
VERTEX
8
OBJECT__90
10
62.000000
20
48.150002
30
567.500000
70
192
0
VERTEX
8
OBJECT__90
10
50.000000
20
32.150002
30
567.500000
70
192
0
VERTEX
8
OBJECT__90
10
50.000000
20
36.150002
30
567.500000
70
192
0
VERTEX
8
OBJECT__90
10
34.000000
20
48.150002
30
567.500000
70
192
0
VERTEX
8
OBJECT__90
10
38.000000
20
48.150002
30
567.500000
70
192
0
VERTEX
8
OBJECT__90
10
50.000000
20
60.150002
30
567.500000
70
192
0
VERTEX
8
OBJECT__90
10
0
20
0
30
0
70
128
71
1
72
2
73
3
0
VERTEX
8
OBJECT__90
10
0
20
0
30
0
70
128
71
2
72
4
73
5
0
VERTEX
8
OBJECT__90
10
0
20
0
30
0
70
128
71
6
72
7
73
5
0
VERTEX
8
OBJECT__90
10
0
20
0
30
0
70
128
71
1
72
8
73
7
0
VERTEX
8
OBJECT__90
10
0
20
0
30
0
70
128
71
5
72
3
73
2
0
VERTEX
8
OBJECT__90
10
0
20
0
30
0
70
128
71
7
72
6
73
1
0
VERTEX
8
OBJECT__90
10
0
20
0
30
0
70
128
71
5
72
4
73
6
0
VERTEX
8
OBJECT__90
10
0
20
0
30
0
70
128
71
3
72
8
73
1
0
SEQEND
8
OBJECT__90
0
POLYLINE
8
OBJECT__91
66
1
70
64
71
8
72
8
62
253
0
VERTEX
8
OBJECT__91
10
50.000000
20
32.150002
30
567.500000
70
192
0
VERTEX
8
OBJECT__91
10
66.000000
20
48.150002
30
567.500000
70
192
0
VERTEX
8
OBJECT__91
10
66.000000
20
48.150002
30
642.500000
70
192
0
VERTEX
8
OBJECT__91
10
34.000000
20
48.150002
30
642.500000
70
192
0
VERTEX
8
OBJECT__91
10
34.000000
20
48.150002
30
567.500000
70
192
0
VERTEX
8
OBJECT__91
10
50.000000
20
64.150002
30
642.500000
70
192
0
VERTEX
8
OBJECT__91
10
50.000000
20
64.150002
30
567.500000
70
192
0
VERTEX
8
OBJECT__91
10
50.000000
20
32.150002
30
642.500000
70
192
0
VERTEX
8
OBJECT__91
10
0
20
0
30
0
70
128
71
1
72
2
73
3
0
VERTEX
8
OBJECT__91
10
0
20
0
30
0
70
128
71
4
72
5
73
1
0
VERTEX
8
OBJECT__91
10
0
20
0
30
0
70
128
71
6
72
7
73
5
0
VERTEX
8
OBJECT__91
10
0
20
0
30
0
70
128
71
6
72
3
73
2
0
VERTEX
8
OBJECT__91
10
0
20
0
30
0
70
128
71
2
72
7
73
6
0
VERTEX
8
OBJECT__91
10
0
20
0
30
0
70
128
71
5
72
4
73
6
0
VERTEX
8
OBJECT__91
10
0
20
0
30
0
70
128
71
1
72
8
73
4
0
VERTEX
8
OBJECT__91
10
0
20
0
30
0
70
128
71
3
72
8
73
1
0
SEQEND
8
OBJECT__91
0
POLYLINE
8
OBJECT__92
66
1
70
64
71
4
72
2
62
253
0
VERTEX
8
OBJECT__92
10
50.000000
20
32.150002
30
642.500000
70
192
0
VERTEX
8
OBJECT__92
10
66.000000
20
48.150002
30
642.500000
70
192
0
VERTEX
8
OBJECT__92
10
50.000000
20
64.150002
30
642.500000
70
192
0
VERTEX
8
OBJECT__92
10
34.000000
20
48.150002
30
642.500000
70
192
0
VERTEX
8
OBJECT__92
10
0
20
0
30
0
70
128
71
1
72
2
73
3
0
VERTEX
8
OBJECT__92
10
0
20
0
30
0
70
128
71
3
72
4
73
1
0
SEQEND
8
OBJECT__92
0
POLYLINE
8
OBJECT__93
66
1
70
64
71
8
72
8
62
253
0
VERTEX
8
OBJECT__93
10
60.000000
20
0.000000
30
-239.899994
70
192
0
VERTEX
8
OBJECT__93
10
67.000000
20
-7.000000
30
-239.899994
70
192
0
VERTEX
8
OBJECT__93
10
67.000000
20
-7.000000
30
-39.900002
70
192
0
VERTEX
8
OBJECT__93
10
60.000000
20
0.000000
30
-39.900002
70
192
0
VERTEX
8
OBJECT__93
10
74.000000
20
0.000000
30
-239.899994
70
192
0
VERTEX
8
OBJECT__93
10
74.000000
20
0.000000
30
-39.900002
70
192
0
VERTEX
8
OBJECT__93
10
67.000000
20
7.000000
30
-239.899994
70
192
0
VERTEX
8
OBJECT__93
10
67.000000
20
7.000000
30
-39.900002
70
192
0
VERTEX
8
OBJECT__93
10
0
20
0
30
0
70
128
71
1
72
2
73
3
0
VERTEX
8
OBJECT__93
10
0
20
0
30
0
70
128
71
1
72
3
73
4
0
VERTEX
8
OBJECT__93
10
0
20
0
30
0
70
128
71
2
72
5
73
6
0
VERTEX
8
OBJECT__93
10
0
20
0
30
0
70
128
71
2
72
6
73
3
0
VERTEX
8
OBJECT__93
10
0
20
0
30
0
70
128
71
5
72
7
73
8
0
VERTEX
8
OBJECT__93
10
0
20
0
30
0
70
128
71
5
72
8
73
6
0
VERTEX
8
OBJECT__93
10
0
20
0
30
0
70
128
71
7
72
1
73
4
0
VERTEX
8
OBJECT__93
10
0
20
0
30
0
70
128
71
7
72
4
73
8
0
SEQEND
8
OBJECT__93
0
POLYLINE
8
OBJECT__95
66
1
70
64
71
4
72
2
62
253
0
VERTEX
8
OBJECT__95
10
68.000000
20
-39.150002
30
417.500000
70
192
0
VERTEX
8
OBJECT__95
10
50.000000
20
-39.150002
30
435.500000
70
192
0
VERTEX
8
OBJECT__95
10
32.000000
20
-39.150002
30
417.500000
70
192
0
VERTEX
8
OBJECT__95
10
50.000000
20
-39.150002
30
399.500000
70
192
0
VERTEX
8
OBJECT__95
10
0
20
0
30
0
70
128
71
1
72
2
73
3
0
VERTEX
8
OBJECT__95
10
0
20
0
30
0
70
128
71
3
72
4
73
1
0
SEQEND
8
OBJECT__95
0
POLYLINE
8
OBJECT__96
66
1
70
64
71
8
72
8
62
253
0
VERTEX
8
OBJECT__96
10
32.000000
20
-17.150000
30
417.500000
70
192
0
VERTEX
8
OBJECT__96
10
50.000000
20
-17.150000
30
399.500000
70
192
0
VERTEX
8
OBJECT__96
10
50.000000
20
-39.150002
30
399.500000
70
192
0
VERTEX
8
OBJECT__96
10
68.000000
20
-17.150000
30
417.500000
70
192
0
VERTEX
8
OBJECT__96
10
68.000000
20
-39.150002
30
417.500000
70
192
0
VERTEX
8
OBJECT__96
10
50.000000
20
-17.150000
30
435.500000
70
192
0
VERTEX
8
OBJECT__96
10
50.000000
20
-39.150002
30
435.500000
70
192
0
VERTEX
8
OBJECT__96
10
32.000000
20
-39.150002
30
417.500000
70
192
0
VERTEX
8
OBJECT__96
10
0
20
0
30
0
70
128
71
1
72
2
73
3
0
VERTEX
8
OBJECT__96
10
0
20
0
30
0
70
128
71
4
72
5
73
3
0
VERTEX
8
OBJECT__96
10
0
20
0
30
0
70
128
71
6
72
7
73
5
0
VERTEX
8
OBJECT__96
10
0
20
0
30
0
70
128
71
6
72
1
73
8
0
VERTEX
8
OBJECT__96
10
0
20
0
30
0
70
128
71
8
72
7
73
6
0
VERTEX
8
OBJECT__96
10
0
20
0
30
0
70
128
71
5
72
4
73
6
0
VERTEX
8
OBJECT__96
10
0
20
0
30
0
70
128
71
3
72
2
73
4
0
VERTEX
8
OBJECT__96
10
0
20
0
30
0
70
128
71
3
72
8
73
1
0
SEQEND
8
OBJECT__96
0
POLYLINE
8
OBJECT__98
66
1
70
64
71
4
72
2
62
253
0
VERTEX
8
OBJECT__98
10
68.000000
20
-17.150000
30
417.500000
70
192
0
VERTEX
8
OBJECT__98
10
50.000000
20
-17.150000
30
399.500000
70
192
0
VERTEX
8
OBJECT__98
10
32.000000
20
-17.150000
30
417.500000
70
192
0
VERTEX
8
OBJECT__98
10
50.000000
20
-17.150000
30
435.500000
70
192
0
VERTEX
8
OBJECT__98
10
0
20
0
30
0
70
128
71
1
72
2
73
3
0
VERTEX
8
OBJECT__98
10
0
20
0
30
0
70
128
71
3
72
4
73
1
0
SEQEND
8
OBJECT__98
0
POLYLINE
8
OBJECT__99
66
1
70
64
71
8
72
8
62
253
0
VERTEX
8
OBJECT__99
10
42.500000
20
0.000000
30
-28.500000
70
192
0
VERTEX
8
OBJECT__99
10
33.500000
20
9.000000
30
-28.500000
70
192
0
VERTEX
8
OBJECT__99
10
33.500000
20
9.000000
30
-20.000000
70
192
0
VERTEX
8
OBJECT__99
10
42.500000
20
0.000000
30
-20.000000
70
192
0
VERTEX
8
OBJECT__99
10
24.500000
20
0.000000
30
-28.500000
70
192
0
VERTEX
8
OBJECT__99
10
24.500000
20
0.000000
30
-20.000000
70
192
0
VERTEX
8
OBJECT__99
10
33.500000
20
-9.000000
30
-28.500000
70
192
0
VERTEX
8
OBJECT__99
10
33.500000
20
-9.000000
30
-20.000000
70
192
0
VERTEX
8
OBJECT__99
10
0
20
0
30
0
70
128
71
1
72
2
73
3
0
VERTEX
8
OBJECT__99
10
0
20
0
30
0
70
128
71
1
72
3
73
4
0
VERTEX
8
OBJECT__99
10
0
20
0
30
0
70
128
71
2
72
5
73
6
0
VERTEX
8
OBJECT__99
10
0
20
0
30
0
70
128
71
2
72
6
73
3
0
VERTEX
8
OBJECT__99
10
0
20
0
30
0
70
128
71
5
72
7
73
8
0
VERTEX
8
OBJECT__99
10
0
20
0
30
0
70
128
71
5
72
8
73
6
0
VERTEX
8
OBJECT__99
10
0
20
0
30
0
70
128
71
7
72
1
73
4
0
VERTEX
8
OBJECT__99
10
0
20
0
30
0
70
128
71
7
72
4
73
8
0
SEQEND
8
OBJECT__99
0
POLYLINE
8
OBJECT__101
66
1
70
64
71
8
72
8
62
253
0
VERTEX
8
OBJECT__101
10
69.900002
20
0.000000
30
1026.599976
70
192
0
VERTEX
8
OBJECT__101
10
69.900002
20
15.650000
30
1010.950012
70
192
0
VERTEX
8
OBJECT__101
10
5.000000
20
15.650000
30
1010.950012
70
192
0
VERTEX
8
OBJECT__101
10
5.000000
20
0.000000
30
1026.599976
70
192
0
VERTEX
8
OBJECT__101
10
5.000000
20
-15.650000
30
1010.950012
70
192
0
VERTEX
8
OBJECT__101
10
5.000000
20
0.000000
30
995.299988
70
192
0
VERTEX
8
OBJECT__101
10
69.900002
20
0.000000
30
995.299988
70
192
0
VERTEX
8
OBJECT__101
10
69.900002
20
-15.650000
30
1010.950012
70
192
0
VERTEX
8
OBJECT__101
10
0
20
0
30
0
70
128
71
1
72
2
73
3
0
VERTEX
8
OBJECT__101
10
0
20
0
30
0
70
128
71
1
72
4
73
5
0
VERTEX
8
OBJECT__101
10
0
20
0
30
0
70
128
71
6
72
7
73
8
0
VERTEX
8
OBJECT__101
10
0
20
0
30
0
70
128
71
3
72
2
73
7
0
VERTEX
8
OBJECT__101
10
0
20
0
30
0
70
128
71
7
72
6
73
3
0
VERTEX
8
OBJECT__101
10
0
20
0
30
0
70
128
71
8
72
5
73
6
0
VERTEX
8
OBJECT__101
10
0
20
0
30
0
70
128
71
5
72
8
73
1
0
VERTEX
8
OBJECT__101
10
0
20
0
30
0
70
128
71
3
72
4
73
1
0
SEQEND
8
OBJECT__101
0
POLYLINE
8
OBJECT__102
66
1
70
64
71
4
72
2
62
253
0
VERTEX
8
OBJECT__102
10
69.900002
20
0.000000
30
995.299988
70
192
0
VERTEX
8
OBJECT__102
10
69.900002
20
15.650000
30
1010.950012
70
192
0
VERTEX
8
OBJECT__102
10
69.900002
20
0.000000
30
1026.599976
70
192
0
VERTEX
8
OBJECT__102
10
69.900002
20
-15.650000
30
1010.950012
70
192
0
VERTEX
8
OBJECT__102
10
0
20
0
30
0
70
128
71
1
72
2
73
3
0
VERTEX
8
OBJECT__102
10
0
20
0
30
0
70
128
71
3
72
4
73
1
0
SEQEND
8
OBJECT__102
0
POLYLINE
8
OBJECT__104
66
1
70
64
71
12
72
12
62
253
0
VERTEX
8
OBJECT__104
10
438.500000
20
0.000000
30
1063.800049
70
192
0
VERTEX
8
OBJECT__104
10
438.500000
20
0.000000
30
1075.800049
70
192
0
VERTEX
8
OBJECT__104
10
446.446014
20
10.937000
30
1075.800049
70
192
0
VERTEX
8
OBJECT__104
10
450.000000
20
11.500000
30
1063.800049
70
192
0
VERTEX
8
OBJECT__104
10
449.494995
20
9.946000
30
1075.800049
70
192
0
VERTEX
8
OBJECT__104
10
459.303986
20
6.760000
30
1075.800049
70
192
0
VERTEX
8
OBJECT__104
10
461.500000
20
0.000000
30
1063.800049
70
192
0
VERTEX
8
OBJECT__104
10
450.000000
20
-11.500000
30
1063.800049
70
192
0
VERTEX
8
OBJECT__104
10
459.303986
20
-6.760000
30
1075.800049
70
192
0
VERTEX
8
OBJECT__104
10
461.500000
20
0.000000
30
1075.800049
70
192
0
VERTEX
8
OBJECT__104
10
446.446014
20
-10.937000
30
1075.800049
70
192
0
VERTEX
8
OBJECT__104
10
449.494995
20
-9.946000
30
1075.800049
70
192
0
VERTEX
8
OBJECT__104
10
0
20
0
30
0
70
128
71
1
72
2
73
3
0
VERTEX
8
OBJECT__104
10
0
20
0
30
0
70
128
71
3
72
4
73
1
0
VERTEX
8
OBJECT__104
10
0
20
0
30
0
70
128
71
4
72
5
73
6
0
VERTEX
8
OBJECT__104
10
0
20
0
30
0
70
128
71
6
72
7
73
4
0
VERTEX
8
OBJECT__104
10
0
20
0
30
0
70
128
71
8
72
7
73
9
0
VERTEX
8
OBJECT__104
10
0
20
0
30
0
70
128
71
7
72
10
73
9
0
VERTEX
8
OBJECT__104
10
0
20
0
30
0
70
128
71
1
72
8
73
11
0
VERTEX
8
OBJECT__104
10
0
20
0
30
0
70
128
71
8
72
12
73
11
0
VERTEX
8
OBJECT__104
10
0
20
0
30
0
70
128
71
11
72
2
73
1
0
VERTEX
8
OBJECT__104
10
0
20
0
30
0
70
128
71
9
72
12
73
8
0
VERTEX
8
OBJECT__104
10
0
20
0
30
0
70
128
71
6
72
10
73
7
0
VERTEX
8
OBJECT__104
10
0
20
0
30
0
70
128
71
3
72
5
73
4
0
SEQEND
8
OBJECT__104
0
POLYLINE
8
OBJECT__105
66
1
70
64
71
26
72
36
62
253
0
VERTEX
8
OBJECT__105
10
427.972992
20
-10.937000
30
1107.796021
70
192
0
VERTEX
8
OBJECT__105
10
409.500000
20
-10.937000
30
1112.745972
70
192
0
VERTEX
8
OBJECT__105
10
409.500000
20
0.000000
30
1104.800049
70
192
0
VERTEX
8
OBJECT__105
10
424.000000
20
0.000000
30
1100.915039
70
192
0
VERTEX
8
OBJECT__105
10
434.614990
20
0.000000
30
1090.300049
70
192
0
VERTEX
8
OBJECT__105
10
441.496002
20
-10.937000
30
1094.272949
70
192
0
VERTEX
8
OBJECT__105
10
438.500000
20
0.000000
30
1075.800049
70
192
0
VERTEX
8
OBJECT__105
10
409.500000
20
-9.946000
30
1115.795044
70
192
0
VERTEX
8
OBJECT__105
10
434.402008
20
-6.760000
30
1118.931030
70
192
0
VERTEX
8
OBJECT__105
10
409.500000
20
-6.760000
30
1125.604004
70
192
0
VERTEX
8
OBJECT__105
10
452.631012
20
-6.760000
30
1100.702026
70
192
0
VERTEX
8
OBJECT__105
10
449.494995
20
-9.946000
30
1075.800049
70
192
0
VERTEX
8
OBJECT__105
10
446.446014
20
-10.937000
30
1075.800049
70
192
0
VERTEX
8
OBJECT__105
10
434.402008
20
6.760000
30
1118.931030
70
192
0
VERTEX
8
OBJECT__105
10
409.500000
20
0.000000
30
1127.800049
70
192
0
VERTEX
8
OBJECT__105
10
409.500000
20
6.760000
30
1125.604004
70
192
0
VERTEX
8
OBJECT__105
10
452.631012
20
6.760000
30
1100.702026
70
192
0
VERTEX
8
OBJECT__105
10
459.303986
20
-6.760000
30
1075.800049
70
192
0
VERTEX
8
OBJECT__105
10
461.500000
20
0.000000
30
1075.800049
70
192
0
VERTEX
8
OBJECT__105
10
409.500000
20
9.946000
30
1115.795044
70
192
0
VERTEX
8
OBJECT__105
10
427.972992
20
10.937000
30
1107.796021
70
192
0
VERTEX
8
OBJECT__105
10
409.500000
20
10.937000
30
1112.745972
70
192
0
VERTEX
8
OBJECT__105
10
441.496002
20
10.937000
30
1094.272949
70
192
0
VERTEX
8
OBJECT__105
10
449.494995
20
9.946000
30
1075.800049
70
192
0
VERTEX
8
OBJECT__105
10
446.446014
20
10.937000
30
1075.800049
70
192
0
VERTEX
8
OBJECT__105
10
459.303986
20
6.760000
30
1075.800049
70
192
0
VERTEX
8
OBJECT__105
10
0
20
0
30
0
70
128
71
1
72
2
73
3
0
VERTEX
8
OBJECT__105
10
0
20
0
30
0
70
128
71
4
72
5
73
6
0
VERTEX
8
OBJECT__105
10
0
20
0
30
0
70
128
71
6
72
5
73
7
0
VERTEX
8
OBJECT__105
10
0
20
0
30
0
70
128
71
8
72
2
73
1
0
VERTEX
8
OBJECT__105
10
0
20
0
30
0
70
128
71
9
72
10
73
8
0
VERTEX
8
OBJECT__105
10
0
20
0
30
0
70
128
71
1
72
6
73
11
0
VERTEX
8
OBJECT__105
10
0
20
0
30
0
70
128
71
12
72
11
73
6
0
VERTEX
8
OBJECT__105
10
0
20
0
30
0
70
128
71
6
72
13
73
12
0
VERTEX
8
OBJECT__105
10
0
20
0
30
0
70
128
71
9
72
14
73
15
0
VERTEX
8
OBJECT__105
10
0
20
0
30
0
70
128
71
14
72
16
73
15
0
VERTEX
8
OBJECT__105
10
0
20
0
30
0
70
128
71
9
72
11
73
17
0
VERTEX
8
OBJECT__105
10
0
20
0
30
0
70
128
71
11
72
18
73
19
0
VERTEX
8
OBJECT__105
10
0
20
0
30
0
70
128
71
19
72
17
73
11
0
VERTEX
8
OBJECT__105
10
0
20
0
30
0
70
128
71
20
72
14
73
21
0
VERTEX
8
OBJECT__105
10
0
20
0
30
0
70
128
71
21
72
22
73
20
0
VERTEX
8
OBJECT__105
10
0
20
0
30
0
70
128
71
14
72
17
73
23
0
VERTEX
8
OBJECT__105
10
0
20
0
30
0
70
128
71
24
72
25
73
23
0
VERTEX
8
OBJECT__105
10
0
20
0
30
0
70
128
71
17
72
26
73
24
0
VERTEX
8
OBJECT__105
10
0
20
0
30
0
70
128
71
21
72
4
73
3
0
VERTEX
8
OBJECT__105
10
0
20
0
30
0
70
128
71
21
72
23
73
5
0
VERTEX
8
OBJECT__105
10
0
20
0
30
0
70
128
71
23
72
25
73
7
0
VERTEX
8
OBJECT__105
10
0
20
0
30
0
70
128
71
7
72
5
73
23
0
VERTEX
8
OBJECT__105
10
0
20
0
30
0
70
128
71
5
72
4
73
21
0
VERTEX
8
OBJECT__105
10
0
20
0
30
0
70
128
71
3
72
22
73
21
0
VERTEX
8
OBJECT__105
10
0
20
0
30
0
70
128
71
23
72
17
73
24
0
VERTEX
8
OBJECT__105
10
0
20
0
30
0
70
128
71
23
72
21
73
14
0
VERTEX
8
OBJECT__105
10
0
20
0
30
0
70
128
71
20
72
16
73
14
0
VERTEX
8
OBJECT__105
10
0
20
0
30
0
70
128
71
19
72
26
73
17
0
VERTEX
8
OBJECT__105
10
0
20
0
30
0
70
128
71
17
72
14
73
9
0
VERTEX
8
OBJECT__105
10
0
20
0
30
0
70
128
71
15
72
10
73
9
0
VERTEX
8
OBJECT__105
10
0
20
0
30
0
70
128
71
12
72
18
73
11
0
VERTEX
8
OBJECT__105
10
0
20
0
30
0
70
128
71
11
72
9
73
1
0
VERTEX
8
OBJECT__105
10
0
20
0
30
0
70
128
71
1
72
9
73
8
0
VERTEX
8
OBJECT__105
10
0
20
0
30
0
70
128
71
7
72
13
73
6
0
VERTEX
8
OBJECT__105
10
0
20
0
30
0
70
128
71
6
72
1
73
4
0
VERTEX
8
OBJECT__105
10
0
20
0
30
0
70
128
71
3
72
4
73
1
0
SEQEND
8
OBJECT__105
0
POLYLINE
8
OBJECT__107
66
1
70
64
71
16
72
16
62
253
0
VERTEX
8
OBJECT__107
10
409.500000
20
9.946000
30
1115.795044
70
192
0
VERTEX
8
OBJECT__107
10
409.500000
20
10.937000
30
1112.745972
70
192
0
VERTEX
8
OBJECT__107
10
90.500000
20
10.937000
30
1112.745972
70
192
0
VERTEX
8
OBJECT__107
10
409.500000
20
0.000000
30
1104.800049
70
192
0
VERTEX
8
OBJECT__107
10
90.500000
20
0.000000
30
1104.800049
70
192
0
VERTEX
8
OBJECT__107
10
90.500000
20
6.760000
30
1125.604004
70
192
0
VERTEX
8
OBJECT__107
10
90.500000
20
0.000000
30
1127.800049
70
192
0
VERTEX
8
OBJECT__107
10
409.500000
20
0.000000
30
1127.800049
70
192
0
VERTEX
8
OBJECT__107
10
90.500000
20
9.946000
30
1115.795044
70
192
0
VERTEX
8
OBJECT__107
10
409.500000
20
6.760000
30
1125.604004
70
192
0
VERTEX
8
OBJECT__107
10
90.500000
20
-9.946000
30
1115.795044
70
192
0
VERTEX
8
OBJECT__107
10
409.500000
20
-9.946000
30
1115.795044
70
192
0
VERTEX
8
OBJECT__107
10
409.500000
20
-6.760000
30
1125.604004
70
192
0
VERTEX
8
OBJECT__107
10
90.500000
20
-6.760000
30
1125.604004
70
192
0
VERTEX
8
OBJECT__107
10
90.500000
20
-10.937000
30
1112.745972
70
192
0
VERTEX
8
OBJECT__107
10
409.500000
20
-10.937000
30
1112.745972
70
192
0
VERTEX
8
OBJECT__107
10
0
20
0
30
0
70
128
71
1
72
2
73
3
0
VERTEX
8
OBJECT__107
10
0
20
0
30
0
70
128
71
3
72
2
73
4
0
VERTEX
8
OBJECT__107
10
0
20
0
30
0
70
128
71
4
72
5
73
3
0
VERTEX
8
OBJECT__107
10
0
20
0
30
0
70
128
71
6
72
7
73
8
0
VERTEX
8
OBJECT__107
10
0
20
0
30
0
70
128
71
9
72
6
73
10
0
VERTEX
8
OBJECT__107
10
0
20
0
30
0
70
128
71
10
72
1
73
9
0
VERTEX
8
OBJECT__107
10
0
20
0
30
0
70
128
71
11
72
12
73
13
0
VERTEX
8
OBJECT__107
10
0
20
0
30
0
70
128
71
14
72
13
73
8
0
VERTEX
8
OBJECT__107
10
0
20
0
30
0
70
128
71
8
72
7
73
14
0
VERTEX
8
OBJECT__107
10
0
20
0
30
0
70
128
71
15
72
5
73
4
0
VERTEX
8
OBJECT__107
10
0
20
0
30
0
70
128
71
11
72
15
73
16
0
VERTEX
8
OBJECT__107
10
0
20
0
30
0
70
128
71
16
72
12
73
11
0
VERTEX
8
OBJECT__107
10
0
20
0
30
0
70
128
71
4
72
16
73
15
0
VERTEX
8
OBJECT__107
10
0
20
0
30
0
70
128
71
13
72
14
73
11
0
VERTEX
8
OBJECT__107
10
0
20
0
30
0
70
128
71
8
72
10
73
6
0
VERTEX
8
OBJECT__107
10
0
20
0
30
0
70
128
71
3
72
9
73
1
0
SEQEND
8
OBJECT__107
0
POLYLINE
8
OBJECT__108
66
1
70
64
71
26
72
36
62
253
0
VERTEX
8
OBJECT__108
10
53.554001
20
-10.937000
30
1075.800049
70
192
0
VERTEX
8
OBJECT__108
10
61.500000
20
0.000000
30
1075.800049
70
192
0
VERTEX
8
OBJECT__108
10
65.385002
20
0.000000
30
1090.300049
70
192
0
VERTEX
8
OBJECT__108
10
76.000000
20
0.000000
30
1100.915039
70
192
0
VERTEX
8
OBJECT__108
10
72.027000
20
-10.937000
30
1107.796021
70
192
0
VERTEX
8
OBJECT__108
10
90.500000
20
0.000000
30
1104.800049
70
192
0
VERTEX
8
OBJECT__108
10
50.505001
20
-9.946000
30
1075.800049
70
192
0
VERTEX
8
OBJECT__108
10
58.504002
20
-10.937000
30
1094.272949
70
192
0
VERTEX
8
OBJECT__108
10
47.368999
20
-6.760000
30
1100.702026
70
192
0
VERTEX
8
OBJECT__108
10
40.695999
20
-6.760000
30
1075.800049
70
192
0
VERTEX
8
OBJECT__108
10
65.598000
20
-6.760000
30
1118.931030
70
192
0
VERTEX
8
OBJECT__108
10
90.500000
20
-9.946000
30
1115.795044
70
192
0
VERTEX
8
OBJECT__108
10
90.500000
20
-10.937000
30
1112.745972
70
192
0
VERTEX
8
OBJECT__108
10
47.368999
20
6.760000
30
1100.702026
70
192
0
VERTEX
8
OBJECT__108
10
38.500000
20
0.000000
30
1075.800049
70
192
0
VERTEX
8
OBJECT__108
10
40.695999
20
6.760000
30
1075.800049
70
192
0
VERTEX
8
OBJECT__108
10
65.598000
20
6.760000
30
1118.931030
70
192
0
VERTEX
8
OBJECT__108
10
90.500000
20
-6.760000
30
1125.604004
70
192
0
VERTEX
8
OBJECT__108
10
90.500000
20
0.000000
30
1127.800049
70
192
0
VERTEX
8
OBJECT__108
10
50.505001
20
9.946000
30
1075.800049
70
192
0
VERTEX
8
OBJECT__108
10
58.504002
20
10.937000
30
1094.272949
70
192
0
VERTEX
8
OBJECT__108
10
53.554001
20
10.937000
30
1075.800049
70
192
0
VERTEX
8
OBJECT__108
10
72.027000
20
10.937000
30
1107.796021
70
192
0
VERTEX
8
OBJECT__108
10
90.500000
20
9.946000
30
1115.795044
70
192
0
VERTEX
8
OBJECT__108
10
90.500000
20
10.937000
30
1112.745972
70
192
0
VERTEX
8
OBJECT__108
10
90.500000
20
6.760000
30
1125.604004
70
192
0
VERTEX
8
OBJECT__108
10
0
20
0
30
0
70
128
71
1
72
2
73
3
0
VERTEX
8
OBJECT__108
10
0
20
0
30
0
70
128
71
3
72
4
73
5
0
VERTEX
8
OBJECT__108
10
0
20
0
30
0
70
128
71
5
72
4
73
6
0
VERTEX
8
OBJECT__108
10
0
20
0
30
0
70
128
71
7
72
1
73
8
0
VERTEX
8
OBJECT__108
10
0
20
0
30
0
70
128
71
9
72
10
73
7
0
VERTEX
8
OBJECT__108
10
0
20
0
30
0
70
128
71
8
72
5
73
11
0
VERTEX
8
OBJECT__108
10
0
20
0
30
0
70
128
71
12
72
11
73
5
0
VERTEX
8
OBJECT__108
10
0
20
0
30
0
70
128
71
5
72
13
73
12
0
VERTEX
8
OBJECT__108
10
0
20
0
30
0
70
128
71
9
72
14
73
15
0
VERTEX
8
OBJECT__108
10
0
20
0
30
0
70
128
71
14
72
16
73
15
0
VERTEX
8
OBJECT__108
10
0
20
0
30
0
70
128
71
9
72
11
73
17
0
VERTEX
8
OBJECT__108
10
0
20
0
30
0
70
128
71
11
72
18
73
19
0
VERTEX
8
OBJECT__108
10
0
20
0
30
0
70
128
71
19
72
17
73
11
0
VERTEX
8
OBJECT__108
10
0
20
0
30
0
70
128
71
20
72
14
73
21
0
VERTEX
8
OBJECT__108
10
0
20
0
30
0
70
128
71
21
72
22
73
20
0
VERTEX
8
OBJECT__108
10
0
20
0
30
0
70
128
71
14
72
17
73
23
0
VERTEX
8
OBJECT__108
10
0
20
0
30
0
70
128
71
24
72
25
73
23
0
VERTEX
8
OBJECT__108
10
0
20
0
30
0
70
128
71
17
72
26
73
24
0
VERTEX
8
OBJECT__108
10
0
20
0
30
0
70
128
71
22
72
21
73
3
0
VERTEX
8
OBJECT__108
10
0
20
0
30
0
70
128
71
21
72
23
73
4
0
VERTEX
8
OBJECT__108
10
0
20
0
30
0
70
128
71
23
72
25
73
6
0
VERTEX
8
OBJECT__108
10
0
20
0
30
0
70
128
71
6
72
4
73
23
0
VERTEX
8
OBJECT__108
10
0
20
0
30
0
70
128
71
4
72
3
73
21
0
VERTEX
8
OBJECT__108
10
0
20
0
30
0
70
128
71
3
72
2
73
22
0
VERTEX
8
OBJECT__108
10
0
20
0
30
0
70
128
71
23
72
17
73
24
0
VERTEX
8
OBJECT__108
10
0
20
0
30
0
70
128
71
23
72
21
73
14
0
VERTEX
8
OBJECT__108
10
0
20
0
30
0
70
128
71
20
72
16
73
14
0
VERTEX
8
OBJECT__108
10
0
20
0
30
0
70
128
71
19
72
26
73
17
0
VERTEX
8
OBJECT__108
10
0
20
0
30
0
70
128
71
17
72
14
73
9
0
VERTEX
8
OBJECT__108
10
0
20
0
30
0
70
128
71
15
72
10
73
9
0
VERTEX
8
OBJECT__108
10
0
20
0
30
0
70
128
71
12
72
18
73
11
0
VERTEX
8
OBJECT__108
10
0
20
0
30
0
70
128
71
11
72
9
73
8
0
VERTEX
8
OBJECT__108
10
0
20
0
30
0
70
128
71
8
72
9
73
7
0
VERTEX
8
OBJECT__108
10
0
20
0
30
0
70
128
71
6
72
13
73
5
0
VERTEX
8
OBJECT__108
10
0
20
0
30
0
70
128
71
5
72
8
73
3
0
VERTEX
8
OBJECT__108
10
0
20
0
30
0
70
128
71
3
72
8
73
1
0
SEQEND
8
OBJECT__108
0
POLYLINE
8
OBJECT__109
66
1
70
64
71
12
72
12
62
253
0
VERTEX
8
OBJECT__109
10
61.500000
20
0.000000
30
1020.299988
70
192
0
VERTEX
8
OBJECT__109
10
50.000000
20
11.500000
30
1020.299988
70
192
0
VERTEX
8
OBJECT__109
10
53.554001
20
10.937000
30
1075.800049
70
192
0
VERTEX
8
OBJECT__109
10
50.505001
20
9.946000
30
1075.800049
70
192
0
VERTEX
8
OBJECT__109
10
38.500000
20
0.000000
30
1020.299988
70
192
0
VERTEX
8
OBJECT__109
10
40.695999
20
6.760000
30
1075.800049
70
192
0
VERTEX
8
OBJECT__109
10
38.500000
20
0.000000
30
1075.800049
70
192
0
VERTEX
8
OBJECT__109
10
50.000000
20
-11.500000
30
1020.299988
70
192
0
VERTEX
8
OBJECT__109
10
50.505001
20
-9.946000
30
1075.800049
70
192
0
VERTEX
8
OBJECT__109
10
40.695999
20
-6.760000
30
1075.800049
70
192
0
VERTEX
8
OBJECT__109
10
61.500000
20
0.000000
30
1075.800049
70
192
0
VERTEX
8
OBJECT__109
10
53.554001
20
-10.937000
30
1075.800049
70
192
0
VERTEX
8
OBJECT__109
10
0
20
0
30
0
70
128
71
1
72
2
73
3
0
VERTEX
8
OBJECT__109
10
0
20
0
30
0
70
128
71
2
72
4
73
3
0
VERTEX
8
OBJECT__109
10
0
20
0
30
0
70
128
71
2
72
5
73
6
0
VERTEX
8
OBJECT__109
10
0
20
0
30
0
70
128
71
5
72
7
73
6
0
VERTEX
8
OBJECT__109
10
0
20
0
30
0
70
128
71
8
72
9
73
10
0
VERTEX
8
OBJECT__109
10
0
20
0
30
0
70
128
71
10
72
5
73
8
0
VERTEX
8
OBJECT__109
10
0
20
0
30
0
70
128
71
1
72
11
73
12
0
VERTEX
8
OBJECT__109
10
0
20
0
30
0
70
128
71
12
72
8
73
1
0
VERTEX
8
OBJECT__109
10
0
20
0
30
0
70
128
71
12
72
9
73
8
0
VERTEX
8
OBJECT__109
10
0
20
0
30
0
70
128
71
10
72
7
73
5
0
VERTEX
8
OBJECT__109
10
0
20
0
30
0
70
128
71
6
72
4
73
2
0
VERTEX
8
OBJECT__109
10
0
20
0
30
0
70
128
71
3
72
11
73
1
0
SEQEND
8
OBJECT__109
0
POLYLINE
8
OBJECT__110
66
1
70
64
71
4
72
2
62
253
0
VERTEX
8
OBJECT__110
10
55.500000
20
0.000000
30
-40.400002
70
192
0
VERTEX
8
OBJECT__110
10
67.000000
20
11.500000
30
-40.400002
70
192
0
VERTEX
8
OBJECT__110
10
78.500000
20
0.000000
30
-40.400002
70
192
0
VERTEX
8
OBJECT__110
10
67.000000
20
-11.500000
30
-40.400002
70
192
0
VERTEX
8
OBJECT__110
10
0
20
0
30
0
70
128
71
1
72
2
73
3
0
VERTEX
8
OBJECT__110
10
0
20
0
30
0
70
128
71
3
72
4
73
1
0
SEQEND
8
OBJECT__110
0
POLYLINE
8
OBJECT__111
66
1
70
64
71
8
72
8
62
253
0
VERTEX
8
OBJECT__111
10
78.500000
20
0.000000
30
-27.900000
70
192
0
VERTEX
8
OBJECT__111
10
67.000000
20
-11.500000
30
-27.900000
70
192
0
VERTEX
8
OBJECT__111
10
67.000000
20
-11.500000
30
-40.400002
70
192
0
VERTEX
8
OBJECT__111
10
55.500000
20
0.000000
30
-40.400002
70
192
0
VERTEX
8
OBJECT__111
10
55.500000
20
0.000000
30
-27.900000
70
192
0
VERTEX
8
OBJECT__111
10
67.000000
20
11.500000
30
-27.900000
70
192
0
VERTEX
8
OBJECT__111
10
78.500000
20
0.000000
30
-40.400002
70
192
0
VERTEX
8
OBJECT__111
10
67.000000
20
11.500000
30
-40.400002
70
192
0
VERTEX
8
OBJECT__111
10
0
20
0
30
0
70
128
71
1
72
2
73
3
0
VERTEX
8
OBJECT__111
10
0
20
0
30
0
70
128
71
4
72
3
73
2
0
VERTEX
8
OBJECT__111
10
0
20
0
30
0
70
128
71
4
72
5
73
6
0
VERTEX
8
OBJECT__111
10
0
20
0
30
0
70
128
71
1
72
7
73
8
0
VERTEX
8
OBJECT__111
10
0
20
0
30
0
70
128
71
8
72
6
73
1
0
VERTEX
8
OBJECT__111
10
0
20
0
30
0
70
128
71
6
72
8
73
4
0
VERTEX
8
OBJECT__111
10
0
20
0
30
0
70
128
71
2
72
5
73
4
0
VERTEX
8
OBJECT__111
10
0
20
0
30
0
70
128
71
3
72
7
73
1
0
SEQEND
8
OBJECT__111
0
POLYLINE
8
OBJECT__113
66
1
70
64
71
4
72
2
62
253
0
VERTEX
8
OBJECT__113
10
55.500000
20
0.000000
30
-27.900000
70
192
0
VERTEX
8
OBJECT__113
10
67.000000
20
-11.500000
30
-27.900000
70
192
0
VERTEX
8
OBJECT__113
10
78.500000
20
0.000000
30
-27.900000
70
192
0
VERTEX
8
OBJECT__113
10
67.000000
20
11.500000
30
-27.900000
70
192
0
VERTEX
8
OBJECT__113
10
0
20
0
30
0
70
128
71
1
72
2
73
3
0
VERTEX
8
OBJECT__113
10
0
20
0
30
0
70
128
71
3
72
4
73
1
0
SEQEND
8
OBJECT__113
0
POLYLINE
8
OBJECT__114
66
1
70
64
71
12
72
12
62
253
0
VERTEX
8
OBJECT__114
10
450.000000
20
-18.000000
30
1047.800049
70
192
0
VERTEX
8
OBJECT__114
10
450.000000
20
-18.000000
30
1055.300049
70
192
0
VERTEX
8
OBJECT__114
10
434.411987
20
-9.000000
30
1055.300049
70
192
0
VERTEX
8
OBJECT__114
10
432.000000
20
0.000000
30
1047.800049
70
192
0
VERTEX
8
OBJECT__114
10
450.000000
20
18.000000
30
1047.800049
70
192
0
VERTEX
8
OBJECT__114
10
434.411987
20
9.000000
30
1055.300049
70
192
0
VERTEX
8
OBJECT__114
10
434.411987
20
0.000000
30
1055.300049
70
192
0
VERTEX
8
OBJECT__114
10
450.000000
20
18.000000
30
1055.300049
70
192
0
VERTEX
8
OBJECT__114
10
465.588013
20
9.000000
30
1055.300049
70
192
0
VERTEX
8
OBJECT__114
10
468.000000
20
0.000000
30
1047.800049
70
192
0
VERTEX
8
OBJECT__114
10
465.588013
20
-9.000000
30
1055.300049
70
192
0
VERTEX
8
OBJECT__114
10
465.588013
20
0.000000
30
1055.300049
70
192
0
VERTEX
8
OBJECT__114
10
0
20
0
30
0
70
128
71
1
72
2
73
3
0
VERTEX
8
OBJECT__114
10
0
20
0
30
0
70
128
71
3
72
4
73
1
0
VERTEX
8
OBJECT__114
10
0
20
0
30
0
70
128
71
5
72
4
73
6
0
VERTEX
8
OBJECT__114
10
0
20
0
30
0
70
128
71
4
72
7
73
6
0
VERTEX
8
OBJECT__114
10
0
20
0
30
0
70
128
71
5
72
8
73
9
0
VERTEX
8
OBJECT__114
10
0
20
0
30
0
70
128
71
9
72
10
73
5
0
VERTEX
8
OBJECT__114
10
0
20
0
30
0
70
128
71
1
72
10
73
11
0
VERTEX
8
OBJECT__114
10
0
20
0
30
0
70
128
71
10
72
12
73
11
0
VERTEX
8
OBJECT__114
10
0
20
0
30
0
70
128
71
11
72
2
73
1
0
VERTEX
8
OBJECT__114
10
0
20
0
30
0
70
128
71
9
72
12
73
10
0
VERTEX
8
OBJECT__114
10
0
20
0
30
0
70
128
71
6
72
8
73
5
0
VERTEX
8
OBJECT__114
10
0
20
0
30
0
70
128
71
3
72
7
73
4
0
SEQEND
8
OBJECT__114
0
POLYLINE
8
OBJECT__115
66
1
70
64
71
24
72
24
62
253
0
VERTEX
8
OBJECT__115
10
450.000000
20
-18.000000
30
1055.300049
70
192
0
VERTEX
8
OBJECT__115
10
444.795990
20
-12.563000
30
1061.800049
70
192
0
VERTEX
8
OBJECT__115
10
443.200989
20
-11.776000
30
1061.800049
70
192
0
VERTEX
8
OBJECT__115
10
446.480988
20
-13.135000
30
1061.800049
70
192
0
VERTEX
8
OBJECT__115
10
434.411987
20
-9.000000
30
1055.300049
70
192
0
VERTEX
8
OBJECT__115
10
450.000000
20
-13.598000
30
1061.800049
70
192
0
VERTEX
8
OBJECT__115
10
440.385010
20
-9.615000
30
1061.800049
70
192
0
VERTEX
8
OBJECT__115
10
434.411987
20
9.000000
30
1055.300049
70
192
0
VERTEX
8
OBJECT__115
10
434.411987
20
0.000000
30
1055.300049
70
192
0
VERTEX
8
OBJECT__115
10
436.402008
20
0.000000
30
1061.800049
70
192
0
VERTEX
8
OBJECT__115
10
438.223999
20
-6.799000
30
1061.800049
70
192
0
VERTEX
8
OBJECT__115
10
450.000000
20
18.000000
30
1055.300049
70
192
0
VERTEX
8
OBJECT__115
10
438.223999
20
6.799000
30
1061.800049
70
192
0
VERTEX
8
OBJECT__115
10
455.204010
20
12.563000
30
1061.800049
70
192
0
VERTEX
8
OBJECT__115
10
456.799011
20
11.776000
30
1061.800049
70
192
0
VERTEX
8
OBJECT__115
10
453.519012
20
13.135000
30
1061.800049
70
192
0
VERTEX
8
OBJECT__115
10
465.588013
20
9.000000
30
1055.300049
70
192
0
VERTEX
8
OBJECT__115
10
450.000000
20
13.598000
30
1061.800049
70
192
0
VERTEX
8
OBJECT__115
10
459.614990
20
9.615000
30
1061.800049
70
192
0
VERTEX
8
OBJECT__115
10
465.588013
20
-9.000000
30
1055.300049
70
192
0
VERTEX
8
OBJECT__115
10
465.588013
20
0.000000
30
1055.300049
70
192
0
VERTEX
8
OBJECT__115
10
463.597992
20
0.000000
30
1061.800049
70
192
0
VERTEX
8
OBJECT__115
10
461.776001
20
6.799000
30
1061.800049
70
192
0
VERTEX
8
OBJECT__115
10
461.776001
20
-6.799000
30
1061.800049
70
192
0
VERTEX
8
OBJECT__115
10
0
20
0
30
0
70
128
71
1
72
2
73
3
0
VERTEX
8
OBJECT__115
10
0
20
0
30
0
70
128
71
1
72
4
73
2
0
VERTEX
8
OBJECT__115
10
0
20
0
30
0
70
128
71
3
72
5
73
1
0
VERTEX
8
OBJECT__115
10
0
20
0
30
0
70
128
71
1
72
6
73
4
0
VERTEX
8
OBJECT__115
10
0
20
0
30
0
70
128
71
3
72
7
73
5
0
VERTEX
8
OBJECT__115
10
0
20
0
30
0
70
128
71
8
72
9
73
10
0
VERTEX
8
OBJECT__115
10
0
20
0
30
0
70
128
71
9
72
5
73
11
0
VERTEX
8
OBJECT__115
10
0
20
0
30
0
70
128
71
11
72
10
73
9
0
VERTEX
8
OBJECT__115
10
0
20
0
30
0
70
128
71
12
72
8
73
13
0
VERTEX
8
OBJECT__115
10
0
20
0
30
0
70
128
71
12
72
14
73
15
0
VERTEX
8
OBJECT__115
10
0
20
0
30
0
70
128
71
12
72
16
73
14
0
VERTEX
8
OBJECT__115
10
0
20
0
30
0
70
128
71
15
72
17
73
12
0
VERTEX
8
OBJECT__115
10
0
20
0
30
0
70
128
71
12
72
18
73
16
0
VERTEX
8
OBJECT__115
10
0
20
0
30
0
70
128
71
15
72
19
73
17
0
VERTEX
8
OBJECT__115
10
0
20
0
30
0
70
128
71
20
72
21
73
22
0
VERTEX
8
OBJECT__115
10
0
20
0
30
0
70
128
71
21
72
17
73
23
0
VERTEX
8
OBJECT__115
10
0
20
0
30
0
70
128
71
23
72
22
73
21
0
VERTEX
8
OBJECT__115
10
0
20
0
30
0
70
128
71
1
72
20
73
24
0
VERTEX
8
OBJECT__115
10
0
20
0
30
0
70
128
71
24
72
6
73
1
0
VERTEX
8
OBJECT__115
10
0
20
0
30
0
70
128
71
22
72
24
73
20
0
VERTEX
8
OBJECT__115
10
0
20
0
30
0
70
128
71
19
72
23
73
17
0
VERTEX
8
OBJECT__115
10
0
20
0
30
0
70
128
71
13
72
18
73
12
0
VERTEX
8
OBJECT__115
10
0
20
0
30
0
70
128
71
10
72
13
73
8
0
VERTEX
8
OBJECT__115
10
0
20
0
30
0
70
128
71
7
72
11
73
5
0
SEQEND
8
OBJECT__115
0
POLYLINE
8
OBJECT__117
66
1
70
64
71
30
72
30
62
253
0
VERTEX
8
OBJECT__117
10
455.204010
20
12.563000
30
1061.800049
70
192
0
VERTEX
8
OBJECT__117
10
453.519012
20
13.135000
30
1061.800049
70
192
0
VERTEX
8
OBJECT__117
10
453.919006
20
12.919000
30
1061.800049
70
192
0
VERTEX
8
OBJECT__117
10
444.795990
20
-12.563000
30
1061.800049
70
192
0
VERTEX
8
OBJECT__117
10
446.480988
20
-13.135000
30
1061.800049
70
192
0
VERTEX
8
OBJECT__117
10
446.080994
20
-12.919000
30
1061.800049
70
192
0
VERTEX
8
OBJECT__117
10
455.165985
20
12.472000
30
1061.800049
70
192
0
VERTEX
8
OBJECT__117
10
457.500000
20
11.225000
30
1061.800049
70
192
0
VERTEX
8
OBJECT__117
10
456.799011
20
11.776000
30
1061.800049
70
192
0
VERTEX
8
OBJECT__117
10
452.634003
20
13.241000
30
1061.800049
70
192
0
VERTEX
8
OBJECT__117
10
444.834015
20
-12.472000
30
1061.800049
70
192
0
VERTEX
8
OBJECT__117
10
442.500000
20
-11.225000
30
1061.800049
70
192
0
VERTEX
8
OBJECT__117
10
443.200989
20
-11.776000
30
1061.800049
70
192
0
VERTEX
8
OBJECT__117
10
447.365997
20
-13.241000
30
1061.800049
70
192
0
VERTEX
8
OBJECT__117
10
450.000000
20
13.598000
30
1061.800049
70
192
0
VERTEX
8
OBJECT__117
10
450.000000
20
13.500000
30
1061.800049
70
192
0
VERTEX
8
OBJECT__117
10
450.000000
20
-13.598000
30
1061.800049
70
192
0
VERTEX
8
OBJECT__117
10
450.000000
20
-13.500000
30
1061.800049
70
192
0
VERTEX
8
OBJECT__117
10
463.500000
20
0.000000
30
1061.800049
70
192
0
VERTEX
8
OBJECT__117
10
463.597992
20
0.000000
30
1061.800049
70
192
0
VERTEX
8
OBJECT__117
10
461.776001
20
6.799000
30
1061.800049
70
192
0
VERTEX
8
OBJECT__117
10
459.614990
20
9.615000
30
1061.800049
70
192
0
VERTEX
8
OBJECT__117
10
436.500000
20
0.000000
30
1061.800049
70
192
0
VERTEX
8
OBJECT__117
10
436.402008
20
0.000000
30
1061.800049
70
192
0
VERTEX
8
OBJECT__117
10
438.223999
20
-6.799000
30
1061.800049
70
192
0
VERTEX
8
OBJECT__117
10
440.385010
20
-9.615000
30
1061.800049
70
192
0
VERTEX
8
OBJECT__117
10
459.545990
20
9.546000
30
1061.800049
70
192
0
VERTEX
8
OBJECT__117
10
438.223999
20
6.799000
30
1061.800049
70
192
0
VERTEX
8
OBJECT__117
10
440.454010
20
-9.546000
30
1061.800049
70
192
0
VERTEX
8
OBJECT__117
10
461.776001
20
-6.799000
30
1061.800049
70
192
0
VERTEX
8
OBJECT__117
10
0
20
0
30
0
70
128
71
1
72
2
73
3
0
VERTEX
8
OBJECT__117
10
0
20
0
30
0
70
128
71
4
72
5
73
6
0
VERTEX
8
OBJECT__117
10
0
20
0
30
0
70
128
71
7
72
8
73
9
0
VERTEX
8
OBJECT__117
10
0
20
0
30
0
70
128
71
2
72
10
73
3
0
VERTEX
8
OBJECT__117
10
0
20
0
30
0
70
128
71
11
72
12
73
13
0
VERTEX
8
OBJECT__117
10
0
20
0
30
0
70
128
71
5
72
14
73
6
0
VERTEX
8
OBJECT__117
10
0
20
0
30
0
70
128
71
3
72
7
73
1
0
VERTEX
8
OBJECT__117
10
0
20
0
30
0
70
128
71
15
72
16
73
10
0
VERTEX
8
OBJECT__117
10
0
20
0
30
0
70
128
71
6
72
11
73
4
0
VERTEX
8
OBJECT__117
10
0
20
0
30
0
70
128
71
17
72
18
73
14
0
VERTEX
8
OBJECT__117
10
0
20
0
30
0
70
128
71
19
72
20
73
21
0
VERTEX
8
OBJECT__117
10
0
20
0
30
0
70
128
71
22
72
9
73
8
0
VERTEX
8
OBJECT__117
10
0
20
0
30
0
70
128
71
10
72
2
73
15
0
VERTEX
8
OBJECT__117
10
0
20
0
30
0
70
128
71
23
72
24
73
25
0
VERTEX
8
OBJECT__117
10
0
20
0
30
0
70
128
71
26
72
13
73
12
0
VERTEX
8
OBJECT__117
10
0
20
0
30
0
70
128
71
14
72
5
73
17
0
VERTEX
8
OBJECT__117
10
0
20
0
30
0
70
128
71
21
72
27
73
19
0
VERTEX
8
OBJECT__117
10
0
20
0
30
0
70
128
71
9
72
1
73
7
0
VERTEX
8
OBJECT__117
10
0
20
0
30
0
70
128
71
28
72
23
73
16
0
VERTEX
8
OBJECT__117
10
0
20
0
30
0
70
128
71
25
72
29
73
23
0
VERTEX
8
OBJECT__117
10
0
20
0
30
0
70
128
71
13
72
4
73
11
0
VERTEX
8
OBJECT__117
10
0
20
0
30
0
70
128
71
30
72
19
73
18
0
VERTEX
8
OBJECT__117
10
0
20
0
30
0
70
128
71
8
72
27
73
22
0
VERTEX
8
OBJECT__117
10
0
20
0
30
0
70
128
71
28
72
24
73
23
0
VERTEX
8
OBJECT__117
10
0
20
0
30
0
70
128
71
12
72
29
73
26
0
VERTEX
8
OBJECT__117
10
0
20
0
30
0
70
128
71
18
72
17
73
30
0
VERTEX
8
OBJECT__117
10
0
20
0
30
0
70
128
71
16
72
15
73
28
0
VERTEX
8
OBJECT__117
10
0
20
0
30
0
70
128
71
30
72
20
73
19
0
VERTEX
8
OBJECT__117
10
0
20
0
30
0
70
128
71
25
72
26
73
29
0
VERTEX
8
OBJECT__117
10
0
20
0
30
0
70
128
71
21
72
22
73
27
0
SEQEND
8
OBJECT__117
0
POLYLINE
8
OBJECT__118
66
1
70
64
71
18
72
18
62
253
0
VERTEX
8
OBJECT__118
10
463.500000
20
0.000000
30
1061.800049
70
192
0
VERTEX
8
OBJECT__118
10
463.500000
20
0.000000
30
1054.400024
70
192
0
VERTEX
8
OBJECT__118
10
450.000000
20
-13.500000
30
1054.400024
70
192
0
VERTEX
8
OBJECT__118
10
450.000000
20
13.500000
30
1054.400024
70
192
0
VERTEX
8
OBJECT__118
10
453.919006
20
12.919000
30
1061.800049
70
192
0
VERTEX
8
OBJECT__118
10
452.634003
20
13.241000
30
1061.800049
70
192
0
VERTEX
8
OBJECT__118
10
455.165985
20
12.472000
30
1061.800049
70
192
0
VERTEX
8
OBJECT__118
10
457.500000
20
11.225000
30
1061.800049
70
192
0
VERTEX
8
OBJECT__118
10
459.545990
20
9.546000
30
1061.800049
70
192
0
VERTEX
8
OBJECT__118
10
436.500000
20
0.000000
30
1054.400024
70
192
0
VERTEX
8
OBJECT__118
10
450.000000
20
13.500000
30
1061.800049
70
192
0
VERTEX
8
OBJECT__118
10
446.080994
20
-12.919000
30
1061.800049
70
192
0
VERTEX
8
OBJECT__118
10
447.365997
20
-13.241000
30
1061.800049
70
192
0
VERTEX
8
OBJECT__118
10
444.834015
20
-12.472000
30
1061.800049
70
192
0
VERTEX
8
OBJECT__118
10
442.500000
20
-11.225000
30
1061.800049
70
192
0
VERTEX
8
OBJECT__118
10
436.500000
20
0.000000
30
1061.800049
70
192
0
VERTEX
8
OBJECT__118
10
440.454010
20
-9.546000
30
1061.800049
70
192
0
VERTEX
8
OBJECT__118
10
450.000000
20
-13.500000
30
1061.800049
70
192
0
VERTEX
8
OBJECT__118
10
0
20
0
30
0
70
128
71
1
72
2
73
3
0
VERTEX
8
OBJECT__118
10
0
20
0
30
0
70
128
71
4
72
5
73
6
0
VERTEX
8
OBJECT__118
10
0
20
0
30
0
70
128
71
4
72
7
73
5
0
VERTEX
8
OBJECT__118
10
0
20
0
30
0
70
128
71
4
72
8
73
7
0
VERTEX
8
OBJECT__118
10
0
20
0
30
0
70
128
71
4
72
2
73
9
0
VERTEX
8
OBJECT__118
10
0
20
0
30
0
70
128
71
9
72
8
73
4
0
VERTEX
8
OBJECT__118
10
0
20
0
30
0
70
128
71
2
72
1
73
9
0
VERTEX
8
OBJECT__118
10
0
20
0
30
0
70
128
71
10
72
4
73
11
0
VERTEX
8
OBJECT__118
10
0
20
0
30
0
70
128
71
3
72
12
73
13
0
VERTEX
8
OBJECT__118
10
0
20
0
30
0
70
128
71
3
72
14
73
12
0
VERTEX
8
OBJECT__118
10
0
20
0
30
0
70
128
71
3
72
15
73
14
0
VERTEX
8
OBJECT__118
10
0
20
0
30
0
70
128
71
10
72
16
73
17
0
VERTEX
8
OBJECT__118
10
0
20
0
30
0
70
128
71
17
72
3
73
10
0
VERTEX
8
OBJECT__118
10
0
20
0
30
0
70
128
71
17
72
15
73
3
0
VERTEX
8
OBJECT__118
10
0
20
0
30
0
70
128
71
13
72
18
73
3
0
VERTEX
8
OBJECT__118
10
0
20
0
30
0
70
128
71
11
72
16
73
10
0
VERTEX
8
OBJECT__118
10
0
20
0
30
0
70
128
71
6
72
11
73
4
0
VERTEX
8
OBJECT__118
10
0
20
0
30
0
70
128
71
3
72
18
73
1
0
SEQEND
8
OBJECT__118
0
POLYLINE
8
OBJECT__119
66
1
70
64
71
5
72
3
62
253
0
VERTEX
8
OBJECT__119
10
90.199997
20
-18.607000
30
13.519000
70
192
0
VERTEX
8
OBJECT__119
10
90.199997
20
-18.607000
30
-13.519000
70
192
0
VERTEX
8
OBJECT__119
10
90.199997
20
7.107000
30
-21.874001
70
192
0
VERTEX
8
OBJECT__119
10
90.199997
20
23.000000
30
0.000000
70
192
0
VERTEX
8
OBJECT__119
10
90.199997
20
7.107000
30
21.874001
70
192
0
VERTEX
8
OBJECT__119
10
0
20
0
30
0
70
128
71
1
72
2
73
3
0
VERTEX
8
OBJECT__119
10
0
20
0
30
0
70
128
71
3
72
4
73
1
0
VERTEX
8
OBJECT__119
10
0
20
0
30
0
70
128
71
4
72
5
73
1
0
SEQEND
8
OBJECT__119
0
POLYLINE
8
OBJECT__120
66
1
70
64
71
10
72
10
62
253
0
VERTEX
8
OBJECT__120
10
15.000000
20
7.107000
30
21.874001
70
192
0
VERTEX
8
OBJECT__120
10
90.199997
20
7.107000
30
21.874001
70
192
0
VERTEX
8
OBJECT__120
10
90.199997
20
23.000000
30
0.000000
70
192
0
VERTEX
8
OBJECT__120
10
15.000000
20
-18.607000
30
13.519000
70
192
0
VERTEX
8
OBJECT__120
10
90.199997
20
-18.607000
30
13.519000
70
192
0
VERTEX
8
OBJECT__120
10
15.000000
20
-18.607000
30
-13.519000
70
192
0
VERTEX
8
OBJECT__120
10
90.199997
20
-18.607000
30
-13.519000
70
192
0
VERTEX
8
OBJECT__120
10
90.199997
20
7.107000
30
-21.874001
70
192
0
VERTEX
8
OBJECT__120
10
15.000000
20
7.107000
30
-21.874001
70
192
0
VERTEX
8
OBJECT__120
10
15.000000
20
23.000000
30
0.000000
70
192
0
VERTEX
8
OBJECT__120
10
0
20
0
30
0
70
128
71
1
72
2
73
3
0
VERTEX
8
OBJECT__120
10
0
20
0
30
0
70
128
71
4
72
5
73
2
0
VERTEX
8
OBJECT__120
10
0
20
0
30
0
70
128
71
4
72
6
73
7
0
VERTEX
8
OBJECT__120
10
0
20
0
30
0
70
128
71
8
72
7
73
6
0
VERTEX
8
OBJECT__120
10
0
20
0
30
0
70
128
71
9
72
10
73
3
0
VERTEX
8
OBJECT__120
10
0
20
0
30
0
70
128
71
3
72
8
73
9
0
VERTEX
8
OBJECT__120
10
0
20
0
30
0
70
128
71
6
72
9
73
8
0
VERTEX
8
OBJECT__120
10
0
20
0
30
0
70
128
71
7
72
5
73
4
0
VERTEX
8
OBJECT__120
10
0
20
0
30
0
70
128
71
2
72
1
73
4
0
VERTEX
8
OBJECT__120
10
0
20
0
30
0
70
128
71
3
72
10
73
1
0
SEQEND
8
OBJECT__120
0
POLYLINE
8
OBJECT__122
66
1
70
64
71
11
72
11
62
253
0
VERTEX
8
OBJECT__122
10
15.000000
20
17.750000
30
30.743999
70
192
0
VERTEX
8
OBJECT__122
10
15.000000
20
7.107000
30
21.874001
70
192
0
VERTEX
8
OBJECT__122
10
15.000000
20
23.000000
30
0.000000
70
192
0
VERTEX
8
OBJECT__122
10
15.000000
20
-17.750000
30
30.743999
70
192
0
VERTEX
8
OBJECT__122
10
15.000000
20
-18.607000
30
13.519000
70
192
0
VERTEX
8
OBJECT__122
10
15.000000
20
-35.500000
30
0.000000
70
192
0
VERTEX
8
OBJECT__122
10
15.000000
20
-17.750000
30
-30.743999
70
192
0
VERTEX
8
OBJECT__122
10
15.000000
20
-18.607000
30
-13.519000
70
192
0
VERTEX
8
OBJECT__122
10
15.000000
20
17.750000
30
-30.743999
70
192
0
VERTEX
8
OBJECT__122
10
15.000000
20
7.107000
30
-21.874001
70
192
0
VERTEX
8
OBJECT__122
10
15.000000
20
35.500000
30
0.000000
70
192
0
VERTEX
8
OBJECT__122
10
0
20
0
30
0
70
128
71
1
72
2
73
3
0
VERTEX
8
OBJECT__122
10
0
20
0
30
0
70
128
71
4
72
5
73
2
0
VERTEX
8
OBJECT__122
10
0
20
0
30
0
70
128
71
6
72
7
73
8
0
VERTEX
8
OBJECT__122
10
0
20
0
30
0
70
128
71
2
72
1
73
4
0
VERTEX
8
OBJECT__122
10
0
20
0
30
0
70
128
71
8
72
5
73
6
0
VERTEX
8
OBJECT__122
10
0
20
0
30
0
70
128
71
7
72
9
73
10
0
VERTEX
8
OBJECT__122
10
0
20
0
30
0
70
128
71
9
72
11
73
3
0
VERTEX
8
OBJECT__122
10
0
20
0
30
0
70
128
71
5
72
4
73
6
0
VERTEX
8
OBJECT__122
10
0
20
0
30
0
70
128
71
3
72
10
73
9
0
VERTEX
8
OBJECT__122
10
0
20
0
30
0
70
128
71
10
72
8
73
7
0
VERTEX
8
OBJECT__122
10
0
20
0
30
0
70
128
71
3
72
11
73
1
0
SEQEND
8
OBJECT__122
0
POLYLINE
8
OBJECT__123
66
1
70
64
71
12
72
12
62
253
0
VERTEX
8
OBJECT__123
10
15.000000
20
35.500000
30
0.000000
70
192
0
VERTEX
8
OBJECT__123
10
0.000000
20
35.500000
30
0.000000
70
192
0
VERTEX
8
OBJECT__123
10
0.000000
20
17.750000
30
30.743999
70
192
0
VERTEX
8
OBJECT__123
10
0.000000
20
-17.750000
30
30.743999
70
192
0
VERTEX
8
OBJECT__123
10
15.000000
20
-17.750000
30
30.743999
70
192
0
VERTEX
8
OBJECT__123
10
15.000000
20
17.750000
30
30.743999
70
192
0
VERTEX
8
OBJECT__123
10
0.000000
20
-35.500000
30
0.000000
70
192
0
VERTEX
8
OBJECT__123
10
15.000000
20
-35.500000
30
0.000000
70
192
0
VERTEX
8
OBJECT__123
10
0.000000
20
-17.750000
30
-30.743999
70
192
0
VERTEX
8
OBJECT__123
10
15.000000
20
-17.750000
30
-30.743999
70
192
0
VERTEX
8
OBJECT__123
10
15.000000
20
17.750000
30
-30.743999
70
192
0
VERTEX
8
OBJECT__123
10
0.000000
20
17.750000
30
-30.743999
70
192
0
VERTEX
8
OBJECT__123
10
0
20
0
30
0
70
128
71
1
72
2
73
3
0
VERTEX
8
OBJECT__123
10
0
20
0
30
0
70
128
71
4
72
5
73
6
0
VERTEX
8
OBJECT__123
10
0
20
0
30
0
70
128
71
7
72
8
73
5
0
VERTEX
8
OBJECT__123
10
0
20
0
30
0
70
128
71
7
72
9
73
10
0
VERTEX
8
OBJECT__123
10
0
20
0
30
0
70
128
71
11
72
10
73
9
0
VERTEX
8
OBJECT__123
10
0
20
0
30
0
70
128
71
1
72
11
73
12
0
VERTEX
8
OBJECT__123
10
0
20
0
30
0
70
128
71
12
72
2
73
1
0
VERTEX
8
OBJECT__123
10
0
20
0
30
0
70
128
71
9
72
12
73
11
0
VERTEX
8
OBJECT__123
10
0
20
0
30
0
70
128
71
10
72
8
73
7
0
VERTEX
8
OBJECT__123
10
0
20
0
30
0
70
128
71
5
72
4
73
7
0
VERTEX
8
OBJECT__123
10
0
20
0
30
0
70
128
71
6
72
3
73
4
0
VERTEX
8
OBJECT__123
10
0
20
0
30
0
70
128
71
3
72
6
73
1
0
SEQEND
8
OBJECT__123
0
POLYLINE
8
OBJECT__124
66
1
70
64
71
6
72
4
62
253
0
VERTEX
8
OBJECT__124
10
0.000000
20
-35.500000
30
0.000000
70
192
0
VERTEX
8
OBJECT__124
10
0.000000
20
35.500000
30
0.000000
70
192
0
VERTEX
8
OBJECT__124
10
0.000000
20
17.750000
30
-30.743999
70
192
0
VERTEX
8
OBJECT__124
10
0.000000
20
-17.750000
30
30.743999
70
192
0
VERTEX
8
OBJECT__124
10
0.000000
20
17.750000
30
30.743999
70
192
0
VERTEX
8
OBJECT__124
10
0.000000
20
-17.750000
30
-30.743999
70
192
0
VERTEX
8
OBJECT__124
10
0
20
0
30
0
70
128
71
1
72
2
73
3
0
VERTEX
8
OBJECT__124
10
0
20
0
30
0
70
128
71
1
72
4
73
5
0
VERTEX
8
OBJECT__124
10
0
20
0
30
0
70
128
71
5
72
2
73
1
0
VERTEX
8
OBJECT__124
10
0
20
0
30
0
70
128
71
3
72
6
73
1
0
SEQEND
8
OBJECT__124
0
POLYLINE
8
OBJECT__125
66
1
70
64
71
14
72
12
62
253
0
VERTEX
8
OBJECT__125
10
328.126007
20
-152.824997
30
1026.998047
70
192
0
VERTEX
8
OBJECT__125
10
571.874023
20
-152.824997
30
1026.998047
70
192
0
VERTEX
8
OBJECT__125
10
493.496002
20
-190.570007
30
1026.998047
70
192
0
VERTEX
8
OBJECT__125
10
273.886993
20
84.810997
30
1026.998047
70
192
0
VERTEX
8
OBJECT__125
10
406.503998
20
190.570007
30
1026.998047
70
192
0
VERTEX
8
OBJECT__125
10
493.496002
20
190.570007
30
1026.998047
70
192
0
VERTEX
8
OBJECT__125
10
571.874023
20
152.824997
30
1026.998047
70
192
0
VERTEX
8
OBJECT__125
10
273.886993
20
-84.810997
30
1026.998047
70
192
0
VERTEX
8
OBJECT__125
10
626.112976
20
-84.810997
30
1026.998047
70
192
0
VERTEX
8
OBJECT__125
10
626.112976
20
84.810997
30
1026.998047
70
192
0
VERTEX
8
OBJECT__125
10
645.471008
20
0.000000
30
1026.998047
70
192
0
VERTEX
8
OBJECT__125
10
328.126007
20
152.824997
30
1026.998047
70
192
0
VERTEX
8
OBJECT__125
10
254.529007
20
0.000000
30
1026.998047
70
192
0
VERTEX
8
OBJECT__125
10
406.503998
20
-190.570007
30
1026.998047
70
192
0
VERTEX
8
OBJECT__125
10
0
20
0
30
0
70
128
71
1
72
2
73
3
0
VERTEX
8
OBJECT__125
10
0
20
0
30
0
70
128
71
4
72
5
73
6
0
VERTEX
8
OBJECT__125
10
0
20
0
30
0
70
128
71
7
72
1
73
8
0
VERTEX
8
OBJECT__125
10
0
20
0
30
0
70
128
71
1
72
9
73
2
0
VERTEX
8
OBJECT__125
10
0
20
0
30
0
70
128
71
1
72
10
73
11
0
VERTEX
8
OBJECT__125
10
0
20
0
30
0
70
128
71
4
72
12
73
5
0
VERTEX
8
OBJECT__125
10
0
20
0
30
0
70
128
71
8
72
13
73
7
0
VERTEX
8
OBJECT__125
10
0
20
0
30
0
70
128
71
11
72
9
73
1
0
VERTEX
8
OBJECT__125
10
0
20
0
30
0
70
128
71
13
72
4
73
7
0
VERTEX
8
OBJECT__125
10
0
20
0
30
0
70
128
71
1
72
7
73
10
0
VERTEX
8
OBJECT__125
10
0
20
0
30
0
70
128
71
3
72
14
73
1
0
VERTEX
8
OBJECT__125
10
0
20
0
30
0
70
128
71
6
72
7
73
4
0
SEQEND
8
OBJECT__125
0
POLYLINE
8
OBJECT__126
66
1
70
64
71
28
72
28
62
253
0
VERTEX
8
OBJECT__126
10
626.234009
20
84.870003
30
1034.697998
70
192
0
VERTEX
8
OBJECT__126
10
645.604980
20
0.000000
30
1034.697998
70
192
0
VERTEX
8
OBJECT__126
10
645.471008
20
0.000000
30
1026.998047
70
192
0
VERTEX
8
OBJECT__126
10
571.958008
20
152.929993
30
1034.697998
70
192
0
VERTEX
8
OBJECT__126
10
626.112976
20
84.810997
30
1026.998047
70
192
0
VERTEX
8
OBJECT__126
10
493.526001
20
190.701004
30
1034.697998
70
192
0
VERTEX
8
OBJECT__126
10
571.874023
20
152.824997
30
1026.998047
70
192
0
VERTEX
8
OBJECT__126
10
493.496002
20
190.570007
30
1026.998047
70
192
0
VERTEX
8
OBJECT__126
10
406.503998
20
190.570007
30
1026.998047
70
192
0
VERTEX
8
OBJECT__126
10
406.473999
20
190.701004
30
1034.697998
70
192
0
VERTEX
8
OBJECT__126
10
328.126007
20
152.824997
30
1026.998047
70
192
0
VERTEX
8
OBJECT__126
10
328.041992
20
152.929993
30
1034.697998
70
192
0
VERTEX
8
OBJECT__126
10
273.886993
20
84.810997
30
1026.998047
70
192
0
VERTEX
8
OBJECT__126
10
254.395004
20
0.000000
30
1034.697998
70
192
0
VERTEX
8
OBJECT__126
10
273.765991
20
84.870003
30
1034.697998
70
192
0
VERTEX
8
OBJECT__126
10
273.765991
20
-84.870003
30
1034.697998
70
192
0
VERTEX
8
OBJECT__126
10
254.529007
20
0.000000
30
1026.998047
70
192
0
VERTEX
8
OBJECT__126
10
273.886993
20
-84.810997
30
1026.998047
70
192
0
VERTEX
8
OBJECT__126
10
328.126007
20
-152.824997
30
1026.998047
70
192
0
VERTEX
8
OBJECT__126
10
328.041992
20
-152.929993
30
1034.697998
70
192
0
VERTEX
8
OBJECT__126
10
406.503998
20
-190.570007
30
1026.998047
70
192
0
VERTEX
8
OBJECT__126
10
493.526001
20
-190.701004
30
1034.697998
70
192
0
VERTEX
8
OBJECT__126
10
406.473999
20
-190.701004
30
1034.697998
70
192
0
VERTEX
8
OBJECT__126
10
493.496002
20
-190.570007
30
1026.998047
70
192
0
VERTEX
8
OBJECT__126
10
571.874023
20
-152.824997
30
1026.998047
70
192
0
VERTEX
8
OBJECT__126
10
626.234009
20
-84.870003
30
1034.697998
70
192
0
VERTEX
8
OBJECT__126
10
571.958008
20
-152.929993
30
1034.697998
70
192
0
VERTEX
8
OBJECT__126
10
626.112976
20
-84.810997
30
1026.998047
70
192
0
VERTEX
8
OBJECT__126
10
0
20
0
30
0
70
128
71
1
72
2
73
3
0
VERTEX
8
OBJECT__126
10
0
20
0
30
0
70
128
71
4
72
1
73
5
0
VERTEX
8
OBJECT__126
10
0
20
0
30
0
70
128
71
6
72
4
73
7
0
VERTEX
8
OBJECT__126
10
0
20
0
30
0
70
128
71
6
72
8
73
9
0
VERTEX
8
OBJECT__126
10
0
20
0
30
0
70
128
71
10
72
9
73
11
0
VERTEX
8
OBJECT__126
10
0
20
0
30
0
70
128
71
12
72
11
73
13
0
VERTEX
8
OBJECT__126
10
0
20
0
30
0
70
128
71
14
72
15
73
13
0
VERTEX
8
OBJECT__126
10
0
20
0
30
0
70
128
71
16
72
14
73
17
0
VERTEX
8
OBJECT__126
10
0
20
0
30
0
70
128
71
16
72
18
73
19
0
VERTEX
8
OBJECT__126
10
0
20
0
30
0
70
128
71
20
72
19
73
21
0
VERTEX
8
OBJECT__126
10
0
20
0
30
0
70
128
71
22
72
23
73
21
0
VERTEX
8
OBJECT__126
10
0
20
0
30
0
70
128
71
22
72
24
73
25
0
VERTEX
8
OBJECT__126
10
0
20
0
30
0
70
128
71
26
72
27
73
25
0
VERTEX
8
OBJECT__126
10
0
20
0
30
0
70
128
71
2
72
26
73
28
0
VERTEX
8
OBJECT__126
10
0
20
0
30
0
70
128
71
28
72
3
73
2
0
VERTEX
8
OBJECT__126
10
0
20
0
30
0
70
128
71
25
72
28
73
26
0
VERTEX
8
OBJECT__126
10
0
20
0
30
0
70
128
71
25
72
27
73
22
0
VERTEX
8
OBJECT__126
10
0
20
0
30
0
70
128
71
21
72
24
73
22
0
VERTEX
8
OBJECT__126
10
0
20
0
30
0
70
128
71
21
72
23
73
20
0
VERTEX
8
OBJECT__126
10
0
20
0
30
0
70
128
71
19
72
20
73
16
0
VERTEX
8
OBJECT__126
10
0
20
0
30
0
70
128
71
17
72
18
73
16
0
VERTEX
8
OBJECT__126
10
0
20
0
30
0
70
128
71
13
72
17
73
14
0
VERTEX
8
OBJECT__126
10
0
20
0
30
0
70
128
71
13
72
15
73
12
0
VERTEX
8
OBJECT__126
10
0
20
0
30
0
70
128
71
11
72
12
73
10
0
VERTEX
8
OBJECT__126
10
0
20
0
30
0
70
128
71
9
72
10
73
6
0
VERTEX
8
OBJECT__126
10
0
20
0
30
0
70
128
71
7
72
8
73
6
0
VERTEX
8
OBJECT__126
10
0
20
0
30
0
70
128
71
5
72
7
73
4
0
VERTEX
8
OBJECT__126
10
0
20
0
30
0
70
128
71
3
72
5
73
1
0
SEQEND
8
OBJECT__126
0
POLYLINE
8
OBJECT__128
66
1
70
64
71
28
72
28
62
253
0
VERTEX
8
OBJECT__128
10
249.654007
20
0.000000
30
1034.697998
70
192
0
VERTEX
8
OBJECT__128
10
269.493988
20
86.927002
30
1034.697998
70
192
0
VERTEX
8
OBJECT__128
10
273.765991
20
84.870003
30
1034.697998
70
192
0
VERTEX
8
OBJECT__128
10
325.085999
20
156.636993
30
1034.697998
70
192
0
VERTEX
8
OBJECT__128
10
328.041992
20
152.929993
30
1034.697998
70
192
0
VERTEX
8
OBJECT__128
10
405.419006
20
195.322998
30
1034.697998
70
192
0
VERTEX
8
OBJECT__128
10
406.473999
20
190.701004
30
1034.697998
70
192
0
VERTEX
8
OBJECT__128
10
494.580994
20
195.322998
30
1034.697998
70
192
0
VERTEX
8
OBJECT__128
10
493.526001
20
190.701004
30
1034.697998
70
192
0
VERTEX
8
OBJECT__128
10
574.914001
20
156.636993
30
1034.697998
70
192
0
VERTEX
8
OBJECT__128
10
571.958008
20
152.929993
30
1034.697998
70
192
0
VERTEX
8
OBJECT__128
10
630.505981
20
-86.927002
30
1034.697998
70
192
0
VERTEX
8
OBJECT__128
10
574.914001
20
-156.636993
30
1034.697998
70
192
0
VERTEX
8
OBJECT__128
10
571.958008
20
-152.929993
30
1034.697998
70
192
0
VERTEX
8
OBJECT__128
10
494.580994
20
-195.322998
30
1034.697998
70
192
0
VERTEX
8
OBJECT__128
10
493.526001
20
-190.701004
30
1034.697998
70
192
0
VERTEX
8
OBJECT__128
10
269.493988
20
-86.927002
30
1034.697998
70
192
0
VERTEX
8
OBJECT__128
10
273.765991
20
-84.870003
30
1034.697998
70
192
0
VERTEX
8
OBJECT__128
10
328.041992
20
-152.929993
30
1034.697998
70
192
0
VERTEX
8
OBJECT__128
10
254.395004
20
0.000000
30
1034.697998
70
192
0
VERTEX
8
OBJECT__128
10
630.505981
20
86.927002
30
1034.697998
70
192
0
VERTEX
8
OBJECT__128
10
626.234009
20
84.870003
30
1034.697998
70
192
0
VERTEX
8
OBJECT__128
10
650.346008
20
0.000000
30
1034.697998
70
192
0
VERTEX
8
OBJECT__128
10
645.604980
20
0.000000
30
1034.697998
70
192
0
VERTEX
8
OBJECT__128
10
626.234009
20
-84.870003
30
1034.697998
70
192
0
VERTEX
8
OBJECT__128
10
405.419006
20
-195.322998
30
1034.697998
70
192
0
VERTEX
8
OBJECT__128
10
406.473999
20
-190.701004
30
1034.697998
70
192
0
VERTEX
8
OBJECT__128
10
325.085999
20
-156.636993
30
1034.697998
70
192
0
VERTEX
8
OBJECT__128
10
0
20
0
30
0
70
128
71
1
72
2
73
3
0
VERTEX
8
OBJECT__128
10
0
20
0
30
0
70
128
71
2
72
4
73
5
0
VERTEX
8
OBJECT__128
10
0
20
0
30
0
70
128
71
4
72
6
73
7
0
VERTEX
8
OBJECT__128
10
0
20
0
30
0
70
128
71
6
72
8
73
9
0
VERTEX
8
OBJECT__128
10
0
20
0
30
0
70
128
71
5
72
3
73
2
0
VERTEX
8
OBJECT__128
10
0
20
0
30
0
70
128
71
9
72
7
73
6
0
VERTEX
8
OBJECT__128
10
0
20
0
30
0
70
128
71
7
72
5
73
4
0
VERTEX
8
OBJECT__128
10
0
20
0
30
0
70
128
71
10
72
11
73
9
0
VERTEX
8
OBJECT__128
10
0
20
0
30
0
70
128
71
12
72
13
73
14
0
VERTEX
8
OBJECT__128
10
0
20
0
30
0
70
128
71
15
72
16
73
14
0
VERTEX
8
OBJECT__128
10
0
20
0
30
0
70
128
71
17
72
18
73
19
0
VERTEX
8
OBJECT__128
10
0
20
0
30
0
70
128
71
1
72
20
73
18
0
VERTEX
8
OBJECT__128
10
0
20
0
30
0
70
128
71
9
72
8
73
10
0
VERTEX
8
OBJECT__128
10
0
20
0
30
0
70
128
71
21
72
22
73
11
0
VERTEX
8
OBJECT__128
10
0
20
0
30
0
70
128
71
23
72
24
73
22
0
VERTEX
8
OBJECT__128
10
0
20
0
30
0
70
128
71
23
72
12
73
25
0
VERTEX
8
OBJECT__128
10
0
20
0
30
0
70
128
71
14
72
13
73
15
0
VERTEX
8
OBJECT__128
10
0
20
0
30
0
70
128
71
26
72
27
73
16
0
VERTEX
8
OBJECT__128
10
0
20
0
30
0
70
128
71
28
72
19
73
27
0
VERTEX
8
OBJECT__128
10
0
20
0
30
0
70
128
71
18
72
17
73
1
0
VERTEX
8
OBJECT__128
10
0
20
0
30
0
70
128
71
11
72
10
73
21
0
VERTEX
8
OBJECT__128
10
0
20
0
30
0
70
128
71
25
72
24
73
23
0
VERTEX
8
OBJECT__128
10
0
20
0
30
0
70
128
71
16
72
15
73
26
0
VERTEX
8
OBJECT__128
10
0
20
0
30
0
70
128
71
19
72
28
73
17
0
VERTEX
8
OBJECT__128
10
0
20
0
30
0
70
128
71
22
72
21
73
23
0
VERTEX
8
OBJECT__128
10
0
20
0
30
0
70
128
71
27
72
26
73
28
0
VERTEX
8
OBJECT__128
10
0
20
0
30
0
70
128
71
14
72
25
73
12
0
VERTEX
8
OBJECT__128
10
0
20
0
30
0
70
128
71
3
72
20
73
1
0
SEQEND
8
OBJECT__128
0
POLYLINE
8
OBJECT__129
66
1
70
64
71
28
72
28
62
253
0
VERTEX
8
OBJECT__129
10
630.651978
20
86.997002
30
1043.998047
70
192
0
VERTEX
8
OBJECT__129
10
650.508972
20
0.000000
30
1043.998047
70
192
0
VERTEX
8
OBJECT__129
10
650.346008
20
0.000000
30
1034.697998
70
192
0
VERTEX
8
OBJECT__129
10
575.015015
20
156.764008
30
1043.998047
70
192
0
VERTEX
8
OBJECT__129
10
630.505981
20
86.927002
30
1034.697998
70
192
0
VERTEX
8
OBJECT__129
10
574.914001
20
156.636993
30
1034.697998
70
192
0
VERTEX
8
OBJECT__129
10
494.580994
20
195.322998
30
1034.697998
70
192
0
VERTEX
8
OBJECT__129
10
405.382996
20
195.481003
30
1043.998047
70
192
0
VERTEX
8
OBJECT__129
10
494.617004
20
195.481003
30
1043.998047
70
192
0
VERTEX
8
OBJECT__129
10
324.984985
20
156.764008
30
1043.998047
70
192
0
VERTEX
8
OBJECT__129
10
405.419006
20
195.322998
30
1034.697998
70
192
0
VERTEX
8
OBJECT__129
10
269.347992
20
86.997002
30
1043.998047
70
192
0
VERTEX
8
OBJECT__129
10
325.085999
20
156.636993
30
1034.697998
70
192
0
VERTEX
8
OBJECT__129
10
269.493988
20
86.927002
30
1034.697998
70
192
0
VERTEX
8
OBJECT__129
10
249.654007
20
0.000000
30
1034.697998
70
192
0
VERTEX
8
OBJECT__129
10
269.347992
20
-86.997002
30
1043.998047
70
192
0
VERTEX
8
OBJECT__129
10
249.490997
20
0.000000
30
1043.998047
70
192
0
VERTEX
8
OBJECT__129
10
324.984985
20
-156.764008
30
1043.998047
70
192
0
VERTEX
8
OBJECT__129
10
269.493988
20
-86.927002
30
1034.697998
70
192
0
VERTEX
8
OBJECT__129
10
405.382996
20
-195.481003
30
1043.998047
70
192
0
VERTEX
8
OBJECT__129
10
325.085999
20
-156.636993
30
1034.697998
70
192
0
VERTEX
8
OBJECT__129
10
494.617004
20
-195.481003
30
1043.998047
70
192
0
VERTEX
8
OBJECT__129
10
405.419006
20
-195.322998
30
1034.697998
70
192
0
VERTEX
8
OBJECT__129
10
575.015015
20
-156.764008
30
1043.998047
70
192
0
VERTEX
8
OBJECT__129
10
494.580994
20
-195.322998
30
1034.697998
70
192
0
VERTEX
8
OBJECT__129
10
630.651978
20
-86.997002
30
1043.998047
70
192
0
VERTEX
8
OBJECT__129
10
574.914001
20
-156.636993
30
1034.697998
70
192
0
VERTEX
8
OBJECT__129
10
630.505981
20
-86.927002
30
1034.697998
70
192
0
VERTEX
8
OBJECT__129
10
0
20
0
30
0
70
128
71
1
72
2
73
3
0
VERTEX
8
OBJECT__129
10
0
20
0
30
0
70
128
71
4
72
1
73
5
0
VERTEX
8
OBJECT__129
10
0
20
0
30
0
70
128
71
4
72
6
73
7
0
VERTEX
8
OBJECT__129
10
0
20
0
30
0
70
128
71
8
72
9
73
7
0
VERTEX
8
OBJECT__129
10
0
20
0
30
0
70
128
71
10
72
8
73
11
0
VERTEX
8
OBJECT__129
10
0
20
0
30
0
70
128
71
12
72
10
73
13
0
VERTEX
8
OBJECT__129
10
0
20
0
30
0
70
128
71
12
72
14
73
15
0
VERTEX
8
OBJECT__129
10
0
20
0
30
0
70
128
71
16
72
17
73
15
0
VERTEX
8
OBJECT__129
10
0
20
0
30
0
70
128
71
18
72
16
73
19
0
VERTEX
8
OBJECT__129
10
0
20
0
30
0
70
128
71
20
72
18
73
21
0
VERTEX
8
OBJECT__129
10
0
20
0
30
0
70
128
71
22
72
20
73
23
0
VERTEX
8
OBJECT__129
10
0
20
0
30
0
70
128
71
24
72
22
73
25
0
VERTEX
8
OBJECT__129
10
0
20
0
30
0
70
128
71
26
72
24
73
27
0
VERTEX
8
OBJECT__129
10
0
20
0
30
0
70
128
71
2
72
26
73
28
0
VERTEX
8
OBJECT__129
10
0
20
0
30
0
70
128
71
28
72
3
73
2
0
VERTEX
8
OBJECT__129
10
0
20
0
30
0
70
128
71
27
72
28
73
26
0
VERTEX
8
OBJECT__129
10
0
20
0
30
0
70
128
71
25
72
27
73
24
0
VERTEX
8
OBJECT__129
10
0
20
0
30
0
70
128
71
23
72
25
73
22
0
VERTEX
8
OBJECT__129
10
0
20
0
30
0
70
128
71
21
72
23
73
20
0
VERTEX
8
OBJECT__129
10
0
20
0
30
0
70
128
71
19
72
21
73
18
0
VERTEX
8
OBJECT__129
10
0
20
0
30
0
70
128
71
15
72
19
73
16
0
VERTEX
8
OBJECT__129
10
0
20
0
30
0
70
128
71
15
72
17
73
12
0
VERTEX
8
OBJECT__129
10
0
20
0
30
0
70
128
71
13
72
14
73
12
0
VERTEX
8
OBJECT__129
10
0
20
0
30
0
70
128
71
11
72
13
73
10
0
VERTEX
8
OBJECT__129
10
0
20
0
30
0
70
128
71
7
72
11
73
8
0
VERTEX
8
OBJECT__129
10
0
20
0
30
0
70
128
71
7
72
9
73
4
0
VERTEX
8
OBJECT__129
10
0
20
0
30
0
70
128
71
5
72
6
73
4
0
VERTEX
8
OBJECT__129
10
0
20
0
30
0
70
128
71
3
72
5
73
1
0
SEQEND
8
OBJECT__129
0
POLYLINE
8
OBJECT__130
66
1
70
64
71
14
72
12
62
253
0
VERTEX
8
OBJECT__130
10
405.382996
20
195.481003
30
1043.998047
70
192
0
VERTEX
8
OBJECT__130
10
630.651978
20
86.997002
30
1043.998047
70
192
0
VERTEX
8
OBJECT__130
10
575.015015
20
156.764008
30
1043.998047
70
192
0
VERTEX
8
OBJECT__130
10
630.651978
20
-86.997002
30
1043.998047
70
192
0
VERTEX
8
OBJECT__130
10
650.508972
20
0.000000
30
1043.998047
70
192
0
VERTEX
8
OBJECT__130
10
269.347992
20
86.997002
30
1043.998047
70
192
0
VERTEX
8
OBJECT__130
10
324.984985
20
-156.764008
30
1043.998047
70
192
0
VERTEX
8
OBJECT__130
10
405.382996
20
-195.481003
30
1043.998047
70
192
0
VERTEX
8
OBJECT__130
10
249.492004
20
0.000000
30
1043.998047
70
192
0
VERTEX
8
OBJECT__130
10
494.617004
20
-195.481003
30
1043.998047
70
192
0
VERTEX
8
OBJECT__130
10
575.015015
20
-156.764008
30
1043.998047
70
192
0
VERTEX
8
OBJECT__130
10
269.347992
20
-86.997002
30
1043.998047
70
192
0
VERTEX
8
OBJECT__130
10
324.984985
20
156.764008
30
1043.998047
70
192
0
VERTEX
8
OBJECT__130
10
494.617004
20
195.481003
30
1043.998047
70
192
0
VERTEX
8
OBJECT__130
10
0
20
0
30
0
70
128
71
1
72
2
73
3
0
VERTEX
8
OBJECT__130
10
0
20
0
30
0
70
128
71
1
72
4
73
5
0
VERTEX
8
OBJECT__130
10
0
20
0
30
0
70
128
71
6
72
7
73
8
0
VERTEX
8
OBJECT__130
10
0
20
0
30
0
70
128
71
7
72
6
73
9
0
VERTEX
8
OBJECT__130
10
0
20
0
30
0
70
128
71
5
72
2
73
1
0
VERTEX
8
OBJECT__130
10
0
20
0
30
0
70
128
71
1
72
10
73
11
0
VERTEX
8
OBJECT__130
10
0
20
0
30
0
70
128
71
9
72
12
73
7
0
VERTEX
8
OBJECT__130
10
0
20
0
30
0
70
128
71
10
72
1
73
13
0
VERTEX
8
OBJECT__130
10
0
20
0
30
0
70
128
71
11
72
4
73
1
0
VERTEX
8
OBJECT__130
10
0
20
0
30
0
70
128
71
13
72
6
73
10
0
VERTEX
8
OBJECT__130
10
0
20
0
30
0
70
128
71
8
72
10
73
6
0
VERTEX
8
OBJECT__130
10
0
20
0
30
0
70
128
71
3
72
14
73
1
0
SEQEND
8
OBJECT__130
0
POLYLINE
8
OBJECT__131
66
1
70
64
71
8
72
8
62
253
0
VERTEX
8
OBJECT__131
10
40.500000
20
0.000000
30
-240.399994
70
192
0
VERTEX
8
OBJECT__131
10
33.500000
20
7.000000
30
-240.399994
70
192
0
VERTEX
8
OBJECT__131
10
33.500000
20
7.000000
30
-40.400002
70
192
0
VERTEX
8
OBJECT__131
10
40.500000
20
0.000000
30
-40.400002
70
192
0
VERTEX
8
OBJECT__131
10
26.500000
20
0.000000
30
-240.399994
70
192
0
VERTEX
8
OBJECT__131
10
26.500000
20
0.000000
30
-40.400002
70
192
0
VERTEX
8
OBJECT__131
10
33.500000
20
-7.000000
30
-240.399994
70
192
0
VERTEX
8
OBJECT__131
10
33.500000
20
-7.000000
30
-40.400002
70
192
0
VERTEX
8
OBJECT__131
10
0
20
0
30
0
70
128
71
1
72
2
73
3
0
VERTEX
8
OBJECT__131
10
0
20
0
30
0
70
128
71
1
72
3
73
4
0
VERTEX
8
OBJECT__131
10
0
20
0
30
0
70
128
71
2
72
5
73
6
0
VERTEX
8
OBJECT__131
10
0
20
0
30
0
70
128
71
2
72
6
73
3
0
VERTEX
8
OBJECT__131
10
0
20
0
30
0
70
128
71
5
72
7
73
8
0
VERTEX
8
OBJECT__131
10
0
20
0
30
0
70
128
71
5
72
8
73
6
0
VERTEX
8
OBJECT__131
10
0
20
0
30
0
70
128
71
7
72
1
73
4
0
VERTEX
8
OBJECT__131
10
0
20
0
30
0
70
128
71
7
72
4
73
8
0
SEQEND
8
OBJECT__131
0
ENDSEC
0
EOF
