  0
SECTION
  2
HEADER
  9
$ACADVER
  1
AC1015
  9
$ACADMAINTVER
 70
     6
  9
$DWGCODEPAGE
  3
ANSI_1252
  9
$INSBASE
 10
0.0
 20
0.0
 30
0.0
  9
$EXTMIN
 10
0.0
 20
0.0
 30
0.0
  9
$EXTMAX
 10
1682.0
 20
2378.0
 30
0.0
  9
$LIMMIN
 10
0.0
 20
0.0
  9
$LIMMAX
 10
1682.0
 20
2378.0
  9
$ORTHOMODE
 70
     0
  9
$REGENMODE
 70
     1
  9
$FILLMODE
 70
     1
  9
$QTEXTMODE
 70
     0
  9
$MIRRTEXT
 70
     1
  9
$LTSCALE
 40
1.0
  9
$ATTMODE
 70
     1
  9
$TEXTSIZE
 40
2.5
  9
$TRACEWID
 40
1.0
  9
$TEXTSTYLE
  7
Standard
  9
$CLAYER
  8
0
  9
$CELTYPE
  6
ByLayer
  9
$CECOLOR
 62
   256
  9
$CELTSCALE
 40
1.0
  9
$DISPSILH
 70
     0
  9
$DIMSCALE
 40
1.0
  9
$DIMASZ
 40
2.5
  9
$DIMEXO
 40
0.625
  9
$DIMDLI
 40
3.75
  9
$DIMRND
 40
0.0
  9
$DIMDLE
 40
0.0
  9
$DIMEXE
 40
1.25
  9
$DIMTP
 40
0.0
  9
$DIMTM
 40
0.0
  9
$DIMTXT
 40
2.5
  9
$DIMCEN
 40
2.5
  9
$DIMTSZ
 40
0.0
  9
$DIMTOL
 70
     0
  9
$DIMLIM
 70
     0
  9
$DIMTIH
 70
     0
  9
$DIMTOH
 70
     0
  9
$DIMSE1
 70
     0
  9
$DIMSE2
 70
     0
  9
$DIMTAD
 70
     1
  9
$DIMZIN
 70
     8
  9
$DIMBLK
  1

  9
$DIMASO
 70
     1
  9
$DIMSHO
 70
     1
  9
$DIMPOST
  1

  9
$DIMAPOST
  1

  9
$DIMALT
 70
     0
  9
$DIMALTD
 70
     3
  9
$DIMALTF
 40
0.0393700787
  9
$DIMLFAC
 40
1.0
  9
$DIMTOFL
 70
     1
  9
$DIMTVP
 40
0.0
  9
$DIMTIX
 70
     0
  9
$DIMSOXD
 70
     0
  9
$DIMSAH
 70
     0
  9
$DIMBLK1
  1

  9
$DIMBLK2
  1

  9
$DIMSTYLE
  2
ISO-25
  9
$DIMCLRD
 70
     0
  9
$DIMCLRE
 70
     0
  9
$DIMCLRT
 70
     0
  9
$DIMTFAC
 40
1.0
  9
$DIMGAP
 40
0.625
  9
$DIMJUST
 70
     0
  9
$DIMSD1
 70
     0
  9
$DIMSD2
 70
     0
  9
$DIMTOLJ
 70
     0
  9
$DIMTZIN
 70
     8
  9
$DIMALTZ
 70
     0
  9
$DIMALTTZ
 70
     0
  9
$DIMUPT
 70
     0
  9
$DIMDEC
 70
     2
  9
$DIMTDEC
 70
     2
  9
$DIMALTU
 70
     2
  9
$DIMALTTD
 70
     3
  9
$DIMTXSTY
  7
Standard
  9
$DIMAUNIT
 70
     0
  9
$DIMADEC
 70
     0
  9
$DIMALTRND
 40
0.0
  9
$DIMAZIN
 70
     0
  9
$DIMDSEP
 70
    44
  9
$DIMATFIT
 70
     3
  9
$DIMFRAC
 70
     0
  9
$DIMLDRBLK
  1

  9
$DIMLUNIT
 70
     2
  9
$DIMLWD
 70
    -2
  9
$DIMLWE
 70
    -2
  9
$DIMTMOVE
 70
     0
  9
$LUNITS
 70
     2
  9
$LUPREC
 70
     4
  9
$SKETCHINC
 40
1.0
  9
$FILLETRAD
 40
10.0
  9
$AUNITS
 70
     0
  9
$AUPREC
 70
     0
  9
$MENU
  1
.
  9
$ELEVATION
 40
0.0
  9
$PELEVATION
 40
0.0
  9
$THICKNESS
 40
0.0
  9
$LIMCHECK
 70
     0
  9
$CHAMFERA
 40
10.0
  9
$CHAMFERB
 40
10.0
  9
$CHAMFERC
 40
20.0
  9
$CHAMFERD
 40
0.0
  9
$SKPOLY
 70
     0
  9
$TDCREATE
 40
2455237.607967026
  9
$TDUCREATE
 40
2455237.566300359
  9
$TDUPDATE
 40
2455237.607967037
  9
$TDUUPDATE
 40
2455237.56630037
  9
$TDINDWG
 40
0.0000000116
  9
$TDUSRTIMER
 40
0.0000000116
  9
$USRTIMER
 70
     1
  9
$ANGBASE
 50
0.0
  9
$ANGDIR
 70
     0
  9
$PDMODE
 70
     0
  9
$PDSIZE
 40
0.0
  9
$PLINEWID
 40
0.0
  9
$SPLFRAME
 70
     0
  9
$SPLINETYPE
 70
     6
  9
$SPLINESEGS
 70
     8
  9
$HANDSEED
  5
1AE
  9
$SURFTAB1
 70
     6
  9
$SURFTAB2
 70
     6
  9
$SURFTYPE
 70
     6
  9
$SURFU
 70
     6
  9
$SURFV
 70
     6
  9
$UCSBASE
  2

  9
$UCSNAME
  2

  9
$UCSORG
 10
0.0
 20
0.0
 30
0.0
  9
$UCSXDIR
 10
1.0
 20
0.0
 30
0.0
  9
$UCSYDIR
 10
0.0
 20
1.0
 30
0.0
  9
$UCSORTHOREF
  2

  9
$UCSORTHOVIEW
 70
     0
  9
$UCSORGTOP
 10
0.0
 20
0.0
 30
0.0
  9
$UCSORGBOTTOM
 10
0.0
 20
0.0
 30
0.0
  9
$UCSORGLEFT
 10
0.0
 20
0.0
 30
0.0
  9
$UCSORGRIGHT
 10
0.0
 20
0.0
 30
0.0
  9
$UCSORGFRONT
 10
0.0
 20
0.0
 30
0.0
  9
$UCSORGBACK
 10
0.0
 20
0.0
 30
0.0
  9
$PUCSBASE
  2

  9
$PUCSNAME
  2

  9
$PUCSORG
 10
0.0
 20
0.0
 30
0.0
  9
$PUCSXDIR
 10
1.0
 20
0.0
 30
0.0
  9
$PUCSYDIR
 10
0.0
 20
1.0
 30
0.0
  9
$PUCSORTHOREF
  2

  9
$PUCSORTHOVIEW
 70
     0
  9
$PUCSORGTOP
 10
0.0
 20
0.0
 30
0.0
  9
$PUCSORGBOTTOM
 10
0.0
 20
0.0
 30
0.0
  9
$PUCSORGLEFT
 10
0.0
 20
0.0
 30
0.0
  9
$PUCSORGRIGHT
 10
0.0
 20
0.0
 30
0.0
  9
$PUCSORGFRONT
 10
0.0
 20
0.0
 30
0.0
  9
$PUCSORGBACK
 10
0.0
 20
0.0
 30
0.0
  9
$USERI1
 70
     0
  9
$USERI2
 70
     0
  9
$USERI3
 70
     0
  9
$USERI4
 70
     0
  9
$USERI5
 70
     0
  9
$USERR1
 40
0.0
  9
$USERR2
 40
0.0
  9
$USERR3
 40
0.0
  9
$USERR4
 40
0.0
  9
$USERR5
 40
0.0
  9
$WORLDVIEW
 70
     1
  9
$SHADEDGE
 70
     3
  9
$SHADEDIF
 70
    70
  9
$TILEMODE
 70
     1
  9
$MAXACTVP
 70
    64
  9
$PINSBASE
 10
0.0
 20
0.0
 30
0.0
  9
$PLIMCHECK
 70
     0
  9
$PEXTMIN
 10
0.0
 20
0.0
 30
0.0
  9
$PEXTMAX
 10
1682.0
 20
2378.0
 30
0.0
  9
$PLIMMIN
 10
0.0
 20
0.0
  9
$PLIMMAX
 10
1682.0
 20
2378.0
  9
$UNITMODE
 70
     0
  9
$VISRETAIN
 70
     1
  9
$PLINEGEN
 70
     0
  9
$PSLTSCALE
 70
     1
  9
$TREEDEPTH
 70
  3020
  9
$CMLSTYLE
  2
Standard
  9
$CMLJUST
 70
     0
  9
$CMLSCALE
 40
20.0
  9
$PROXYGRAPHICS
 70
     1
  9
$MEASUREMENT
 70
     1
  9
$CELWEIGHT
370
    -1
  9
$ENDCAPS
280
     0
  9
$JOINSTYLE
280
     0
  9
$LWDISPLAY
290
     0
  9
$INSUNITS
 70
     4
  9
$HYPERLINKBASE
  1

  9
$STYLESHEET
  1

  9
$XEDIT
290
     1
  9
$CEPSNTYPE
380
     0
  9
$PSTYLEMODE
290
     1
  9
$FINGERPRINTGUID
  2
{1F8BBD2D-4D0B-43ED-8319-AA7B0CEBA8F0}
  9
$VERSIONGUID
  2
{FAEB1C32-E019-11D5-929B-00C0DF256EC4}
  9
$EXTNAMES
290
     1
  9
$PSVPSCALE
 40
0.0
  9
$OLESTARTUP
290
     0
  0
ENDSEC
  0
SECTION
  2
CLASSES
  0
CLASS
  1
ACDBDICTIONARYWDFLT
  2
AcDbDictionaryWithDefault
  3
ObjectDBX Classes
 90
        0
280
     0
281
     0
  0
CLASS
  1
VISUALSTYLE
  2
AcDbVisualStyle
  3
ObjectDBX Classes
 90
     4095
280
     0
281
     0
  0
CLASS
  1
SCALE
  2
AcDbScale
  3
ObjectDBX Classes
 90
     1153
280
     0
281
     0
  0
CLASS
  1
DICTIONARYVAR
  2
AcDbDictionaryVar
  3
ObjectDBX Classes
 90
        0
280
     0
281
     0
  0
CLASS
  1
ACDBPLACEHOLDER
  2
AcDbPlaceHolder
  3
ObjectDBX Classes
 90
        0
280
     0
281
     0
  0
CLASS
  1
LAYOUT
  2
AcDbLayout
  3
ObjectDBX Classes
 90
        0
280
     0
281
     0
  0
ENDSEC
  0
SECTION
  2
TABLES
  0
TABLE
  2
VPORT
  5
8
330
0
100
AcDbSymbolTable
 70
     1
  0
VPORT
  5
29
330
8
100
AcDbSymbolTableRecord
100
AcDbViewportTableRecord
  2
*Active
 70
     0
 10
0.0
 20
0.0
 11
1.0
 21
1.0
 12
344.1869158879
 22
148.5
 13
0.0
 23
0.0
 14
10.0
 24
10.0
 15
10.0
 25
10.0
 16
0.0
 26
0.0
 36
1.0
 17
0.0
 27
0.0
 37
0.0
 40
297.0
 41
1.9729729729
 42
50.0
 43
0.0
 44
0.0
 50
0.0
 51
0.0
 71
     0
 72
   100
 73
     1
 74
     3
 75
     0
 76
     0
 77
     0
 78
     0
281
     0
 65
     1
110
0.0
120
0.0
130
0.0
111
1.0
121
0.0
131
0.0
112
0.0
122
1.0
132
0.0
 79
     0
146
0.0
  0
ENDTAB
  0
TABLE
  2
LTYPE
  5
5
330
0
100
AcDbSymbolTable
 70
     2
  0
LTYPE
  5
14
330
5
100
AcDbSymbolTableRecord
100
AcDbLinetypeTableRecord
  2
ByBlock
 70
     0
  3

 72
    65
 73
     0
 40
0.0
  0
LTYPE
  5
15
330
5
100
AcDbSymbolTableRecord
100
AcDbLinetypeTableRecord
  2
ByLayer
 70
     0
  3

 72
    65
 73
     0
 40
0.0
  0
LTYPE
  5
16
330
5
100
AcDbSymbolTableRecord
100
AcDbLinetypeTableRecord
  2
Continuous
 70
     0
  3
Solid line
 72
    65
 73
     0
 40
0.0
  0
LTYPE
  5
7F
330
5
100
AcDbSymbolTableRecord
100
AcDbLinetypeTableRecord
  2
CENTER2
 70
     0
  3
Center (.5x) ___ _ ___ _ ___ _ ___ _ ___ _ ___
 72
    65
 73
     4
 40
28.575
 49
19.05
 74
     4
 75
     0
340
0
 46
0.0
 50
0.0
 44
0.0
 45
0.0
 49
-3.175
 74
     4
 75
     0
340
0
 46
0.0
 50
0.0
 44
0.0
 45
0.0
 49
3.175
 74
     4
 75
     0
340
0
 46
0.0
 50
0.0
 44
0.0
 45
0.0
 49
-3.175
 74
     4
 75
     0
340
0
 46
0.0
 50
0.0
 44
0.0
 45
0.0
  0
ENDTAB
  0
TABLE
  2
LAYER
  5
2
330
0
100
AcDbSymbolTable
 70
    13
  0
LAYER
  5
10
330
2
100
AcDbSymbolTableRecord
100
AcDbLayerTableRecord
  2
0
 70
     0
 62
     7
  6
Continuous
370
    -3
390
F
  0
LAYER
  5
5D
330
2
100
AcDbSymbolTableRecord
100
AcDbLayerTableRecord
  2
Default
 70
     0
 62
     7
  6
Continuous
370
    -3
390
F
  0
LAYER
  5
60
330
2
100
AcDbSymbolTableRecord
100
AcDbLayerTableRecord
  2
$DDT_AUDIT_GENERATED_(60)
 70
     0
 62
     7
  6
Continuous
370
    -3
390
F
  0
LAYER
  5
65
330
2
100
AcDbSymbolTableRecord
100
AcDbLayerTableRecord
  2
$DDT_AUDIT_GENERATED_(65)
 70
     0
 62
     7
  6
Continuous
370
    -3
390
F
  0
LAYER
  5
7A
330
2
100
AcDbSymbolTableRecord
100
AcDbLayerTableRecord
  2
$DDT_AUDIT_GENERATED_(7A)
 70
     0
 62
     7
  6
Continuous
370
    -3
390
F
  0
LAYER
  5
7E
330
2
100
AcDbSymbolTableRecord
100
AcDbLayerTableRecord
  2
DV1_Standard
 70
     0
 62
     7
  6
Continuous
370
    -3
390
F
  0
LAYER
  5
A7
330
2
100
AcDbSymbolTableRecord
100
AcDbLayerTableRecord
  2
$DDT_AUDIT_GENERATED_(A7)
 70
     0
 62
     7
  6
Continuous
370
    -3
390
F
  0
LAYER
  5
B4
330
2
100
AcDbSymbolTableRecord
100
AcDbLayerTableRecord
  2
$DDT_AUDIT_GENERATED_(B4)
 70
     0
 62
     7
  6
Continuous
370
    -3
390
F
  0
LAYER
  5
B8
330
2
100
AcDbSymbolTableRecord
100
AcDbLayerTableRecord
  2
$DDT_AUDIT_GENERATED_(B8)
 70
     0
 62
     7
  6
Continuous
370
    -3
390
F
  0
LAYER
  5
E7
330
2
100
AcDbSymbolTableRecord
100
AcDbLayerTableRecord
  2
$DDT_AUDIT_GENERATED_(E7)
 70
     0
 62
     7
  6
Continuous
370
    -3
390
F
  0
LAYER
  5
F5
330
2
100
AcDbSymbolTableRecord
100
AcDbLayerTableRecord
  2
DV2_Standard
 70
     0
 62
     7
  6
Continuous
370
    -3
390
F
  0
LAYER
  5
12B
330
2
100
AcDbSymbolTableRecord
100
AcDbLayerTableRecord
  2
$DDT_AUDIT_GENERATED_(12B)
 70
     0
 62
     7
  6
Continuous
370
    -3
390
F
  0
LAYER
  5
196
330
2
100
AcDbSymbolTableRecord
100
AcDbLayerTableRecord
  2
DV3_Standard
 70
     0
 62
     7
  6
Continuous
370
    -3
390
F
  0
ENDTAB
  0
TABLE
  2
STYLE
  5
3
330
0
100
AcDbSymbolTable
 70
     2
  0
STYLE
  5
11
330
3
100
AcDbSymbolTableRecord
100
AcDbTextStyleTableRecord
  2
Standard
 70
     0
 40
0.0
 41
1.0
 50
0.0
 71
     0
 42
2.5
  3
txt
  4

  0
STYLE
  5
19D
330
3
100
AcDbSymbolTableRecord
100
AcDbTextStyleTableRecord
  2
SEACAD_seiso_ttf
 70
     0
 40
0.0
 41
1.0
 50
0.0
 71
     0
 42
0.2
  3
seiso.ttf
  4

  0
ENDTAB
  0
TABLE
  2
VIEW
  5
6
330
0
100
AcDbSymbolTable
 70
     0
  0
ENDTAB
  0
TABLE
  2
UCS
  5
7
330
0
100
AcDbSymbolTable
 70
     0
  0
ENDTAB
  0
TABLE
  2
APPID
  5
9
330
0
100
AcDbSymbolTable
 70
     1
  0
APPID
  5
12
330
9
100
AcDbSymbolTableRecord
100
AcDbRegAppTableRecord
  2
ACAD
 70
     0
  0
ENDTAB
  0
TABLE
  2
DIMSTYLE
  5
A
330
0
100
AcDbSymbolTable
 70
     1
100
AcDbDimStyleTable
  0
DIMSTYLE
105
27
330
A
100
AcDbSymbolTableRecord
100
AcDbDimStyleTableRecord
  2
ISO-25
 70
     0
 41
2.5
 42
0.625
 43
3.75
 44
1.25
 73
     0
 74
     0
 77
     1
 78
     8
140
2.5
141
2.5
143
0.0393700787
147
0.625
171
     3
172
     1
271
     2
272
     2
274
     3
278
    44
283
     0
284
     8
340
11
  0
ENDTAB
  0
TABLE
  2
BLOCK_RECORD
  5
1
330
0
100
AcDbSymbolTable
 70
     4
  0
BLOCK_RECORD
  5
1F
330
1
100
AcDbSymbolTableRecord
100
AcDbBlockTableRecord
  2
*Model_Space
340
22
  0
BLOCK_RECORD
  5
1B
330
1
100
AcDbSymbolTableRecord
100
AcDbBlockTableRecord
  2
*Paper_Space
340
1E
  0
BLOCK_RECORD
  5
5E
330
1
100
AcDbSymbolTableRecord
100
AcDbBlockTableRecord
  2
SE
340
0
102
{BLKREFS
331
5F
102
}
  0
BLOCK_RECORD
  5
8E
330
1
100
AcDbSymbolTableRecord
100
AcDbBlockTableRecord
  2
SE1
340
0
102
{BLKREFS
331
8F
102
}
  0
BLOCK_RECORD
  5
FA
330
1
100
AcDbSymbolTableRecord
100
AcDbBlockTableRecord
  2
SE2
340
0
102
{BLKREFS
331
FB
102
}
  0
ENDTAB
  0
ENDSEC
  0
SECTION
  2
BLOCKS
  0
BLOCK
  5
20
330
1F
100
AcDbEntity
  8
0
100
AcDbBlockBegin
  2
*Model_Space
 70
     0
 10
0.0
 20
0.0
 30
0.0
  3
*Model_Space
  1

  0
ENDBLK
  5
21
330
1F
100
AcDbEntity
  8
0
100
AcDbBlockEnd
  0
BLOCK
  5
1C
330
1B
100
AcDbEntity
 67
     1
  8
0
100
AcDbBlockBegin
  2
*Paper_Space
 70
     0
 10
0.0
 20
0.0
 30
0.0
  3
*Paper_Space
  1

  0
ENDBLK
  5
1D
330
1B
100
AcDbEntity
 67
     1
  8
0
100
AcDbBlockEnd
  0
BLOCK
  5
8C
330
5E
100
AcDbEntity
  8
0
100
AcDbBlockBegin
  2
SE
 70
     0
 10
0.0
 20
0.0
 30
0.0
  3
SE
  1

  0
SPLINE
  5
61
330
5E
100
AcDbEntity
  8
$DDT_AUDIT_GENERATED_(60)
  6
Continuous
 62
     7
100
AcDbSpline
210
0.0
220
0.0
230
1.0
 70
     8
 71
     3
 72
    50
 73
    46
 74
     0
 42
0.0000000000536422
 43
0.0000000001
 40
0.0460149441289802
 40
0.0460149441289802
 40
0.0460149441289802
 40
0.0460149441289802
 40
0.125
 40
0.125
 40
0.2499999999999999
 40
0.2499999999999999
 40
0.2812500000000001
 40
0.2812500000000001
 40
0.3125000000000002
 40
0.3125000000000002
 40
0.3437500000000003
 40
0.3437500000000003
 40
0.3750000000000003
 40
0.3750000000000003
 40
0.4062500000000004
 40
0.4062500000000004
 40
0.4218750000000004
 40
0.4218750000000004
 40
0.4375000000000004
 40
0.4375000000000004
 40
0.4687500000000005
 40
0.4687500000000005
 40
0.5000000000000006
 40
0.5000000000000006
 40
0.5312500000000007
 40
0.5312500000000007
 40
0.5625000000000008
 40
0.5625000000000008
 40
0.5781250000000009
 40
0.5781250000000009
 40
0.593750000000001
 40
0.593750000000001
 40
0.625000000000001
 40
0.625000000000001
 40
0.656250000000001
 40
0.656250000000001
 40
0.687500000000001
 40
0.687500000000001
 40
0.718750000000001
 40
0.718750000000001
 40
0.7500000000000009
 40
0.7500000000000009
 40
0.8750000000000004
 40
0.8750000000000004
 40
1.0
 40
1.0
 40
1.0
 40
1.0
 10
92.25830918115126
 20
424.1574367435945
 30
0.0
 10
87.43763290082217
 20
424.1786183421752
 30
0.0
 10
82.61753692674375
 20
424.2157435740059
 30
0.0
 10
70.17033013519
 20
424.3404359840005
 30
0.0
 10
62.54312605472187
 20
424.4247525458625
 30
0.0
 10
53.01433958082927
 20
424.6745084392184
 30
0.0
 10
51.10890602084216
 20
424.7334391037944
 30
0.0
 10
47.29999203420462
 20
424.9058729503153
 30
0.0
 10
45.39642394532094
 20
425.016927262822
 30
0.0
 10
41.59555635862456
 20
425.4145980483241
 30
0.0
 10
39.69857279688424
 20
425.7100938097733
 30
0.0
 10
35.91787343966452
 20
426.6723383714719
 30
0.0
 10
34.05057714289678
 20
427.3302136600249
 30
0.0
 10
30.51097649814231
 20
428.9884770324308
 30
0.0
 10
28.80106994277659
 20
430.0115377405061
 30
0.0
 10
26.53789563568215
 20
431.846755091815
 30
0.0
 10
25.82999290439426
 20
432.5095703702847
 30
0.0
 10
24.51715079118795
 20
433.9483246458447
 30
0.0
 10
23.90709604534083
 20
434.7329871763524
 30
0.0
 10
22.2905771298447
 20
437.1965535385017
 30
0.0
 10
21.49065566641922
 20
438.9757019104695
 30
0.0
 10
20.35283786815964
 20
442.7582939961671
 30
0.0
 10
20.03052486622346
 20
444.6874540945352
 30
0.0
 10
19.84089236871164
 20
448.6156386688219
 30
0.0
 10
19.98214528074338
 20
450.5782920552373
 30
0.0
 10
20.78694028696485
 20
454.3813389221246
 30
0.0
 10
21.47450874601945
 20
456.2671119346381
 30
0.0
 10
22.89198469772928
 20
458.8178558482956
 30
0.0
 10
23.42819293422768
 20
459.6284308075778
 30
0.0
 10
24.63056747832988
 20
461.168662344125
 30
0.0
 10
25.30337751216378
 20
461.9037976858364
 30
0.0
 10
27.45370646691162
 20
463.9160773844297
 30
0.0
 10
29.08688327749284
 20
465.028904189369
 30
0.0
 10
32.61100446479434
 20
466.779241498188
 30
0.0
 10
34.45857120026573
 20
467.3999012249098
 30
0.0
 10
38.27876973083384
 20
468.2689193702399
 30
0.0
 10
40.24018784120098
 20
468.5112688186077
 30
0.0
 10
44.13434839910507
 20
468.7965853427995
 30
0.0
 10
46.0841700071657
 20
468.8482552484778
 30
0.0
 10
49.98467718199462
 20
468.9232807285841
 30
0.0
 10
51.93542444709667
 20
468.9446122160307
 30
0.0
 10
61.68894378275986
 20
469.0599616382225
 30
0.0
 10
69.49214468498646
 20
469.151531540869
 30
0.0
 10
85.0994825618981
 20
469.2701299182883
 30
0.0
 10
92.9033293175779
 20
469.2989736149049
 30
0.0
 10
100.7072719850285
 20
469.3132862976424
 30
0.0
  0
SPLINE
  5
62
330
5E
100
AcDbEntity
  8
$DDT_AUDIT_GENERATED_(60)
  6
Continuous
 62
     7
100
AcDbSpline
210
0.0
220
0.0
230
1.0
 70
    12
 71
     2
 72
     6
 73
     3
 74
     0
 42
0.0000000019745264
 43
0.0000000001
 40
0.7396550051939718
 40
0.7396550051939718
 40
0.7396550051939718
 40
1.0
 40
1.0
 40
1.0
 10
102.0216883932554
 20
469.3879162731988
 30
0.0
 41
0.9914287822741968
 10
101.366530210308
 20
469.3144953985063
 30
0.0
 41
0.99420593542556
 10
100.7072719850285
 20
469.3132862976424
 30
0.0
 41
1.0
  0
SPLINE
  5
63
330
5E
100
AcDbEntity
  8
$DDT_AUDIT_GENERATED_(60)
  6
Continuous
 62
     7
100
AcDbSpline
210
0.0
220
0.0
230
1.0
 70
     8
 71
     3
 72
    46
 73
    42
 74
     0
 42
0.000000000053714
 43
0.0000000001
 40
0.0
 40
0.0
 40
0.0
 40
0.0
 40
0.125
 40
0.125
 40
0.2499999999999999
 40
0.2499999999999999
 40
0.2812499999999999
 40
0.2812499999999999
 40
0.3124999999999999
 40
0.3124999999999999
 40
0.3437499999999999
 40
0.3437499999999999
 40
0.3749999999999999
 40
0.3749999999999999
 40
0.4062499999999999
 40
0.4062499999999999
 40
0.4374999999999999
 40
0.4374999999999999
 40
0.4687499999999999
 40
0.4687499999999999
 40
0.4999999999999999
 40
0.4999999999999999
 40
0.5312499999999999
 40
0.5312499999999999
 40
0.5624999999999999
 40
0.5624999999999999
 40
0.5937499999999999
 40
0.5937499999999999
 40
0.6249999999999999
 40
0.6249999999999999
 40
0.6562499999999999
 40
0.6562499999999999
 40
0.6874999999999999
 40
0.6874999999999999
 40
0.7187499999999999
 40
0.7187499999999999
 40
0.7499999999999998
 40
0.7499999999999998
 40
0.8749999999999999
 40
0.8749999999999999
 40
0.9545165669589052
 40
0.9545165669589052
 40
0.9545165669589052
 40
0.9545165669589052
 10
131.9927350516384
 20
469.3132821239496
 30
0.0
 10
139.757655488629
 20
469.2990395825997
 30
0.0
 10
147.5223894579128
 20
469.270428433121
 30
0.0
 10
163.0511527547459
 20
469.1529924486226
 30
0.0
 10
170.8151610688186
 20
469.0619716110883
 30
0.0
 10
180.5200477273309
 20
468.9474431193887
 30
0.0
 10
182.4610351299403
 20
468.9261734670225
 30
0.0
 10
186.3427126183065
 20
468.8545452571071
 30
0.0
 10
188.2859130795938
 20
468.806189007472
 30
0.0
 10
192.1597610293657
 20
468.5370921527277
 30
0.0
 10
194.0805235621373
 20
468.311155145483
 30
0.0
 10
197.8564625752751
 20
467.4885270895737
 30
0.0
 10
199.7326680369399
 20
466.8799846592565
 30
0.0
 10
203.2174925309578
 20
465.2076135934474
 30
0.0
 10
204.8641856032926
 20
464.1260879218773
 30
0.0
 10
207.7457014473775
 20
461.5342163175383
 30
0.0
 10
208.9735162338023
 20
460.0430657881962
 30
0.0
 10
210.960197121734
 20
456.6690479213133
 30
0.0
 10
211.6686557242612
 20
454.8710123371279
 30
0.0
 10
212.5723008965522
 20
451.0749027199876
 30
0.0
 10
212.7536446779501
 20
449.1333896241269
 30
0.0
 10
212.6521948010532
 20
445.2458330508553
 30
0.0
 10
212.3690677716739
 20
443.3072972214392
 30
0.0
 10
211.3501245881028
 20
439.5816556676963
 30
0.0
 10
210.5924575672913
 20
437.7508537929638
 30
0.0
 10
208.5820848694916
 20
434.44880278392
 30
0.0
 10
207.2994355171408
 20
432.9404510484388
 30
0.0
 10
204.3724427120711
 20
430.3977068199016
 30
0.0
 10
202.7161020041726
 20
429.3386027945318
 30
0.0
 10
199.2459552390254
 20
427.6003564906545
 30
0.0
 10
197.4434744921703
 20
426.9156801907399
 30
0.0
 10
193.7209454113697
 20
425.8680421009871
 30
0.0
 10
191.7889576050554
 20
425.5203262705796
 30
0.0
 10
187.9466692463776
 20
425.0670610816816
 30
0.0
 10
186.0215048121466
 20
424.9434645268662
 30
0.0
 10
182.1688977168017
 20
424.7545330538184
 30
0.0
 10
180.2413448936513
 20
424.6920142751525
 30
0.0
 10
170.6016563308245
 20
424.4282006918947
 30
0.0
 10
162.8848554773027
 20
424.3448139619324
 30
0.0
 10
150.2587251943993
 20
424.2170655607086
 30
0.0
 10
145.3495146346789
 20
424.178971580921
 30
0.0
 10
140.4402163411554
 20
424.1574183413887
 30
0.0
  0
SPLINE
  5
64
330
5E
100
AcDbEntity
  8
$DDT_AUDIT_GENERATED_(60)
  6
Continuous
 62
     7
100
AcDbSpline
210
0.0
220
0.0
230
1.0
 70
    12
 71
     2
 72
     6
 73
     3
 74
     0
 42
0.0000000019736552
 43
0.0000000001
 40
0.7199529262666189
 40
0.7199529262666189
 40
0.7199529262666189
 40
1.0
 40
1.0
 40
1.0
 10
130.578907197448
 20
469.3994729494079
 30
0.0
 41
0.9910257245833326
 10
131.283273241129
 20
469.3145834301581
 30
0.0
 41
0.9937674568091526
 10
131.9927350516384
 20
469.3132821239496
 30
0.0
 41
1.0
  0
SPLINE
  5
66
330
5E
100
AcDbEntity
  8
$DDT_AUDIT_GENERATED_(65)
  6
Continuous
 62
     7
100
AcDbSpline
210
0.0
220
0.0
230
1.0
 70
     8
 71
     3
 72
    42
 73
    38
 74
     0
 42
0.0000000000454402
 43
0.0000000001
 40
0.1401949701300009
 40
0.1401949701300009
 40
0.1401949701300009
 40
0.1401949701300009
 40
0.2499999999999985
 40
0.2499999999999985
 40
0.3124999999999982
 40
0.3124999999999982
 40
0.3437499999999981
 40
0.3437499999999981
 40
0.374999999999998
 40
0.374999999999998
 40
0.3906249999999981
 40
0.3906249999999981
 40
0.4062499999999981
 40
0.4062499999999981
 40
0.4218749999999981
 40
0.4218749999999981
 40
0.4374999999999981
 40
0.4374999999999981
 40
0.4687499999999982
 40
0.4687499999999982
 40
0.4999999999999982
 40
0.4999999999999982
 40
0.5312499999999982
 40
0.5312499999999982
 40
0.5624999999999982
 40
0.5624999999999982
 40
0.5937499999999983
 40
0.5937499999999983
 40
0.6249999999999983
 40
0.6249999999999983
 40
0.6562499999999983
 40
0.6562499999999983
 40
0.6874999999999983
 40
0.6874999999999983
 40
0.7499999999999987
 40
0.7499999999999987
 40
0.8160672587042328
 40
0.8160672587042328
 40
0.8160672587042328
 40
0.8160672587042328
 10
139.992580850242
 20
415.5543639386042
 30
0.0
 10
139.5423294697071
 20
407.5755358976944
 30
0.0
 10
139.1105094502419
 20
399.5988864266656
 30
0.0
 10
138.6082445187591
 20
387.0673459489975
 30
0.0
 10
138.4760099331433
 20
382.5186275698461
 30
0.0
 10
138.2404747234361
 20
375.6926443801675
 30
0.0
 10
138.1567241483714
 20
373.4157165429549
 30
0.0
 10
137.8260897280361
 20
368.8823615480049
 30
0.0
 10
137.5879564878653
 20
366.6239901545301
 30
0.0
 10
136.7381023664399
 20
363.3009696941068
 30
0.0
 10
136.359893083831
 20
362.1903265896845
 30
0.0
 10
135.3988857371159
 20
360.0963000536387
 30
0.0
 10
134.8192563838045
 20
359.1106160109809
 30
0.0
 10
133.4831544819962
 20
357.2491803937825
 30
0.0
 10
132.7217691954798
 20
356.3661204211164
 30
0.0
 10
131.0911316374688
 20
354.7251313449102
 30
0.0
 10
130.2248712795002
 20
353.9660231294291
 30
0.0
 10
127.4782327598293
 20
351.8658666308275
 30
0.0
 10
125.427084531645
 20
350.7110789944846
 30
0.0
 10
121.0656731792788
 20
349.237378238768
 30
0.0
 10
118.7293277396309
 20
348.8882067003601
 30
0.0
 10
114.0611513521804
 20
348.8790767895844
 30
0.0
 10
111.7779752848464
 20
349.2034225104855
 30
0.0
 10
107.3458506874637
 20
350.6720159515554
 30
0.0
 10
105.3323659445083
 20
351.7946662356564
 30
0.0
 10
101.6290007039853
 20
354.6001107448795
 30
0.0
 10
99.97767784135104
 20
356.2122953348744
 30
0.0
 10
97.24777648956736
 20
359.9704366480734
 30
0.0
 10
96.28749421996693
 20
362.0683361091543
 30
0.0
 10
95.11742183471381
 20
366.5641305420614
 30
0.0
 10
94.87834167973108
 20
368.836494200351
 30
0.0
 10
94.54459488936654
 20
373.3830005823596
 30
0.0
 10
94.46077038840744
 20
375.660040197401
 30
0.0
 10
94.22474422136112
 20
382.489835774371
 30
0.0
 10
94.09266000823872
 20
387.041847127763
 30
0.0
 10
93.71795233831811
 20
396.3967192992526
 30
0.0
 10
93.4848977006811
 20
401.2003923477192
 30
0.0
 10
93.2316774523155
 20
406.0031478901681
 30
0.0
  0
SPLINE
  5
67
330
5E
100
AcDbEntity
  8
$DDT_AUDIT_GENERATED_(65)
  6
Continuous
 62
     7
100
AcDbSpline
210
0.0
220
0.0
230
1.0
 70
     8
 71
     3
 72
     8
 73
     4
 74
     0
 42
0.0000000001649184
 43
0.0000000001
 40
0.0
 40
0.0
 40
0.0
 40
0.0
 40
0.0092046189690273
 40
0.0092046189690273
 40
0.0092046189690273
 40
0.0092046189690273
 10
91.24047320822257
 20
434.3347886439812
 30
0.0
 10
91.35144520592605
 20
434.1854753639956
 30
0.0
 10
91.46301772001867
 20
434.0365927050172
 30
0.0
 10
91.57521471633902
 20
433.8881839725842
 30
0.0
  0
SPLINE
  5
68
330
5E
100
AcDbEntity
  8
$DDT_AUDIT_GENERATED_(65)
  6
Continuous
 62
     7
100
AcDbSpline
210
0.0
220
0.0
230
1.0
 70
     8
 71
     3
 72
     8
 73
     4
 74
     0
 42
0.0000000001651162
 43
0.0000000001
 40
0.990926279784236
 40
0.990926279784236
 40
0.990926279784236
 40
0.990926279784236
 40
1.0
 40
1.0
 40
1.0
 40
1.0
 10
141.1299875590222
 20
433.8950229818569
 30
0.0
 10
141.2403806677143
 20
434.0411122069709
 30
0.0
 10
141.3502151988608
 20
434.1877099672499
 30
0.0
 10
141.4595244028322
 20
434.334785917416
 30
0.0
  0
SPLINE
  5
69
330
5E
100
AcDbEntity
  8
$DDT_AUDIT_GENERATED_(65)
  6
Continuous
 62
     7
100
AcDbSpline
210
0.0
220
0.0
230
1.0
 70
     8
 71
     3
 72
    15
 73
    11
 74
     0
 42
0.0000000000385948
 43
0.0000000001
 40
0.4291370779563956
 40
0.4291370779563956
 40
0.4291370779563956
 40
0.4291370779563956
 40
0.4304494041223114
 40
0.434310096923039
 40
0.4381880069604266
 40
0.453732547516738
 40
0.4613221489216023
 40
0.4690937637409305
 40
0.4999371537656288
 40
0.5192732072293258
 40
0.5192732072293258
 40
0.5192732072293258
 40
0.5192732072293258
 10
100.2320935793508
 20
356.1299396071529
 30
0.0
 10
100.3082964220395
 20
356.047877335577
 30
0.0
 10
100.6109973758006
 20
355.7265721201378
 30
0.0
 10
101.155905415216
 20
355.1792923889146
 30
0.0
 10
102.6125852334012
 20
353.8278175432167
 30
0.0
 10
104.4548228694563
 20
352.4153303453282
 30
0.0
 10
106.7448435293959
 20
351.0892311408165
 30
0.0
 10
110.3482532102349
 20
349.4469966742963
 30
0.0
 10
115.3624457117136
 20
348.599936298432
 30
0.0
 10
119.7037375894233
 20
349.0624800812641
 30
0.0
 10
121.324655281401
 20
349.433964318606
 30
0.0
  0
ARC
  5
6A
330
5E
100
AcDbEntity
  8
$DDT_AUDIT_GENERATED_(65)
  6
Continuous
 62
     7
100
AcDbCircle
 10
133.8246312978
 20
440.011626424
 30
0.0
 40
9.514100633369953
100
AcDbArc
 50
323.3677597161
 51
356.8542162962
  0
ARC
  5
6B
330
5E
100
AcDbEntity
  8
$DDT_AUDIT_GENERATED_(65)
  6
Continuous
 62
     7
100
AcDbCircle
 10
98.8753613408
 20
440.0116266509
 30
0.0
 40
9.514095151620198
100
AcDbArc
 50
183.1457515189
 51
216.6322460709
  0
ARC
  5
6C
330
5E
100
AcDbEntity
  8
$DDT_AUDIT_GENERATED_(65)
  6
Continuous
 62
     7
100
AcDbCircle
 10
31.251569427
 20
442.4160308516
 30
0.0
 40
112.2776913501528
100
AcDbArc
 50
1.2517306498
 51
1.9027769716
  0
ARC
  5
6D
330
5E
100
AcDbEntity
  8
$DDT_AUDIT_GENERATED_(65)
  6
Continuous
 62
     7
100
AcDbCircle
 10
104.7547523407
 20
444.1673251069
 30
0.0
 40
38.75406348761963
100
AcDbArc
 50
357.3451924208
 51
1.0370699099
  0
ARC
  5
6E
330
5E
100
AcDbEntity
  8
$DDT_AUDIT_GENERATED_(65)
  6
Continuous
 62
     7
100
AcDbCircle
 10
-107.2001465529
 20
453.3466478624
 30
0.0
 40
250.9074850481848
100
AcDbArc
 50
356.8340566543
 51
357.4931601548
  0
ARC
  5
6F
330
5E
100
AcDbEntity
  8
$DDT_AUDIT_GENERATED_(65)
  6
Continuous
 62
     7
100
AcDbCircle
 10
209.4443487466
 20
442.1958508598
 30
0.0
 40
120.2765199912934
100
AcDbArc
 50
178.1188666902
 51
178.7266156032
  0
ARC
  5
70
330
5E
100
AcDbEntity
  8
$DDT_AUDIT_GENERATED_(65)
  6
Continuous
 62
     7
100
AcDbCircle
 10
129.0723307994
 20
444.1832253784
 30
0.0
 40
39.88069085103238
100
AcDbArc
 50
179.0150772941
 51
182.602624775
  0
ARC
  5
71
330
5E
100
AcDbEntity
  8
$DDT_AUDIT_GENERATED_(65)
  6
Continuous
 62
     7
100
AcDbCircle
 10
339.8997171491
 20
453.34654198
 30
0.0
 40
250.9070523060367
100
AcDbArc
 50
182.5068199456
 51
183.1659232547
  0
ARC
  5
72
330
5E
100
AcDbEntity
  8
$DDT_AUDIT_GENERATED_(65)
  6
Continuous
 62
     7
100
AcDbCircle
 10
116.3499999999
 20
446.4656644324
 30
0.0
 40
27.11925878156485
100
AcDbArc
 50
359.3205121447
 51
180.6794878553
  0
ELLIPSE
  5
73
330
5E
100
AcDbEntity
  8
$DDT_AUDIT_GENERATED_(65)
  6
Continuous
 62
     7
100
AcDbEllipse
 10
143.2033360278
 20
444.8758595874
 30
0.0
 11
-0.2999307457236706
 21
-0.00644575594053922
 31
0.0
210
0.0
220
0.0
230
1.0
 40
0.5298312773
 41
3.056313378367598
 42
3.142411059454817
  0
SPLINE
  5
74
330
5E
100
AcDbEntity
  8
$DDT_AUDIT_GENERATED_(65)
  6
Continuous
 62
     7
100
AcDbSpline
210
0.0
220
0.0
230
1.0
 70
     8
 71
     3
 72
    71
 73
    67
 74
     0
 42
0.0000000000988489
 43
0.0000000001
 40
0.0
 40
0.0
 40
0.0
 40
0.0
 40
0.0097143405575141
 40
0.0214699533221917
 40
0.0354731649162936
 40
0.0513401790591216
 40
0.0747842520842267
 40
0.0990361783191188
 40
0.122904563478072
 40
0.1367569183828444
 40
0.1506731891639065
 40
0.1635317981872002
 40
0.1748428669894974
 40
0.1868825940629956
 40
0.2038171107469738
 40
0.223200801240385
 40
0.2415290370071218
 40
0.2585073359921566
 40
0.2754303068561825
 40
0.2914093145515979
 40
0.315275043436367
 40
0.3419377791049229
 40
0.3680163028578488
 40
0.3994589330694886
 40
0.4325053157973449
 40
0.466261571912449
 40
0.5006344503532287
 40
0.5205377008023674
 40
0.5397926491876142
 40
0.5583241276752736
 40
0.5773394293624574
 40
0.5986146298545565
 40
0.6181635940787997
 40
0.6362072637177087
 40
0.6515639626417215
 40
0.6676212556158887
 40
0.6829198158067934
 40
0.6979263844558338
 40
0.7161648441225414
 40
0.7338106898735095
 40
0.7507050401782946
 40
0.7587303149423291
 40
0.7664403906442149
 40
0.773787385619845
 40
0.7807270866964776
 40
0.7887760006231548
 40
0.7987853618029602
 40
0.8075498240999727
 40
0.8152376707428441
 40
0.8235633857194719
 40
0.8271121794993593
 40
0.8312448483702344
 40
0.8358851118396279
 40
0.8403806450909659
 40
0.8472900067993333
 40
0.8586094501497233
 40
0.8703429283366159
 40
0.882327973253566
 40
0.8990558909763986
 40
0.914042548926527
 40
0.9209455474325562
 40
0.9271994932214146
 40
0.9324104889540791
 40
0.9365736167106957
 40
0.9395964985530542
 40
0.9397058066322798
 40
0.9397058066322798
 40
0.9397058066322798
 40
0.9397058066322798
 10
121.2985137895897
 20
349.4259687978522
 30
0.0
 10
121.6477900870095
 20
349.5123046980056
 30
0.0
 10
122.3007729176255
 20
349.6765238753556
 30
0.0
 10
123.4867041018319
 20
350.0713737511603
 30
0.0
 10
124.8177143848435
 20
350.6117384694616
 30
0.0
 10
126.4850255047077
 20
351.4397765152561
 30
0.0
 10
128.3758256390315
 20
352.6063235691464
 30
0.0
 10
130.3534045128965
 20
354.1354757624984
 30
0.0
 10
131.9287924299849
 20
355.6148804866477
 30
0.0
 10
133.1339624157784
 20
356.9493064033235
 30
0.0
 10
134.0087211536801
 20
358.0607760526041
 30
0.0
 10
134.7511421988861
 20
359.1592264388971
 30
0.0
 10
135.3815617460217
 20
360.2512087713804
 30
0.0
 10
135.9952595880663
 20
361.5121672714582
 30
0.0
 10
136.5986610464822
 20
363.0844402539252
 30
0.0
 10
137.1007980050647
 20
364.9176035054192
 30
0.0
 10
137.4536027786127
 20
366.7843251248003
 30
0.0
 10
137.6914701677954
 20
368.5822575120856
 30
0.0
 10
137.8548270837064
 20
370.3063162909452
 30
0.0
 10
137.9925009700748
 20
372.2725234732801
 30
0.0
 10
138.1084939215336
 20
374.5792877920852
 30
0.0
 10
138.2088829612129
 20
377.2381681343935
 30
0.0
 10
138.304023297972
 20
380.15894884126
 30
0.0
 10
138.403296672685
 20
383.2975793793652
 30
0.0
 10
138.5184008259327
 20
386.6981025962949
 30
0.0
 10
138.6496555712794
 20
390.1976451965556
 30
0.0
 10
138.7759653653129
 20
393.2432263315763
 30
0.0
 10
138.8887805216521
 20
395.7883991585221
 30
0.0
 10
138.9811238390308
 20
397.786030215682
 30
0.0
 10
139.0754668802535
 20
399.753582780944
 30
0.0
 10
139.1766628758622
 20
401.7914152335255
 30
0.0
 10
139.2836615333793
 20
403.864139607878
 30
0.0
 10
139.3922234395597
 20
405.903047570327
 30
0.0
 10
139.4923699466764
 20
407.7366353109267
 30
0.0
 10
139.588209080977
 20
409.4487633747032
 30
0.0
 10
139.6803289257132
 20
411.0655547354074
 30
0.0
 10
139.772669446778
 20
412.6699822865081
 30
0.0
 10
139.8694880706111
 20
414.3495156486798
 30
0.0
 10
139.9716668461719
 20
416.1103085727172
 30
0.0
 10
140.0769601800866
 20
417.9371463444054
 30
0.0
 10
140.1612449062898
 20
419.4113936238893
 30
0.0
 10
140.2257742340067
 20
420.5417258578782
 30
0.0
 10
140.2715822940603
 20
421.3412044476543
 30
0.0
 10
140.3156351271173
 20
422.1026899551599
 30
0.0
 10
140.3612256301838
 20
422.8743951659463
 30
0.0
 10
140.4131495902312
 20
423.7377083627971
 30
0.0
 10
140.4690949358984
 20
424.6657009908734
 30
0.0
 10
140.5250525499712
 20
425.5789618887272
 30
0.0
 10
140.5806590420549
 20
426.427411627954
 30
0.0
 10
140.6163132902434
 20
427.1105020845933
 30
0.0
 10
140.6479057892242
 20
427.6656041277067
 30
0.0
 10
140.6745018379863
 20
428.0873868552567
 30
0.0
 10
140.7052574860181
 20
428.5325993119119
 30
0.0
 10
140.7429167077044
 20
429.0652835577329
 30
0.0
 10
140.7996165223201
 20
429.7964718649159
 30
0.0
 10
140.8680119315891
 20
430.7782686548727
 30
0.0
 10
140.9502507954505
 20
431.8948227227287
 30
0.0
 10
141.0497351293949
 20
433.124689983788
 30
0.0
 10
141.1605977103296
 20
434.3525430417965
 30
0.0
 10
141.2593204746433
 20
435.2754699693296
 30
0.0
 10
141.3283912601495
 20
435.8501080693914
 30
0.0
 10
141.3716022289472
 20
436.1730996259611
 30
0.0
 10
141.4049921667812
 20
436.3941234368413
 30
0.0
 10
141.4256919480708
 20
436.517687225748
 30
0.0
 10
141.4348580074927
 20
436.5645107169251
 30
0.0
 10
141.4340006970352
 20
436.5616996426371
 30
0.0
 10
141.4339653410478
 20
436.5615755126304
 30
0.0
  0
LINE
  5
75
330
5E
100
AcDbEntity
  8
$DDT_AUDIT_GENERATED_(65)
  6
Continuous
 62
     7
100
AcDbLine
 10
100.2367371142
 20
356.1323836949
 30
0.0
 11
100.3603687376
 21
355.9929113084
 31
0.0
  0
SPLINE
  5
76
330
5E
100
AcDbEntity
  8
$DDT_AUDIT_GENERATED_(65)
  6
Continuous
 62
     7
100
AcDbSpline
210
0.0
220
0.0
230
1.0
 70
     8
 71
     3
 72
    12
 73
     8
 74
     0
 42
0.0000000002151277
 43
0.0000000001
 40
0.0683239233430527
 40
0.0683239233430527
 40
0.0683239233430527
 40
0.0683239233430527
 40
0.0733911018532646
 40
0.0826367620695106
 40
0.0930891355522146
 40
0.1052330868715451
 40
0.1178141442806219
 40
0.1178141442806219
 40
0.1178141442806219
 40
0.1178141442806219
 10
91.29030333867419
 20
436.3870622895383
 30
0.0
 10
91.28980352732447
 20
436.3855998727826
 30
0.0
 10
91.2989615291829
 20
436.3322234011605
 30
0.0
 10
91.33619597644407
 20
436.0832634796407
 30
0.0
 10
91.39519244160928
 20
435.6178900082566
 30
0.0
 10
91.47072979270537
 20
434.9469827109497
 30
0.0
 10
91.52674338585287
 20
434.3988268273566
 30
0.0
 10
91.55534671766961
 20
434.1023852515866
 30
0.0
  0
SPLINE
  5
77
330
5E
100
AcDbEntity
  8
$DDT_AUDIT_GENERATED_(65)
  6
Continuous
 62
     7
100
AcDbSpline
210
0.0
220
0.0
230
1.0
 70
     8
 71
     3
 72
    49
 73
    45
 74
     0
 42
0.0000000001108886
 43
0.0000000001
 40
0.1295436919554875
 40
0.1295436919554875
 40
0.1295436919554875
 40
0.1295436919554875
 40
0.1355116474147398
 40
0.1521885499037528
 40
0.1671071194474626
 40
0.1822067356648288
 40
0.1971105754300171
 40
0.2038809436054733
 40
0.2112222951793137
 40
0.2197135273826
 40
0.229501646985708
 40
0.2408296233874519
 40
0.251801131943715
 40
0.2624250455286908
 40
0.2740375516492405
 40
0.2864578219876554
 40
0.2994088194410542
 40
0.3127779041723703
 40
0.3264938456978409
 40
0.3585107595040728
 40
0.3882374756268968
 40
0.4176444957857919
 40
0.4448704988563537
 40
0.4747887313474656
 40
0.5137562523106409
 40
0.5526291940490923
 40
0.5937740621214899
 40
0.6332255587642979
 40
0.6731454732951809
 40
0.7117676758765679
 40
0.732000624995205
 40
0.7540898280435889
 40
0.7764863105918103
 40
0.7975342249805345
 40
0.8172978693846829
 40
0.8398293231483783
 40
0.8501413232658577
 40
0.860633847924212
 40
0.871158333397744
 40
0.8823123889847977
 40
0.8960236991841937
 40
0.9085457337259455
 40
0.920216079983666
 40
0.9259192741277101
 40
0.9259192741277101
 40
0.9259192741277101
 40
0.9259192741277101
 10
91.63535709394752
 20
433.2323125506833
 30
0.0
 10
91.64890572775658
 20
433.0788300979724
 30
0.0
 10
91.70023698781687
 20
432.487068993981
 30
0.0
 10
91.78454187490193
 20
431.4660159485314
 30
0.0
 10
91.87879991605456
 20
430.1288406005358
 30
0.0
 10
91.97648570054747
 20
428.8664912108204
 30
0.0
 10
92.05216767362467
 20
427.7847520708228
 30
0.0
 10
92.09532765413731
 20
426.9017636167143
 30
0.0
 10
92.13345560241235
 20
426.2184461995791
 30
0.0
 10
92.18228455363675
 20
425.4546507061813
 30
0.0
 10
92.23570566179434
 20
424.5630946074849
 30
0.0
 10
92.29345875458608
 20
423.5951078848486
 30
0.0
 10
92.35238710380409
 20
422.6042345533104
 30
0.0
 10
92.41083097273545
 20
421.6021388404569
 30
0.0
 10
92.47137940209676
 20
420.554692216284
 30
0.0
 10
92.53598243027146
 20
419.4366652507205
 30
0.0
 10
92.60352328035724
 20
418.2658879067967
 30
0.0
 10
92.67356865874585
 20
417.0565126542709
 30
0.0
 10
92.77723306854311
 20
415.271920227899
 30
0.0
 10
92.90955409275962
 20
412.9944847198283
 30
0.0
 10
93.0673631966292
 20
410.2430532009744
 30
0.0
 10
93.21379362325357
 20
407.6354013015028
 30
0.0
 10
93.3554039292988
 20
405.0207799999711
 30
0.0
 10
93.50757350168315
 20
402.1167873381154
 30
0.0
 10
93.66909290327966
 20
398.8601512117899
 30
0.0
 10
93.83619428525874
 20
395.2657822559183
 30
0.0
 10
93.99154679895845
 20
391.6595212542986
 30
0.0
 10
94.13365897275757
 20
388.0232736210761
 30
0.0
 10
94.2586592549187
 20
384.4620071795383
 30
0.0
 10
94.35431670408651
 20
381.4772406171431
 30
0.0
 10
94.43253484823127
 20
379.028710748235
 30
0.0
 10
94.49804499822955
 20
377.0698099849266
 30
0.0
 10
94.572728971128
 20
375.0857870979916
 30
0.0
 10
94.65997639773894
 20
373.1729197064323
 30
0.0
 10
94.77364804787118
 20
371.2573165553292
 30
0.0
 10
94.89868774189384
 20
369.6702369632387
 30
0.0
 10
95.03439687151082
 20
368.3676989462264
 30
0.0
 10
95.15129858326245
 20
367.4287600995008
 30
0.0
 10
95.2950349971204
 20
366.4684738653202
 30
0.0
 10
95.48563708930008
 20
365.4180594634339
 30
0.0
 10
95.73620846072359
 20
364.3170212146046
 30
0.0
 10
96.04744897375076
 20
363.2160059117925
 30
0.0
 10
96.34126318392076
 20
362.3627591431491
 30
0.0
 10
96.53306690849494
 20
361.8748180333029
 30
0.0
 10
96.59832457144012
 20
361.7155975915767
 30
0.0
  0
SPLINE
  5
78
330
5E
100
AcDbEntity
  8
$DDT_AUDIT_GENERATED_(65)
  6
Continuous
 62
     7
100
AcDbSpline
210
0.0
220
0.0
230
1.0
 70
     8
 71
     3
 72
     8
 73
     4
 74
     0
 42
0.0000000001039915
 43
0.0000000001
 40
0.9968198175213973
 40
0.9968198175213973
 40
0.9968198175213973
 40
0.9968198175213973
 40
1.0
 40
1.0
 40
1.0
 40
1.0
 10
100.030744485302
 20
356.3584095678775
 30
0.0
 10
100.0971140968205
 20
356.2852465666578
 30
0.0
 10
100.1655579970015
 20
356.21023560329
 30
0.0
 10
100.2367371142328
 20
356.1323836949339
 30
0.0
  0
ARC
  5
79
330
5E
100
AcDbEntity
  8
$DDT_AUDIT_GENERATED_(65)
  6
Continuous
 62
     7
100
AcDbCircle
 10
65.1462839544
 20
443.4666665272
 30
0.0
 40
78.36739681839656
100
AcDbArc
 50
1.0350149301
 51
1.9677789073
  0
ARC
  5
7B
330
5E
100
AcDbEntity
  8
$DDT_AUDIT_GENERATED_(7A)
  6
Continuous
 62
     7
100
AcDbCircle
 10
191.3500260073
 20
447.3387790344
 30
0.0
 40
35.0
100
AcDbArc
 50
220.996815933
 51
0.0
  0
ARC
  5
7C
330
5E
100
AcDbEntity
  8
$DDT_AUDIT_GENERATED_(7A)
  6
Continuous
 62
     7
100
AcDbCircle
 10
191.3500260073
 20
447.3387790344
 30
0.0
 40
35.0
100
AcDbArc
 50
0.0
 51
140.8243874697
  0
ARC
  5
7D
330
5E
100
AcDbEntity
  8
$DDT_AUDIT_GENERATED_(7A)
  6
Continuous
 62
     7
100
AcDbCircle
 10
41.35
 20
447.3387790344
 30
0.0
 40
35.0
100
AcDbArc
 50
38.5585142846
 51
319.0142291701
  0
LINE
  5
80
330
5E
100
AcDbEntity
  8
DV1_Standard
  6
CENTER2
 62
     7
100
AcDbLine
 10
61.349999553
 20
447.3387790344
 30
0.0
 11
21.350000447
 21
447.3387790344
 31
0.0
  0
LINE
  5
81
330
5E
100
AcDbEntity
  8
DV1_Standard
  6
CENTER2
 62
     7
100
AcDbLine
 10
41.35
 20
467.3387785874
 30
0.0
 11
41.35
 21
427.3387794815
 31
0.0
  0
LINE
  5
82
330
5E
100
AcDbEntity
  8
DV1_Standard
  6
CENTER2
 62
     7
100
AcDbLine
 10
66.3499994412
 20
447.3387790344
 30
0.0
 11
79.85
 21
447.3387790344
 31
0.0
  0
LINE
  5
83
330
5E
100
AcDbEntity
  8
DV1_Standard
  6
CENTER2
 62
     7
100
AcDbLine
 10
41.35
 20
472.3387784756
 30
0.0
 11
41.35
 21
485.8387790344
 31
0.0
  0
LINE
  5
84
330
5E
100
AcDbEntity
  8
DV1_Standard
  6
CENTER2
 62
     7
100
AcDbLine
 10
16.3500005588
 20
447.3387790344
 30
0.0
 11
2.85
 21
447.3387790344
 31
0.0
  0
LINE
  5
85
330
5E
100
AcDbEntity
  8
DV1_Standard
  6
CENTER2
 62
     7
100
AcDbLine
 10
41.35
 20
422.3387795932
 30
0.0
 11
41.35
 21
408.8387790344
 31
0.0
  0
LINE
  5
86
330
5E
100
AcDbEntity
  8
DV1_Standard
  6
CENTER2
 62
     7
100
AcDbLine
 10
211.3500255603
 20
447.3387790344
 30
0.0
 11
171.3500264544
 21
447.3387790344
 31
0.0
  0
LINE
  5
87
330
5E
100
AcDbEntity
  8
DV1_Standard
  6
CENTER2
 62
     7
100
AcDbLine
 10
191.3500260073
 20
467.3387785874
 30
0.0
 11
191.3500260073
 21
427.3387794815
 31
0.0
  0
LINE
  5
88
330
5E
100
AcDbEntity
  8
DV1_Standard
  6
CENTER2
 62
     7
100
AcDbLine
 10
216.3500254485
 20
447.3387790344
 30
0.0
 11
229.8500260073
 21
447.3387790344
 31
0.0
  0
LINE
  5
89
330
5E
100
AcDbEntity
  8
DV1_Standard
  6
CENTER2
 62
     7
100
AcDbLine
 10
191.3500260073
 20
472.3387784756
 30
0.0
 11
191.3500260073
 21
485.8387790344
 31
0.0
  0
LINE
  5
8A
330
5E
100
AcDbEntity
  8
DV1_Standard
  6
CENTER2
 62
     7
100
AcDbLine
 10
166.3500265661
 20
447.3387790344
 30
0.0
 11
152.8500260073
 21
447.3387790344
 31
0.0
  0
LINE
  5
8B
330
5E
100
AcDbEntity
  8
DV1_Standard
  6
CENTER2
 62
     7
100
AcDbLine
 10
191.3500260073
 20
422.3387795932
 30
0.0
 11
191.3500260073
 21
408.8387790344
 31
0.0
  0
ENDBLK
  5
8D
330
5E
100
AcDbEntity
  8
0
100
AcDbBlockEnd
  0
BLOCK
  5
F8
330
8E
100
AcDbEntity
  8
0
100
AcDbBlockBegin
  2
SE1
 70
     0
 10
0.0
 20
0.0
 30
0.0
  3
SE1
  1

  0
LINE
  5
90
330
8E
100
AcDbEntity
  8
$DDT_AUDIT_GENERATED_(60)
  6
Continuous
 62
     7
100
AcDbLine
 10
385.6822764859
 20
469.3132862976
 30
0.0
 11
365.6119730927
 21
469.3132862976
 31
0.0
  0
LINE
  5
91
330
8E
100
AcDbEntity
  8
$DDT_AUDIT_GENERATED_(60)
  6
Continuous
 62
     7
100
AcDbLine
 10
388.7588641367
 20
469.3132862976
 30
0.0
 11
385.6822764859
 21
469.3132862976
 31
0.0
  0
LINE
  5
92
330
8E
100
AcDbEntity
  8
$DDT_AUDIT_GENERATED_(60)
  6
Continuous
 62
     7
100
AcDbLine
 10
394.9923168429
 20
469.3132862976
 30
0.0
 11
388.7588641367
 21
469.3132862976
 31
0.0
  0
LINE
  5
93
330
8E
100
AcDbEntity
  8
$DDT_AUDIT_GENERATED_(60)
  6
Continuous
 62
     7
100
AcDbLine
 10
388.7576222701
 20
424.1375970687
 30
0.0
 11
394.8999781935
 21
424.1375970687
 31
0.0
  0
LINE
  5
94
330
8E
100
AcDbEntity
  8
$DDT_AUDIT_GENERATED_(60)
  6
Continuous
 62
     7
100
AcDbLine
 10
385.6822764858
 20
424.1375970687
 30
0.0
 11
388.7576222701
 21
424.1375970687
 31
0.0
  0
ARC
  5
95
330
8E
100
AcDbEntity
  8
$DDT_AUDIT_GENERATED_(60)
  6
Continuous
 62
     7
100
AcDbCircle
 10
769.1238346219
 20
445.8372094593
 30
0.0
 40
371.2068986158195
100
AcDbArc
 50
176.8800182325
 51
177.5556732433
  0
ARC
  5
96
330
8E
100
AcDbEntity
  8
$DDT_AUDIT_GENERATED_(60)
  6
Continuous
 62
     7
100
AcDbCircle
 10
769.1238346219
 20
445.8372094593
 30
0.0
 40
371.2068986158195
100
AcDbArc
 50
177.5556732433
 51
182.2259111251
  0
ARC
  5
97
330
8E
100
AcDbEntity
  8
$DDT_AUDIT_GENERATED_(60)
  6
Continuous
 62
     7
100
AcDbCircle
 10
769.1238346219
 20
445.8372094593
 30
0.0
 40
371.2068986158195
100
AcDbArc
 50
182.2259111251
 51
182.8482249283
  0
ARC
  5
98
330
8E
100
AcDbEntity
  8
$DDT_AUDIT_GENERATED_(60)
  6
Continuous
 62
     7
100
AcDbCircle
 10
394.9744062162
 20
465.8131638955
 30
0.0
 40
3.500168227458619
100
AcDbArc
 50
3.7306251604
 51
89.7068118652
  0
ARC
  5
99
330
8E
100
AcDbEntity
  8
$DDT_AUDIT_GENERATED_(60)
  6
Continuous
 62
     7
100
AcDbCircle
 10
394.8886216232
 20
427.6327753129
 30
0.0
 40
3.495196694127344
100
AcDbArc
 50
270.1861654001
 51
356.0462707301
  0
LINE
  5
9A
330
8E
100
AcDbEntity
  8
$DDT_AUDIT_GENERATED_(60)
  6
Continuous
 62
     7
100
AcDbLine
 10
357.6873727467
 20
424.1375970687
 30
0.0
 11
385.6822764858
 21
424.1375970687
 31
0.0
  0
LINE
  5
9B
330
8E
100
AcDbEntity
  8
$DDT_AUDIT_GENERATED_(60)
  6
Continuous
 62
     7
100
AcDbLine
 10
420.9891869594
 20
421.724638686
 30
0.0
 11
420.9891869594
 21
446.7246376938
 31
0.0
  0
LINE
  5
9C
330
8E
100
AcDbEntity
  8
$DDT_AUDIT_GENERATED_(60)
  6
Continuous
 62
     7
100
AcDbLine
 10
420.9891869594
 20
471.7246367009
 30
0.0
 11
420.9891869594
 21
446.7246376938
 31
0.0
  0
ARC
  5
9D
330
8E
100
AcDbEntity
  8
$DDT_AUDIT_GENERATED_(60)
  6
Continuous
 62
     7
100
AcDbCircle
 10
364.9891869749
 20
397.3895272918
 30
0.0
 40
25.17597905184819
100
AcDbArc
 50
67.9535732462
 51
112.0464246784
  0
LINE
  5
9E
330
8E
100
AcDbEntity
  8
$DDT_AUDIT_GENERATED_(60)
  6
Continuous
 62
     7
100
AcDbLine
 10
374.4109561926
 20
420.7246386475
 30
0.0
 11
419.9891869594
 21
420.7246386475
 31
0.0
  0
LINE
  5
9F
330
8E
100
AcDbEntity
  8
$DDT_AUDIT_GENERATED_(60)
  6
Continuous
 62
     7
100
AcDbLine
 10
353.8388706869
 20
420.7246386475
 30
0.0
 11
355.5733209221
 21
420.7246386475
 31
0.0
  0
SPLINE
  5
A0
330
8E
100
AcDbEntity
  8
$DDT_AUDIT_GENERATED_(60)
  6
Continuous
 62
     7
100
AcDbSpline
210
0.0
220
0.0
230
1.0
 70
     8
 71
     3
 72
    10
 73
     6
 74
     0
 42
0.0000000001979889
 43
0.0000000001
 40
0.0
 40
0.0
 40
0.0
 40
0.0
 40
0.0893255917912978
 40
0.1874625084483258
 40
0.1875461546437897
 40
0.1875461546437897
 40
0.1875461546437897
 40
0.1875461546437897
 10
364.3460784970493
 20
471.3657251505797
 30
0.0
 10
364.1757689698248
 20
469.7206377764118
 30
0.0
 10
363.8633791235858
 20
466.8086639260662
 30
0.0
 10
363.3680741072653
 20
463.6243008323488
 30
0.0
 10
363.0694043835605
 20
461.9853684317925
 30
0.0
 10
363.0691500031796
 20
461.9839727117074
 30
0.0
  0
SPLINE
  5
A1
330
8E
100
AcDbEntity
  8
$DDT_AUDIT_GENERATED_(60)
  6
Continuous
 62
     7
100
AcDbSpline
210
0.0
220
0.0
230
1.0
 70
     8
 71
     3
 72
    10
 73
     6
 74
     0
 42
0.0000000001978645
 43
0.0000000001
 40
0.8250651024035623
 40
0.8250651024035623
 40
0.8250651024035623
 40
0.8250651024035623
 40
0.8345436647492095
 40
0.9214826050598429
 40
1.0
 40
1.0
 40
1.0
 40
1.0
 10
354.1055251787567
 20
431.0908767946797
 30
0.0
 10
354.0645976594711
 20
430.9358395040983
 30
0.0
 10
353.6513074209685
 20
429.355868362194
 30
0.0
 10
352.9580488703609
 20
426.4294510249615
 30
0.0
 10
352.5713113913819
 20
423.8720369125359
 30
0.0
 10
352.3581223082858
 20
422.4339896770331
 30
0.0
  0
LINE
  5
A2
330
8E
100
AcDbEntity
  8
$DDT_AUDIT_GENERATED_(60)
  6
Continuous
 62
     7
100
AcDbLine
 10
419.9891869594
 20
472.7246367402
 30
0.0
 11
365.8459977623
 21
472.7246367402
 31
0.0
  0
ARC
  5
A3
330
8E
100
AcDbEntity
  8
$DDT_AUDIT_GENERATED_(60)
  6
Continuous
 62
     7
100
AcDbCircle
 10
365.8466838187
 20
471.2246367401
 30
0.0
 40
1.499999999998975
100
AcDbArc
 50
90.0273551173
 51
175.0679009354
  0
ARC
  5
A4
330
8E
100
AcDbEntity
  8
$DDT_AUDIT_GENERATED_(60)
  6
Continuous
 62
     7
100
AcDbCircle
 10
353.8221894065
 20
422.2219553169
 30
0.0
 40
1.491788010254781
100
AcDbArc
 50
171.7323960277
 51
270.6511084661
  0
ARC
  5
A5
330
8E
100
AcDbEntity
  8
$DDT_AUDIT_GENERATED_(60)
  6
Continuous
 62
     7
100
AcDbCircle
 10
419.9891869753
 20
421.7246913998
 30
0.0
 40
0.9999999848832235
100
AcDbArc
 50
270.2004789816
 51
0.0060615173
  0
ARC
  5
A6
330
8E
100
AcDbEntity
  8
$DDT_AUDIT_GENERATED_(60)
  6
Continuous
 62
     7
100
AcDbCircle
 10
419.9891869364
 20
471.7245880519
 30
0.0
 40
0.9999978549902375
100
AcDbArc
 50
359.9944057777
 51
90.3124361621
  0
LINE
  5
A8
330
8E
100
AcDbEntity
  8
$DDT_AUDIT_GENERATED_(A7)
  6
Continuous
 62
     7
100
AcDbLine
 10
355.9891869594
 20
414.8387790344
 30
0.0
 11
373.9891869594
 21
414.8387790344
 31
0.0
  0
LINE
  5
A9
330
8E
100
AcDbEntity
  8
$DDT_AUDIT_GENERATED_(A7)
  6
Continuous
 62
     7
100
AcDbLine
 10
375.4691869594
 20
413.3587790344
 30
0.0
 11
354.5091869594
 21
413.3587790344
 31
0.0
  0
LINE
  5
AA
330
8E
100
AcDbEntity
  8
$DDT_AUDIT_GENERATED_(A7)
  6
Continuous
 62
     7
100
AcDbLine
 10
374.2691869594
 20
405.9387790344
 30
0.0
 11
355.7091869594
 21
405.9387790344
 31
0.0
  0
LINE
  5
AB
330
8E
100
AcDbEntity
  8
$DDT_AUDIT_GENERATED_(A7)
  6
Continuous
 62
     7
100
AcDbLine
 10
375.4691869594
 20
407.1387790344
 30
0.0
 11
354.5091869594
 21
407.1387790344
 31
0.0
  0
LINE
  5
AC
330
8E
100
AcDbEntity
  8
$DDT_AUDIT_GENERATED_(A7)
  6
Continuous
 62
     7
100
AcDbLine
 10
354.5091869594
 20
413.3587790344
 30
0.0
 11
354.5091869594
 21
407.1387790344
 31
0.0
  0
LINE
  5
AD
330
8E
100
AcDbEntity
  8
$DDT_AUDIT_GENERATED_(A7)
  6
Continuous
 62
     7
100
AcDbLine
 10
375.4691869594
 20
407.1387790344
 30
0.0
 11
375.4691869594
 21
413.3587790344
 31
0.0
  0
LINE
  5
AE
330
8E
100
AcDbEntity
  8
$DDT_AUDIT_GENERATED_(A7)
  6
Continuous
 62
     7
100
AcDbLine
 10
355.9891869594
 20
420.893292416
 30
0.0
 11
355.9891869594
 21
414.8387790344
 31
0.0
  0
LINE
  5
AF
330
8E
100
AcDbEntity
  8
$DDT_AUDIT_GENERATED_(A7)
  6
Continuous
 62
     7
100
AcDbLine
 10
373.9891869594
 20
414.8387790344
 30
0.0
 11
373.9891869594
 21
420.893559146
 31
0.0
  0
LINE
  5
B0
330
8E
100
AcDbEntity
  8
$DDT_AUDIT_GENERATED_(A7)
  6
Continuous
 62
     7
100
AcDbLine
 10
375.4691869594
 20
413.3587790344
 30
0.0
 11
373.9891869594
 21
414.8387790344
 31
0.0
  0
LINE
  5
B1
330
8E
100
AcDbEntity
  8
$DDT_AUDIT_GENERATED_(A7)
  6
Continuous
 62
     7
100
AcDbLine
 10
355.9891869594
 20
414.8387790344
 30
0.0
 11
354.5091869594
 21
413.3587790344
 31
0.0
  0
LINE
  5
B2
330
8E
100
AcDbEntity
  8
$DDT_AUDIT_GENERATED_(A7)
  6
Continuous
 62
     7
100
AcDbLine
 10
354.5091869594
 20
407.1387790344
 30
0.0
 11
355.7091869594
 21
405.9387790344
 31
0.0
  0
LINE
  5
B3
330
8E
100
AcDbEntity
  8
$DDT_AUDIT_GENERATED_(A7)
  6
Continuous
 62
     7
100
AcDbLine
 10
374.2691869594
 20
405.9387790344
 30
0.0
 11
375.4691869594
 21
407.1387790344
 31
0.0
  0
LINE
  5
B5
330
8E
100
AcDbEntity
  8
$DDT_AUDIT_GENERATED_(B4)
  6
Continuous
 62
     7
100
AcDbLine
 10
430.5877550286
 20
419.4467965482
 30
0.0
 11
438.2620777177
 21
419.6477557602
 31
0.0
  0
LINE
  5
B6
330
8E
100
AcDbEntity
  8
$DDT_AUDIT_GENERATED_(B4)
  6
Continuous
 62
     7
100
AcDbLine
 10
430.7316415011
 20
419.762526596
 30
0.0
 11
430.5877550286
 21
419.4467965482
 31
0.0
  0
LINE
  5
B7
330
8E
100
AcDbEntity
  8
$DDT_AUDIT_GENERATED_(B4)
  6
Continuous
 62
     7
100
AcDbLine
 10
438.2620777177
 20
419.6477557602
 30
0.0
 11
438.2893233044
 21
419.7075407438
 31
0.0
  0
LINE
  5
B9
330
8E
100
AcDbEntity
  8
$DDT_AUDIT_GENERATED_(B8)
  6
Continuous
 62
     7
100
AcDbLine
 10
363.3539914259
 20
432.8387790344
 30
0.0
 11
363.3539914259
 21
461.8387790344
 31
0.0
  0
LINE
  5
BA
330
8E
100
AcDbEntity
  8
$DDT_AUDIT_GENERATED_(B8)
  6
Continuous
 62
     7
100
AcDbLine
 10
349.8539914259
 20
463.5887790344
 30
0.0
 11
349.8539914259
 21
463.4541600912
 31
0.0
  0
LINE
  5
BB
330
8E
100
AcDbEntity
  8
$DDT_AUDIT_GENERATED_(B8)
  6
Continuous
 62
     7
100
AcDbLine
 10
349.8539914259
 20
457.2041600912
 30
0.0
 11
349.8539914259
 21
453.5887790344
 31
0.0
  0
LINE
  5
BC
330
8E
100
AcDbEntity
  8
$DDT_AUDIT_GENERATED_(B8)
  6
Continuous
 62
     7
100
AcDbLine
 10
349.8539914259
 20
441.0887790344
 30
0.0
 11
349.8539914259
 21
437.4733979777
 31
0.0
  0
LINE
  5
BD
330
8E
100
AcDbEntity
  8
$DDT_AUDIT_GENERATED_(B8)
  6
Continuous
 62
     7
100
AcDbLine
 10
349.8539914259
 20
431.2233979777
 30
0.0
 11
349.8539914259
 21
431.0887790344
 31
0.0
  0
SPLINE
  5
BE
330
8E
100
AcDbEntity
  8
$DDT_AUDIT_GENERATED_(B8)
  6
Continuous
 62
     7
100
AcDbSpline
210
0.0
220
0.0
230
1.0
 70
     8
 71
     3
 72
    14
 73
    10
 74
     0
 42
0.0000000011014719
 43
0.0000000001
 40
0.0
 40
0.0
 40
0.0
 40
0.0
 40
0.25
 40
0.25
 40
0.5
 40
0.5
 40
0.75
 40
0.75
 40
1.0
 40
1.0
 40
1.0
 40
1.0
 10
349.8539914258795
 20
437.4733979776599
 30
0.0
 10
348.8761848574264
 20
437.1260801290326
 30
0.0
 10
348.1793263632455
 20
436.6281528164492
 30
0.0
 10
347.2726444113759
 20
435.5382447518809
 30
0.0
 10
347.0586973110568
 20
434.9443705704759
 30
0.0
 10
347.0578301580149
 20
433.755965467087
 30
0.0
 10
347.265148716284
 20
433.17041168469
 30
0.0
 10
348.1757472122073
 20
432.0701299415835
 30
0.0
 10
348.8772620247231
 20
431.5703332154097
 30
0.0
 10
349.8539914258795
 20
431.2233979776598
 30
0.0
  0
SPLINE
  5
BF
330
8E
100
AcDbEntity
  8
$DDT_AUDIT_GENERATED_(B8)
  6
Continuous
 62
     7
100
AcDbSpline
210
0.0
220
0.0
230
1.0
 70
     8
 71
     3
 72
    14
 73
    10
 74
     0
 42
0.0000000006969408
 43
0.0000000001
 40
0.0
 40
0.0
 40
0.0
 40
0.0
 40
0.25
 40
0.25
 40
0.5
 40
0.5
 40
0.75
 40
0.75
 40
1.0
 40
1.0
 40
1.0
 40
1.0
 10
349.8539914258795
 20
453.5887790344265
 30
0.0
 10
348.8783629831098
 20
452.8956906819143
 30
0.0
 10
348.1723842944624
 20
451.8881305140835
 30
0.0
 10
347.2666705300662
 20
449.6974850617097
 30
0.0
 10
347.0563681333763
 20
448.5132707582203
 30
0.0
 10
347.0601829715133
 20
446.1331827493958
 30
0.0
 10
347.275482214063
 20
444.9501591398522
 30
0.0
 10
348.1806685287012
 20
442.7781561000097
 30
0.0
 10
348.8857024901732
 20
441.7766533867764
 30
0.0
 10
349.8539914258795
 20
441.0887790344265
 30
0.0
  0
SPLINE
  5
C0
330
8E
100
AcDbEntity
  8
$DDT_AUDIT_GENERATED_(B8)
  6
Continuous
 62
     7
100
AcDbSpline
210
0.0
220
0.0
230
1.0
 70
     8
 71
     3
 72
    14
 73
    10
 74
     0
 42
0.0000000011014719
 43
0.0000000001
 40
0.0
 40
0.0
 40
0.0
 40
0.0
 40
0.25
 40
0.25
 40
0.5
 40
0.5
 40
0.75
 40
0.75
 40
1.0
 40
1.0
 40
1.0
 40
1.0
 10
349.8539914258795
 20
463.454160091193
 30
0.0
 10
348.8761848574264
 20
463.1068422425657
 30
0.0
 10
348.1793263632455
 20
462.6089149299823
 30
0.0
 10
347.2726444113758
 20
461.5190068654141
 30
0.0
 10
347.0586973110568
 20
460.9251326840091
 30
0.0
 10
347.0578301580149
 20
459.7367275806202
 30
0.0
 10
347.2651487162839
 20
459.1511737982231
 30
0.0
 10
348.1757472122073
 20
458.0508920551167
 30
0.0
 10
348.8772620247231
 20
457.5510953289428
 30
0.0
 10
349.8539914258795
 20
457.204160091193
 30
0.0
  0
LINE
  5
C1
330
8E
100
AcDbEntity
  8
$DDT_AUDIT_GENERATED_(B8)
  6
Continuous
 62
     7
100
AcDbLine
 10
359.8539914259
 20
463.4541600912
 30
0.0
 11
359.8539914259
 21
463.5887790344
 31
0.0
  0
LINE
  5
C2
330
8E
100
AcDbEntity
  8
$DDT_AUDIT_GENERATED_(B8)
  6
Continuous
 62
     7
100
AcDbLine
 10
359.8539914259
 20
457.2041600912
 30
0.0
 11
359.8539914259
 21
453.5887790344
 31
0.0
  0
LINE
  5
C3
330
8E
100
AcDbEntity
  8
$DDT_AUDIT_GENERATED_(B8)
  6
Continuous
 62
     7
100
AcDbLine
 10
359.8539914259
 20
441.0887790344
 30
0.0
 11
359.8539914259
 21
437.4733979777
 31
0.0
  0
LINE
  5
C4
330
8E
100
AcDbEntity
  8
$DDT_AUDIT_GENERATED_(B8)
  6
Continuous
 62
     7
100
AcDbLine
 10
359.8539914259
 20
431.2233979777
 30
0.0
 11
359.8539914259
 21
431.0887790344
 31
0.0
  0
SPLINE
  5
C5
330
8E
100
AcDbEntity
  8
$DDT_AUDIT_GENERATED_(B8)
  6
Continuous
 62
     7
100
AcDbSpline
210
0.0
220
0.0
230
1.0
 70
     8
 71
     3
 72
    14
 73
    10
 74
     0
 42
0.0000000011014719
 43
0.0000000001
 40
0.0
 40
0.0
 40
0.0
 40
0.0
 40
0.2499999999999999
 40
0.2499999999999999
 40
0.4999999999999999
 40
0.4999999999999999
 40
0.7499999999999999
 40
0.7499999999999999
 40
1.0
 40
1.0
 40
1.0
 40
1.0
 10
359.8539914258795
 20
463.454160091193
 30
0.0
 10
360.8317979943327
 20
463.1068422425658
 30
0.0
 10
361.5286564885135
 20
462.6089149299823
 30
0.0
 10
362.4353384403832
 20
461.5190068654141
 30
0.0
 10
362.6492855407023
 20
460.9251326840091
 30
0.0
 10
362.6501526937442
 20
459.7367275806202
 30
0.0
 10
362.4428341354751
 20
459.1511737982231
 30
0.0
 10
361.5322356395518
 20
458.0508920551167
 30
0.0
 10
360.8307208270359
 20
457.5510953289428
 30
0.0
 10
359.8539914258795
 20
457.204160091193
 30
0.0
  0
LINE
  5
C6
330
8E
100
AcDbEntity
  8
$DDT_AUDIT_GENERATED_(B8)
  6
Continuous
 62
     7
100
AcDbLine
 10
359.8539914259
 20
457.2041600912
 30
0.0
 11
349.8539914259
 21
457.2041600912
 31
0.0
  0
LINE
  5
C7
330
8E
100
AcDbEntity
  8
$DDT_AUDIT_GENERATED_(B8)
  6
Continuous
 62
     7
100
AcDbLine
 10
349.8539914259
 20
453.5887790344
 30
0.0
 11
359.8539914259
 21
453.5887790344
 31
0.0
  0
SPLINE
  5
C8
330
8E
100
AcDbEntity
  8
$DDT_AUDIT_GENERATED_(B8)
  6
Continuous
 62
     7
100
AcDbSpline
210
0.0
220
0.0
230
1.0
 70
     8
 71
     3
 72
    14
 73
    10
 74
     0
 42
0.0000000006969408
 43
0.0000000001
 40
0.0
 40
0.0
 40
0.0
 40
0.0
 40
0.25
 40
0.25
 40
0.5
 40
0.5
 40
0.75
 40
0.75
 40
1.0
 40
1.0
 40
1.0
 40
1.0
 10
359.8539914258795
 20
453.5887790344265
 30
0.0
 10
360.8296198686493
 20
452.8956906819143
 30
0.0
 10
361.5355985572967
 20
451.8881305140835
 30
0.0
 10
362.4413123216929
 20
449.6974850617097
 30
0.0
 10
362.6516147183829
 20
448.5132707582203
 30
0.0
 10
362.6477998802459
 20
446.1331827493958
 30
0.0
 10
362.4325006376961
 20
444.9501591398522
 30
0.0
 10
361.5273143230579
 20
442.7781561000097
 30
0.0
 10
360.8222803615859
 20
441.7766533867764
 30
0.0
 10
359.8539914258795
 20
441.0887790344265
 30
0.0
  0
LINE
  5
C9
330
8E
100
AcDbEntity
  8
$DDT_AUDIT_GENERATED_(B8)
  6
Continuous
 62
     7
100
AcDbLine
 10
359.8539914259
 20
441.0887790344
 30
0.0
 11
349.8539914259
 21
441.0887790344
 31
0.0
  0
LINE
  5
CA
330
8E
100
AcDbEntity
  8
$DDT_AUDIT_GENERATED_(B8)
  6
Continuous
 62
     7
100
AcDbLine
 10
349.8539914259
 20
437.4733979777
 30
0.0
 11
359.8539914259
 21
437.4733979777
 31
0.0
  0
SPLINE
  5
CB
330
8E
100
AcDbEntity
  8
$DDT_AUDIT_GENERATED_(B8)
  6
Continuous
 62
     7
100
AcDbSpline
210
0.0
220
0.0
230
1.0
 70
     8
 71
     3
 72
    14
 73
    10
 74
     0
 42
0.0000000011014719
 43
0.0000000001
 40
0.0
 40
0.0
 40
0.0
 40
0.0
 40
0.2500000000000001
 40
0.2500000000000001
 40
0.5000000000000001
 40
0.5000000000000001
 40
0.7500000000000002
 40
0.7500000000000002
 40
1.0
 40
1.0
 40
1.0
 40
1.0
 10
359.8539914258795
 20
437.4733979776599
 30
0.0
 10
360.8317979943327
 20
437.1260801290326
 30
0.0
 10
361.5286564885135
 20
436.6281528164492
 30
0.0
 10
362.4353384403832
 20
435.5382447518809
 30
0.0
 10
362.6492855407023
 20
434.9443705704759
 30
0.0
 10
362.6501526937442
 20
433.755965467087
 30
0.0
 10
362.4428341354751
 20
433.17041168469
 30
0.0
 10
361.5322356395518
 20
432.0701299415835
 30
0.0
 10
360.8307208270359
 20
431.5703332154097
 30
0.0
 10
359.8539914258795
 20
431.2233979776598
 30
0.0
  0
LINE
  5
CC
330
8E
100
AcDbEntity
  8
$DDT_AUDIT_GENERATED_(B8)
  6
Continuous
 62
     7
100
AcDbLine
 10
349.8539914259
 20
431.0887790344
 30
0.0
 11
359.8539914259
 21
431.0887790344
 31
0.0
  0
ARC
  5
CD
330
8E
100
AcDbEntity
  8
$DDT_AUDIT_GENERATED_(B8)
  6
Continuous
 62
     7
100
AcDbCircle
 10
357.2182902277
 20
453.942376638
 30
0.0
 40
10.0
100
AcDbArc
 50
52.1519040322
 51
74.7179936136
  0
ARC
  5
CE
330
8E
100
AcDbEntity
  8
$DDT_AUDIT_GENERATED_(B8)
  6
Continuous
 62
     7
100
AcDbCircle
 10
357.2182902277
 20
440.7351814309
 30
0.0
 40
9.999999999999996
100
AcDbArc
 50
285.2820063864
 51
307.8480959678
  0
ARC
  5
CF
330
8E
100
AcDbEntity
  8
$DDT_AUDIT_GENERATED_(B8)
  6
Continuous
 62
     7
100
AcDbCircle
 10
352.4896926241
 20
453.942376638
 30
0.0
 40
10.0
100
AcDbArc
 50
105.2820063864
 51
127.8480959678
  0
ARC
  5
D0
330
8E
100
AcDbEntity
  8
$DDT_AUDIT_GENERATED_(B8)
  6
Continuous
 62
     7
100
AcDbCircle
 10
352.4896926241
 20
440.7351814309
 30
0.0
 40
10.0
100
AcDbArc
 50
232.1519040322
 51
254.7179936136
  0
LINE
  5
D1
330
8E
100
AcDbEntity
  8
$DDT_AUDIT_GENERATED_(B8)
  6
Continuous
 62
     7
100
AcDbLine
 10
359.8539914259
 20
463.5887790344
 30
0.0
 11
349.8539914259
 21
463.5887790344
 31
0.0
  0
SPLINE
  5
D2
330
8E
100
AcDbEntity
  8
$DDT_AUDIT_GENERATED_(65)
  6
Continuous
 62
     7
100
AcDbSpline
210
0.0
220
0.0
230
1.0
 70
     8
 71
     3
 72
     8
 73
     4
 74
     0
 42
0.000000000045199
 43
0.0000000001
 40
0.8571390477144739
 40
0.8571390477144739
 40
0.8571390477144739
 40
0.8571390477144739
 40
0.8577372346265181
 40
0.8577372346265181
 40
0.8577372346265181
 40
0.8577372346265181
 10
450.6392831877094
 20
424.8272462021788
 30
0.0
 10
450.626945475687
 20
424.8696552368864
 30
0.0
 10
450.6144649301912
 20
424.911957188551
 30
0.0
 10
450.6018327186706
 20
424.9541814212192
 30
0.0
  0
LINE
  5
D3
330
8E
100
AcDbEntity
  8
$DDT_AUDIT_GENERATED_(65)
  6
Continuous
 62
     7
100
AcDbLine
 10
422.9869580428
 20
420.0956688862
 30
0.0
 11
422.9869580428
 21
434.5136960549
 31
0.0
  0
LINE
  5
D4
330
8E
100
AcDbEntity
  8
$DDT_AUDIT_GENERATED_(65)
  6
Continuous
 62
     7
100
AcDbLine
 10
422.9869580428
 20
434.5136960549
 30
0.0
 11
422.9869580428
 21
439.5058810777
 31
0.0
  0
LINE
  5
D5
330
8E
100
AcDbEntity
  8
$DDT_AUDIT_GENERATED_(65)
  6
Continuous
 62
     7
100
AcDbLine
 10
422.9869580428
 20
439.5058810769
 30
0.0
 11
422.9869580428
 21
442.3852390455
 31
0.0
  0
ARC
  5
D6
330
8E
100
AcDbEntity
  8
$DDT_AUDIT_GENERATED_(65)
  6
Continuous
 62
     7
100
AcDbCircle
 10
427.9869580428
 20
442.3852390455
 30
0.0
 40
4.999999999999892
100
AcDbArc
 50
148.0
 51
180.0
  0
LINE
  5
D7
330
8E
100
AcDbEntity
  8
$DDT_AUDIT_GENERATED_(65)
  6
Continuous
 62
     7
100
AcDbLine
 10
441.5486832123
 20
473.5239356815
 30
0.0
 11
424.5417562669
 21
446.307163258
 31
0.0
  0
LINE
  5
D8
330
8E
100
AcDbEntity
  8
$DDT_AUDIT_GENERATED_(65)
  6
Continuous
 62
     7
100
AcDbLine
 10
423.746717562
 20
445.0348353666
 30
0.0
 11
424.5417564268
 21
446.3071635138
 31
0.0
  0
LINE
  5
D9
330
8E
100
AcDbEntity
  8
$DDT_AUDIT_GENERATED_(65)
  6
Continuous
 62
     7
100
AcDbLine
 10
448.1287712354
 20
473.578987568
 30
0.0
 11
441.7967851775
 21
473.6781829473
 31
0.0
  0
SPLINE
  5
DA
330
8E
100
AcDbEntity
  8
$DDT_AUDIT_GENERATED_(65)
  6
Continuous
 62
     7
100
AcDbSpline
210
0.0
220
0.0
230
1.0
 70
     8
 71
     3
 72
    21
 73
    17
 74
     0
 42
0.0000000005519891
 43
0.0000000001
 40
0.0120178281676371
 40
0.0120178281676371
 40
0.0120178281676371
 40
0.0120178281676371
 40
0.0134554182466061
 40
0.0573960947606492
 40
0.096213910356557
 40
0.1807201568317262
 40
0.2545375980755952
 40
0.3205671983099693
 40
0.3807692511775171
 40
0.4257009996805079
 40
0.4681399243717559
 40
0.5081688100715063
 40
0.5469417946439887
 40
0.598300578646663
 40
0.6838184871765414
 40
0.7456971681866688
 40
0.7456971681866688
 40
0.7456971681866688
 40
0.7456971681866688
 10
438.2893200187427
 20
419.7075439470844
 30
0.0
 10
438.2976366084055
 20
419.7074625093189
 30
0.0
 10
438.5602021691325
 20
419.7048859625563
 30
0.0
 10
439.0834532290211
 20
419.6994014091118
 30
0.0
 10
440.0867604094632
 20
419.6887205539113
 30
0.0
 10
441.2803620781673
 20
419.6756611627119
 30
0.0
 10
442.6340566972198
 20
419.6578267294965
 30
0.0
 10
443.8420484716518
 20
419.6360546584713
 30
0.0
 10
444.8752583010548
 20
419.6110436762551
 30
0.0
 10
445.7659463995102
 20
419.5834033485646
 30
0.0
 10
446.534672455566
 20
419.5538751363164
 30
0.0
 10
447.2659674756906
 20
419.5192243568058
 30
0.0
 10
448.0506025492831
 20
419.4736152609705
 30
0.0
 10
449.1085803189847
 20
419.3961937229924
 30
0.0
 10
450.302160108711
 20
419.2737365943959
 30
0.0
 10
451.18439582422
 20
419.1427089035159
 30
0.0
 10
451.5526201090004
 20
419.0784961786919
 30
0.0
  0
ARC
  5
DB
330
8E
100
AcDbEntity
  8
$DDT_AUDIT_GENERATED_(65)
  6
Continuous
 62
     7
100
AcDbCircle
 10
410.3100000925
 20
-3363.0874967884
 30
0.0
 40
3782.905177322652
100
AcDbArc
 50
89.6906928666
 51
89.8034686808
  0
SPLINE
  5
DC
330
8E
100
AcDbEntity
  8
$DDT_AUDIT_GENERATED_(65)
  6
Continuous
 62
     7
100
AcDbSpline
210
0.0
220
0.0
230
1.0
 70
     8
 71
     3
 72
    26
 73
    22
 74
     0
 42
0.000000000110594
 43
0.0000000001
 40
0.0
 40
0.0
 40
0.0
 40
0.0
 40
0.0505948366449222
 40
0.1096419518522131
 40
0.172060203896853
 40
0.2372741533986093
 40
0.3047082965123764
 40
0.3737274977314193
 40
0.4433297802374309
 40
0.5123735569757577
 40
0.5797168394351315
 40
0.6442176202722898
 40
0.7047703127852699
 40
0.7428143285828027
 40
0.780551467200585
 40
0.8191430910396341
 40
0.859770630897347
 40
0.8939033526394361
 40
0.9306245664209235
 40
0.9705281004612678
 40
1.0
 40
1.0
 40
1.0
 40
1.0
 10
463.8177925505685
 20
382.3555576121738
 30
0.0
 10
463.6321848767192
 20
384.0226490455319
 30
0.0
 10
463.2920452357271
 20
387.0728607980567
 30
0.0
 10
462.6829311790094
 20
392.3315855213785
 30
0.0
 10
462.0242864772782
 20
397.8867561692484
 30
0.0
 10
461.3154742418682
 20
403.7324109365778
 30
0.0
 10
460.5696157863329
 20
409.7619930037498
 30
0.0
 10
459.7926020890862
 20
415.9243377278151
 30
0.0
 10
458.9997494686699
 20
422.13264148206
 30
0.0
 10
458.2078970645701
 20
428.2904006606381
 30
0.0
 10
457.435375265253
 20
434.2955518989082
 30
0.0
 10
456.6970202368264
 20
440.0471053648433
 30
0.0
 10
456.0845611501004
 20
444.9244529997136
 30
0.0
 10
455.5631359871629
 20
449.0003285185728
 30
0.0
 10
455.0783501495287
 20
452.4132937902132
 30
0.0
 10
454.5041805325469
 20
455.8920220826135
 30
0.0
 10
453.8502324945647
 20
459.2442762387654
 30
0.0
 10
453.1125396724092
 20
462.5276448428518
 30
0.0
 10
452.3024698047183
 20
465.7464338897418
 30
0.0
 10
451.4329927557077
 20
468.8991130234556
 30
0.0
 10
450.8658502846627
 20
470.7601796371119
 30
0.0
 10
450.579678219911
 20
471.6944274328509
 30
0.0
  0
ARC
  5
DD
330
8E
100
AcDbEntity
  8
$DDT_AUDIT_GENERATED_(65)
  6
Continuous
 62
     7
100
AcDbCircle
 10
272.3478652662
 20
348.9053053987
 30
0.0
 40
193.8225123097145
100
AcDbArc
 50
0.7734133409
 51
3.9540487481
  0
ARC
  5
DE
330
8E
100
AcDbEntity
  8
$DDT_AUDIT_GENERATED_(65)
  6
Continuous
 62
     7
100
AcDbCircle
 10
463.571857458
 20
351.4779163244
 30
0.0
 40
2.583193138584619
100
AcDbArc
 50
269.6460408705
 51
0.9676352327
  0
ARC
  5
DF
330
8E
100
AcDbEntity
  8
$DDT_AUDIT_GENERATED_(65)
  6
Continuous
 62
     7
100
AcDbCircle
 10
448.093564269
 20
470.979652884
 30
0.0
 40
2.594938221175108
100
AcDbArc
 50
16.0453254283
 51
89.1815500649
  0
SPLINE
  5
E0
330
8E
100
AcDbEntity
  8
$DDT_AUDIT_GENERATED_(65)
  6
Continuous
 62
     7
100
AcDbSpline
210
0.0
220
0.0
230
1.0
 70
     8
 71
     3
 72
    57
 73
    53
 74
     0
 42
0.000000000134146
 43
0.0000000001
 40
0.0
 40
0.0
 40
0.0
 40
0.0
 40
0.0244511103842675
 40
0.0436488390958311
 40
0.0657656690301107
 40
0.0893355427280726
 40
0.1132939452555396
 40
0.1356550937023512
 40
0.1525327950013508
 40
0.1667780035968005
 40
0.1782483905994293
 40
0.1879710799056784
 40
0.1963383582254175
 40
0.2060721120690333
 40
0.2178410213050939
 40
0.232734369104439
 40
0.2512855219935543
 40
0.2970271601684648
 40
0.3400403727743216
 40
0.3872079134702754
 40
0.4344597509468014
 40
0.4813374122211102
 40
0.5078136418488643
 40
0.5311123244725164
 40
0.5544038877150145
 40
0.5769546679165365
 40
0.597147824080588
 40
0.6104738382606626
 40
0.6213222378889148
 40
0.6308334564635355
 40
0.6430733798093367
 40
0.6584177214621049
 40
0.6710179164045611
 40
0.6846721347737051
 40
0.6989969347754782
 40
0.7174485922145225
 40
0.7317176705518936
 40
0.745208844877414
 40
0.7583723666290317
 40
0.7712417934829995
 40
0.7859410725798534
 40
0.807481050048941
 40
0.8306150304351472
 40
0.8561003016064389
 40
0.8820560677778673
 40
0.8999165355244125
 40
0.9185845486023981
 40
0.9379042367723557
 40
0.9532111247526336
 40
0.9686131956330445
 40
0.9836638087533058
 40
1.0
 40
1.0
 40
1.0
 40
1.0
 10
450.5744958426806
 20
425.0438307293979
 30
0.0
 10
450.7579416370488
 20
424.3107995548397
 30
0.0
 10
451.0339481315434
 20
423.2055088183582
 30
0.0
 10
451.2731958210562
 20
421.3191860534129
 30
0.0
 10
451.4922564877484
 20
419.5022301493123
 30
0.0
 10
451.738135462968
 20
417.5386803507876
 30
0.0
 10
452.0010683916009
 20
415.5747338763684
 30
0.0
 10
452.2437082051206
 20
413.8028707163488
 30
0.0
 10
452.451378162366
 20
412.3039292390202
 30
0.0
 10
452.6171524736989
 20
411.1104675005541
 30
0.0
 10
452.7548893180651
 20
410.1175712399408
 30
0.0
 10
452.8694733671407
 20
409.2890981991417
 30
0.0
 10
452.9771076732215
 20
408.5093579767278
 30
0.0
 10
453.0915325337622
 20
407.6717201249858
 30
0.0
 10
453.2297496811078
 20
406.6507425283002
 30
0.0
 10
453.3999505425855
 20
405.3820892130312
 30
0.0
 10
453.6947678962696
 20
403.1590830416204
 30
0.0
 10
454.0869839970539
 20
400.1439421823674
 30
0.0
 10
454.5850242656248
 20
396.3228181356236
 30
0.0
 10
455.1148190683701
 20
392.4640147493372
 30
0.0
 10
455.678856953065
 20
388.5000890192447
 30
0.0
 10
456.1530886814087
 20
385.1149445815964
 30
0.0
 10
456.5087938804058
 20
382.3981274538934
 30
0.0
 10
456.7626202941845
 20
380.3422059680388
 30
0.0
 10
456.9872704656098
 20
378.3944585899441
 30
0.0
 10
457.1900110726006
 20
376.5325980710379
 30
0.0
 10
457.3568327757725
 20
374.9511490332745
 30
0.0
 10
457.4883126237585
 20
373.6997457284069
 30
0.0
 10
457.5888980929641
 20
372.7499138458589
 30
0.0
 10
457.6872953979714
 20
371.8313770075766
 30
0.0
 10
457.8010973481162
 20
370.7855741037949
 30
0.0
 10
457.9286080836559
 20
369.6534113565986
 30
0.0
 10
458.0655197527192
 20
368.4830566100144
 30
0.0
 10
458.2035226495517
 20
367.3442979761267
 30
0.0
 10
458.3659155316774
 20
366.0484432642982
 30
0.0
 10
458.537147903677
 20
364.7488406715311
 30
0.0
 10
458.7083588590263
 20
363.4949777322943
 30
0.0
 10
458.8620497496362
 20
362.4087533295609
 30
0.0
 10
459.0119886244688
 20
361.3896587914033
 30
0.0
 10
459.1662096974476
 20
360.3744200512072
 30
0.0
 10
459.3513240403372
 20
359.2053375969566
 30
0.0
 10
459.560698543708
 20
357.8782996776438
 30
0.0
 10
459.7696569248335
 20
356.4655963466365
 30
0.0
 10
459.9486427396204
 20
355.1057548550256
 30
0.0
 10
460.0850472973572
 20
353.9865449275197
 30
0.0
 10
460.1963535691759
 20
353.1058862815458
 30
0.0
 10
460.28361972344
 20
352.4401130500644
 30
0.0
 10
460.3530405798315
 20
351.9416196076735
 30
0.0
 10
460.402697391015
 20
351.5951278784507
 30
0.0
 10
460.4359335524406
 20
351.3704634047616
 30
0.0
 10
460.4592847346541
 20
351.2201546110272
 30
0.0
 10
460.4648980022462
 20
351.190909358177
 30
0.0
 10
460.4680305071639
 20
351.1753289094725
 30
0.0
  0
ARC
  5
E1
330
8E
100
AcDbEntity
  8
$DDT_AUDIT_GENERATED_(65)
  6
Continuous
 62
     7
100
AcDbCircle
 10
463.4608054252
 20
351.9835965734
 30
0.0
 40
3.099999929729891
100
AcDbArc
 50
195.1043276902
 51
269.999999386
  0
ARC
  5
E2
330
8E
100
AcDbEntity
  8
$DDT_AUDIT_GENERATED_(65)
  6
Continuous
 62
     7
100
AcDbCircle
 10
462.9350065542
 20
362.0720423176
 30
0.0
 40
2.784261836641914
100
AcDbArc
 50
4.055073419
 51
8.7014070721
  0
ARC
  5
E3
330
8E
100
AcDbEntity
  8
$DDT_AUDIT_GENERATED_(65)
  6
Continuous
 62
     7
100
AcDbCircle
 10
460.453578055
 20
382.0190388473
 30
0.0
 40
3.381505951248861
100
AcDbArc
 50
1.9283130135
 51
6.270079256
  0
ARC
  5
E4
330
8E
100
AcDbEntity
  8
$DDT_AUDIT_GENERATED_(65)
  6
Continuous
 62
     7
100
AcDbCircle
 10
641.0966566035
 20
388.9602019921
 30
0.0
 40
177.3949539094394
100
AcDbArc
 50
182.2074936698
 51
188.5795693746
  0
ARC
  5
E5
330
8E
100
AcDbEntity
  8
$DDT_AUDIT_GENERATED_(65)
  6
Continuous
 62
     7
100
AcDbCircle
 10
441.8030984081
 20
473.3649612249
 30
0.0
 40
0.299999949575243
100
AcDbArc
 50
91.3716532662
 51
148.0012368175
  0
ARC
  5
E6
330
8E
100
AcDbEntity
  8
$DDT_AUDIT_GENERATED_(65)
  6
Continuous
 62
     7
100
AcDbCircle
 10
423.286958043
 20
420.0956694644
 30
0.0
 40
0.2999999826938787
100
AcDbArc
 50
179.9994205523
 51
270.2837807467
  0
LINE
  5
E8
330
8E
100
AcDbEntity
  8
$DDT_AUDIT_GENERATED_(E7)
  6
Continuous
 62
     7
100
AcDbLine
 10
420.9891869594
 20
471.7603697113
 30
0.0
 11
420.9891869594
 21
421.7171883576
 31
0.0
  0
ARC
  5
E9
330
8E
100
AcDbEntity
  8
$DDT_AUDIT_GENERATED_(E7)
  6
Continuous
 62
     7
100
AcDbCircle
 10
412.8891869594
 20
446.7387790344
 30
0.0
 40
26.3
100
AcDbArc
 50
35.3912834026
 51
72.0621734783
  0
ARC
  5
EA
330
8E
100
AcDbEntity
  8
$DDT_AUDIT_GENERATED_(E7)
  6
Continuous
 62
     7
100
AcDbCircle
 10
412.8891869594
 20
446.7387790344
 30
0.0
 40
26.29999999999999
100
AcDbArc
 50
287.9378265217
 51
292.5875859326
  0
LINE
  5
EB
330
8E
100
AcDbEntity
  8
$DDT_AUDIT_GENERATED_(7A)
  6
Continuous
 62
     7
100
AcDbLine
 10
320.3539914259
 20
482.3387790344
 30
0.0
 11
320.3539914259
 21
412.3387790344
 31
0.0
  0
LINE
  5
EC
330
8E
100
AcDbEntity
  8
$DDT_AUDIT_GENERATED_(7A)
  6
Continuous
 62
     7
100
AcDbLine
 10
320.3539914259
 20
412.3387790344
 30
0.0
 11
343.1369364898
 21
412.3387790344
 31
0.0
  0
LINE
  5
ED
330
8E
100
AcDbEntity
  8
$DDT_AUDIT_GENERATED_(7A)
  6
Continuous
 62
     7
100
AcDbLine
 10
343.1369364898
 20
482.3387790344
 30
0.0
 11
320.3539914259
 21
482.3387790344
 31
0.0
  0
ARC
  5
EE
330
8E
100
AcDbEntity
  8
$DDT_AUDIT_GENERATED_(7A)
  6
Continuous
 62
     7
100
AcDbCircle
 10
-103.6460085741
 20
447.3387790344
 30
0.0
 40
450.0000000000001
100
AcDbArc
 50
1.6665978934
 51
4.2242740157
  0
ARC
  5
EF
330
8E
100
AcDbEntity
  8
$DDT_AUDIT_GENERATED_(7A)
  6
Continuous
 62
     7
100
AcDbCircle
 10
-103.6460085741
 20
447.3387790344
 30
0.0
 40
450.0000000000002
100
AcDbArc
 50
355.7757259843
 51
358.3334021066
  0
ARC
  5
F0
330
8E
100
AcDbEntity
  8
$DDT_AUDIT_GENERATED_(7A)
  6
Continuous
 62
     7
100
AcDbCircle
 10
343.1369364898
 20
414.3387790344
 30
0.0
 40
2.000000000000002
100
AcDbArc
 50
270.0
 51
355.7757259844
  0
ARC
  5
F1
330
8E
100
AcDbEntity
  8
$DDT_AUDIT_GENERATED_(7A)
  6
Continuous
 62
     7
100
AcDbCircle
 10
343.1369364898
 20
480.3387790344
 30
0.0
 40
2.000000000000142
100
AcDbArc
 50
4.2242740156
 51
90.0
  0
ARC
  5
F2
330
8E
100
AcDbEntity
  8
$DDT_AUDIT_GENERATED_(7A)
  6
Continuous
 62
     7
100
AcDbCircle
 10
345.1640576875
 20
434.2802790344
 30
0.0
 40
1.000000000000043
100
AcDbArc
 50
358.3334021067
 51
0.0
  0
ARC
  5
F3
330
8E
100
AcDbEntity
  8
$DDT_AUDIT_GENERATED_(7A)
  6
Continuous
 62
     7
100
AcDbCircle
 10
345.1640576875
 20
460.3972790344
 30
0.0
 40
1.000000000000001
100
AcDbArc
 50
0.0
 51
1.6665978933
  0
LINE
  5
F4
330
8E
100
AcDbEntity
  8
$DDT_AUDIT_GENERATED_(7A)
  6
Continuous
 62
     7
100
AcDbLine
 10
346.1640576875
 20
434.2802790344
 30
0.0
 11
346.1640576875
 21
460.3972790344
 31
0.0
  0
LINE
  5
F6
330
8E
100
AcDbEntity
  8
DV2_Standard
  6
CENTER2
 62
     7
100
AcDbLine
 10
340.3539909788
 20
447.3387790344
 30
0.0
 11
300.3539918729
 21
447.3387790344
 31
0.0
  0
LINE
  5
F7
330
8E
100
AcDbEntity
  8
DV2_Standard
  6
CENTER2
 62
     7
100
AcDbLine
 10
320.3539914259
 20
467.3387785874
 30
0.0
 11
320.3539914259
 21
427.3387794815
 31
0.0
  0
ENDBLK
  5
F9
330
8E
100
AcDbEntity
  8
0
100
AcDbBlockEnd
  0
BLOCK
  5
19B
330
FA
100
AcDbEntity
  8
0
100
AcDbBlockBegin
  2
SE2
 70
     0
 10
0.0
 20
0.0
 30
0.0
  3
SE2
  1

  0
SPLINE
  5
FC
330
FA
100
AcDbEntity
  8
$DDT_AUDIT_GENERATED_(60)
  6
Continuous
 62
     7
100
AcDbSpline
210
0.0
220
0.0
230
1.0
 70
     8
 71
     3
 72
     8
 73
     4
 74
     0
 42
0.0000000086709334
 43
0.0000000001
 40
0.5053146625397492
 40
0.5053146625397492
 40
0.5053146625397492
 40
0.5053146625397492
 40
0.5061817558767701
 40
0.5061817558767701
 40
0.5061817558767701
 40
0.5061817558767701
 10
19.90793985512727
 20
177.8760649668959
 30
0.0
 10
19.90755709123053
 20
177.8760965047277
 30
0.0
 10
19.90735935912877
 20
177.8761273613141
 30
0.0
 10
19.90734719449019
 20
177.8761575286884
 30
0.0
  0
LINE
  5
FD
330
FA
100
AcDbEntity
  8
$DDT_AUDIT_GENERATED_(60)
  6
Continuous
 62
     7
100
AcDbLine
 10
90.3500009537
 20
168.4101131163
 30
0.0
 11
90.3500009537
 21
152.5171067989
 31
0.0
  0
ARC
  5
FE
330
FA
100
AcDbEntity
  8
$DDT_AUDIT_GENERATED_(60)
  6
Continuous
 62
     7
100
AcDbCircle
 10
85.3500011048
 20
168.4101131163
 30
0.0
 40
4.99999984886363
100
AcDbArc
 50
0.0
 51
70.3993136161
  0
ARC
  5
FF
330
FA
100
AcDbEntity
  8
$DDT_AUDIT_GENERATED_(60)
  6
Continuous
 62
     7
100
AcDbCircle
 10
58.739039094
 20
320.1924276023
 30
0.0
 40
111.9255738881744
100
AcDbArc
 50
280.4774587355
 51
290.5915116725
  0
ARC
  5
100
330
FA
100
AcDbEntity
  8
$DDT_AUDIT_GENERATED_(60)
  6
Continuous
 62
     7
100
AcDbCircle
 10
164.7052569378
 20
3029.0277917161
 30
0.0
 40
2820.829668193158
100
AcDbArc
 50
269.3359222356
 51
270.2379279268
  0
ARC
  5
101
330
FA
100
AcDbEntity
  8
$DDT_AUDIT_GENERATED_(60)
  6
Continuous
 62
     7
100
AcDbCircle
 10
173.9610381548
 20
320.1933236906
 30
0.0
 40
111.9264358433892
100
AcDbArc
 50
249.3891746119
 51
262.3852967018
  0
SPLINE
  5
102
330
FA
100
AcDbEntity
  8
$DDT_AUDIT_GENERATED_(60)
  6
Continuous
 62
     7
100
AcDbSpline
210
0.0
220
0.0
230
1.0
 70
     8
 71
     3
 72
    12
 73
     8
 74
     0
 42
0.0000000004281715
 43
0.0000000001
 40
0.0
 40
0.0
 40
0.0
 40
0.0
 40
0.2499999999999999
 40
0.2499999999999999
 40
0.3749999999999999
 40
0.3749999999999999
 40
0.4452007447416896
 40
0.4452007447416896
 40
0.4452007447416896
 40
0.4452007447416896
 10
176.4190730600136
 20
208.2224451048812
 30
0.0
 10
173.0470426956317
 20
208.3346841705612
 30
0.0
 10
170.3481519544594
 20
208.4657732962195
 30
0.0
 10
167.6430346353664
 20
208.6338239796145
 30
0.0
 10
166.9597110183512
 20
208.6868328260239
 30
0.0
 10
166.2902552509336
 20
208.7542444136811
 30
0.0
 10
166.1257795068549
 20
208.7756622844246
 30
0.0
 10
166.0400627647466
 20
208.7923984210208
 30
0.0
  0
SPLINE
  5
103
330
FA
100
AcDbEntity
  8
$DDT_AUDIT_GENERATED_(60)
  6
Continuous
 62
     7
100
AcDbSpline
210
0.0
220
0.0
230
1.0
 70
     8
 71
     3
 72
    14
 73
    10
 74
     0
 42
0.0000000004168571
 43
0.0000000001
 40
0.5078100101127738
 40
0.5078100101127738
 40
0.5078100101127738
 40
0.5078100101127738
 40
0.6249999999999999
 40
0.6249999999999999
 40
0.75
 40
0.75
 40
0.8749999999999999
 40
0.8749999999999999
 40
1.0
 40
1.0
 40
1.0
 40
1.0
 10
166.0003126948661
 20
208.8246859331594
 30
0.0
 10
166.0939874666549
 20
208.8361982822133
 30
0.0
 10
166.4052357010204
 20
208.8300696383564
 30
0.0
 10
167.505405873796
 20
208.7740292837423
 30
0.0
 10
168.3138969907031
 20
208.7208281446776
 30
0.0
 10
170.3603663014547
 20
208.594540952045
 30
0.0
 10
171.6195482168505
 20
208.5229748039685
 30
0.0
 10
174.4539417983895
 20
208.4071786656694
 30
0.0
 10
176.0479841085381
 20
208.3625506420955
 30
0.0
 10
177.7943654134413
 20
208.3325502142512
 30
0.0
  0
LINE
  5
104
330
FA
100
AcDbEntity
  8
$DDT_AUDIT_GENERATED_(60)
  6
Continuous
 62
     7
100
AcDbLine
 10
211.7111036162
 20
208.1523023323
 30
0.0
 11
210.6778907776
 21
208.1523023323
 31
0.0
  0
LINE
  5
105
330
FA
100
AcDbEntity
  8
$DDT_AUDIT_GENERATED_(60)
  6
Continuous
 62
     7
100
AcDbLine
 10
177.6493574779
 20
208.1523023323
 30
0.0
 11
210.6778907776
 21
208.1523023323
 31
0.0
  0
ELLIPSE
  5
106
330
FA
100
AcDbEntity
  8
$DDT_AUDIT_GENERATED_(60)
  6
Continuous
 62
     7
100
AcDbEllipse
 10
177.7929890433
 20
207.3328685983
 30
0.0
 11
-0.01717420591625107
 21
-0.9998525124490347
 31
0.0
210
0.0
220
0.0
230
1.0
 40
0.5311082833
 41
2.802287629299501
 42
3.171332161353247
  0
ARC
  5
107
330
FA
100
AcDbEntity
  8
$DDT_AUDIT_GENERATED_(60)
  6
Continuous
 62
     7
100
AcDbCircle
 10
67.994371219
 20
3029.0668111806
 30
0.0
 40
2820.868689718939
100
AcDbArc
 50
269.7620807787
 51
270.6640762685
  0
LINE
  5
108
330
FA
100
AcDbEntity
  8
$DDT_AUDIT_GENERATED_(60)
  6
Continuous
 62
     7
100
AcDbLine
 10
21.9354473597
 20
208.1523023323
 30
0.0
 11
55.0505468576
 21
208.1523023323
 31
0.0
  0
LINE
  5
109
330
FA
100
AcDbEntity
  8
$DDT_AUDIT_GENERATED_(60)
  6
Continuous
 62
     7
100
AcDbLine
 10
21.9354473597
 20
208.1523023323
 30
0.0
 11
20.906473929
 21
208.1523023323
 31
0.0
  0
SPLINE
  5
10A
330
FA
100
AcDbEntity
  8
$DDT_AUDIT_GENERATED_(60)
  6
Continuous
 62
     7
100
AcDbSpline
210
0.0
220
0.0
230
1.0
 70
     8
 71
     3
 72
    12
 73
     8
 74
     0
 42
0.0000000004148412
 43
0.0000000001
 40
0.0
 40
0.0
 40
0.0
 40
0.0
 40
0.2500000000000001
 40
0.2500000000000001
 40
0.375
 40
0.375
 40
0.4896792337935774
 40
0.4896792337935774
 40
0.4896792337935774
 40
0.4896792337935774
 10
54.90503245199199
 20
208.3325398710167
 30
0.0
 10
58.40049814292209
 20
208.392580092825
 30
0.0
 10
61.31894446967886
 20
208.5315184236345
 30
0.0
 10
64.39289330619813
 20
208.7212652483869
 30
0.0
 10
65.20837156120172
 20
208.7748065551646
 30
0.0
 10
66.28297208145794
 20
208.829398893326
 30
0.0
 10
66.59681018231306
 20
208.8358842409077
 30
0.0
 10
66.6955844781548
 20
208.8251361847578
 30
0.0
  0
SPLINE
  5
10B
330
FA
100
AcDbEntity
  8
$DDT_AUDIT_GENERATED_(60)
  6
Continuous
 62
     7
100
AcDbSpline
210
0.0
220
0.0
230
1.0
 70
     8
 71
     3
 72
    14
 73
    10
 74
     0
 42
0.0000000004248042
 43
0.0000000001
 40
0.5590741721794075
 40
0.5590741721794075
 40
0.5590741721794075
 40
0.5590741721794075
 40
0.6249999999999999
 40
0.6249999999999999
 40
0.7499999999999999
 40
0.7499999999999999
 40
0.875
 40
0.875
 40
1.0
 40
1.0
 40
1.0
 40
1.0
 10
66.64220646618263
 20
208.7888773100541
 30
0.0
 10
66.55200616549415
 20
208.7726572956098
 30
0.0
 10
66.3921086419436
 20
208.7523859595318
 30
0.0
 10
65.72629759261378
 20
208.6855840876556
 30
0.0
 10
65.04572472995004
 20
208.6330369778894
 30
0.0
 10
63.24027028555646
 20
208.5210548856507
 30
0.0
 10
62.09366376002344
 20
208.4599415037167
 30
0.0
 10
59.46065399424572
 20
208.3391318828067
 30
0.0
 10
57.96861068004633
 20
208.2786196967655
 30
0.0
 10
56.28082164999848
 20
208.2224416002871
 30
0.0
  0
LINE
  5
10C
330
FA
100
AcDbEntity
  8
$DDT_AUDIT_GENERATED_(60)
  6
Continuous
 62
     7
100
AcDbLine
 10
141.3499990463
 20
151.5171067989
 30
0.0
 11
91.3500009537
 21
151.5171067989
 31
0.0
  0
LINE
  5
10D
330
FA
100
AcDbEntity
  8
$DDT_AUDIT_GENERATED_(60)
  6
Continuous
 62
     7
100
AcDbLine
 10
142.3499990463
 20
152.5171067989
 30
0.0
 11
142.3499990463
 21
168.4101131163
 31
0.0
  0
SPLINE
  5
10E
330
FA
100
AcDbEntity
  8
$DDT_AUDIT_GENERATED_(60)
  6
Continuous
 62
     7
100
AcDbSpline
210
0.0
220
0.0
230
1.0
 70
     8
 71
     3
 72
    10
 73
     6
 74
     0
 42
0.0000000062094565
 43
0.0000000001
 40
0.0
 40
0.0
 40
0.0
 40
0.0
 40
0.5
 40
0.5
 40
1.0
 40
1.0
 40
1.0
 40
1.0
 10
141.349999046326
 20
151.5171067988763
 30
0.0
 10
141.6117984341252
 20
151.5171067988763
 30
0.0
 10
141.8719857050893
 20
151.6248798952665
 30
0.0
 10
142.2422259499358
 20
151.995120140113
 30
0.0
 10
142.349999046326
 20
152.2553074110772
 30
0.0
 10
142.349999046326
 20
152.5171067988763
 30
0.0
  0
SPLINE
  5
10F
330
FA
100
AcDbEntity
  8
$DDT_AUDIT_GENERATED_(60)
  6
Continuous
 62
     7
100
AcDbSpline
210
0.0
220
0.0
230
1.0
 70
     8
 71
     3
 72
    10
 73
     6
 74
     0
 42
0.0000000062094565
 43
0.0000000001
 40
0.0
 40
0.0
 40
0.0
 40
0.0
 40
0.5
 40
0.5
 40
1.0
 40
1.0
 40
1.0
 40
1.0
 10
90.35000095367401
 20
152.5171067988764
 30
0.0
 10
90.35000095367401
 20
152.2553074110772
 30
0.0
 10
90.45777405006419
 20
151.995120140113
 30
0.0
 10
90.82801429491073
 20
151.6248798952665
 30
0.0
 10
91.08820156587487
 20
151.5171067988763
 30
0.0
 10
91.35000095367401
 20
151.5171067988763
 30
0.0
  0
LINE
  5
110
330
FA
100
AcDbEntity
  8
$DDT_AUDIT_GENERATED_(60)
  6
Continuous
 62
     7
100
AcDbLine
 10
212.7111278629
 20
177.8733283888
 30
0.0
 11
212.7111278629
 21
207.1523023323
 31
0.0
  0
ARC
  5
111
330
FA
100
AcDbEntity
  8
$DDT_AUDIT_GENERATED_(60)
  6
Continuous
 62
     7
100
AcDbCircle
 10
65.1662780622
 20
284.1005895012
 30
0.0
 40
75.30088171177965
100
AcDbArc
 50
271.0995135235
 51
280.6621141625
  0
ARC
  5
112
330
FA
100
AcDbEntity
  8
$DDT_AUDIT_GENERATED_(60)
  6
Continuous
 62
     7
100
AcDbCircle
 10
65.1662780622
 20
284.1005895012
 30
0.0
 40
75.30088171177965
100
AcDbArc
 50
270.3642629822
 51
270.517626999
  0
ARC
  5
113
330
FA
100
AcDbEntity
  8
$DDT_AUDIT_GENERATED_(60)
  6
Continuous
 62
     7
100
AcDbCircle
 10
167.16029674
 20
280.8615471117
 30
0.0
 40
72.05210066775078
100
AcDbArc
 50
269.5823452744
 51
269.8406192718
  0
ARC
  5
114
330
FA
100
AcDbEntity
  8
$DDT_AUDIT_GENERATED_(60)
  6
Continuous
 62
     7
100
AcDbCircle
 10
167.16029674
 20
280.8615471117
 30
0.0
 40
72.05210066775078
100
AcDbArc
 50
258.8715631174
 51
269.1627266531
  0
ARC
  5
115
330
FA
100
AcDbEntity
  8
$DDT_AUDIT_GENERATED_(60)
  6
Continuous
 62
     7
100
AcDbCircle
 10
93.9068092038
 20
2711.2554659099
 30
0.0
 40
2537.859379358299
100
AcDbArc
 50
268.4065673132
 51
269.8080893694
  0
LINE
  5
116
330
FA
100
AcDbEntity
  8
$DDT_AUDIT_GENERATED_(60)
  6
Continuous
 62
     7
100
AcDbLine
 10
19.9075024521
 20
207.1523023323
 30
0.0
 11
19.9075024521
 21
177.8760882514
 31
0.0
  0
ARC
  5
117
330
FA
100
AcDbEntity
  8
$DDT_AUDIT_GENERATED_(60)
  6
Continuous
 62
     7
100
AcDbCircle
 10
138.8996294983
 20
2705.8534526223
 30
0.0
 40
2532.456921562441
100
AcDbArc
 50
270.1899119204
 51
271.5922080678
  0
ARC
  5
118
330
FA
100
AcDbEntity
  8
$DDT_AUDIT_GENERATED_(60)
  6
Continuous
 62
     7
100
AcDbCircle
 10
23.3541821023
 20
177.851506477
 30
0.0
 40
3.475104532460452
100
AcDbArc
 50
179.6235466559
 51
267.301215236
  0
ARC
  5
119
330
FA
100
AcDbEntity
  8
$DDT_AUDIT_GENERATED_(60)
  6
Continuous
 62
     7
100
AcDbCircle
 10
209.226627733
 20
177.8446313837
 30
0.0
 40
3.472137781719666
100
AcDbArc
 50
273.0660222057
 51
0.4870623153
  0
ARC
  5
11A
330
FA
100
AcDbEntity
  8
$DDT_AUDIT_GENERATED_(60)
  6
Continuous
 62
     7
100
AcDbCircle
 10
85.396691165
 20
168.8823115088
 30
0.0
 40
4.52699597334064
100
AcDbArc
 50
68.9507451672
 51
90.1308415854
  0
ARC
  5
11B
330
FA
100
AcDbEntity
  8
$DDT_AUDIT_GENERATED_(60)
  6
Continuous
 62
     7
100
AcDbCircle
 10
147.34897296
 20
168.4104465747
 30
0.0
 40
4.998973924753758
100
AcDbArc
 50
90.4048950237
 51
180.0038219364
  0
ARC
  5
11C
330
FA
100
AcDbEntity
  8
$DDT_AUDIT_GENERATED_(60)
  6
Continuous
 62
     7
100
AcDbCircle
 10
-44.0369159768
 20
625.528043905
 30
0.0
 40
433.9607881933147
100
AcDbArc
 50
289.4109156328
 51
289.7212303246
  0
ARC
  5
11D
330
FA
100
AcDbEntity
  8
$DDT_AUDIT_GENERATED_(60)
  6
Continuous
 62
     7
100
AcDbCircle
 10
231.6776573881
 20
-140.4435254066
 30
0.0
 40
380.1229165334896
100
AcDbArc
 50
109.3478933397
 51
109.8825287547
  0
ARC
  5
11E
330
FA
100
AcDbEntity
  8
$DDT_AUDIT_GENERATED_(60)
  6
Continuous
 62
     7
100
AcDbCircle
 10
116.3544809727
 20
190.5199068414
 30
0.0
 40
29.65328630468857
100
AcDbArc
 50
69.0577137697
 51
110.9543186474
  0
ARC
  5
11F
330
FA
100
AcDbEntity
  8
$DDT_AUDIT_GENERATED_(60)
  6
Continuous
 62
     7
100
AcDbCircle
 10
-36.7479953618
 20
-247.8069626715
 30
0.0
 40
493.9382836936761
100
AcDbArc
 50
70.0780613591
 51
70.6443866275
  0
ARC
  5
120
330
FA
100
AcDbEntity
  8
$DDT_AUDIT_GENERATED_(60)
  6
Continuous
 62
     7
100
AcDbCircle
 10
221.2063884213
 20
467.9817669604
 30
0.0
 40
266.914850896807
100
AcDbArc
 50
250.3742351111
 51
250.5923163899
  0
LINE
  5
121
330
FA
100
AcDbEntity
  8
$DDT_AUDIT_GENERATED_(60)
  6
Continuous
 62
     7
100
AcDbLine
 10
134.5896350181
 20
215.5116964714
 30
0.0
 11
132.5146707364
 21
216.2358721372
 31
0.0
  0
ARC
  5
122
330
FA
100
AcDbEntity
  8
$DDT_AUDIT_GENERATED_(60)
  6
Continuous
 62
     7
100
AcDbCircle
 10
211.7110857397
 20
207.1523023359
 30
0.0
 40
0.9999999964060309
100
AcDbArc
 50
0.0558127679
 51
90.0048299309
  0
SPLINE
  5
123
330
FA
100
AcDbEntity
  8
$DDT_AUDIT_GENERATED_(60)
  6
Continuous
 62
     7
100
AcDbSpline
210
0.0
220
0.0
230
1.0
 70
     8
 71
     3
 72
    11
 73
     7
 74
     0
 42
0.0000000083841947
 43
0.0000000001
 40
0.0
 40
0.0
 40
0.0
 40
0.0
 40
0.2983533636141321
 40
0.7526886571578372
 40
0.9305980370368614
 40
1.0
 40
1.0
 40
1.0
 40
1.0
 10
177.6290179177918
 20
208.1554831581399
 30
0.0
 10
177.4955086413914
 20
208.1572431286389
 30
0.0
 10
177.20897948508
 20
208.1609778744155
 30
0.0
 10
176.8292054599032
 20
208.1951418015168
 30
0.0
 10
176.555867719502
 20
208.2197634395432
 30
0.0
 10
176.467888740353
 20
208.2216765738507
 30
0.0
 10
176.4390013041832
 20
208.2223024398664
 30
0.0
  0
SPLINE
  5
124
330
FA
100
AcDbEntity
  8
$DDT_AUDIT_GENERATED_(60)
  6
Continuous
 62
     7
100
AcDbSpline
210
0.0
220
0.0
230
1.0
 70
     8
 71
     3
 72
    12
 73
     8
 74
     0
 42
0.0000000041246764
 43
0.0000000001
 40
0.0
 40
0.0
 40
0.0
 40
0.0
 40
0.0990772082207034
 40
0.4718963010121114
 40
0.748492971998782
 40
0.9320607848195797
 40
1.0
 40
1.0
 40
1.0
 40
1.0
 10
180.2229158743771
 20
208.1551602555403
 30
0.0
 10
180.1337703602689
 20
208.154693069432
 30
0.0
 10
179.7707639693996
 20
208.1531095906045
 30
0.0
 10
179.1368988123028
 20
208.2010683872759
 30
0.0
 10
178.4741969902309
 20
208.272109043415
 30
0.0
 10
178.0479772373592
 20
208.3284283940677
 30
0.0
 10
177.8654842155258
 20
208.3278264221317
 30
0.0
 10
177.8078025082494
 20
208.3276827862935
 30
0.0
  0
ARC
  5
125
330
FA
100
AcDbEntity
  8
$DDT_AUDIT_GENERATED_(60)
  6
Continuous
 62
     7
100
AcDbCircle
 10
166.0274287106
 20
207.9739567133
 30
0.0
 40
0.8221170875190194
100
AcDbArc
 50
77.3769347438
 51
77.5068547332
  0
ARC
  5
126
330
FA
100
AcDbEntity
  8
$DDT_AUDIT_GENERATED_(60)
  6
Continuous
 62
     7
100
AcDbCircle
 10
174.6040532917
 20
-1.0562963854
 30
0.0
 40
229.6815741660817
100
AcDbArc
 50
108.9054155829
 51
109.4631151486
  0
ARC
  5
127
330
FA
100
AcDbEntity
  8
$DDT_AUDIT_GENERATED_(60)
  6
Continuous
 62
     7
100
AcDbCircle
 10
20.9075296547
 20
207.152302327
 30
0.0
 40
0.9999988106738826
100
AcDbArc
 50
89.996881529
 51
180.129398618
  0
ARC
  5
128
330
FA
100
AcDbEntity
  8
$DDT_AUDIT_GENERATED_(60)
  6
Continuous
 62
     7
100
AcDbCircle
 10
54.9470691539
 20
221.0458709709
 30
0.0
 40
12.88941103073768
100
AcDbArc
 50
270.460148797
 51
275.7961495234
  0
ARC
  5
129
330
FA
100
AcDbEntity
  8
$DDT_AUDIT_GENERATED_(60)
  6
Continuous
 62
     7
100
AcDbCircle
 10
66.6970306677
 20
207.9101577854
 30
0.0
 40
0.8895365489194268
100
AcDbArc
 50
102.7624525915
 51
103.7670685944
  0
SPLINE
  5
12A
330
FA
100
AcDbEntity
  8
$DDT_AUDIT_GENERATED_(60)
  6
Continuous
 62
     7
100
AcDbSpline
210
0.0
220
0.0
230
1.0
 70
     8
 71
     3
 72
    12
 73
     8
 74
     0
 42
0.0000000040939003
 43
0.0000000001
 40
0.0
 40
0.0
 40
0.0
 40
0.0
 40
0.0385030410352394
 40
0.1736247759188065
 40
0.392064713790758
 40
0.6671767273926713
 40
1.0
 40
1.0
 40
1.0
 40
1.0
 10
54.89034058736269
 20
208.3308520302174
 30
0.0
 10
54.85740497265655
 20
208.3307158312058
 30
0.0
 10
54.73029389188642
 20
208.330193849271
 30
0.0
 10
54.41442359369232
 20
208.2959206696079
 30
0.0
 10
53.91491989485257
 20
208.2418296698825
 30
0.0
 10
53.2222177612196
 20
208.1681925627553
 30
0.0
 10
52.75853051059342
 20
208.1588214831749
 30
0.0
 10
52.45651794125604
 20
208.1526721249465
 30
0.0
  0
LINE
  5
12C
330
FA
100
AcDbEntity
  8
$DDT_AUDIT_GENERATED_(12B)
  6
Continuous
 62
     7
100
AcDbLine
 10
51.85
 20
208.1523023323
 30
0.0
 11
51.85
 21
209.1523023323
 31
0.0
  0
LINE
  5
12D
330
FA
100
AcDbEntity
  8
$DDT_AUDIT_GENERATED_(12B)
  6
Continuous
 62
     7
100
AcDbLine
 10
30.85
 20
209.1523023323
 30
0.0
 11
30.85
 21
208.1523023323
 31
0.0
  0
ARC
  5
12E
330
FA
100
AcDbEntity
  8
$DDT_AUDIT_GENERATED_(12B)
  6
Continuous
 62
     7
100
AcDbCircle
 10
50.2
 20
207.1523023323
 30
0.0
 40
1.000000000000001
100
AcDbArc
 50
90.0
 51
115.8419327632
  0
LINE
  5
12F
330
FA
100
AcDbEntity
  8
$DDT_AUDIT_GENERATED_(B8)
  6
Continuous
 62
     7
100
AcDbLine
 10
26.85
 20
209.1523023323
 30
0.0
 11
55.85
 21
209.1523023323
 31
0.0
  0
LINE
  5
130
330
FA
100
AcDbEntity
  8
$DDT_AUDIT_GENERATED_(B8)
  6
Continuous
 62
     7
100
AcDbLine
 10
56.35
 20
222.6523023323
 30
0.0
 11
54.2626587737
 21
222.6523023323
 31
0.0
  0
LINE
  5
131
330
FA
100
AcDbEntity
  8
$DDT_AUDIT_GENERATED_(B8)
  6
Continuous
 62
     7
100
AcDbLine
 10
43.4373412263
 20
222.6523023323
 30
0.0
 11
39.2626587737
 21
222.6523023323
 31
0.0
  0
LINE
  5
132
330
FA
100
AcDbEntity
  8
$DDT_AUDIT_GENERATED_(B8)
  6
Continuous
 62
     7
100
AcDbLine
 10
28.4373412263
 20
222.6523023323
 30
0.0
 11
26.35
 21
222.6523023323
 31
0.0
  0
LINE
  5
133
330
FA
100
AcDbEntity
  8
$DDT_AUDIT_GENERATED_(B8)
  6
Continuous
 62
     7
100
AcDbLine
 10
26.35
 20
225.4480310615
 30
0.0
 11
26.35
 21
222.6523023323
 31
0.0
  0
ARC
  5
134
330
FA
100
AcDbEntity
  8
$DDT_AUDIT_GENERATED_(B8)
  6
Continuous
 62
     7
100
AcDbCircle
 10
33.85
 20
218.8737428132
 30
0.0
 40
6.601089837288615
100
AcDbArc
 50
34.9187681796
 51
145.0812318204
  0
ARC
  5
135
330
FA
100
AcDbEntity
  8
$DDT_AUDIT_GENERATED_(B8)
  6
Continuous
 62
     7
100
AcDbCircle
 10
48.85
 20
218.8737428132
 30
0.0
 40
6.601089837288624
100
AcDbArc
 50
34.9187681796
 51
145.0812318204
  0
LINE
  5
136
330
FA
100
AcDbEntity
  8
$DDT_AUDIT_GENERATED_(B8)
  6
Continuous
 62
     7
100
AcDbLine
 10
56.35
 20
222.6523023323
 30
0.0
 11
56.35
 21
225.4480310615
 31
0.0
  0
LINE
  5
137
330
FA
100
AcDbEntity
  8
$DDT_AUDIT_GENERATED_(B8)
  6
Continuous
 62
     7
100
AcDbLine
 10
56.35
 20
212.6523023323
 30
0.0
 11
54.2626587737
 21
212.6523023323
 31
0.0
  0
LINE
  5
138
330
FA
100
AcDbEntity
  8
$DDT_AUDIT_GENERATED_(B8)
  6
Continuous
 62
     7
100
AcDbLine
 10
43.4373412263
 20
212.6523023323
 30
0.0
 11
39.2626587737
 21
212.6523023323
 31
0.0
  0
LINE
  5
139
330
FA
100
AcDbEntity
  8
$DDT_AUDIT_GENERATED_(B8)
  6
Continuous
 62
     7
100
AcDbLine
 10
28.4373412263
 20
212.6523023323
 30
0.0
 11
26.35
 21
212.6523023323
 31
0.0
  0
LINE
  5
13A
330
FA
100
AcDbEntity
  8
$DDT_AUDIT_GENERATED_(B8)
  6
Continuous
 62
     7
100
AcDbLine
 10
56.35
 20
209.8565736032
 30
0.0
 11
56.35
 21
212.6523023323
 31
0.0
  0
LINE
  5
13B
330
FA
100
AcDbEntity
  8
$DDT_AUDIT_GENERATED_(B8)
  6
Continuous
 62
     7
100
AcDbLine
 10
56.35
 20
212.6523023323
 30
0.0
 11
56.35
 21
222.6523023323
 31
0.0
  0
LINE
  5
13C
330
FA
100
AcDbEntity
  8
$DDT_AUDIT_GENERATED_(B8)
  6
Continuous
 62
     7
100
AcDbLine
 10
54.2626587737
 20
222.6523023323
 30
0.0
 11
54.2626587737
 21
212.6523023323
 31
0.0
  0
ARC
  5
13D
330
FA
100
AcDbEntity
  8
$DDT_AUDIT_GENERATED_(B8)
  6
Continuous
 62
     7
100
AcDbCircle
 10
48.85
 20
216.4308618515
 30
0.0
 40
6.601089837288599
100
AcDbArc
 50
214.9187681796
 51
325.0812318204
  0
LINE
  5
13E
330
FA
100
AcDbEntity
  8
$DDT_AUDIT_GENERATED_(B8)
  6
Continuous
 62
     7
100
AcDbLine
 10
43.4373412263
 20
212.6523023323
 30
0.0
 11
43.4373412263
 21
222.6523023323
 31
0.0
  0
LINE
  5
13F
330
FA
100
AcDbEntity
  8
$DDT_AUDIT_GENERATED_(B8)
  6
Continuous
 62
     7
100
AcDbLine
 10
39.2626587737
 20
222.6523023323
 30
0.0
 11
39.2626587737
 21
212.6523023323
 31
0.0
  0
ARC
  5
140
330
FA
100
AcDbEntity
  8
$DDT_AUDIT_GENERATED_(B8)
  6
Continuous
 62
     7
100
AcDbCircle
 10
33.85
 20
216.4308618515
 30
0.0
 40
6.601089837288613
100
AcDbArc
 50
214.9187681795
 51
325.0812318205
  0
LINE
  5
141
330
FA
100
AcDbEntity
  8
$DDT_AUDIT_GENERATED_(B8)
  6
Continuous
 62
     7
100
AcDbLine
 10
28.4373412263
 20
212.6523023323
 30
0.0
 11
28.4373412263
 21
222.6523023323
 31
0.0
  0
LINE
  5
142
330
FA
100
AcDbEntity
  8
$DDT_AUDIT_GENERATED_(B8)
  6
Continuous
 62
     7
100
AcDbLine
 10
26.35
 20
222.6523023323
 30
0.0
 11
26.35
 21
212.6523023323
 31
0.0
  0
LINE
  5
143
330
FA
100
AcDbEntity
  8
$DDT_AUDIT_GENERATED_(B8)
  6
Continuous
 62
     7
100
AcDbLine
 10
26.35
 20
212.6523023323
 30
0.0
 11
26.35
 21
209.8565736032
 31
0.0
  0
ARC
  5
144
330
FA
100
AcDbEntity
  8
$DDT_AUDIT_GENERATED_(B8)
  6
Continuous
 62
     7
100
AcDbCircle
 10
47.9535976036
 20
215.2880035306
 30
0.0
 40
9.999999999999995
100
AcDbArc
 50
322.1519040322
 51
327.0971879946
  0
ARC
  5
145
330
FA
100
AcDbEntity
  8
$DDT_AUDIT_GENERATED_(B8)
  6
Continuous
 62
     7
100
AcDbCircle
 10
34.7464023964
 20
215.2880035306
 30
0.0
 40
9.999999999999986
100
AcDbArc
 50
212.9031291729
 51
217.8480959678
  0
ARC
  5
146
330
FA
100
AcDbEntity
  8
$DDT_AUDIT_GENERATED_(B8)
  6
Continuous
 62
     7
100
AcDbCircle
 10
47.9535976036
 20
220.0166011341
 30
0.0
 40
9.99999999999999
100
AcDbArc
 50
32.9031291729
 51
37.8480959678
  0
ARC
  5
147
330
FA
100
AcDbEntity
  8
$DDT_AUDIT_GENERATED_(B8)
  6
Continuous
 62
     7
100
AcDbCircle
 10
34.7464023964
 20
220.0166011341
 30
0.0
 40
9.999999999999995
100
AcDbArc
 50
142.1519040322
 51
147.0971879946
  0
LINE
  5
148
330
FA
100
AcDbEntity
  8
$DDT_AUDIT_GENERATED_(B8)
  6
Continuous
 62
     7
100
AcDbLine
 10
178.4373672337
 20
212.6523023323
 30
0.0
 11
176.3500260073
 21
212.6523023323
 31
0.0
  0
LINE
  5
149
330
FA
100
AcDbEntity
  8
$DDT_AUDIT_GENERATED_(B8)
  6
Continuous
 62
     7
100
AcDbLine
 10
176.8500260073
 20
209.1523023323
 30
0.0
 11
205.8500260073
 21
209.1523023323
 31
0.0
  0
LINE
  5
14A
330
FA
100
AcDbEntity
  8
$DDT_AUDIT_GENERATED_(B8)
  6
Continuous
 62
     7
100
AcDbLine
 10
178.4373672337
 20
222.6523023323
 30
0.0
 11
176.3500260073
 21
222.6523023323
 31
0.0
  0
LINE
  5
14B
330
FA
100
AcDbEntity
  8
$DDT_AUDIT_GENERATED_(B8)
  6
Continuous
 62
     7
100
AcDbLine
 10
206.3500260073
 20
222.6523023323
 30
0.0
 11
204.262684781
 21
222.6523023323
 31
0.0
  0
LINE
  5
14C
330
FA
100
AcDbEntity
  8
$DDT_AUDIT_GENERATED_(B8)
  6
Continuous
 62
     7
100
AcDbLine
 10
193.4373672337
 20
222.6523023323
 30
0.0
 11
189.262684781
 21
222.6523023323
 31
0.0
  0
ARC
  5
14D
330
FA
100
AcDbEntity
  8
$DDT_AUDIT_GENERATED_(B8)
  6
Continuous
 62
     7
100
AcDbCircle
 10
183.8500260073
 20
218.8737428132
 30
0.0
 40
6.601089837288617
100
AcDbArc
 50
34.9187681796
 51
145.0812318205
  0
ARC
  5
14E
330
FA
100
AcDbEntity
  8
$DDT_AUDIT_GENERATED_(B8)
  6
Continuous
 62
     7
100
AcDbCircle
 10
198.8500260073
 20
218.8737428132
 30
0.0
 40
6.601089837288623
100
AcDbArc
 50
34.9187681796
 51
145.0812318204
  0
LINE
  5
14F
330
FA
100
AcDbEntity
  8
$DDT_AUDIT_GENERATED_(B8)
  6
Continuous
 62
     7
100
AcDbLine
 10
206.3500260073
 20
225.4480310615
 30
0.0
 11
206.3500260073
 21
222.6523023323
 31
0.0
  0
LINE
  5
150
330
FA
100
AcDbEntity
  8
$DDT_AUDIT_GENERATED_(B8)
  6
Continuous
 62
     7
100
AcDbLine
 10
176.3500260073
 20
222.6523023323
 30
0.0
 11
176.3500260073
 21
225.4480310615
 31
0.0
  0
LINE
  5
151
330
FA
100
AcDbEntity
  8
$DDT_AUDIT_GENERATED_(B8)
  6
Continuous
 62
     7
100
AcDbLine
 10
206.3500260073
 20
212.6523023323
 30
0.0
 11
204.262684781
 21
212.6523023323
 31
0.0
  0
LINE
  5
152
330
FA
100
AcDbEntity
  8
$DDT_AUDIT_GENERATED_(B8)
  6
Continuous
 62
     7
100
AcDbLine
 10
193.4373672337
 20
212.6523023323
 30
0.0
 11
189.262684781
 21
212.6523023323
 31
0.0
  0
LINE
  5
153
330
FA
100
AcDbEntity
  8
$DDT_AUDIT_GENERATED_(B8)
  6
Continuous
 62
     7
100
AcDbLine
 10
176.3500260073
 20
222.6523023323
 30
0.0
 11
176.3500260073
 21
212.6523023323
 31
0.0
  0
LINE
  5
154
330
FA
100
AcDbEntity
  8
$DDT_AUDIT_GENERATED_(B8)
  6
Continuous
 62
     7
100
AcDbLine
 10
176.3500260073
 20
209.8565736032
 30
0.0
 11
176.3500260073
 21
212.6523023323
 31
0.0
  0
LINE
  5
155
330
FA
100
AcDbEntity
  8
$DDT_AUDIT_GENERATED_(B8)
  6
Continuous
 62
     7
100
AcDbLine
 10
206.3500260073
 20
212.6523023323
 30
0.0
 11
206.3500260073
 21
209.8565736032
 31
0.0
  0
LINE
  5
156
330
FA
100
AcDbEntity
  8
$DDT_AUDIT_GENERATED_(B8)
  6
Continuous
 62
     7
100
AcDbLine
 10
206.3500260073
 20
212.6523023323
 30
0.0
 11
206.3500260073
 21
222.6523023323
 31
0.0
  0
LINE
  5
157
330
FA
100
AcDbEntity
  8
$DDT_AUDIT_GENERATED_(B8)
  6
Continuous
 62
     7
100
AcDbLine
 10
204.262684781
 20
222.6523023323
 30
0.0
 11
204.262684781
 21
212.6523023323
 31
0.0
  0
ARC
  5
158
330
FA
100
AcDbEntity
  8
$DDT_AUDIT_GENERATED_(B8)
  6
Continuous
 62
     7
100
AcDbCircle
 10
198.8500260073
 20
216.4308618515
 30
0.0
 40
6.601089837288599
100
AcDbArc
 50
214.9187681795
 51
325.0812318205
  0
LINE
  5
159
330
FA
100
AcDbEntity
  8
$DDT_AUDIT_GENERATED_(B8)
  6
Continuous
 62
     7
100
AcDbLine
 10
193.4373672337
 20
212.6523023323
 30
0.0
 11
193.4373672337
 21
222.6523023323
 31
0.0
  0
LINE
  5
15A
330
FA
100
AcDbEntity
  8
$DDT_AUDIT_GENERATED_(B8)
  6
Continuous
 62
     7
100
AcDbLine
 10
189.262684781
 20
222.6523023323
 30
0.0
 11
189.262684781
 21
212.6523023323
 31
0.0
  0
ARC
  5
15B
330
FA
100
AcDbEntity
  8
$DDT_AUDIT_GENERATED_(B8)
  6
Continuous
 62
     7
100
AcDbCircle
 10
183.8500260073
 20
216.4308618515
 30
0.0
 40
6.601089837288614
100
AcDbArc
 50
214.9187681795
 51
325.0812318204
  0
LINE
  5
15C
330
FA
100
AcDbEntity
  8
$DDT_AUDIT_GENERATED_(B8)
  6
Continuous
 62
     7
100
AcDbLine
 10
178.4373672337
 20
212.6523023323
 30
0.0
 11
178.4373672337
 21
222.6523023323
 31
0.0
  0
ARC
  5
15D
330
FA
100
AcDbEntity
  8
$DDT_AUDIT_GENERATED_(B8)
  6
Continuous
 62
     7
100
AcDbCircle
 10
197.9536236109
 20
215.2880035306
 30
0.0
 40
9.999999999999996
100
AcDbArc
 50
322.1519040322
 51
327.0971879946
  0
ARC
  5
15E
330
FA
100
AcDbEntity
  8
$DDT_AUDIT_GENERATED_(B8)
  6
Continuous
 62
     7
100
AcDbCircle
 10
184.7464284038
 20
215.2880035306
 30
0.0
 40
9.999999999999996
100
AcDbArc
 50
212.9031291729
 51
217.8480959678
  0
ARC
  5
15F
330
FA
100
AcDbEntity
  8
$DDT_AUDIT_GENERATED_(B8)
  6
Continuous
 62
     7
100
AcDbCircle
 10
197.9536236109
 20
220.0166011341
 30
0.0
 40
9.999999999999998
100
AcDbArc
 50
32.9031291729
 51
37.8480959678
  0
ARC
  5
160
330
FA
100
AcDbEntity
  8
$DDT_AUDIT_GENERATED_(B8)
  6
Continuous
 62
     7
100
AcDbCircle
 10
184.7464284038
 20
220.0166011341
 30
0.0
 40
9.999999999999995
100
AcDbArc
 50
142.1519040322
 51
147.0971879946
  0
LINE
  5
161
330
FA
100
AcDbEntity
  8
$DDT_AUDIT_GENERATED_(12B)
  6
Continuous
 62
     7
100
AcDbLine
 10
201.8500260073
 20
208.1523023323
 30
0.0
 11
201.8500260073
 21
209.1523023323
 31
0.0
  0
LINE
  5
162
330
FA
100
AcDbEntity
  8
$DDT_AUDIT_GENERATED_(12B)
  6
Continuous
 62
     7
100
AcDbLine
 10
180.8500260073
 20
209.1523023323
 30
0.0
 11
180.8500260073
 21
208.1523023323
 31
0.0
  0
ARC
  5
163
330
FA
100
AcDbEntity
  8
$DDT_AUDIT_GENERATED_(12B)
  6
Continuous
 62
     7
100
AcDbCircle
 10
200.2000260073
 20
207.1523023323
 30
0.0
 40
1.000000000000001
100
AcDbArc
 50
90.0
 51
115.8419327632
  0
ARC
  5
164
330
FA
100
AcDbEntity
  8
$DDT_AUDIT_GENERATED_(12B)
  6
Continuous
 62
     7
100
AcDbCircle
 10
182.5000260073
 20
207.1523023323
 30
0.0
 40
1.000000000000001
100
AcDbArc
 50
64.1580672368
 51
90.0
  0
SPLINE
  5
165
330
FA
100
AcDbEntity
  8
$DDT_AUDIT_GENERATED_(65)
  6
Continuous
 62
     7
100
AcDbSpline
210
0.0
220
0.0
230
1.0
 70
     8
 71
     3
 72
    16
 73
    12
 74
     0
 42
0.0000000000499058
 43
0.0000000001
 40
0.447635960282123
 40
0.447635960282123
 40
0.447635960282123
 40
0.447635960282123
 40
0.4687500000000001
 40
0.4687500000000001
 40
0.4843750000000002
 40
0.4843750000000002
 40
0.5000000000000003
 40
0.5000000000000003
 40
0.5312500000000006
 40
0.5312500000000006
 40
0.5596008590443107
 40
0.5596008590443107
 40
0.5596008590443107
 40
0.5596008590443107
 10
105.731472581766
 20
106.8118460605734
 30
0.0
 10
106.9748931111058
 20
106.6984531025518
 30
0.0
 10
108.3103802005583
 20
106.600518748741
 30
0.0
 10
110.759590184029
 20
106.4699543661072
 30
0.0
 10
111.8562546880304
 20
106.4260301859762
 30
0.0
 10
114.0636638720756
 20
106.3669948362306
 30
0.0
 10
115.1790486024552
 20
106.3512395936565
 30
0.0
 10
118.5575896624932
 20
106.35
 30
0.0
 10
120.7718908213797
 20
106.4095278849383
 30
0.0
 10
124.7986668211455
 20
106.6207281623914
 30
0.0
 10
126.5425825743424
 20
106.76015457784
 30
0.0
 10
128.1323054475225
 20
106.9250736580146
 30
0.0
  0
LINE
  5
166
330
FA
100
AcDbEntity
  8
$DDT_AUDIT_GENERATED_(65)
  6
Continuous
 62
     7
100
AcDbLine
 10
141.6124470492
 20
122.6357829783
 30
0.0
 11
141.7590921393
 21
124.6163944944
 31
0.0
  0
ARC
  5
167
330
FA
100
AcDbEntity
  8
$DDT_AUDIT_GENERATED_(65)
  6
Continuous
 62
     7
100
AcDbCircle
 10
93.8083238321
 20
120.9115495041
 30
0.0
 40
2.586050490652521
100
AcDbArc
 50
184.4353914654
 51
188.3961864845
  0
ARC
  5
168
330
FA
100
AcDbEntity
  8
$DDT_AUDIT_GENERATED_(65)
  6
Continuous
 62
     7
100
AcDbCircle
 10
138.8922750586
 20
120.9114450933
 30
0.0
 40
2.585445310219089
100
AcDbArc
 50
351.4911061453
 51
355.5659847142
  0
LINE
  5
169
330
FA
100
AcDbEntity
  8
$DDT_AUDIT_GENERATED_(65)
  6
Continuous
 62
     7
100
AcDbLine
 10
89.5317411127
 20
149.5193357154
 30
0.0
 11
90.4725421219
 21
149.5193357154
 31
0.0
  0
SPLINE
  5
16A
330
FA
100
AcDbEntity
  8
$DDT_AUDIT_GENERATED_(65)
  6
Continuous
 62
     7
100
AcDbSpline
210
0.0
220
0.0
230
1.0
 70
     8
 71
     3
 72
     9
 73
     5
 74
     0
 42
0.0000000002322853
 43
0.0000000001
 40
0.2875385322009082
 40
0.2875385322009082
 40
0.2875385322009082
 40
0.2875385322009082
 40
0.2886757222635913
 40
0.2897648418617163
 40
0.2897648418617163
 40
0.2897648418617163
 40
0.2897648418617163
 10
122.8537921987726
 20
108.5604129711447
 30
0.0
 10
122.8376049616172
 20
108.561263832875
 30
0.0
 10
122.8058042693315
 20
108.5629176022946
 30
0.0
 10
122.773788507862
 20
108.5645479521211
 30
0.0
 10
122.7580751954716
 20
108.5653399598228
 30
0.0
  0
SPLINE
  5
16B
330
FA
100
AcDbEntity
  8
$DDT_AUDIT_GENERATED_(65)
  6
Continuous
 62
     7
100
AcDbSpline
210
0.0
220
0.0
230
1.0
 70
     8
 71
     3
 72
     8
 73
     4
 74
     0
 42
0.0000000002263778
 43
0.0000000001
 40
0.5190604605062993
 40
0.5190604605062993
 40
0.5190604605062993
 40
0.5190604605062993
 40
0.528339510670555
 40
0.528339510670555
 40
0.528339510670555
 40
0.528339510670555
 10
110.2824536146332
 20
108.5812790672658
 30
0.0
 10
110.1424112119462
 20
108.575176207381
 30
0.0
 10
110.005855072926
 20
108.5686955714639
 30
0.0
 10
109.8730260376071
 20
108.5618158374934
 30
0.0
  0
LINE
  5
16C
330
FA
100
AcDbEntity
  8
$DDT_AUDIT_GENERATED_(65)
  6
Continuous
 62
     7
100
AcDbLine
 10
89.2326593397
 20
147.6882661044
 30
0.0
 11
91.0852755943
 21
122.666541331
 31
0.0
  0
SPLINE
  5
16D
330
FA
100
AcDbEntity
  8
$DDT_AUDIT_GENERATED_(65)
  6
Continuous
 62
     7
100
AcDbSpline
210
0.0
220
0.0
230
1.0
 70
     8
 71
     3
 72
    14
 73
    10
 74
     0
 42
0.000000012562469
 43
0.0000000001
 40
0.0
 40
0.0
 40
0.0
 40
0.0
 40
0.3991097889540816
 40
0.3991097889540816
 40
0.3991097889540816
 40
0.9999600891300442
 40
0.9999600891300442
 40
0.9999600891300442
 40
1.0
 40
1.0
 40
1.0
 40
1.0
 10
143.5024676927145
 20
148.4834903728316
 30
0.0
 10
143.4988427230525
 20
148.3777469358033
 30
0.0
 10
143.4947359497607
 20
148.2720128160781
 30
0.0
 10
143.4901911994484
 20
148.1662538580629
 30
0.0
 10
143.48334919122
 20
148.0070363848814
 30
0.0
 10
143.4754931740354
 20
147.8477400633173
 30
0.0
 10
143.4673638221127
 20
147.688287893838
 30
0.0
 10
143.4673632821283
 20
147.6882773023816
 30
0.0
 10
143.4673627421428
 20
147.688266710924
 30
0.0
 10
143.4673517368432
 20
147.6882652948218
 30
0.0
  0
ARC
  5
16E
330
FA
100
AcDbEntity
  8
$DDT_AUDIT_GENERATED_(65)
  6
Continuous
 62
     7
100
AcDbCircle
 10
136.3835474734
 20
150.1687732747
 30
0.0
 40
47.21610123870212
100
AcDbArc
 50
182.0454910403
 51
183.0114323523
  0
SPLINE
  5
16F
330
FA
100
AcDbEntity
  8
$DDT_AUDIT_GENERATED_(65)
  6
Continuous
 62
     7
100
AcDbSpline
210
0.0
220
0.0
230
1.0
 70
     8
 71
     3
 72
     8
 73
     4
 74
     0
 42
0.0000000001954531
 43
0.0000000001
 40
0.0
 40
0.0
 40
0.0
 40
0.0
 40
0.117650476137911
 40
0.117650476137911
 40
0.117650476137911
 40
0.117650476137911
 10
143.4673517368432
 20
147.6882652948218
 30
0.0
 10
143.3681094443448
 20
145.7438525256457
 30
0.0
 10
142.9955587686502
 20
143.8145319771149
 30
0.0
 10
141.9974721938763
 20
141.958395218017
 30
0.0
  0
SPLINE
  5
170
330
FA
100
AcDbEntity
  8
$DDT_AUDIT_GENERATED_(65)
  6
Continuous
 62
     7
100
AcDbSpline
210
0.0
220
0.0
230
1.0
 70
     8
 71
     3
 72
    10
 73
     6
 74
     0
 42
0.0000000001963736
 43
0.0000000001
 40
0.8827443049033482
 40
0.8827443049033482
 40
0.8827443049033482
 40
0.8827443049033482
 40
0.9375
 40
0.9375
 40
1.0
 40
1.0
 40
1.0
 40
1.0
 10
90.69890484212438
 20
141.9651706135384
 30
0.0
 10
90.23625625236382
 20
142.826923195996
 30
0.0
 10
89.9010501672235
 20
143.7164848557136
 30
0.0
 10
89.41326344499882
 20
145.6268480010219
 30
0.0
 10
89.28537443244615
 20
146.6553306025205
 30
0.0
 10
89.2326482630228
 20
147.6882652948422
 30
0.0
  0
ELLIPSE
  5
171
330
FA
100
AcDbEntity
  8
$DDT_AUDIT_GENERATED_(65)
  6
Continuous
 62
     7
100
AcDbEllipse
 10
116.35
 20
150.9183184461
 30
0.0
 11
-26.04495386369437
 21
6.938893903907229E-15
 31
0.0
210
0.0
220
0.0
230
1.0
 40
0.5299192642
 41
0.1638054747639932
 42
2.977787178825803
  0
LINE
  5
172
330
FA
100
AcDbEntity
  8
$DDT_AUDIT_GENERATED_(65)
  6
Continuous
 62
     7
100
AcDbLine
 10
142.2274578781
 20
149.5193357154
 30
0.0
 11
143.1682580042
 21
149.5193357154
 31
0.0
  0
LINE
  5
173
330
FA
100
AcDbEntity
  8
$DDT_AUDIT_GENERATED_(65)
  6
Continuous
 62
     7
100
AcDbLine
 10
90.4725421219
 20
149.5193357154
 30
0.0
 11
92.065745448
 21
149.5193357154
 31
0.0
  0
LINE
  5
174
330
FA
100
AcDbEntity
  8
$DDT_AUDIT_GENERATED_(65)
  6
Continuous
 62
     7
100
AcDbLine
 10
140.634254552
 20
149.5193357154
 30
0.0
 11
142.2274578781
 21
149.5193357154
 31
0.0
  0
SPLINE
  5
175
330
FA
100
AcDbEntity
  8
$DDT_AUDIT_GENERATED_(65)
  6
Continuous
 62
     7
100
AcDbSpline
210
0.0
220
0.0
230
1.0
 70
     8
 71
     3
 72
     8
 73
     4
 74
     0
 42
0.0000000062406376
 43
0.0000000001
 40
0.3802213615070402
 40
0.3802213615070402
 40
0.3802213615070402
 40
0.3802213615070402
 40
0.4096337327168967
 40
0.4096337327168967
 40
0.4096337327168967
 40
0.4096337327168967
 10
91.66194946103637
 20
146.8021246657342
 30
0.0
 10
91.66225709871104
 20
146.7868596049749
 30
0.0
 10
91.66296063904886
 20
146.771164038015
 30
0.0
 10
91.66405620148831
 20
146.7550503310873
 30
0.0
  0
ARC
  5
176
330
FA
100
AcDbEntity
  8
$DDT_AUDIT_GENERATED_(65)
  6
Continuous
 62
     7
100
AcDbCircle
 10
-135.5592347256
 20
142.864475448
 30
0.0
 40
277.9097849621962
100
AcDbArc
 50
355.3911606081
 51
355.8258095594
  0
ARC
  5
177
330
FA
100
AcDbEntity
  8
$DDT_AUDIT_GENERATED_(65)
  6
Continuous
 62
     7
100
AcDbCircle
 10
369.3034093174
 20
142.9771924504
 30
0.0
 40
278.9594432273325
100
AcDbArc
 50
184.1753346848
 51
184.6151830941
  0
ARC
  5
178
330
FA
100
AcDbEntity
  8
$DDT_AUDIT_GENERATED_(65)
  6
Continuous
 62
     7
100
AcDbCircle
 10
1823.51204112
 20
20.6211214803
 30
0.0
 40
1684.963255840185
100
AcDbArc
 50
175.760547138
 51
176.461483381
  0
SPLINE
  5
179
330
FA
100
AcDbEntity
  8
$DDT_AUDIT_GENERATED_(65)
  6
Continuous
 62
     7
100
AcDbSpline
210
0.0
220
0.0
230
1.0
 70
     8
 71
     3
 72
    36
 73
    32
 74
     0
 42
0.0000000004669386
 43
0.0000000001
 40
0.0
 40
0.0
 40
0.0
 40
0.0
 40
0.011398820036951
 40
0.029436307745169
 40
0.0478236147038844
 40
0.0631183900860308
 40
0.079256406760954
 40
0.0962109074966842
 40
0.1144674213714508
 40
0.135279012173773
 40
0.1510053427737924
 40
0.1670238965105157
 40
0.1849991095829913
 40
0.2015775292112504
 40
0.2163313477584473
 40
0.2299818095434732
 40
0.2441902356937075
 40
0.260819179304474
 40
0.3427664096369574
 40
0.4322903232190156
 40
0.537250669454448
 40
0.6031288751934281
 40
0.6683422544725643
 40
0.7648649228685208
 40
0.8637324963932506
 40
0.917103612443512
 40
0.9393469437807603
 40
0.9591700167009579
 40
0.9717874813451016
 40
0.9839174990461556
 40
1.0
 40
1.0
 40
1.0
 40
1.0
 10
128.2393731733182
 20
106.9336302484386
 30
0.0
 10
128.5542862880154
 20
106.9660703937922
 30
0.0
 10
129.2421396740451
 20
107.0373453921282
 30
0.0
 10
130.377858424259
 20
107.1771463166219
 30
0.0
 10
131.4947816412752
 20
107.3305210050316
 30
0.0
 10
132.5001069259499
 20
107.49100056979
 30
0.0
 10
133.3691448480841
 20
107.6559427629362
 30
0.0
 10
134.1930772704355
 20
107.8449362874057
 30
0.0
 10
134.9826952501041
 20
108.0717077776338
 30
0.0
 10
135.7087709766007
 20
108.3510470703197
 30
0.0
 10
136.3353783486695
 20
108.7067201623634
 30
0.0
 10
136.8344705640785
 20
109.0775906460604
 30
0.0
 10
137.2966134572501
 20
109.5441547334384
 30
0.0
 10
137.6393385120231
 20
110.0348122066959
 30
0.0
 10
137.8526773965233
 20
110.4468666305817
 30
0.0
 10
137.9799676797982
 20
110.7544344738239
 30
0.0
 10
138.0524290809902
 20
110.9459113199001
 30
0.0
 10
138.2420770582396
 20
111.4609466945689
 30
0.0
 10
138.4997871455761
 20
112.2768846725534
 30
0.0
 10
138.8206365537796
 20
113.4022962536279
 30
0.0
 10
139.1195894222954
 20
114.3817806474276
 30
0.0
 10
139.4113472463258
 20
115.1501969609212
 30
0.0
 10
139.7962509121551
 20
116.030824371874
 30
0.0
 10
140.2755755596441
 20
117.0724237953601
 30
0.0
 10
140.749582591699
 20
118.1591308256132
 30
0.0
 10
141.0477812005581
 20
118.9530272098804
 30
0.0
 10
141.2032484074718
 20
119.4306032800178
 30
0.0
 10
141.2738647602288
 20
119.6569639883274
 30
0.0
 10
141.3605754243435
 20
119.9809022013077
 30
0.0
 10
141.4216667387151
 20
120.2570201584069
 30
0.0
 10
141.4417026498877
 20
120.4172950364552
 30
0.0
 10
141.4545805448074
 20
120.5251277003099
 30
0.0
  0
SPLINE
  5
17A
330
FA
100
AcDbEntity
  8
$DDT_AUDIT_GENERATED_(65)
  6
Continuous
 62
     7
100
AcDbSpline
210
0.0
220
0.0
230
1.0
 70
     8
 71
     3
 72
    36
 73
    32
 74
     0
 42
0.0000000004420666
 43
0.0000000001
 40
0.0
 40
0.0
 40
0.0
 40
0.0
 40
0.0295307499120643
 40
0.0491692922437366
 40
0.0695007078927453
 40
0.1457260094671053
 40
0.2306688079184802
 40
0.3357575141694122
 40
0.3864199401201316
 40
0.4650138724949695
 40
0.5410588818059003
 40
0.651955056325798
 40
0.7091211920742795
 40
0.7340771910035849
 40
0.7505639164024726
 40
0.7648333321464338
 40
0.7801304341083545
 40
0.7963838950709634
 40
0.8140844255831773
 40
0.8329183542176323
 40
0.8475164042942466
 40
0.8616875937235489
 40
0.880533902392566
 40
0.8977820523944225
 40
0.9135624082419761
 40
0.9283634313746402
 40
0.943934528087096
 40
0.9627226035456491
 40
0.9808098878316458
 40
0.9987140403017589
 40
1.0
 40
1.0
 40
1.0
 40
1.0
 10
91.24099377409068
 20
120.5292241815296
 30
0.0
 10
91.27736380555781
 20
120.307021800399
 30
0.0
 10
91.3268562795465
 20
120.0023515736275
 30
0.0
 10
91.45112577409961
 20
119.5766653367133
 30
0.0
 10
91.62178490641368
 20
119.0285998119543
 30
0.0
 10
91.95041901180407
 20
118.1516294242376
 30
0.0
 10
92.46083673181923
 20
116.9913363249806
 30
0.0
 10
92.9130621681723
 20
116.0115428808974
 30
0.0
 10
93.30720931837016
 20
115.1047852300971
 30
0.0
 10
93.56616403769316
 20
114.4160427330862
 30
0.0
 10
93.88499388805603
 20
113.4047923274233
 30
0.0
 10
94.16932271654784
 20
112.4075472637316
 30
0.0
 10
94.42697905166304
 20
111.5808955480866
 30
0.0
 10
94.58135014595204
 20
111.1319829631358
 30
0.0
 10
94.66285989881578
 20
110.9040954483566
 30
0.0
 10
94.77765160676034
 20
110.6032078627037
 30
0.0
 10
94.96661152902004
 20
110.2013892821969
 30
0.0
 10
95.27074483071328
 20
109.7172886956615
 30
0.0
 10
95.71962417028276
 20
109.2098217271882
 30
0.0
 10
96.20991843806726
 20
108.8094028432888
 30
0.0
 10
96.79308958583458
 20
108.4565591860258
 30
0.0
 10
97.41124420532462
 20
108.1854059956245
 30
0.0
 10
98.08545068221737
 20
107.9604673572834
 30
0.0
 10
98.87282078964834
 20
107.7558362721731
 30
0.0
 10
99.69119526823187
 20
107.5829904537788
 30
0.0
 10
100.581891595257
 20
107.4261888887315
 30
0.0
 10
101.6182903715629
 20
107.2717112627195
 30
0.0
 10
102.8073381932776
 20
107.1138375836799
 30
0.0
 10
104.1353944460184
 20
106.9630671036994
 30
0.0
 10
105.1204630303137
 20
106.8610254960343
 30
0.0
 10
105.6176153059145
 20
106.8191186571885
 30
0.0
 10
105.6563155139114
 20
106.8158589955672
 30
0.0
  0
ARC
  5
17B
330
FA
100
AcDbEntity
  8
$DDT_AUDIT_GENERATED_(65)
  6
Continuous
 62
     7
100
AcDbCircle
 10
116.3623074818
 20
-80.642809079
 30
0.0
 40
189.3149185067768
100
AcDbArc
 50
88.0652545317
 51
91.9798639832
  0
SPLINE
  5
17C
330
FA
100
AcDbEntity
  8
$DDT_AUDIT_GENERATED_(65)
  6
Continuous
 62
     7
100
AcDbSpline
210
0.0
220
0.0
230
1.0
 70
     8
 71
     3
 72
    15
 73
    11
 74
     0
 42
0.0000000082288446
 43
0.0000000001
 40
0.0
 40
0.0
 40
0.0
 40
0.0
 40
0.0580760798384313
 40
0.1080293514337839
 40
0.1567941590987693
 40
0.2176222541872447
 40
0.3267678064735214
 40
0.5237566350497007
 40
0.8022383429015397
 40
1.0
 40
1.0
 40
1.0
 40
1.0
 10
89.52316557004113
 20
149.5171348610235
 30
0.0
 10
89.47246132540818
 20
149.5099755906082
 30
0.0
 10
89.39262168578574
 20
149.498042918825
 30
0.0
 10
89.3008484442566
 20
149.4227364964615
 30
0.0
 10
89.2515778872205
 20
149.3502232817786
 30
0.0
 10
89.2219913637514
 20
149.2753338379255
 30
0.0
 10
89.20412716694922
 20
149.1882253460041
 30
0.0
 10
89.19128384997663
 20
149.0452839317412
 30
0.0
 10
89.18725457075793
 20
148.8142188714784
 30
0.0
 10
89.19476325607226
 20
148.5915990102135
 30
0.0
 10
89.19868193975994
 20
148.4815562375177
 30
0.0
  0
SPLINE
  5
17D
330
FA
100
AcDbEntity
  8
$DDT_AUDIT_GENERATED_(65)
  6
Continuous
 62
     7
100
AcDbSpline
210
0.0
220
0.0
230
1.0
 70
     8
 71
     3
 72
    14
 73
    10
 74
     0
 42
0.0000000082416032
 43
0.0000000001
 40
0.0
 40
0.0
 40
0.0
 40
0.0
 40
0.2810828044550357
 40
0.5671675483348675
 40
0.7233324909312039
 40
0.8198335413320698
 40
0.888296597682831
 40
0.9457477706801811
 40
1.0
 40
1.0
 40
1.0
 40
1.0
 10
143.5030794131811
 20
148.4942906143851
 30
0.0
 10
143.5071497864591
 20
148.6395534759897
 30
0.0
 10
143.5130214798358
 20
148.8842916103092
 30
0.0
 10
143.5055187630892
 20
149.1071719019788
 30
0.0
 10
143.4887720509548
 20
149.2302376277203
 30
0.0
 10
143.4651171728812
 20
149.3180518802527
 30
0.0
 10
143.4087637537561
 20
149.4169634200581
 30
0.0
 10
143.2984099837994
 20
149.5032811827284
 30
0.0
 10
143.2156465878093
 20
149.5127659680317
 30
0.0
 10
143.1680936649877
 20
149.5179132382487
 30
0.0
  0
ARC
  5
17E
330
FA
100
AcDbEntity
  8
$DDT_AUDIT_GENERATED_(65)
  6
Continuous
 62
     7
100
AcDbCircle
 10
94.8716513257
 20
147.318050628
 30
0.0
 40
3.247265144956578
100
AcDbArc
 50
190.2733817553
 51
195.3313113778
  0
LINE
  5
17F
330
FA
100
AcDbEntity
  8
$DDT_AUDIT_GENERATED_(E7)
  6
Continuous
 62
     7
100
AcDbLine
 10
91.3284093231
 20
151.5171067989
 30
0.0
 11
141.3715906769
 21
151.5171067989
 31
0.0
  0
ARC
  5
180
330
FA
100
AcDbEntity
  8
$DDT_AUDIT_GENERATED_(E7)
  6
Continuous
 62
     7
100
AcDbCircle
 10
116.35
 20
159.6171067989
 30
0.0
 40
26.29999999999999
100
AcDbArc
 50
197.9378265217
 51
223.4421322711
  0
ARC
  5
181
330
FA
100
AcDbEntity
  8
$DDT_AUDIT_GENERATED_(E7)
  6
Continuous
 62
     7
100
AcDbCircle
 10
116.35
 20
159.6171067989
 30
0.0
 40
26.3
100
AcDbArc
 50
316.5578677289
 51
342.0621734783
  0
LINE
  5
182
330
FA
100
AcDbEntity
  8
$DDT_AUDIT_GENERATED_(7A)
  6
Continuous
 62
     7
100
AcDbLine
 10
226.3500260073
 20
252.1523023323
 30
0.0
 11
156.3500260073
 21
252.1523023323
 31
0.0
  0
LINE
  5
183
330
FA
100
AcDbEntity
  8
$DDT_AUDIT_GENERATED_(7A)
  6
Continuous
 62
     7
100
AcDbLine
 10
156.3500260073
 20
252.1523023323
 30
0.0
 11
156.3500260073
 21
229.3693572684
 31
0.0
  0
LINE
  5
184
330
FA
100
AcDbEntity
  8
$DDT_AUDIT_GENERATED_(7A)
  6
Continuous
 62
     7
100
AcDbLine
 10
226.3500260073
 20
229.3693572684
 30
0.0
 11
226.3500260073
 21
252.1523023323
 31
0.0
  0
ARC
  5
185
330
FA
100
AcDbEntity
  8
$DDT_AUDIT_GENERATED_(7A)
  6
Continuous
 62
     7
100
AcDbCircle
 10
191.3500260073
 20
676.1523023323
 30
0.0
 40
450.0000000000001
100
AcDbArc
 50
271.6665978934
 51
274.2242740157
  0
ARC
  5
186
330
FA
100
AcDbEntity
  8
$DDT_AUDIT_GENERATED_(7A)
  6
Continuous
 62
     7
100
AcDbCircle
 10
191.3500260073
 20
676.1523023323
 30
0.0
 40
450.0000000000002
100
AcDbArc
 50
265.7757259843
 51
268.3334021066
  0
ARC
  5
187
330
FA
100
AcDbEntity
  8
$DDT_AUDIT_GENERATED_(7A)
  6
Continuous
 62
     7
100
AcDbCircle
 10
158.3500260073
 20
229.3693572684
 30
0.0
 40
1.999999999999995
100
AcDbArc
 50
180.0
 51
265.7757259844
  0
ARC
  5
188
330
FA
100
AcDbEntity
  8
$DDT_AUDIT_GENERATED_(7A)
  6
Continuous
 62
     7
100
AcDbCircle
 10
224.3500260073
 20
229.3693572684
 30
0.0
 40
2.000000000000141
100
AcDbArc
 50
274.2242740156
 51
0.0
  0
ARC
  5
189
330
FA
100
AcDbEntity
  8
$DDT_AUDIT_GENERATED_(7A)
  6
Continuous
 62
     7
100
AcDbCircle
 10
178.2915260073
 20
227.3422360707
 30
0.0
 40
1.000000000000043
100
AcDbArc
 50
268.3334021067
 51
270.0
  0
ARC
  5
18A
330
FA
100
AcDbEntity
  8
$DDT_AUDIT_GENERATED_(7A)
  6
Continuous
 62
     7
100
AcDbCircle
 10
204.4085260073
 20
227.3422360707
 30
0.0
 40
1.000000000000001
100
AcDbArc
 50
270.0
 51
271.6665978933
  0
LINE
  5
18B
330
FA
100
AcDbEntity
  8
$DDT_AUDIT_GENERATED_(7A)
  6
Continuous
 62
     7
100
AcDbLine
 10
178.2915260073
 20
226.3422360707
 30
0.0
 11
204.4085260073
 21
226.3422360707
 31
0.0
  0
LINE
  5
18C
330
FA
100
AcDbEntity
  8
$DDT_AUDIT_GENERATED_(7A)
  6
Continuous
 62
     7
100
AcDbLine
 10
76.35
 20
252.1523023323
 30
0.0
 11
6.35
 21
252.1523023323
 31
0.0
  0
LINE
  5
18D
330
FA
100
AcDbEntity
  8
$DDT_AUDIT_GENERATED_(7A)
  6
Continuous
 62
     7
100
AcDbLine
 10
6.35
 20
252.1523023323
 30
0.0
 11
6.35
 21
229.3693572684
 31
0.0
  0
LINE
  5
18E
330
FA
100
AcDbEntity
  8
$DDT_AUDIT_GENERATED_(7A)
  6
Continuous
 62
     7
100
AcDbLine
 10
76.35
 20
229.3693572684
 30
0.0
 11
76.35
 21
252.1523023323
 31
0.0
  0
ARC
  5
18F
330
FA
100
AcDbEntity
  8
$DDT_AUDIT_GENERATED_(7A)
  6
Continuous
 62
     7
100
AcDbCircle
 10
41.35
 20
676.1523023323
 30
0.0
 40
450.0000000000001
100
AcDbArc
 50
271.6665978934
 51
274.2242740157
  0
ARC
  5
190
330
FA
100
AcDbEntity
  8
$DDT_AUDIT_GENERATED_(7A)
  6
Continuous
 62
     7
100
AcDbCircle
 10
41.35
 20
676.1523023323
 30
0.0
 40
450.0000000000002
100
AcDbArc
 50
265.7757259843
 51
268.3334021066
  0
ARC
  5
191
330
FA
100
AcDbEntity
  8
$DDT_AUDIT_GENERATED_(7A)
  6
Continuous
 62
     7
100
AcDbCircle
 10
8.35
 20
229.3693572684
 30
0.0
 40
1.999999999999988
100
AcDbArc
 50
180.0
 51
265.7757259844
  0
ARC
  5
192
330
FA
100
AcDbEntity
  8
$DDT_AUDIT_GENERATED_(7A)
  6
Continuous
 62
     7
100
AcDbCircle
 10
74.35
 20
229.3693572684
 30
0.0
 40
2.000000000000142
100
AcDbArc
 50
274.2242740156
 51
0.0
  0
ARC
  5
193
330
FA
100
AcDbEntity
  8
$DDT_AUDIT_GENERATED_(7A)
  6
Continuous
 62
     7
100
AcDbCircle
 10
28.2915
 20
227.3422360707
 30
0.0
 40
1.000000000000043
100
AcDbArc
 50
268.3334021067
 51
270.0
  0
ARC
  5
194
330
FA
100
AcDbEntity
  8
$DDT_AUDIT_GENERATED_(7A)
  6
Continuous
 62
     7
100
AcDbCircle
 10
54.4085
 20
227.3422360707
 30
0.0
 40
1.000000000000001
100
AcDbArc
 50
270.0
 51
271.6665978933
  0
LINE
  5
195
330
FA
100
AcDbEntity
  8
$DDT_AUDIT_GENERATED_(7A)
  6
Continuous
 62
     7
100
AcDbLine
 10
28.2915
 20
226.3422360707
 30
0.0
 11
54.4085
 21
226.3422360707
 31
0.0
  0
LINE
  5
197
330
FA
100
AcDbEntity
  8
DV3_Standard
  6
CENTER2
 62
     7
100
AcDbLine
 10
61.349999553
 20
252.1523023323
 30
0.0
 11
21.350000447
 21
252.1523023323
 31
0.0
  0
LINE
  5
198
330
FA
100
AcDbEntity
  8
DV3_Standard
  6
CENTER2
 62
     7
100
AcDbLine
 10
41.35
 20
272.1523018853
 30
0.0
 11
41.35
 21
232.1523027794
 31
0.0
  0
LINE
  5
199
330
FA
100
AcDbEntity
  8
DV3_Standard
  6
CENTER2
 62
     7
100
AcDbLine
 10
211.3500255603
 20
252.1523023323
 30
0.0
 11
171.3500264544
 21
252.1523023323
 31
0.0
  0
LINE
  5
19A
330
FA
100
AcDbEntity
  8
DV3_Standard
  6
CENTER2
 62
     7
100
AcDbLine
 10
191.3500260073
 20
272.1523018853
 30
0.0
 11
191.3500260073
 21
232.1523027794
 31
0.0
  0
ENDBLK
  5
19C
330
FA
100
AcDbEntity
  8
0
100
AcDbBlockEnd
  0
ENDSEC
  0
SECTION
  2
ENTITIES
  0
INSERT
  5
5F
330
1F
100
AcDbEntity
  8
Default
100
AcDbBlockReference
  2
SE
 10
0.0
 20
0.0
 30
0.0
  0
INSERT
  5
8F
330
1F
100
AcDbEntity
  8
Default
100
AcDbBlockReference
  2
SE1
 10
0.0
 20
0.0
 30
0.0
  0
INSERT
  5
FB
330
1F
100
AcDbEntity
  8
Default
100
AcDbBlockReference
  2
SE2
 10
0.0
 20
0.0
 30
0.0
  0
TEXT
  5
19E
330
1F
100
AcDbEntity
  8
Default
  6
Continuous
 62
     7
100
AcDbText
 10
5.9362635081
 20
53.4225120485
 30
0.0
 40
10.0
  1
Grohe AG^J
  7
SEACAD_seiso_ttf
 11
5.9362635081
 21
63.4225120485
 31
0.0
100
AcDbText
 73
     3
  0
TEXT
  5
19F
330
1F
100
AcDbEntity
  8
Default
  6
Continuous
 62
     7
100
AcDbText
 10
5.9362635081
 20
37.0588756849
 30
0.0
 40
10.0
  1
 
  7
SEACAD_seiso_ttf
 11
5.9362635081
 21
47.0588756849
 31
0.0
100
AcDbText
 73
     3
  0
TEXT
  5
1A0
330
1F
100
AcDbEntity
  8
Default
  6
Continuous
 62
     7
100
AcDbText
 10
5.9362635081
 20
20.6952393213
 30
0.0
 40
10.0
  1
ecn: 
  7
SEACAD_seiso_ttf
 11
5.9362635081
 21
30.6952393213
 31
0.0
100
AcDbText
 73
     3
  0
TEXT
  5
1A1
330
1F
100
AcDbEntity
  8
Default
  6
Continuous
 62
     7
100
AcDbText
 10
5.9362635081
 20
4.3316029576
 30
0.0
 40
10.0
  1
unit: mm
  7
SEACAD_seiso_ttf
 11
5.9362635081
 21
14.3316029576
 31
0.0
100
AcDbText
 73
     3
  0
LINE
  5
1A2
330
1F
100
AcDbEntity
  8
Default
  6
Continuous
 62
     7
100
AcDbLine
 10
0.0
 20
0.0
 30
0.0
 11
100.0
 21
0.0
 31
0.0
  0
LINE
  5
1A3
330
1F
100
AcDbEntity
  8
Default
  6
Continuous
 62
     7
100
AcDbLine
 10
0.0
 20
0.0
 30
0.0
 11
0.0
 21
100.0
 31
0.0
  0
TEXT
  5
1A4
330
1F
100
AcDbEntity
  8
Default
  6
Continuous
 62
     7
100
AcDbText
 10
24.3923665681
 20
-18.2375342018
 30
0.0
 40
10.0
  1
100 mm
  7
SEACAD_seiso_ttf
 11
24.3923665681
 21
-8.2375342018
 31
0.0
100
AcDbText
 73
     3
  0
TEXT
  5
1A5
330
1F
100
AcDbEntity
  8
Default
  6
Continuous
 62
     7
100
AcDbText
 10
-7.6150308803
 20
24.6231930421
 30
0.0
 40
10.0
  1
100 mm
 50
90.0
  7
SEACAD_seiso_ttf
 11
-17.6150308803
 21
24.6231930421
 31
0.0
100
AcDbText
 73
     3
  0
TEXT
  5
1A6
330
1F
100
AcDbEntity
  8
Default
  6
Continuous
 62
     7
100
AcDbText
 10
28.4878128572
 20
20.0907663715
 30
0.0
 40
10.0
  1
213974
  7
SEACAD_seiso_ttf
 11
28.4878128572
 21
30.0907663715
 31
0.0
100
AcDbText
 73
     3
  0
TEXT
  5
1A7
330
1F
100
AcDbEntity
  8
Default
  6
Continuous
 62
     7
100
AcDbText
 10
5.9012241913
 20
36.7242780188
 30
0.0
 40
10.0
  1
33577002
  7
SEACAD_seiso_ttf
 11
5.9012241913
 21
46.7242780188
 31
0.0
100
AcDbText
 73
     3
  0
ENDSEC
  0
SECTION
  2
OBJECTS
  0
DICTIONARY
  5
C
330
0
100
AcDbDictionary
281
     1
  3
ACAD_GROUP
350
D
  3
ACAD_LAYOUT
350
1A
  3
ACAD_MLEADERSTYLE
350
1AB
  3
ACAD_MLINESTYLE
350
17
  3
ACAD_PLOTSETTINGS
350
19
  3
ACAD_PLOTSTYLENAME
350
E
  3
ACAD_SCALELIST
350
3B
  3
ACAD_TABLESTYLE
350
1AA
  3
ACAD_VISUALSTYLE
350
2A
  3
AcDbVariableDictionary
350
1A8
  0
DICTIONARY
  5
D
102
{ACAD_REACTORS
330
C
102
}
330
C
100
AcDbDictionary
281
     1
  0
DICTIONARY
  5
1A
102
{ACAD_REACTORS
330
C
102
}
330
C
100
AcDbDictionary
281
     1
  3
Layout1
350
1E
  3
Model
350
22
  0
DICTIONARY
  5
1AB
102
{ACAD_REACTORS
330
C
102
}
330
C
100
AcDbDictionary
281
     1
  0
DICTIONARY
  5
17
102
{ACAD_REACTORS
330
C
102
}
330
C
100
AcDbDictionary
281
     1
  3
Standard
350
18
  0
DICTIONARY
  5
19
102
{ACAD_REACTORS
330
C
102
}
330
C
100
AcDbDictionary
281
     1
  0
ACDBDICTIONARYWDFLT
  5
E
102
{ACAD_REACTORS
330
C
102
}
330
C
100
AcDbDictionary
281
     1
  3
Normal
350
F
100
AcDbDictionaryWithDefault
340
F
  0
DICTIONARY
  5
3B
102
{ACAD_REACTORS
330
C
102
}
330
C
100
AcDbDictionary
281
     1
  3
A0
350
3C
  3
A1
350
3D
  3
A2
350
3E
  3
A3
350
3F
  3
A4
350
40
  3
A5
350
41
  3
A6
350
42
  3
A7
350
43
  3
A8
350
44
  3
A9
350
45
  3
B0
350
46
  3
B1
350
47
  3
B2
350
48
  3
B3
350
49
  3
B4
350
4A
  3
B5
350
4B
  3
B6
350
4C
  3
B7
350
4D
  3
B8
350
4E
  3
B9
350
4F
  3
C0
350
50
  3
C1
350
51
  3
C2
350
52
  3
C3
350
53
  3
C4
350
54
  3
C5
350
55
  3
C6
350
56
  3
C7
350
57
  3
C8
350
58
  3
C9
350
59
  3
D0
350
5A
  3
D1
350
5B
  3
D2
350
5C
  0
DICTIONARY
  5
1AA
102
{ACAD_REACTORS
330
C
102
}
330
C
100
AcDbDictionary
281
     1
  0
DICTIONARY
  5
2A
102
{ACAD_REACTORS
330
C
102
}
330
C
100
AcDbDictionary
281
     1
  3
2dWireframe
350
2F
  3
3D Hidden
350
31
  3
3dWireframe
350
30
  3
Basic
350
32
  3
Brighten
350
36
  3
ColorChange
350
3A
  3
Conceptual
350
34
  3
Dim
350
35
  3
Facepattern
350
39
  3
Flat
350
2B
  3
FlatWithEdges
350
2C
  3
Gouraud
350
2D
  3
GouraudWithEdges
350
2E
  3
Linepattern
350
38
  3
Realistic
350
33
  3
Thicken
350
37
  0
DICTIONARY
  5
1A8
102
{ACAD_REACTORS
330
C
102
}
330
C
100
AcDbDictionary
281
     1
  3
CANNOSCALE
350
1A9
  3
PSOLHEIGHT
350
1AD
  3
PSOLWIDTH
350
1AC
  0
LAYOUT
  5
1E
102
{ACAD_REACTORS
330
1A
102
}
330
1A
100
AcDbPlotSettings
  1

  2
none_device
  4

  6

 40
0.0
 41
0.0
 42
0.0
 43
0.0
 44
0.0
 45
0.0
 46
0.0
 47
0.0
 48
0.0
 49
0.0
140
0.0
141
0.0
142
1.0
143
1.0
 70
   688
 72
     0
 73
     0
 74
     5
  7

 75
    16
147
1.0
148
0.0
149
0.0
100
AcDbLayout
  1
Layout1
 70
     1
 71
     1
 10
0.0
 20
0.0
 11
1682.0
 21
2378.0
 12
0.0
 22
0.0
 32
0.0
 14
0.0
 24
0.0
 34
0.0
 15
1682.0
 25
2378.0
 35
0.0
146
0.0
 13
0.0
 23
0.0
 33
0.0
 16
1.0
 26
0.0
 36
0.0
 17
0.0
 27
1.0
 37
0.0
 76
     0
330
1B
  0
LAYOUT
  5
22
102
{ACAD_REACTORS
330
1A
102
}
330
1A
100
AcDbPlotSettings
  1

  2
none_device
  4

  6

 40
0.0
 41
0.0
 42
0.0
 43
0.0
 44
0.0
 45
0.0
 46
0.0
 47
0.0
 48
0.0
 49
0.0
140
0.0
141
0.0
142
1.0
143
1.0
 70
  1712
 72
     0
 73
     0
 74
     0
  7

 75
     0
147
1.0
148
0.0
149
0.0
100
AcDbLayout
  1
Model
 70
     1
 71
     0
 10
0.0
 20
0.0
 11
1682.0
 21
2378.0
 12
0.0
 22
0.0
 32
0.0
 14
0.0
 24
0.0
 34
0.0
 15
1682.0
 25
2378.0
 35
0.0
146
0.0
 13
0.0
 23
0.0
 33
0.0
 16
1.0
 26
0.0
 36
0.0
 17
0.0
 27
1.0
 37
0.0
 76
     0
330
1F
331
29
  0
MLINESTYLE
  5
18
102
{ACAD_REACTORS
330
17
102
}
330
17
100
AcDbMlineStyle
  2
Standard
 70
     0
  3

 62
   256
 51
90.0
 52
90.0
 71
     2
 49
0.5
 62
   256
  6
BYLAYER
 49
-0.5
 62
   256
  6
BYLAYER
  0
ACDBPLACEHOLDER
  5
F
102
{ACAD_REACTORS
330
E
102
}
330
E
  0
SCALE
  5
3C
102
{ACAD_REACTORS
330
3B
102
}
330
3B
100
AcDbScale
 70
     0
300
1:1
140
1.0
141
1.0
290
     1
  0
SCALE
  5
3D
102
{ACAD_REACTORS
330
3B
102
}
330
3B
100
AcDbScale
 70
     0
300
1:2
140
1.0
141
2.0
290
     0
  0
SCALE
  5
3E
102
{ACAD_REACTORS
330
3B
102
}
330
3B
100
AcDbScale
 70
     0
300
1:4
140
1.0
141
4.0
290
     0
  0
SCALE
  5
3F
102
{ACAD_REACTORS
330
3B
102
}
330
3B
100
AcDbScale
 70
     0
300
1:5
140
1.0
141
5.0
290
     0
  0
SCALE
  5
40
102
{ACAD_REACTORS
330
3B
102
}
330
3B
100
AcDbScale
 70
     0
300
1:8
140
1.0
141
8.0
290
     0
  0
SCALE
  5
41
102
{ACAD_REACTORS
330
3B
102
}
330
3B
100
AcDbScale
 70
     0
300
1:10
140
1.0
141
10.0
290
     0
  0
SCALE
  5
42
102
{ACAD_REACTORS
330
3B
102
}
330
3B
100
AcDbScale
 70
     0
300
1:16
140
1.0
141
16.0
290
     0
  0
SCALE
  5
43
102
{ACAD_REACTORS
330
3B
102
}
330
3B
100
AcDbScale
 70
     0
300
1:20
140
1.0
141
20.0
290
     0
  0
SCALE
  5
44
102
{ACAD_REACTORS
330
3B
102
}
330
3B
100
AcDbScale
 70
     0
300
1:30
140
1.0
141
30.0
290
     0
  0
SCALE
  5
45
102
{ACAD_REACTORS
330
3B
102
}
330
3B
100
AcDbScale
 70
     0
300
1:40
140
1.0
141
40.0
290
     0
  0
SCALE
  5
46
102
{ACAD_REACTORS
330
3B
102
}
330
3B
100
AcDbScale
 70
     0
300
1:50
140
1.0
141
50.0
290
     0
  0
SCALE
  5
47
102
{ACAD_REACTORS
330
3B
102
}
330
3B
100
AcDbScale
 70
     0
300
1:100
140
1.0
141
100.0
290
     0
  0
SCALE
  5
48
102
{ACAD_REACTORS
330
3B
102
}
330
3B
100
AcDbScale
 70
     0
300
2:1
140
2.0
141
1.0
290
     0
  0
SCALE
  5
49
102
{ACAD_REACTORS
330
3B
102
}
330
3B
100
AcDbScale
 70
     0
300
4:1
140
4.0
141
1.0
290
     0
  0
SCALE
  5
4A
102
{ACAD_REACTORS
330
3B
102
}
330
3B
100
AcDbScale
 70
     0
300
8:1
140
8.0
141
1.0
290
     0
  0
SCALE
  5
4B
102
{ACAD_REACTORS
330
3B
102
}
330
3B
100
AcDbScale
 70
     0
300
10:1
140
10.0
141
1.0
290
     0
  0
SCALE
  5
4C
102
{ACAD_REACTORS
330
3B
102
}
330
3B
100
AcDbScale
 70
     0
300
100:1
140
100.0
141
1.0
290
     0
  0
SCALE
  5
4D
102
{ACAD_REACTORS
330
3B
102
}
330
3B
100
AcDbScale
 70
     0
300
1/128" = 1'-0"
140
0.0078125
141
12.0
290
     0
  0
SCALE
  5
4E
102
{ACAD_REACTORS
330
3B
102
}
330
3B
100
AcDbScale
 70
     0
300
1/64" = 1'-0"
140
0.015625
141
12.0
290
     0
  0
SCALE
  5
4F
102
{ACAD_REACTORS
330
3B
102
}
330
3B
100
AcDbScale
 70
     0
300
1/32" = 1'-0"
140
0.03125
141
12.0
290
     0
  0
SCALE
  5
50
102
{ACAD_REACTORS
330
3B
102
}
330
3B
100
AcDbScale
 70
     0
300
1/16" = 1'-0"
140
0.0625
141
12.0
290
     0
  0
SCALE
  5
51
102
{ACAD_REACTORS
330
3B
102
}
330
3B
100
AcDbScale
 70
     0
300
3/32" = 1'-0"
140
0.09375
141
12.0
290
     0
  0
SCALE
  5
52
102
{ACAD_REACTORS
330
3B
102
}
330
3B
100
AcDbScale
 70
     0
300
1/8" = 1'-0"
140
0.125
141
12.0
290
     0
  0
SCALE
  5
53
102
{ACAD_REACTORS
330
3B
102
}
330
3B
100
AcDbScale
 70
     0
300
3/16" = 1'-0"
140
0.1875
141
12.0
290
     0
  0
SCALE
  5
54
102
{ACAD_REACTORS
330
3B
102
}
330
3B
100
AcDbScale
 70
     0
300
1/4" = 1'-0"
140
0.25
141
12.0
290
     0
  0
SCALE
  5
55
102
{ACAD_REACTORS
330
3B
102
}
330
3B
100
AcDbScale
 70
     0
300
3/8" = 1'-0"
140
0.375
141
12.0
290
     0
  0
SCALE
  5
56
102
{ACAD_REACTORS
330
3B
102
}
330
3B
100
AcDbScale
 70
     0
300
1/2" = 1'-0"
140
0.5
141
12.0
290
     0
  0
SCALE
  5
57
102
{ACAD_REACTORS
330
3B
102
}
330
3B
100
AcDbScale
 70
     0
300
3/4" = 1'-0"
140
0.75
141
12.0
290
     0
  0
SCALE
  5
58
102
{ACAD_REACTORS
330
3B
102
}
330
3B
100
AcDbScale
 70
     0
300
1" = 1'-0"
140
1.0
141
12.0
290
     0
  0
SCALE
  5
59
102
{ACAD_REACTORS
330
3B
102
}
330
3B
100
AcDbScale
 70
     0
300
1-1/2" = 1'-0"
140
1.5
141
12.0
290
     0
  0
SCALE
  5
5A
102
{ACAD_REACTORS
330
3B
102
}
330
3B
100
AcDbScale
 70
     0
300
3" = 1'-0"
140
3.0
141
12.0
290
     0
  0
SCALE
  5
5B
102
{ACAD_REACTORS
330
3B
102
}
330
3B
100
AcDbScale
 70
     0
300
6" = 1'-0"
140
6.0
141
12.0
290
     0
  0
SCALE
  5
5C
102
{ACAD_REACTORS
330
3B
102
}
330
3B
100
AcDbScale
 70
     0
300
1'-0" = 1'-0"
140
12.0
141
12.0
290
     0
  0
VISUALSTYLE
  5
2F
102
{ACAD_REACTORS
330
2A
102
}
330
2A
100
AcDbVisualStyle
  2
2dWireframe
 70
     4
 71
     0
 72
     2
 73
     0
 90
        0
 40
-0.6
 41
-30.0
 62
     5
 63
     7
 74
     1
 91
        4
 64
     7
 65
   257
 75
     1
175
     1
 42
1.0
 92
        0
 66
   257
 43
1.0
 76
     1
 77
     6
 78
     2
 67
     7
 79
     5
170
     0
171
     0
290
     0
174
     0
 93
        1
 44
0.0
173
     0
291
     0
 45
0.0
1001
ACAD
1000
AcDbSavedByObjectVersion
1070
     0
  0
VISUALSTYLE
  5
31
102
{ACAD_REACTORS
330
2A
102
}
330
2A
100
AcDbVisualStyle
  2
3D Hidden
 70
     6
 71
     1
 72
     2
 73
     2
 90
        0
 40
-0.6
 41
-30.0
 62
     5
 63
     7
 74
     2
 91
        2
 64
     7
 65
   257
 75
     2
175
     1
 42
40.0
 92
        0
 66
   257
 43
1.0
 76
     1
 77
     6
 78
     2
 67
     7
 79
     3
170
     0
171
     0
290
     0
174
     0
 93
        1
 44
0.0
173
     0
291
     0
 45
0.0
1001
ACAD
1000
AcDbSavedByObjectVersion
1070
     0
  0
VISUALSTYLE
  5
30
102
{ACAD_REACTORS
330
2A
102
}
330
2A
100
AcDbVisualStyle
  2
3dWireframe
 70
     5
 71
     0
 72
     2
 73
     0
 90
        0
 40
-0.6
 41
-30.0
 62
     5
 63
     7
 74
     1
 91
        4
 64
     7
 65
   257
 75
     1
175
     1
 42
1.0
 92
        0
 66
   257
 43
1.0
 76
     1
 77
     6
 78
     2
 67
     7
 79
     5
170
     0
171
     0
290
     0
174
     0
 93
        1
 44
0.0
173
     0
291
     0
 45
0.0
1001
ACAD
1000
AcDbSavedByObjectVersion
1070
     0
  0
VISUALSTYLE
  5
32
102
{ACAD_REACTORS
330
2A
102
}
330
2A
100
AcDbVisualStyle
  2
Basic
 70
     7
 71
     1
 72
     0
 73
     1
 90
        0
 40
-0.6
 41
-30.0
 62
     5
 63
     7
 74
     0
 91
        4
 64
     7
 65
   257
 75
     1
175
     1
 42
1.0
 92
        8
 66
     7
 43
1.0
 76
     1
 77
     6
 78
     2
 67
     7
 79
     5
170
     0
171
     0
290
     0
174
     0
 93
        1
 44
0.0
173
     0
291
     1
 45
0.0
1001
ACAD
1000
AcDbSavedByObjectVersion
1070
     0
  0
VISUALSTYLE
  5
36
102
{ACAD_REACTORS
330
2A
102
}
330
2A
100
AcDbVisualStyle
  2
Brighten
 70
    12
 71
     2
 72
     2
 73
     0
 90
        0
 40
-0.6
 41
-30.0
 62
     5
 63
     7
 74
     1
 91
        4
 64
     7
 65
   257
 75
     1
175
     1
 42
1.0
 92
        8
 66
     7
 43
1.0
 76
     1
 77
     6
 78
     2
 67
     7
 79
     5
170
     0
171
     0
290
     0
174
     0
 93
        1
 44
50.0
173
     0
291
     1
 45
0.0
1001
ACAD
1000
AcDbSavedByObjectVersion
1070
     0
  0
VISUALSTYLE
  5
3A
102
{ACAD_REACTORS
330
2A
102
}
330
2A
100
AcDbVisualStyle
  2
ColorChange
 70
    16
 71
     2
 72
     2
 73
     3
 90
        0
 40
-0.6
 41
-30.0
 62
     5
 63
     8
 74
     1
 91
        4
 64
     7
 65
   257
 75
     1
175
     1
 42
1.0
 92
        8
 66
     8
 43
1.0
 76
     1
 77
     6
 78
     2
 67
     7
 79
     5
170
     0
171
     0
290
     0
174
     0
 93
        1
 44
0.0
173
     0
291
     1
 45
0.0
1001
ACAD
1000
AcDbSavedByObjectVersion
1070
     0
  0
VISUALSTYLE
  5
34
102
{ACAD_REACTORS
330
2A
102
}
330
2A
100
AcDbVisualStyle
  2
Conceptual
 70
     9
 71
     3
 72
     2
 73
     0
 90
        0
 40
-0.6
 41
-30.0
 62
     5
 63
     7
 74
     2
 91
        2
 64
     7
 65
   257
 75
     1
175
     1
 42
40.0
 92
        8
 66
     7
 43
1.0
 76
     1
 77
     6
 78
     2
 67
     7
 79
     3
170
     0
171
     0
290
     0
174
     0
 93
        1
 44
0.0
173
     0
291
     0
 45
0.0
1001
ACAD
1000
AcDbSavedByObjectVersion
1070
     0
  0
VISUALSTYLE
  5
35
102
{ACAD_REACTORS
330
2A
102
}
330
2A
100
AcDbVisualStyle
  2
Dim
 70
    11
 71
     2
 72
     2
 73
     0
 90
        0
 40
-0.6
 41
-30.0
 62
     5
 63
     7
 74
     1
 91
        4
 64
     7
 65
   257
 75
     1
175
     1
 42
1.0
 92
        8
 66
     7
 43
1.0
 76
     1
 77
     6
 78
     2
 67
     7
 79
     5
170
     0
171
     0
290
     0
174
     0
 93
        1
 44
-50.0
173
     0
291
     1
 45
0.0
1001
ACAD
1000
AcDbSavedByObjectVersion
1070
     0
  0
VISUALSTYLE
  5
39
102
{ACAD_REACTORS
330
2A
102
}
330
2A
100
AcDbVisualStyle
  2
Facepattern
 70
    15
 71
     2
 72
     2
 73
     0
 90
        0
 40
-0.6
 41
-30.0
 62
     5
 63
     7
 74
     1
 91
        4
 64
     7
 65
   257
 75
     1
175
     1
 42
1.0
 92
        8
 66
     7
 43
1.0
 76
     1
 77
     6
 78
     2
 67
     7
 79
     5
170
     0
171
     0
290
     0
174
     0
 93
        1
 44
0.0
173
     0
291
     1
 45
0.0
1001
ACAD
1000
AcDbSavedByObjectVersion
1070
     0
  0
VISUALSTYLE
  5
2B
102
{ACAD_REACTORS
330
2A
102
}
330
2A
100
AcDbVisualStyle
  2
Flat
 70
     0
 71
     2
 72
     1
 73
     1
 90
        2
 40
-0.6
 41
30.0
 62
     5
 63
     7
 74
     0
 91
        4
 64
     7
 65
   257
 75
     1
175
     1
 42
1.0
 92
        8
 66
     7
 43
1.0
 76
     1
 77
     6
 78
     2
 67
     7
 79
     5
170
     0
171
     0
290
     0
174
     0
 93
       13
 44
0.0
173
     0
291
     1
 45
0.0
1001
ACAD
1000
AcDbSavedByObjectVersion
1070
     0
  0
VISUALSTYLE
  5
2C
102
{ACAD_REACTORS
330
2A
102
}
330
2A
100
AcDbVisualStyle
  2
FlatWithEdges
 70
     1
 71
     2
 72
     1
 73
     1
 90
        2
 40
-0.6
 41
30.0
 62
     5
 63
     7
 74
     1
 91
        4
 64
     7
 65
   257
 75
     1
175
     1
 42
1.0
 92
        0
 66
   257
 43
1.0
 76
     1
 77
     6
 78
     2
 67
     7
 79
     5
170
     0
171
     0
290
     0
174
     0
 93
       13
 44
0.0
173
     0
291
     1
 45
0.0
1001
ACAD
1000
AcDbSavedByObjectVersion
1070
     0
  0
VISUALSTYLE
  5
2D
102
{ACAD_REACTORS
330
2A
102
}
330
2A
100
AcDbVisualStyle
  2
Gouraud
 70
     2
 71
     2
 72
     2
 73
     1
 90
        2
 40
-0.6
 41
30.0
 62
     5
 63
     7
 74
     0
 91
        4
 64
     7
 65
   257
 75
     1
175
     1
 42
1.0
 92
        0
 66
     7
 43
1.0
 76
     1
 77
     6
 78
     2
 67
     7
 79
     5
170
     0
171
     0
290
     0
174
     0
 93
       13
 44
0.0
173
     0
291
     1
 45
0.0
1001
ACAD
1000
AcDbSavedByObjectVersion
1070
     0
  0
VISUALSTYLE
  5
2E
102
{ACAD_REACTORS
330
2A
102
}
330
2A
100
AcDbVisualStyle
  2
GouraudWithEdges
 70
     3
 71
     2
 72
     2
 73
     1
 90
        2
 40
-0.6
 41
30.0
 62
     5
 63
     7
 74
     1
 91
        4
 64
     7
 65
   257
 75
     1
175
     1
 42
1.0
 92
        0
 66
   257
 43
1.0
 76
     1
 77
     6
 78
     2
 67
     7
 79
     5
170
     0
171
     0
290
     0
174
     0
 93
       13
 44
0.0
173
     0
291
     1
 45
0.0
1001
ACAD
1000
AcDbSavedByObjectVersion
1070
     0
  0
VISUALSTYLE
  5
38
102
{ACAD_REACTORS
330
2A
102
}
330
2A
100
AcDbVisualStyle
  2
Linepattern
 70
    14
 71
     2
 72
     2
 73
     0
 90
        0
 40
-0.6
 41
-30.0
 62
     5
 63
     7
 74
     1
 91
        4
 64
     7
 65
   257
 75
     7
175
     7
 42
1.0
 92
        8
 66
     7
 43
1.0
 76
     1
 77
     6
 78
     2
 67
     7
 79
     5
170
     0
171
     0
290
     0
174
     0
 93
        1
 44
0.0
173
     0
291
     1
 45
0.0
1001
ACAD
1000
AcDbSavedByObjectVersion
1070
     0
  0
VISUALSTYLE
  5
33
102
{ACAD_REACTORS
330
2A
102
}
330
2A
100
AcDbVisualStyle
  2
Realistic
 70
     8
 71
     2
 72
     2
 73
     0
 90
        0
 40
-0.6
 41
-30.0
 62
     5
 63
     7
 74
     1
 91
        0
 64
     7
 65
   257
 75
     1
175
     1
 42
1.0
 92
        8
 66
     8
 43
1.0
 76
     1
 77
     6
 78
     2
 67
     7
 79
     5
170
     0
171
     0
290
     0
174
     0
 93
       13
 44
0.0
173
     0
291
     0
 45
0.0
1001
ACAD
1000
AcDbSavedByObjectVersion
1070
     0
  0
VISUALSTYLE
  5
37
102
{ACAD_REACTORS
330
2A
102
}
330
2A
100
AcDbVisualStyle
  2
Thicken
 70
    13
 71
     2
 72
     2
 73
     0
 90
        0
 40
-0.6
 41
-30.0
 62
     5
 63
     7
 74
     1
 91
        4
 64
     7
 65
   257
 75
     1
175
     1
 42
1.0
 92
       12
 66
     7
 43
1.0
 76
     1
 77
     6
 78
     2
 67
     7
 79
     5
170
     0
171
     0
290
     0
174
     0
 93
        1
 44
0.0
173
     0
291
     1
 45
0.0
1001
ACAD
1000
AcDbSavedByObjectVersion
1070
     0
  0
DICTIONARYVAR
  5
1A9
102
{ACAD_REACTORS
330
1A8
102
}
330
1A8
100
DictionaryVariables
280
     0
  1
1:1
  0
DICTIONARYVAR
  5
1AD
102
{ACAD_REACTORS
330
1A8
102
}
330
1A8
100
DictionaryVariables
280
     0
  1
80.000000
  0
DICTIONARYVAR
  5
1AC
102
{ACAD_REACTORS
330
1A8
102
}
330
1A8
100
DictionaryVariables
280
     0
  1
5.000000
  0
ENDSEC
  0
EOF
