  0
SECTION
  2
HEADER
  9
$ACADVER
  1
AC1015
  9
$ACADMAINTVER
 70
     6
  9
$DWGCODEPAGE
  3
ANSI_1252
  9
$INSBASE
 10
0.0
 20
0.0
 30
0.0
  9
$EXTMIN
 10
0.0
 20
0.0
 30
0.0
  9
$EXTMAX
 10
1682.0
 20
2378.0
 30
0.0
  9
$LIMMIN
 10
0.0
 20
0.0
  9
$LIMMAX
 10
1682.0
 20
2378.0
  9
$ORTHOMODE
 70
     0
  9
$REGENMODE
 70
     1
  9
$FILLMODE
 70
     1
  9
$QTEXTMODE
 70
     0
  9
$MIRRTEXT
 70
     1
  9
$LTSCALE
 40
1.0
  9
$ATTMODE
 70
     1
  9
$TEXTSIZE
 40
2.5
  9
$TRACEWID
 40
1.0
  9
$TEXTSTYLE
  7
Standard
  9
$CLAYER
  8
0
  9
$CELTYPE
  6
ByLayer
  9
$CECOLOR
 62
   256
  9
$CELTSCALE
 40
1.0
  9
$DISPSILH
 70
     0
  9
$DIMSCALE
 40
1.0
  9
$DIMASZ
 40
2.5
  9
$DIMEXO
 40
0.625
  9
$DIMDLI
 40
3.75
  9
$DIMRND
 40
0.0
  9
$DIMDLE
 40
0.0
  9
$DIMEXE
 40
1.25
  9
$DIMTP
 40
0.0
  9
$DIMTM
 40
0.0
  9
$DIMTXT
 40
2.5
  9
$DIMCEN
 40
2.5
  9
$DIMTSZ
 40
0.0
  9
$DIMTOL
 70
     0
  9
$DIMLIM
 70
     0
  9
$DIMTIH
 70
     0
  9
$DIMTOH
 70
     0
  9
$DIMSE1
 70
     0
  9
$DIMSE2
 70
     0
  9
$DIMTAD
 70
     1
  9
$DIMZIN
 70
     8
  9
$DIMBLK
  1

  9
$DIMASO
 70
     1
  9
$DIMSHO
 70
     1
  9
$DIMPOST
  1

  9
$DIMAPOST
  1

  9
$DIMALT
 70
     0
  9
$DIMALTD
 70
     3
  9
$DIMALTF
 40
0.0393700787
  9
$DIMLFAC
 40
1.0
  9
$DIMTOFL
 70
     1
  9
$DIMTVP
 40
0.0
  9
$DIMTIX
 70
     0
  9
$DIMSOXD
 70
     0
  9
$DIMSAH
 70
     0
  9
$DIMBLK1
  1

  9
$DIMBLK2
  1

  9
$DIMSTYLE
  2
ISO-25
  9
$DIMCLRD
 70
     0
  9
$DIMCLRE
 70
     0
  9
$DIMCLRT
 70
     0
  9
$DIMTFAC
 40
1.0
  9
$DIMGAP
 40
0.625
  9
$DIMJUST
 70
     0
  9
$DIMSD1
 70
     0
  9
$DIMSD2
 70
     0
  9
$DIMTOLJ
 70
     0
  9
$DIMTZIN
 70
     8
  9
$DIMALTZ
 70
     0
  9
$DIMALTTZ
 70
     0
  9
$DIMUPT
 70
     0
  9
$DIMDEC
 70
     2
  9
$DIMTDEC
 70
     2
  9
$DIMALTU
 70
     2
  9
$DIMALTTD
 70
     3
  9
$DIMTXSTY
  7
Standard
  9
$DIMAUNIT
 70
     0
  9
$DIMADEC
 70
     0
  9
$DIMALTRND
 40
0.0
  9
$DIMAZIN
 70
     0
  9
$DIMDSEP
 70
    44
  9
$DIMATFIT
 70
     3
  9
$DIMFRAC
 70
     0
  9
$DIMLDRBLK
  1

  9
$DIMLUNIT
 70
     2
  9
$DIMLWD
 70
    -2
  9
$DIMLWE
 70
    -2
  9
$DIMTMOVE
 70
     0
  9
$LUNITS
 70
     2
  9
$LUPREC
 70
     4
  9
$SKETCHINC
 40
1.0
  9
$FILLETRAD
 40
10.0
  9
$AUNITS
 70
     0
  9
$AUPREC
 70
     0
  9
$MENU
  1
.
  9
$ELEVATION
 40
0.0
  9
$PELEVATION
 40
0.0
  9
$THICKNESS
 40
0.0
  9
$LIMCHECK
 70
     0
  9
$CHAMFERA
 40
10.0
  9
$CHAMFERB
 40
10.0
  9
$CHAMFERC
 40
20.0
  9
$CHAMFERD
 40
0.0
  9
$SKPOLY
 70
     0
  9
$TDCREATE
 40
2455237.485729329
  9
$TDUCREATE
 40
2455237.444062662
  9
$TDUPDATE
 40
2455237.48572934
  9
$TDUUPDATE
 40
2455237.444062673
  9
$TDINDWG
 40
0.0000000116
  9
$TDUSRTIMER
 40
0.0000000116
  9
$USRTIMER
 70
     1
  9
$ANGBASE
 50
0.0
  9
$ANGDIR
 70
     0
  9
$PDMODE
 70
     0
  9
$PDSIZE
 40
0.0
  9
$PLINEWID
 40
0.0
  9
$SPLFRAME
 70
     0
  9
$SPLINETYPE
 70
     6
  9
$SPLINESEGS
 70
     8
  9
$HANDSEED
  5
177
  9
$SURFTAB1
 70
     6
  9
$SURFTAB2
 70
     6
  9
$SURFTYPE
 70
     6
  9
$SURFU
 70
     6
  9
$SURFV
 70
     6
  9
$UCSBASE
  2

  9
$UCSNAME
  2

  9
$UCSORG
 10
0.0
 20
0.0
 30
0.0
  9
$UCSXDIR
 10
1.0
 20
0.0
 30
0.0
  9
$UCSYDIR
 10
0.0
 20
1.0
 30
0.0
  9
$UCSORTHOREF
  2

  9
$UCSORTHOVIEW
 70
     0
  9
$UCSORGTOP
 10
0.0
 20
0.0
 30
0.0
  9
$UCSORGBOTTOM
 10
0.0
 20
0.0
 30
0.0
  9
$UCSORGLEFT
 10
0.0
 20
0.0
 30
0.0
  9
$UCSORGRIGHT
 10
0.0
 20
0.0
 30
0.0
  9
$UCSORGFRONT
 10
0.0
 20
0.0
 30
0.0
  9
$UCSORGBACK
 10
0.0
 20
0.0
 30
0.0
  9
$PUCSBASE
  2

  9
$PUCSNAME
  2

  9
$PUCSORG
 10
0.0
 20
0.0
 30
0.0
  9
$PUCSXDIR
 10
1.0
 20
0.0
 30
0.0
  9
$PUCSYDIR
 10
0.0
 20
1.0
 30
0.0
  9
$PUCSORTHOREF
  2

  9
$PUCSORTHOVIEW
 70
     0
  9
$PUCSORGTOP
 10
0.0
 20
0.0
 30
0.0
  9
$PUCSORGBOTTOM
 10
0.0
 20
0.0
 30
0.0
  9
$PUCSORGLEFT
 10
0.0
 20
0.0
 30
0.0
  9
$PUCSORGRIGHT
 10
0.0
 20
0.0
 30
0.0
  9
$PUCSORGFRONT
 10
0.0
 20
0.0
 30
0.0
  9
$PUCSORGBACK
 10
0.0
 20
0.0
 30
0.0
  9
$USERI1
 70
     0
  9
$USERI2
 70
     0
  9
$USERI3
 70
     0
  9
$USERI4
 70
     0
  9
$USERI5
 70
     0
  9
$USERR1
 40
0.0
  9
$USERR2
 40
0.0
  9
$USERR3
 40
0.0
  9
$USERR4
 40
0.0
  9
$USERR5
 40
0.0
  9
$WORLDVIEW
 70
     1
  9
$SHADEDGE
 70
     3
  9
$SHADEDIF
 70
    70
  9
$TILEMODE
 70
     1
  9
$MAXACTVP
 70
    64
  9
$PINSBASE
 10
0.0
 20
0.0
 30
0.0
  9
$PLIMCHECK
 70
     0
  9
$PEXTMIN
 10
0.0
 20
0.0
 30
0.0
  9
$PEXTMAX
 10
1682.0
 20
2378.0
 30
0.0
  9
$PLIMMIN
 10
0.0
 20
0.0
  9
$PLIMMAX
 10
1682.0
 20
2378.0
  9
$UNITMODE
 70
     0
  9
$VISRETAIN
 70
     1
  9
$PLINEGEN
 70
     0
  9
$PSLTSCALE
 70
     1
  9
$TREEDEPTH
 70
  3020
  9
$CMLSTYLE
  2
Standard
  9
$CMLJUST
 70
     0
  9
$CMLSCALE
 40
20.0
  9
$PROXYGRAPHICS
 70
     1
  9
$MEASUREMENT
 70
     1
  9
$CELWEIGHT
370
    -1
  9
$ENDCAPS
280
     0
  9
$JOINSTYLE
280
     0
  9
$LWDISPLAY
290
     0
  9
$INSUNITS
 70
     4
  9
$HYPERLINKBASE
  1

  9
$STYLESHEET
  1

  9
$XEDIT
290
     1
  9
$CEPSNTYPE
380
     0
  9
$PSTYLEMODE
290
     1
  9
$FINGERPRINTGUID
  2
{91EC419E-EC37-4E75-A15C-6F2E700906D0}
  9
$VERSIONGUID
  2
{FAEB1C32-E019-11D5-929B-00C0DF256EC4}
  9
$EXTNAMES
290
     1
  9
$PSVPSCALE
 40
0.0
  9
$OLESTARTUP
290
     0
  0
ENDSEC
  0
SECTION
  2
CLASSES
  0
CLASS
  1
ACDBDICTIONARYWDFLT
  2
AcDbDictionaryWithDefault
  3
ObjectDBX Classes
 90
        0
280
     0
281
     0
  0
CLASS
  1
VISUALSTYLE
  2
AcDbVisualStyle
  3
ObjectDBX Classes
 90
     4095
280
     0
281
     0
  0
CLASS
  1
SCALE
  2
AcDbScale
  3
ObjectDBX Classes
 90
     1153
280
     0
281
     0
  0
CLASS
  1
DICTIONARYVAR
  2
AcDbDictionaryVar
  3
ObjectDBX Classes
 90
        0
280
     0
281
     0
  0
CLASS
  1
ACDBPLACEHOLDER
  2
AcDbPlaceHolder
  3
ObjectDBX Classes
 90
        0
280
     0
281
     0
  0
CLASS
  1
LAYOUT
  2
AcDbLayout
  3
ObjectDBX Classes
 90
        0
280
     0
281
     0
  0
ENDSEC
  0
SECTION
  2
TABLES
  0
TABLE
  2
VPORT
  5
8
330
0
100
AcDbSymbolTable
 70
     1
  0
VPORT
  5
29
330
8
100
AcDbSymbolTableRecord
100
AcDbViewportTableRecord
  2
*Active
 70
     0
 10
0.0
 20
0.0
 11
1.0
 21
1.0
 12
344.1869158879
 22
148.5
 13
0.0
 23
0.0
 14
10.0
 24
10.0
 15
10.0
 25
10.0
 16
0.0
 26
0.0
 36
1.0
 17
0.0
 27
0.0
 37
0.0
 40
297.0
 41
1.9729729729
 42
50.0
 43
0.0
 44
0.0
 50
0.0
 51
0.0
 71
     0
 72
   100
 73
     1
 74
     3
 75
     0
 76
     0
 77
     0
 78
     0
281
     0
 65
     1
110
0.0
120
0.0
130
0.0
111
1.0
121
0.0
131
0.0
112
0.0
122
1.0
132
0.0
 79
     0
146
0.0
  0
ENDTAB
  0
TABLE
  2
LTYPE
  5
5
330
0
100
AcDbSymbolTable
 70
     2
  0
LTYPE
  5
14
330
5
100
AcDbSymbolTableRecord
100
AcDbLinetypeTableRecord
  2
ByBlock
 70
     0
  3

 72
    65
 73
     0
 40
0.0
  0
LTYPE
  5
15
330
5
100
AcDbSymbolTableRecord
100
AcDbLinetypeTableRecord
  2
ByLayer
 70
     0
  3

 72
    65
 73
     0
 40
0.0
  0
LTYPE
  5
16
330
5
100
AcDbSymbolTableRecord
100
AcDbLinetypeTableRecord
  2
Continuous
 70
     0
  3
Solid line
 72
    65
 73
     0
 40
0.0
  0
LTYPE
  5
9B
330
5
100
AcDbSymbolTableRecord
100
AcDbLinetypeTableRecord
  2
CENTER2
 70
     0
  3
Center (.5x) ___ _ ___ _ ___ _ ___ _ ___ _ ___
 72
    65
 73
     4
 40
28.575
 49
19.05
 74
     4
 75
     0
340
0
 46
0.0
 50
0.0
 44
0.0
 45
0.0
 49
-3.175
 74
     4
 75
     0
340
0
 46
0.0
 50
0.0
 44
0.0
 45
0.0
 49
3.175
 74
     4
 75
     0
340
0
 46
0.0
 50
0.0
 44
0.0
 45
0.0
 49
-3.175
 74
     4
 75
     0
340
0
 46
0.0
 50
0.0
 44
0.0
 45
0.0
  0
ENDTAB
  0
TABLE
  2
LAYER
  5
2
330
0
100
AcDbSymbolTable
 70
    12
  0
LAYER
  5
10
330
2
100
AcDbSymbolTableRecord
100
AcDbLayerTableRecord
  2
0
 70
     0
 62
     7
  6
Continuous
370
    -3
390
F
  0
LAYER
  5
5D
330
2
100
AcDbSymbolTableRecord
100
AcDbLayerTableRecord
  2
Default
 70
     0
 62
     7
  6
Continuous
370
    -3
390
F
  0
LAYER
  5
60
330
2
100
AcDbSymbolTableRecord
100
AcDbLayerTableRecord
  2
$DDT_AUDIT_GENERATED_(60)
 70
     0
 62
     7
  6
Continuous
370
    -3
390
F
  0
LAYER
  5
72
330
2
100
AcDbSymbolTableRecord
100
AcDbLayerTableRecord
  2
$DDT_AUDIT_GENERATED_(72)
 70
     0
 62
     7
  6
Continuous
370
    -3
390
F
  0
LAYER
  5
7F
330
2
100
AcDbSymbolTableRecord
100
AcDbLayerTableRecord
  2
$DDT_AUDIT_GENERATED_(7F)
 70
     0
 62
     7
  6
Continuous
370
    -3
390
F
  0
LAYER
  5
96
330
2
100
AcDbSymbolTableRecord
100
AcDbLayerTableRecord
  2
$DDT_AUDIT_GENERATED_(96)
 70
     0
 62
     7
  6
Continuous
370
    -3
390
F
  0
LAYER
  5
9A
330
2
100
AcDbSymbolTableRecord
100
AcDbLayerTableRecord
  2
DV1_Standard
 70
     0
 62
     7
  6
Continuous
370
    -3
390
F
  0
LAYER
  5
C4
330
2
100
AcDbSymbolTableRecord
100
AcDbLayerTableRecord
  2
$DDT_AUDIT_GENERATED_(C4)
 70
     0
 62
     7
  6
Continuous
370
    -3
390
F
  0
LAYER
  5
EE
330
2
100
AcDbSymbolTableRecord
100
AcDbLayerTableRecord
  2
$DDT_AUDIT_GENERATED_(EE)
 70
     0
 62
     7
  6
Continuous
370
    -3
390
F
  0
LAYER
  5
FB
330
2
100
AcDbSymbolTableRecord
100
AcDbLayerTableRecord
  2
$DDT_AUDIT_GENERATED_(FB)
 70
     0
 62
     7
  6
Continuous
370
    -3
390
F
  0
LAYER
  5
101
330
2
100
AcDbSymbolTableRecord
100
AcDbLayerTableRecord
  2
DV2_Standard
 70
     0
 62
     7
  6
Continuous
370
    -3
390
F
  0
LAYER
  5
15F
330
2
100
AcDbSymbolTableRecord
100
AcDbLayerTableRecord
  2
DV3_Standard
 70
     0
 62
     7
  6
Continuous
370
    -3
390
F
  0
ENDTAB
  0
TABLE
  2
STYLE
  5
3
330
0
100
AcDbSymbolTable
 70
     2
  0
STYLE
  5
11
330
3
100
AcDbSymbolTableRecord
100
AcDbTextStyleTableRecord
  2
Standard
 70
     0
 40
0.0
 41
1.0
 50
0.0
 71
     0
 42
2.5
  3
txt
  4

  0
STYLE
  5
166
330
3
100
AcDbSymbolTableRecord
100
AcDbTextStyleTableRecord
  2
SEACAD_seiso_ttf
 70
     0
 40
0.0
 41
1.0
 50
0.0
 71
     0
 42
0.2
  3
seiso.ttf
  4

  0
ENDTAB
  0
TABLE
  2
VIEW
  5
6
330
0
100
AcDbSymbolTable
 70
     0
  0
ENDTAB
  0
TABLE
  2
UCS
  5
7
330
0
100
AcDbSymbolTable
 70
     0
  0
ENDTAB
  0
TABLE
  2
APPID
  5
9
330
0
100
AcDbSymbolTable
 70
     1
  0
APPID
  5
12
330
9
100
AcDbSymbolTableRecord
100
AcDbRegAppTableRecord
  2
ACAD
 70
     0
  0
ENDTAB
  0
TABLE
  2
DIMSTYLE
  5
A
330
0
100
AcDbSymbolTable
 70
     1
100
AcDbDimStyleTable
  0
DIMSTYLE
105
27
330
A
100
AcDbSymbolTableRecord
100
AcDbDimStyleTableRecord
  2
ISO-25
 70
     0
 41
2.5
 42
0.625
 43
3.75
 44
1.25
 73
     0
 74
     0
 77
     1
 78
     8
140
2.5
141
2.5
143
0.0393700787
147
0.625
171
     3
172
     1
271
     2
272
     2
274
     3
278
    44
283
     0
284
     8
340
11
  0
ENDTAB
  0
TABLE
  2
BLOCK_RECORD
  5
1
330
0
100
AcDbSymbolTable
 70
     4
  0
BLOCK_RECORD
  5
1F
330
1
100
AcDbSymbolTableRecord
100
AcDbBlockTableRecord
  2
*Model_Space
340
22
  0
BLOCK_RECORD
  5
1B
330
1
100
AcDbSymbolTableRecord
100
AcDbBlockTableRecord
  2
*Paper_Space
340
1E
  0
BLOCK_RECORD
  5
5E
330
1
100
AcDbSymbolTableRecord
100
AcDbBlockTableRecord
  2
SE
340
0
102
{BLKREFS
331
5F
102
}
  0
BLOCK_RECORD
  5
AA
330
1
100
AcDbSymbolTableRecord
100
AcDbBlockTableRecord
  2
SE1
340
0
102
{BLKREFS
331
AB
102
}
  0
BLOCK_RECORD
  5
106
330
1
100
AcDbSymbolTableRecord
100
AcDbBlockTableRecord
  2
SE2
340
0
102
{BLKREFS
331
107
102
}
  0
ENDTAB
  0
ENDSEC
  0
SECTION
  2
BLOCKS
  0
BLOCK
  5
20
330
1F
100
AcDbEntity
  8
0
100
AcDbBlockBegin
  2
*Model_Space
 70
     0
 10
0.0
 20
0.0
 30
0.0
  3
*Model_Space
  1

  0
ENDBLK
  5
21
330
1F
100
AcDbEntity
  8
0
100
AcDbBlockEnd
  0
BLOCK
  5
1C
330
1B
100
AcDbEntity
 67
     1
  8
0
100
AcDbBlockBegin
  2
*Paper_Space
 70
     0
 10
0.0
 20
0.0
 30
0.0
  3
*Paper_Space
  1

  0
ENDBLK
  5
1D
330
1B
100
AcDbEntity
 67
     1
  8
0
100
AcDbBlockEnd
  0
BLOCK
  5
A8
330
5E
100
AcDbEntity
  8
0
100
AcDbBlockBegin
  2
SE
 70
     0
 10
0.0
 20
0.0
 30
0.0
  3
SE
  1

  0
LINE
  5
61
330
5E
100
AcDbEntity
  8
$DDT_AUDIT_GENERATED_(60)
  6
Continuous
 62
     7
100
AcDbLine
 10
36.35
 20
466.5161630784
 30
0.0
 11
196.35
 21
466.5161630784
 31
0.0
  0
ARC
  5
62
330
5E
100
AcDbEntity
  8
$DDT_AUDIT_GENERATED_(60)
  6
Continuous
 62
     7
100
AcDbCircle
 10
36.35
 20
451.5161630784
 30
0.0
 40
15.0
100
AcDbArc
 50
90.0
 51
180.0
  0
ARC
  5
63
330
5E
100
AcDbEntity
  8
$DDT_AUDIT_GENERATED_(60)
  6
Continuous
 62
     7
100
AcDbCircle
 10
196.35
 20
451.5161630784
 30
0.0
 40
15.0
100
AcDbArc
 50
0.0
 51
90.0
  0
LINE
  5
64
330
5E
100
AcDbEntity
  8
$DDT_AUDIT_GENERATED_(60)
  6
Continuous
 62
     7
100
AcDbLine
 10
21.35
 20
436.5161630784
 30
0.0
 11
21.35
 21
451.5161630784
 31
0.0
  0
LINE
  5
65
330
5E
100
AcDbEntity
  8
$DDT_AUDIT_GENERATED_(60)
  6
Continuous
 62
     7
100
AcDbLine
 10
211.35
 20
451.5161630784
 30
0.0
 11
211.35
 21
436.5161630784
 31
0.0
  0
ARC
  5
66
330
5E
100
AcDbEntity
  8
$DDT_AUDIT_GENERATED_(60)
  6
Continuous
 62
     7
100
AcDbCircle
 10
36.35
 20
436.5161630784
 30
0.0
 40
14.99999999999999
100
AcDbArc
 50
180.0
 51
270.0
  0
ARC
  5
67
330
5E
100
AcDbEntity
  8
$DDT_AUDIT_GENERATED_(60)
  6
Continuous
 62
     7
100
AcDbCircle
 10
196.35
 20
436.5161630784
 30
0.0
 40
15.0
100
AcDbArc
 50
270.0
 51
0.0
  0
LINE
  5
68
330
5E
100
AcDbEntity
  8
$DDT_AUDIT_GENERATED_(60)
  6
Continuous
 62
     7
100
AcDbLine
 10
80.31
 20
421.5161630784
 30
0.0
 11
36.35
 21
421.5161630784
 31
0.0
  0
LINE
  5
69
330
5E
100
AcDbEntity
  8
$DDT_AUDIT_GENERATED_(60)
  6
Continuous
 62
     7
100
AcDbLine
 10
196.35
 20
421.5161630784
 30
0.0
 11
152.39
 21
421.5161630784
 31
0.0
  0
ARC
  5
6A
330
5E
100
AcDbEntity
  8
$DDT_AUDIT_GENERATED_(60)
  6
Continuous
 62
     7
100
AcDbCircle
 10
80.31
 20
406.5161630784
 30
0.0
 40
15.0
100
AcDbArc
 50
32.4122129397
 51
90.0
  0
ARC
  5
6B
330
5E
100
AcDbEntity
  8
$DDT_AUDIT_GENERATED_(60)
  6
Continuous
 62
     7
100
AcDbCircle
 10
152.39
 20
406.5161630784
 30
0.0
 40
15.00000000000002
100
AcDbArc
 50
90.0
 51
147.5877870603
  0
ARC
  5
6C
330
5E
100
AcDbEntity
  8
$DDT_AUDIT_GENERATED_(60)
  6
Continuous
 62
     7
100
AcDbCircle
 10
116.35
 20
434.9161630784
 30
0.0
 40
31.00000000302762
100
AcDbArc
 50
317.8997053832
 51
318.9459323976
  0
ARC
  5
6D
330
5E
100
AcDbEntity
  8
$DDT_AUDIT_GENERATED_(60)
  6
Continuous
 62
     7
100
AcDbCircle
 10
116.35
 20
434.9161630784
 30
0.0
 40
31.00000000302762
100
AcDbArc
 50
247.5332748404
 51
292.4667251596
  0
ARC
  5
6E
330
5E
100
AcDbEntity
  8
$DDT_AUDIT_GENERATED_(60)
  6
Continuous
 62
     7
100
AcDbCircle
 10
116.35
 20
434.9161630784
 30
0.0
 40
31.00000000302762
100
AcDbArc
 50
221.0540676024
 51
222.1066029449
  0
ARC
  5
6F
330
5E
100
AcDbEntity
  8
$DDT_AUDIT_GENERATED_(60)
  6
Continuous
 62
     7
100
AcDbCircle
 10
116.35
 20
438.2161630784
 30
0.0
 40
26.4
100
AcDbArc
 50
0.0
 51
209.4052553577
  0
ARC
  5
70
330
5E
100
AcDbEntity
  8
$DDT_AUDIT_GENERATED_(60)
  6
Continuous
 62
     7
100
AcDbCircle
 10
116.35
 20
438.2161630784
 30
0.0
 40
26.4
100
AcDbArc
 50
251.9813976449
 51
288.0186023551
  0
ARC
  5
71
330
5E
100
AcDbEntity
  8
$DDT_AUDIT_GENERATED_(60)
  6
Continuous
 62
     7
100
AcDbCircle
 10
116.35
 20
438.2161630784
 30
0.0
 40
26.4
100
AcDbArc
 50
330.6048616766
 51
360.0
  0
LINE
  5
73
330
5E
100
AcDbEntity
  8
$DDT_AUDIT_GENERATED_(72)
  6
Continuous
 62
     7
100
AcDbLine
 10
107.35
 20
398.6261630754
 30
0.0
 11
125.35
 21
398.6261630754
 31
0.0
  0
LINE
  5
74
330
5E
100
AcDbEntity
  8
$DDT_AUDIT_GENERATED_(72)
  6
Continuous
 62
     7
100
AcDbLine
 10
126.83
 20
397.1461630754
 30
0.0
 11
105.87
 21
397.1461630754
 31
0.0
  0
LINE
  5
75
330
5E
100
AcDbEntity
  8
$DDT_AUDIT_GENERATED_(72)
  6
Continuous
 62
     7
100
AcDbLine
 10
125.63
 20
389.7261630754
 30
0.0
 11
107.07
 21
389.7261630754
 31
0.0
  0
LINE
  5
76
330
5E
100
AcDbEntity
  8
$DDT_AUDIT_GENERATED_(72)
  6
Continuous
 62
     7
100
AcDbLine
 10
126.83
 20
390.9261630754
 30
0.0
 11
105.87
 21
390.9261630754
 31
0.0
  0
LINE
  5
77
330
5E
100
AcDbEntity
  8
$DDT_AUDIT_GENERATED_(72)
  6
Continuous
 62
     7
100
AcDbLine
 10
105.87
 20
397.1461630754
 30
0.0
 11
105.87
 21
390.9261630754
 31
0.0
  0
LINE
  5
78
330
5E
100
AcDbEntity
  8
$DDT_AUDIT_GENERATED_(72)
  6
Continuous
 62
     7
100
AcDbLine
 10
126.83
 20
390.9261630754
 30
0.0
 11
126.83
 21
397.1461630754
 31
0.0
  0
LINE
  5
79
330
5E
100
AcDbEntity
  8
$DDT_AUDIT_GENERATED_(72)
  6
Continuous
 62
     7
100
AcDbLine
 10
107.35
 20
405.2513691269
 30
0.0
 11
107.35
 21
398.6261630754
 31
0.0
  0
LINE
  5
7A
330
5E
100
AcDbEntity
  8
$DDT_AUDIT_GENERATED_(72)
  6
Continuous
 62
     7
100
AcDbLine
 10
125.35
 20
398.6261630754
 30
0.0
 11
125.35
 21
405.2513691269
 31
0.0
  0
LINE
  5
7B
330
5E
100
AcDbEntity
  8
$DDT_AUDIT_GENERATED_(72)
  6
Continuous
 62
     7
100
AcDbLine
 10
126.83
 20
397.1461630754
 30
0.0
 11
125.35
 21
398.6261630754
 31
0.0
  0
LINE
  5
7C
330
5E
100
AcDbEntity
  8
$DDT_AUDIT_GENERATED_(72)
  6
Continuous
 62
     7
100
AcDbLine
 10
107.35
 20
398.6261630754
 30
0.0
 11
105.87
 21
397.1461630754
 31
0.0
  0
LINE
  5
7D
330
5E
100
AcDbEntity
  8
$DDT_AUDIT_GENERATED_(72)
  6
Continuous
 62
     7
100
AcDbLine
 10
105.87
 20
390.9261630754
 30
0.0
 11
107.07
 21
389.7261630754
 31
0.0
  0
LINE
  5
7E
330
5E
100
AcDbEntity
  8
$DDT_AUDIT_GENERATED_(72)
  6
Continuous
 62
     7
100
AcDbLine
 10
125.63
 20
389.7261630754
 30
0.0
 11
126.83
 21
390.9261630754
 31
0.0
  0
ELLIPSE
  5
80
330
5E
100
AcDbEntity
  8
$DDT_AUDIT_GENERATED_(7F)
  6
Continuous
 62
     7
100
AcDbEllipse
 10
131.3511442042
 20
359.0069176681
 30
0.0
 11
-7.999999999998942
 21
-1.543210004228968E-11
 31
0.0
210
0.0
220
0.0
230
1.0
 40
0.999657325
 41
1.570796326792965
 42
3.141592653589797
  0
LINE
  5
81
330
5E
100
AcDbEntity
  8
$DDT_AUDIT_GENERATED_(7F)
  6
Continuous
 62
     7
100
AcDbLine
 10
93.3511442042
 20
359.0069176681
 30
0.0
 11
93.3511442042
 21
359.1273316303
 31
0.0
  0
ELLIPSE
  5
82
330
5E
100
AcDbEntity
  8
$DDT_AUDIT_GENERATED_(7F)
  6
Continuous
 62
     7
100
AcDbEllipse
 10
101.3511442042
 20
359.0069176681
 30
0.0
 11
-7.999999999998928
 21
2.073341498487480E-11
 31
0.0
210
0.0
220
0.0
230
1.0
 40
0.999657325
 41
0.0
 42
1.570796326797487
  0
LINE
  5
83
330
5E
100
AcDbEntity
  8
$DDT_AUDIT_GENERATED_(7F)
  6
Continuous
 62
     7
100
AcDbLine
 10
101.3511442042
 20
351.0094191957
 30
0.0
 11
101.3511442042
 21
351.0096590683
 31
0.0
  0
LINE
  5
84
330
5E
100
AcDbEntity
  8
$DDT_AUDIT_GENERATED_(7F)
  6
Continuous
 62
     7
100
AcDbLine
 10
131.3511442042
 20
351.0094191957
 30
0.0
 11
131.3511442042
 21
351.0096590683
 31
0.0
  0
LINE
  5
85
330
5E
100
AcDbEntity
  8
$DDT_AUDIT_GENERATED_(7F)
  6
Continuous
 62
     7
100
AcDbLine
 10
93.3511442042
 20
359.1273316303
 30
0.0
 11
93.3511442042
 21
437.5370476378
 31
0.0
  0
LINE
  5
86
330
5E
100
AcDbEntity
  8
$DDT_AUDIT_GENERATED_(7F)
  6
Continuous
 62
     7
100
AcDbLine
 10
139.3511442042
 20
359.1273316303
 30
0.0
 11
139.3511442042
 21
359.0069176681
 31
0.0
  0
LINE
  5
87
330
5E
100
AcDbEntity
  8
$DDT_AUDIT_GENERATED_(7F)
  6
Continuous
 62
     7
100
AcDbLine
 10
139.3511442042
 20
437.5632641731
 30
0.0
 11
139.3511442042
 21
359.1273316303
 31
0.0
  0
ELLIPSE
  5
88
330
5E
100
AcDbEntity
  8
$DDT_AUDIT_GENERATED_(7F)
  6
Continuous
 62
     7
100
AcDbEllipse
 10
116.35
 20
439.3014992926
 30
0.0
 11
23.05633597053477
 21
-1.157123008521665E-9
 31
0.0
210
0.0
220
0.0
230
1.0
 40
0.999657325
 41
-0.0666308443928911
 42
3.209852216842628
  0
LINE
  5
89
330
5E
100
AcDbEntity
  8
$DDT_AUDIT_GENERATED_(7F)
  6
Continuous
 62
     7
100
AcDbLine
 10
101.3511442042
 20
351.0094191957
 30
0.0
 11
131.3511442042
 21
351.0094191957
 31
0.0
  0
ARC
  5
8A
330
5E
100
AcDbEntity
  8
$DDT_AUDIT_GENERATED_(7F)
  6
Continuous
 62
     7
100
AcDbCircle
 10
119.6711768813
 20
437.2237589295
 30
0.0
 40
19.89094222950266
100
AcDbArc
 50
351.5417513198
 51
351.6773721076
  0
ARC
  5
8B
330
5E
100
AcDbEntity
  8
$DDT_AUDIT_GENERATED_(7F)
  6
Continuous
 62
     7
100
AcDbCircle
 10
112.97351463
 20
437.2079125971
 30
0.0
 40
19.83331620296842
100
AcDbArc
 50
188.3325229532
 51
188.5103231327
  0
LINE
  5
8C
330
5E
100
AcDbEntity
  8
$DDT_AUDIT_GENERATED_(7F)
  6
Continuous
 62
     7
100
AcDbLine
 10
104.5034485876
 20
370.8689293406
 30
0.0
 11
104.5034485876
 21
410.3954997302
 31
0.0
  0
ARC
  5
8D
330
5E
100
AcDbEntity
  8
$DDT_AUDIT_GENERATED_(7F)
  6
Continuous
 62
     7
100
AcDbCircle
 10
108.3242163888
 20
370.8284493483
 30
0.0
 40
3.820716331929658
100
AcDbArc
 50
179.3553463151
 51
270.6787772497
  0
ARC
  5
8E
330
5E
100
AcDbEntity
  8
$DDT_AUDIT_GENERATED_(7F)
  6
Continuous
 62
     7
100
AcDbCircle
 10
107.0542979909
 20
410.5654097635
 30
0.0
 40
2.550214939707488
100
AcDbArc
 50
86.2907129861
 51
183.8805516798
  0
LINE
  5
8F
330
5E
100
AcDbEntity
  8
$DDT_AUDIT_GENERATED_(7F)
  6
Continuous
 62
     7
100
AcDbLine
 10
124.3335260086
 20
367.0070705456
 30
0.0
 11
108.3669739914
 21
367.0070705456
 31
0.0
  0
LINE
  5
90
330
5E
100
AcDbEntity
  8
$DDT_AUDIT_GENERATED_(7F)
  6
Continuous
 62
     7
100
AcDbLine
 10
107.2167788294
 20
413.1109210643
 30
0.0
 11
110.6989318714
 21
413.1109210643
 31
0.0
  0
ARC
  5
91
330
5E
100
AcDbEntity
  8
$DDT_AUDIT_GENERATED_(7F)
  6
Continuous
 62
     7
100
AcDbCircle
 10
116.3402051693
 20
840.9841190418
 30
0.0
 40
427.9097751195676
100
AcDbArc
 50
269.2446170537
 51
270.7579881321
  0
ARC
  5
92
330
5E
100
AcDbEntity
  8
$DDT_AUDIT_GENERATED_(7F)
  6
Continuous
 62
     7
100
AcDbCircle
 10
124.3749767566
 20
370.8280463931
 30
0.0
 40
3.820891792045478
100
AcDbArc
 50
269.3334037949
 51
0.6507699878
  0
LINE
  5
93
330
5E
100
AcDbEntity
  8
$DDT_AUDIT_GENERATED_(7F)
  6
Continuous
 62
     7
100
AcDbLine
 10
128.1965514124
 20
410.3954997302
 30
0.0
 11
128.1965514124
 21
370.8689293406
 31
0.0
  0
LINE
  5
94
330
5E
100
AcDbEntity
  8
$DDT_AUDIT_GENERATED_(7F)
  6
Continuous
 62
     7
100
AcDbLine
 10
122.0010681286
 20
413.1109210643
 30
0.0
 11
125.4837211706
 21
413.1109210643
 31
0.0
  0
ARC
  5
95
330
5E
100
AcDbEntity
  8
$DDT_AUDIT_GENERATED_(7F)
  6
Continuous
 62
     7
100
AcDbCircle
 10
125.6517147156
 20
410.5606552646
 30
0.0
 40
2.549571236687882
100
AcDbArc
 50
356.2293003937
 51
93.8502525214
  0
ARC
  5
97
330
5E
100
AcDbEntity
  8
$DDT_AUDIT_GENERATED_(96)
  6
Continuous
 62
     7
100
AcDbCircle
 10
41.35
 20
444.0161630784
 30
0.0
 40
35.0
100
AcDbArc
 50
40.0052008849
 51
319.9947991151
  0
ARC
  5
98
330
5E
100
AcDbEntity
  8
$DDT_AUDIT_GENERATED_(96)
  6
Continuous
 62
     7
100
AcDbCircle
 10
191.35
 20
444.0161630784
 30
0.0
 40
35.0
100
AcDbArc
 50
0.0
 51
139.9947991151
  0
ARC
  5
99
330
5E
100
AcDbEntity
  8
$DDT_AUDIT_GENERATED_(96)
  6
Continuous
 62
     7
100
AcDbCircle
 10
191.35
 20
444.0161630784
 30
0.0
 40
35.0
100
AcDbArc
 50
220.0052008849
 51
360.0
  0
LINE
  5
9C
330
5E
100
AcDbEntity
  8
DV1_Standard
  6
CENTER2
 62
     7
100
AcDbLine
 10
61.349999553
 20
444.0161630784
 30
0.0
 11
21.350000447
 21
444.0161630784
 31
0.0
  0
LINE
  5
9D
330
5E
100
AcDbEntity
  8
DV1_Standard
  6
CENTER2
 62
     7
100
AcDbLine
 10
41.35
 20
464.0161626314
 30
0.0
 11
41.35
 21
424.0161635255
 31
0.0
  0
LINE
  5
9E
330
5E
100
AcDbEntity
  8
DV1_Standard
  6
CENTER2
 62
     7
100
AcDbLine
 10
66.3499994412
 20
444.0161630784
 30
0.0
 11
79.85
 21
444.0161630784
 31
0.0
  0
LINE
  5
9F
330
5E
100
AcDbEntity
  8
DV1_Standard
  6
CENTER2
 62
     7
100
AcDbLine
 10
41.35
 20
469.0161625196
 30
0.0
 11
41.35
 21
482.5161630784
 31
0.0
  0
LINE
  5
A0
330
5E
100
AcDbEntity
  8
DV1_Standard
  6
CENTER2
 62
     7
100
AcDbLine
 10
16.3500005588
 20
444.0161630784
 30
0.0
 11
2.85
 21
444.0161630784
 31
0.0
  0
LINE
  5
A1
330
5E
100
AcDbEntity
  8
DV1_Standard
  6
CENTER2
 62
     7
100
AcDbLine
 10
41.35
 20
419.0161636372
 30
0.0
 11
41.35
 21
405.5161630784
 31
0.0
  0
LINE
  5
A2
330
5E
100
AcDbEntity
  8
DV1_Standard
  6
CENTER2
 62
     7
100
AcDbLine
 10
211.349999553
 20
444.0161630784
 30
0.0
 11
171.350000447
 21
444.0161630784
 31
0.0
  0
LINE
  5
A3
330
5E
100
AcDbEntity
  8
DV1_Standard
  6
CENTER2
 62
     7
100
AcDbLine
 10
191.35
 20
464.0161626314
 30
0.0
 11
191.35
 21
424.0161635255
 31
0.0
  0
LINE
  5
A4
330
5E
100
AcDbEntity
  8
DV1_Standard
  6
CENTER2
 62
     7
100
AcDbLine
 10
216.3499994412
 20
444.0161630784
 30
0.0
 11
229.85
 21
444.0161630784
 31
0.0
  0
LINE
  5
A5
330
5E
100
AcDbEntity
  8
DV1_Standard
  6
CENTER2
 62
     7
100
AcDbLine
 10
191.35
 20
469.0161625196
 30
0.0
 11
191.35
 21
482.5161630784
 31
0.0
  0
LINE
  5
A6
330
5E
100
AcDbEntity
  8
DV1_Standard
  6
CENTER2
 62
     7
100
AcDbLine
 10
166.3500005588
 20
444.0161630784
 30
0.0
 11
152.85
 21
444.0161630784
 31
0.0
  0
LINE
  5
A7
330
5E
100
AcDbEntity
  8
DV1_Standard
  6
CENTER2
 62
     7
100
AcDbLine
 10
191.35
 20
419.0161636372
 30
0.0
 11
191.35
 21
405.5161630784
 31
0.0
  0
ENDBLK
  5
A9
330
5E
100
AcDbEntity
  8
0
100
AcDbBlockEnd
  0
BLOCK
  5
104
330
AA
100
AcDbEntity
  8
0
100
AcDbBlockBegin
  2
SE1
 70
     0
 10
0.0
 20
0.0
 30
0.0
  3
SE1
  1

  0
ARC
  5
AC
330
AA
100
AcDbEntity
  8
$DDT_AUDIT_GENERATED_(60)
  6
Continuous
 62
     7
100
AcDbCircle
 10
365.7309613938
 20
374.3728693044
 30
0.0
 40
30.95753068037645
100
AcDbArc
 50
72.614674784
 51
107.3853281526
  0
LINE
  5
AD
330
AA
100
AcDbEntity
  8
$DDT_AUDIT_GENERATED_(60)
  6
Continuous
 62
     7
100
AcDbLine
 10
353.2309614311
 20
404.9161630754
 30
0.0
 11
353.2309614311
 21
415.1575062376
 31
0.0
  0
LINE
  5
AE
330
AA
100
AcDbEntity
  8
$DDT_AUDIT_GENERATED_(60)
  6
Continuous
 62
     7
100
AcDbLine
 10
353.2309614311
 20
415.1575062376
 30
0.0
 11
353.2309614311
 21
422.5161630784
 31
0.0
  0
LINE
  5
AF
330
AA
100
AcDbEntity
  8
$DDT_AUDIT_GENERATED_(60)
  6
Continuous
 62
     7
100
AcDbLine
 10
353.2309614311
 20
422.5161630784
 30
0.0
 11
353.2309614311
 21
436.5161630784
 31
0.0
  0
LINE
  5
B0
330
AA
100
AcDbEntity
  8
$DDT_AUDIT_GENERATED_(60)
  6
Continuous
 62
     7
100
AcDbLine
 10
353.2309614311
 20
436.5161630784
 30
0.0
 11
353.2309614311
 21
451.5161630784
 31
0.0
  0
LINE
  5
B1
330
AA
100
AcDbEntity
  8
$DDT_AUDIT_GENERATED_(60)
  6
Continuous
 62
     7
100
AcDbLine
 10
353.2309614311
 20
451.5161630784
 30
0.0
 11
353.2309614311
 21
465.5161630784
 31
0.0
  0
SPLINE
  5
B2
330
AA
100
AcDbEntity
  8
$DDT_AUDIT_GENERATED_(60)
  6
Continuous
 62
     7
100
AcDbSpline
210
0.0
220
0.0
230
1.0
 70
     8
 71
     3
 72
    14
 73
    10
 74
     0
 42
0.0000000077789969
 43
0.0000000001
 40
0.0
 40
0.0
 40
0.0
 40
0.0
 40
0.25
 40
0.25
 40
0.5
 40
0.5
 40
0.75
 40
0.75
 40
1.0
 40
1.0
 40
1.0
 40
1.0
 10
353.230961431101
 20
415.157506237645
 30
0.0
 10
353.230961431101
 20
415.0791559657362
 30
0.0
 10
353.257406974233
 20
414.9991527980982
 30
0.0
 10
353.3570372474556
 20
414.854604636073
 30
0.0
 10
353.4314351101389
 20
414.7876171821626
 30
0.0
 10
353.6157672759669
 20
414.6768185732279
 30
0.0
 10
353.7266868033386
 20
414.6321920752368
 30
0.0
 10
353.9689418878982
 20
414.5718975846837
 30
0.0
 10
354.0987166874018
 20
414.5562644240607
 30
0.0
 10
354.230961431101
 20
414.5562644240607
 30
0.0
  0
ARC
  5
B3
330
AA
100
AcDbEntity
  8
$DDT_AUDIT_GENERATED_(60)
  6
Continuous
 62
     7
100
AcDbCircle
 10
354.2309614311
 20
422.5161630784
 30
0.0
 40
1.000000000000001
100
AcDbArc
 50
180.0
 51
270.0
  0
ARC
  5
B4
330
AA
100
AcDbEntity
  8
$DDT_AUDIT_GENERATED_(60)
  6
Continuous
 62
     7
100
AcDbCircle
 10
354.2309614311
 20
465.5161630784
 30
0.0
 40
1.000000000000001
100
AcDbArc
 50
90.0
 51
180.0
  0
LINE
  5
B5
330
AA
100
AcDbEntity
  8
$DDT_AUDIT_GENERATED_(60)
  6
Continuous
 62
     7
100
AcDbLine
 10
397.2309614311
 20
466.5161630784
 30
0.0
 11
354.2309614311
 21
466.5161630784
 31
0.0
  0
LINE
  5
B6
330
AA
100
AcDbEntity
  8
$DDT_AUDIT_GENERATED_(60)
  6
Continuous
 62
     7
100
AcDbLine
 10
398.2309614311
 20
415.1575062376
 30
0.0
 11
398.2309614311
 21
404.9161630754
 31
0.0
  0
LINE
  5
B7
330
AA
100
AcDbEntity
  8
$DDT_AUDIT_GENERATED_(60)
  6
Continuous
 62
     7
100
AcDbLine
 10
398.2309614311
 20
422.5161630784
 30
0.0
 11
398.2309614311
 21
415.1575062376
 31
0.0
  0
LINE
  5
B8
330
AA
100
AcDbEntity
  8
$DDT_AUDIT_GENERATED_(60)
  6
Continuous
 62
     7
100
AcDbLine
 10
398.2309614311
 20
436.5161630784
 30
0.0
 11
398.2309614311
 21
422.5161630784
 31
0.0
  0
LINE
  5
B9
330
AA
100
AcDbEntity
  8
$DDT_AUDIT_GENERATED_(60)
  6
Continuous
 62
     7
100
AcDbLine
 10
398.2309614311
 20
451.5161630784
 30
0.0
 11
398.2309614311
 21
436.5161630784
 31
0.0
  0
LINE
  5
BA
330
AA
100
AcDbEntity
  8
$DDT_AUDIT_GENERATED_(60)
  6
Continuous
 62
     7
100
AcDbLine
 10
398.2309614311
 20
465.5161630784
 30
0.0
 11
398.2309614311
 21
451.5161630784
 31
0.0
  0
LINE
  5
BB
330
AA
100
AcDbEntity
  8
$DDT_AUDIT_GENERATED_(60)
  6
Continuous
 62
     7
100
AcDbLine
 10
397.2309614311
 20
421.5161630784
 30
0.0
 11
354.2309614311
 21
421.5161630784
 31
0.0
  0
LINE
  5
BC
330
AA
100
AcDbEntity
  8
$DDT_AUDIT_GENERATED_(60)
  6
Continuous
 62
     7
100
AcDbLine
 10
397.2309614311
 20
414.5562644241
 30
0.0
 11
354.2309614311
 21
414.5562644241
 31
0.0
  0
SPLINE
  5
BD
330
AA
100
AcDbEntity
  8
$DDT_AUDIT_GENERATED_(60)
  6
Continuous
 62
     7
100
AcDbSpline
210
0.0
220
0.0
230
1.0
 70
     8
 71
     3
 72
    14
 73
    10
 74
     0
 42
0.0000000077789969
 43
0.0000000001
 40
0.0
 40
0.0
 40
0.0
 40
0.0
 40
0.25
 40
0.25
 40
0.5
 40
0.5
 40
0.75
 40
0.75
 40
1.0
 40
1.0
 40
1.0
 40
1.0
 10
397.230961431101
 20
414.5562644240607
 30
0.0
 10
397.3632061748002
 20
414.5562644240607
 30
0.0
 10
397.4929809743037
 20
414.5718975846837
 30
0.0
 10
397.7352360588633
 20
414.6321920752368
 30
0.0
 10
397.8461555862351
 20
414.6768185732279
 30
0.0
 10
398.0304877520631
 20
414.7876171821626
 30
0.0
 10
398.1048856147464
 20
414.854604636073
 30
0.0
 10
398.2045158879689
 20
414.9991527980982
 30
0.0
 10
398.230961431101
 20
415.0791559657364
 30
0.0
 10
398.230961431101
 20
415.157506237645
 30
0.0
  0
ARC
  5
BE
330
AA
100
AcDbEntity
  8
$DDT_AUDIT_GENERATED_(60)
  6
Continuous
 62
     7
100
AcDbCircle
 10
397.2309614311
 20
422.5161630784
 30
0.0
 40
1.000000000000001
100
AcDbArc
 50
270.0
 51
0.0
  0
ARC
  5
BF
330
AA
100
AcDbEntity
  8
$DDT_AUDIT_GENERATED_(60)
  6
Continuous
 62
     7
100
AcDbCircle
 10
397.2309614311
 20
465.5161630784
 30
0.0
 40
1.000000000000022
100
AcDbArc
 50
0.0
 51
90.0
  0
LINE
  5
C0
330
AA
100
AcDbEntity
  8
$DDT_AUDIT_GENERATED_(60)
  6
Continuous
 62
     7
100
AcDbLine
 10
374.9480253272
 20
403.9161630754
 30
0.0
 11
397.2309614311
 21
403.9161630754
 31
0.0
  0
LINE
  5
C1
330
AA
100
AcDbEntity
  8
$DDT_AUDIT_GENERATED_(60)
  6
Continuous
 62
     7
100
AcDbLine
 10
354.2309614311
 20
403.9161630754
 30
0.0
 11
356.5087804554
 21
403.9161630754
 31
0.0
  0
ARC
  5
C2
330
AA
100
AcDbEntity
  8
$DDT_AUDIT_GENERATED_(60)
  6
Continuous
 62
     7
100
AcDbCircle
 10
354.2309614311
 20
404.9161630754
 30
0.0
 40
1.000000000000001
100
AcDbArc
 50
180.0
 51
270.0
  0
ARC
  5
C3
330
AA
100
AcDbEntity
  8
$DDT_AUDIT_GENERATED_(60)
  6
Continuous
 62
     7
100
AcDbCircle
 10
397.2309614311
 20
404.9161630754
 30
0.0
 40
1.000000000000001
100
AcDbArc
 50
270.0
 51
0.0
  0
LINE
  5
C5
330
AA
100
AcDbEntity
  8
$DDT_AUDIT_GENERATED_(C4)
  6
Continuous
 62
     7
100
AcDbLine
 10
432.1309614311
 20
412.7603382223
 30
0.0
 11
432.1309614311
 21
463.6719879345
 31
0.0
  0
ARC
  5
C6
330
AA
100
AcDbEntity
  8
$DDT_AUDIT_GENERATED_(C4)
  6
Continuous
 62
     7
100
AcDbCircle
 10
426.1309614311
 20
438.2161630784
 30
0.0
 40
25.00000000000004
100
AcDbArc
 50
43.3335170126
 51
76.1134596374
  0
ARC
  5
C7
330
AA
100
AcDbEntity
  8
$DDT_AUDIT_GENERATED_(C4)
  6
Continuous
 62
     7
100
AcDbCircle
 10
426.1309614311
 20
438.2161630784
 30
0.0
 40
25.00000000000001
100
AcDbArc
 50
283.8865403626
 51
290.6473453726
  0
LINE
  5
C8
330
AA
100
AcDbEntity
  8
$DDT_AUDIT_GENERATED_(C4)
  6
Continuous
 62
     7
100
AcDbLine
 10
398.2309614311
 20
411.9688567539
 30
0.0
 11
431.635324475
 21
412.2603572588
 31
0.0
  0
LINE
  5
C9
330
AA
100
AcDbEntity
  8
$DDT_AUDIT_GENERATED_(C4)
  6
Continuous
 62
     7
100
AcDbLine
 10
431.635324475
 20
464.171968898
 30
0.0
 11
398.2309614311
 21
464.463469403
 31
0.0
  0
ARC
  5
CA
330
AA
100
AcDbEntity
  8
$DDT_AUDIT_GENERATED_(C4)
  6
Continuous
 62
     7
100
AcDbCircle
 10
431.6309614311
 20
463.6719879345
 30
0.0
 40
0.5000000000000004
100
AcDbArc
 50
0.0
 51
89.500025649
  0
ARC
  5
CB
330
AA
100
AcDbEntity
  8
$DDT_AUDIT_GENERATED_(C4)
  6
Continuous
 62
     7
100
AcDbCircle
 10
431.6309614311
 20
412.7603382223
 30
0.0
 40
0.5000000000000041
100
AcDbArc
 50
270.499974351
 51
0.0
  0
LINE
  5
CC
330
AA
100
AcDbEntity
  8
$DDT_AUDIT_GENERATED_(72)
  6
Continuous
 62
     7
100
AcDbLine
 10
374.7309614311
 20
398.6261630754
 30
0.0
 11
356.7309614311
 21
398.6261630754
 31
0.0
  0
LINE
  5
CD
330
AA
100
AcDbEntity
  8
$DDT_AUDIT_GENERATED_(72)
  6
Continuous
 62
     7
100
AcDbLine
 10
376.2109614311
 20
397.1461630754
 30
0.0
 11
355.2509614311
 21
397.1461630754
 31
0.0
  0
LINE
  5
CE
330
AA
100
AcDbEntity
  8
$DDT_AUDIT_GENERATED_(72)
  6
Continuous
 62
     7
100
AcDbLine
 10
375.0109614311
 20
389.7261630754
 30
0.0
 11
356.4509614311
 21
389.7261630754
 31
0.0
  0
LINE
  5
CF
330
AA
100
AcDbEntity
  8
$DDT_AUDIT_GENERATED_(72)
  6
Continuous
 62
     7
100
AcDbLine
 10
376.2109614311
 20
390.9261630754
 30
0.0
 11
355.2509614311
 21
390.9261630754
 31
0.0
  0
LINE
  5
D0
330
AA
100
AcDbEntity
  8
$DDT_AUDIT_GENERATED_(72)
  6
Continuous
 62
     7
100
AcDbLine
 10
355.2509614311
 20
397.1461630754
 30
0.0
 11
355.2509614311
 21
390.9261630754
 31
0.0
  0
LINE
  5
D1
330
AA
100
AcDbEntity
  8
$DDT_AUDIT_GENERATED_(72)
  6
Continuous
 62
     7
100
AcDbLine
 10
376.2109614311
 20
390.9261630754
 30
0.0
 11
376.2109614311
 21
397.1461630754
 31
0.0
  0
LINE
  5
D2
330
AA
100
AcDbEntity
  8
$DDT_AUDIT_GENERATED_(72)
  6
Continuous
 62
     7
100
AcDbLine
 10
356.7309614311
 20
403.9898123915
 30
0.0
 11
356.7309614311
 21
398.6261630754
 31
0.0
  0
LINE
  5
D3
330
AA
100
AcDbEntity
  8
$DDT_AUDIT_GENERATED_(72)
  6
Continuous
 62
     7
100
AcDbLine
 10
374.7309614311
 20
398.6261630754
 30
0.0
 11
374.7309614311
 21
403.9896907613
 31
0.0
  0
LINE
  5
D4
330
AA
100
AcDbEntity
  8
$DDT_AUDIT_GENERATED_(72)
  6
Continuous
 62
     7
100
AcDbLine
 10
376.2109614311
 20
397.1461630754
 30
0.0
 11
374.7309614311
 21
398.6261630754
 31
0.0
  0
LINE
  5
D5
330
AA
100
AcDbEntity
  8
$DDT_AUDIT_GENERATED_(72)
  6
Continuous
 62
     7
100
AcDbLine
 10
356.7309614311
 20
398.6261630754
 30
0.0
 11
355.2509614311
 21
397.1461630754
 31
0.0
  0
LINE
  5
D6
330
AA
100
AcDbEntity
  8
$DDT_AUDIT_GENERATED_(72)
  6
Continuous
 62
     7
100
AcDbLine
 10
355.2509614311
 20
390.9261630754
 30
0.0
 11
356.4509614311
 21
389.7261630754
 31
0.0
  0
LINE
  5
D7
330
AA
100
AcDbEntity
  8
$DDT_AUDIT_GENERATED_(72)
  6
Continuous
 62
     7
100
AcDbLine
 10
375.0109614311
 20
389.7261630754
 30
0.0
 11
376.2109614311
 21
390.9261630754
 31
0.0
  0
ARC
  5
D8
330
AA
100
AcDbEntity
  8
$DDT_AUDIT_GENERATED_(7F)
  6
Continuous
 62
     7
100
AcDbCircle
 10
436.3429838521
 20
437.9071341393
 30
0.0
 40
2.000467853403761
100
AcDbArc
 50
149.5021611927
 51
181.4961575175
  0
LINE
  5
D9
330
AA
100
AcDbEntity
  8
$DDT_AUDIT_GENERATED_(7F)
  6
Continuous
 62
     7
100
AcDbLine
 10
435.000209905
 20
412.7646297817
 30
0.0
 11
434.3431980017
 21
437.8549021092
 31
0.0
  0
LINE
  5
DA
330
AA
100
AcDbEntity
  8
$DDT_AUDIT_GENERATED_(7F)
  6
Continuous
 62
     7
100
AcDbLine
 10
434.6193139605
 20
438.922433963
 30
0.0
 11
448.9821361238
 21
463.305667439
 31
0.0
  0
LINE
  5
DB
330
AA
100
AcDbEntity
  8
$DDT_AUDIT_GENERATED_(7F)
  6
Continuous
 62
     7
100
AcDbLine
 10
464.4179831547
 20
358.9885938042
 30
0.0
 11
462.6537712933
 21
426.3611266639
 31
0.0
  0
LINE
  5
DC
330
AA
100
AcDbEntity
  8
$DDT_AUDIT_GENERATED_(7F)
  6
Continuous
 62
     7
100
AcDbLine
 10
464.6090748774
 20
351.6910953319
 30
0.0
 11
464.4179831547
 21
358.9885938042
 31
0.0
  0
ARC
  5
DD
330
AA
100
AcDbEntity
  8
$DDT_AUDIT_GENERATED_(7F)
  6
Continuous
 62
     7
100
AcDbCircle
 10
465.3088350048
 20
351.7094191957
 30
0.0
 40
0.7000000000000034
100
AcDbArc
 50
181.5
 51
271.5
  0
LINE
  5
DE
330
AA
100
AcDbEntity
  8
$DDT_AUDIT_GENERATED_(7F)
  6
Continuous
 62
     7
100
AcDbLine
 10
467.7312432454
 20
461.6695957914
 30
0.0
 11
468.3564533763
 21
437.7937841545
 31
0.0
  0
LINE
  5
DF
330
AA
100
AcDbEntity
  8
$DDT_AUDIT_GENERATED_(7F)
  6
Continuous
 62
     7
100
AcDbLine
 10
470.415927105
 20
359.1456554941
 30
0.0
 11
470.6070188277
 21
351.8481570218
 31
0.0
  0
LINE
  5
E0
330
AA
100
AcDbEntity
  8
$DDT_AUDIT_GENERATED_(7F)
  6
Continuous
 62
     7
100
AcDbLine
 10
468.3626969361
 20
437.5553522267
 30
0.0
 11
470.415927105
 21
359.1456554941
 31
0.0
  0
LINE
  5
E1
330
AA
100
AcDbEntity
  8
$DDT_AUDIT_GENERATED_(7F)
  6
Continuous
 62
     7
100
AcDbLine
 10
468.3564533763
 20
437.7937841545
 30
0.0
 11
468.3626969361
 21
437.5553522267
 31
0.0
  0
LINE
  5
E2
330
AA
100
AcDbEntity
  8
$DDT_AUDIT_GENERATED_(7F)
  6
Continuous
 62
     7
100
AcDbLine
 10
469.925582564
 20
351.1300730305
 30
0.0
 11
465.3271588687
 21
351.0096590683
 31
0.0
  0
ARC
  5
E3
330
AA
100
AcDbEntity
  8
$DDT_AUDIT_GENERATED_(7F)
  6
Continuous
 62
     7
100
AcDbCircle
 10
469.9072587002
 20
351.829833158
 30
0.0
 40
0.6999999999999889
100
AcDbArc
 50
271.5
 51
1.5
  0
ARC
  5
E4
330
AA
100
AcDbEntity
  8
$DDT_AUDIT_GENERATED_(7F)
  6
Continuous
 62
     7
100
AcDbCircle
 10
462.0453241039
 20
414.0992761076
 30
0.0
 40
0.9300291203842597
100
AcDbArc
 50
344.5392370009
 51
344.5458834085
  0
ARC
  5
E5
330
AA
100
AcDbEntity
  8
$DDT_AUDIT_GENERATED_(7F)
  6
Continuous
 62
     7
100
AcDbCircle
 10
453.9427348908
 20
381.7731613397
 30
0.0
 40
32.83513947973921
100
AcDbArc
 50
97.1557174859
 51
103.0721718374
  0
LINE
  5
E6
330
AA
100
AcDbEntity
  8
$DDT_AUDIT_GENERATED_(7F)
  6
Continuous
 62
     7
100
AcDbLine
 10
454.0506356774
 20
414.6209432567
 30
0.0
 11
460.7645025088
 21
415.3909311358
 31
0.0
  0
LINE
  5
E7
330
AA
100
AcDbEntity
  8
$DDT_AUDIT_GENERATED_(7F)
  6
Continuous
 62
     7
100
AcDbLine
 10
435.3342889018
 20
412.4744365534
 30
0.0
 11
446.5529257254
 21
413.7610593881
 31
0.0
  0
LINE
  5
E8
330
AA
100
AcDbEntity
  8
$DDT_AUDIT_GENERATED_(7F)
  6
Continuous
 62
     7
100
AcDbLine
 10
467.0747347541
 20
462.3499344326
 30
0.0
 11
449.252837859
 21
463.45322278
 31
0.0
  0
ARC
  5
E9
330
AA
100
AcDbEntity
  8
$DDT_AUDIT_GENERATED_(7F)
  6
Continuous
 62
     7
100
AcDbCircle
 10
449.2406240134
 20
463.1534044758
 30
0.0
 40
0.2999999983866666
100
AcDbArc
 50
87.8860766888
 51
149.5009246452
  0
ARC
  5
EA
330
AA
100
AcDbEntity
  8
$DDT_AUDIT_GENERATED_(7F)
  6
Continuous
 62
     7
100
AcDbCircle
 10
435.3001071025
 20
412.7724828662
 30
0.0
 40
0.2999999999999873
100
AcDbArc
 50
181.5
 51
276.5424510692
  0
ARC
  5
EB
330
AA
100
AcDbEntity
  8
$DDT_AUDIT_GENERATED_(7F)
  6
Continuous
 62
     7
100
AcDbCircle
 10
460.9923811705
 20
413.4039557168
 30
0.0
 40
2.000000000000016
100
AcDbArc
 50
12.9341802283
 51
96.5424510692
  0
ARC
  5
EC
330
AA
100
AcDbEntity
  8
$DDT_AUDIT_GENERATED_(7F)
  6
Continuous
 62
     7
100
AcDbCircle
 10
467.0314831179
 20
461.6512719276
 30
0.0
 40
0.6999999999999889
100
AcDbArc
 50
1.5
 51
86.4575489308
  0
ARC
  5
ED
330
AA
100
AcDbEntity
  8
$DDT_AUDIT_GENERATED_(7F)
  6
Continuous
 62
     7
100
AcDbCircle
 10
463.916400517
 20
414.0750746872
 30
0.0
 40
1.00000027216044
100
AcDbArc
 50
192.8089664302
 51
201.3498598114
  0
LINE
  5
EF
330
AA
100
AcDbEntity
  8
$DDT_AUDIT_GENERATED_(EE)
  6
Continuous
 62
     7
100
AcDbLine
 10
449.8482725049
 20
414.3496975626
 30
0.0
 11
454.0284909413
 21
414.5687735277
 31
0.0
  0
LINE
  5
F0
330
AA
100
AcDbEntity
  8
$DDT_AUDIT_GENERATED_(EE)
  6
Continuous
 62
     7
100
AcDbLine
 10
454.0284909413
 20
414.5687735277
 30
0.0
 11
454.0506356774
 21
414.6209432567
 31
0.0
  0
LINE
  5
F1
330
AA
100
AcDbEntity
  8
$DDT_AUDIT_GENERATED_(96)
  6
Continuous
 62
     7
100
AcDbLine
 10
301.2305045166
 20
409.5161630784
 30
0.0
 11
301.2305045166
 21
478.5161630784
 31
0.0
  0
LINE
  5
F2
330
AA
100
AcDbEntity
  8
$DDT_AUDIT_GENERATED_(96)
  6
Continuous
 62
     7
100
AcDbLine
 10
334.2304845126
 20
424.0161630784
 30
0.0
 11
334.2304845126
 21
464.0161630784
 31
0.0
  0
ARC
  5
F3
330
AA
100
AcDbEntity
  8
$DDT_AUDIT_GENERATED_(96)
  6
Continuous
 62
     7
100
AcDbCircle
 10
332.3950215263
 20
476.7128416486
 30
0.0
 40
1.499999999999999
100
AcDbArc
 50
1.8765314455
 51
88.5
  0
ARC
  5
F4
330
AA
100
AcDbEntity
  8
$DDT_AUDIT_GENERATED_(96)
  6
Continuous
 62
     7
100
AcDbCircle
 10
332.3950215263
 20
411.3194845083
 30
0.0
 40
1.499999999999998
100
AcDbArc
 50
271.5
 51
358.1234685545
  0
LINE
  5
F5
330
AA
100
AcDbEntity
  8
$DDT_AUDIT_GENERATED_(96)
  6
Continuous
 62
     7
100
AcDbLine
 10
301.7435929907
 20
409.0163344159
 30
0.0
 11
332.4342869488
 21
409.8199985208
 31
0.0
  0
LINE
  5
F6
330
AA
100
AcDbEntity
  8
$DDT_AUDIT_GENERATED_(96)
  6
Continuous
 62
     7
100
AcDbLine
 10
332.4342869488
 20
478.212327636
 30
0.0
 11
301.7435929907
 21
479.0159917409
 31
0.0
  0
ARC
  5
F7
330
AA
100
AcDbEntity
  8
$DDT_AUDIT_GENERATED_(96)
  6
Continuous
 62
     7
100
AcDbCircle
 10
301.7305045166
 20
478.5161630784
 30
0.0
 40
0.500000000000002
100
AcDbArc
 50
88.5
 51
180.0
  0
ARC
  5
F8
330
AA
100
AcDbEntity
  8
$DDT_AUDIT_GENERATED_(96)
  6
Continuous
 62
     7
100
AcDbCircle
 10
301.7305045166
 20
409.5161630784
 30
0.0
 40
0.5000000000000002
100
AcDbArc
 50
180.0
 51
271.5
  0
ARC
  5
F9
330
AA
100
AcDbEntity
  8
$DDT_AUDIT_GENERATED_(96)
  6
Continuous
 62
     7
100
AcDbCircle
 10
-665.5694954834
 20
444.0161630784
 30
0.0
 40
1000.0
100
AcDbArc
 50
1.1459919984
 51
1.8765314455
  0
ARC
  5
FA
330
AA
100
AcDbEntity
  8
$DDT_AUDIT_GENERATED_(96)
  6
Continuous
 62
     7
100
AcDbCircle
 10
-665.5694954834
 20
444.0161630784
 30
0.0
 40
1000.0
100
AcDbArc
 50
358.1234685545
 51
358.8540080016
  0
LINE
  5
FC
330
AA
100
AcDbEntity
  8
$DDT_AUDIT_GENERATED_(FB)
  6
Continuous
 62
     7
100
AcDbLine
 10
353.2309614311
 20
436.5161630784
 30
0.0
 11
353.2309614311
 21
451.5161630784
 31
0.0
  0
LINE
  5
FD
330
AA
100
AcDbEntity
  8
$DDT_AUDIT_GENERATED_(FB)
  6
Continuous
 62
     7
100
AcDbLine
 10
353.0309614311
 20
463.2661630784
 30
0.0
 11
334.2304845126
 21
463.2661630784
 31
0.0
  0
LINE
  5
FE
330
AA
100
AcDbEntity
  8
$DDT_AUDIT_GENERATED_(FB)
  6
Continuous
 62
     7
100
AcDbLine
 10
334.2304845126
 20
424.7661630784
 30
0.0
 11
353.0309614311
 21
424.7661630784
 31
0.0
  0
ARC
  5
FF
330
AA
100
AcDbEntity
  8
$DDT_AUDIT_GENERATED_(FB)
  6
Continuous
 62
     7
100
AcDbCircle
 10
353.0309614311
 20
424.9661630784
 30
0.0
 40
0.1999999999999988
100
AcDbArc
 50
270.0
 51
0.0
  0
ARC
  5
100
330
AA
100
AcDbEntity
  8
$DDT_AUDIT_GENERATED_(FB)
  6
Continuous
 62
     7
100
AcDbCircle
 10
353.0309614311
 20
463.0661630784
 30
0.0
 40
0.1999999999999988
100
AcDbArc
 50
0.0
 51
90.0
  0
LINE
  5
102
330
AA
100
AcDbEntity
  8
DV2_Standard
  6
CENTER2
 62
     7
100
AcDbLine
 10
321.2305040695
 20
444.0161630784
 30
0.0
 11
281.2305049636
 21
444.0161630784
 31
0.0
  0
LINE
  5
103
330
AA
100
AcDbEntity
  8
DV2_Standard
  6
CENTER2
 62
     7
100
AcDbLine
 10
301.2305045166
 20
464.0161626314
 30
0.0
 11
301.2305045166
 21
424.0161635255
 31
0.0
  0
ENDBLK
  5
105
330
AA
100
AcDbEntity
  8
0
100
AcDbBlockEnd
  0
BLOCK
  5
164
330
106
100
AcDbEntity
  8
0
100
AcDbBlockBegin
  2
SE2
 70
     0
 10
0.0
 20
0.0
 30
0.0
  3
SE2
  1

  0
LINE
  5
108
330
106
100
AcDbEntity
  8
$DDT_AUDIT_GENERATED_(60)
  6
Continuous
 62
     7
100
AcDbLine
 10
196.35
 20
223.7262972691
 30
0.0
 11
210.35
 21
223.7262972691
 31
0.0
  0
LINE
  5
109
330
106
100
AcDbEntity
  8
$DDT_AUDIT_GENERATED_(60)
  6
Continuous
 62
     7
100
AcDbLine
 10
22.35
 20
223.7262972691
 30
0.0
 11
36.35
 21
223.7262972691
 31
0.0
  0
LINE
  5
10A
330
106
100
AcDbEntity
  8
$DDT_AUDIT_GENERATED_(60)
  6
Continuous
 62
     7
100
AcDbLine
 10
36.35
 20
223.7262972691
 30
0.0
 11
196.35
 21
223.7262972691
 31
0.0
  0
ARC
  5
10B
330
106
100
AcDbEntity
  8
$DDT_AUDIT_GENERATED_(60)
  6
Continuous
 62
     7
100
AcDbCircle
 10
22.35
 20
222.7262972691
 30
0.0
 40
1.000000000000001
100
AcDbArc
 50
90.0
 51
180.0
  0
ARC
  5
10C
330
106
100
AcDbEntity
  8
$DDT_AUDIT_GENERATED_(60)
  6
Continuous
 62
     7
100
AcDbCircle
 10
210.35
 20
222.7262972691
 30
0.0
 40
1.000000000000015
100
AcDbArc
 50
0.0
 51
90.0
  0
LINE
  5
10D
330
106
100
AcDbEntity
  8
$DDT_AUDIT_GENERATED_(60)
  6
Continuous
 62
     7
100
AcDbLine
 10
210.35
 20
178.7262972691
 30
0.0
 11
196.35
 21
178.7262972691
 31
0.0
  0
LINE
  5
10E
330
106
100
AcDbEntity
  8
$DDT_AUDIT_GENERATED_(60)
  6
Continuous
 62
     7
100
AcDbLine
 10
36.35
 20
178.7262972691
 30
0.0
 11
22.35
 21
178.7262972691
 31
0.0
  0
LINE
  5
10F
330
106
100
AcDbEntity
  8
$DDT_AUDIT_GENERATED_(60)
  6
Continuous
 62
     7
100
AcDbLine
 10
196.35
 20
178.7262972691
 30
0.0
 11
36.35
 21
178.7262972691
 31
0.0
  0
LINE
  5
110
330
106
100
AcDbEntity
  8
$DDT_AUDIT_GENERATED_(60)
  6
Continuous
 62
     7
100
AcDbLine
 10
21.35
 20
179.7262972691
 30
0.0
 11
21.35
 21
222.7262972691
 31
0.0
  0
LINE
  5
111
330
106
100
AcDbEntity
  8
$DDT_AUDIT_GENERATED_(60)
  6
Continuous
 62
     7
100
AcDbLine
 10
211.35
 20
179.7262972691
 30
0.0
 11
211.35
 21
222.7262972691
 31
0.0
  0
ARC
  5
112
330
106
100
AcDbEntity
  8
$DDT_AUDIT_GENERATED_(60)
  6
Continuous
 62
     7
100
AcDbCircle
 10
22.35
 20
179.7262972691
 30
0.0
 40
1.000000000000015
100
AcDbArc
 50
180.0
 51
270.0
  0
ARC
  5
113
330
106
100
AcDbEntity
  8
$DDT_AUDIT_GENERATED_(60)
  6
Continuous
 62
     7
100
AcDbCircle
 10
210.35
 20
179.7262972691
 30
0.0
 40
1.000000000000001
100
AcDbArc
 50
270.0
 51
0.0
  0
LINE
  5
114
330
106
100
AcDbEntity
  8
$DDT_AUDIT_GENERATED_(C4)
  6
Continuous
 62
     7
100
AcDbLine
 10
90.8941751439
 20
144.8262972691
 30
0.0
 11
141.8058248561
 21
144.8262972691
 31
0.0
  0
ARC
  5
115
330
106
100
AcDbEntity
  8
$DDT_AUDIT_GENERATED_(C4)
  6
Continuous
 62
     7
100
AcDbCircle
 10
116.35
 20
150.8262972691
 30
0.0
 40
24.99999999999998
100
AcDbArc
 50
328.8477225488
 51
346.1134596374
  0
ARC
  5
116
330
106
100
AcDbEntity
  8
$DDT_AUDIT_GENERATED_(C4)
  6
Continuous
 62
     7
100
AcDbCircle
 10
116.35
 20
150.8262972691
 30
0.0
 40
25.00000000000011
100
AcDbArc
 50
193.8865403626
 51
211.5013839004
  0
LINE
  5
117
330
106
100
AcDbEntity
  8
$DDT_AUDIT_GENERATED_(C4)
  6
Continuous
 62
     7
100
AcDbLine
 10
90.1026936754
 20
178.7262972691
 30
0.0
 11
90.3941941804
 21
145.3219342251
 31
0.0
  0
LINE
  5
118
330
106
100
AcDbEntity
  8
$DDT_AUDIT_GENERATED_(C4)
  6
Continuous
 62
     7
100
AcDbLine
 10
142.3058058196
 20
145.3219342251
 30
0.0
 11
142.5973063246
 21
178.7262972691
 31
0.0
  0
ARC
  5
119
330
106
100
AcDbEntity
  8
$DDT_AUDIT_GENERATED_(C4)
  6
Continuous
 62
     7
100
AcDbCircle
 10
141.8058248561
 20
145.3262972691
 30
0.0
 40
0.5000000000000004
100
AcDbArc
 50
270.0
 51
359.500025649
  0
ARC
  5
11A
330
106
100
AcDbEntity
  8
$DDT_AUDIT_GENERATED_(C4)
  6
Continuous
 62
     7
100
AcDbCircle
 10
90.8941751439
 20
145.3262972691
 30
0.0
 40
0.5000000000000007
100
AcDbArc
 50
180.499974351
 51
270.0
  0
SPLINE
  5
11B
330
106
100
AcDbEntity
  8
$DDT_AUDIT_GENERATED_(7F)
  6
Continuous
 62
     7
100
AcDbSpline
210
0.0
220
0.0
230
1.0
 70
     8
 71
     3
 72
     8
 73
     4
 74
     0
 42
0.0000000713064615
 43
0.0000000001
 40
0.0
 40
0.0
 40
0.0
 40
0.0
 40
0.5526253154919203
 40
0.5526253154919203
 40
0.5526253154919203
 40
0.5526253154919203
 10
142.3147218797564
 20
142.2876296437631
 30
0.0
 10
142.3186976344836
 20
142.2922873236435
 30
0.0
 10
142.3182719451105
 20
142.2696175822616
 30
0.0
 10
142.3139896944757
 20
142.2211036877934
 30
0.0
  0
SPLINE
  5
11C
330
106
100
AcDbEntity
  8
$DDT_AUDIT_GENERATED_(7F)
  6
Continuous
 62
     7
100
AcDbSpline
210
0.0
220
0.0
230
1.0
 70
     8
 71
     3
 72
     8
 73
     4
 74
     0
 42
0.0000000352686688
 43
0.0000000001
 40
0.3724437184383746
 40
0.3724437184383746
 40
0.3724437184383746
 40
0.3724437184383746
 40
0.4473837486043714
 40
0.4473837486043714
 40
0.4473837486043714
 40
0.4473837486043714
 10
90.38796355719845
 20
142.1999478320107
 30
0.0
 10
90.38724238910136
 20
142.2074733714905
 30
0.0
 10
90.3865907820015
 20
142.2145273524256
 30
0.0
 10
90.38601009468877
 20
142.22110607595
 30
0.0
  0
ELLIPSE
  5
11D
330
106
100
AcDbEntity
  8
$DDT_AUDIT_GENERATED_(7F)
  6
Continuous
 62
     7
100
AcDbEllipse
 10
142.0159574979
 20
142.314163501
 30
0.0
 11
-0.2281769335854729
 21
0.1947698307735168
 31
0.0
210
0.0
220
0.0
230
1.0
 40
0.9994078675
 41
3.759868082714653
 42
5.418671783037112
  0
ELLIPSE
  5
11E
330
106
100
AcDbEntity
  8
$DDT_AUDIT_GENERATED_(7F)
  6
Continuous
 62
     7
100
AcDbEllipse
 10
116.35
 20
108.6407238876
 30
0.0
 11
22.35904507552275
 21
-1.267507878371031E-29
 31
0.0
210
0.0
220
0.0
230
1.0
 40
0.0261769483
 41
0.111371120631109
 42
3.054509495430617
  0
ELLIPSE
  5
11F
330
106
100
AcDbEntity
  8
$DDT_AUDIT_GENERATED_(7F)
  6
Continuous
 62
     7
100
AcDbEllipse
 10
131.3511442042
 20
106.5413315952
 30
0.0
 11
-7.299999999999994
 21
0.0
 31
0.0
210
0.0
220
0.0
230
1.0
 40
0.0261769483
 41
1.570796326794893
 42
3.00273282307218
  0
ELLIPSE
  5
120
330
106
100
AcDbEntity
  8
$DDT_AUDIT_GENERATED_(7F)
  6
Continuous
 62
     7
100
AcDbEllipse
 10
101.3511442042
 20
106.5413315952
 30
0.0
 11
-7.300000000000035
 21
0.0
 31
0.0
210
0.0
220
0.0
230
1.0
 40
0.0261769483
 41
0.2021000380732065
 42
1.570796326794895
  0
LINE
  5
121
330
106
100
AcDbEntity
  8
$DDT_AUDIT_GENERATED_(7F)
  6
Continuous
 62
     7
100
AcDbLine
 10
93.3511442042
 20
107.2410917226
 30
0.0
 11
93.3511442042
 21
109.0727686604
 31
0.0
  0
LINE
  5
122
330
106
100
AcDbEntity
  8
$DDT_AUDIT_GENERATED_(7F)
  6
Continuous
 62
     7
100
AcDbLine
 10
139.3511442042
 20
109.079350847
 30
0.0
 11
139.3511442042
 21
107.2410917226
 31
0.0
  0
LINE
  5
123
330
106
100
AcDbEntity
  8
$DDT_AUDIT_GENERATED_(7F)
  6
Continuous
 62
     7
100
AcDbLine
 10
101.3511442042
 20
106.35
 30
0.0
 11
101.3511442042
 21
106.3502398725
 31
0.0
  0
LINE
  5
124
330
106
100
AcDbEntity
  8
$DDT_AUDIT_GENERATED_(7F)
  6
Continuous
 62
     7
100
AcDbLine
 10
131.3511442042
 20
106.35
 30
0.0
 11
131.3511442042
 21
106.3502398725
 31
0.0
  0
ELLIPSE
  5
125
330
106
100
AcDbEntity
  8
$DDT_AUDIT_GENERATED_(7F)
  6
Continuous
 62
     7
100
AcDbEllipse
 10
116.35
 20
147.9202338747
 30
0.0
 11
27.29999999999998
 21
-2.775557561562891E-14
 31
0.0
210
0.0
220
0.0
230
1.0
 40
0.5984782765
 41
4.12182804410091
 42
5.349980395999587
  0
ELLIPSE
  5
126
330
106
100
AcDbEntity
  8
$DDT_AUDIT_GENERATED_(7F)
  6
Continuous
 62
     7
100
AcDbEllipse
 10
116.3499999987
 20
144.6184012032
 30
0.0
 11
-25.47840763359753
 21
2.111921748593204E-10
 31
0.0
210
0.0
220
0.0
230
1.0
 40
0.507538363
 41
0.1899774163135688
 42
0.3121020915847775
  0
ARC
  5
127
330
106
100
AcDbEntity
  8
$DDT_AUDIT_GENERATED_(7F)
  6
Continuous
 62
     7
100
AcDbCircle
 10
92.9389408781
 20
142.8778192356
 30
0.0
 40
1.755157244187428
100
AcDbArc
 50
196.4587956374
 51
203.5515954979
  0
ARC
  5
128
330
106
100
AcDbEntity
  8
$DDT_AUDIT_GENERATED_(7F)
  6
Continuous
 62
     7
100
AcDbCircle
 10
139.7464832013
 20
142.8828905868
 30
0.0
 40
1.770548811202149
100
AcDbArc
 50
336.4844002232
 51
344.1304773903
  0
ELLIPSE
  5
129
330
106
100
AcDbEntity
  8
$DDT_AUDIT_GENERATED_(7F)
  6
Continuous
 62
     7
100
AcDbEllipse
 10
116.35
 20
144.6184012034
 30
0.0
 11
25.47840763488815
 21
-3.080868893334809E-12
 31
0.0
210
0.0
220
0.0
230
1.0
 40
0.507538363
 41
-0.3121020915726156
 42
-0.1899820552153475
  0
ELLIPSE
  5
12A
330
106
100
AcDbEntity
  8
$DDT_AUDIT_GENERATED_(7F)
  6
Continuous
 62
     7
100
AcDbEllipse
 10
116.35
 20
142.6290729368
 30
0.0
 11
-25.3928671687028
 21
2.775557561562891E-14
 31
0.0
210
0.0
220
0.0
230
1.0
 40
0.0261769483
 41
0.1243617111932393
 42
0.3854602395340126
  0
ELLIPSE
  5
12B
330
106
100
AcDbEntity
  8
$DDT_AUDIT_GENERATED_(7F)
  6
Continuous
 62
     7
100
AcDbEllipse
 10
116.35
 20
142.6290729368
 30
0.0
 11
-25.3928671687028
 21
2.775557561562891E-14
 31
0.0
210
0.0
220
0.0
230
1.0
 40
0.0261769483
 41
-3.527052893123767
 42
-3.251543440591273
  0
ELLIPSE
  5
12C
330
106
100
AcDbEntity
  8
$DDT_AUDIT_GENERATED_(7F)
  6
Continuous
 62
     7
100
AcDbEllipse
 10
90.9636097213
 20
142.314163501
 30
0.0
 11
-0.2271193490062488
 21
-0.1960020441397758
 31
0.0
210
0.0
220
0.0
230
1.0
 40
0.9994023451
 41
3.153483588654629
 42
4.000696613093798
  0
ELLIPSE
  5
12D
330
106
100
AcDbEntity
  8
$DDT_AUDIT_GENERATED_(7F)
  6
Continuous
 62
     7
100
AcDbEllipse
 10
141.7363902787
 20
142.314163501
 30
0.0
 11
0.2271193490227287
 21
-0.1960020441206523
 31
0.0
210
0.0
220
0.0
230
1.0
 40
0.9994023451
 41
3.141057296757463
 42
3.533814792995295
  0
LINE
  5
12E
330
106
100
AcDbEntity
  8
$DDT_AUDIT_GENERATED_(7F)
  6
Continuous
 62
     7
100
AcDbLine
 10
90.3864676834
 20
142.2151289829
 30
0.0
 11
93.2937255728
 21
109.277584928
 31
0.0
  0
LINE
  5
12F
330
106
100
AcDbEntity
  8
$DDT_AUDIT_GENERATED_(7F)
  6
Continuous
 62
     7
100
AcDbLine
 10
139.4062744272
 20
109.277584928
 30
0.0
 11
142.3135297941
 21
142.2151004047
 31
0.0
  0
SPLINE
  5
130
330
106
100
AcDbEntity
  8
$DDT_AUDIT_GENERATED_(7F)
  6
Continuous
 62
     7
100
AcDbSpline
210
0.0
220
0.0
230
1.0
 70
     8
 71
     3
 72
    18
 73
    14
 74
     0
 42
0.0000000165084429
 43
0.0000000001
 40
0.0
 40
0.0
 40
0.0
 40
0.0
 40
0.0113051501562772
 40
0.1304158006649843
 40
0.2359791194878648
 40
0.322688892247338
 40
0.3967999940322551
 40
0.4585762919381498
 40
0.5086531165601149
 40
0.5616864412499407
 40
0.6474679390733855
 40
0.8744481434758857
 40
1.0
 40
1.0
 40
1.0
 40
1.0
 10
90.68479785086403
 20
142.6130652307575
 30
0.0
 10
90.6810583569088
 20
142.6136908290605
 30
0.0
 10
90.6438484790173
 20
142.6198353234842
 30
0.0
 10
90.56852057084201
 20
142.5967291049463
 30
0.0
 10
90.4875542939863
 20
142.5483477617565
 30
0.0
 10
90.43334374345754
 20
142.4865705374003
 30
0.0
 10
90.40253296385724
 20
142.427482257153
 30
0.0
 10
90.38810748056035
 20
142.3776431776502
 30
0.0
 10
90.38288559345096
 20
142.3419978187108
 30
0.0
 10
90.38116203993683
 20
142.31393641597
 30
0.0
 10
90.38149523246186
 20
142.2779540568914
 30
0.0
 10
90.38307450213881
 20
142.2493094378995
 30
0.0
 10
90.3876677348165
 20
142.2058552092423
 30
0.0
 10
90.38961497883096
 20
142.1880502864831
 30
0.0
  0
ARC
  5
131
330
106
100
AcDbEntity
  8
$DDT_AUDIT_GENERATED_(7F)
  6
Continuous
 62
     7
100
AcDbCircle
 10
94.0449720309
 20
109.2931911669
 30
0.0
 40
0.6938359930433612
100
AcDbArc
 50
248.1236625255
 51
248.5420226823
  0
SPLINE
  5
132
330
106
100
AcDbEntity
  8
$DDT_AUDIT_GENERATED_(7F)
  6
Continuous
 62
     7
100
AcDbSpline
210
0.0
220
0.0
230
1.0
 70
     8
 71
     3
 72
    15
 73
    11
 74
     0
 42
0.0000000084871461
 43
0.0000000001
 40
0.0
 40
0.0
 40
0.0
 40
0.0
 40
0.1361444703698193
 40
0.2474642623901073
 40
0.3442060271694774
 40
0.4326201335370304
 40
0.5245455684405205
 40
0.6578864706563733
 40
0.8649796461641729
 40
1.0
 40
1.0
 40
1.0
 40
1.0
 10
93.35114420415363
 20
107.2410917226475
 30
0.0
 10
93.36090072187278
 20
107.1431534992264
 30
0.0
 10
93.37927583902349
 20
106.9914053203273
 30
0.0
 10
93.49851561062682
 20
106.795039845904
 30
0.0
 10
93.62907796133771
 20
106.6723216140428
 30
0.0
 10
93.7496560964515
 20
106.6008986554952
 30
0.0
 10
93.85296836043861
 20
106.5597414270598
 30
0.0
 10
93.94874808318201
 20
106.5342750179189
 30
0.0
 10
94.02683405140417
 20
106.5191954915945
 30
0.0
 10
94.08700939265596
 20
106.5124817876847
 30
0.0
 10
94.11438261299587
 20
106.5096481206896
 30
0.0
  0
LINE
  5
133
330
106
100
AcDbEntity
  8
$DDT_AUDIT_GENERATED_(7F)
  6
Continuous
 62
     7
100
AcDbLine
 10
101.3511442042
 20
106.35
 30
0.0
 11
131.3511442042
 21
106.35
 31
0.0
  0
ARC
  5
134
330
106
100
AcDbEntity
  8
$DDT_AUDIT_GENERATED_(7F)
  6
Continuous
 62
     7
100
AcDbCircle
 10
138.6249123429
 20
107.2495378751
 30
0.0
 40
0.7262809744108885
100
AcDbArc
 50
277.1212346067
 51
359.33367414
  0
ARC
  5
135
330
106
100
AcDbEntity
  8
$DDT_AUDIT_GENERATED_(7F)
  6
Continuous
 62
     7
100
AcDbCircle
 10
138.6578333857
 20
109.2936995952
 30
0.0
 40
0.6933121033439492
100
AcDbArc
 50
291.6292412292
 51
292.2960623692
  0
ARC
  5
136
330
106
100
AcDbEntity
  8
$DDT_AUDIT_GENERATED_(7F)
  6
Continuous
 62
     7
100
AcDbCircle
 10
94.0084907301
 20
109.3218960056
 30
0.0
 40
0.7064447797051482
100
AcDbArc
 50
184.9081298349
 51
251.8684993075
  0
SPLINE
  5
137
330
106
100
AcDbEntity
  8
$DDT_AUDIT_GENERATED_(7F)
  6
Continuous
 62
     7
100
AcDbSpline
210
0.0
220
0.0
230
1.0
 70
     8
 71
     3
 72
    12
 73
     8
 74
     0
 42
0.0000000118954246
 43
0.0000000001
 40
0.0
 40
0.0
 40
0.0
 40
0.0
 40
0.1709899547710425
 40
0.4453432380108754
 40
0.6665512310991288
 40
0.8866618886672555
 40
1.0
 40
1.0
 40
1.0
 40
1.0
 10
138.9216076302946
 20
108.6558318850592
 30
0.0
 10
138.9417735309525
 20
108.662222724217
 30
0.0
 10
138.9876301199731
 20
108.6790927765633
 30
0.0
 10
139.1039757395112
 20
108.7426138898821
 30
0.0
 10
139.2574755679927
 20
108.8829930935165
 30
0.0
 10
139.3839502237258
 20
109.0844102898638
 30
0.0
 10
139.3891778854149
 20
109.2215229343039
 30
0.0
 10
139.3912118420734
 20
109.2765160000217
 30
0.0
  0
LINE
  5
138
330
106
100
AcDbEntity
  8
$DDT_AUDIT_GENERATED_(7F)
  6
Continuous
 62
     7
100
AcDbLine
 10
90.96470116
 20
142.6147460485
 30
0.0
 11
90.6840075706
 21
142.6147460485
 31
0.0
  0
LINE
  5
139
330
106
100
AcDbEntity
  8
$DDT_AUDIT_GENERATED_(7F)
  6
Continuous
 62
     7
100
AcDbLine
 10
142.0159928424
 20
142.6147460485
 30
0.0
 11
141.7345553457
 21
142.6147460485
 31
0.0
  0
ARC
  5
13A
330
106
100
AcDbEntity
  8
$DDT_AUDIT_GENERATED_(7F)
  6
Continuous
 62
     7
100
AcDbCircle
 10
109.0338473287
 20
155.5945185321
 30
0.0
 40
22.59718479983854
100
AcDbArc
 50
221.5503880584
 51
249.8698056001
  0
ARC
  5
13B
330
106
100
AcDbEntity
  8
$DDT_AUDIT_GENERATED_(7F)
  6
Continuous
 62
     7
100
AcDbCircle
 10
124.1658054655
 20
155.0153043031
 30
0.0
 40
21.84281200138555
100
AcDbArc
 50
292.3663341503
 51
318.7230861212
  0
LINE
  5
13C
330
106
100
AcDbEntity
  8
$DDT_AUDIT_GENERATED_(7F)
  6
Continuous
 62
     7
100
AcDbLine
 10
92.1247424059
 20
140.5856579826
 30
0.0
 11
92.1154330886
 21
140.6172494645
 31
0.0
  0
ARC
  5
13D
330
106
100
AcDbEntity
  8
$DDT_AUDIT_GENERATED_(7F)
  6
Continuous
 62
     7
100
AcDbCircle
 10
91.8273897199
 20
140.5333983004
 30
0.0
 40
0.3000000000000007
100
AcDbArc
 50
16.2305969743
 51
32.4444997669
  0
ARC
  5
13E
330
106
100
AcDbEntity
  8
$DDT_AUDIT_GENERATED_(7F)
  6
Continuous
 62
     7
100
AcDbCircle
 10
141.7286073516
 20
142.3225398807
 30
0.0
 40
0.2890254782598578
100
AcDbArc
 50
88.7473399966
 51
148.4539572424
  0
ARC
  5
13F
330
106
100
AcDbEntity
  8
$DDT_AUDIT_GENERATED_(7F)
  6
Continuous
 62
     7
100
AcDbCircle
 10
140.8726102801
 20
140.5333983004
 30
0.0
 40
0.3000000000000067
100
AcDbArc
 50
147.5555002331
 51
163.7694030257
  0
ARC
  5
140
330
106
100
AcDbEntity
  8
$DDT_AUDIT_GENERATED_(7F)
  6
Continuous
 62
     7
100
AcDbCircle
 10
136.8506573823
 20
141.6981820512
 30
0.0
 40
3.887222096549618
100
AcDbArc
 50
343.6715788554
 51
343.8547545429
  0
LINE
  5
141
330
106
100
AcDbEntity
  8
$DDT_AUDIT_GENERATED_(96)
  6
Continuous
 62
     7
100
AcDbLine
 10
6.85
 20
275.7267541836
 30
0.0
 11
75.85
 21
275.7267541836
 31
0.0
  0
LINE
  5
142
330
106
100
AcDbEntity
  8
$DDT_AUDIT_GENERATED_(96)
  6
Continuous
 62
     7
100
AcDbLine
 10
21.35
 20
242.7267741876
 30
0.0
 11
61.35
 21
242.7267741876
 31
0.0
  0
ARC
  5
143
330
106
100
AcDbEntity
  8
$DDT_AUDIT_GENERATED_(96)
  6
Continuous
 62
     7
100
AcDbCircle
 10
74.0466785701
 20
244.5622371739
 30
0.0
 40
1.499999999999999
100
AcDbArc
 50
271.8765314455
 51
358.5
  0
ARC
  5
144
330
106
100
AcDbEntity
  8
$DDT_AUDIT_GENERATED_(96)
  6
Continuous
 62
     7
100
AcDbCircle
 10
8.6533214299
 20
244.5622371739
 30
0.0
 40
1.500000000000006
100
AcDbArc
 50
181.5
 51
268.1234685545
  0
LINE
  5
145
330
106
100
AcDbEntity
  8
$DDT_AUDIT_GENERATED_(96)
  6
Continuous
 62
     7
100
AcDbLine
 10
6.3501713375
 20
275.2136657094
 30
0.0
 11
7.1538354424
 21
244.5229717514
 31
0.0
  0
LINE
  5
146
330
106
100
AcDbEntity
  8
$DDT_AUDIT_GENERATED_(96)
  6
Continuous
 62
     7
100
AcDbLine
 10
75.5461645576
 20
244.5229717514
 30
0.0
 11
76.3498286625
 21
275.2136657094
 31
0.0
  0
ARC
  5
147
330
106
100
AcDbEntity
  8
$DDT_AUDIT_GENERATED_(96)
  6
Continuous
 62
     7
100
AcDbCircle
 10
75.85
 20
275.2267541836
 30
0.0
 40
0.500000000000002
100
AcDbArc
 50
358.5
 51
90.0
  0
ARC
  5
148
330
106
100
AcDbEntity
  8
$DDT_AUDIT_GENERATED_(96)
  6
Continuous
 62
     7
100
AcDbCircle
 10
6.85
 20
275.2267541836
 30
0.0
 40
0.5000000000000003
100
AcDbArc
 50
90.0
 51
181.5
  0
ARC
  5
149
330
106
100
AcDbEntity
  8
$DDT_AUDIT_GENERATED_(96)
  6
Continuous
 62
     7
100
AcDbCircle
 10
41.35
 20
1242.5267541836
 30
0.0
 40
1000.0
100
AcDbArc
 50
271.1459919984
 51
271.8765314455
  0
ARC
  5
14A
330
106
100
AcDbEntity
  8
$DDT_AUDIT_GENERATED_(96)
  6
Continuous
 62
     7
100
AcDbCircle
 10
41.35
 20
1242.5267541836
 30
0.0
 40
1000.0
100
AcDbArc
 50
268.1234685545
 51
268.8540080016
  0
LINE
  5
14B
330
106
100
AcDbEntity
  8
$DDT_AUDIT_GENERATED_(FB)
  6
Continuous
 62
     7
100
AcDbLine
 10
22.3
 20
223.7262972691
 30
0.0
 11
22.35
 21
223.7262972691
 31
0.0
  0
LINE
  5
14C
330
106
100
AcDbEntity
  8
$DDT_AUDIT_GENERATED_(FB)
  6
Continuous
 62
     7
100
AcDbLine
 10
60.6
 20
223.9262972691
 30
0.0
 11
60.6
 21
242.7267741876
 31
0.0
  0
LINE
  5
14D
330
106
100
AcDbEntity
  8
$DDT_AUDIT_GENERATED_(FB)
  6
Continuous
 62
     7
100
AcDbLine
 10
22.1
 20
242.7267741876
 30
0.0
 11
22.1
 21
223.9262972691
 31
0.0
  0
ARC
  5
14E
330
106
100
AcDbEntity
  8
$DDT_AUDIT_GENERATED_(FB)
  6
Continuous
 62
     7
100
AcDbCircle
 10
22.3
 20
223.9262972691
 30
0.0
 40
0.2000000000000057
100
AcDbArc
 50
180.0
 51
270.0
  0
ARC
  5
14F
330
106
100
AcDbEntity
  8
$DDT_AUDIT_GENERATED_(FB)
  6
Continuous
 62
     7
100
AcDbCircle
 10
60.4
 20
223.9262972691
 30
0.0
 40
0.1999999999999919
100
AcDbArc
 50
270.0
 51
0.0
  0
LINE
  5
150
330
106
100
AcDbEntity
  8
$DDT_AUDIT_GENERATED_(96)
  6
Continuous
 62
     7
100
AcDbLine
 10
156.85
 20
275.7267541836
 30
0.0
 11
225.85
 21
275.7267541836
 31
0.0
  0
LINE
  5
151
330
106
100
AcDbEntity
  8
$DDT_AUDIT_GENERATED_(96)
  6
Continuous
 62
     7
100
AcDbLine
 10
171.35
 20
242.7267741876
 30
0.0
 11
211.35
 21
242.7267741876
 31
0.0
  0
ARC
  5
152
330
106
100
AcDbEntity
  8
$DDT_AUDIT_GENERATED_(96)
  6
Continuous
 62
     7
100
AcDbCircle
 10
224.0466785701
 20
244.5622371739
 30
0.0
 40
1.499999999999999
100
AcDbArc
 50
271.8765314455
 51
358.5
  0
ARC
  5
153
330
106
100
AcDbEntity
  8
$DDT_AUDIT_GENERATED_(96)
  6
Continuous
 62
     7
100
AcDbCircle
 10
158.6533214299
 20
244.5622371739
 30
0.0
 40
1.499999999999998
100
AcDbArc
 50
181.5
 51
268.1234685545
  0
LINE
  5
154
330
106
100
AcDbEntity
  8
$DDT_AUDIT_GENERATED_(96)
  6
Continuous
 62
     7
100
AcDbLine
 10
156.3501713375
 20
275.2136657094
 30
0.0
 11
157.1538354424
 21
244.5229717514
 31
0.0
  0
LINE
  5
155
330
106
100
AcDbEntity
  8
$DDT_AUDIT_GENERATED_(96)
  6
Continuous
 62
     7
100
AcDbLine
 10
225.5461645576
 20
244.5229717514
 30
0.0
 11
226.3498286625
 21
275.2136657094
 31
0.0
  0
ARC
  5
156
330
106
100
AcDbEntity
  8
$DDT_AUDIT_GENERATED_(96)
  6
Continuous
 62
     7
100
AcDbCircle
 10
225.85
 20
275.2267541836
 30
0.0
 40
0.500000000000002
100
AcDbArc
 50
358.5
 51
90.0
  0
ARC
  5
157
330
106
100
AcDbEntity
  8
$DDT_AUDIT_GENERATED_(96)
  6
Continuous
 62
     7
100
AcDbCircle
 10
156.85
 20
275.2267541836
 30
0.0
 40
0.5000000000000002
100
AcDbArc
 50
90.0
 51
181.5
  0
ARC
  5
158
330
106
100
AcDbEntity
  8
$DDT_AUDIT_GENERATED_(96)
  6
Continuous
 62
     7
100
AcDbCircle
 10
191.35
 20
1242.5267541836
 30
0.0
 40
1000.0
100
AcDbArc
 50
271.1459919984
 51
271.8765314455
  0
ARC
  5
159
330
106
100
AcDbEntity
  8
$DDT_AUDIT_GENERATED_(96)
  6
Continuous
 62
     7
100
AcDbCircle
 10
191.35
 20
1242.5267541836
 30
0.0
 40
1000.0
100
AcDbArc
 50
268.1234685545
 51
268.8540080016
  0
LINE
  5
15A
330
106
100
AcDbEntity
  8
$DDT_AUDIT_GENERATED_(FB)
  6
Continuous
 62
     7
100
AcDbLine
 10
210.35
 20
223.7262972691
 30
0.0
 11
210.4
 21
223.7262972691
 31
0.0
  0
LINE
  5
15B
330
106
100
AcDbEntity
  8
$DDT_AUDIT_GENERATED_(FB)
  6
Continuous
 62
     7
100
AcDbLine
 10
210.6
 20
223.9262972691
 30
0.0
 11
210.6
 21
242.7267741876
 31
0.0
  0
LINE
  5
15C
330
106
100
AcDbEntity
  8
$DDT_AUDIT_GENERATED_(FB)
  6
Continuous
 62
     7
100
AcDbLine
 10
172.1
 20
242.7267741876
 30
0.0
 11
172.1
 21
223.9262972691
 31
0.0
  0
ARC
  5
15D
330
106
100
AcDbEntity
  8
$DDT_AUDIT_GENERATED_(FB)
  6
Continuous
 62
     7
100
AcDbCircle
 10
172.3
 20
223.9262972691
 30
0.0
 40
0.1999999999999988
100
AcDbArc
 50
180.0
 51
270.0
  0
ARC
  5
15E
330
106
100
AcDbEntity
  8
$DDT_AUDIT_GENERATED_(FB)
  6
Continuous
 62
     7
100
AcDbCircle
 10
210.4
 20
223.9262972691
 30
0.0
 40
0.1999999999999919
100
AcDbArc
 50
270.0
 51
0.0
  0
LINE
  5
160
330
106
100
AcDbEntity
  8
DV3_Standard
  6
CENTER2
 62
     7
100
AcDbLine
 10
61.349999553
 20
275.7267541836
 30
0.0
 11
21.350000447
 21
275.7267541836
 31
0.0
  0
LINE
  5
161
330
106
100
AcDbEntity
  8
DV3_Standard
  6
CENTER2
 62
     7
100
AcDbLine
 10
41.35
 20
295.7267537366
 30
0.0
 11
41.35
 21
255.7267546306
 31
0.0
  0
LINE
  5
162
330
106
100
AcDbEntity
  8
DV3_Standard
  6
CENTER2
 62
     7
100
AcDbLine
 10
211.349999553
 20
275.7267541836
 30
0.0
 11
171.350000447
 21
275.7267541836
 31
0.0
  0
LINE
  5
163
330
106
100
AcDbEntity
  8
DV3_Standard
  6
CENTER2
 62
     7
100
AcDbLine
 10
191.35
 20
295.7267537366
 30
0.0
 11
191.35
 21
255.7267546306
 31
0.0
  0
ENDBLK
  5
165
330
106
100
AcDbEntity
  8
0
100
AcDbBlockEnd
  0
ENDSEC
  0
SECTION
  2
ENTITIES
  0
INSERT
  5
5F
330
1F
100
AcDbEntity
  8
Default
100
AcDbBlockReference
  2
SE
 10
0.0
 20
0.0
 30
0.0
  0
INSERT
  5
AB
330
1F
100
AcDbEntity
  8
Default
100
AcDbBlockReference
  2
SE1
 10
0.0
 20
0.0
 30
0.0
  0
INSERT
  5
107
330
1F
100
AcDbEntity
  8
Default
100
AcDbBlockReference
  2
SE2
 10
0.0
 20
0.0
 30
0.0
  0
TEXT
  5
167
330
1F
100
AcDbEntity
  8
Default
  6
Continuous
 62
     7
100
AcDbText
 10
5.9362635081
 20
53.4225120485
 30
0.0
 40
10.0
  1
Grohe AG^J
  7
SEACAD_seiso_ttf
 11
5.9362635081
 21
63.4225120485
 31
0.0
100
AcDbText
 73
     3
  0
TEXT
  5
168
330
1F
100
AcDbEntity
  8
Default
  6
Continuous
 62
     7
100
AcDbText
 10
5.9362635081
 20
37.0588756849
 30
0.0
 40
10.0
  1
 
  7
SEACAD_seiso_ttf
 11
5.9362635081
 21
47.0588756849
 31
0.0
100
AcDbText
 73
     3
  0
TEXT
  5
169
330
1F
100
AcDbEntity
  8
Default
  6
Continuous
 62
     7
100
AcDbText
 10
5.9362635081
 20
20.6952393213
 30
0.0
 40
10.0
  1
ecn: 
  7
SEACAD_seiso_ttf
 11
5.9362635081
 21
30.6952393213
 31
0.0
100
AcDbText
 73
     3
  0
TEXT
  5
16A
330
1F
100
AcDbEntity
  8
Default
  6
Continuous
 62
     7
100
AcDbText
 10
5.9362635081
 20
4.3316029576
 30
0.0
 40
10.0
  1
unit: mm
  7
SEACAD_seiso_ttf
 11
5.9362635081
 21
14.3316029576
 31
0.0
100
AcDbText
 73
     3
  0
LINE
  5
16B
330
1F
100
AcDbEntity
  8
Default
  6
Continuous
 62
     7
100
AcDbLine
 10
0.0
 20
0.0
 30
0.0
 11
100.0
 21
0.0
 31
0.0
  0
LINE
  5
16C
330
1F
100
AcDbEntity
  8
Default
  6
Continuous
 62
     7
100
AcDbLine
 10
0.0
 20
0.0
 30
0.0
 11
0.0
 21
100.0
 31
0.0
  0
TEXT
  5
16D
330
1F
100
AcDbEntity
  8
Default
  6
Continuous
 62
     7
100
AcDbText
 10
24.3923665681
 20
-18.2375342018
 30
0.0
 40
10.0
  1
100 mm
  7
SEACAD_seiso_ttf
 11
24.3923665681
 21
-8.2375342018
 31
0.0
100
AcDbText
 73
     3
  0
TEXT
  5
16E
330
1F
100
AcDbEntity
  8
Default
  6
Continuous
 62
     7
100
AcDbText
 10
-7.6150308803
 20
24.6231930421
 30
0.0
 40
10.0
  1
100 mm
 50
90.0
  7
SEACAD_seiso_ttf
 11
-17.6150308803
 21
24.6231930421
 31
0.0
100
AcDbText
 73
     3
  0
TEXT
  5
16F
330
1F
100
AcDbEntity
  8
Default
  6
Continuous
 62
     7
100
AcDbText
 10
28.4878128572
 20
20.0907663715
 30
0.0
 40
10.0
  1
214084
  7
SEACAD_seiso_ttf
 11
28.4878128572
 21
30.0907663715
 31
0.0
100
AcDbText
 73
     3
  0
TEXT
  5
170
330
1F
100
AcDbEntity
  8
Default
  6
Continuous
 62
     7
100
AcDbText
 10
5.9012241913
 20
36.7242780188
 30
0.0
 40
10.0
  1
32637000
  7
SEACAD_seiso_ttf
 11
5.9012241913
 21
46.7242780188
 31
0.0
100
AcDbText
 73
     3
  0
ENDSEC
  0
SECTION
  2
OBJECTS
  0
DICTIONARY
  5
C
330
0
100
AcDbDictionary
281
     1
  3
ACAD_GROUP
350
D
  3
ACAD_LAYOUT
350
1A
  3
ACAD_MLEADERSTYLE
350
174
  3
ACAD_MLINESTYLE
350
17
  3
ACAD_PLOTSETTINGS
350
19
  3
ACAD_PLOTSTYLENAME
350
E
  3
ACAD_SCALELIST
350
3B
  3
ACAD_TABLESTYLE
350
173
  3
ACAD_VISUALSTYLE
350
2A
  3
AcDbVariableDictionary
350
171
  0
DICTIONARY
  5
D
102
{ACAD_REACTORS
330
C
102
}
330
C
100
AcDbDictionary
281
     1
  0
DICTIONARY
  5
1A
102
{ACAD_REACTORS
330
C
102
}
330
C
100
AcDbDictionary
281
     1
  3
Layout1
350
1E
  3
Model
350
22
  0
DICTIONARY
  5
174
102
{ACAD_REACTORS
330
C
102
}
330
C
100
AcDbDictionary
281
     1
  0
DICTIONARY
  5
17
102
{ACAD_REACTORS
330
C
102
}
330
C
100
AcDbDictionary
281
     1
  3
Standard
350
18
  0
DICTIONARY
  5
19
102
{ACAD_REACTORS
330
C
102
}
330
C
100
AcDbDictionary
281
     1
  0
ACDBDICTIONARYWDFLT
  5
E
102
{ACAD_REACTORS
330
C
102
}
330
C
100
AcDbDictionary
281
     1
  3
Normal
350
F
100
AcDbDictionaryWithDefault
340
F
  0
DICTIONARY
  5
3B
102
{ACAD_REACTORS
330
C
102
}
330
C
100
AcDbDictionary
281
     1
  3
A0
350
3C
  3
A1
350
3D
  3
A2
350
3E
  3
A3
350
3F
  3
A4
350
40
  3
A5
350
41
  3
A6
350
42
  3
A7
350
43
  3
A8
350
44
  3
A9
350
45
  3
B0
350
46
  3
B1
350
47
  3
B2
350
48
  3
B3
350
49
  3
B4
350
4A
  3
B5
350
4B
  3
B6
350
4C
  3
B7
350
4D
  3
B8
350
4E
  3
B9
350
4F
  3
C0
350
50
  3
C1
350
51
  3
C2
350
52
  3
C3
350
53
  3
C4
350
54
  3
C5
350
55
  3
C6
350
56
  3
C7
350
57
  3
C8
350
58
  3
C9
350
59
  3
D0
350
5A
  3
D1
350
5B
  3
D2
350
5C
  0
DICTIONARY
  5
173
102
{ACAD_REACTORS
330
C
102
}
330
C
100
AcDbDictionary
281
     1
  0
DICTIONARY
  5
2A
102
{ACAD_REACTORS
330
C
102
}
330
C
100
AcDbDictionary
281
     1
  3
2dWireframe
350
2F
  3
3D Hidden
350
31
  3
3dWireframe
350
30
  3
Basic
350
32
  3
Brighten
350
36
  3
ColorChange
350
3A
  3
Conceptual
350
34
  3
Dim
350
35
  3
Facepattern
350
39
  3
Flat
350
2B
  3
FlatWithEdges
350
2C
  3
Gouraud
350
2D
  3
GouraudWithEdges
350
2E
  3
Linepattern
350
38
  3
Realistic
350
33
  3
Thicken
350
37
  0
DICTIONARY
  5
171
102
{ACAD_REACTORS
330
C
102
}
330
C
100
AcDbDictionary
281
     1
  3
CANNOSCALE
350
172
  3
PSOLHEIGHT
350
176
  3
PSOLWIDTH
350
175
  0
LAYOUT
  5
1E
102
{ACAD_REACTORS
330
1A
102
}
330
1A
100
AcDbPlotSettings
  1

  2
none_device
  4

  6

 40
0.0
 41
0.0
 42
0.0
 43
0.0
 44
0.0
 45
0.0
 46
0.0
 47
0.0
 48
0.0
 49
0.0
140
0.0
141
0.0
142
1.0
143
1.0
 70
   688
 72
     0
 73
     0
 74
     5
  7

 75
    16
147
1.0
148
0.0
149
0.0
100
AcDbLayout
  1
Layout1
 70
     1
 71
     1
 10
0.0
 20
0.0
 11
1682.0
 21
2378.0
 12
0.0
 22
0.0
 32
0.0
 14
0.0
 24
0.0
 34
0.0
 15
1682.0
 25
2378.0
 35
0.0
146
0.0
 13
0.0
 23
0.0
 33
0.0
 16
1.0
 26
0.0
 36
0.0
 17
0.0
 27
1.0
 37
0.0
 76
     0
330
1B
  0
LAYOUT
  5
22
102
{ACAD_REACTORS
330
1A
102
}
330
1A
100
AcDbPlotSettings
  1

  2
none_device
  4

  6

 40
0.0
 41
0.0
 42
0.0
 43
0.0
 44
0.0
 45
0.0
 46
0.0
 47
0.0
 48
0.0
 49
0.0
140
0.0
141
0.0
142
1.0
143
1.0
 70
  1712
 72
     0
 73
     0
 74
     0
  7

 75
     0
147
1.0
148
0.0
149
0.0
100
AcDbLayout
  1
Model
 70
     1
 71
     0
 10
0.0
 20
0.0
 11
1682.0
 21
2378.0
 12
0.0
 22
0.0
 32
0.0
 14
0.0
 24
0.0
 34
0.0
 15
1682.0
 25
2378.0
 35
0.0
146
0.0
 13
0.0
 23
0.0
 33
0.0
 16
1.0
 26
0.0
 36
0.0
 17
0.0
 27
1.0
 37
0.0
 76
     0
330
1F
331
29
  0
MLINESTYLE
  5
18
102
{ACAD_REACTORS
330
17
102
}
330
17
100
AcDbMlineStyle
  2
Standard
 70
     0
  3

 62
   256
 51
90.0
 52
90.0
 71
     2
 49
0.5
 62
   256
  6
BYLAYER
 49
-0.5
 62
   256
  6
BYLAYER
  0
ACDBPLACEHOLDER
  5
F
102
{ACAD_REACTORS
330
E
102
}
330
E
  0
SCALE
  5
3C
102
{ACAD_REACTORS
330
3B
102
}
330
3B
100
AcDbScale
 70
     0
300
1:1
140
1.0
141
1.0
290
     1
  0
SCALE
  5
3D
102
{ACAD_REACTORS
330
3B
102
}
330
3B
100
AcDbScale
 70
     0
300
1:2
140
1.0
141
2.0
290
     0
  0
SCALE
  5
3E
102
{ACAD_REACTORS
330
3B
102
}
330
3B
100
AcDbScale
 70
     0
300
1:4
140
1.0
141
4.0
290
     0
  0
SCALE
  5
3F
102
{ACAD_REACTORS
330
3B
102
}
330
3B
100
AcDbScale
 70
     0
300
1:5
140
1.0
141
5.0
290
     0
  0
SCALE
  5
40
102
{ACAD_REACTORS
330
3B
102
}
330
3B
100
AcDbScale
 70
     0
300
1:8
140
1.0
141
8.0
290
     0
  0
SCALE
  5
41
102
{ACAD_REACTORS
330
3B
102
}
330
3B
100
AcDbScale
 70
     0
300
1:10
140
1.0
141
10.0
290
     0
  0
SCALE
  5
42
102
{ACAD_REACTORS
330
3B
102
}
330
3B
100
AcDbScale
 70
     0
300
1:16
140
1.0
141
16.0
290
     0
  0
SCALE
  5
43
102
{ACAD_REACTORS
330
3B
102
}
330
3B
100
AcDbScale
 70
     0
300
1:20
140
1.0
141
20.0
290
     0
  0
SCALE
  5
44
102
{ACAD_REACTORS
330
3B
102
}
330
3B
100
AcDbScale
 70
     0
300
1:30
140
1.0
141
30.0
290
     0
  0
SCALE
  5
45
102
{ACAD_REACTORS
330
3B
102
}
330
3B
100
AcDbScale
 70
     0
300
1:40
140
1.0
141
40.0
290
     0
  0
SCALE
  5
46
102
{ACAD_REACTORS
330
3B
102
}
330
3B
100
AcDbScale
 70
     0
300
1:50
140
1.0
141
50.0
290
     0
  0
SCALE
  5
47
102
{ACAD_REACTORS
330
3B
102
}
330
3B
100
AcDbScale
 70
     0
300
1:100
140
1.0
141
100.0
290
     0
  0
SCALE
  5
48
102
{ACAD_REACTORS
330
3B
102
}
330
3B
100
AcDbScale
 70
     0
300
2:1
140
2.0
141
1.0
290
     0
  0
SCALE
  5
49
102
{ACAD_REACTORS
330
3B
102
}
330
3B
100
AcDbScale
 70
     0
300
4:1
140
4.0
141
1.0
290
     0
  0
SCALE
  5
4A
102
{ACAD_REACTORS
330
3B
102
}
330
3B
100
AcDbScale
 70
     0
300
8:1
140
8.0
141
1.0
290
     0
  0
SCALE
  5
4B
102
{ACAD_REACTORS
330
3B
102
}
330
3B
100
AcDbScale
 70
     0
300
10:1
140
10.0
141
1.0
290
     0
  0
SCALE
  5
4C
102
{ACAD_REACTORS
330
3B
102
}
330
3B
100
AcDbScale
 70
     0
300
100:1
140
100.0
141
1.0
290
     0
  0
SCALE
  5
4D
102
{ACAD_REACTORS
330
3B
102
}
330
3B
100
AcDbScale
 70
     0
300
1/128" = 1'-0"
140
0.0078125
141
12.0
290
     0
  0
SCALE
  5
4E
102
{ACAD_REACTORS
330
3B
102
}
330
3B
100
AcDbScale
 70
     0
300
1/64" = 1'-0"
140
0.015625
141
12.0
290
     0
  0
SCALE
  5
4F
102
{ACAD_REACTORS
330
3B
102
}
330
3B
100
AcDbScale
 70
     0
300
1/32" = 1'-0"
140
0.03125
141
12.0
290
     0
  0
SCALE
  5
50
102
{ACAD_REACTORS
330
3B
102
}
330
3B
100
AcDbScale
 70
     0
300
1/16" = 1'-0"
140
0.0625
141
12.0
290
     0
  0
SCALE
  5
51
102
{ACAD_REACTORS
330
3B
102
}
330
3B
100
AcDbScale
 70
     0
300
3/32" = 1'-0"
140
0.09375
141
12.0
290
     0
  0
SCALE
  5
52
102
{ACAD_REACTORS
330
3B
102
}
330
3B
100
AcDbScale
 70
     0
300
1/8" = 1'-0"
140
0.125
141
12.0
290
     0
  0
SCALE
  5
53
102
{ACAD_REACTORS
330
3B
102
}
330
3B
100
AcDbScale
 70
     0
300
3/16" = 1'-0"
140
0.1875
141
12.0
290
     0
  0
SCALE
  5
54
102
{ACAD_REACTORS
330
3B
102
}
330
3B
100
AcDbScale
 70
     0
300
1/4" = 1'-0"
140
0.25
141
12.0
290
     0
  0
SCALE
  5
55
102
{ACAD_REACTORS
330
3B
102
}
330
3B
100
AcDbScale
 70
     0
300
3/8" = 1'-0"
140
0.375
141
12.0
290
     0
  0
SCALE
  5
56
102
{ACAD_REACTORS
330
3B
102
}
330
3B
100
AcDbScale
 70
     0
300
1/2" = 1'-0"
140
0.5
141
12.0
290
     0
  0
SCALE
  5
57
102
{ACAD_REACTORS
330
3B
102
}
330
3B
100
AcDbScale
 70
     0
300
3/4" = 1'-0"
140
0.75
141
12.0
290
     0
  0
SCALE
  5
58
102
{ACAD_REACTORS
330
3B
102
}
330
3B
100
AcDbScale
 70
     0
300
1" = 1'-0"
140
1.0
141
12.0
290
     0
  0
SCALE
  5
59
102
{ACAD_REACTORS
330
3B
102
}
330
3B
100
AcDbScale
 70
     0
300
1-1/2" = 1'-0"
140
1.5
141
12.0
290
     0
  0
SCALE
  5
5A
102
{ACAD_REACTORS
330
3B
102
}
330
3B
100
AcDbScale
 70
     0
300
3" = 1'-0"
140
3.0
141
12.0
290
     0
  0
SCALE
  5
5B
102
{ACAD_REACTORS
330
3B
102
}
330
3B
100
AcDbScale
 70
     0
300
6" = 1'-0"
140
6.0
141
12.0
290
     0
  0
SCALE
  5
5C
102
{ACAD_REACTORS
330
3B
102
}
330
3B
100
AcDbScale
 70
     0
300
1'-0" = 1'-0"
140
12.0
141
12.0
290
     0
  0
VISUALSTYLE
  5
2F
102
{ACAD_REACTORS
330
2A
102
}
330
2A
100
AcDbVisualStyle
  2
2dWireframe
 70
     4
 71
     0
 72
     2
 73
     0
 90
        0
 40
-0.6
 41
-30.0
 62
     5
 63
     7
 74
     1
 91
        4
 64
     7
 65
   257
 75
     1
175
     1
 42
1.0
 92
        0
 66
   257
 43
1.0
 76
     1
 77
     6
 78
     2
 67
     7
 79
     5
170
     0
171
     0
290
     0
174
     0
 93
        1
 44
0.0
173
     0
291
     0
 45
0.0
1001
ACAD
1000
AcDbSavedByObjectVersion
1070
     0
  0
VISUALSTYLE
  5
31
102
{ACAD_REACTORS
330
2A
102
}
330
2A
100
AcDbVisualStyle
  2
3D Hidden
 70
     6
 71
     1
 72
     2
 73
     2
 90
        0
 40
-0.6
 41
-30.0
 62
     5
 63
     7
 74
     2
 91
        2
 64
     7
 65
   257
 75
     2
175
     1
 42
40.0
 92
        0
 66
   257
 43
1.0
 76
     1
 77
     6
 78
     2
 67
     7
 79
     3
170
     0
171
     0
290
     0
174
     0
 93
        1
 44
0.0
173
     0
291
     0
 45
0.0
1001
ACAD
1000
AcDbSavedByObjectVersion
1070
     0
  0
VISUALSTYLE
  5
30
102
{ACAD_REACTORS
330
2A
102
}
330
2A
100
AcDbVisualStyle
  2
3dWireframe
 70
     5
 71
     0
 72
     2
 73
     0
 90
        0
 40
-0.6
 41
-30.0
 62
     5
 63
     7
 74
     1
 91
        4
 64
     7
 65
   257
 75
     1
175
     1
 42
1.0
 92
        0
 66
   257
 43
1.0
 76
     1
 77
     6
 78
     2
 67
     7
 79
     5
170
     0
171
     0
290
     0
174
     0
 93
        1
 44
0.0
173
     0
291
     0
 45
0.0
1001
ACAD
1000
AcDbSavedByObjectVersion
1070
     0
  0
VISUALSTYLE
  5
32
102
{ACAD_REACTORS
330
2A
102
}
330
2A
100
AcDbVisualStyle
  2
Basic
 70
     7
 71
     1
 72
     0
 73
     1
 90
        0
 40
-0.6
 41
-30.0
 62
     5
 63
     7
 74
     0
 91
        4
 64
     7
 65
   257
 75
     1
175
     1
 42
1.0
 92
        8
 66
     7
 43
1.0
 76
     1
 77
     6
 78
     2
 67
     7
 79
     5
170
     0
171
     0
290
     0
174
     0
 93
        1
 44
0.0
173
     0
291
     1
 45
0.0
1001
ACAD
1000
AcDbSavedByObjectVersion
1070
     0
  0
VISUALSTYLE
  5
36
102
{ACAD_REACTORS
330
2A
102
}
330
2A
100
AcDbVisualStyle
  2
Brighten
 70
    12
 71
     2
 72
     2
 73
     0
 90
        0
 40
-0.6
 41
-30.0
 62
     5
 63
     7
 74
     1
 91
        4
 64
     7
 65
   257
 75
     1
175
     1
 42
1.0
 92
        8
 66
     7
 43
1.0
 76
     1
 77
     6
 78
     2
 67
     7
 79
     5
170
     0
171
     0
290
     0
174
     0
 93
        1
 44
50.0
173
     0
291
     1
 45
0.0
1001
ACAD
1000
AcDbSavedByObjectVersion
1070
     0
  0
VISUALSTYLE
  5
3A
102
{ACAD_REACTORS
330
2A
102
}
330
2A
100
AcDbVisualStyle
  2
ColorChange
 70
    16
 71
     2
 72
     2
 73
     3
 90
        0
 40
-0.6
 41
-30.0
 62
     5
 63
     8
 74
     1
 91
        4
 64
     7
 65
   257
 75
     1
175
     1
 42
1.0
 92
        8
 66
     8
 43
1.0
 76
     1
 77
     6
 78
     2
 67
     7
 79
     5
170
     0
171
     0
290
     0
174
     0
 93
        1
 44
0.0
173
     0
291
     1
 45
0.0
1001
ACAD
1000
AcDbSavedByObjectVersion
1070
     0
  0
VISUALSTYLE
  5
34
102
{ACAD_REACTORS
330
2A
102
}
330
2A
100
AcDbVisualStyle
  2
Conceptual
 70
     9
 71
     3
 72
     2
 73
     0
 90
        0
 40
-0.6
 41
-30.0
 62
     5
 63
     7
 74
     2
 91
        2
 64
     7
 65
   257
 75
     1
175
     1
 42
40.0
 92
        8
 66
     7
 43
1.0
 76
     1
 77
     6
 78
     2
 67
     7
 79
     3
170
     0
171
     0
290
     0
174
     0
 93
        1
 44
0.0
173
     0
291
     0
 45
0.0
1001
ACAD
1000
AcDbSavedByObjectVersion
1070
     0
  0
VISUALSTYLE
  5
35
102
{ACAD_REACTORS
330
2A
102
}
330
2A
100
AcDbVisualStyle
  2
Dim
 70
    11
 71
     2
 72
     2
 73
     0
 90
        0
 40
-0.6
 41
-30.0
 62
     5
 63
     7
 74
     1
 91
        4
 64
     7
 65
   257
 75
     1
175
     1
 42
1.0
 92
        8
 66
     7
 43
1.0
 76
     1
 77
     6
 78
     2
 67
     7
 79
     5
170
     0
171
     0
290
     0
174
     0
 93
        1
 44
-50.0
173
     0
291
     1
 45
0.0
1001
ACAD
1000
AcDbSavedByObjectVersion
1070
     0
  0
VISUALSTYLE
  5
39
102
{ACAD_REACTORS
330
2A
102
}
330
2A
100
AcDbVisualStyle
  2
Facepattern
 70
    15
 71
     2
 72
     2
 73
     0
 90
        0
 40
-0.6
 41
-30.0
 62
     5
 63
     7
 74
     1
 91
        4
 64
     7
 65
   257
 75
     1
175
     1
 42
1.0
 92
        8
 66
     7
 43
1.0
 76
     1
 77
     6
 78
     2
 67
     7
 79
     5
170
     0
171
     0
290
     0
174
     0
 93
        1
 44
0.0
173
     0
291
     1
 45
0.0
1001
ACAD
1000
AcDbSavedByObjectVersion
1070
     0
  0
VISUALSTYLE
  5
2B
102
{ACAD_REACTORS
330
2A
102
}
330
2A
100
AcDbVisualStyle
  2
Flat
 70
     0
 71
     2
 72
     1
 73
     1
 90
        2
 40
-0.6
 41
30.0
 62
     5
 63
     7
 74
     0
 91
        4
 64
     7
 65
   257
 75
     1
175
     1
 42
1.0
 92
        8
 66
     7
 43
1.0
 76
     1
 77
     6
 78
     2
 67
     7
 79
     5
170
     0
171
     0
290
     0
174
     0
 93
       13
 44
0.0
173
     0
291
     1
 45
0.0
1001
ACAD
1000
AcDbSavedByObjectVersion
1070
     0
  0
VISUALSTYLE
  5
2C
102
{ACAD_REACTORS
330
2A
102
}
330
2A
100
AcDbVisualStyle
  2
FlatWithEdges
 70
     1
 71
     2
 72
     1
 73
     1
 90
        2
 40
-0.6
 41
30.0
 62
     5
 63
     7
 74
     1
 91
        4
 64
     7
 65
   257
 75
     1
175
     1
 42
1.0
 92
        0
 66
   257
 43
1.0
 76
     1
 77
     6
 78
     2
 67
     7
 79
     5
170
     0
171
     0
290
     0
174
     0
 93
       13
 44
0.0
173
     0
291
     1
 45
0.0
1001
ACAD
1000
AcDbSavedByObjectVersion
1070
     0
  0
VISUALSTYLE
  5
2D
102
{ACAD_REACTORS
330
2A
102
}
330
2A
100
AcDbVisualStyle
  2
Gouraud
 70
     2
 71
     2
 72
     2
 73
     1
 90
        2
 40
-0.6
 41
30.0
 62
     5
 63
     7
 74
     0
 91
        4
 64
     7
 65
   257
 75
     1
175
     1
 42
1.0
 92
        0
 66
     7
 43
1.0
 76
     1
 77
     6
 78
     2
 67
     7
 79
     5
170
     0
171
     0
290
     0
174
     0
 93
       13
 44
0.0
173
     0
291
     1
 45
0.0
1001
ACAD
1000
AcDbSavedByObjectVersion
1070
     0
  0
VISUALSTYLE
  5
2E
102
{ACAD_REACTORS
330
2A
102
}
330
2A
100
AcDbVisualStyle
  2
GouraudWithEdges
 70
     3
 71
     2
 72
     2
 73
     1
 90
        2
 40
-0.6
 41
30.0
 62
     5
 63
     7
 74
     1
 91
        4
 64
     7
 65
   257
 75
     1
175
     1
 42
1.0
 92
        0
 66
   257
 43
1.0
 76
     1
 77
     6
 78
     2
 67
     7
 79
     5
170
     0
171
     0
290
     0
174
     0
 93
       13
 44
0.0
173
     0
291
     1
 45
0.0
1001
ACAD
1000
AcDbSavedByObjectVersion
1070
     0
  0
VISUALSTYLE
  5
38
102
{ACAD_REACTORS
330
2A
102
}
330
2A
100
AcDbVisualStyle
  2
Linepattern
 70
    14
 71
     2
 72
     2
 73
     0
 90
        0
 40
-0.6
 41
-30.0
 62
     5
 63
     7
 74
     1
 91
        4
 64
     7
 65
   257
 75
     7
175
     7
 42
1.0
 92
        8
 66
     7
 43
1.0
 76
     1
 77
     6
 78
     2
 67
     7
 79
     5
170
     0
171
     0
290
     0
174
     0
 93
        1
 44
0.0
173
     0
291
     1
 45
0.0
1001
ACAD
1000
AcDbSavedByObjectVersion
1070
     0
  0
VISUALSTYLE
  5
33
102
{ACAD_REACTORS
330
2A
102
}
330
2A
100
AcDbVisualStyle
  2
Realistic
 70
     8
 71
     2
 72
     2
 73
     0
 90
        0
 40
-0.6
 41
-30.0
 62
     5
 63
     7
 74
     1
 91
        0
 64
     7
 65
   257
 75
     1
175
     1
 42
1.0
 92
        8
 66
     8
 43
1.0
 76
     1
 77
     6
 78
     2
 67
     7
 79
     5
170
     0
171
     0
290
     0
174
     0
 93
       13
 44
0.0
173
     0
291
     0
 45
0.0
1001
ACAD
1000
AcDbSavedByObjectVersion
1070
     0
  0
VISUALSTYLE
  5
37
102
{ACAD_REACTORS
330
2A
102
}
330
2A
100
AcDbVisualStyle
  2
Thicken
 70
    13
 71
     2
 72
     2
 73
     0
 90
        0
 40
-0.6
 41
-30.0
 62
     5
 63
     7
 74
     1
 91
        4
 64
     7
 65
   257
 75
     1
175
     1
 42
1.0
 92
       12
 66
     7
 43
1.0
 76
     1
 77
     6
 78
     2
 67
     7
 79
     5
170
     0
171
     0
290
     0
174
     0
 93
        1
 44
0.0
173
     0
291
     1
 45
0.0
1001
ACAD
1000
AcDbSavedByObjectVersion
1070
     0
  0
DICTIONARYVAR
  5
172
102
{ACAD_REACTORS
330
171
102
}
330
171
100
DictionaryVariables
280
     0
  1
1:1
  0
DICTIONARYVAR
  5
176
102
{ACAD_REACTORS
330
171
102
}
330
171
100
DictionaryVariables
280
     0
  1
80.000000
  0
DICTIONARYVAR
  5
175
102
{ACAD_REACTORS
330
171
102
}
330
171
100
DictionaryVariables
280
     0
  1
5.000000
  0
ENDSEC
  0
EOF
