  0
SECTION
  2
HEADER
  9
$ACADVER
  1
AC1015
  9
$ACADMAINTVER
 70
     6
  9
$DWGCODEPAGE
  3
ANSI_1252
  9
$INSBASE
 10
0.0
 20
0.0
 30
0.0
  9
$EXTMIN
 10
0.0
 20
0.0
 30
0.0
  9
$EXTMAX
 10
1682.0
 20
2378.0
 30
0.0
  9
$LIMMIN
 10
0.0
 20
0.0
  9
$LIMMAX
 10
1682.0
 20
2378.0
  9
$ORTHOMODE
 70
     0
  9
$REGENMODE
 70
     1
  9
$FILLMODE
 70
     1
  9
$QTEXTMODE
 70
     0
  9
$MIRRTEXT
 70
     1
  9
$LTSCALE
 40
1.0
  9
$ATTMODE
 70
     1
  9
$TEXTSIZE
 40
2.5
  9
$TRACEWID
 40
1.0
  9
$TEXTSTYLE
  7
Standard
  9
$CLAYER
  8
0
  9
$CELTYPE
  6
ByLayer
  9
$CECOLOR
 62
   256
  9
$CELTSCALE
 40
1.0
  9
$DISPSILH
 70
     0
  9
$DIMSCALE
 40
1.0
  9
$DIMASZ
 40
2.5
  9
$DIMEXO
 40
0.625
  9
$DIMDLI
 40
3.75
  9
$DIMRND
 40
0.0
  9
$DIMDLE
 40
0.0
  9
$DIMEXE
 40
1.25
  9
$DIMTP
 40
0.0
  9
$DIMTM
 40
0.0
  9
$DIMTXT
 40
2.5
  9
$DIMCEN
 40
2.5
  9
$DIMTSZ
 40
0.0
  9
$DIMTOL
 70
     0
  9
$DIMLIM
 70
     0
  9
$DIMTIH
 70
     0
  9
$DIMTOH
 70
     0
  9
$DIMSE1
 70
     0
  9
$DIMSE2
 70
     0
  9
$DIMTAD
 70
     1
  9
$DIMZIN
 70
     8
  9
$DIMBLK
  1

  9
$DIMASO
 70
     1
  9
$DIMSHO
 70
     1
  9
$DIMPOST
  1

  9
$DIMAPOST
  1

  9
$DIMALT
 70
     0
  9
$DIMALTD
 70
     3
  9
$DIMALTF
 40
0.0393700787
  9
$DIMLFAC
 40
1.0
  9
$DIMTOFL
 70
     1
  9
$DIMTVP
 40
0.0
  9
$DIMTIX
 70
     0
  9
$DIMSOXD
 70
     0
  9
$DIMSAH
 70
     0
  9
$DIMBLK1
  1

  9
$DIMBLK2
  1

  9
$DIMSTYLE
  2
ISO-25
  9
$DIMCLRD
 70
     0
  9
$DIMCLRE
 70
     0
  9
$DIMCLRT
 70
     0
  9
$DIMTFAC
 40
1.0
  9
$DIMGAP
 40
0.625
  9
$DIMJUST
 70
     0
  9
$DIMSD1
 70
     0
  9
$DIMSD2
 70
     0
  9
$DIMTOLJ
 70
     0
  9
$DIMTZIN
 70
     8
  9
$DIMALTZ
 70
     0
  9
$DIMALTTZ
 70
     0
  9
$DIMUPT
 70
     0
  9
$DIMDEC
 70
     2
  9
$DIMTDEC
 70
     2
  9
$DIMALTU
 70
     2
  9
$DIMALTTD
 70
     3
  9
$DIMTXSTY
  7
Standard
  9
$DIMAUNIT
 70
     0
  9
$DIMADEC
 70
     0
  9
$DIMALTRND
 40
0.0
  9
$DIMAZIN
 70
     0
  9
$DIMDSEP
 70
    44
  9
$DIMATFIT
 70
     3
  9
$DIMFRAC
 70
     0
  9
$DIMLDRBLK
  1

  9
$DIMLUNIT
 70
     2
  9
$DIMLWD
 70
    -2
  9
$DIMLWE
 70
    -2
  9
$DIMTMOVE
 70
     0
  9
$LUNITS
 70
     2
  9
$LUPREC
 70
     4
  9
$SKETCHINC
 40
1.0
  9
$FILLETRAD
 40
10.0
  9
$AUNITS
 70
     0
  9
$AUPREC
 70
     0
  9
$MENU
  1
.
  9
$ELEVATION
 40
0.0
  9
$PELEVATION
 40
0.0
  9
$THICKNESS
 40
0.0
  9
$LIMCHECK
 70
     0
  9
$CHAMFERA
 40
10.0
  9
$CHAMFERB
 40
10.0
  9
$CHAMFERC
 40
20.0
  9
$CHAMFERD
 40
0.0
  9
$SKPOLY
 70
     0
  9
$TDCREATE
 40
2455233.330517489
  9
$TDUCREATE
 40
2455233.288850822
  9
$TDUPDATE
 40
2455233.3305175
  9
$TDUUPDATE
 40
2455233.288850833
  9
$TDINDWG
 40
0.0000000116
  9
$TDUSRTIMER
 40
0.0000000116
  9
$USRTIMER
 70
     1
  9
$ANGBASE
 50
0.0
  9
$ANGDIR
 70
     0
  9
$PDMODE
 70
     0
  9
$PDSIZE
 40
0.0
  9
$PLINEWID
 40
0.0
  9
$SPLFRAME
 70
     0
  9
$SPLINETYPE
 70
     6
  9
$SPLINESEGS
 70
     8
  9
$HANDSEED
  5
18B
  9
$SURFTAB1
 70
     6
  9
$SURFTAB2
 70
     6
  9
$SURFTYPE
 70
     6
  9
$SURFU
 70
     6
  9
$SURFV
 70
     6
  9
$UCSBASE
  2

  9
$UCSNAME
  2

  9
$UCSORG
 10
0.0
 20
0.0
 30
0.0
  9
$UCSXDIR
 10
1.0
 20
0.0
 30
0.0
  9
$UCSYDIR
 10
0.0
 20
1.0
 30
0.0
  9
$UCSORTHOREF
  2

  9
$UCSORTHOVIEW
 70
     0
  9
$UCSORGTOP
 10
0.0
 20
0.0
 30
0.0
  9
$UCSORGBOTTOM
 10
0.0
 20
0.0
 30
0.0
  9
$UCSORGLEFT
 10
0.0
 20
0.0
 30
0.0
  9
$UCSORGRIGHT
 10
0.0
 20
0.0
 30
0.0
  9
$UCSORGFRONT
 10
0.0
 20
0.0
 30
0.0
  9
$UCSORGBACK
 10
0.0
 20
0.0
 30
0.0
  9
$PUCSBASE
  2

  9
$PUCSNAME
  2

  9
$PUCSORG
 10
0.0
 20
0.0
 30
0.0
  9
$PUCSXDIR
 10
1.0
 20
0.0
 30
0.0
  9
$PUCSYDIR
 10
0.0
 20
1.0
 30
0.0
  9
$PUCSORTHOREF
  2

  9
$PUCSORTHOVIEW
 70
     0
  9
$PUCSORGTOP
 10
0.0
 20
0.0
 30
0.0
  9
$PUCSORGBOTTOM
 10
0.0
 20
0.0
 30
0.0
  9
$PUCSORGLEFT
 10
0.0
 20
0.0
 30
0.0
  9
$PUCSORGRIGHT
 10
0.0
 20
0.0
 30
0.0
  9
$PUCSORGFRONT
 10
0.0
 20
0.0
 30
0.0
  9
$PUCSORGBACK
 10
0.0
 20
0.0
 30
0.0
  9
$USERI1
 70
     0
  9
$USERI2
 70
     0
  9
$USERI3
 70
     0
  9
$USERI4
 70
     0
  9
$USERI5
 70
     0
  9
$USERR1
 40
0.0
  9
$USERR2
 40
0.0
  9
$USERR3
 40
0.0
  9
$USERR4
 40
0.0
  9
$USERR5
 40
0.0
  9
$WORLDVIEW
 70
     1
  9
$SHADEDGE
 70
     3
  9
$SHADEDIF
 70
    70
  9
$TILEMODE
 70
     1
  9
$MAXACTVP
 70
    64
  9
$PINSBASE
 10
0.0
 20
0.0
 30
0.0
  9
$PLIMCHECK
 70
     0
  9
$PEXTMIN
 10
0.0
 20
0.0
 30
0.0
  9
$PEXTMAX
 10
1682.0
 20
2378.0
 30
0.0
  9
$PLIMMIN
 10
0.0
 20
0.0
  9
$PLIMMAX
 10
1682.0
 20
2378.0
  9
$UNITMODE
 70
     0
  9
$VISRETAIN
 70
     1
  9
$PLINEGEN
 70
     0
  9
$PSLTSCALE
 70
     1
  9
$TREEDEPTH
 70
  3020
  9
$CMLSTYLE
  2
Standard
  9
$CMLJUST
 70
     0
  9
$CMLSCALE
 40
20.0
  9
$PROXYGRAPHICS
 70
     1
  9
$MEASUREMENT
 70
     1
  9
$CELWEIGHT
370
    -1
  9
$ENDCAPS
280
     0
  9
$JOINSTYLE
280
     0
  9
$LWDISPLAY
290
     0
  9
$INSUNITS
 70
     4
  9
$HYPERLINKBASE
  1

  9
$STYLESHEET
  1

  9
$XEDIT
290
     1
  9
$CEPSNTYPE
380
     0
  9
$PSTYLEMODE
290
     1
  9
$FINGERPRINTGUID
  2
{B4548F94-AFAA-4CB5-90C0-185ACD266E9D}
  9
$VERSIONGUID
  2
{FAEB1C32-E019-11D5-929B-00C0DF256EC4}
  9
$EXTNAMES
290
     1
  9
$PSVPSCALE
 40
0.0
  9
$OLESTARTUP
290
     0
  0
ENDSEC
  0
SECTION
  2
CLASSES
  0
CLASS
  1
ACDBDICTIONARYWDFLT
  2
AcDbDictionaryWithDefault
  3
ObjectDBX Classes
 90
        0
280
     0
281
     0
  0
CLASS
  1
VISUALSTYLE
  2
AcDbVisualStyle
  3
ObjectDBX Classes
 90
     4095
280
     0
281
     0
  0
CLASS
  1
SCALE
  2
AcDbScale
  3
ObjectDBX Classes
 90
     1153
280
     0
281
     0
  0
CLASS
  1
DICTIONARYVAR
  2
AcDbDictionaryVar
  3
ObjectDBX Classes
 90
        0
280
     0
281
     0
  0
CLASS
  1
ACDBPLACEHOLDER
  2
AcDbPlaceHolder
  3
ObjectDBX Classes
 90
        0
280
     0
281
     0
  0
CLASS
  1
LAYOUT
  2
AcDbLayout
  3
ObjectDBX Classes
 90
        0
280
     0
281
     0
  0
ENDSEC
  0
SECTION
  2
TABLES
  0
TABLE
  2
VPORT
  5
8
330
0
100
AcDbSymbolTable
 70
     1
  0
VPORT
  5
29
330
8
100
AcDbSymbolTableRecord
100
AcDbViewportTableRecord
  2
*Active
 70
     0
 10
0.0
 20
0.0
 11
1.0
 21
1.0
 12
344.1869158879
 22
148.5
 13
0.0
 23
0.0
 14
10.0
 24
10.0
 15
10.0
 25
10.0
 16
0.0
 26
0.0
 36
1.0
 17
0.0
 27
0.0
 37
0.0
 40
297.0
 41
1.9729729729
 42
50.0
 43
0.0
 44
0.0
 50
0.0
 51
0.0
 71
     0
 72
   100
 73
     1
 74
     3
 75
     0
 76
     0
 77
     0
 78
     0
281
     0
 65
     1
110
0.0
120
0.0
130
0.0
111
1.0
121
0.0
131
0.0
112
0.0
122
1.0
132
0.0
 79
     0
146
0.0
  0
ENDTAB
  0
TABLE
  2
LTYPE
  5
5
330
0
100
AcDbSymbolTable
 70
     2
  0
LTYPE
  5
14
330
5
100
AcDbSymbolTableRecord
100
AcDbLinetypeTableRecord
  2
ByBlock
 70
     0
  3

 72
    65
 73
     0
 40
0.0
  0
LTYPE
  5
15
330
5
100
AcDbSymbolTableRecord
100
AcDbLinetypeTableRecord
  2
ByLayer
 70
     0
  3

 72
    65
 73
     0
 40
0.0
  0
LTYPE
  5
16
330
5
100
AcDbSymbolTableRecord
100
AcDbLinetypeTableRecord
  2
Continuous
 70
     0
  3
Solid line
 72
    65
 73
     0
 40
0.0
  0
LTYPE
  5
C2
330
5
100
AcDbSymbolTableRecord
100
AcDbLinetypeTableRecord
  2
CENTER2
 70
     0
  3
Center (.5x) ___ _ ___ _ ___ _ ___ _ ___ _ ___
 72
    65
 73
     4
 40
28.575
 49
19.05
 74
     4
 75
     0
340
0
 46
0.0
 50
0.0
 44
0.0
 45
0.0
 49
-3.175
 74
     4
 75
     0
340
0
 46
0.0
 50
0.0
 44
0.0
 45
0.0
 49
3.175
 74
     4
 75
     0
340
0
 46
0.0
 50
0.0
 44
0.0
 45
0.0
 49
-3.175
 74
     4
 75
     0
340
0
 46
0.0
 50
0.0
 44
0.0
 45
0.0
  0
ENDTAB
  0
TABLE
  2
LAYER
  5
2
330
0
100
AcDbSymbolTable
 70
    14
  0
LAYER
  5
10
330
2
100
AcDbSymbolTableRecord
100
AcDbLayerTableRecord
  2
0
 70
     0
 62
     7
  6
Continuous
370
    -3
390
F
  0
LAYER
  5
5D
330
2
100
AcDbSymbolTableRecord
100
AcDbLayerTableRecord
  2
Default
 70
     0
 62
     7
  6
Continuous
370
    -3
390
F
  0
LAYER
  5
60
330
2
100
AcDbSymbolTableRecord
100
AcDbLayerTableRecord
  2
$DDT_AUDIT_GENERATED_(60)
 70
     0
 62
     7
  6
Continuous
370
    -3
390
F
  0
LAYER
  5
7C
330
2
100
AcDbSymbolTableRecord
100
AcDbLayerTableRecord
  2
$DDT_AUDIT_GENERATED_(7C)
 70
     0
 62
     7
  6
Continuous
370
    -3
390
F
  0
LAYER
  5
92
330
2
100
AcDbSymbolTableRecord
100
AcDbLayerTableRecord
  2
$DDT_AUDIT_GENERATED_(92)
 70
     0
 62
     7
  6
Continuous
370
    -3
390
F
  0
LAYER
  5
95
330
2
100
AcDbSymbolTableRecord
100
AcDbLayerTableRecord
  2
02636038_GEHÄUSE
 70
     0
 62
     7
  6
Continuous
370
    -3
390
F
  0
LAYER
  5
A9
330
2
100
AcDbSymbolTableRecord
100
AcDbLayerTableRecord
  2
$DDT_AUDIT_GENERATED_(A9)
 70
     0
 62
     7
  6
Continuous
370
    -3
390
F
  0
LAYER
  5
AE
330
2
100
AcDbSymbolTableRecord
100
AcDbLayerTableRecord
  2
$DDT_AUDIT_GENERATED_(AE)
 70
     0
 62
     7
  6
Continuous
370
    -3
390
F
  0
LAYER
  5
C1
330
2
100
AcDbSymbolTableRecord
100
AcDbLayerTableRecord
  2
DV1_Standard
 70
     0
 62
     7
  6
Continuous
370
    -3
390
F
  0
LAYER
  5
E8
330
2
100
AcDbSymbolTableRecord
100
AcDbLayerTableRecord
  2
$DDT_AUDIT_GENERATED_(E8)
 70
     0
 62
     7
  6
Continuous
370
    -3
390
F
  0
LAYER
  5
116
330
2
100
AcDbSymbolTableRecord
100
AcDbLayerTableRecord
  2
$DDT_AUDIT_GENERATED_(116)
 70
     0
 62
     7
  6
Continuous
370
    -3
390
F
  0
LAYER
  5
11A
330
2
100
AcDbSymbolTableRecord
100
AcDbLayerTableRecord
  2
$DDT_AUDIT_GENERATED_(11A)
 70
     0
 62
     7
  6
Continuous
370
    -3
390
F
  0
LAYER
  5
13F
330
2
100
AcDbSymbolTableRecord
100
AcDbLayerTableRecord
  2
DV2_Standard
 70
     0
 62
     7
  6
Continuous
370
    -3
390
F
  0
LAYER
  5
171
330
2
100
AcDbSymbolTableRecord
100
AcDbLayerTableRecord
  2
DV3_Standard
 70
     0
 62
     7
  6
Continuous
370
    -3
390
F
  0
ENDTAB
  0
TABLE
  2
STYLE
  5
3
330
0
100
AcDbSymbolTable
 70
     2
  0
STYLE
  5
11
330
3
100
AcDbSymbolTableRecord
100
AcDbTextStyleTableRecord
  2
Standard
 70
     0
 40
0.0
 41
1.0
 50
0.0
 71
     0
 42
2.5
  3
txt
  4

  0
STYLE
  5
17A
330
3
100
AcDbSymbolTableRecord
100
AcDbTextStyleTableRecord
  2
SEACAD_seiso_ttf
 70
     0
 40
0.0
 41
1.0
 50
0.0
 71
     0
 42
0.2
  3
seiso.ttf
  4

  0
ENDTAB
  0
TABLE
  2
VIEW
  5
6
330
0
100
AcDbSymbolTable
 70
     0
  0
ENDTAB
  0
TABLE
  2
UCS
  5
7
330
0
100
AcDbSymbolTable
 70
     0
  0
ENDTAB
  0
TABLE
  2
APPID
  5
9
330
0
100
AcDbSymbolTable
 70
     1
  0
APPID
  5
12
330
9
100
AcDbSymbolTableRecord
100
AcDbRegAppTableRecord
  2
ACAD
 70
     0
  0
ENDTAB
  0
TABLE
  2
DIMSTYLE
  5
A
330
0
100
AcDbSymbolTable
 70
     1
100
AcDbDimStyleTable
  0
DIMSTYLE
105
27
330
A
100
AcDbSymbolTableRecord
100
AcDbDimStyleTableRecord
  2
ISO-25
 70
     0
 41
2.5
 42
0.625
 43
3.75
 44
1.25
 73
     0
 74
     0
 77
     1
 78
     8
140
2.5
141
2.5
143
0.0393700787
147
0.625
171
     3
172
     1
271
     2
272
     2
274
     3
278
    44
283
     0
284
     8
340
11
  0
ENDTAB
  0
TABLE
  2
BLOCK_RECORD
  5
1
330
0
100
AcDbSymbolTable
 70
     4
  0
BLOCK_RECORD
  5
1F
330
1
100
AcDbSymbolTableRecord
100
AcDbBlockTableRecord
  2
*Model_Space
340
22
  0
BLOCK_RECORD
  5
1B
330
1
100
AcDbSymbolTableRecord
100
AcDbBlockTableRecord
  2
*Paper_Space
340
1E
  0
BLOCK_RECORD
  5
5E
330
1
100
AcDbSymbolTableRecord
100
AcDbBlockTableRecord
  2
SE
340
0
102
{BLKREFS
331
5F
102
}
  0
BLOCK_RECORD
  5
C7
330
1
100
AcDbSymbolTableRecord
100
AcDbBlockTableRecord
  2
SE1
340
0
102
{BLKREFS
331
C8
102
}
  0
BLOCK_RECORD
  5
145
330
1
100
AcDbSymbolTableRecord
100
AcDbBlockTableRecord
  2
SE2
340
0
102
{BLKREFS
331
146
102
}
  0
ENDTAB
  0
ENDSEC
  0
SECTION
  2
BLOCKS
  0
BLOCK
  5
20
330
1F
100
AcDbEntity
  8
0
100
AcDbBlockBegin
  2
*Model_Space
 70
     0
 10
0.0
 20
0.0
 30
0.0
  3
*Model_Space
  1

  0
ENDBLK
  5
21
330
1F
100
AcDbEntity
  8
0
100
AcDbBlockEnd
  0
BLOCK
  5
1C
330
1B
100
AcDbEntity
 67
     1
  8
0
100
AcDbBlockBegin
  2
*Paper_Space
 70
     0
 10
0.0
 20
0.0
 30
0.0
  3
*Paper_Space
  1

  0
ENDBLK
  5
1D
330
1B
100
AcDbEntity
 67
     1
  8
0
100
AcDbBlockEnd
  0
BLOCK
  5
C5
330
5E
100
AcDbEntity
  8
0
100
AcDbBlockBegin
  2
SE
 70
     0
 10
0.0
 20
0.0
 30
0.0
  3
SE
  1

  0
LINE
  5
61
330
5E
100
AcDbEntity
  8
$DDT_AUDIT_GENERATED_(60)
  6
Continuous
 62
     7
100
AcDbLine
 10
47.9807932073
 20
355.5551140635
 30
0.0
 11
50.4519280628
 21
355.5551140635
 31
0.0
  0
LINE
  5
62
330
5E
100
AcDbEntity
  8
$DDT_AUDIT_GENERATED_(60)
  6
Continuous
 62
     7
100
AcDbLine
 10
12.1506513224
 20
355.5551140635
 30
0.0
 11
12.3126818233
 21
355.5551140635
 31
0.0
  0
LINE
  5
63
330
5E
100
AcDbEntity
  8
$DDT_AUDIT_GENERATED_(60)
  6
Continuous
 62
     7
100
AcDbLine
 10
52.1709465879
 20
355.5551140635
 30
0.0
 11
52.1709465879
 21
456.5274225427
 31
0.0
  0
LINE
  5
64
330
5E
100
AcDbEntity
  8
$DDT_AUDIT_GENERATED_(60)
  6
Continuous
 62
     7
100
AcDbLine
 10
16.3429202819
 20
355.5551140635
 30
0.0
 11
47.9807932073
 21
355.5551140635
 31
0.0
  0
LINE
  5
65
330
5E
100
AcDbEntity
  8
$DDT_AUDIT_GENERATED_(60)
  6
Continuous
 62
     7
100
AcDbLine
 10
52.0177815576
 20
355.5551140635
 30
0.0
 11
52.1709465879
 21
355.5551140635
 31
0.0
  0
LINE
  5
66
330
5E
100
AcDbEntity
  8
$DDT_AUDIT_GENERATED_(60)
  6
Continuous
 62
     7
100
AcDbLine
 10
13.8813382921
 20
355.5551140635
 30
0.0
 11
16.3429202819
 21
355.5551140635
 31
0.0
  0
LINE
  5
67
330
5E
100
AcDbEntity
  8
$DDT_AUDIT_GENERATED_(60)
  6
Continuous
 62
     7
100
AcDbLine
 10
52.0177815576
 20
355.5551140635
 30
0.0
 11
50.4519280628
 21
355.5551140635
 31
0.0
  0
LINE
  5
68
330
5E
100
AcDbEntity
  8
$DDT_AUDIT_GENERATED_(60)
  6
Continuous
 62
     7
100
AcDbLine
 10
13.8813382921
 20
355.5551140635
 30
0.0
 11
12.3126818233
 21
355.5551140635
 31
0.0
  0
ARC
  5
69
330
5E
100
AcDbEntity
  8
$DDT_AUDIT_GENERATED_(60)
  6
Continuous
 62
     7
100
AcDbCircle
 10
32.1617009115
 20
451.6972813083
 30
0.0
 40
36.19115496217821
100
AcDbArc
 50
242.1139598289
 51
252.2971844313
  0
ARC
  5
6A
330
5E
100
AcDbEntity
  8
$DDT_AUDIT_GENERATED_(60)
  6
Continuous
 62
     7
100
AcDbCircle
 10
32.1617009115
 20
451.6972813083
 30
0.0
 40
36.19115496217821
100
AcDbArc
 50
287.7056930985
 51
297.901637415
  0
ELLIPSE
  5
6B
330
5E
100
AcDbEntity
  8
$DDT_AUDIT_GENERATED_(60)
  6
Continuous
 62
     7
100
AcDbEllipse
 10
18.0214537272
 20
424.0876670098
 30
0.0
 11
-4.400929685359985
 21
2.767406839455699
 31
0.0
210
0.0
220
0.0
230
0.9999999999999999
 40
0.9984392225
 41
0.5620480116671883
 42
1.565380886986394
  0
ELLIPSE
  5
6C
330
5E
100
AcDbEntity
  8
$DDT_AUDIT_GENERATED_(60)
  6
Continuous
 62
     7
100
AcDbEllipse
 10
46.3080227533
 20
424.0927558165
 30
0.0
 11
4.395199312529475
 21
2.779896319903553
 31
0.0
210
0.0
220
0.0
230
1.0
 40
0.9984404283
 41
4.715566491772575
 42
5.718516489402836
  0
ARC
  5
6D
330
5E
100
AcDbEntity
  8
$DDT_AUDIT_GENERATED_(60)
  6
Continuous
 62
     7
100
AcDbCircle
 10
32.1793789095
 20
322.188838426
 30
0.0
 40
116.9946837810692
100
AcDbArc
 50
82.0407172383
 51
97.9712282968
  0
ARC
  5
6E
330
5E
100
AcDbEntity
  8
$DDT_AUDIT_GENERATED_(60)
  6
Continuous
 62
     7
100
AcDbCircle
 10
47.7130965426
 20
434.229198512
 30
0.0
 40
3.884874408071542
100
AcDbArc
 50
0.0171881797
 51
80.1219305702
  0
ELLIPSE
  5
6F
330
5E
100
AcDbEntity
  8
$DDT_AUDIT_GENERATED_(60)
  6
Continuous
 62
     7
100
AcDbEllipse
 10
16.6121912822
 20
434.2294479981
 30
0.0
 11
-1.464460428268082
 21
-3.593335559663902
 31
0.0
210
0.0
220
0.0
230
0.9999999999999999
 40
0.9994596951
 41
3.699032840566762
 42
5.099197305400885
  0
LINE
  5
70
330
5E
100
AcDbEntity
  8
$DDT_AUDIT_GENERATED_(60)
  6
Continuous
 62
     7
100
AcDbLine
 10
12.1506513224
 20
456.5274225427
 30
0.0
 11
12.1506513224
 21
355.5551140635
 31
0.0
  0
LINE
  5
71
330
5E
100
AcDbEntity
  8
$DDT_AUDIT_GENERATED_(60)
  6
Continuous
 62
     7
100
AcDbLine
 10
14.7034586978
 20
457.5274225427
 30
0.0
 11
49.6293904216
 21
457.5274225427
 31
0.0
  0
LINE
  5
72
330
5E
100
AcDbEntity
  8
$DDT_AUDIT_GENERATED_(60)
  6
Continuous
 62
     7
100
AcDbLine
 10
49.6293904216
 20
457.5274225427
 30
0.0
 11
51.0184382042
 21
457.5274225427
 31
0.0
  0
LINE
  5
73
330
5E
100
AcDbEntity
  8
$DDT_AUDIT_GENERATED_(60)
  6
Continuous
 62
     7
100
AcDbLine
 10
51.0184382042
 20
457.5274225427
 30
0.0
 11
51.1709339772
 21
457.5274225427
 31
0.0
  0
LINE
  5
74
330
5E
100
AcDbEntity
  8
$DDT_AUDIT_GENERATED_(60)
  6
Continuous
 62
     7
100
AcDbLine
 10
13.3119893282
 20
457.5274225427
 30
0.0
 11
14.7034586978
 21
457.5274225427
 31
0.0
  0
LINE
  5
75
330
5E
100
AcDbEntity
  8
$DDT_AUDIT_GENERATED_(60)
  6
Continuous
 62
     7
100
AcDbLine
 10
13.1470431493
 20
457.5274225427
 30
0.0
 11
13.3119893282
 21
457.5274225427
 31
0.0
  0
ARC
  5
76
330
5E
100
AcDbEntity
  8
$DDT_AUDIT_GENERATED_(60)
  6
Continuous
 62
     7
100
AcDbCircle
 10
51.170947001
 20
456.5274229558
 30
0.0
 40
0.9999995869815459
100
AcDbArc
 50
0.0
 51
90.0007462078
  0
ARC
  5
77
330
5E
100
AcDbEntity
  8
$DDT_AUDIT_GENERATED_(60)
  6
Continuous
 62
     7
100
AcDbCircle
 10
13.1430005534
 20
456.5371488963
 30
0.0
 40
0.9902818979919837
100
AcDbArc
 50
89.7661026345
 51
180.5627568961
  0
LINE
  5
78
330
5E
100
AcDbEntity
  8
$DDT_AUDIT_GENERATED_(60)
  6
Continuous
 62
     7
100
AcDbLine
 10
12.1506513224
 20
456.5274225427
 30
0.0
 11
12.1527663555
 21
456.5274225427
 31
0.0
  0
SPLINE
  5
79
330
5E
100
AcDbEntity
  8
$DDT_AUDIT_GENERATED_(60)
  6
Continuous
 62
     7
100
AcDbSpline
210
0.0
220
0.0
230
1.0
 70
     8
 71
     3
 72
     9
 73
     5
 74
     0
 42
0.0000000006044678
 43
0.0000000001
 40
0.0218986003004138
 40
0.0218986003004138
 40
0.0218986003004138
 40
0.0218986003004138
 40
0.0624817159588224
 40
0.0647866456166405
 40
0.0647866456166405
 40
0.0647866456166405
 40
0.0647866456166405
 10
43.97476660180791
 20
421.8259326044923
 30
0.0
 10
44.25022482912686
 20
422.0202920500059
 30
0.0
 10
44.40426069417099
 20
422.1924442106618
 30
0.0
 10
44.41199215776535
 20
422.3265118664714
 30
0.0
 10
44.41198663634052
 20
422.3336092892269
 30
0.0
  0
SPLINE
  5
7A
330
5E
100
AcDbEntity
  8
$DDT_AUDIT_GENERATED_(60)
  6
Continuous
 62
     7
100
AcDbSpline
210
0.0
220
0.0
230
1.0
 70
     8
 71
     3
 72
     8
 73
     4
 74
     0
 42
0.0000000005820471
 43
0.0000000001
 40
0.5740204667848542
 40
0.5740204667848542
 40
0.5740204667848542
 40
0.5740204667848542
 40
0.6128816727502255
 40
0.6128816727502255
 40
0.6128816727502255
 40
0.6128816727502255
 10
19.9170353070594
 20
422.2929815299245
 30
0.0
 10
19.94408104485018
 20
422.1678634722414
 30
0.0
 10
20.08974864655877
 20
422.0106427066345
 30
0.0
 10
20.35554209188125
 20
421.8230499548101
 30
0.0
  0
ARC
  5
7B
330
5E
100
AcDbEntity
  8
$DDT_AUDIT_GENERATED_(60)
  6
Continuous
 62
     7
100
AcDbCircle
 10
32.1509772508
 20
271.2678755426
 30
0.0
 40
151.5610263952782
100
AcDbArc
 50
85.3598590943
 51
94.6316519031
  0
SPLINE
  5
7D
330
5E
100
AcDbEntity
  8
$DDT_AUDIT_GENERATED_(7C)
  6
Continuous
 62
     7
100
AcDbSpline
210
0.0
220
0.0
230
1.0
 70
     8
 71
     3
 72
    20
 73
    16
 74
     0
 42
0.0000000000584368
 43
0.0000000001
 40
0.4591195322512847
 40
0.4591195322512847
 40
0.4591195322512847
 40
0.4591195322512847
 40
0.4687499999999986
 40
0.4687499999999986
 40
0.4843749999999986
 40
0.4843749999999986
 40
0.4999999999999985
 40
0.4999999999999985
 40
0.5156249999999986
 40
0.5156249999999986
 40
0.5312499999999984
 40
0.5312499999999984
 40
0.5468749999999984
 40
0.5468749999999984
 40
0.55334255032969
 40
0.55334255032969
 40
0.55334255032969
 40
0.55334255032969
 10
23.8109688829343
 20
496.5987747203799
 30
0.0
 10
24.29201112987554
 20
496.6384392708612
 30
0.0
 10
24.79085707966762
 20
496.6746305543066
 30
0.0
 10
26.14604272730833
 20
496.7605470592356
 30
0.0
 10
27.01573540715584
 20
496.8037485233144
 30
0.0
 10
28.81769329265217
 20
496.8712973173282
 30
0.0
 10
29.75831177556805
 20
496.8956521759277
 30
0.0
 10
31.63553683851412
 20
496.9207649289182
 30
0.0
 10
32.57484952962749
 20
496.9212961222252
 30
0.0
 10
34.4548715776406
 20
496.8980075768356
 30
0.0
 10
35.39503891195469
 20
496.8745111220746
 30
0.0
 10
37.19471785415008
 20
496.8088327175101
 30
0.0
 10
38.06328240074325
 20
496.7666186898771
 30
0.0
 10
39.24682149287452
 20
496.6931442407983
 30
0.0
 10
39.58708711324675
 20
496.6699475113457
 30
0.0
 10
39.91975566671694
 20
496.64516784269
 30
0.0
  0
LINE
  5
7E
330
5E
100
AcDbEntity
  8
$DDT_AUDIT_GENERATED_(7C)
  6
Continuous
 62
     7
100
AcDbLine
 10
52.1519875159
 20
484.689206552
 30
0.0
 11
52.1519875159
 21
460.5221882994
 31
0.0
  0
ARC
  5
7F
330
5E
100
AcDbEntity
  8
$DDT_AUDIT_GENERATED_(7C)
  6
Continuous
 62
     7
100
AcDbCircle
 10
14.3589107929
 20
484.6830761199
 30
0.0
 40
2.187193411128073
100
AcDbArc
 50
174.5173455598
 51
179.8394068184
  0
ARC
  5
80
330
5E
100
AcDbEntity
  8
$DDT_AUDIT_GENERATED_(7C)
  6
Continuous
 62
     7
100
AcDbCircle
 10
49.9648026962
 20
484.6830761199
 30
0.0
 40
2.187193411128019
100
AcDbArc
 50
0.1605931816
 51
5.4931306593
  0
LINE
  5
81
330
5E
100
AcDbEntity
  8
$DDT_AUDIT_GENERATED_(7C)
  6
Continuous
 62
     7
100
AcDbLine
 10
51.7726181755
 20
459.0457987651
 30
0.0
 11
51.6744940432
 21
459.0428632309
 31
0.0
  0
ARC
  5
82
330
5E
100
AcDbEntity
  8
$DDT_AUDIT_GENERATED_(7C)
  6
Continuous
 62
     7
100
AcDbCircle
 10
50.1527659671
 20
670.3979480176
 30
0.0
 40
211.3605628340682
100
AcDbArc
 50
270.0057184712
 51
270.4125147493
  0
ARC
  5
83
330
5E
100
AcDbEntity
  8
$DDT_AUDIT_GENERATED_(7C)
  6
Continuous
 62
     7
100
AcDbCircle
 10
32.1619510619
 20
14882.0001586798
 30
0.0
 40
14422.97401939677
100
AcDbArc
 50
269.9284466139
 51
270.0715529745
  0
ARC
  5
84
330
5E
100
AcDbEntity
  8
$DDT_AUDIT_GENERATED_(7C)
  6
Continuous
 62
     7
100
AcDbCircle
 10
13.9733305482
 20
616.2520547222
 30
0.0
 40
157.21476755206
100
AcDbArc
 50
269.517430109
 51
270.0643631156
  0
LINE
  5
85
330
5E
100
AcDbEntity
  8
$DDT_AUDIT_GENERATED_(7C)
  6
Continuous
 62
     7
100
AcDbLine
 10
12.6492152832
 20
459.0428633394
 30
0.0
 11
12.5510954359
 21
459.0457987651
 31
0.0
  0
SPLINE
  5
86
330
5E
100
AcDbEntity
  8
$DDT_AUDIT_GENERATED_(7C)
  6
Continuous
 62
     7
100
AcDbSpline
210
0.0
220
0.0
230
1.0
 70
     8
 71
     3
 72
    72
 73
    68
 74
     0
 42
0.0000000001113117
 43
0.0000000001
 40
0.0
 40
0.0
 40
0.0
 40
0.0
 40
0.0310954843748286
 40
0.0557715719502362
 40
0.072355181709505
 40
0.0830617093599587
 40
0.0886300784929734
 40
0.0926977587415759
 40
0.0962325455770677
 40
0.0994892542144167
 40
0.1052456683065773
 40
0.1127225484191915
 40
0.1180070856710356
 40
0.1265814229193554
 40
0.1404920143899706
 40
0.1476031190686566
 40
0.154495864590154
 40
0.1605795548004885
 40
0.1658409632991573
 40
0.1761648811223517
 40
0.2058902941432232
 40
0.2421439422261654
 40
0.2971869490113573
 40
0.3493343052837801
 40
0.3763923698419434
 40
0.3924658539475821
 40
0.4042420130204846
 40
0.4139170020008733
 40
0.4316196310066959
 40
0.4420623653794082
 40
0.4531614146591844
 40
0.4630902192541144
 40
0.4753341575504177
 40
0.4875372215295714
 40
0.5086119759997699
 40
0.5224376471080733
 40
0.536704975537852
 40
0.5487680959768034
 40
0.5613449764611386
 40
0.5778214186054943
 40
0.5939627713180251
 40
0.6032999901511106
 40
0.6152772832735616
 40
0.6344728665342025
 40
0.647378229511073
 40
0.6765180954445159
 40
0.7045264776878671
 40
0.7385784596004337
 40
0.7728829995759091
 40
0.8008763269087492
 40
0.8286238229851673
 40
0.8428983327004645
 40
0.854584683722801
 40
0.8606956165157029
 40
0.8667489711301273
 40
0.8760032512240128
 40
0.883716412534796
 40
0.8904180833088916
 40
0.8964853458897108
 40
0.901360989081323
 40
0.9060436396939262
 40
0.9115944757386345
 40
0.9177379876771752
 40
0.9387578976483728
 40
0.9557220810876489
 40
0.9769188196745037
 40
1.0
 40
1.0
 40
1.0
 40
1.0
 10
50.42344430979895
 20
459.3367332154981
 30
0.0
 10
50.42817677122022
 20
461.3148472007414
 30
0.0
 10
50.4366638490192
 20
464.8627104592923
 30
0.0
 10
50.44713447373741
 20
469.4658931013547
 30
0.0
 10
50.45391636107974
 20
472.7710459687329
 30
0.0
 10
50.45993318170483
 20
474.8623068349801
 30
0.0
 10
50.43550422915435
 20
476.1495071725099
 30
0.0
 10
50.38576064256589
 20
476.9559460699992
 30
0.0
 10
50.31529811054875
 20
477.5857163350354
 30
0.0
 10
50.19741757912596
 20
478.2583640537326
 30
0.0
 10
49.97340961196022
 20
479.0261002572697
 30
0.0
 10
49.67864703799897
 20
479.7853290822463
 30
0.0
 10
49.25464576929353
 20
480.5542304409749
 30
0.0
 10
48.66787352167187
 20
481.4529076513767
 30
0.0
 10
48.06716020591747
 20
482.2489162436805
 30
0.0
 10
47.5885702325962
 20
482.7298510163999
 30
0.0
 10
47.46723277329057
 20
482.9677067270653
 30
0.0
 10
47.42953642262782
 20
483.1783187235761
 30
0.0
 10
47.36074137084159
 20
483.4404824552713
 30
0.0
 10
47.19091585116628
 20
483.9734627800268
 30
0.0
 10
46.92300780054693
 20
484.7110462401415
 30
0.0
 10
46.56791899846102
 20
485.8461461186309
 30
0.0
 10
46.18169933038644
 20
487.1615878179987
 30
0.0
 10
46.03760629607278
 20
488.2356328017102
 30
0.0
 10
45.95103834958962
 20
488.9399405705056
 30
0.0
 10
45.77113255668186
 20
489.3385137456024
 30
0.0
 10
45.45296658482926
 20
489.6167293168633
 30
0.0
 10
44.86353049933561
 20
489.9099908953551
 30
0.0
 10
43.70004670221928
 20
490.1824893054606
 30
0.0
 10
42.04376897692266
 20
490.4187423665256
 30
0.0
 10
40.5416925449941
 20
490.5857540399099
 30
0.0
 10
38.80382260505296
 20
490.7394648333035
 30
0.0
 10
36.82030044680911
 20
490.8654830168543
 30
0.0
 10
33.99997955428123
 20
490.9810474731724
 30
0.0
 10
30.96244722333799
 20
490.9962245093569
 30
0.0
 10
27.8789741571042
 20
490.8870256557138
 30
0.0
 10
25.53821762228983
 20
490.7433787114737
 30
0.0
 10
23.51414753291725
 20
490.5616781313279
 30
0.0
 10
21.60848811339737
 20
490.3363254880764
 30
0.0
 10
19.87263435658215
 20
490.0398904448539
 30
0.0
 10
19.0246961588091
 20
489.7226425174495
 30
0.0
 10
18.6638470081152
 20
489.4447958959176
 30
0.0
 10
18.44539565032857
 20
489.1478599413457
 30
0.0
 10
18.36476813676295
 20
488.8275535310765
 30
0.0
 10
18.29907272298065
 20
488.3705623228967
 30
0.0
 10
18.24251977609701
 20
487.8237258096418
 30
0.0
 10
18.09042470715654
 20
487.0686837372454
 30
0.0
 10
17.86164210834442
 20
486.2085854775941
 30
0.0
 10
17.59613712702684
 20
485.3043665508932
 30
0.0
 10
17.31638247948732
 20
484.4621181482313
 30
0.0
 10
17.0409640077863
 20
483.7536369274142
 30
0.0
 10
16.88928833329511
 20
483.0891350009759
 30
0.0
 10
16.75212164595282
 20
482.7349275642507
 30
0.0
 10
16.30156407877384
 20
482.2842817942241
 30
0.0
 10
15.88082136472958
 20
481.7649933584105
 30
0.0
 10
15.41312845574527
 20
481.0897626863543
 30
0.0
 10
14.9121059255725
 20
480.2979743442477
 30
0.0
 10
14.53596592827296
 20
479.5219037177114
 30
0.0
 10
14.26876243198324
 20
478.767872985185
 30
0.0
 10
14.07115443150141
 20
478.0127529929238
 30
0.0
 10
13.9502333241712
 20
477.1667049908282
 30
0.0
 10
13.88541375809654
 20
476.1664869421408
 30
0.0
 10
13.87147921892151
 20
474.0921935383607
 30
0.0
 10
13.87971206621207
 20
471.2817977360873
 30
0.0
 10
13.88358199376069
 20
467.517978691039
 30
0.0
 10
13.89078785939998
 20
463.6217479667303
 30
0.0
 10
13.89708051458711
 20
460.8050475137987
 30
0.0
 10
13.90035988680469
 20
459.3367587421031
 30
0.0
  0
LINE
  5
87
330
5E
100
AcDbEntity
  8
$DDT_AUDIT_GENERATED_(7C)
  6
Continuous
 62
     7
100
AcDbLine
 10
12.1717259732
 20
460.5221882994
 30
0.0
 11
12.1717259732
 21
484.689206552
 31
0.0
  0
ARC
  5
88
330
5E
100
AcDbEntity
  8
$DDT_AUDIT_GENERATED_(7C)
  6
Continuous
 62
     7
100
AcDbCircle
 10
34.6353459527
 20
460.600360335
 30
0.0
 40
17.51681434986703
100
AcDbArc
 50
357.4594807524
 51
359.7453566976
  0
ARC
  5
89
330
5E
100
AcDbEntity
  8
$DDT_AUDIT_GENERATED_(7C)
  6
Continuous
 62
     7
100
AcDbCircle
 10
30.7178926272
 20
460.6254807321
 30
0.0
 40
18.54645229568692
100
AcDbArc
 50
180.3181119341
 51
182.4770681249
  0
SPLINE
  5
8A
330
5E
100
AcDbEntity
  8
$DDT_AUDIT_GENERATED_(7C)
  6
Continuous
 62
     7
100
AcDbSpline
210
0.0
220
0.0
230
1.0
 70
     8
 71
     3
 72
    10
 73
     6
 74
     0
 42
0.0000000202289667
 43
0.0000000001
 40
0.0
 40
0.0
 40
0.0
 40
0.0
 40
0.5
 40
0.5
 40
1.0
 40
1.0
 40
1.0
 40
1.0
 10
12.18877014314002
 20
459.8239118160416
 30
0.0
 10
12.19573434313991
 20
459.666667335885
 30
0.0
 10
12.2048450164162
 20
459.548596235018
 30
0.0
 10
12.22608184537047
 20
459.3881284601018
 30
0.0
 10
12.23830820256536
 20
459.346212793466
 30
0.0
 10
12.25129172506279
 20
459.3457856322318
 30
0.0
  0
ELLIPSE
  5
8B
330
5E
100
AcDbEntity
  8
$DDT_AUDIT_GENERATED_(7C)
  6
Continuous
 62
     7
100
AcDbEllipse
 10
51.7726181755
 20
459.3457985524
 30
0.0
 11
-0.009864713910814201
 21
0.2998377685006354
 31
0.0
210
0.0
220
0.0
230
1.0
 40
0.999344991
 41
3.108682804615807
 42
4.67947913141065
  0
ELLIPSE
  5
8C
330
5E
100
AcDbEntity
  8
$DDT_AUDIT_GENERATED_(7C)
  6
Continuous
 62
     7
100
AcDbEllipse
 10
12.5510954359
 20
459.3457985524
 30
0.0
 11
0.009864739781064585
 21
0.2998377676495106
 31
0.0
210
0.0
220
0.0
230
1.0
 40
0.9993449944
 41
1.603706261993383
 42
3.174502588786035
  0
SPLINE
  5
8D
330
5E
100
AcDbEntity
  8
$DDT_AUDIT_GENERATED_(7C)
  6
Continuous
 62
     7
100
AcDbSpline
210
0.0
220
0.0
230
1.0
 70
    11
 71
     3
 72
    22
 73
    18
 74
     0
 42
0.0000000004618132
 43
0.0000000001
 40
0.0
 40
0.0
 40
0.0
 40
0.0
 40
0.125
 40
0.125
 40
0.25
 40
0.25
 40
0.375
 40
0.375
 40
0.5
 40
0.5
 40
0.625
 40
0.625
 40
0.75
 40
0.75
 40
0.875
 40
0.875
 40
1.0
 40
1.0
 40
1.0
 40
1.0
 10
32.16861287340691
 20
477.7186084356061
 30
0.0
 10
31.27898239703564
 20
477.7203283186549
 30
0.0
 10
30.41073350384715
 20
477.3408421538208
 30
0.0
 10
29.21633309244718
 20
476.0673442587363
 30
0.0
 10
28.89748274069321
 20
475.1790088530174
 30
0.0
 10
28.92729092840913
 20
473.4141555717541
 30
0.0
 10
29.25254615450543
 20
472.5476289516665
 30
0.0
 10
30.42154136552285
 20
471.2154635752877
 30
0.0
 10
31.26602412737171
 20
470.786441949829
 30
0.0
 10
33.02865198305449
 20
470.7775100196103
 30
0.0
 10
33.88481855231183
 20
471.2041365477101
 30
0.0
 10
35.05933346764134
 20
472.5259025480599
 30
0.0
 10
35.39196347001388
 20
473.3956055437868
 30
0.0
 10
35.43002551201554
 20
475.1629830356935
 30
0.0
 10
35.11801297046679
 20
476.0487759731652
 30
0.0
 10
33.92738512674109
 20
477.3331941275209
 30
0.0
 10
33.05824334977819
 20
477.7168885525574
 30
0.0
 10
32.16861287340691
 20
477.7186084356061
 30
0.0
  0
SPLINE
  5
8E
330
5E
100
AcDbEntity
  8
$DDT_AUDIT_GENERATED_(7C)
  6
Continuous
 62
     7
100
AcDbSpline
210
0.0
220
0.0
230
1.0
 70
     8
 71
     3
 72
    56
 73
    52
 74
     0
 42
0.0000000005295916
 43
0.0000000001
 40
0.0
 40
0.0
 40
0.0
 40
0.0
 40
0.0077743586611491
 40
0.0176558254088524
 40
0.027882582050321
 40
0.0384744687239718
 40
0.0489796902253859
 40
0.0593134372371075
 40
0.0695273035287685
 40
0.0794098797378517
 40
0.0890163656271782
 40
0.0986411584683712
 40
0.1084395020054355
 40
0.1186790451453924
 40
0.1285993139586145
 40
0.1395941329535656
 40
0.150189168934822
 40
0.1584853934859421
 40
0.1666573137029785
 40
0.1780153923769967
 40
0.1888710914373978
 40
0.1993496097721202
 40
0.2094104006585925
 40
0.2178904377895978
 40
0.226744091574921
 40
0.2350778200613132
 40
0.2430561705777702
 40
0.2510538323382523
 40
0.2756359509100034
 40
0.300676499974885
 40
0.326510823462037
 40
0.352986278407088
 40
0.3799095949549909
 40
0.4071706128364028
 40
0.4269027882868417
 40
0.4461357365996831
 40
0.5067596042692911
 40
0.5692707600333978
 40
0.6359303320253976
 40
0.7036286512155566
 40
0.7718046747590535
 40
0.8495199645892746
 40
0.8909441740388749
 40
0.9100560318745564
 40
0.9220179156417346
 40
0.9333611202798818
 40
0.9442155110975653
 40
0.962644700188124
 40
0.9802360388998528
 40
0.998949750473007
 40
1.0
 40
1.0
 40
1.0
 40
1.0
 10
23.79395887064572
 20
496.5970770552036
 30
0.0
 10
23.60201994530917
 20
496.581097697766
 30
0.0
 10
23.23406619950726
 20
496.5502508500356
 30
0.0
 10
22.61840228670665
 20
496.4914703113861
 30
0.0
 10
21.97799524576499
 20
496.4237718944184
 30
0.0
 10
21.34183369367439
 20
496.3488658199565
 30
0.0
 10
20.72974306850243
 20
496.2685159258887
 30
0.0
 10
20.15131190547294
 20
496.1839901015613
 30
0.0
 10
19.61068711988802
 20
496.096109816742
 30
0.0
 10
19.11221452669689
 20
496.0053453537398
 30
0.0
 10
18.65326327609156
 20
495.9115138736835
 30
0.0
 10
18.22578717912495
 20
495.8126830358665
 30
0.0
 10
17.81771705168297
 20
495.7045420218669
 30
0.0
 10
17.43695242380622
 20
495.5863778198828
 30
0.0
 10
17.07052984543465
 20
495.4522491353515
 30
0.0
 10
16.72529651082193
 20
495.3019760976109
 30
0.0
 10
16.40703573117347
 20
495.133058227266
 30
0.0
 10
16.15028607345756
 20
494.9699256168309
 30
0.0
 10
15.9018666532138
 20
494.7888920954846
 30
0.0
 10
15.64537190624167
 20
494.566122353984
 30
0.0
 10
15.39806516744639
 20
494.3004660943631
 30
0.0
 10
15.19466309331949
 20
494.0300933096319
 30
0.0
 10
15.04217225628399
 20
493.7801559000338
 30
0.0
 10
14.92900627724732
 20
493.5573192062585
 30
0.0
 10
14.8484469818458
 20
493.3713780013335
 30
0.0
 10
14.78921328984576
 20
493.2153449016545
 30
0.0
 10
14.75225861188897
 20
493.1108600906477
 30
0.0
 10
14.68433608668284
 20
492.9102940840693
 30
0.0
 10
14.60692145205306
 20
492.6480512069024
 30
0.0
 10
14.5252022397698
 20
492.3242785247478
 30
0.0
 10
14.45843436518178
 20
492.0233903220861
 30
0.0
 10
14.40112895536453
 20
491.7481825345219
 30
0.0
 10
14.34816633174556
 20
491.4985321177734
 30
0.0
 10
14.30559446911152
 20
491.3144685877714
 30
0.0
 10
14.25802013904746
 20
491.1347824098292
 30
0.0
 10
14.17597298517191
 20
490.8374746799578
 30
0.0
 10
14.04687629081174
 20
490.4107702317184
 30
0.0
 10
13.84683894456461
 20
489.8132149794072
 30
0.0
 10
13.61924619285332
 20
489.1878956132603
 30
0.0
 10
13.35805705685097
 20
488.513514957863
 30
0.0
 10
13.06739691273033
 20
487.7767374087838
 30
0.0
 10
12.80800913146104
 20
487.1054782971025
 30
0.0
 10
12.62346329852111
 20
486.5994853035888
 30
0.0
 10
12.52785026336244
 20
486.3254655507118
 30
0.0
 10
12.47573067641255
 20
486.1724413388378
 30
0.0
 10
12.42604134835897
 20
486.0231894972638
 30
0.0
 10
12.36545663587943
 20
485.826570891873
 30
0.0
 10
12.29850532325303
 20
485.5814584462872
 30
0.0
 10
12.23238049015839
 20
485.2673500401087
 30
0.0
 10
12.19505964845726
 20
485.0249711791619
 30
0.0
 10
12.18550643435962
 20
484.8994764550267
 30
0.0
 10
12.1849191449488
 20
484.8917320261222
 30
0.0
  0
SPLINE
  5
8F
330
5E
100
AcDbEntity
  8
$DDT_AUDIT_GENERATED_(7C)
  6
Continuous
 62
     7
100
AcDbSpline
210
0.0
220
0.0
230
1.0
 70
     8
 71
     3
 72
    57
 73
    53
 74
     0
 42
0.0000000005133745
 43
0.0000000001
 40
0.0
 40
0.0
 40
0.0
 40
0.0
 40
0.0093084602850583
 40
0.0271816363133709
 40
0.0456271047300175
 40
0.0648764658680653
 40
0.0728128551616601
 40
0.0807306808205125
 40
0.0885799704501793
 40
0.1577370357660655
 40
0.2313842639343206
 40
0.3020455230472447
 40
0.3640722478429311
 40
0.4306750421832575
 40
0.4994136735801607
 40
0.5571558001465935
 40
0.5781158583966102
 40
0.5925512405761731
 40
0.6065450388274372
 40
0.6349140381148429
 40
0.662872680554386
 40
0.6904664486787596
 40
0.717594964099647
 40
0.7440242228517722
 40
0.7532585571754471
 40
0.7608201760308801
 40
0.7688771057802061
 40
0.7772173009784245
 40
0.7859843798315727
 40
0.7952893473142664
 40
0.8051493213462603
 40
0.8154314915141655
 40
0.825970943671172
 40
0.8367948656886314
 40
0.8437020211995632
 40
0.8506409877547049
 40
0.8617361843886404
 40
0.873153909087143
 40
0.8822167474643317
 40
0.8912666365370704
 40
0.9006594649120138
 40
0.9104156529367792
 40
0.9198910180158033
 40
0.9292278867193638
 40
0.9388408079862591
 40
0.9492168628820332
 40
0.9594622429943392
 40
0.969583698504218
 40
0.97958843691441
 40
0.9894819242354915
 40
0.9992691209138588
 40
1.0
 40
1.0
 40
1.0
 40
1.0
 10
52.13548169537275
 20
484.8918352811763
 30
0.0
 10
52.12975171176877
 20
484.9599426108977
 30
0.0
 10
52.11528515068434
 20
485.1283861290181
 30
0.0
 10
52.06304560256332
 20
485.4112369639484
 30
0.0
 10
51.98931076759595
 20
485.7205158674539
 30
0.0
 10
51.92234604866032
 20
485.9462817932675
 30
0.0
 10
51.86634400272914
 20
486.1177387919217
 30
0.0
 10
51.8376076078992
 20
486.2028103977023
 30
0.0
 10
51.72661465789716
 20
486.5289345383836
 30
0.0
 10
51.52412416019868
 20
487.085329835815
 30
0.0
 10
51.22571516254779
 20
487.8548826325912
 30
0.0
 10
50.94325581592909
 20
488.5703682293488
 30
0.0
 10
50.6861013682052
 20
489.2369291879268
 30
0.0
 10
50.45733793754745
 20
489.8683057997289
 30
0.0
 10
50.25379610498594
 20
490.4826181655658
 30
0.0
 10
50.12453936027467
 20
490.9178629520987
 30
0.0
 10
50.04605071419039
 20
491.2080430163069
 30
0.0
 10
50.01680612767593
 20
491.3233506751711
 30
0.0
 10
49.98065651882285
 20
491.4770707298365
 30
0.0
 10
49.93529332107845
 20
491.6867900537516
 30
0.0
 10
49.87532097729716
 20
491.9741254570208
 30
0.0
 10
49.80485069404064
 20
492.2935981800633
 30
0.0
 10
49.72084392417012
 20
492.6330040476089
 30
0.0
 10
49.6301976404264
 20
492.937272964419
 30
0.0
 10
49.56769761877037
 20
493.1223738981835
 30
0.0
 10
49.52000525327264
 20
493.2568907696427
 30
0.0
 10
49.45692182192534
 20
493.4177655650774
 30
0.0
 10
49.36952042598224
 20
493.6117390363191
 30
0.0
 10
49.25127408895945
 20
493.8341240171802
 30
0.0
 10
49.09542225378763
 20
494.0779497406081
 30
0.0
 10
48.89826540026419
 20
494.3313998858807
 30
0.0
 10
48.66341142334122
 20
494.5789224637242
 30
0.0
 10
48.39407009198472
 20
494.811149534053
 30
0.0
 10
48.14697769342033
 20
494.9885752526709
 30
0.0
 10
47.89701345568709
 20
495.1422802039227
 30
0.0
 10
47.63559124226452
 20
495.2826018970691
 30
0.0
 10
47.31053077362836
 20
495.4304619046569
 30
0.0
 10
46.93755573522747
 20
495.5694816397628
 30
0.0
 10
46.56297988116411
 20
495.6875504875426
 30
0.0
 10
46.18487389083472
 20
495.7905539821098
 30
0.0
 10
45.77374363254238
 20
495.888481483397
 30
0.0
 10
45.32639254858748
 20
495.9826742434421
 30
0.0
 10
44.85056273497783
 20
496.0719337798565
 30
0.0
 10
44.34808420108997
 20
496.1562726251361
 30
0.0
 10
43.80871277510828
 20
496.2381736392674
 30
0.0
 10
43.22757946172958
 20
496.3177714755246
 30
0.0
 10
42.61138375849789
 20
496.3936218074722
 30
0.0
 10
41.9789358981331
 20
496.4635854145218
 30
0.0
 10
41.32927017874571
 20
496.5282617349903
 30
0.0
 10
40.6714921893863
 20
496.586453474752
 30
0.0
 10
40.18931918966543
 20
496.6260367142658
 30
0.0
 10
39.95357110362016
 20
496.6426760428972
 30
0.0
 10
39.9345400487837
 20
496.6440183443021
 30
0.0
  0
SPLINE
  5
90
330
5E
100
AcDbEntity
  8
$DDT_AUDIT_GENERATED_(7C)
  6
Continuous
 62
     7
100
AcDbSpline
210
0.0
220
0.0
230
1.0
 70
     8
 71
     3
 72
    11
 73
     7
 74
     0
 42
0.0000000166168067
 43
0.0000000001
 40
0.1958156524348841
 40
0.1958156524348841
 40
0.1958156524348841
 40
0.1958156524348841
 40
0.2171704314125883
 40
0.2858977045378562
 40
0.3877604677362086
 40
0.4741737496735055
 40
0.4741737496735055
 40
0.4741737496735055
 40
0.4741737496735055
 10
52.05429537000953
 20
459.2420706031007
 30
0.0
 10
52.05687811671353
 20
459.2476985934213
 30
0.0
 10
52.06645736908749
 20
459.2702279134001
 30
0.0
 10
52.07913069490552
 20
459.30948139057
 30
0.0
 10
52.08915997979872
 20
459.3538941636805
 30
0.0
 10
52.09493954382693
 20
459.3873716898252
 30
0.0
 10
52.09736964270314
 20
459.4032770566135
 30
0.0
  0
SPLINE
  5
91
330
5E
100
AcDbEntity
  8
$DDT_AUDIT_GENERATED_(7C)
  6
Continuous
 62
     7
100
AcDbSpline
210
0.0
220
0.0
230
1.0
 70
     8
 71
     3
 72
    11
 73
     7
 74
     0
 42
0.0000000169938008
 43
0.0000000001
 40
0.4077109608944022
 40
0.4077109608944022
 40
0.4077109608944022
 40
0.4077109608944022
 40
0.4653663061841017
 40
0.6824922382709255
 40
0.7602009987040486
 40
0.8076995152495478
 40
0.8076995152495478
 40
0.8076995152495478
 40
0.8076995152495478
 10
12.21848270989121
 20
459.4632480699117
 30
0.0
 10
12.21981858500815
 20
459.4517266182647
 30
0.0
 10
12.22632923832179
 20
459.3986868888596
 30
0.0
 10
12.23562303697371
 20
459.3418191772748
 30
0.0
 10
12.25436779057516
 20
459.2778458747966
 30
0.0
 10
12.26631792410529
 20
459.2482655921723
 30
0.0
 10
12.27250178102644
 20
459.2355398120833
 30
0.0
  0
ARC
  5
93
330
5E
100
AcDbEntity
  8
$DDT_AUDIT_GENERATED_(92)
  6
Continuous
 62
     7
100
AcDbCircle
 10
32.1618567446
 20
449.1274225427
 30
0.0
 40
20.0
100
AcDbArc
 50
150.2869950906
 51
155.1654125103
  0
ARC
  5
94
330
5E
100
AcDbEntity
  8
$DDT_AUDIT_GENERATED_(92)
  6
Continuous
 62
     7
100
AcDbCircle
 10
32.1618567446
 20
449.1274225427
 30
0.0
 40
20.0
100
AcDbArc
 50
24.8345874897
 51
29.7297073381
  0
ELLIPSE
  5
96
330
5E
100
AcDbEntity
  8
02636038_GEHÄUSE
  6
Continuous
 62
     7
100
AcDbEllipse
 10
32.1618567446
 20
416.3056141646
 30
0.0
 11
10.75000000000001
 21
0.0
 31
0.0
210
0.0
220
0.0
230
1.0
 40
0.3420201433
 41
5.422585385548452
 42
6.283185307179586
  0
ELLIPSE
  5
97
330
5E
100
AcDbEntity
  8
02636038_GEHÄUSE
  6
Continuous
 62
     7
100
AcDbEllipse
 10
32.1618567446
 20
416.3056141646
 30
0.0
 11
10.75000000000001
 21
0.0
 31
0.0
210
0.0
220
0.0
230
1.0
 40
0.3420201433
 41
0.0
 42
4.16376310210254
  0
LINE
  5
98
330
5E
100
AcDbEntity
  8
02636038_GEHÄUSE
  6
Continuous
 62
     7
100
AcDbLine
 10
21.1618567446
 20
417.4886429221
 30
0.0
 11
21.1618567446
 21
415.7193703735
 31
0.0
  0
ELLIPSE
  5
99
330
5E
100
AcDbEntity
  8
02636038_GEHÄUSE
  6
Continuous
 62
     7
100
AcDbEllipse
 10
32.1618567446
 20
419.124692027
 30
0.0
 11
11.79999999999995
 21
9.714451465470120E-14
 31
0.0
210
0.0
220
0.0
230
1.0
 40
0.3420201433
 41
2.771250021498076
 42
3.511935285681511
  0
LINE
  5
9A
330
5E
100
AcDbEntity
  8
02636038_GEHÄUSE
  6
Continuous
 62
     7
100
AcDbLine
 10
21.1618567446
 20
420.5854023606
 30
0.0
 11
21.1618567446
 21
418.8785146628
 31
0.0
  0
LINE
  5
9B
330
5E
100
AcDbEntity
  8
02636038_GEHÄUSE
  6
Continuous
 62
     7
100
AcDbLine
 10
21.1618567446
 20
418.8785146628
 30
0.0
 11
21.1618567446
 21
417.4886429221
 31
0.0
  0
LINE
  5
9C
330
5E
100
AcDbEntity
  8
02636038_GEHÄUSE
  6
Continuous
 62
     7
100
AcDbLine
 10
21.1618567446
 20
415.5913877074
 30
0.0
 11
21.1618567446
 21
415.7193703735
 31
0.0
  0
LINE
  5
9D
330
5E
100
AcDbEntity
  8
02636038_GEHÄUSE
  6
Continuous
 62
     7
100
AcDbLine
 10
43.1618567446
 20
415.7193703735
 30
0.0
 11
43.1618567446
 21
417.4886429221
 31
0.0
  0
ELLIPSE
  5
9E
330
5E
100
AcDbEntity
  8
02636038_GEHÄUSE
  6
Continuous
 62
     7
100
AcDbEllipse
 10
32.1618567446
 20
419.124692027
 30
0.0
 11
-11.79999999999992
 21
-5.551115123125783E-14
 31
0.0
210
0.0
220
0.0
230
1.0
 40
0.3420201433
 41
2.771250021498079
 42
3.511935285681509
  0
LINE
  5
9F
330
5E
100
AcDbEntity
  8
02636038_GEHÄUSE
  6
Continuous
 62
     7
100
AcDbLine
 10
43.1618567446
 20
415.7193703735
 30
0.0
 11
43.1618567446
 21
415.5914085374
 31
0.0
  0
LINE
  5
A0
330
5E
100
AcDbEntity
  8
02636038_GEHÄUSE
  6
Continuous
 62
     7
100
AcDbLine
 10
43.1618567446
 20
417.4886429221
 30
0.0
 11
43.1618567446
 21
418.8785146628
 31
0.0
  0
LINE
  5
A1
330
5E
100
AcDbEntity
  8
02636038_GEHÄUSE
  6
Continuous
 62
     7
100
AcDbLine
 10
43.1618567446
 20
418.8785146628
 30
0.0
 11
43.1618567446
 21
420.5854023606
 31
0.0
  0
LINE
  5
A2
330
5E
100
AcDbEntity
  8
02636038_GEHÄUSE
  6
Continuous
 62
     7
100
AcDbLine
 10
23.3901375369
 20
414.1675615829
 30
0.0
 11
23.8170796222
 21
413.9877571338
 31
0.0
  0
LINE
  5
A3
330
5E
100
AcDbEntity
  8
02636038_GEHÄUSE
  6
Continuous
 62
     7
100
AcDbLine
 10
40.5066338669
 20
413.9877571338
 30
0.0
 11
40.9335759523
 21
414.1675615829
 31
0.0
  0
ARC
  5
A4
330
5E
100
AcDbEntity
  8
02636038_GEHÄUSE
  6
Continuous
 62
     7
100
AcDbCircle
 10
38.8837961445
 20
419.8705889348
 30
0.0
 40
6.046103932907029
100
AcDbArc
 50
292.8076396426
 51
296.1948283352
  0
ARC
  5
A5
330
5E
100
AcDbEntity
  8
02636038_GEHÄUSE
  6
Continuous
 62
     7
100
AcDbCircle
 10
38.8837961445
 20
419.8705889348
 30
0.0
 40
6.046103932907029
100
AcDbArc
 50
296.4580218657
 51
315.0486433563
  0
ARC
  5
A6
330
5E
100
AcDbEntity
  8
02636038_GEHÄUSE
  6
Continuous
 62
     7
100
AcDbCircle
 10
25.7239392049
 20
420.2554245796
 30
0.0
 40
6.520892557610612
100
AcDbArc
 50
225.6388354557
 51
249.6619157964
  0
LINE
  5
A7
330
5E
100
AcDbEntity
  8
02636038_GEHÄUSE
  6
Continuous
 62
     7
100
AcDbLine
 10
20.3618567446
 20
422.5014668223
 30
0.0
 11
20.3618567446
 21
419.124692027
 31
0.0
  0
LINE
  5
A8
330
5E
100
AcDbEntity
  8
02636038_GEHÄUSE
  6
Continuous
 62
     7
100
AcDbLine
 10
43.9618567446
 20
419.124692027
 30
0.0
 11
43.9618567446
 21
422.5002240966
 31
0.0
  0
ELLIPSE
  5
AA
330
5E
100
AcDbEntity
  8
$DDT_AUDIT_GENERATED_(A9)
  6
Continuous
 62
     7
100
AcDbEllipse
 10
32.1618567446
 20
415.9767217474
 30
0.0
 11
-8.316286731468558
 21
0.0
 31
0.0
210
0.0
220
0.0
230
1.0
 40
0.3420201433
 41
3.018739174107466
 42
3.686543475749245
  0
ELLIPSE
  5
AB
330
5E
100
AcDbEntity
  8
$DDT_AUDIT_GENERATED_(A9)
  6
Continuous
 62
     7
100
AcDbEllipse
 10
31.91021419
 20
416.0615160398
 30
0.0
 11
-8.20627371596559
 21
0.8109850175264525
 31
0.0
210
0.0
220
0.0
230
1.0
 40
0.5220475641
 41
0.3678714152318767
 42
3.65305419799013
  0
ELLIPSE
  5
AC
330
5E
100
AcDbEntity
  8
$DDT_AUDIT_GENERATED_(A9)
  6
Continuous
 62
     7
100
AcDbEllipse
 10
32.1618567446
 20
415.9767217474
 30
0.0
 11
8.31628673146856
 21
0.0
 31
0.0
210
0.0
220
0.0
230
1.0
 40
0.3420201433
 41
0.5449508221594522
 42
3.389944904342264
  0
ARC
  5
AD
330
5E
100
AcDbEntity
  8
$DDT_AUDIT_GENERATED_(A9)
  6
Continuous
 62
     7
100
AcDbCircle
 10
32.1618567446
 20
418.6078610856
 30
0.0
 40
8.774999999999999
100
AcDbArc
 50
330.725563861
 51
340.149522906
  0
LINE
  5
AF
330
5E
100
AcDbEntity
  8
$DDT_AUDIT_GENERATED_(AE)
  6
Continuous
 62
     7
100
AcDbLine
 10
9.6470326574
 20
353.0551138695
 30
0.0
 11
9.6470326574
 21
353.1551138322
 31
0.0
  0
LINE
  5
B0
330
5E
100
AcDbEntity
  8
$DDT_AUDIT_GENERATED_(AE)
  6
Continuous
 62
     7
100
AcDbLine
 10
13.8257734735
 20
355.5551138322
 30
0.0
 11
50.5073651682
 21
355.5551138322
 31
0.0
  0
LINE
  5
B1
330
5E
100
AcDbEntity
  8
$DDT_AUDIT_GENERATED_(AE)
  6
Continuous
 62
     7
100
AcDbLine
 10
50.5073651682
 20
355.5551138322
 30
0.0
 11
52.1204493223
 21
355.5551138322
 31
0.0
  0
LINE
  5
B2
330
5E
100
AcDbEntity
  8
$DDT_AUDIT_GENERATED_(AE)
  6
Continuous
 62
     7
100
AcDbLine
 10
52.1204493223
 20
355.5551138322
 30
0.0
 11
52.2714167506
 21
355.5551138322
 31
0.0
  0
LINE
  5
B3
330
5E
100
AcDbEntity
  8
$DDT_AUDIT_GENERATED_(AE)
  6
Continuous
 62
     7
100
AcDbLine
 10
12.2100210662
 20
355.5551138322
 30
0.0
 11
13.8257734735
 21
355.5551138322
 31
0.0
  0
LINE
  5
B4
330
5E
100
AcDbEntity
  8
$DDT_AUDIT_GENERATED_(AE)
  6
Continuous
 62
     7
100
AcDbLine
 10
12.04930289
 20
355.5551138322
 30
0.0
 11
12.2100210662
 21
355.5551138322
 31
0.0
  0
LINE
  5
B5
330
5E
100
AcDbEntity
  8
$DDT_AUDIT_GENERATED_(AE)
  6
Continuous
 62
     7
100
AcDbLine
 10
54.6709455444
 20
353.1551138322
 30
0.0
 11
54.6709455444
 21
353.0551138695
 31
0.0
  0
ARC
  5
B6
330
5E
100
AcDbEntity
  8
$DDT_AUDIT_GENERATED_(AE)
  6
Continuous
 62
     7
100
AcDbCircle
 10
52.2703878403
 20
353.1538919136
 30
0.0
 40
2.401222139048837
100
AcDbArc
 50
0.0291563121
 51
89.9754490778
  0
ARC
  5
B7
330
5E
100
AcDbEntity
  8
$DDT_AUDIT_GENERATED_(AE)
  6
Continuous
 62
     7
100
AcDbCircle
 10
12.0532610753
 20
353.1510813215
 30
0.0
 40
2.404035769253131
100
AcDbArc
 50
90.0943361232
 51
179.9038924642
  0
LINE
  5
B8
330
5E
100
AcDbEntity
  8
$DDT_AUDIT_GENERATED_(AE)
  6
Continuous
 62
     7
100
AcDbLine
 10
10.0111582593
 20
352.5551138695
 30
0.0
 11
9.8492395595
 21
352.5551138695
 31
0.0
  0
LINE
  5
B9
330
5E
100
AcDbEntity
  8
$DDT_AUDIT_GENERATED_(AE)
  6
Continuous
 62
     7
100
AcDbLine
 10
54.4716004419
 20
352.5551138695
 30
0.0
 11
54.3193435677
 21
352.5551138695
 31
0.0
  0
LINE
  5
BA
330
5E
100
AcDbEntity
  8
$DDT_AUDIT_GENERATED_(AE)
  6
Continuous
 62
     7
100
AcDbLine
 10
12.0196292273
 20
352.5551138695
 30
0.0
 11
10.0111582593
 21
352.5551138695
 31
0.0
  0
LINE
  5
BB
330
5E
100
AcDbEntity
  8
$DDT_AUDIT_GENERATED_(AE)
  6
Continuous
 62
     7
100
AcDbLine
 10
54.3193435677
 20
352.5551138695
 30
0.0
 11
52.3144261525
 21
352.5551138695
 31
0.0
  0
LINE
  5
BC
330
5E
100
AcDbEntity
  8
$DDT_AUDIT_GENERATED_(AE)
  6
Continuous
 62
     7
100
AcDbLine
 10
52.3144261525
 20
352.5551138695
 30
0.0
 11
12.0196292273
 21
352.5551138695
 31
0.0
  0
LINE
  5
BD
330
5E
100
AcDbEntity
  8
$DDT_AUDIT_GENERATED_(AE)
  6
Continuous
 62
     7
100
AcDbLine
 10
54.6716096684
 20
352.7551138695
 30
0.0
 11
54.6716096684
 21
353.0551138695
 31
0.0
  0
LINE
  5
BE
330
5E
100
AcDbEntity
  8
$DDT_AUDIT_GENERATED_(AE)
  6
Continuous
 62
     7
100
AcDbLine
 10
9.6492286881
 20
352.7551138695
 30
0.0
 11
9.6492286881
 21
353.0551138695
 31
0.0
  0
ARC
  5
BF
330
5E
100
AcDbEntity
  8
$DDT_AUDIT_GENERATED_(AE)
  6
Continuous
 62
     7
100
AcDbCircle
 10
54.4716050726
 20
352.7551184653
 30
0.0
 40
0.2000045958461248
100
AcDbArc
 50
269.9986734348
 51
359.9986834327
  0
ARC
  5
C0
330
5E
100
AcDbEntity
  8
$DDT_AUDIT_GENERATED_(AE)
  6
Continuous
 62
     7
100
AcDbCircle
 10
9.849234092
 20
352.7551192734
 30
0.0
 40
0.2000054039870774
100
AcDbArc
 50
180.001548065
 51
270.0015662787
  0
LINE
  5
C3
330
5E
100
AcDbEntity
  8
DV1_Standard
  6
CENTER2
 62
     7
100
AcDbLine
 10
52.1670272428
 20
352.5551138695
 30
0.0
 11
12.1670281369
 21
352.5551138695
 31
0.0
  0
LINE
  5
C4
330
5E
100
AcDbEntity
  8
DV1_Standard
  6
CENTER2
 62
     7
100
AcDbLine
 10
32.1670276899
 20
372.5551134224
 30
0.0
 11
32.1670276899
 21
332.5551143165
 31
0.0
  0
ENDBLK
  5
C6
330
5E
100
AcDbEntity
  8
0
100
AcDbBlockEnd
  0
BLOCK
  5
143
330
C7
100
AcDbEntity
  8
0
100
AcDbBlockBegin
  2
SE1
 70
     0
 10
0.0
 20
0.0
 30
0.0
  3
SE1
  1

  0
LINE
  5
C9
330
C7
100
AcDbEntity
  8
$DDT_AUDIT_GENERATED_(60)
  6
Continuous
 62
     7
100
AcDbLine
 10
160.7665466504
 20
355.5551140635
 30
0.0
 11
167.027347299
 21
355.5551140635
 31
0.0
  0
LINE
  5
CA
330
C7
100
AcDbEntity
  8
$DDT_AUDIT_GENERATED_(60)
  6
Continuous
 62
     7
100
AcDbLine
 10
140.9882200652
 20
355.5551140635
 30
0.0
 11
160.7665466504
 21
355.5551140635
 31
0.0
  0
LINE
  5
CB
330
C7
100
AcDbEntity
  8
$DDT_AUDIT_GENERATED_(60)
  6
Continuous
 62
     7
100
AcDbLine
 10
174.7400678917
 20
355.5551140635
 30
0.0
 11
181.3401607216
 21
355.5551140635
 31
0.0
  0
LINE
  5
CC
330
C7
100
AcDbEntity
  8
$DDT_AUDIT_GENERATED_(60)
  6
Continuous
 62
     7
100
AcDbLine
 10
171.7748582893
 20
355.5551140635
 30
0.0
 11
174.7400678917
 21
355.5551140635
 31
0.0
  0
LINE
  5
CD
330
C7
100
AcDbEntity
  8
$DDT_AUDIT_GENERATED_(60)
  6
Continuous
 62
     7
100
AcDbLine
 10
171.7748582893
 20
355.5551140635
 30
0.0
 11
167.02734206
 21
355.5551140635
 31
0.0
  0
LINE
  5
CE
330
C7
100
AcDbEntity
  8
$DDT_AUDIT_GENERATED_(60)
  6
Continuous
 62
     7
100
AcDbLine
 10
180.3401589751
 20
457.5274225427
 30
0.0
 11
171.2055144052
 21
457.5274225427
 31
0.0
  0
LINE
  5
CF
330
C7
100
AcDbEntity
  8
$DDT_AUDIT_GENERATED_(60)
  6
Continuous
 62
     7
100
AcDbLine
 10
141.9882211671
 20
457.5274225427
 30
0.0
 11
161.1058573917
 21
457.5274225427
 31
0.0
  0
LINE
  5
D0
330
C7
100
AcDbEntity
  8
$DDT_AUDIT_GENERATED_(60)
  6
Continuous
 62
     7
100
AcDbLine
 10
166.9947346044
 20
457.5274225427
 30
0.0
 11
171.2055144052
 21
457.5274225427
 31
0.0
  0
LINE
  5
D1
330
C7
100
AcDbEntity
  8
$DDT_AUDIT_GENERATED_(60)
  6
Continuous
 62
     7
100
AcDbLine
 10
161.1173545939
 20
457.5274225427
 30
0.0
 11
166.9947346044
 21
457.5274225427
 31
0.0
  0
ARC
  5
D2
330
C7
100
AcDbEntity
  8
$DDT_AUDIT_GENERATED_(60)
  6
Continuous
 62
     7
100
AcDbCircle
 10
-112.474778034
 20
399.7044859534
 30
0.0
 40
253.6252247180623
100
AcDbArc
 50
357.9506419874
 51
2.0493947413
  0
ARC
  5
D3
330
C7
100
AcDbEntity
  8
$DDT_AUDIT_GENERATED_(60)
  6
Continuous
 62
     7
100
AcDbCircle
 10
259.0335635918
 20
371.3629785487
 30
0.0
 40
51.59255020762478
100
AcDbArc
 50
85.7858005921
 51
113.2968325217
  0
LINE
  5
D4
330
C7
100
AcDbEntity
  8
$DDT_AUDIT_GENERATED_(60)
  6
Continuous
 62
     7
100
AcDbLine
 10
140.9882200652
 20
390.6449696781
 30
0.0
 11
140.9882200652
 21
355.5551140635
 31
0.0
  0
LINE
  5
D5
330
C7
100
AcDbEntity
  8
$DDT_AUDIT_GENERATED_(60)
  6
Continuous
 62
     7
100
AcDbLine
 10
140.9882200652
 20
456.5274225427
 30
0.0
 11
140.9882200652
 21
419.4699384382
 31
0.0
  0
LINE
  5
D6
330
C7
100
AcDbEntity
  8
$DDT_AUDIT_GENERATED_(60)
  6
Continuous
 62
     7
100
AcDbLine
 10
140.9882200652
 20
412.3664063107
 30
0.0
 11
140.9882200652
 21
408.7743604527
 31
0.0
  0
LINE
  5
D7
330
C7
100
AcDbEntity
  8
$DDT_AUDIT_GENERATED_(60)
  6
Continuous
 62
     7
100
AcDbLine
 10
181.3401607216
 20
355.5551140635
 30
0.0
 11
181.3401607216
 21
403.561643145
 31
0.0
  0
LINE
  5
D8
330
C7
100
AcDbEntity
  8
$DDT_AUDIT_GENERATED_(60)
  6
Continuous
 62
     7
100
AcDbLine
 10
269.1145616878
 20
428.1354894677
 30
0.0
 11
269.1145616878
 21
432.774147201
 31
0.0
  0
SPLINE
  5
D9
330
C7
100
AcDbEntity
  8
$DDT_AUDIT_GENERATED_(60)
  6
Continuous
 62
     7
100
AcDbSpline
210
0.0
220
0.0
230
1.0
 70
     8
 71
     3
 72
    39
 73
    35
 74
     0
 42
0.000000000125541
 43
0.0000000001
 40
0.0
 40
0.0
 40
0.0
 40
0.0
 40
0.0394983029939626
 40
0.0800638611056715
 40
0.1168593438932365
 40
0.1496859254819776
 40
0.17834744303004
 40
0.2026611247287049
 40
0.2214208331296795
 40
0.2360748781964488
 40
0.246532618774851
 40
0.2548618605262743
 40
0.2634087486826509
 40
0.2721773707039716
 40
0.3165345840390035
 40
0.3453311723621047
 40
0.3759911396527144
 40
0.4087515382022751
 40
0.4318398120805102
 40
0.4568234880731736
 40
0.4840010159378236
 40
0.5137323472984401
 40
0.5464456511032537
 40
0.5826443420216345
 40
0.6229144218515517
 40
0.657768894653693
 40
0.6959072994511472
 40
0.7377368840668153
 40
0.7837069505378976
 40
0.8343114432819456
 40
0.877674165711209
 40
0.9245151673759507
 40
0.9751384320524044
 40
1.0
 40
1.0
 40
1.0
 40
1.0
 10
265.8250642387054
 20
436.5477796897791
 30
0.0
 10
264.6819962794218
 20
436.703386485932
 30
0.0
 10
262.7287060224114
 20
436.9665497101671
 30
0.0
 10
259.5790373577523
 20
437.2848908086553
 30
0.0
 10
256.6782542146571
 20
437.5246349834057
 30
0.0
 10
254.071082671949
 20
437.6999727456521
 30
0.0
 10
251.7972105256109
 20
437.8275252233734
 30
0.0
 10
249.8945564861289
 20
437.9186772340032
 30
0.0
 10
248.3631971642602
 20
437.9833167095761
 30
0.0
 10
247.1991929595425
 20
438.0279299452682
 30
0.0
 10
246.3118512486284
 20
438.0596180939253
 30
0.0
 10
245.586513981936
 20
438.0842142202553
 30
0.0
 10
244.9059657318204
 20
438.1062647778859
 30
0.0
 10
243.2692498788574
 20
438.1569427762665
 30
0.0
 10
241.0948658670761
 20
438.2154757437829
 30
0.0
 10
238.3392257547761
 20
438.280413658337
 30
0.0
 10
235.8913212087242
 20
438.3341184001
 30
0.0
 10
233.594905144396
 20
438.3826456733682
 30
0.0
 10
231.4491348952106
 20
438.4263511863676
 30
0.0
 10
229.4515432492668
 20
438.4658527466263
 30
0.0
 10
227.2775780615816
 20
438.5075525173421
 30
0.0
 10
224.8983921409062
 20
438.5518324291513
 30
0.0
 10
222.2796968371564
 20
438.5991672340273
 30
0.0
 10
219.3812034301252
 20
438.6501415112015
 30
0.0
 10
216.4258430792088
 20
438.7008320288286
 30
0.0
 10
213.4189792242751
 20
438.7514125316976
 30
0.0
 10
210.3706696072572
 20
438.8019086543159
 30
0.0
 10
207.0273871929809
 20
438.8565599706704
 30
0.0
 10
203.3525689644726
 20
438.9159604914194
 30
0.0
 10
199.6393630541677
 20
438.9754329224928
 30
0.0
 10
195.8949220270638
 20
439.0350219560368
 30
0.0
 10
192.1812063723656
 20
439.093847779105
 30
0.0
 10
188.8492643836532
 20
439.1464548036323
 30
0.0
 10
186.9755038883154
 20
439.175951930878
 30
0.0
 10
186.2494721247803
 20
439.1873794820974
 30
0.0
  0
LINE
  5
DA
330
C7
100
AcDbEntity
  8
$DDT_AUDIT_GENERATED_(60)
  6
Continuous
 62
     7
100
AcDbLine
 10
181.3401607216
 20
444.1834730069
 30
0.0
 11
181.3401607216
 21
456.5274225427
 31
0.0
  0
ARC
  5
DB
330
C7
100
AcDbEntity
  8
$DDT_AUDIT_GENERATED_(60)
  6
Continuous
 62
     7
100
AcDbCircle
 10
234.3290597258
 20
498.7304186142
 30
0.0
 40
81.35363099181606
100
AcDbArc
 50
290.9678259119
 51
293.1972097181
  0
ARC
  5
DC
330
C7
100
AcDbEntity
  8
$DDT_AUDIT_GENERATED_(60)
  6
Continuous
 62
     7
100
AcDbCircle
 10
555.0867662127
 20
-4534.7040467885
 30
0.0
 40
4963.467689886737
100
AcDbArc
 50
93.6579580353
 51
94.1896384189
  0
ARC
  5
DD
330
C7
100
AcDbEntity
  8
$DDT_AUDIT_GENERATED_(60)
  6
Continuous
 62
     7
100
AcDbCircle
 10
193.3300203033
 20
403.5413477209
 30
0.0
 40
11.98363204100856
100
AcDbArc
 50
94.1281139073
 51
179.9080729182
  0
ARC
  5
DE
330
C7
100
AcDbEntity
  8
$DDT_AUDIT_GENERATED_(60)
  6
Continuous
 62
     7
100
AcDbCircle
 10
186.3355376503
 20
444.1731940978
 30
0.0
 40
4.985058862909733
100
AcDbArc
 50
179.8882223817
 51
268.9926755873
  0
ARC
  5
DF
330
C7
100
AcDbEntity
  8
$DDT_AUDIT_GENERATED_(60)
  6
Continuous
 62
     7
100
AcDbCircle
 10
264.5389748627
 20
428.1352596535
 30
0.0
 40
4.575594169058577
100
AcDbArc
 50
293.7637423589
 51
0.0013275602
  0
ARC
  5
E0
330
C7
100
AcDbEntity
  8
$DDT_AUDIT_GENERATED_(60)
  6
Continuous
 62
     7
100
AcDbCircle
 10
265.301476452
 20
432.7758410699
 30
0.0
 40
3.813081400016498
100
AcDbArc
 50
359.9984115715
 51
81.9344702918
  0
ARC
  5
E1
330
C7
100
AcDbEntity
  8
$DDT_AUDIT_GENERATED_(60)
  6
Continuous
 62
     7
100
AcDbCircle
 10
180.3401607171
 20
456.5274225427
 30
0.0
 40
1.000000000000147
100
AcDbArc
 50
359.9813509945
 51
89.999992985
  0
ARC
  5
E2
330
C7
100
AcDbEntity
  8
$DDT_AUDIT_GENERATED_(60)
  6
Continuous
 62
     7
100
AcDbCircle
 10
141.9882200658
 20
456.5274225427
 30
0.0
 40
0.9999999999666155
100
AcDbArc
 50
89.9999992152
 51
179.9811358938
  0
ARC
  5
E3
330
C7
100
AcDbEntity
  8
$DDT_AUDIT_GENERATED_(60)
  6
Continuous
 62
     7
100
AcDbCircle
 10
238.3745587107
 20
418.8732844826
 30
0.0
 40
0.225181436001542
100
AcDbArc
 50
276.4548666581
 51
317.2647125661
  0
ARC
  5
E4
330
C7
100
AcDbEntity
  8
$DDT_AUDIT_GENERATED_(60)
  6
Continuous
 62
     7
100
AcDbCircle
 10
263.3743888329
 20
423.0119615585
 30
0.0
 40
0.2591368171581812
100
AcDbArc
 50
247.3604996051
 51
288.0139701595
  0
SPLINE
  5
E5
330
C7
100
AcDbEntity
  8
$DDT_AUDIT_GENERATED_(60)
  6
Continuous
 62
     7
100
AcDbSpline
210
0.0
220
0.0
230
1.0
 70
     8
 71
     3
 72
     9
 73
     5
 74
     0
 42
0.0000000090117586
 43
0.0000000001
 40
0.0
 40
0.0
 40
0.0
 40
0.0
 40
0.2311496429808117
 40
0.2920024004571558
 40
0.2920024004571558
 40
0.2920024004571558
 40
0.2920024004571558
 10
262.6931114459627
 20
422.766948814549
 30
0.0
 10
262.7991956420354
 20
422.7680319091202
 30
0.0
 10
262.909691133793
 20
422.7693311495011
 30
0.0
 10
262.9993634332151
 20
422.7709256586216
 30
0.0
 10
263.0171044116109
 20
422.77127616633
 30
0.0
  0
ARC
  5
E6
330
C7
100
AcDbEntity
  8
$DDT_AUDIT_GENERATED_(60)
  6
Continuous
 62
     7
100
AcDbCircle
 10
234.4771648312
 20
427.0454377072
 30
0.0
 40
9.263053430083692
100
AcDbArc
 50
295.9751820297
 51
297.4521187681
  0
LINE
  5
E7
330
C7
100
AcDbEntity
  8
$DDT_AUDIT_GENERATED_(60)
  6
Continuous
 62
     7
100
AcDbLine
 10
263.1329593141
 20
422.7642388718
 30
0.0
 11
263.3059854832
 21
422.7644807279
 31
0.0
  0
LINE
  5
E9
330
C7
100
AcDbEntity
  8
$DDT_AUDIT_GENERATED_(E8)
  6
Continuous
 62
     7
100
AcDbLine
 10
181.6399913358
 20
477.8116130788
 30
0.0
 11
181.2997806792
 21
475.7933604492
 31
0.0
  0
ARC
  5
EA
330
C7
100
AcDbEntity
  8
$DDT_AUDIT_GENERATED_(7C)
  6
Continuous
 62
     7
100
AcDbCircle
 10
209.1639205194
 20
639.557737423
 30
0.0
 40
144.6210268376173
100
AcDbArc
 50
272.6105203145
 51
276.1064517441
  0
LINE
  5
EB
330
C7
100
AcDbEntity
  8
$DDT_AUDIT_GENERATED_(7C)
  6
Continuous
 62
     7
100
AcDbLine
 10
181.0331836132
 20
459.0261536588
 30
0.0
 11
171.5997649428
 21
459.0373863656
 31
0.0
  0
LINE
  5
EC
330
C7
100
AcDbEntity
  8
$DDT_AUDIT_GENERATED_(7C)
  6
Continuous
 62
     7
100
AcDbLine
 10
171.5997649428
 20
459.0373863656
 30
0.0
 11
167.0001090064
 21
459.0428633394
 31
0.0
  0
LINE
  5
ED
330
C7
100
AcDbEntity
  8
$DDT_AUDIT_GENERATED_(7C)
  6
Continuous
 62
     7
100
AcDbLine
 10
167.0001090064
 20
459.0428633394
 30
0.0
 11
164.5348885198
 21
459.0457987651
 31
0.0
  0
SPLINE
  5
EE
330
C7
100
AcDbEntity
  8
$DDT_AUDIT_GENERATED_(7C)
  6
Continuous
 62
     7
100
AcDbSpline
210
0.0
220
0.0
230
1.0
 70
     8
 71
     3
 72
     8
 73
     4
 74
     0
 42
0.0000000071779241
 43
0.0000000001
 40
0.4993728317017982
 40
0.4993728317017982
 40
0.4993728317017982
 40
0.4993728317017982
 40
0.5000906241081027
 40
0.5000906241081027
 40
0.5000906241081027
 40
0.5000906241081027
 10
239.0724475016067
 20
490.9814043784936
 30
0.0
 10
239.0727753014661
 20
490.9814816364245
 30
0.0
 10
239.0728904009731
 20
490.9815227653782
 30
0.0
 10
239.0727932484153
 20
490.9815276554307
 30
0.0
  0
SPLINE
  5
EF
330
C7
100
AcDbEntity
  8
$DDT_AUDIT_GENERATED_(7C)
  6
Continuous
 62
     7
100
AcDbSpline
210
0.0
220
0.0
230
1.0
 70
     8
 71
     3
 72
    21
 73
    17
 74
     0
 42
0.000000000053044
 43
0.0000000001
 40
0.8578889948369147
 40
0.8578889948369147
 40
0.8578889948369147
 40
0.8578889948369147
 40
0.8606956165157029
 40
0.8667489711301273
 40
0.8760032512240128
 40
0.883716412534796
 40
0.8904180833088916
 40
0.8964853458897108
 40
0.901360989081323
 40
0.9060436396939262
 40
0.9115944757386345
 40
0.9177379876771752
 40
0.9387578976483728
 40
0.9557220810876489
 40
0.9769188196745037
 40
1.0
 40
1.0
 40
1.0
 40
1.0
 10
179.2185245853324
 20
482.4380904685644
 30
0.0
 10
179.0555707082625
 20
482.3844509522824
 30
0.0
 10
178.5472721900558
 20
482.2041695014766
 30
0.0
 10
177.5427391067306
 20
481.7649933584105
 30
0.0
 10
176.3268208387981
 20
481.0897626863543
 30
0.0
 10
175.1466034640067
 20
480.2979743442477
 30
0.0
 10
174.1669825205886
 20
479.5219037177114
 30
0.0
 10
173.3770222434833
 20
478.767872985185
 30
0.0
 10
172.7538403354025
 20
478.0127529929238
 30
0.0
 10
172.2998833539572
 20
477.1667049908282
 30
0.0
 10
171.988152541695
 20
476.1664869421408
 30
0.0
 10
171.7541914904529
 20
474.0921935383607
 30
0.0
 10
171.7911362999434
 20
471.2817977360873
 30
0.0
 10
171.7686389557298
 20
467.517978691039
 30
0.0
 10
171.7700546315734
 20
463.6217479667303
 30
0.0
 10
171.7677762687581
 20
460.8050475137987
 30
0.0
 10
171.7665780332291
 20
459.3367587421031
 30
0.0
  0
SPLINE
  5
F0
330
C7
100
AcDbEntity
  8
$DDT_AUDIT_GENERATED_(7C)
  6
Continuous
 62
     7
100
AcDbSpline
210
0.0
220
0.0
230
1.0
 70
     8
 71
     3
 72
     8
 73
     4
 74
     0
 42
0.0000000086688944
 43
0.0000000001
 40
0.4991466734355534
 40
0.4991466734355534
 40
0.4991466734355534
 40
0.4991466734355534
 40
0.5000135628714536
 40
0.5000135628714536
 40
0.5000135628714536
 40
0.5000135628714536
 10
242.4268441346389
 20
494.6855686384732
 30
0.0
 10
242.4274437530907
 20
494.6856397962987
 30
0.0
 10
242.4277362450286
 20
494.6856649493511
 30
0.0
 10
242.4277226475758
 20
494.6856437415722
 30
0.0
  0
ARC
  5
F1
330
C7
100
AcDbEntity
  8
$DDT_AUDIT_GENERATED_(7C)
  6
Continuous
 62
     7
100
AcDbCircle
 10
164.5408421933
 20
464.0457952204
 30
0.0
 40
5.000000000000627
100
AcDbArc
 50
243.9317759114
 51
269.9317759114
  0
LINE
  5
F2
330
C7
100
AcDbEntity
  8
$DDT_AUDIT_GENERATED_(7C)
  6
Continuous
 62
     7
100
AcDbLine
 10
141.1117540717
 20
469.941233057
 30
0.0
 11
160.9155817059
 21
460.2530533077
 31
0.0
  0
LINE
  5
F3
330
C7
100
AcDbEntity
  8
$DDT_AUDIT_GENERATED_(7C)
  6
Continuous
 62
     7
100
AcDbLine
 10
162.3436368869
 20
459.5544380935
 30
0.0
 11
160.9155817057
 21
460.2530533078
 31
0.0
  0
ARC
  5
F4
330
C7
100
AcDbEntity
  8
$DDT_AUDIT_GENERATED_(7C)
  6
Continuous
 62
     7
100
AcDbCircle
 10
202.9815383196
 20
473.8379596139
 30
0.0
 40
21.7276646534618
100
AcDbArc
 50
173.0394177152
 51
188.0855201358
  0
LINE
  5
F5
330
C7
100
AcDbEntity
  8
$DDT_AUDIT_GENERATED_(7C)
  6
Continuous
 62
     7
100
AcDbLine
 10
140.9581288438
 20
482.4245069654
 30
0.0
 11
140.9435847747
 21
470.2101498779
 31
0.0
  0
SPLINE
  5
F6
330
C7
100
AcDbEntity
  8
$DDT_AUDIT_GENERATED_(7C)
  6
Continuous
 62
     7
100
AcDbSpline
210
0.0
220
0.0
230
1.0
 70
     8
 71
     3
 72
    25
 73
    21
 74
     0
 42
0.0000000001360059
 43
0.0000000001
 40
0.0
 40
0.0
 40
0.0
 40
0.0
 40
0.0638106473414651
 40
0.1348709582415988
 40
0.2112916329388793
 40
0.2919851391867242
 40
0.3617090428239534
 40
0.4328654458066494
 40
0.5042638625524865
 40
0.574643929342725
 40
0.642745184620156
 40
0.7073071893157394
 40
0.7432434264111302
 40
0.7780344289682165
 40
0.8125743109125131
 40
0.8477735209560121
 40
0.884555770709687
 40
0.9238585580003619
 40
0.9666305931030297
 40
1.0
 40
1.0
 40
1.0
 40
1.0
 10
215.2886907276543
 20
495.0577939411395
 30
0.0
 10
213.5805409580266
 20
494.8539443924133
 30
0.0
 10
210.5341093077641
 20
494.4900399252768
 30
0.0
 10
205.2884550537042
 20
493.8556332015068
 30
0.0
 10
199.7694209099014
 20
493.1788961069054
 30
0.0
 10
194.2438868551409
 20
492.4900460686396
 30
0.0
 10
188.8588520029778
 20
491.8064016138868
 30
0.0
 10
183.698632290039
 20
491.1396549600943
 30
0.0
 10
178.5240458183394
 20
490.4641095295431
 30
0.0
 10
173.4239480057471
 20
489.7949674802121
 30
0.0
 10
168.4899052408548
 20
489.1485061747776
 30
0.0
 10
164.3925056916504
 20
488.6144158488152
 30
0.0
 10
161.103646398393
 20
488.1932914228792
 30
0.0
 10
158.5457714985459
 20
487.8572395983406
 30
0.0
 10
156.0096502886242
 20
487.4925543549584
 30
0.0
 10
153.4340877107918
 20
487.0708284156818
 30
0.0
 10
150.7501790224064
 20
486.5620406915445
 30
0.0
 10
147.9204971710209
 20
485.9420230275317
 30
0.0
 10
145.1126308623362
 20
485.2477535987623
 30
0.0
 10
143.4424916420437
 20
484.7771657987089
 30
0.0
 10
142.5770341872064
 20
484.5316596336706
 30
0.0
  0
ARC
  5
F7
330
C7
100
AcDbEntity
  8
$DDT_AUDIT_GENERATED_(7C)
  6
Continuous
 62
     7
100
AcDbCircle
 10
238.4478372206
 20
397.5367199439
 30
0.0
 40
99.39191865846638
100
AcDbArc
 50
88.9627359712
 51
93.7638411843
  0
SPLINE
  5
F8
330
C7
100
AcDbEntity
  8
$DDT_AUDIT_GENERATED_(7C)
  6
Continuous
 62
     7
100
AcDbSpline
210
0.0
220
0.0
230
1.0
 70
     8
 71
     3
 72
    40
 73
    36
 74
     0
 42
0.0000000001624769
 43
0.0000000001
 40
0.0
 40
0.0
 40
0.0
 40
0.0
 40
0.0210562763654327
 40
0.0421561305290476
 40
0.0607209123961389
 40
0.0784500005113541
 40
0.0932732858960159
 40
0.1099320424978493
 40
0.1301074505156002
 40
0.1555209159025897
 40
0.2081939462305109
 40
0.2637701952109481
 40
0.321685053191452
 40
0.3793262273404401
 40
0.4433670074913237
 40
0.5044776480092166
 40
0.5620921738669258
 40
0.6195081502881022
 40
0.6421845337038097
 40
0.6663177158870659
 40
0.6926702258000327
 40
0.7062327482694696
 40
0.7208563604118395
 40
0.7372005282462682
 40
0.7563554023803662
 40
0.7801304305375301
 40
0.8052635352583712
 40
0.8276103468786751
 40
0.8461075034341844
 40
0.870112661118562
 40
0.893117954433893
 40
0.9175967587449835
 40
0.9452504084428854
 40
0.9741556282757634
 40
1.0
 40
1.0
 40
1.0
 40
1.0
 10
179.1600120463492
 20
482.4185361633474
 30
0.0
 10
179.6626611840093
 20
482.557081676541
 30
0.0
 10
180.514960061807
 20
482.7945098819979
 30
0.0
 10
181.9098909494111
 20
483.0134626453958
 30
0.0
 10
183.1818866983017
 20
483.2562919873359
 30
0.0
 10
184.324469123637
 20
483.4735024222385
 30
0.0
 10
185.4245598458435
 20
483.675306944105
 30
0.0
 10
186.5819513506021
 20
483.876684060239
 30
0.0
 10
187.9784537316038
 20
484.1062585047439
 30
0.0
 10
190.1850279598212
 20
484.4516473735143
 30
0.0
 10
193.1888055368949
 20
484.9026520075113
 30
0.0
 10
196.9227967150354
 20
485.4579229077191
 30
0.0
 10
200.7682476914717
 20
486.0244349923729
 30
0.0
 10
204.807402005555
 20
486.6044077477077
 30
0.0
 10
208.9226464793636
 20
487.1728680157977
 30
0.0
 10
213.0406855225653
 20
487.7248235400505
 30
0.0
 10
217.0115405951461
 20
488.2462553831037
 30
0.0
 10
220.1170203787549
 20
488.6462558554178
 30
0.0
 10
222.4677198264038
 20
488.9450625314626
 30
0.0
 10
224.117474365271
 20
489.15379571677
 30
0.0
 10
225.5606916334803
 20
489.3363061057135
 30
0.0
 10
226.7865140796427
 20
489.4919812288319
 30
0.0
 10
227.7848776851659
 20
489.6193310337943
 30
0.0
 10
228.9011410543422
 20
489.7625688645292
 30
0.0
 10
230.2052170739078
 20
489.9309799404336
 30
0.0
 10
231.6581365487975
 20
490.1195198920746
 30
0.0
 10
233.0835839095587
 20
490.3047774684788
 30
0.0
 10
234.2956416307356
 20
490.4623798998964
 30
0.0
 10
235.3980713740584
 20
490.6056926527432
 30
0.0
 10
236.4268707613562
 20
490.7393872861606
 30
0.0
 10
237.4452972702111
 20
490.8719012320675
 30
0.0
 10
238.3852359827512
 20
490.9950959623685
 30
0.0
 10
239.1973212508349
 20
491.10327609694
 30
0.0
 10
239.7801044319733
 20
491.1902104833468
 30
0.0
 10
239.9591315653088
 20
491.2226554101343
 30
0.0
 10
240.0522951301141
 20
491.2400819052656
 30
0.0
  0
SPLINE
  5
F9
330
C7
100
AcDbEntity
  8
$DDT_AUDIT_GENERATED_(7C)
  6
Continuous
 62
     7
100
AcDbSpline
210
0.0
220
0.0
230
1.0
 70
     8
 71
     3
 72
    14
 73
    10
 74
     0
 42
0.0000000005657002
 43
0.0000000001
 40
0.8737396525314384
 40
0.8737396525314384
 40
0.8737396525314384
 40
0.8737396525314384
 40
0.874940526185785
 40
0.8986292327194142
 40
0.9224056978727359
 40
0.943634650208611
 40
0.9629485202679028
 40
0.9813960421618136
 40
0.9914511277477642
 40
0.9914511277477642
 40
0.9914511277477642
 40
0.9914511277477642
 10
238.669020560449
 20
491.1048705487246
 30
0.0
 10
238.6836054330852
 20
491.1071275680665
 30
0.0
 10
238.9842693645727
 20
491.1537039972182
 30
0.0
 10
239.5053789841634
 20
491.236394942226
 30
0.0
 10
240.0462488382279
 20
491.3360265969864
 30
0.0
 10
240.3985551319325
 20
491.4191366679286
 30
0.0
 10
240.5942179324817
 20
491.483595884023
 30
0.0
 10
240.6761995584943
 20
491.526012290414
 30
0.0
 10
240.6735672291512
 20
491.542517587528
 30
0.0
 10
240.668957232958
 20
491.5480482691763
 30
0.0
  0
ARC
  5
FA
330
C7
100
AcDbEntity
  8
$DDT_AUDIT_GENERATED_(7C)
  6
Continuous
 62
     7
100
AcDbCircle
 10
238.6919278668
 20
494.7005402646
 30
0.0
 40
3.735973311413735
100
AcDbArc
 50
295.9283183433
 51
359.8090598691
  0
ARC
  5
FB
330
C7
100
AcDbEntity
  8
$DDT_AUDIT_GENERATED_(7C)
  6
Continuous
 62
     7
100
AcDbCircle
 10
143.1481914785
 20
482.4362620663
 30
0.0
 40
2.180919814104637
100
AcDbArc
 50
105.2465485674
 51
180.3222559117
  0
ARC
  5
FC
330
C7
100
AcDbEntity
  8
$DDT_AUDIT_GENERATED_(7C)
  6
Continuous
 62
     7
100
AcDbCircle
 10
240.2305822819
 20
494.7212965555
 30
0.0
 40
2.19496446652701
100
AcDbArc
 50
359.7512361673
 51
89.5649935362
  0
ARC
  5
FD
330
C7
100
AcDbEntity
  8
$DDT_AUDIT_GENERATED_(7C)
  6
Continuous
 62
     7
100
AcDbCircle
 10
232.2052953213
 20
492.6311414207
 30
0.0
 40
4.102720244279357
100
AcDbArc
 50
93.395554567
 51
96.8889942818
  0
ARC
  5
FE
330
C7
100
AcDbEntity
  8
$DDT_AUDIT_GENERATED_(7C)
  6
Continuous
 62
     7
100
AcDbCircle
 10
232.2052896952
 20
492.6314349791
 30
0.0
 40
4.102428130444544
100
AcDbArc
 50
96.889408044
 51
98.5336856457
  0
ARC
  5
FF
330
C7
100
AcDbEntity
  8
$DDT_AUDIT_GENERATED_(7C)
  6
Continuous
 62
     7
100
AcDbCircle
 10
215.826488101
 20
490.2260639992
 30
0.0
 40
4.861364977167408
100
AcDbArc
 50
93.8413647602
 51
96.7893906847
  0
ARC
  5
100
330
C7
100
AcDbEntity
  8
$DDT_AUDIT_GENERATED_(7C)
  6
Continuous
 62
     7
100
AcDbCircle
 10
215.8265899926
 20
490.2182841259
 30
0.0
 40
4.869134216121591
100
AcDbArc
 50
90.8892270641
 51
93.8364279271
  0
ARC
  5
101
330
C7
100
AcDbEntity
  8
$DDT_AUDIT_GENERATED_(7C)
  6
Continuous
 62
     7
100
AcDbCircle
 10
199.5579792256
 20
714.0962344136
 30
0.0
 40
219.7557858552886
100
AcDbArc
 50
276.562138839
 51
278.3855346711
  0
ARC
  5
102
330
C7
100
AcDbEntity
  8
$DDT_AUDIT_GENERATED_(7C)
  6
Continuous
 62
     7
100
AcDbCircle
 10
141.2435858055
 20
470.2107147678
 30
0.0
 40
0.2999999974695221
100
AcDbArc
 50
180.1315762971
 51
243.9324790484
  0
ARC
  5
103
330
C7
100
AcDbEntity
  8
$DDT_AUDIT_GENERATED_(7C)
  6
Continuous
 62
     7
100
AcDbCircle
 10
181.0335401356
 20
459.326153447
 30
0.0
 40
0.299999988259127
100
AcDbArc
 50
269.9349299326
 51
0.0049314383
  0
SPLINE
  5
104
330
C7
100
AcDbEntity
  8
$DDT_AUDIT_GENERATED_(7C)
  6
Continuous
 62
     7
100
AcDbSpline
210
0.0
220
0.0
230
1.0
 70
     8
 71
     3
 72
    11
 73
     7
 74
     0
 42
0.0000000011134675
 43
0.0000000001
 40
0.0
 40
0.0
 40
0.0
 40
0.0
 40
0.2303765701700838
 40
0.4135216851884689
 40
0.5825438857756108
 40
0.5901274605015716
 40
0.5901274605015716
 40
0.5901274605015716
 40
0.5901274605015716
 10
181.6064144808408
 20
477.7195704862115
 30
0.0
 10
181.6315001625393
 20
478.4777339204552
 30
0.0
 10
181.6721690275807
 20
479.6205295845695
 30
0.0
 10
181.7502507881329
 20
481.3938494848715
 30
0.0
 10
181.8271314306648
 20
482.462718024184
 30
0.0
 10
181.8808204772962
 20
482.9884297969715
 30
0.0
 10
181.8831565327609
 20
483.011005186155
 30
0.0
  0
ARC
  5
105
330
C7
100
AcDbEntity
  8
$DDT_AUDIT_GENERATED_(7C)
  6
Continuous
 62
     7
100
AcDbCircle
 10
3647.1122824585
 20
423.8416796738
 30
0.0
 40
3465.960343424186
100
AcDbArc
 50
179.2234702496
 51
179.4134494459
  0
LINE
  5
106
330
C7
100
AcDbEntity
  8
$DDT_AUDIT_GENERATED_(92)
  6
Continuous
 62
     7
100
AcDbLine
 10
149.1535787481
 20
465.1648007574
 30
0.0
 11
150.8369244059
 21
465.1648007574
 31
0.0
  0
ARC
  5
107
330
C7
100
AcDbEntity
  8
$DDT_AUDIT_GENERATED_(92)
  6
Continuous
 62
     7
100
AcDbCircle
 10
161.1035787481
 20
449.1274225427
 30
0.0
 40
20.0
100
AcDbArc
 50
24.8345874897
 51
29.6755888394
  0
ARC
  5
108
330
C7
100
AcDbEntity
  8
$DDT_AUDIT_GENERATED_(92)
  6
Continuous
 62
     7
100
AcDbCircle
 10
161.1035787481
 20
449.1274225427
 30
0.0
 40
20.00000000000001
100
AcDbArc
 50
126.691057378
 51
155.1654125103
  0
LINE
  5
109
330
C7
100
AcDbEntity
  8
02636038_GEHÄUSE
  6
Continuous
 62
     7
100
AcDbLine
 10
242.4419394345
 20
412.6288976239
 30
0.0
 11
262.6453307814
 21
419.9823307054
 31
0.0
  0
SPLINE
  5
10A
330
C7
100
AcDbEntity
  8
02636038_GEHÄUSE
  6
Continuous
 62
     7
100
AcDbSpline
210
0.0
220
0.0
230
1.0
 70
     8
 71
     3
 72
    10
 73
     6
 74
     0
 42
0.0000000019260148
 43
0.0000000001
 40
0.0
 40
0.0
 40
0.0
 40
0.0
 40
0.5
 40
0.5
 40
1.0
 40
1.0
 40
1.0
 40
1.0
 10
254.8655473139481
 20
417.4886429220648
 30
0.0
 10
254.0944749048941
 20
417.0867666827801
 30
0.0
 10
253.3046480193688
 20
416.736211806826
 30
0.0
 10
251.684309503096
 20
416.1464352928643
 30
0.0
 10
250.853797324308
 20
415.9072151545619
 30
0.0
 10
250.0045109379338
 20
415.7193703735103
 30
0.0
  0
LINE
  5
10B
330
C7
100
AcDbEntity
  8
02636038_GEHÄUSE
  6
Continuous
 62
     7
100
AcDbLine
 10
255.530843336
 20
420.5854023606
 30
0.0
 11
247.50430602
 21
417.6639816934
 31
0.0
  0
LINE
  5
10C
330
C7
100
AcDbEntity
  8
02636038_GEHÄUSE
  6
Continuous
 62
     7
100
AcDbLine
 10
255.530843336
 20
420.5854023606
 30
0.0
 11
256.1520996512
 21
418.8785146628
 31
0.0
  0
SPLINE
  5
10D
330
C7
100
AcDbEntity
  8
02636038_GEHÄUSE
  6
Continuous
 62
     7
100
AcDbSpline
210
0.0
220
0.0
230
1.0
 70
     8
 71
     3
 72
    14
 73
    10
 74
     0
 42
0.0000000049321089
 43
0.0000000001
 40
0.0
 40
0.0
 40
0.0
 40
0.0
 40
0.1250000000000004
 40
0.1250000000000004
 40
0.2500000000000009
 40
0.2500000000000009
 40
0.5000000000000008
 40
0.5000000000000008
 40
1.0
 40
1.0
 40
1.0
 40
1.0
 10
256.15209965121
 20
418.8785146627607
 30
0.0
 10
256.1809118723424
 20
418.799353735795
 30
0.0
 10
256.1794947828664
 20
418.7093009615439
 30
0.0
 10
256.1370829719168
 20
418.5457330122892
 30
0.0
 10
256.0979475799403
 20
418.4686860144579
 30
0.0
 10
255.9595248069516
 20
418.2574847332931
 30
0.0
 10
255.8373643741633
 20
418.137034655096
 30
0.0
 10
255.4536016740597
 20
417.8149860589424
 30
0.0
 10
255.1623341369254
 20
417.6433256352404
 30
0.0
 10
254.8655473139481
 20
417.4886429220648
 30
0.0
  0
SPLINE
  5
10E
330
C7
100
AcDbEntity
  8
02636038_GEHÄUSE
  6
Continuous
 62
     7
100
AcDbSpline
210
0.0
220
0.0
230
1.0
 70
     8
 71
     3
 72
    18
 73
    14
 74
     0
 42
0.0000000049401632
 43
0.0000000001
 40
0.0
 40
0.0
 40
0.0
 40
0.0
 40
0.2499999999999998
 40
0.2499999999999998
 40
0.4999999999999997
 40
0.4999999999999997
 40
0.6249999999999992
 40
0.6249999999999992
 40
0.7499999999999989
 40
0.7499999999999989
 40
0.8749999999999994
 40
0.8749999999999994
 40
1.0
 40
1.0
 40
1.0
 40
1.0
 10
250.0045109379338
 20
415.7193703735103
 30
0.0
 10
249.8406321376054
 20
415.6831237341426
 30
0.0
 10
249.6758036807107
 20
415.6519429052195
 30
0.0
 10
249.3430528804628
 20
415.6060851529875
 30
0.0
 10
249.1752373731254
 20
415.5912468346634
 30
0.0
 10
248.9245764393985
 20
415.5914581437772
 30
0.0
 10
248.8410590295293
 20
415.5952934495064
 30
0.0
 10
248.6741341986472
 20
415.6143921561497
 30
0.0
 10
248.5902470818936
 20
415.6297640918272
 30
0.0
 10
248.4300069575294
 20
415.67817726263
 30
0.0
 10
248.3515159450571
 20
415.7114473537795
 30
0.0
 10
248.2129139023907
 20
415.8101539486999
 30
0.0
 10
248.1548908987928
 20
415.8765144293516
 30
0.0
 10
248.1255623352199
 20
415.9570939955133
 30
0.0
  0
LINE
  5
10F
330
C7
100
AcDbEntity
  8
02636038_GEHÄUSE
  6
Continuous
 62
     7
100
AcDbLine
 10
248.1255623352
 20
415.9570939955
 30
0.0
 11
247.50430602
 21
417.6639816934
 31
0.0
  0
LINE
  5
110
330
C7
100
AcDbEntity
  8
02636038_GEHÄUSE
  6
Continuous
 62
     7
100
AcDbLine
 10
241.8165025111
 20
412.7391790282
 30
0.0
 11
242.4419394345
 21
412.6288976239
 31
0.0
  0
LINE
  5
111
330
C7
100
AcDbEntity
  8
02636038_GEHÄUSE
  6
Continuous
 62
     7
100
AcDbLine
 10
262.6453307814
 20
419.9823307054
 30
0.0
 11
263.0535557408
 21
420.4688342674
 31
0.0
  0
ARC
  5
112
330
C7
100
AcDbEntity
  8
02636038_GEHÄUSE
  6
Continuous
 62
     7
100
AcDbCircle
 10
241.9901506887
 20
413.7239867812
 30
0.0
 40
1.000000000000006
100
AcDbArc
 50
200.0
 51
260.0
  0
ARC
  5
113
330
C7
100
AcDbEntity
  8
02636038_GEHÄUSE
  6
Continuous
 62
     7
100
AcDbCircle
 10
262.2875112977
 20
421.1116218771
 30
0.0
 40
1.000000000000004
100
AcDbArc
 50
320.0
 51
20.0
  0
LINE
  5
114
330
C7
100
AcDbEntity
  8
02636038_GEHÄUSE
  6
Continuous
 62
     7
100
AcDbLine
 10
239.0160422682
 20
418.9714781094
 30
0.0
 11
241.0504580679
 21
413.3819666379
 31
0.0
  0
LINE
  5
115
330
C7
100
AcDbEntity
  8
02636038_GEHÄUSE
  6
Continuous
 62
     7
100
AcDbLine
 10
263.2272039185
 20
421.4536420204
 30
0.0
 11
262.7582930759
 21
422.7419639721
 31
0.0
  0
LINE
  5
117
330
C7
100
AcDbEntity
  8
$DDT_AUDIT_GENERATED_(116)
  6
Continuous
 62
     7
100
AcDbLine
 10
141.0719287352
 20
405.6708004958
 30
0.0
 11
139.3172057556
 21
411.7902467597
 31
0.0
  0
LINE
  5
118
330
C7
100
AcDbEntity
  8
$DDT_AUDIT_GENERATED_(116)
  6
Continuous
 62
     7
100
AcDbLine
 10
135.7155063389
 20
411.8344196169
 30
0.0
 11
141.0727165607
 21
393.1516073108
 31
0.0
  0
LINE
  5
119
330
C7
100
AcDbEntity
  8
$DDT_AUDIT_GENERATED_(116)
  6
Continuous
 62
     7
100
AcDbLine
 10
153.2870645045
 20
350.5551138695
 30
0.0
 11
153.5717423936
 21
349.5623240874
 31
0.0
  0
ARC
  5
11B
330
C7
100
AcDbEntity
  8
$DDT_AUDIT_GENERATED_(11A)
  6
Continuous
 62
     7
100
AcDbCircle
 10
125.9803327457
 20
813.1835332585
 30
0.0
 40
397.4853228111922
100
AcDbArc
 50
269.3671901579
 51
269.3672318207
  0
ELLIPSE
  5
11C
330
C7
100
AcDbEntity
  8
$DDT_AUDIT_GENERATED_(11A)
  6
Continuous
 62
     7
100
AcDbEllipse
 10
141.8753635854
 20
418.7017683769
 30
0.0
 11
-0.1352111255668552
 21
-0.267802075277504
 31
0.0
210
0.0
220
0.0
230
1.0
 40
0.9391085471
 41
3.042514779629857
 42
3.14745411018812
  0
ELLIPSE
  5
11D
330
C7
100
AcDbEntity
  8
$DDT_AUDIT_GENERATED_(11A)
  6
Continuous
 62
     7
100
AcDbEllipse
 10
142.5412891941
 20
416.0470126747
 30
0.0
 11
-0.2988277821167513
 21
0.02649446423654001
 31
0.0
210
0.0
220
0.0
230
1.0
 40
0.0025765564
 41
3.141857335698964
 42
3.18705918977775
  0
ARC
  5
11E
330
C7
100
AcDbEntity
  8
$DDT_AUDIT_GENERATED_(11A)
  6
Continuous
 62
     7
100
AcDbCircle
 10
136.8533124163
 20
359.595820442
 30
0.0
 40
52.25131837507168
100
AcDbArc
 50
86.9201754954
 51
91.6160691763
  0
LINE
  5
11F
330
C7
100
AcDbEntity
  8
$DDT_AUDIT_GENERATED_(11A)
  6
Continuous
 62
     7
100
AcDbLine
 10
121.5903471551
 20
415.7219986894
 30
0.0
 11
121.5903470162
 21
415.6639040778
 31
0.0
  0
LINE
  5
120
330
C7
100
AcDbEntity
  8
$DDT_AUDIT_GENERATED_(11A)
  6
Continuous
 62
     7
100
AcDbLine
 10
139.6376738171
 20
411.7774512793
 30
0.0
 11
139.9686287728
 21
411.780929806
 31
0.0
  0
ARC
  5
121
330
C7
100
AcDbEntity
  8
$DDT_AUDIT_GENERATED_(11A)
  6
Continuous
 62
     7
100
AcDbCircle
 10
140.9037383128
 20
556.9321849669
 30
0.0
 40
145.2071446678408
100
AcDbArc
 50
263.4366312892
 51
267.8202050319
  0
ARC
  5
122
330
C7
100
AcDbEntity
  8
$DDT_AUDIT_GENERATED_(11A)
  6
Continuous
 62
     7
100
AcDbCircle
 10
140.7149509843
 20
276.9878352575
 30
0.0
 40
142.6649706678311
100
AcDbArc
 50
90.0475841438
 51
96.6266293405
  0
ARC
  5
123
330
C7
100
AcDbEntity
  8
$DDT_AUDIT_GENERATED_(11A)
  6
Continuous
 62
     7
100
AcDbCircle
 10
124.5770263405
 20
415.7331284309
 30
0.0
 40
2.984532754731613
100
AcDbArc
 50
96.2445873684
 51
180.2338909482
  0
ARC
  5
124
330
C7
100
AcDbEntity
  8
$DDT_AUDIT_GENERATED_(11A)
  6
Continuous
 62
     7
100
AcDbCircle
 10
124.5710820958
 20
415.6419668847
 30
0.0
 40
2.975741090207647
100
AcDbArc
 50
179.5982421089
 51
264.956437111
  0
SPLINE
  5
125
330
C7
100
AcDbEntity
  8
$DDT_AUDIT_GENERATED_(11A)
  6
Continuous
 62
     7
100
AcDbSpline
210
0.0
220
0.0
230
1.0
 70
     8
 71
     3
 72
    13
 73
     9
 74
     0
 42
0.0000000096217025
 43
0.0000000001
 40
0.3229990819275597
 40
0.3229990819275597
 40
0.3229990819275597
 40
0.3229990819275597
 40
0.3979308277849062
 40
0.5882498260200227
 40
0.7764789179229288
 40
0.8693849557081167
 40
0.9186364191270668
 40
0.9348722233955741
 40
0.9348722233955741
 40
0.9348722233955741
 40
0.9348722233955741
 10
141.3064970887696
 20
419.286480417584
 30
0.0
 10
141.2631900375924
 20
419.3105583012592
 30
0.0
 10
141.1184491870434
 20
419.3918120785974
 30
0.0
 10
140.9275543771939
 20
419.5048250229154
 30
0.0
 10
140.8095935200384
 20
419.5783003055921
 30
0.0
 10
140.769315883942
 20
419.6042432858027
 30
0.0
 10
140.7611501541187
 20
419.6096974221896
 30
0.0
 10
140.7596137697649
 20
419.6106399166428
 30
0.0
 10
140.759647252097
 20
419.61060581876
 30
0.0
  0
SPLINE
  5
126
330
C7
100
AcDbEntity
  8
$DDT_AUDIT_GENERATED_(11A)
  6
Continuous
 62
     7
100
AcDbSpline
210
0.0
220
0.0
230
1.0
 70
     8
 71
     3
 72
    16
 73
    12
 74
     0
 42
0.000000010023684
 43
0.0000000001
 40
0.7417366456352996
 40
0.7417366456352996
 40
0.7417366456352996
 40
0.7417366456352996
 40
0.9193082357673866
 40
0.9667071302313502
 40
0.9771656923683896
 40
0.9807906664057028
 40
0.982289159095689
 40
0.9841973918465512
 40
0.9896392826652015
 40
0.9996824158647004
 40
1.0
 40
1.0
 40
1.0
 40
1.0
 10
140.8289557563912
 20
419.5667049616639
 30
0.0
 10
140.7924299555342
 20
419.5895166308776
 30
0.0
 10
140.7638176116211
 20
419.6079915149418
 30
0.0
 10
140.7563199859586
 20
419.6129209273979
 30
0.0
 10
140.7527926813045
 20
419.6151694923599
 30
0.0
 10
140.7455028079202
 20
419.6197383870505
 30
0.0
 10
140.7352978126448
 20
419.6255609412889
 30
0.0
 10
140.715549541138
 20
419.6359480284502
 30
0.0
 10
140.6700989873241
 20
419.6534844816326
 30
0.0
 10
140.6240787580524
 20
419.6652315937121
 30
0.0
 10
140.5967670726926
 20
419.6618603618978
 30
0.0
 10
140.5957969385058
 20
419.6617401807513
 30
0.0
  0
SPLINE
  5
127
330
C7
100
AcDbEntity
  8
$DDT_AUDIT_GENERATED_(11A)
  6
Continuous
 62
     7
100
AcDbSpline
210
0.0
220
0.0
230
1.0
 70
     8
 71
     3
 72
    15
 73
    11
 74
     0
 42
0.0000000031172411
 43
0.0000000001
 40
0.0
 40
0.0
 40
0.0
 40
0.0
 40
0.0792748996784569
 40
0.2105219158880456
 40
0.3419138248133214
 40
0.4735801416858502
 40
0.6098729339495197
 40
0.7513560302482473
 40
0.899825474258896
 40
1.0
 40
1.0
 40
1.0
 40
1.0
 10
142.834226377216
 20
416.0210531862877
 30
0.0
 10
142.8457217666889
 20
416.1401205480593
 30
0.0
 10
142.8706440879098
 20
416.409600245769
 30
0.0
 10
142.8626489461626
 20
416.8839116494021
 30
0.0
 10
142.8122233387778
 20
417.3829134314
 30
0.0
 10
142.7181439645112
 20
417.842895486554
 30
0.0
 10
142.585552402534
 20
418.2481869374473
 30
0.0
 10
142.4145458261107
 20
418.5879764514881
 30
0.0
 10
142.2248834437839
 20
418.8370341322608
 30
0.0
 10
142.077436519062
 20
418.924673262363
 30
0.0
 10
142.0072584634514
 20
418.9648924997542
 30
0.0
  0
LINE
  5
128
330
C7
100
AcDbEntity
  8
$DDT_AUDIT_GENERATED_(11A)
  6
Continuous
 62
     7
100
AcDbLine
 10
142.7986504328
 20
415.552827184
 30
0.0
 11
142.8401166648
 21
416.0205182438
 31
0.0
  0
SPLINE
  5
129
330
C7
100
AcDbEntity
  8
$DDT_AUDIT_GENERATED_(11A)
  6
Continuous
 62
     7
100
AcDbSpline
210
0.0
220
0.0
230
1.0
 70
     8
 71
     3
 72
    15
 73
    11
 74
     0
 42
0.0000000029783618
 43
0.0000000001
 40
0.0
 40
0.0
 40
0.0
 40
0.0
 40
0.0556294737700885
 40
0.1756948526852756
 40
0.319923428131659
 40
0.4684163327518245
 40
0.6123978188240287
 40
0.7521291249334311
 40
0.8868950512570085
 40
1.0
 40
1.0
 40
1.0
 40
1.0
 10
141.4567156458131
 20
412.6118986901416
 30
0.0
 10
141.5000734145914
 20
412.6288682749602
 30
0.0
 10
141.6168030814292
 20
412.6756964887829
 30
0.0
 10
141.8089732581104
 20
412.8491644304817
 30
0.0
 10
142.0375159039085
 20
413.1311797896147
 30
0.0
 10
142.2626252124253
 20
413.5236123801581
 30
0.0
 10
142.4635264549482
 20
413.9935879191692
 30
0.0
 10
142.6253772364426
 20
414.5101860476423
 30
0.0
 10
142.7426671496146
 20
415.048112032243
 30
0.0
 10
142.7777664882592
 20
415.3765988427581
 30
0.0
 10
142.7957227974989
 20
415.5532215065749
 30
0.0
  0
ARC
  5
12A
330
C7
100
AcDbEntity
  8
$DDT_AUDIT_GENERATED_(11A)
  6
Continuous
 62
     7
100
AcDbCircle
 10
142.8493010847
 20
408.9053185254
 30
0.0
 40
3.931191446856916
100
AcDbArc
 50
110.6082086771
 51
114.1409987359
  0
SPLINE
  5
12B
330
C7
100
AcDbEntity
  8
$DDT_AUDIT_GENERATED_(11A)
  6
Continuous
 62
     7
100
AcDbSpline
210
0.0
220
0.0
230
1.0
 70
     8
 71
     3
 72
    13
 73
     9
 74
     0
 42
0.000000007398872
 43
0.0000000001
 40
0.0578994918619899
 40
0.0578994918619899
 40
0.0578994918619899
 40
0.0578994918619899
 40
0.0874634323954065
 40
0.2191974616918194
 40
0.4025475344796403
 40
0.5948823989039256
 40
0.7962995335940986
 40
1.0
 40
1.0
 40
1.0
 40
1.0
 10
140.1489542331419
 20
411.8458865572221
 30
0.0
 10
140.148909502625
 20
411.8458485487404
 30
0.0
 10
140.1518527031636
 20
411.8483296285311
 30
0.0
 10
140.1817180378208
 20
411.872904374676
 30
0.0
 10
140.2921125175385
 20
411.9565491514638
 30
0.0
 10
140.5035773694761
 20
412.0991876456982
 30
0.0
 10
140.8182895431021
 20
412.2881438747742
 30
0.0
 10
141.081829132542
 20
412.4156150565249
 30
0.0
 10
141.2415084664656
 20
412.4926948771089
 30
0.0
  0
ARC
  5
12C
330
C7
100
AcDbEntity
  8
$DDT_AUDIT_GENERATED_(11A)
  6
Continuous
 62
     7
100
AcDbCircle
 10
143.2094166598
 20
408.0920463224
 30
0.0
 40
4.819789452308478
100
AcDbArc
 50
117.5578772546
 51
119.5737221675
  0
SPLINE
  5
12D
330
C7
100
AcDbEntity
  8
$DDT_AUDIT_GENERATED_(11A)
  6
Continuous
 62
     7
100
AcDbSpline
210
0.0
220
0.0
230
1.0
 70
     8
 71
     3
 72
    19
 73
    15
 74
     0
 42
0.0000000069123581
 43
0.0000000001
 40
0.0
 40
0.0
 40
0.0
 40
0.0
 40
0.0036807508316437
 40
0.0132789650286857
 40
0.0209925497800358
 40
0.0266782157409112
 40
0.0296042224661063
 40
0.0309134061124612
 40
0.0318349489591739
 40
0.0330677199858038
 40
0.035357967595891
 40
0.0414752272563307
 40
0.0706935264282303
 40
0.1411451677942726
 40
0.1411451677942726
 40
0.1411451677942726
 40
0.1411451677942726
 10
139.9686628222574
 20
411.776000844572
 30
0.0
 10
139.9768335625663
 20
411.7758227915152
 30
0.0
 10
140.0020509918042
 20
411.7754049454874
 30
0.0
 10
140.044752315729
 20
411.7866812486908
 30
0.0
 10
140.0875481762555
 20
411.8041906916011
 30
0.0
 10
140.1158548368429
 20
411.8208231936178
 30
0.0
 10
140.1323581306977
 20
411.8325770008106
 30
0.0
 10
140.1390906483787
 20
411.8377886913205
 30
0.0
 10
140.1418860977964
 20
411.8400151255049
 30
0.0
 10
140.1439609697307
 20
411.8416978464935
 30
0.0
 10
140.1459175761563
 20
411.8433130571745
 30
0.0
 10
140.1475808879745
 20
411.8447094873005
 30
0.0
 10
140.1475799479686
 20
411.8447083037519
 30
0.0
 10
140.1503638152597
 20
411.8470186653196
 30
0.0
 10
140.1536276503692
 20
411.8496852782239
 30
0.0
  0
SPLINE
  5
12E
330
C7
100
AcDbEntity
  8
$DDT_AUDIT_GENERATED_(11A)
  6
Continuous
 62
     7
100
AcDbSpline
210
0.0
220
0.0
230
1.0
 70
     8
 71
     3
 72
     8
 73
     4
 74
     0
 42
0.0000000057546156
 43
0.0000000001
 40
0.9579113371656628
 40
0.9579113371656628
 40
0.9579113371656628
 40
0.9579113371656628
 40
1.0
 40
1.0
 40
1.0
 40
1.0
 10
140.7657124969858
 20
412.2502561726163
 30
0.0
 10
140.7858016003184
 20
412.2607869277195
 30
0.0
 10
140.8070986307453
 20
412.2717726846058
 30
0.0
 10
140.8306431497608
 20
412.2839202413277
 30
0.0
  0
LINE
  5
12F
330
C7
100
AcDbEntity
  8
$DDT_AUDIT_GENERATED_(AE)
  6
Continuous
 62
     7
100
AcDbLine
 10
181.4429448858
 20
355.5551138322
 30
0.0
 11
171.8718059233
 21
355.5551138322
 31
0.0
  0
LINE
  5
130
330
C7
100
AcDbEntity
  8
$DDT_AUDIT_GENERATED_(AE)
  6
Continuous
 62
     7
100
AcDbLine
 10
161.0784222228
 20
355.5551138322
 30
0.0
 11
140.8944060798
 21
355.5551138322
 31
0.0
  0
LINE
  5
131
330
C7
100
AcDbEntity
  8
$DDT_AUDIT_GENERATED_(AE)
  6
Continuous
 62
     7
100
AcDbLine
 10
166.9947647482
 20
355.5551138322
 30
0.0
 11
171.8718059233
 21
355.5551138322
 31
0.0
  0
LINE
  5
132
330
C7
100
AcDbEntity
  8
$DDT_AUDIT_GENERATED_(AE)
  6
Continuous
 62
     7
100
AcDbLine
 10
161.0784222228
 20
355.5551138322
 30
0.0
 11
166.9947647482
 21
355.5551138322
 31
0.0
  0
LINE
  5
133
330
C7
100
AcDbEntity
  8
$DDT_AUDIT_GENERATED_(AE)
  6
Continuous
 62
     7
100
AcDbLine
 10
138.6944064134
 20
352.5551138695
 30
0.0
 11
161.1099411135
 21
352.5551138695
 31
0.0
  0
LINE
  5
134
330
C7
100
AcDbEntity
  8
$DDT_AUDIT_GENERATED_(AE)
  6
Continuous
 62
     7
100
AcDbLine
 10
167.0654920851
 20
352.5551138695
 30
0.0
 11
161.1099411135
 21
352.5551138695
 31
0.0
  0
LINE
  5
135
330
C7
100
AcDbEntity
  8
$DDT_AUDIT_GENERATED_(AE)
  6
Continuous
 62
     7
100
AcDbLine
 10
173.1279281155
 20
352.5551138695
 30
0.0
 11
167.0654920851
 21
352.5551138695
 31
0.0
  0
LINE
  5
136
330
C7
100
AcDbEntity
  8
$DDT_AUDIT_GENERATED_(AE)
  6
Continuous
 62
     7
100
AcDbLine
 10
173.1279281155
 20
352.5551138695
 30
0.0
 11
183.6429441633
 21
352.5551138695
 31
0.0
  0
LINE
  5
137
330
C7
100
AcDbEntity
  8
$DDT_AUDIT_GENERATED_(AE)
  6
Continuous
 62
     7
100
AcDbLine
 10
183.8429451373
 20
353.0551138695
 30
0.0
 11
183.8429451373
 21
353.1551138322
 31
0.0
  0
LINE
  5
138
330
C7
100
AcDbEntity
  8
$DDT_AUDIT_GENERATED_(AE)
  6
Continuous
 62
     7
100
AcDbLine
 10
138.4944061926
 20
353.1551138322
 30
0.0
 11
138.4944061926
 21
353.0551138695
 31
0.0
  0
ARC
  5
139
330
C7
100
AcDbEntity
  8
$DDT_AUDIT_GENERATED_(AE)
  6
Continuous
 62
     7
100
AcDbCircle
 10
181.4429451373
 20
353.1551138322
 30
0.0
 40
2.399999999999994
100
AcDbArc
 50
0.0242526335
 51
89.9999998791
  0
ARC
  5
13A
330
C7
100
AcDbEntity
  8
$DDT_AUDIT_GENERATED_(AE)
  6
Continuous
 62
     7
100
AcDbCircle
 10
140.8944296348
 20
353.1551138333
 30
0.0
 40
2.399997115376987
100
AcDbArc
 50
89.9988806272
 51
179.9887489851
  0
LINE
  5
13B
330
C7
100
AcDbEntity
  8
$DDT_AUDIT_GENERATED_(AE)
  6
Continuous
 62
     7
100
AcDbLine
 10
138.4944061912
 20
353.0551138695
 30
0.0
 11
138.4944061912
 21
352.7551138695
 31
0.0
  0
LINE
  5
13C
330
C7
100
AcDbEntity
  8
$DDT_AUDIT_GENERATED_(AE)
  6
Continuous
 62
     7
100
AcDbLine
 10
183.842945138
 20
352.7551138695
 30
0.0
 11
183.842945138
 21
353.0551138695
 31
0.0
  0
ARC
  5
13D
330
C7
100
AcDbEntity
  8
$DDT_AUDIT_GENERATED_(AE)
  6
Continuous
 62
     7
100
AcDbCircle
 10
138.6944735074
 20
352.7551138892
 30
0.0
 40
0.2000000234216696
100
AcDbArc
 50
179.1493238577
 51
270.0386434174
  0
ARC
  5
13E
330
C7
100
AcDbEntity
  8
$DDT_AUDIT_GENERATED_(AE)
  6
Continuous
 62
     7
100
AcDbCircle
 10
183.642945138
 20
352.7551138695
 30
0.0
 40
0.1999999999999147
100
AcDbArc
 50
270.000002563
 51
0.6938779287
  0
LINE
  5
140
330
C7
100
AcDbEntity
  8
DV2_Standard
  6
Continuous
 62
     7
100
AcDbLine
 10
138.6944064134
 20
352.5551138695
 30
0.0
 11
183.6429441633
 21
352.5551138695
 31
0.0
  0
LINE
  5
141
330
C7
100
AcDbEntity
  8
DV2_Standard
  6
CENTER2
 62
     7
100
AcDbLine
 10
181.1686748413
 20
352.5551138695
 30
0.0
 11
141.1686757354
 21
352.5551138695
 31
0.0
  0
LINE
  5
142
330
C7
100
AcDbEntity
  8
DV2_Standard
  6
CENTER2
 62
     7
100
AcDbLine
 10
161.1686752883
 20
372.5551134224
 30
0.0
 11
161.1686752883
 21
332.5551143165
 31
0.0
  0
ENDBLK
  5
144
330
C7
100
AcDbEntity
  8
0
100
AcDbBlockEnd
  0
BLOCK
  5
178
330
145
100
AcDbEntity
  8
0
100
AcDbBlockBegin
  2
SE2
 70
     0
 10
0.0
 20
0.0
 30
0.0
  3
SE2
  1

  0
SPLINE
  5
147
330
145
100
AcDbEntity
  8
$DDT_AUDIT_GENERATED_(60)
  6
Continuous
 62
     7
100
AcDbSpline
210
0.0
220
0.0
230
1.0
 70
     8
 71
     3
 72
     9
 73
     5
 74
     0
 42
0.0000000006741919
 43
0.0000000001
 40
0.4644299113002667
 40
0.4644299113002667
 40
0.4644299113002667
 40
0.4644299113002667
 40
0.601311996433529
 40
0.7156897866619516
 40
0.7156897866619516
 40
0.7156897866619516
 40
0.7156897866619516
 10
12.48621548828241
 20
203.1242942020436
 30
0.0
 10
12.46229344466218
 20
203.8709230647273
 30
0.0
 10
12.41912607468313
 20
205.209602295752
 30
0.0
 10
12.38099721568348
 20
206.3820839387215
 30
0.0
 10
12.36578222772471
 20
206.8491778239338
 30
0.0
  0
SPLINE
  5
148
330
145
100
AcDbEntity
  8
$DDT_AUDIT_GENERATED_(60)
  6
Continuous
 62
     7
100
AcDbSpline
210
0.0
220
0.0
230
1.0
 70
     8
 71
     3
 72
     8
 73
     4
 74
     0
 42
0.0000000016167022
 43
0.0000000001
 40
0.8547799572772694
 40
0.8547799572772694
 40
0.8547799572772694
 40
0.8547799572772694
 40
0.8562967123518507
 40
0.8562967123518507
 40
0.8562967123518507
 40
0.8562967123518507
 10
12.32273049373755
 20
208.1691437177359
 30
0.0
 10
12.32262783045508
 20
208.1722892477627
 30
0.0
 10
12.32252581729888
 20
208.1754148612796
 30
0.0
 10
12.32242445591857
 20
208.1785205086657
 30
0.0
  0
SPLINE
  5
149
330
145
100
AcDbEntity
  8
$DDT_AUDIT_GENERATED_(60)
  6
Continuous
 62
     7
100
AcDbSpline
210
0.0
220
0.0
230
1.0
 70
     8
 71
     3
 72
    39
 73
    35
 74
     0
 42
0.0000000000502908
 43
0.0000000001
 40
0.0
 40
0.0
 40
0.0
 40
0.0
 40
0.0542662149070053
 40
0.1177009397156633
 40
0.179874580210828
 40
0.2353071120359184
 40
0.2569753809249736
 40
0.2823241035358512
 40
0.3261423245398445
 40
0.3537400165702518
 40
0.3730490631137937
 40
0.3888696965031759
 40
0.3996164583584211
 40
0.4264424716036745
 40
0.4556468877954609
 40
0.4799099544884028
 40
0.5012493664585331
 40
0.5065801551348287
 40
0.5194101173601231
 40
0.5384656240292433
 40
0.551530949822097
 40
0.576193727767283
 40
0.5950488514722565
 40
0.6076808180311618
 40
0.6141789544408881
 40
0.6292646216597279
 40
0.6484362651019937
 40
0.6758316892925913
 40
0.7145583188705789
 40
0.7660642233412679
 40
0.8212554318232316
 40
0.8829855866035397
 40
0.9410963597829534
 40
1.0
 40
1.0
 40
1.0
 40
1.0
 10
51.59797077590287
 20
195.2241941476121
 30
0.0
 10
51.49073427726103
 20
191.6367290920497
 30
0.0
 10
51.25814321330731
 20
183.8556813635431
 30
0.0
 10
50.94615179787665
 20
171.9635196960898
 30
0.0
 10
50.68248272960228
 20
159.9932998789479
 30
0.0
 10
50.53176930224331
 20
150.7841315975835
 30
0.0
 10
50.45368384409314
 20
144.0097392485406
 30
0.0
 10
50.40166341720579
 20
138.0031815287527
 30
0.0
 10
50.37788530771605
 20
131.6043549640248
 30
0.0
 10
50.30644190113593
 20
125.6071128091385
 30
0.0
 10
50.04294930983136
 20
121.4627931017243
 30
0.0
 10
49.37719960422614
 20
118.4816414352747
 30
0.0
 10
47.96626248168793
 20
115.2316690334486
 30
0.0
 10
45.34214781162847
 20
111.6058090802098
 30
0.0
 10
41.09214894745691
 20
108.2600420768171
 30
0.0
 10
36.34418879672543
 20
106.6252898146889
 30
0.0
 10
32.9609417073153
 20
106.35
 30
0.0
 10
30.34983331479294
 20
106.4437959734018
 30
0.0
 10
27.89993015738627
 20
106.7415485719756
 30
0.0
 10
25.02915566352531
 20
107.6154560547468
 30
0.0
 10
21.7077246064879
 20
109.3984908306913
 30
0.0
 10
18.85183952224758
 20
111.8950182923258
 30
0.0
 10
16.62781840348874
 20
114.8937461188757
 30
0.0
 10
15.49287517457613
 20
117.1473749207774
 30
0.0
 10
14.74298573003922
 20
119.2857334808924
 30
0.0
 10
14.23410491364777
 20
121.9469406704366
 30
0.0
 10
14.00921078365594
 20
126.0203455015309
 30
0.0
 10
13.94797863621217
 20
131.6590748585465
 30
0.0
 10
13.91589612356203
 20
139.4373030817198
 30
0.0
 10
13.82201099513509
 20
149.0535511911583
 30
0.0
 10
13.63965467492621
 20
160.1905737469451
 30
0.0
 10
13.38570737925776
 20
171.7633340618678
 30
0.0
 10
13.07941335298774
 20
183.5808206075539
 30
0.0
 10
12.84945211433146
 20
191.3165402278701
 30
0.0
 10
12.73369240855482
 20
195.2106079083613
 30
0.0
  0
ARC
  5
14A
330
145
100
AcDbEntity
  8
$DDT_AUDIT_GENERATED_(60)
  6
Continuous
 62
     7
100
AcDbCircle
 10
6875.213600384
 20
-14.029542953
 30
0.0
 40
6826.823374536875
100
AcDbArc
 50
178.1346026101
 51
178.1346794397
  0
ARC
  5
14B
330
145
100
AcDbEntity
  8
$DDT_AUDIT_GENERATED_(60)
  6
Continuous
 62
     7
100
AcDbCircle
 10
6875.213600384
 20
-14.029542953
 30
0.0
 40
6826.823374536875
100
AcDbArc
 50
178.1457731441
 51
178.1770640597
  0
ARC
  5
14C
330
145
100
AcDbEntity
  8
$DDT_AUDIT_GENERATED_(60)
  6
Continuous
 62
     7
100
AcDbCircle
 10
6875.213600384
 20
-14.029542953
 30
0.0
 40
6826.823374536875
100
AcDbArc
 50
178.2105522221
 51
178.2435118786
  0
ARC
  5
14D
330
145
100
AcDbEntity
  8
$DDT_AUDIT_GENERATED_(60)
  6
Continuous
 62
     7
100
AcDbCircle
 10
50.9616072113
 20
256.2553866501
 30
0.0
 40
61.03451004855429
100
AcDbArc
 50
270.4194505686
 51
270.5973932958
  0
ELLIPSE
  5
14E
330
145
100
AcDbEntity
  8
$DDT_AUDIT_GENERATED_(60)
  6
Continuous
 62
     7
100
AcDbEllipse
 10
16.6121912822
 20
195.3287233872
 30
0.0
 11
-3.878498873685861
 21
-0.1181154788135082
 31
0.0
210
0.0
220
0.0
230
1.0
 40
0.0124047701
 41
0.0
 42
0.3478975175928938
  0
SPLINE
  5
14F
330
145
100
AcDbEntity
  8
$DDT_AUDIT_GENERATED_(60)
  6
Continuous
 62
     7
100
AcDbSpline
210
0.0
220
0.0
230
1.0
 70
     8
 71
     3
 72
     8
 73
     4
 74
     0
 42
0.0000000001584211
 43
0.0000000001
 40
0.9993697868289048
 40
0.9993697868289048
 40
0.9993697868289048
 40
0.9993697868289048
 40
1.0
 40
1.0
 40
1.0
 40
1.0
 10
52.17085629403538
 20
214.433392053495
 30
0.0
 10
52.17089943897884
 20
214.4201340469907
 30
0.0
 10
52.17092953824601
 20
214.4068737941504
 30
0.0
 10
52.17094658793813
 20
214.3936112947207
 30
0.0
  0
SPLINE
  5
150
330
145
100
AcDbEntity
  8
$DDT_AUDIT_GENERATED_(60)
  6
Continuous
 62
     7
100
AcDbSpline
210
0.0
220
0.0
230
1.0
 70
     8
 71
     3
 72
    12
 73
     8
 74
     0
 42
0.0000000016951773
 43
0.0000000001
 40
0.0
 40
0.0
 40
0.0
 40
0.0
 40
0.25
 40
0.25
 40
0.5
 40
0.5
 40
1.0
 40
1.0
 40
1.0
 40
1.0
 10
52.17094658793813
 20
214.3936112947207
 30
0.0
 10
52.16796812530085
 20
213.9020272687957
 30
0.0
 10
52.16319884022749
 20
213.410472438034
 30
0.0
 10
52.14023427469574
 20
212.4275816559031
 30
0.0
 10
52.12573912068305
 20
211.9361880730715
 30
0.0
 10
52.08128640512012
 20
210.4620797938395
 30
0.0
 10
52.04954537495319
 20
209.4794060153363
 30
0.0
 10
52.01792076263433
 20
208.4967286393874
 30
0.0
  0
SPLINE
  5
151
330
145
100
AcDbEntity
  8
$DDT_AUDIT_GENERATED_(60)
  6
Continuous
 62
     7
100
AcDbSpline
210
0.0
220
0.0
230
1.0
 70
     8
 71
     3
 72
    12
 73
     8
 74
     0
 42
0.0000000016908809
 43
0.0000000001
 40
0.0
 40
0.0
 40
0.0
 40
0.0
 40
0.5
 40
0.5
 40
0.75
 40
0.75
 40
1.0
 40
1.0
 40
1.0
 40
1.0
 10
12.31252125979532
 20
208.4819790711625
 30
0.0
 10
12.2803759367712
 20
209.4671273041491
 30
0.0
 10
12.24798408253205
 20
210.4522721379545
 30
0.0
 10
12.20194500481367
 20
211.9300535034305
 30
0.0
 10
12.18681969010416
 20
212.4226526508214
 30
0.0
 10
12.16209345191316
 20
213.4079848763283
 30
0.0
 10
12.15575281797158
 20
213.9007969953601
 30
0.0
 10
12.15276642172887
 20
214.3936904329423
 30
0.0
  0
LINE
  5
152
330
145
100
AcDbEntity
  8
$DDT_AUDIT_GENERATED_(60)
  6
Continuous
 62
     7
100
AcDbLine
 10
12.1506513224
 20
214.7427796034
 30
0.0
 11
12.1527663555
 21
214.393701363
 31
0.0
  0
ARC
  5
153
330
145
100
AcDbEntity
  8
$DDT_AUDIT_GENERATED_(60)
  6
Continuous
 62
     7
100
AcDbCircle
 10
-326.6289644604
 20
219.2392498184
 30
0.0
 40
378.7964313701401
100
AcDbArc
 50
358.1278216112
 51
358.3058356905
  0
ARC
  5
154
330
145
100
AcDbEntity
  8
$DDT_AUDIT_GENERATED_(60)
  6
Continuous
 62
     7
100
AcDbCircle
 10
24.0831235805
 20
209.0976672592
 30
0.0
 40
27.93966754639138
100
AcDbArc
 50
357.0254485968
 51
358.1347713862
  0
ARC
  5
155
330
145
100
AcDbEntity
  8
$DDT_AUDIT_GENERATED_(60)
  6
Continuous
 62
     7
100
AcDbCircle
 10
815.4671106843
 20
176.9890173083
 30
0.0
 40
764.0691971115322
100
AcDbArc
 50
178.0387940726
 51
178.338005225
  0
ARC
  5
156
330
145
100
AcDbEntity
  8
$DDT_AUDIT_GENERATED_(60)
  6
Continuous
 62
     7
100
AcDbCircle
 10
40.3306512578
 20
209.0956970578
 30
0.0
 40
28.02324124623794
100
AcDbArc
 50
181.8871556656
 51
182.9960352424
  0
ARC
  5
157
330
145
100
AcDbEntity
  8
$DDT_AUDIT_GENERATED_(60)
  6
Continuous
 62
     7
100
AcDbCircle
 10
-7.1788205454
 20
207.0700795939
 30
0.0
 40
19.53772928138409
100
AcDbArc
 50
3.542702662
 51
3.5437494601
  0
ARC
  5
158
330
145
100
AcDbEntity
  8
$DDT_AUDIT_GENERATED_(60)
  6
Continuous
 62
     7
100
AcDbCircle
 10
-143.6962107456
 20
193.2276243202
 30
0.0
 40
156.4956687549104
100
AcDbArc
 50
0.7237121802
 51
3.6257619873
  0
LINE
  5
159
330
145
100
AcDbEntity
  8
$DDT_AUDIT_GENERATED_(7C)
  6
Continuous
 62
     7
100
AcDbLine
 10
52.1519875159
 20
214.4317224172
 30
0.0
 11
52.1519875159
 21
214.4604989447
 31
0.0
  0
SPLINE
  5
15A
330
145
100
AcDbEntity
  8
$DDT_AUDIT_GENERATED_(7C)
  6
Continuous
 62
     7
100
AcDbSpline
210
0.0
220
0.0
230
1.0
 70
     8
 71
     3
 72
    60
 73
    56
 74
     0
 42
0.0000000000547264
 43
0.0000000001
 40
0.0
 40
0.0
 40
0.0
 40
0.0
 40
0.03125
 40
0.03125
 40
0.0624999999999999
 40
0.0624999999999999
 40
0.1249999999999999
 40
0.1249999999999999
 40
0.2499999999999998
 40
0.2499999999999998
 40
0.3124999999999998
 40
0.3124999999999998
 40
0.3437499999999996
 40
0.3437499999999996
 40
0.3749999999999996
 40
0.3749999999999996
 40
0.3906249999999995
 40
0.3906249999999995
 40
0.4062499999999994
 40
0.4062499999999994
 40
0.4374999999999991
 40
0.4374999999999991
 40
0.453124999999999
 40
0.453124999999999
 40
0.4687499999999989
 40
0.4687499999999989
 40
0.4999999999999986
 40
0.4999999999999986
 40
0.5156249999999984
 40
0.5156249999999984
 40
0.5312499999999983
 40
0.5312499999999983
 40
0.562499999999998
 40
0.562499999999998
 40
0.5937499999999978
 40
0.5937499999999978
 40
0.6093749999999977
 40
0.6093749999999977
 40
0.6249999999999976
 40
0.6249999999999976
 40
0.6562499999999976
 40
0.6562499999999976
 40
0.6874999999999978
 40
0.6874999999999978
 40
0.7499999999999983
 40
0.7499999999999983
 40
0.8749999999999991
 40
0.8749999999999991
 40
0.9374999999999996
 40
0.9374999999999996
 40
0.9687499999999997
 40
0.9687499999999997
 40
0.9843749999999998
 40
0.9843749999999998
 40
1.0
 40
1.0
 40
1.0
 40
1.0
 10
52.15198751591112
 20
214.4317224172481
 30
0.0
 10
52.14299096444852
 20
212.5223038970857
 30
0.0
 10
52.06469124886879
 20
210.6119146760032
 30
0.0
 10
51.90403270550406
 20
206.7970534101806
 30
0.0
 10
51.81483447150116
 20
204.8902030242554
 30
0.0
 10
51.53942046664132
 20
199.1703517922676
 30
0.0
 10
51.3437773306437
 20
195.3582274164542
 30
0.0
 10
50.76991637988553
 20
183.9220562391456
 30
0.0
 10
50.4049673924083
 20
176.2974316602263
 30
0.0
 10
50.01474178641839
 20
164.8499378122892
 30
0.0
 10
49.92117221544897
 20
161.0323481024407
 30
0.0
 10
49.75201288146428
 20
155.3052474065104
 30
0.0
 10
49.69198647513017
 20
153.3945012975367
 30
0.0
 10
49.44595141439935
 20
149.5836508418297
 30
0.0
 10
49.2687773738763
 20
147.675520276742
 30
0.0
 10
48.59371212931723
 20
144.8769886942966
 30
0.0
 10
48.29895337720338
 20
143.9721281446438
 30
0.0
 10
47.52820560093272
 20
142.2358795105547
 30
0.0
 10
47.04603175097512
 20
141.3966417755503
 30
0.0
 10
45.37826860979089
 20
139.0511430134954
 30
0.0
 10
43.99701848299054
 20
137.6934810219684
 30
0.0
 10
41.70764196615175
 20
135.9595972419135
 30
0.0
 10
40.9088251469427
 20
135.4391151050185
 30
0.0
 10
39.22462660641673
 20
134.5382383296095
 30
0.0
 10
38.32741085958388
 20
134.1564977433542
 30
0.0
 10
35.5802689915432
 20
133.284512569282
 30
0.0
 10
33.66543577315241
 20
133.043241384392
 30
0.0
 10
30.77696438074289
 20
133.1079616284768
 30
0.0
 10
29.82479413879999
 20
133.2020659770884
 30
0.0
 10
27.94354311848605
 20
133.5481582307329
 30
0.0
 10
27.00502552138676
 20
133.8051789226586
 30
0.0
 10
24.30749626289418
 20
134.8279610943396
 30
0.0
 10
22.67050943547357
 20
135.8405361167587
 30
0.0
 10
19.70665573176489
 20
138.2851059214618
 30
0.0
 10
18.38369263552998
 20
139.6953924624373
 30
0.0
 10
16.85418308971557
 20
142.1262627620809
 30
0.0
 10
16.43287235413296
 20
142.9771821303121
 30
0.0
 10
15.76187880224086
 20
144.757432585838
 30
0.0
 10
15.51087890171243
 20
145.6939451790936
 30
0.0
 10
14.95516420928711
 20
148.497809372264
 30
0.0
 10
14.81279838654227
 20
150.3804255085057
 30
0.0
 10
14.60393914020158
 20
154.1482032584198
 30
0.0
 10
14.54855478263526
 20
156.0342068798286
 30
0.0
 10
14.38750414812331
 20
161.6914674429148
 30
0.0
 10
14.29029611867932
 20
165.4626163010492
 30
0.0
 10
13.8977047099845
 20
176.7691620322772
 30
0.0
 10
13.53520600702252
 20
184.2992535312062
 30
0.0
 10
12.96791871165762
 20
195.5940705288951
 30
0.0
 10
12.77488369718294
 20
199.3591089331662
 30
0.0
 10
12.50336067578273
 20
205.0082788280969
 30
0.0
 10
12.41545733256389
 20
206.8915611838686
 30
0.0
 10
12.29682504701492
 20
209.7173282166802
 30
0.0
 10
12.25925569178388
 20
210.6593670779393
 30
0.0
 10
12.19683306071484
 20
212.5443511962698
 30
0.0
 10
12.17622424898875
 20
213.4770135442331
 30
0.0
 10
12.17172597324712
 20
214.4317224172481
 30
0.0
  0
LINE
  5
15B
330
145
100
AcDbEntity
  8
$DDT_AUDIT_GENERATED_(7C)
  6
Continuous
 62
     7
100
AcDbLine
 10
12.1717259732
 20
214.4604989447
 30
0.0
 11
12.1717259732
 21
214.4317224172
 31
0.0
  0
ARC
  5
15C
330
145
100
AcDbEntity
  8
$DDT_AUDIT_GENERATED_(7C)
  6
Continuous
 62
     7
100
AcDbCircle
 10
32.1618567446
 20
214.5568343915
 30
0.0
 40
19.99036289748798
100
AcDbArc
 50
359.7238851585
 51
180.2761148415
  0
LINE
  5
15D
330
145
100
AcDbEntity
  8
$DDT_AUDIT_GENERATED_(116)
  6
Continuous
 62
     7
100
AcDbLine
 10
33.8868567446
 20
234.4804631384
 30
0.0
 11
33.8868567446
 21
234.5602128615
 31
0.0
  0
LINE
  5
15E
330
145
100
AcDbEntity
  8
$DDT_AUDIT_GENERATED_(116)
  6
Continuous
 62
     7
100
AcDbLine
 10
30.4368567446
 20
234.5516772283
 30
0.0
 11
30.4368567446
 21
234.4850808388
 31
0.0
  0
ARC
  5
15F
330
145
100
AcDbEntity
  8
$DDT_AUDIT_GENERATED_(11A)
  6
Continuous
 62
     7
100
AcDbCircle
 10
32.1604636878
 20
208.8456739767
 30
0.0
 40
25.77317116583376
100
AcDbArc
 50
71.8917518226
 51
108.0461670129
  0
SPLINE
  5
160
330
145
100
AcDbEntity
  8
$DDT_AUDIT_GENERATED_(11A)
  6
Continuous
 62
     7
100
AcDbSpline
210
0.0
220
0.0
230
1.0
 70
     8
 71
     3
 72
    12
 73
     8
 74
     0
 42
0.0000000031905785
 43
0.0000000001
 40
0.0
 40
0.0
 40
0.0
 40
0.0
 40
0.25
 40
0.25
 40
0.5
 40
0.5
 40
0.62862240267959
 40
0.62862240267959
 40
0.62862240267959
 40
0.62862240267959
 10
24.17636764825586
 20
233.3509909991906
 30
0.0
 10
23.87106227037943
 20
233.2513126433255
 30
0.0
 10
23.58223672102887
 20
233.1549854011993
 30
0.0
 10
23.03733896776249
 20
232.9728853419686
 30
0.0
 10
22.79598715962559
 20
232.8920553051568
 30
0.0
 10
22.48107718748412
 20
232.7919089469967
 30
0.0
 10
22.38605361492358
 20
232.7627986542439
 30
0.0
 10
22.30359346317986
 20
232.7393327154264
 30
0.0
  0
SPLINE
  5
161
330
145
100
AcDbEntity
  8
$DDT_AUDIT_GENERATED_(11A)
  6
Continuous
 62
     7
100
AcDbSpline
210
0.0
220
0.0
230
1.0
 70
     8
 71
     3
 72
    10
 73
     6
 74
     0
 42
0.0000000031026062
 43
0.0000000001
 40
0.4251581907649555
 40
0.4251581907649555
 40
0.4251581907649555
 40
0.4251581907649555
 40
0.5
 40
0.5
 40
1.0
 40
1.0
 40
1.0
 40
1.0
 10
41.93056176352324
 20
232.762089714803
 30
0.0
 10
41.87692041561436
 20
232.7782512766665
 30
0.0
 10
41.81925693635316
 20
232.7962051248355
 30
0.0
 10
41.34741022945404
 20
232.9468298149533
 30
0.0
 10
40.77951602726532
 20
233.1429254719013
 30
0.0
 10
40.17110705424236
 20
233.3423256825256
 30
0.0
  0
SPLINE
  5
162
330
145
100
AcDbEntity
  8
$DDT_AUDIT_GENERATED_(11A)
  6
Continuous
 62
     7
100
AcDbSpline
210
0.0
220
0.0
230
1.0
 70
     8
 71
     3
 72
     8
 73
     4
 74
     0
 42
0.0000000001894099
 43
0.0000000001
 40
0.0
 40
0.0
 40
0.0
 40
0.0
 40
0.0645832845613569
 40
0.0645832845613569
 40
0.0645832845613569
 40
0.0645832845613569
 10
42.83146272911609
 20
233.0062500342176
 30
0.0
 10
42.80051144176942
 20
234.1425056610977
 30
0.0
 10
42.76577807914253
 20
235.2784767582493
 30
0.0
 10
42.73219838246883
 20
236.414511927853
 30
0.0
  0
SPLINE
  5
163
330
145
100
AcDbEntity
  8
$DDT_AUDIT_GENERATED_(11A)
  6
Continuous
 62
     7
100
AcDbSpline
210
0.0
220
0.0
230
1.0
 70
     8
 71
     3
 72
     8
 73
     4
 74
     0
 42
0.0000000001848686
 43
0.0000000001
 40
0.9019537128421136
 40
0.9019537128421136
 40
0.9019537128421136
 40
0.9019537128421136
 40
1.0
 40
1.0
 40
1.0
 40
1.0
 10
21.67470405255958
 20
238.3193760275769
 30
0.0
 10
21.62535836665291
 20
236.5521528571597
 30
0.0
 10
21.56553182651694
 20
234.7853866068689
 30
0.0
 10
21.51390402695009
 20
233.0182644563366
 30
0.0
  0
SPLINE
  5
164
330
145
100
AcDbEntity
  8
$DDT_AUDIT_GENERATED_(11A)
  6
Continuous
 62
     7
100
AcDbSpline
210
0.0
220
0.0
230
1.0
 70
     8
 71
     3
 72
    30
 73
    26
 74
     0
 42
0.0000000001848761
 43
0.0000000001
 40
0.0
 40
0.0
 40
0.0
 40
0.0
 40
0.1250000000000002
 40
0.1250000000000002
 40
0.2500000000000002
 40
0.2500000000000002
 40
0.3125000000000003
 40
0.3125000000000003
 40
0.3750000000000003
 40
0.3750000000000003
 40
0.4375000000000003
 40
0.4375000000000003
 40
0.5000000000000002
 40
0.5000000000000002
 40
0.5625000000000003
 40
0.5625000000000003
 40
0.6250000000000003
 40
0.6250000000000003
 40
0.6875000000000004
 40
0.6875000000000004
 40
0.7500000000000006
 40
0.7500000000000006
 40
0.8750000000000003
 40
0.8750000000000003
 40
1.0
 40
1.0
 40
1.0
 40
1.0
 10
21.5126930647595
 20
232.9767859645678
 30
0.0
 10
21.57827123124139
 20
235.2245053025312
 30
0.0
 10
21.65725267914372
 20
237.471466473189
 30
0.0
 10
21.76522551424779
 20
241.9657498537337
 30
0.0
 10
21.73039438583169
 20
244.2495050047776
 30
0.0
 10
22.55643165750669
 20
247.4945836731986
 30
0.0
 10
22.99469156437771
 20
248.5543409012001
 30
0.0
 10
24.19503988261722
 20
250.4380667837092
 30
0.0
 10
24.96574043756135
 20
251.2914893179236
 30
0.0
 10
26.73246178193904
 20
252.6516390567274
 30
0.0
 10
27.76620803892845
 20
253.161270412629
 30
0.0
 10
29.91997309209608
 20
253.7802060475243
 30
0.0
 10
31.05469474143543
 20
253.9196493226784
 30
0.0
 10
33.28620634547799
 20
253.9183041320692
 30
0.0
 10
34.4193004680234
 20
253.7777188420506
 30
0.0
 10
36.57243240044542
 20
253.1576036848618
 30
0.0
 10
37.60517598613028
 20
252.6492655373552
 30
0.0
 10
39.37904863086883
 20
251.2868379750468
 30
0.0
 10
40.15050295746725
 20
250.4355085264357
 30
0.0
 10
41.35688920564581
 20
248.5483487686604
 30
0.0
 10
41.79606579043838
 20
247.4883693247895
 30
0.0
 10
42.62400411632625
 20
244.2438395272856
 30
0.0
 10
42.5895191905322
 20
241.9587888249443
 30
0.0
 10
42.69544630951684
 20
237.462382473188
 30
0.0
 10
42.7714276699546
 20
235.2142817617586
 30
0.0
 10
42.83257443514947
 20
232.9653994640987
 30
0.0
  0
LINE
  5
165
330
145
100
AcDbEntity
  8
$DDT_AUDIT_GENERATED_(11A)
  6
Continuous
 62
     7
100
AcDbLine
 10
21.513904027
 20
233.0182644563
 30
0.0
 11
21.5126930648
 21
232.9767859646
 31
0.0
  0
LINE
  5
166
330
145
100
AcDbEntity
  8
$DDT_AUDIT_GENERATED_(11A)
  6
Continuous
 62
     7
100
AcDbLine
 10
42.8325744351
 20
232.9653994641
 30
0.0
 11
42.8314627291
 21
233.0062500342
 31
0.0
  0
SPLINE
  5
167
330
145
100
AcDbEntity
  8
$DDT_AUDIT_GENERATED_(11A)
  6
Continuous
 62
     7
100
AcDbSpline
210
0.0
220
0.0
230
1.0
 70
     8
 71
     3
 72
    18
 73
    14
 74
     0
 42
0.0000000092723884
 43
0.0000000001
 40
0.0
 40
0.0
 40
0.0
 40
0.0
 40
0.0312649772846217
 40
0.1990319730497978
 40
0.3707785457021618
 40
0.5562465377398134
 40
0.6557508556574029
 40
0.7190657818957206
 40
0.780236366987028
 40
0.8411012001482326
 40
0.9027623502674877
 40
0.9693953831471755
 40
1.0
 40
1.0
 40
1.0
 40
1.0
 10
41.96412313590983
 20
232.7491010801126
 30
0.0
 10
41.97740120645031
 20
232.7449610046086
 30
0.0
 10
42.0497943382354
 20
232.7224227660533
 30
0.0
 10
42.17154818950562
 20
232.688205311011
 30
0.0
 10
42.31815924005578
 20
232.6521729053837
 30
0.0
 10
42.42505504125042
 20
232.6349244460228
 30
0.0
 10
42.51545387351408
 20
232.6334988669242
 30
0.0
 10
42.59088740195264
 20
232.6454266057644
 30
0.0
 10
42.66672129377492
 20
232.6737087227904
 30
0.0
 10
42.74372821624457
 20
232.7294978784135
 30
0.0
 10
42.80454682934558
 20
232.8127823279678
 30
0.0
 10
42.83331992388045
 20
232.9013338259006
 30
0.0
 10
42.83064004324552
 20
232.947974003422
 30
0.0
 10
42.82941638956729
 20
232.9651872426689
 30
0.0
  0
SPLINE
  5
168
330
145
100
AcDbEntity
  8
$DDT_AUDIT_GENERATED_(11A)
  6
Continuous
 62
     7
100
AcDbSpline
210
0.0
220
0.0
230
1.0
 70
     8
 71
     3
 72
    18
 73
    14
 74
     0
 42
0.0000000102754091
 43
0.0000000001
 40
0.0
 40
0.0
 40
0.0
 40
0.0
 40
0.0502268984376981
 40
0.1189189143537144
 40
0.1879474180717723
 40
0.250548001625258
 40
0.3127412713350058
 40
0.3803407325330039
 40
0.4627115317639074
 40
0.5782155413401426
 40
0.7769688696501247
 40
0.9588175403358105
 40
1.0
 40
1.0
 40
1.0
 40
1.0
 10
21.51546478504963
 20
232.9752633999595
 30
0.0
 10
21.51495323246898
 20
232.9491828126197
 30
0.0
 10
21.51488540858912
 20
232.8967394668485
 30
0.0
 10
21.55078707575887
 20
232.805346026883
 30
0.0
 10
21.61335408239337
 20
232.7295792142303
 30
0.0
 10
21.68721032940512
 20
232.6806881025291
 30
0.0
 10
21.75736417660017
 20
232.6555983845977
 30
0.0
 10
21.82184451312182
 20
232.6453889712471
 30
0.0
 10
21.88720714324847
 20
232.6444781750468
 30
0.0
 10
21.9732855681819
 20
232.6530900851176
 30
0.0
 10
22.08627599577841
 20
232.6765351598161
 30
0.0
 10
22.19923624839419
 20
232.7053268975502
 30
0.0
 10
22.26702074486575
 20
232.725536960812
 30
0.0
 10
22.28165552065785
 20
232.7299104987584
 30
0.0
  0
SPLINE
  5
169
330
145
100
AcDbEntity
  8
$DDT_AUDIT_GENERATED_(AE)
  6
Continuous
 62
     7
100
AcDbSpline
210
0.0
220
0.0
230
1.0
 70
     8
 71
     3
 72
    12
 73
     8
 74
     0
 42
0.0000000016769824
 43
0.0000000001
 40
0.0
 40
0.0
 40
0.0
 40
0.0
 40
0.5000000000000003
 40
0.5000000000000003
 40
0.7500000000000002
 40
0.7500000000000002
 40
1.0
 40
1.0
 40
1.0
 40
1.0
 10
9.811261640475335
 20
208.4374044107956
 30
0.0
 10
9.7793111699341
 20
209.4307219077029
 30
0.0
 10
9.747287814714289
 20
210.4240372441917
 30
0.0
 10
9.7025077885316
 20
211.9141067325353
 30
0.0
 10
9.687985893246791
 20
212.4108085603139
 30
0.0
 10
9.66454182504653
 20
213.4043782006109
 30
0.0
 10
9.658199184171483
 20
213.9012835744536
 30
0.0
 10
9.649228688134261
 20
214.398183309788
 30
0.0
  0
SPLINE
  5
16A
330
145
100
AcDbEntity
  8
$DDT_AUDIT_GENERATED_(AE)
  6
Continuous
 62
     7
100
AcDbSpline
210
0.0
220
0.0
230
1.0
 70
     8
 71
     3
 72
    16
 73
    12
 74
     0
 42
0.0000000001408233
 43
0.0000000001
 40
0.0
 40
0.0
 40
0.0
 40
0.0
 40
0.125
 40
0.125
 40
0.1875
 40
0.1875
 40
0.25
 40
0.25
 40
0.3124999999999999
 40
0.3124999999999999
 40
0.3435036902530713
 40
0.3435036902530713
 40
0.3435036902530713
 40
0.3435036902530713
 10
9.649228688134261
 20
214.398183309788
 30
0.0
 10
9.669190120995992
 20
217.3724067350626
 30
0.0
 10
10.27296522085986
 20
220.3256286562563
 30
0.0
 10
11.9677205029288
 20
224.3848446011894
 30
0.0
 10
12.67025580937781
 20
225.6954654916555
 30
0.0
 10
14.31527137975029
 20
228.1547974525151
 30
0.0
 10
15.24523127511938
 20
229.2898518591276
 30
0.0
 10
17.31500075198021
 20
231.3751880416862
 30
0.0
 10
18.46817895318645
 20
232.3324730464144
 30
0.0
 10
20.28986008840836
 20
233.5667962821052
 30
0.0
 10
20.91093558628852
 20
233.9456849655904
 30
0.0
 10
21.54926485493092
 20
234.2938214391697
 30
0.0
  0
SPLINE
  5
16B
330
145
100
AcDbEntity
  8
$DDT_AUDIT_GENERATED_(AE)
  6
Continuous
 62
     7
100
AcDbSpline
210
0.0
220
0.0
230
1.0
 70
     8
 71
     3
 72
    18
 73
    14
 74
     0
 42
0.000000000141192
 43
0.0000000001
 40
0.6565320854915718
 40
0.6565320854915718
 40
0.6565320854915718
 40
0.6565320854915718
 40
0.6875
 40
0.6875
 40
0.75
 40
0.75
 40
0.8125000000000001
 40
0.8125000000000001
 40
0.8750000000000001
 40
0.8750000000000001
 40
0.9375000000000001
 40
0.9375000000000001
 40
1.0
 40
1.0
 40
1.0
 40
1.0
 10
42.79449629956746
 20
234.2817791585978
 30
0.0
 10
43.4368673866322
 20
233.9305277962231
 30
0.0
 10
44.06350554048053
 20
233.5475680186842
 30
0.0
 10
45.89170011036162
 20
232.3041017961102
 30
0.0
 10
47.01936275935545
 20
231.3647386772842
 30
0.0
 10
49.08956240208612
 20
229.2753635060575
 30
0.0
 10
50.03705093922463
 20
228.1138506450251
 30
0.0
 10
51.66658420254339
 20
225.66724974762
 30
0.0
 10
52.35909870613817
 20
224.3745213175527
 30
0.0
 10
53.49395644549104
 20
221.6469901524851
 30
0.0
 10
53.92897303166947
 20
220.2203211868822
 30
0.0
 10
54.5091152902326
 20
217.3459537767799
 30
0.0
 10
54.66045887031749
 20
215.884070021697
 30
0.0
 10
54.67160966842995
 20
214.3971117742719
 30
0.0
  0
SPLINE
  5
16C
330
145
100
AcDbEntity
  8
$DDT_AUDIT_GENERATED_(AE)
  6
Continuous
 62
     7
100
AcDbSpline
210
0.0
220
0.0
230
1.0
 70
    12
 71
     2
 72
     6
 73
     3
 74
     0
 42
0.0000000014752018
 43
0.0000000001
 40
0.0
 40
0.0
 40
0.0
 40
1.0
 40
1.0
 40
1.0
 10
11.85543429578778
 20
202.2672052118014
 30
0.0
 41
1.0
 10
9.920225682801709
 20
205.049789520231
 30
0.0
 41
0.9588811481416021
 10
9.811261640475335
 20
208.4374044107956
 30
0.0
 41
1.0
  0
SPLINE
  5
16D
330
145
100
AcDbEntity
  8
$DDT_AUDIT_GENERATED_(AE)
  6
Continuous
 62
     7
100
AcDbSpline
210
0.0
220
0.0
230
1.0
 70
     8
 71
     3
 72
     8
 73
     4
 74
     0
 42
0.0000000002084702
 43
0.0000000001
 40
0.0
 40
0.0
 40
0.0
 40
0.0
 40
0.0244358380707668
 40
0.0244358380707668
 40
0.0244358380707668
 40
0.0244358380707668
 10
52.47870442380704
 20
202.2822070517769
 30
0.0
 10
52.25575012443445
 20
201.9611271596807
 30
0.0
 10
52.0253100977065
 20
201.6455137313311
 30
0.0
 10
51.78761983849481
 20
201.3357289661245
 30
0.0
  0
SPLINE
  5
16E
330
145
100
AcDbEntity
  8
$DDT_AUDIT_GENERATED_(AE)
  6
Continuous
 62
     7
100
AcDbSpline
210
0.0
220
0.0
230
1.0
 70
     8
 71
     3
 72
     8
 73
     4
 74
     0
 42
0.0000000002081932
 43
0.0000000001
 40
0.9752338707523032
 40
0.9752338707523032
 40
0.9752338707523032
 40
0.9752338707523032
 40
1.0
 40
1.0
 40
1.0
 40
1.0
 10
12.55796623929525
 20
201.3075269745062
 30
0.0
 10
12.31614283051488
 20
201.6216168082919
 30
0.0
 10
12.08182996923317
 20
201.9416769745879
 30
0.0
 10
11.85543429578778
 20
202.2672052118014
 30
0.0
  0
SPLINE
  5
16F
330
145
100
AcDbEntity
  8
$DDT_AUDIT_GENERATED_(AE)
  6
Continuous
 62
     7
100
AcDbSpline
210
0.0
220
0.0
230
1.0
 70
     8
 71
     3
 72
    12
 73
     8
 74
     0
 42
0.0000000016819121
 43
0.0000000001
 40
0.0
 40
0.0
 40
0.0
 40
0.0
 40
0.2499999999999999
 40
0.2499999999999999
 40
0.4999999999999998
 40
0.4999999999999998
 40
1.0
 40
1.0
 40
1.0
 40
1.0
 10
54.67160966842995
 20
214.3971117742719
 30
0.0
 10
54.66554633644098
 20
213.9016771217944
 30
0.0
 10
54.66058679247239
 20
213.4061946926425
 30
0.0
 10
54.63899114108771
 20
212.4155144515192
 30
0.0
 10
54.62513636051558
 20
211.9202488444804
 30
0.0
 10
54.58201260960016
 20
210.4344900340897
 30
0.0
 10
54.55065708875819
 20
209.4440464699432
 30
0.0
 10
54.51924304455932
 20
208.4536090105875
 30
0.0
  0
SPLINE
  5
170
330
145
100
AcDbEntity
  8
$DDT_AUDIT_GENERATED_(AE)
  6
Continuous
 62
     7
100
AcDbSpline
210
0.0
220
0.0
230
1.0
 70
    12
 71
     2
 72
     6
 73
     3
 74
     0
 42
0.0000000014752634
 43
0.0000000001
 40
0.0
 40
0.0
 40
0.0
 40
1.0
 40
1.0
 40
1.0
 10
54.51924304455932
 20
208.4536090105875
 30
0.0
 41
1.0
 10
54.41179985844786
 20
205.0660873147511
 30
0.0
 41
0.9589212381710779
 10
52.47870442380704
 20
202.2822070517769
 30
0.0
 41
1.0
  0
LINE
  5
172
330
145
100
AcDbEntity
  8
DV3_Standard
  6
CENTER2
 62
     7
100
AcDbLine
 10
52.1618562975
 20
214.5568343915
 30
0.0
 11
12.1618571916
 21
214.5568343915
 31
0.0
  0
LINE
  5
173
330
145
100
AcDbEntity
  8
DV3_Standard
  6
CENTER2
 62
     7
100
AcDbLine
 10
32.1618567446
 20
234.5568339445
 30
0.0
 11
32.1618567446
 21
194.5568348386
 31
0.0
  0
LINE
  5
174
330
145
100
AcDbEntity
  8
DV3_Standard
  6
CENTER2
 62
     7
100
AcDbLine
 10
57.1618561858
 20
214.5568343915
 30
0.0
 11
55.6522196421
 21
214.5568343915
 31
0.0
  0
LINE
  5
175
330
145
100
AcDbEntity
  8
DV3_Standard
  6
CENTER2
 62
     7
100
AcDbLine
 10
32.1618567446
 20
239.5568338327
 30
0.0
 11
32.1618567446
 21
238.047197289
 31
0.0
  0
LINE
  5
176
330
145
100
AcDbEntity
  8
DV3_Standard
  6
CENTER2
 62
     7
100
AcDbLine
 10
7.1618573034
 20
214.5568343915
 30
0.0
 11
8.6714938471
 21
214.5568343915
 31
0.0
  0
LINE
  5
177
330
145
100
AcDbEntity
  8
DV3_Standard
  6
CENTER2
 62
     7
100
AcDbLine
 10
32.1618567446
 20
189.5568349503
 30
0.0
 11
32.1618567446
 21
191.066471494
 31
0.0
  0
ENDBLK
  5
179
330
145
100
AcDbEntity
  8
0
100
AcDbBlockEnd
  0
ENDSEC
  0
SECTION
  2
ENTITIES
  0
INSERT
  5
5F
330
1F
100
AcDbEntity
  8
Default
100
AcDbBlockReference
  2
SE
 10
0.0
 20
0.0
 30
0.0
  0
INSERT
  5
C8
330
1F
100
AcDbEntity
  8
Default
100
AcDbBlockReference
  2
SE1
 10
0.0
 20
0.0
 30
0.0
  0
INSERT
  5
146
330
1F
100
AcDbEntity
  8
Default
100
AcDbBlockReference
  2
SE2
 10
0.0
 20
0.0
 30
0.0
  0
TEXT
  5
17B
330
1F
100
AcDbEntity
  8
Default
  6
Continuous
 62
     7
100
AcDbText
 10
5.9362635081
 20
53.4225120485
 30
0.0
 40
10.0
  1
Grohe AG^J
  7
SEACAD_seiso_ttf
 11
5.9362635081
 21
63.4225120485
 31
0.0
100
AcDbText
 73
     3
  0
TEXT
  5
17C
330
1F
100
AcDbEntity
  8
Default
  6
Continuous
 62
     7
100
AcDbText
 10
5.9362635081
 20
37.0588756849
 30
0.0
 40
10.0
  1
 
  7
SEACAD_seiso_ttf
 11
5.9362635081
 21
47.0588756849
 31
0.0
100
AcDbText
 73
     3
  0
TEXT
  5
17D
330
1F
100
AcDbEntity
  8
Default
  6
Continuous
 62
     7
100
AcDbText
 10
5.9362635081
 20
20.6952393213
 30
0.0
 40
10.0
  1
ecn: 
  7
SEACAD_seiso_ttf
 11
5.9362635081
 21
30.6952393213
 31
0.0
100
AcDbText
 73
     3
  0
TEXT
  5
17E
330
1F
100
AcDbEntity
  8
Default
  6
Continuous
 62
     7
100
AcDbText
 10
5.9362635081
 20
4.3316029576
 30
0.0
 40
10.0
  1
unit: mm
  7
SEACAD_seiso_ttf
 11
5.9362635081
 21
14.3316029576
 31
0.0
100
AcDbText
 73
     3
  0
LINE
  5
17F
330
1F
100
AcDbEntity
  8
Default
  6
Continuous
 62
     7
100
AcDbLine
 10
0.0
 20
0.0
 30
0.0
 11
100.0
 21
0.0
 31
0.0
  0
LINE
  5
180
330
1F
100
AcDbEntity
  8
Default
  6
Continuous
 62
     7
100
AcDbLine
 10
0.0
 20
0.0
 30
0.0
 11
0.0
 21
100.0
 31
0.0
  0
TEXT
  5
181
330
1F
100
AcDbEntity
  8
Default
  6
Continuous
 62
     7
100
AcDbText
 10
24.3923665681
 20
-18.2375342018
 30
0.0
 40
10.0
  1
100 mm
  7
SEACAD_seiso_ttf
 11
24.3923665681
 21
-8.2375342018
 31
0.0
100
AcDbText
 73
     3
  0
TEXT
  5
182
330
1F
100
AcDbEntity
  8
Default
  6
Continuous
 62
     7
100
AcDbText
 10
-7.6150308803
 20
24.6231930421
 30
0.0
 40
10.0
  1
100 mm
 50
90.0
  7
SEACAD_seiso_ttf
 11
-17.6150308803
 21
24.6231930421
 31
0.0
100
AcDbText
 73
     3
  0
TEXT
  5
183
330
1F
100
AcDbEntity
  8
Default
  6
Continuous
 62
     7
100
AcDbText
 10
28.4878128572
 20
20.0907663715
 30
0.0
 40
10.0
  1
215572
  7
SEACAD_seiso_ttf
 11
28.4878128572
 21
30.0907663715
 31
0.0
100
AcDbText
 73
     3
  0
TEXT
  5
184
330
1F
100
AcDbEntity
  8
Default
  6
Continuous
 62
     7
100
AcDbText
 10
5.9012241913
 20
36.7242780188
 30
0.0
 40
10.0
  1
33156002
  7
SEACAD_seiso_ttf
 11
5.9012241913
 21
46.7242780188
 31
0.0
100
AcDbText
 73
     3
  0
ENDSEC
  0
SECTION
  2
OBJECTS
  0
DICTIONARY
  5
C
330
0
100
AcDbDictionary
281
     1
  3
ACAD_GROUP
350
D
  3
ACAD_LAYOUT
350
1A
  3
ACAD_MLEADERSTYLE
350
188
  3
ACAD_MLINESTYLE
350
17
  3
ACAD_PLOTSETTINGS
350
19
  3
ACAD_PLOTSTYLENAME
350
E
  3
ACAD_SCALELIST
350
3B
  3
ACAD_TABLESTYLE
350
187
  3
ACAD_VISUALSTYLE
350
2A
  3
AcDbVariableDictionary
350
185
  0
DICTIONARY
  5
D
102
{ACAD_REACTORS
330
C
102
}
330
C
100
AcDbDictionary
281
     1
  0
DICTIONARY
  5
1A
102
{ACAD_REACTORS
330
C
102
}
330
C
100
AcDbDictionary
281
     1
  3
Layout1
350
1E
  3
Model
350
22
  0
DICTIONARY
  5
188
102
{ACAD_REACTORS
330
C
102
}
330
C
100
AcDbDictionary
281
     1
  0
DICTIONARY
  5
17
102
{ACAD_REACTORS
330
C
102
}
330
C
100
AcDbDictionary
281
     1
  3
Standard
350
18
  0
DICTIONARY
  5
19
102
{ACAD_REACTORS
330
C
102
}
330
C
100
AcDbDictionary
281
     1
  0
ACDBDICTIONARYWDFLT
  5
E
102
{ACAD_REACTORS
330
C
102
}
330
C
100
AcDbDictionary
281
     1
  3
Normal
350
F
100
AcDbDictionaryWithDefault
340
F
  0
DICTIONARY
  5
3B
102
{ACAD_REACTORS
330
C
102
}
330
C
100
AcDbDictionary
281
     1
  3
A0
350
3C
  3
A1
350
3D
  3
A2
350
3E
  3
A3
350
3F
  3
A4
350
40
  3
A5
350
41
  3
A6
350
42
  3
A7
350
43
  3
A8
350
44
  3
A9
350
45
  3
B0
350
46
  3
B1
350
47
  3
B2
350
48
  3
B3
350
49
  3
B4
350
4A
  3
B5
350
4B
  3
B6
350
4C
  3
B7
350
4D
  3
B8
350
4E
  3
B9
350
4F
  3
C0
350
50
  3
C1
350
51
  3
C2
350
52
  3
C3
350
53
  3
C4
350
54
  3
C5
350
55
  3
C6
350
56
  3
C7
350
57
  3
C8
350
58
  3
C9
350
59
  3
D0
350
5A
  3
D1
350
5B
  3
D2
350
5C
  0
DICTIONARY
  5
187
102
{ACAD_REACTORS
330
C
102
}
330
C
100
AcDbDictionary
281
     1
  0
DICTIONARY
  5
2A
102
{ACAD_REACTORS
330
C
102
}
330
C
100
AcDbDictionary
281
     1
  3
2dWireframe
350
2F
  3
3D Hidden
350
31
  3
3dWireframe
350
30
  3
Basic
350
32
  3
Brighten
350
36
  3
ColorChange
350
3A
  3
Conceptual
350
34
  3
Dim
350
35
  3
Facepattern
350
39
  3
Flat
350
2B
  3
FlatWithEdges
350
2C
  3
Gouraud
350
2D
  3
GouraudWithEdges
350
2E
  3
Linepattern
350
38
  3
Realistic
350
33
  3
Thicken
350
37
  0
DICTIONARY
  5
185
102
{ACAD_REACTORS
330
C
102
}
330
C
100
AcDbDictionary
281
     1
  3
CANNOSCALE
350
186
  3
PSOLHEIGHT
350
18A
  3
PSOLWIDTH
350
189
  0
LAYOUT
  5
1E
102
{ACAD_REACTORS
330
1A
102
}
330
1A
100
AcDbPlotSettings
  1

  2
none_device
  4

  6

 40
0.0
 41
0.0
 42
0.0
 43
0.0
 44
0.0
 45
0.0
 46
0.0
 47
0.0
 48
0.0
 49
0.0
140
0.0
141
0.0
142
1.0
143
1.0
 70
   688
 72
     0
 73
     0
 74
     5
  7

 75
    16
147
1.0
148
0.0
149
0.0
100
AcDbLayout
  1
Layout1
 70
     1
 71
     1
 10
0.0
 20
0.0
 11
1682.0
 21
2378.0
 12
0.0
 22
0.0
 32
0.0
 14
0.0
 24
0.0
 34
0.0
 15
1682.0
 25
2378.0
 35
0.0
146
0.0
 13
0.0
 23
0.0
 33
0.0
 16
1.0
 26
0.0
 36
0.0
 17
0.0
 27
1.0
 37
0.0
 76
     0
330
1B
  0
LAYOUT
  5
22
102
{ACAD_REACTORS
330
1A
102
}
330
1A
100
AcDbPlotSettings
  1

  2
none_device
  4

  6

 40
0.0
 41
0.0
 42
0.0
 43
0.0
 44
0.0
 45
0.0
 46
0.0
 47
0.0
 48
0.0
 49
0.0
140
0.0
141
0.0
142
1.0
143
1.0
 70
  1712
 72
     0
 73
     0
 74
     0
  7

 75
     0
147
1.0
148
0.0
149
0.0
100
AcDbLayout
  1
Model
 70
     1
 71
     0
 10
0.0
 20
0.0
 11
1682.0
 21
2378.0
 12
0.0
 22
0.0
 32
0.0
 14
0.0
 24
0.0
 34
0.0
 15
1682.0
 25
2378.0
 35
0.0
146
0.0
 13
0.0
 23
0.0
 33
0.0
 16
1.0
 26
0.0
 36
0.0
 17
0.0
 27
1.0
 37
0.0
 76
     0
330
1F
331
29
  0
MLINESTYLE
  5
18
102
{ACAD_REACTORS
330
17
102
}
330
17
100
AcDbMlineStyle
  2
Standard
 70
     0
  3

 62
   256
 51
90.0
 52
90.0
 71
     2
 49
0.5
 62
   256
  6
BYLAYER
 49
-0.5
 62
   256
  6
BYLAYER
  0
ACDBPLACEHOLDER
  5
F
102
{ACAD_REACTORS
330
E
102
}
330
E
  0
SCALE
  5
3C
102
{ACAD_REACTORS
330
3B
102
}
330
3B
100
AcDbScale
 70
     0
300
1:1
140
1.0
141
1.0
290
     1
  0
SCALE
  5
3D
102
{ACAD_REACTORS
330
3B
102
}
330
3B
100
AcDbScale
 70
     0
300
1:2
140
1.0
141
2.0
290
     0
  0
SCALE
  5
3E
102
{ACAD_REACTORS
330
3B
102
}
330
3B
100
AcDbScale
 70
     0
300
1:4
140
1.0
141
4.0
290
     0
  0
SCALE
  5
3F
102
{ACAD_REACTORS
330
3B
102
}
330
3B
100
AcDbScale
 70
     0
300
1:5
140
1.0
141
5.0
290
     0
  0
SCALE
  5
40
102
{ACAD_REACTORS
330
3B
102
}
330
3B
100
AcDbScale
 70
     0
300
1:8
140
1.0
141
8.0
290
     0
  0
SCALE
  5
41
102
{ACAD_REACTORS
330
3B
102
}
330
3B
100
AcDbScale
 70
     0
300
1:10
140
1.0
141
10.0
290
     0
  0
SCALE
  5
42
102
{ACAD_REACTORS
330
3B
102
}
330
3B
100
AcDbScale
 70
     0
300
1:16
140
1.0
141
16.0
290
     0
  0
SCALE
  5
43
102
{ACAD_REACTORS
330
3B
102
}
330
3B
100
AcDbScale
 70
     0
300
1:20
140
1.0
141
20.0
290
     0
  0
SCALE
  5
44
102
{ACAD_REACTORS
330
3B
102
}
330
3B
100
AcDbScale
 70
     0
300
1:30
140
1.0
141
30.0
290
     0
  0
SCALE
  5
45
102
{ACAD_REACTORS
330
3B
102
}
330
3B
100
AcDbScale
 70
     0
300
1:40
140
1.0
141
40.0
290
     0
  0
SCALE
  5
46
102
{ACAD_REACTORS
330
3B
102
}
330
3B
100
AcDbScale
 70
     0
300
1:50
140
1.0
141
50.0
290
     0
  0
SCALE
  5
47
102
{ACAD_REACTORS
330
3B
102
}
330
3B
100
AcDbScale
 70
     0
300
1:100
140
1.0
141
100.0
290
     0
  0
SCALE
  5
48
102
{ACAD_REACTORS
330
3B
102
}
330
3B
100
AcDbScale
 70
     0
300
2:1
140
2.0
141
1.0
290
     0
  0
SCALE
  5
49
102
{ACAD_REACTORS
330
3B
102
}
330
3B
100
AcDbScale
 70
     0
300
4:1
140
4.0
141
1.0
290
     0
  0
SCALE
  5
4A
102
{ACAD_REACTORS
330
3B
102
}
330
3B
100
AcDbScale
 70
     0
300
8:1
140
8.0
141
1.0
290
     0
  0
SCALE
  5
4B
102
{ACAD_REACTORS
330
3B
102
}
330
3B
100
AcDbScale
 70
     0
300
10:1
140
10.0
141
1.0
290
     0
  0
SCALE
  5
4C
102
{ACAD_REACTORS
330
3B
102
}
330
3B
100
AcDbScale
 70
     0
300
100:1
140
100.0
141
1.0
290
     0
  0
SCALE
  5
4D
102
{ACAD_REACTORS
330
3B
102
}
330
3B
100
AcDbScale
 70
     0
300
1/128" = 1'-0"
140
0.0078125
141
12.0
290
     0
  0
SCALE
  5
4E
102
{ACAD_REACTORS
330
3B
102
}
330
3B
100
AcDbScale
 70
     0
300
1/64" = 1'-0"
140
0.015625
141
12.0
290
     0
  0
SCALE
  5
4F
102
{ACAD_REACTORS
330
3B
102
}
330
3B
100
AcDbScale
 70
     0
300
1/32" = 1'-0"
140
0.03125
141
12.0
290
     0
  0
SCALE
  5
50
102
{ACAD_REACTORS
330
3B
102
}
330
3B
100
AcDbScale
 70
     0
300
1/16" = 1'-0"
140
0.0625
141
12.0
290
     0
  0
SCALE
  5
51
102
{ACAD_REACTORS
330
3B
102
}
330
3B
100
AcDbScale
 70
     0
300
3/32" = 1'-0"
140
0.09375
141
12.0
290
     0
  0
SCALE
  5
52
102
{ACAD_REACTORS
330
3B
102
}
330
3B
100
AcDbScale
 70
     0
300
1/8" = 1'-0"
140
0.125
141
12.0
290
     0
  0
SCALE
  5
53
102
{ACAD_REACTORS
330
3B
102
}
330
3B
100
AcDbScale
 70
     0
300
3/16" = 1'-0"
140
0.1875
141
12.0
290
     0
  0
SCALE
  5
54
102
{ACAD_REACTORS
330
3B
102
}
330
3B
100
AcDbScale
 70
     0
300
1/4" = 1'-0"
140
0.25
141
12.0
290
     0
  0
SCALE
  5
55
102
{ACAD_REACTORS
330
3B
102
}
330
3B
100
AcDbScale
 70
     0
300
3/8" = 1'-0"
140
0.375
141
12.0
290
     0
  0
SCALE
  5
56
102
{ACAD_REACTORS
330
3B
102
}
330
3B
100
AcDbScale
 70
     0
300
1/2" = 1'-0"
140
0.5
141
12.0
290
     0
  0
SCALE
  5
57
102
{ACAD_REACTORS
330
3B
102
}
330
3B
100
AcDbScale
 70
     0
300
3/4" = 1'-0"
140
0.75
141
12.0
290
     0
  0
SCALE
  5
58
102
{ACAD_REACTORS
330
3B
102
}
330
3B
100
AcDbScale
 70
     0
300
1" = 1'-0"
140
1.0
141
12.0
290
     0
  0
SCALE
  5
59
102
{ACAD_REACTORS
330
3B
102
}
330
3B
100
AcDbScale
 70
     0
300
1-1/2" = 1'-0"
140
1.5
141
12.0
290
     0
  0
SCALE
  5
5A
102
{ACAD_REACTORS
330
3B
102
}
330
3B
100
AcDbScale
 70
     0
300
3" = 1'-0"
140
3.0
141
12.0
290
     0
  0
SCALE
  5
5B
102
{ACAD_REACTORS
330
3B
102
}
330
3B
100
AcDbScale
 70
     0
300
6" = 1'-0"
140
6.0
141
12.0
290
     0
  0
SCALE
  5
5C
102
{ACAD_REACTORS
330
3B
102
}
330
3B
100
AcDbScale
 70
     0
300
1'-0" = 1'-0"
140
12.0
141
12.0
290
     0
  0
VISUALSTYLE
  5
2F
102
{ACAD_REACTORS
330
2A
102
}
330
2A
100
AcDbVisualStyle
  2
2dWireframe
 70
     4
 71
     0
 72
     2
 73
     0
 90
        0
 40
-0.6
 41
-30.0
 62
     5
 63
     7
 74
     1
 91
        4
 64
     7
 65
   257
 75
     1
175
     1
 42
1.0
 92
        0
 66
   257
 43
1.0
 76
     1
 77
     6
 78
     2
 67
     7
 79
     5
170
     0
171
     0
290
     0
174
     0
 93
        1
 44
0.0
173
     0
291
     0
 45
0.0
1001
ACAD
1000
AcDbSavedByObjectVersion
1070
     0
  0
VISUALSTYLE
  5
31
102
{ACAD_REACTORS
330
2A
102
}
330
2A
100
AcDbVisualStyle
  2
3D Hidden
 70
     6
 71
     1
 72
     2
 73
     2
 90
        0
 40
-0.6
 41
-30.0
 62
     5
 63
     7
 74
     2
 91
        2
 64
     7
 65
   257
 75
     2
175
     1
 42
40.0
 92
        0
 66
   257
 43
1.0
 76
     1
 77
     6
 78
     2
 67
     7
 79
     3
170
     0
171
     0
290
     0
174
     0
 93
        1
 44
0.0
173
     0
291
     0
 45
0.0
1001
ACAD
1000
AcDbSavedByObjectVersion
1070
     0
  0
VISUALSTYLE
  5
30
102
{ACAD_REACTORS
330
2A
102
}
330
2A
100
AcDbVisualStyle
  2
3dWireframe
 70
     5
 71
     0
 72
     2
 73
     0
 90
        0
 40
-0.6
 41
-30.0
 62
     5
 63
     7
 74
     1
 91
        4
 64
     7
 65
   257
 75
     1
175
     1
 42
1.0
 92
        0
 66
   257
 43
1.0
 76
     1
 77
     6
 78
     2
 67
     7
 79
     5
170
     0
171
     0
290
     0
174
     0
 93
        1
 44
0.0
173
     0
291
     0
 45
0.0
1001
ACAD
1000
AcDbSavedByObjectVersion
1070
     0
  0
VISUALSTYLE
  5
32
102
{ACAD_REACTORS
330
2A
102
}
330
2A
100
AcDbVisualStyle
  2
Basic
 70
     7
 71
     1
 72
     0
 73
     1
 90
        0
 40
-0.6
 41
-30.0
 62
     5
 63
     7
 74
     0
 91
        4
 64
     7
 65
   257
 75
     1
175
     1
 42
1.0
 92
        8
 66
     7
 43
1.0
 76
     1
 77
     6
 78
     2
 67
     7
 79
     5
170
     0
171
     0
290
     0
174
     0
 93
        1
 44
0.0
173
     0
291
     1
 45
0.0
1001
ACAD
1000
AcDbSavedByObjectVersion
1070
     0
  0
VISUALSTYLE
  5
36
102
{ACAD_REACTORS
330
2A
102
}
330
2A
100
AcDbVisualStyle
  2
Brighten
 70
    12
 71
     2
 72
     2
 73
     0
 90
        0
 40
-0.6
 41
-30.0
 62
     5
 63
     7
 74
     1
 91
        4
 64
     7
 65
   257
 75
     1
175
     1
 42
1.0
 92
        8
 66
     7
 43
1.0
 76
     1
 77
     6
 78
     2
 67
     7
 79
     5
170
     0
171
     0
290
     0
174
     0
 93
        1
 44
50.0
173
     0
291
     1
 45
0.0
1001
ACAD
1000
AcDbSavedByObjectVersion
1070
     0
  0
VISUALSTYLE
  5
3A
102
{ACAD_REACTORS
330
2A
102
}
330
2A
100
AcDbVisualStyle
  2
ColorChange
 70
    16
 71
     2
 72
     2
 73
     3
 90
        0
 40
-0.6
 41
-30.0
 62
     5
 63
     8
 74
     1
 91
        4
 64
     7
 65
   257
 75
     1
175
     1
 42
1.0
 92
        8
 66
     8
 43
1.0
 76
     1
 77
     6
 78
     2
 67
     7
 79
     5
170
     0
171
     0
290
     0
174
     0
 93
        1
 44
0.0
173
     0
291
     1
 45
0.0
1001
ACAD
1000
AcDbSavedByObjectVersion
1070
     0
  0
VISUALSTYLE
  5
34
102
{ACAD_REACTORS
330
2A
102
}
330
2A
100
AcDbVisualStyle
  2
Conceptual
 70
     9
 71
     3
 72
     2
 73
     0
 90
        0
 40
-0.6
 41
-30.0
 62
     5
 63
     7
 74
     2
 91
        2
 64
     7
 65
   257
 75
     1
175
     1
 42
40.0
 92
        8
 66
     7
 43
1.0
 76
     1
 77
     6
 78
     2
 67
     7
 79
     3
170
     0
171
     0
290
     0
174
     0
 93
        1
 44
0.0
173
     0
291
     0
 45
0.0
1001
ACAD
1000
AcDbSavedByObjectVersion
1070
     0
  0
VISUALSTYLE
  5
35
102
{ACAD_REACTORS
330
2A
102
}
330
2A
100
AcDbVisualStyle
  2
Dim
 70
    11
 71
     2
 72
     2
 73
     0
 90
        0
 40
-0.6
 41
-30.0
 62
     5
 63
     7
 74
     1
 91
        4
 64
     7
 65
   257
 75
     1
175
     1
 42
1.0
 92
        8
 66
     7
 43
1.0
 76
     1
 77
     6
 78
     2
 67
     7
 79
     5
170
     0
171
     0
290
     0
174
     0
 93
        1
 44
-50.0
173
     0
291
     1
 45
0.0
1001
ACAD
1000
AcDbSavedByObjectVersion
1070
     0
  0
VISUALSTYLE
  5
39
102
{ACAD_REACTORS
330
2A
102
}
330
2A
100
AcDbVisualStyle
  2
Facepattern
 70
    15
 71
     2
 72
     2
 73
     0
 90
        0
 40
-0.6
 41
-30.0
 62
     5
 63
     7
 74
     1
 91
        4
 64
     7
 65
   257
 75
     1
175
     1
 42
1.0
 92
        8
 66
     7
 43
1.0
 76
     1
 77
     6
 78
     2
 67
     7
 79
     5
170
     0
171
     0
290
     0
174
     0
 93
        1
 44
0.0
173
     0
291
     1
 45
0.0
1001
ACAD
1000
AcDbSavedByObjectVersion
1070
     0
  0
VISUALSTYLE
  5
2B
102
{ACAD_REACTORS
330
2A
102
}
330
2A
100
AcDbVisualStyle
  2
Flat
 70
     0
 71
     2
 72
     1
 73
     1
 90
        2
 40
-0.6
 41
30.0
 62
     5
 63
     7
 74
     0
 91
        4
 64
     7
 65
   257
 75
     1
175
     1
 42
1.0
 92
        8
 66
     7
 43
1.0
 76
     1
 77
     6
 78
     2
 67
     7
 79
     5
170
     0
171
     0
290
     0
174
     0
 93
       13
 44
0.0
173
     0
291
     1
 45
0.0
1001
ACAD
1000
AcDbSavedByObjectVersion
1070
     0
  0
VISUALSTYLE
  5
2C
102
{ACAD_REACTORS
330
2A
102
}
330
2A
100
AcDbVisualStyle
  2
FlatWithEdges
 70
     1
 71
     2
 72
     1
 73
     1
 90
        2
 40
-0.6
 41
30.0
 62
     5
 63
     7
 74
     1
 91
        4
 64
     7
 65
   257
 75
     1
175
     1
 42
1.0
 92
        0
 66
   257
 43
1.0
 76
     1
 77
     6
 78
     2
 67
     7
 79
     5
170
     0
171
     0
290
     0
174
     0
 93
       13
 44
0.0
173
     0
291
     1
 45
0.0
1001
ACAD
1000
AcDbSavedByObjectVersion
1070
     0
  0
VISUALSTYLE
  5
2D
102
{ACAD_REACTORS
330
2A
102
}
330
2A
100
AcDbVisualStyle
  2
Gouraud
 70
     2
 71
     2
 72
     2
 73
     1
 90
        2
 40
-0.6
 41
30.0
 62
     5
 63
     7
 74
     0
 91
        4
 64
     7
 65
   257
 75
     1
175
     1
 42
1.0
 92
        0
 66
     7
 43
1.0
 76
     1
 77
     6
 78
     2
 67
     7
 79
     5
170
     0
171
     0
290
     0
174
     0
 93
       13
 44
0.0
173
     0
291
     1
 45
0.0
1001
ACAD
1000
AcDbSavedByObjectVersion
1070
     0
  0
VISUALSTYLE
  5
2E
102
{ACAD_REACTORS
330
2A
102
}
330
2A
100
AcDbVisualStyle
  2
GouraudWithEdges
 70
     3
 71
     2
 72
     2
 73
     1
 90
        2
 40
-0.6
 41
30.0
 62
     5
 63
     7
 74
     1
 91
        4
 64
     7
 65
   257
 75
     1
175
     1
 42
1.0
 92
        0
 66
   257
 43
1.0
 76
     1
 77
     6
 78
     2
 67
     7
 79
     5
170
     0
171
     0
290
     0
174
     0
 93
       13
 44
0.0
173
     0
291
     1
 45
0.0
1001
ACAD
1000
AcDbSavedByObjectVersion
1070
     0
  0
VISUALSTYLE
  5
38
102
{ACAD_REACTORS
330
2A
102
}
330
2A
100
AcDbVisualStyle
  2
Linepattern
 70
    14
 71
     2
 72
     2
 73
     0
 90
        0
 40
-0.6
 41
-30.0
 62
     5
 63
     7
 74
     1
 91
        4
 64
     7
 65
   257
 75
     7
175
     7
 42
1.0
 92
        8
 66
     7
 43
1.0
 76
     1
 77
     6
 78
     2
 67
     7
 79
     5
170
     0
171
     0
290
     0
174
     0
 93
        1
 44
0.0
173
     0
291
     1
 45
0.0
1001
ACAD
1000
AcDbSavedByObjectVersion
1070
     0
  0
VISUALSTYLE
  5
33
102
{ACAD_REACTORS
330
2A
102
}
330
2A
100
AcDbVisualStyle
  2
Realistic
 70
     8
 71
     2
 72
     2
 73
     0
 90
        0
 40
-0.6
 41
-30.0
 62
     5
 63
     7
 74
     1
 91
        0
 64
     7
 65
   257
 75
     1
175
     1
 42
1.0
 92
        8
 66
     8
 43
1.0
 76
     1
 77
     6
 78
     2
 67
     7
 79
     5
170
     0
171
     0
290
     0
174
     0
 93
       13
 44
0.0
173
     0
291
     0
 45
0.0
1001
ACAD
1000
AcDbSavedByObjectVersion
1070
     0
  0
VISUALSTYLE
  5
37
102
{ACAD_REACTORS
330
2A
102
}
330
2A
100
AcDbVisualStyle
  2
Thicken
 70
    13
 71
     2
 72
     2
 73
     0
 90
        0
 40
-0.6
 41
-30.0
 62
     5
 63
     7
 74
     1
 91
        4
 64
     7
 65
   257
 75
     1
175
     1
 42
1.0
 92
       12
 66
     7
 43
1.0
 76
     1
 77
     6
 78
     2
 67
     7
 79
     5
170
     0
171
     0
290
     0
174
     0
 93
        1
 44
0.0
173
     0
291
     1
 45
0.0
1001
ACAD
1000
AcDbSavedByObjectVersion
1070
     0
  0
DICTIONARYVAR
  5
186
102
{ACAD_REACTORS
330
185
102
}
330
185
100
DictionaryVariables
280
     0
  1
1:1
  0
DICTIONARYVAR
  5
18A
102
{ACAD_REACTORS
330
185
102
}
330
185
100
DictionaryVariables
280
     0
  1
80.000000
  0
DICTIONARYVAR
  5
189
102
{ACAD_REACTORS
330
185
102
}
330
185
100
DictionaryVariables
280
     0
  1
5.000000
  0
ENDSEC
  0
EOF
