  0
SECTION
  2
HEADER
  9
$ACADVER
  1
AC1015
  9
$ACADMAINTVER
 70
     6
  9
$DWGCODEPAGE
  3
ANSI_1252
  9
$INSBASE
 10
0.0
 20
0.0
 30
0.0
  9
$EXTMIN
 10
0.0
 20
0.0
 30
0.0
  9
$EXTMAX
 10
1682.0
 20
2378.0
 30
0.0
  9
$LIMMIN
 10
0.0
 20
0.0
  9
$LIMMAX
 10
1682.0
 20
2378.0
  9
$ORTHOMODE
 70
     0
  9
$REGENMODE
 70
     1
  9
$FILLMODE
 70
     1
  9
$QTEXTMODE
 70
     0
  9
$MIRRTEXT
 70
     1
  9
$LTSCALE
 40
1.0
  9
$ATTMODE
 70
     1
  9
$TEXTSIZE
 40
2.5
  9
$TRACEWID
 40
1.0
  9
$TEXTSTYLE
  7
Standard
  9
$CLAYER
  8
0
  9
$CELTYPE
  6
ByLayer
  9
$CECOLOR
 62
   256
  9
$CELTSCALE
 40
1.0
  9
$DISPSILH
 70
     0
  9
$DIMSCALE
 40
1.0
  9
$DIMASZ
 40
2.5
  9
$DIMEXO
 40
0.625
  9
$DIMDLI
 40
3.75
  9
$DIMRND
 40
0.0
  9
$DIMDLE
 40
0.0
  9
$DIMEXE
 40
1.25
  9
$DIMTP
 40
0.0
  9
$DIMTM
 40
0.0
  9
$DIMTXT
 40
2.5
  9
$DIMCEN
 40
2.5
  9
$DIMTSZ
 40
0.0
  9
$DIMTOL
 70
     0
  9
$DIMLIM
 70
     0
  9
$DIMTIH
 70
     0
  9
$DIMTOH
 70
     0
  9
$DIMSE1
 70
     0
  9
$DIMSE2
 70
     0
  9
$DIMTAD
 70
     1
  9
$DIMZIN
 70
     8
  9
$DIMBLK
  1

  9
$DIMASO
 70
     1
  9
$DIMSHO
 70
     1
  9
$DIMPOST
  1

  9
$DIMAPOST
  1

  9
$DIMALT
 70
     0
  9
$DIMALTD
 70
     3
  9
$DIMALTF
 40
0.0393700787
  9
$DIMLFAC
 40
1.0
  9
$DIMTOFL
 70
     1
  9
$DIMTVP
 40
0.0
  9
$DIMTIX
 70
     0
  9
$DIMSOXD
 70
     0
  9
$DIMSAH
 70
     0
  9
$DIMBLK1
  1

  9
$DIMBLK2
  1

  9
$DIMSTYLE
  2
ISO-25
  9
$DIMCLRD
 70
     0
  9
$DIMCLRE
 70
     0
  9
$DIMCLRT
 70
     0
  9
$DIMTFAC
 40
1.0
  9
$DIMGAP
 40
0.625
  9
$DIMJUST
 70
     0
  9
$DIMSD1
 70
     0
  9
$DIMSD2
 70
     0
  9
$DIMTOLJ
 70
     0
  9
$DIMTZIN
 70
     8
  9
$DIMALTZ
 70
     0
  9
$DIMALTTZ
 70
     0
  9
$DIMUPT
 70
     0
  9
$DIMDEC
 70
     2
  9
$DIMTDEC
 70
     2
  9
$DIMALTU
 70
     2
  9
$DIMALTTD
 70
     3
  9
$DIMTXSTY
  7
Standard
  9
$DIMAUNIT
 70
     0
  9
$DIMADEC
 70
     0
  9
$DIMALTRND
 40
0.0
  9
$DIMAZIN
 70
     0
  9
$DIMDSEP
 70
    44
  9
$DIMATFIT
 70
     3
  9
$DIMFRAC
 70
     0
  9
$DIMLDRBLK
  1

  9
$DIMLUNIT
 70
     2
  9
$DIMLWD
 70
    -2
  9
$DIMLWE
 70
    -2
  9
$DIMTMOVE
 70
     0
  9
$LUNITS
 70
     2
  9
$LUPREC
 70
     4
  9
$SKETCHINC
 40
1.0
  9
$FILLETRAD
 40
10.0
  9
$AUNITS
 70
     0
  9
$AUPREC
 70
     0
  9
$MENU
  1
.
  9
$ELEVATION
 40
0.0
  9
$PELEVATION
 40
0.0
  9
$THICKNESS
 40
0.0
  9
$LIMCHECK
 70
     0
  9
$CHAMFERA
 40
10.0
  9
$CHAMFERB
 40
10.0
  9
$CHAMFERC
 40
20.0
  9
$CHAMFERD
 40
0.0
  9
$SKPOLY
 70
     0
  9
$TDCREATE
 40
2455232.64548897
  9
$TDUCREATE
 40
2455232.603822303
  9
$TDUPDATE
 40
2455232.645488982
  9
$TDUUPDATE
 40
2455232.603822315
  9
$TDINDWG
 40
0.0000000116
  9
$TDUSRTIMER
 40
0.0000000116
  9
$USRTIMER
 70
     1
  9
$ANGBASE
 50
0.0
  9
$ANGDIR
 70
     0
  9
$PDMODE
 70
     0
  9
$PDSIZE
 40
0.0
  9
$PLINEWID
 40
0.0
  9
$SPLFRAME
 70
     0
  9
$SPLINETYPE
 70
     6
  9
$SPLINESEGS
 70
     8
  9
$HANDSEED
  5
155
  9
$SURFTAB1
 70
     6
  9
$SURFTAB2
 70
     6
  9
$SURFTYPE
 70
     6
  9
$SURFU
 70
     6
  9
$SURFV
 70
     6
  9
$UCSBASE
  2

  9
$UCSNAME
  2

  9
$UCSORG
 10
0.0
 20
0.0
 30
0.0
  9
$UCSXDIR
 10
1.0
 20
0.0
 30
0.0
  9
$UCSYDIR
 10
0.0
 20
1.0
 30
0.0
  9
$UCSORTHOREF
  2

  9
$UCSORTHOVIEW
 70
     0
  9
$UCSORGTOP
 10
0.0
 20
0.0
 30
0.0
  9
$UCSORGBOTTOM
 10
0.0
 20
0.0
 30
0.0
  9
$UCSORGLEFT
 10
0.0
 20
0.0
 30
0.0
  9
$UCSORGRIGHT
 10
0.0
 20
0.0
 30
0.0
  9
$UCSORGFRONT
 10
0.0
 20
0.0
 30
0.0
  9
$UCSORGBACK
 10
0.0
 20
0.0
 30
0.0
  9
$PUCSBASE
  2

  9
$PUCSNAME
  2

  9
$PUCSORG
 10
0.0
 20
0.0
 30
0.0
  9
$PUCSXDIR
 10
1.0
 20
0.0
 30
0.0
  9
$PUCSYDIR
 10
0.0
 20
1.0
 30
0.0
  9
$PUCSORTHOREF
  2

  9
$PUCSORTHOVIEW
 70
     0
  9
$PUCSORGTOP
 10
0.0
 20
0.0
 30
0.0
  9
$PUCSORGBOTTOM
 10
0.0
 20
0.0
 30
0.0
  9
$PUCSORGLEFT
 10
0.0
 20
0.0
 30
0.0
  9
$PUCSORGRIGHT
 10
0.0
 20
0.0
 30
0.0
  9
$PUCSORGFRONT
 10
0.0
 20
0.0
 30
0.0
  9
$PUCSORGBACK
 10
0.0
 20
0.0
 30
0.0
  9
$USERI1
 70
     0
  9
$USERI2
 70
     0
  9
$USERI3
 70
     0
  9
$USERI4
 70
     0
  9
$USERI5
 70
     0
  9
$USERR1
 40
0.0
  9
$USERR2
 40
0.0
  9
$USERR3
 40
0.0
  9
$USERR4
 40
0.0
  9
$USERR5
 40
0.0
  9
$WORLDVIEW
 70
     1
  9
$SHADEDGE
 70
     3
  9
$SHADEDIF
 70
    70
  9
$TILEMODE
 70
     1
  9
$MAXACTVP
 70
    64
  9
$PINSBASE
 10
0.0
 20
0.0
 30
0.0
  9
$PLIMCHECK
 70
     0
  9
$PEXTMIN
 10
0.0
 20
0.0
 30
0.0
  9
$PEXTMAX
 10
1682.0
 20
2378.0
 30
0.0
  9
$PLIMMIN
 10
0.0
 20
0.0
  9
$PLIMMAX
 10
1682.0
 20
2378.0
  9
$UNITMODE
 70
     0
  9
$VISRETAIN
 70
     1
  9
$PLINEGEN
 70
     0
  9
$PSLTSCALE
 70
     1
  9
$TREEDEPTH
 70
  3020
  9
$CMLSTYLE
  2
Standard
  9
$CMLJUST
 70
     0
  9
$CMLSCALE
 40
20.0
  9
$PROXYGRAPHICS
 70
     1
  9
$MEASUREMENT
 70
     1
  9
$CELWEIGHT
370
    -1
  9
$ENDCAPS
280
     0
  9
$JOINSTYLE
280
     0
  9
$LWDISPLAY
290
     0
  9
$INSUNITS
 70
     4
  9
$HYPERLINKBASE
  1

  9
$STYLESHEET
  1

  9
$XEDIT
290
     1
  9
$CEPSNTYPE
380
     0
  9
$PSTYLEMODE
290
     1
  9
$FINGERPRINTGUID
  2
{CDFDA825-A598-4C33-A24E-4FD0A4FB3746}
  9
$VERSIONGUID
  2
{FAEB1C32-E019-11D5-929B-00C0DF256EC4}
  9
$EXTNAMES
290
     1
  9
$PSVPSCALE
 40
0.0
  9
$OLESTARTUP
290
     0
  0
ENDSEC
  0
SECTION
  2
CLASSES
  0
CLASS
  1
ACDBDICTIONARYWDFLT
  2
AcDbDictionaryWithDefault
  3
ObjectDBX Classes
 90
        0
280
     0
281
     0
  0
CLASS
  1
VISUALSTYLE
  2
AcDbVisualStyle
  3
ObjectDBX Classes
 90
     4095
280
     0
281
     0
  0
CLASS
  1
SCALE
  2
AcDbScale
  3
ObjectDBX Classes
 90
     1153
280
     0
281
     0
  0
CLASS
  1
DICTIONARYVAR
  2
AcDbDictionaryVar
  3
ObjectDBX Classes
 90
        0
280
     0
281
     0
  0
CLASS
  1
ACDBPLACEHOLDER
  2
AcDbPlaceHolder
  3
ObjectDBX Classes
 90
        0
280
     0
281
     0
  0
CLASS
  1
LAYOUT
  2
AcDbLayout
  3
ObjectDBX Classes
 90
        0
280
     0
281
     0
  0
ENDSEC
  0
SECTION
  2
TABLES
  0
TABLE
  2
VPORT
  5
8
330
0
100
AcDbSymbolTable
 70
     1
  0
VPORT
  5
29
330
8
100
AcDbSymbolTableRecord
100
AcDbViewportTableRecord
  2
*Active
 70
     0
 10
0.0
 20
0.0
 11
1.0
 21
1.0
 12
344.1869158879
 22
148.5
 13
0.0
 23
0.0
 14
10.0
 24
10.0
 15
10.0
 25
10.0
 16
0.0
 26
0.0
 36
1.0
 17
0.0
 27
0.0
 37
0.0
 40
297.0
 41
1.9729729729
 42
50.0
 43
0.0
 44
0.0
 50
0.0
 51
0.0
 71
     0
 72
   100
 73
     1
 74
     3
 75
     0
 76
     0
 77
     0
 78
     0
281
     0
 65
     1
110
0.0
120
0.0
130
0.0
111
1.0
121
0.0
131
0.0
112
0.0
122
1.0
132
0.0
 79
     0
146
0.0
  0
ENDTAB
  0
TABLE
  2
LTYPE
  5
5
330
0
100
AcDbSymbolTable
 70
     2
  0
LTYPE
  5
14
330
5
100
AcDbSymbolTableRecord
100
AcDbLinetypeTableRecord
  2
ByBlock
 70
     0
  3

 72
    65
 73
     0
 40
0.0
  0
LTYPE
  5
15
330
5
100
AcDbSymbolTableRecord
100
AcDbLinetypeTableRecord
  2
ByLayer
 70
     0
  3

 72
    65
 73
     0
 40
0.0
  0
LTYPE
  5
16
330
5
100
AcDbSymbolTableRecord
100
AcDbLinetypeTableRecord
  2
Continuous
 70
     0
  3
Solid line
 72
    65
 73
     0
 40
0.0
  0
LTYPE
  5
9D
330
5
100
AcDbSymbolTableRecord
100
AcDbLinetypeTableRecord
  2
CENTER2
 70
     0
  3
Center (.5x) ___ _ ___ _ ___ _ ___ _ ___ _ ___
 72
    65
 73
     4
 40
28.575
 49
19.05
 74
     4
 75
     0
340
0
 46
0.0
 50
0.0
 44
0.0
 45
0.0
 49
-3.175
 74
     4
 75
     0
340
0
 46
0.0
 50
0.0
 44
0.0
 45
0.0
 49
3.175
 74
     4
 75
     0
340
0
 46
0.0
 50
0.0
 44
0.0
 45
0.0
 49
-3.175
 74
     4
 75
     0
340
0
 46
0.0
 50
0.0
 44
0.0
 45
0.0
  0
ENDTAB
  0
TABLE
  2
LAYER
  5
2
330
0
100
AcDbSymbolTable
 70
    12
  0
LAYER
  5
10
330
2
100
AcDbSymbolTableRecord
100
AcDbLayerTableRecord
  2
0
 70
     0
 62
     7
  6
Continuous
370
    -3
390
F
  0
LAYER
  5
5D
330
2
100
AcDbSymbolTableRecord
100
AcDbLayerTableRecord
  2
Default
 70
     0
 62
     7
  6
Continuous
370
    -3
390
F
  0
LAYER
  5
60
330
2
100
AcDbSymbolTableRecord
100
AcDbLayerTableRecord
  2
$DDT_AUDIT_GENERATED_(60)
 70
     0
 62
     7
  6
Continuous
370
    -3
390
F
  0
LAYER
  5
69
330
2
100
AcDbSymbolTableRecord
100
AcDbLayerTableRecord
  2
$DDT_AUDIT_GENERATED_(69)
 70
     0
 62
     7
  6
Continuous
370
    -3
390
F
  0
LAYER
  5
76
330
2
100
AcDbSymbolTableRecord
100
AcDbLayerTableRecord
  2
$DDT_AUDIT_GENERATED_(76)
 70
     0
 62
     7
  6
Continuous
370
    -3
390
F
  0
LAYER
  5
7D
330
2
100
AcDbSymbolTableRecord
100
AcDbLayerTableRecord
  2
$DDT_AUDIT_GENERATED_(7D)
 70
     0
 62
     7
  6
Continuous
370
    -3
390
F
  0
LAYER
  5
8E
330
2
100
AcDbSymbolTableRecord
100
AcDbLayerTableRecord
  2
$DDT_AUDIT_GENERATED_(8E)
 70
     0
 62
     7
  6
Continuous
370
    -3
390
F
  0
LAYER
  5
96
330
2
100
AcDbSymbolTableRecord
100
AcDbLayerTableRecord
  2
08041038_ROSETTE
 70
     0
 62
     7
  6
Continuous
370
    -3
390
F
  0
LAYER
  5
9C
330
2
100
AcDbSymbolTableRecord
100
AcDbLayerTableRecord
  2
DV1_Standard
 70
     0
 62
     7
  6
Continuous
370
    -3
390
F
  0
LAYER
  5
D0
330
2
100
AcDbSymbolTableRecord
100
AcDbLayerTableRecord
  2
05941038_HUELSE_
 70
     0
 62
     7
  6
Continuous
370
    -3
390
F
  0
LAYER
  5
E5
330
2
100
AcDbSymbolTableRecord
100
AcDbLayerTableRecord
  2
DV2_Standard
 70
     0
 62
     7
  6
Continuous
370
    -3
390
F
  0
LAYER
  5
13D
330
2
100
AcDbSymbolTableRecord
100
AcDbLayerTableRecord
  2
DV3_Standard
 70
     0
 62
     7
  6
Continuous
370
    -3
390
F
  0
ENDTAB
  0
TABLE
  2
STYLE
  5
3
330
0
100
AcDbSymbolTable
 70
     2
  0
STYLE
  5
11
330
3
100
AcDbSymbolTableRecord
100
AcDbTextStyleTableRecord
  2
Standard
 70
     0
 40
0.0
 41
1.0
 50
0.0
 71
     0
 42
2.5
  3
txt
  4

  0
STYLE
  5
144
330
3
100
AcDbSymbolTableRecord
100
AcDbTextStyleTableRecord
  2
SEACAD_seiso_ttf
 70
     0
 40
0.0
 41
1.0
 50
0.0
 71
     0
 42
0.2
  3
seiso.ttf
  4

  0
ENDTAB
  0
TABLE
  2
VIEW
  5
6
330
0
100
AcDbSymbolTable
 70
     0
  0
ENDTAB
  0
TABLE
  2
UCS
  5
7
330
0
100
AcDbSymbolTable
 70
     0
  0
ENDTAB
  0
TABLE
  2
APPID
  5
9
330
0
100
AcDbSymbolTable
 70
     1
  0
APPID
  5
12
330
9
100
AcDbSymbolTableRecord
100
AcDbRegAppTableRecord
  2
ACAD
 70
     0
  0
ENDTAB
  0
TABLE
  2
DIMSTYLE
  5
A
330
0
100
AcDbSymbolTable
 70
     1
100
AcDbDimStyleTable
  0
DIMSTYLE
105
27
330
A
100
AcDbSymbolTableRecord
100
AcDbDimStyleTableRecord
  2
ISO-25
 70
     0
 41
2.5
 42
0.625
 43
3.75
 44
1.25
 73
     0
 74
     0
 77
     1
 78
     8
140
2.5
141
2.5
143
0.0393700787
147
0.625
171
     3
172
     1
271
     2
272
     2
274
     3
278
    44
283
     0
284
     8
340
11
  0
ENDTAB
  0
TABLE
  2
BLOCK_RECORD
  5
1
330
0
100
AcDbSymbolTable
 70
     4
  0
BLOCK_RECORD
  5
1F
330
1
100
AcDbSymbolTableRecord
100
AcDbBlockTableRecord
  2
*Model_Space
340
22
  0
BLOCK_RECORD
  5
1B
330
1
100
AcDbSymbolTableRecord
100
AcDbBlockTableRecord
  2
*Paper_Space
340
1E
  0
BLOCK_RECORD
  5
5E
330
1
100
AcDbSymbolTableRecord
100
AcDbBlockTableRecord
  2
SE
340
0
102
{BLKREFS
331
5F
102
}
  0
BLOCK_RECORD
  5
AC
330
1
100
AcDbSymbolTableRecord
100
AcDbBlockTableRecord
  2
SE1
340
0
102
{BLKREFS
331
AD
102
}
  0
BLOCK_RECORD
  5
EA
330
1
100
AcDbSymbolTableRecord
100
AcDbBlockTableRecord
  2
SE2
340
0
102
{BLKREFS
331
EB
102
}
  0
ENDTAB
  0
ENDSEC
  0
SECTION
  2
BLOCKS
  0
BLOCK
  5
20
330
1F
100
AcDbEntity
  8
0
100
AcDbBlockBegin
  2
*Model_Space
 70
     0
 10
0.0
 20
0.0
 30
0.0
  3
*Model_Space
  1

  0
ENDBLK
  5
21
330
1F
100
AcDbEntity
  8
0
100
AcDbBlockEnd
  0
BLOCK
  5
1C
330
1B
100
AcDbEntity
 67
     1
  8
0
100
AcDbBlockBegin
  2
*Paper_Space
 70
     0
 10
0.0
 20
0.0
 30
0.0
  3
*Paper_Space
  1

  0
ENDBLK
  5
1D
330
1B
100
AcDbEntity
 67
     1
  8
0
100
AcDbBlockEnd
  0
BLOCK
  5
AA
330
5E
100
AcDbEntity
  8
0
100
AcDbBlockBegin
  2
SE
 70
     0
 10
0.0
 20
0.0
 30
0.0
  3
SE
  1

  0
LINE
  5
61
330
5E
100
AcDbEntity
  8
$DDT_AUDIT_GENERATED_(60)
  6
Continuous
 62
     7
100
AcDbLine
 10
68.5461261696
 20
434.6797388156
 30
0.0
 11
68.5461261696
 21
382.6797388156
 31
0.0
  0
LINE
  5
62
330
5E
100
AcDbEntity
  8
$DDT_AUDIT_GENERATED_(60)
  6
Continuous
 62
     7
100
AcDbLine
 10
307.4461261696
 20
383.4797388156
 30
0.0
 11
307.4461261696
 21
433.8797388156
 31
0.0
  0
ARC
  5
63
330
5E
100
AcDbEntity
  8
$DDT_AUDIT_GENERATED_(60)
  6
Continuous
 62
     7
100
AcDbCircle
 10
255.4461261494
 20
358.3497055484
 30
0.0
 40
26.02908024517508
100
AcDbArc
 50
69.183771163
 51
110.8162302228
  0
LINE
  5
64
330
5E
100
AcDbEntity
  8
$DDT_AUDIT_GENERATED_(60)
  6
Continuous
 62
     7
100
AcDbLine
 10
264.6926334996
 20
382.6797388156
 30
0.0
 11
306.6461261696
 21
382.6797388156
 31
0.0
  0
LINE
  5
65
330
5E
100
AcDbEntity
  8
$DDT_AUDIT_GENERATED_(60)
  6
Continuous
 62
     7
100
AcDbLine
 10
68.5461261696
 20
382.6797388156
 30
0.0
 11
246.1961261696
 21
382.6797388156
 31
0.0
  0
LINE
  5
66
330
5E
100
AcDbEntity
  8
$DDT_AUDIT_GENERATED_(60)
  6
Continuous
 62
     7
100
AcDbLine
 10
306.6461261696
 20
434.6797388156
 30
0.0
 11
68.5461261696
 21
434.6797388156
 31
0.0
  0
ARC
  5
67
330
5E
100
AcDbEntity
  8
$DDT_AUDIT_GENERATED_(60)
  6
Continuous
 62
     7
100
AcDbCircle
 10
306.6461261696
 20
383.4797388156
 30
0.0
 40
0.7999999999999986
100
AcDbArc
 50
270.0
 51
0.0
  0
ARC
  5
68
330
5E
100
AcDbEntity
  8
$DDT_AUDIT_GENERATED_(60)
  6
Continuous
 62
     7
100
AcDbCircle
 10
306.6461261696
 20
433.8797388156
 30
0.0
 40
0.7999999999999674
100
AcDbArc
 50
0.0
 51
90.0
  0
LINE
  5
6A
330
5E
100
AcDbEntity
  8
$DDT_AUDIT_GENERATED_(69)
  6
Continuous
 62
     7
100
AcDbLine
 10
264.4461261687
 20
377.6797388156
 30
0.0
 11
246.4461261687
 21
377.6797388156
 31
0.0
  0
LINE
  5
6B
330
5E
100
AcDbEntity
  8
$DDT_AUDIT_GENERATED_(69)
  6
Continuous
 62
     7
100
AcDbLine
 10
244.9661261687
 20
376.1997388156
 30
0.0
 11
265.9261261687
 21
376.1997388156
 31
0.0
  0
LINE
  5
6C
330
5E
100
AcDbEntity
  8
$DDT_AUDIT_GENERATED_(69)
  6
Continuous
 62
     7
100
AcDbLine
 10
246.1661261687
 20
368.7797388156
 30
0.0
 11
264.7261261687
 21
368.7797388156
 31
0.0
  0
LINE
  5
6D
330
5E
100
AcDbEntity
  8
$DDT_AUDIT_GENERATED_(69)
  6
Continuous
 62
     7
100
AcDbLine
 10
244.9661261687
 20
369.9797388156
 30
0.0
 11
265.9261261687
 21
369.9797388156
 31
0.0
  0
LINE
  5
6E
330
5E
100
AcDbEntity
  8
$DDT_AUDIT_GENERATED_(69)
  6
Continuous
 62
     7
100
AcDbLine
 10
244.9661261687
 20
376.1997388156
 30
0.0
 11
244.9661261687
 21
369.9797388156
 31
0.0
  0
LINE
  5
6F
330
5E
100
AcDbEntity
  8
$DDT_AUDIT_GENERATED_(69)
  6
Continuous
 62
     7
100
AcDbLine
 10
265.9261261687
 20
369.9797388156
 30
0.0
 11
265.9261261687
 21
376.1997388156
 31
0.0
  0
LINE
  5
70
330
5E
100
AcDbEntity
  8
$DDT_AUDIT_GENERATED_(69)
  6
Continuous
 62
     7
100
AcDbLine
 10
246.4461261687
 20
382.7671035065
 30
0.0
 11
246.4461261687
 21
377.6797388156
 31
0.0
  0
LINE
  5
71
330
5E
100
AcDbEntity
  8
$DDT_AUDIT_GENERATED_(69)
  6
Continuous
 62
     7
100
AcDbLine
 10
264.4461261687
 20
377.6797388156
 30
0.0
 11
264.4461261687
 21
382.7670355841
 31
0.0
  0
LINE
  5
72
330
5E
100
AcDbEntity
  8
$DDT_AUDIT_GENERATED_(69)
  6
Continuous
 62
     7
100
AcDbLine
 10
265.9261261687
 20
376.1997388156
 30
0.0
 11
264.4461261687
 21
377.6797388156
 31
0.0
  0
LINE
  5
73
330
5E
100
AcDbEntity
  8
$DDT_AUDIT_GENERATED_(69)
  6
Continuous
 62
     7
100
AcDbLine
 10
246.4461261687
 20
377.6797388156
 30
0.0
 11
244.9661261687
 21
376.1997388156
 31
0.0
  0
LINE
  5
74
330
5E
100
AcDbEntity
  8
$DDT_AUDIT_GENERATED_(69)
  6
Continuous
 62
     7
100
AcDbLine
 10
244.9661261687
 20
369.9797388156
 30
0.0
 11
246.1661261687
 21
368.7797388156
 31
0.0
  0
LINE
  5
75
330
5E
100
AcDbEntity
  8
$DDT_AUDIT_GENERATED_(69)
  6
Continuous
 62
     7
100
AcDbLine
 10
264.7261261687
 20
368.7797388156
 30
0.0
 11
265.9261261687
 21
369.9797388156
 31
0.0
  0
ARC
  5
77
330
5E
100
AcDbEntity
  8
$DDT_AUDIT_GENERATED_(76)
  6
Continuous
 62
     7
100
AcDbCircle
 10
54.0461261696
 20
408.6797388156
 30
0.0
 40
26.0
100
AcDbArc
 50
243.2658749137
 51
270.0
  0
ARC
  5
78
330
5E
100
AcDbEntity
  8
$DDT_AUDIT_GENERATED_(76)
  6
Continuous
 62
     7
100
AcDbCircle
 10
54.0461261696
 20
408.6797388156
 30
0.0
 40
26.00000000000001
100
AcDbArc
 50
90.0
 51
116.7341250863
  0
LINE
  5
79
330
5E
100
AcDbEntity
  8
$DDT_AUDIT_GENERATED_(76)
  6
Continuous
 62
     7
100
AcDbLine
 10
54.0461261696
 20
382.6797388156
 30
0.0
 11
68.0461261696
 21
382.6797388156
 31
0.0
  0
LINE
  5
7A
330
5E
100
AcDbEntity
  8
$DDT_AUDIT_GENERATED_(76)
  6
Continuous
 62
     7
100
AcDbLine
 10
68.0461261696
 20
434.6797388156
 30
0.0
 11
54.0461261696
 21
434.6797388156
 31
0.0
  0
LINE
  5
7B
330
5E
100
AcDbEntity
  8
$DDT_AUDIT_GENERATED_(76)
  6
Continuous
 62
     7
100
AcDbLine
 10
68.0461261696
 20
382.6797388156
 30
0.0
 11
68.5461261696
 21
383.1797388156
 31
0.0
  0
LINE
  5
7C
330
5E
100
AcDbEntity
  8
$DDT_AUDIT_GENERATED_(76)
  6
Continuous
 62
     7
100
AcDbLine
 10
68.5461261696
 20
434.1797388156
 30
0.0
 11
68.0461261696
 21
434.6797388156
 31
0.0
  0
LINE
  5
7E
330
5E
100
AcDbEntity
  8
$DDT_AUDIT_GENERATED_(7D)
  6
Continuous
 62
     7
100
AcDbLine
 10
12.35
 20
434.1573564739
 30
0.0
 11
12.35
 21
383.1469936862
 31
0.0
  0
LINE
  5
7F
330
5E
100
AcDbEntity
  8
$DDT_AUDIT_GENERATED_(7D)
  6
Continuous
 62
     7
100
AcDbLine
 10
22.85
 20
313.5648997554
 30
0.0
 11
31.85
 21
313.5648997554
 31
0.0
  0
LINE
  5
80
330
5E
100
AcDbEntity
  8
$DDT_AUDIT_GENERATED_(7D)
  6
Continuous
 62
     7
100
AcDbLine
 10
42.35
 20
382.4372753246
 30
0.0
 11
42.35
 21
434.8670748354
 31
0.0
  0
LINE
  5
81
330
5E
100
AcDbEntity
  8
$DDT_AUDIT_GENERATED_(7D)
  6
Continuous
 62
     7
100
AcDbLine
 10
42.0447642781
 20
435.167029144
 30
0.0
 11
12.8412737968
 21
434.6572803215
 31
0.0
  0
LINE
  5
82
330
5E
100
AcDbEntity
  8
$DDT_AUDIT_GENERATED_(7D)
  6
Continuous
 62
     7
100
AcDbLine
 10
32.8390249407
 20
382.2980077939
 30
0.0
 11
42.0447642781
 21
382.1373210161
 31
0.0
  0
LINE
  5
83
330
5E
100
AcDbEntity
  8
$DDT_AUDIT_GENERATED_(7D)
  6
Continuous
 62
     7
100
AcDbLine
 10
12.8412737968
 20
382.6470698386
 30
0.0
 11
21.8713032113
 21
382.4894500888
 31
0.0
  0
ARC
  5
84
330
5E
100
AcDbEntity
  8
$DDT_AUDIT_GENERATED_(7D)
  6
Continuous
 62
     7
100
AcDbCircle
 10
12.85
 20
383.1469936862
 30
0.0
 40
0.5000000000000004
100
AcDbArc
 50
180.0
 51
269.0
  0
ARC
  5
85
330
5E
100
AcDbEntity
  8
$DDT_AUDIT_GENERATED_(7D)
  6
Continuous
 62
     7
100
AcDbCircle
 10
12.85
 20
434.1573564739
 30
0.0
 40
0.5000000000000054
100
AcDbArc
 50
91.0
 51
180.0
  0
ARC
  5
86
330
5E
100
AcDbEntity
  8
$DDT_AUDIT_GENERATED_(7D)
  6
Continuous
 62
     7
100
AcDbCircle
 10
31.85
 20
314.0648997554
 30
0.0
 40
0.5000000000000004
100
AcDbArc
 50
270.0
 51
0.0
  0
ARC
  5
87
330
5E
100
AcDbEntity
  8
$DDT_AUDIT_GENERATED_(7D)
  6
Continuous
 62
     7
100
AcDbCircle
 10
22.85
 20
314.0648997554
 30
0.0
 40
0.5000000000000004
100
AcDbArc
 50
180.0
 51
270.0
  0
LINE
  5
88
330
5E
100
AcDbEntity
  8
$DDT_AUDIT_GENERATED_(7D)
  6
Continuous
 62
     7
100
AcDbLine
 10
32.35
 20
314.0648997554
 30
0.0
 11
32.35
 21
381.7978697985
 31
0.0
  0
LINE
  5
89
330
5E
100
AcDbEntity
  8
$DDT_AUDIT_GENERATED_(7D)
  6
Continuous
 62
     7
100
AcDbLine
 10
22.35
 20
381.9920105427
 30
0.0
 11
22.35
 21
314.0648997554
 31
0.0
  0
ARC
  5
8A
330
5E
100
AcDbEntity
  8
$DDT_AUDIT_GENERATED_(7D)
  6
Continuous
 62
     7
100
AcDbCircle
 10
21.85
 20
381.9897457738
 30
0.0
 40
0.4999999999992157
100
AcDbArc
 50
0.0
 51
88.9999999985
  0
ARC
  5
8B
330
5E
100
AcDbEntity
  8
$DDT_AUDIT_GENERATED_(7D)
  6
Continuous
 62
     7
100
AcDbCircle
 10
32.85
 20
381.7977400595
 30
0.0
 40
0.4999999999988756
100
AcDbArc
 50
89.0000000002
 51
180.0000000002
  0
ARC
  5
8C
330
5E
100
AcDbEntity
  8
$DDT_AUDIT_GENERATED_(7D)
  6
Continuous
 62
     7
100
AcDbCircle
 10
42.05
 20
434.8670748354
 30
0.0
 40
0.2999999999999947
100
AcDbArc
 50
0.0
 51
91.0
  0
ARC
  5
8D
330
5E
100
AcDbEntity
  8
$DDT_AUDIT_GENERATED_(7D)
  6
Continuous
 62
     7
100
AcDbCircle
 10
42.05
 20
382.4372753246
 30
0.0
 40
0.3000000000000006
100
AcDbArc
 50
269.0
 51
0.0
  0
LINE
  5
8F
330
5E
100
AcDbEntity
  8
$DDT_AUDIT_GENERATED_(8E)
  6
Continuous
 62
     7
100
AcDbLine
 10
6.35
 20
430.65217508
 30
0.0
 11
6.35
 21
386.65217508
 31
0.0
  0
LINE
  5
90
330
5E
100
AcDbEntity
  8
$DDT_AUDIT_GENERATED_(8E)
  6
Continuous
 62
     7
100
AcDbLine
 10
11.35
 20
386.2649577451
 30
0.0
 11
11.35
 21
386.15217508
 31
0.0
  0
LINE
  5
91
330
5E
100
AcDbEntity
  8
$DDT_AUDIT_GENERATED_(8E)
  6
Continuous
 62
     7
100
AcDbLine
 10
11.35
 20
386.2649577451
 30
0.0
 11
12.35
 21
386.2649577451
 31
0.0
  0
ARC
  5
92
330
5E
100
AcDbEntity
  8
$DDT_AUDIT_GENERATED_(8E)
  6
Continuous
 62
     7
100
AcDbCircle
 10
6.85
 20
430.65217508
 30
0.0
 40
0.5000000000000004
100
AcDbArc
 50
90.0
 51
180.0
  0
ARC
  5
93
330
5E
100
AcDbEntity
  8
$DDT_AUDIT_GENERATED_(8E)
  6
Continuous
 62
     7
100
AcDbCircle
 10
6.85
 20
386.65217508
 30
0.0
 40
0.5000000000000004
100
AcDbArc
 50
180.0
 51
270.0
  0
LINE
  5
94
330
5E
100
AcDbEntity
  8
$DDT_AUDIT_GENERATED_(8E)
  6
Continuous
 62
     7
100
AcDbLine
 10
12.35
 20
431.15217508
 30
0.0
 11
6.85
 21
431.15217508
 31
0.0
  0
LINE
  5
95
330
5E
100
AcDbEntity
  8
$DDT_AUDIT_GENERATED_(8E)
  6
Continuous
 62
     7
100
AcDbLine
 10
6.85
 20
386.15217508
 30
0.0
 11
11.35
 21
386.15217508
 31
0.0
  0
ARC
  5
97
330
5E
100
AcDbEntity
  8
08041038_ROSETTE
  6
Continuous
 62
     7
100
AcDbCircle
 10
255.4461261696
 20
408.6797388156
 30
0.0
 40
35.0
100
AcDbArc
 50
287.4232850398
 51
312.0246275794
  0
ARC
  5
98
330
5E
100
AcDbEntity
  8
08041038_ROSETTE
  6
Continuous
 62
     7
100
AcDbCircle
 10
255.4461261696
 20
408.6797388156
 30
0.0
 40
35.0
100
AcDbArc
 50
227.9753724206
 51
252.5767149571
  0
ARC
  5
99
330
5E
100
AcDbEntity
  8
08041038_ROSETTE
  6
Continuous
 62
     7
100
AcDbCircle
 10
255.4461261696
 20
408.6797388156
 30
0.0
 40
35.0
100
AcDbArc
 50
47.9753724206
 51
132.0246275794
  0
ARC
  5
9A
330
5E
100
AcDbEntity
  8
08041038_ROSETTE
  6
Continuous
 62
     7
100
AcDbCircle
 10
105.4461087567
 20
408.6797388156
 30
0.0
 40
35.0
100
AcDbArc
 50
227.9753724206
 51
312.0246275794
  0
ARC
  5
9B
330
5E
100
AcDbEntity
  8
08041038_ROSETTE
  6
Continuous
 62
     7
100
AcDbCircle
 10
105.4461087567
 20
408.6797388156
 30
0.0
 40
35.0
100
AcDbArc
 50
47.9753724206
 51
132.0246275794
  0
LINE
  5
9E
330
5E
100
AcDbEntity
  8
DV1_Standard
  6
CENTER2
 62
     7
100
AcDbLine
 10
125.4461083096
 20
408.6797388156
 30
0.0
 11
85.4461092037
 21
408.6797388156
 31
0.0
  0
LINE
  5
9F
330
5E
100
AcDbEntity
  8
DV1_Standard
  6
CENTER2
 62
     7
100
AcDbLine
 10
105.4461087567
 20
428.6797383686
 30
0.0
 11
105.4461087567
 21
388.6797392626
 31
0.0
  0
LINE
  5
A0
330
5E
100
AcDbEntity
  8
DV1_Standard
  6
CENTER2
 62
     7
100
AcDbLine
 10
130.4461081979
 20
408.6797388156
 30
0.0
 11
143.9461087567
 21
408.6797388156
 31
0.0
  0
LINE
  5
A1
330
5E
100
AcDbEntity
  8
DV1_Standard
  6
CENTER2
 62
     7
100
AcDbLine
 10
105.4461087567
 20
433.6797382568
 30
0.0
 11
105.4461087567
 21
447.1797388156
 31
0.0
  0
LINE
  5
A2
330
5E
100
AcDbEntity
  8
DV1_Standard
  6
CENTER2
 62
     7
100
AcDbLine
 10
80.4461093154
 20
408.6797388156
 30
0.0
 11
66.9461087567
 21
408.6797388156
 31
0.0
  0
LINE
  5
A3
330
5E
100
AcDbEntity
  8
DV1_Standard
  6
CENTER2
 62
     7
100
AcDbLine
 10
105.4461087567
 20
383.6797393744
 30
0.0
 11
105.4461087567
 21
370.1797388156
 31
0.0
  0
LINE
  5
A4
330
5E
100
AcDbEntity
  8
DV1_Standard
  6
CENTER2
 62
     7
100
AcDbLine
 10
275.4461257226
 20
408.6797388156
 30
0.0
 11
235.4461266166
 21
408.6797388156
 31
0.0
  0
LINE
  5
A5
330
5E
100
AcDbEntity
  8
DV1_Standard
  6
CENTER2
 62
     7
100
AcDbLine
 10
255.4461261696
 20
428.6797383686
 30
0.0
 11
255.4461261696
 21
388.6797392626
 31
0.0
  0
LINE
  5
A6
330
5E
100
AcDbEntity
  8
DV1_Standard
  6
CENTER2
 62
     7
100
AcDbLine
 10
280.4461256108
 20
408.6797388156
 30
0.0
 11
293.9461261696
 21
408.6797388156
 31
0.0
  0
LINE
  5
A7
330
5E
100
AcDbEntity
  8
DV1_Standard
  6
CENTER2
 62
     7
100
AcDbLine
 10
255.4461261696
 20
433.6797382568
 30
0.0
 11
255.4461261696
 21
447.1797388156
 31
0.0
  0
LINE
  5
A8
330
5E
100
AcDbEntity
  8
DV1_Standard
  6
CENTER2
 62
     7
100
AcDbLine
 10
230.4461267284
 20
408.6797388156
 30
0.0
 11
216.9461261696
 21
408.6797388156
 31
0.0
  0
LINE
  5
A9
330
5E
100
AcDbEntity
  8
DV1_Standard
  6
CENTER2
 62
     7
100
AcDbLine
 10
255.4461261696
 20
383.6797393744
 30
0.0
 11
255.4461261696
 21
370.1797388156
 31
0.0
  0
ENDBLK
  5
AB
330
5E
100
AcDbEntity
  8
0
100
AcDbBlockEnd
  0
BLOCK
  5
E8
330
AC
100
AcDbEntity
  8
0
100
AcDbBlockBegin
  2
SE1
 70
     0
 10
0.0
 20
0.0
 30
0.0
  3
SE1
  1

  0
LINE
  5
AE
330
AC
100
AcDbEntity
  8
$DDT_AUDIT_GENERATED_(60)
  6
Continuous
 62
     7
100
AcDbLine
 10
456.1461261696
 20
392.1797388156
 30
0.0
 11
456.1461261696
 21
425.1797388156
 31
0.0
  0
LINE
  5
AF
330
AC
100
AcDbEntity
  8
$DDT_AUDIT_GENERATED_(60)
  6
Continuous
 62
     7
100
AcDbLine
 10
456.1461261696
 20
392.1797388156
 30
0.0
 11
465.7935835318
 21
392.1797388156
 31
0.0
  0
LINE
  5
B0
330
AC
100
AcDbEntity
  8
$DDT_AUDIT_GENERATED_(60)
  6
Continuous
 62
     7
100
AcDbLine
 10
465.7766106269
 20
425.1797388156
 30
0.0
 11
456.1461261696
 21
425.1797388156
 31
0.0
  0
ARC
  5
B1
330
AC
100
AcDbEntity
  8
$DDT_AUDIT_GENERATED_(60)
  6
Continuous
 62
     7
100
AcDbCircle
 10
465.8215247279
 20
430.1562194188
 30
0.0
 40
4.975929423195676
100
AcDbArc
 50
269.4650039039
 51
292.9855060139
  0
ARC
  5
B2
330
AC
100
AcDbEntity
  8
$DDT_AUDIT_GENERATED_(60)
  6
Continuous
 62
     7
100
AcDbCircle
 10
465.8312288168
 20
387.2134229829
 30
0.0
 40
4.962222406060842
100
AcDbArc
 50
68.0465331254
 51
90.4542049283
  0
LINE
  5
B3
330
AC
100
AcDbEntity
  8
$DDT_AUDIT_GENERATED_(60)
  6
Continuous
 62
     7
100
AcDbLine
 10
456.1461261696
 20
421.1797388156
 30
0.0
 11
455.1461261696
 21
421.1797388156
 31
0.0
  0
LINE
  5
B4
330
AC
100
AcDbEntity
  8
$DDT_AUDIT_GENERATED_(60)
  6
Continuous
 62
     7
100
AcDbLine
 10
455.1461261696
 20
396.1797388156
 30
0.0
 11
456.1461261696
 21
396.1797388156
 31
0.0
  0
LINE
  5
B5
330
AC
100
AcDbEntity
  8
$DDT_AUDIT_GENERATED_(69)
  6
Continuous
 62
     7
100
AcDbLine
 10
479.1461261696
 20
377.6797388156
 30
0.0
 11
483.1461261696
 21
377.6797388156
 31
0.0
  0
LINE
  5
B6
330
AC
100
AcDbEntity
  8
$DDT_AUDIT_GENERATED_(69)
  6
Continuous
 62
     7
100
AcDbLine
 10
493.1461261696
 20
377.6797388156
 30
0.0
 11
497.1461261696
 21
377.6797388156
 31
0.0
  0
LINE
  5
B7
330
AC
100
AcDbEntity
  8
$DDT_AUDIT_GENERATED_(69)
  6
Continuous
 62
     7
100
AcDbLine
 10
498.6261261696
 20
376.1997388156
 30
0.0
 11
493.1461261696
 21
376.1997388156
 31
0.0
  0
LINE
  5
B8
330
AC
100
AcDbEntity
  8
$DDT_AUDIT_GENERATED_(69)
  6
Continuous
 62
     7
100
AcDbLine
 10
483.1461261696
 20
376.1997388156
 30
0.0
 11
477.6661261696
 21
376.1997388156
 31
0.0
  0
LINE
  5
B9
330
AC
100
AcDbEntity
  8
$DDT_AUDIT_GENERATED_(69)
  6
Continuous
 62
     7
100
AcDbLine
 10
497.4261261696
 20
368.7797388156
 30
0.0
 11
493.1461261696
 21
368.7797388156
 31
0.0
  0
LINE
  5
BA
330
AC
100
AcDbEntity
  8
$DDT_AUDIT_GENERATED_(69)
  6
Continuous
 62
     7
100
AcDbLine
 10
483.1461261696
 20
368.7797388156
 30
0.0
 11
478.8661261696
 21
368.7797388156
 31
0.0
  0
LINE
  5
BB
330
AC
100
AcDbEntity
  8
$DDT_AUDIT_GENERATED_(69)
  6
Continuous
 62
     7
100
AcDbLine
 10
498.6261261696
 20
369.9797388156
 30
0.0
 11
493.1461261696
 21
369.9797388156
 31
0.0
  0
LINE
  5
BC
330
AC
100
AcDbEntity
  8
$DDT_AUDIT_GENERATED_(69)
  6
Continuous
 62
     7
100
AcDbLine
 10
483.1461261696
 20
369.9797388156
 30
0.0
 11
477.6661261696
 21
369.9797388156
 31
0.0
  0
LINE
  5
BD
330
AC
100
AcDbEntity
  8
$DDT_AUDIT_GENERATED_(69)
  6
Continuous
 62
     7
100
AcDbLine
 10
477.6661261696
 20
376.1997388156
 30
0.0
 11
477.6661261696
 21
369.9797388156
 31
0.0
  0
LINE
  5
BE
330
AC
100
AcDbEntity
  8
$DDT_AUDIT_GENERATED_(69)
  6
Continuous
 62
     7
100
AcDbLine
 10
498.6261261696
 20
369.9797388156
 30
0.0
 11
498.6261261696
 21
376.1997388156
 31
0.0
  0
LINE
  5
BF
330
AC
100
AcDbEntity
  8
$DDT_AUDIT_GENERATED_(69)
  6
Continuous
 62
     7
100
AcDbLine
 10
479.1461261696
 20
383.7114471629
 30
0.0
 11
479.1461261696
 21
377.6797388156
 31
0.0
  0
LINE
  5
C0
330
AC
100
AcDbEntity
  8
$DDT_AUDIT_GENERATED_(69)
  6
Continuous
 62
     7
100
AcDbLine
 10
497.1461261696
 20
377.6797388156
 30
0.0
 11
497.1461261696
 21
383.7114471629
 31
0.0
  0
LINE
  5
C1
330
AC
100
AcDbEntity
  8
$DDT_AUDIT_GENERATED_(69)
  6
Continuous
 62
     7
100
AcDbLine
 10
498.6261261696
 20
376.1997388156
 30
0.0
 11
497.1461261696
 21
377.6797388156
 31
0.0
  0
LINE
  5
C2
330
AC
100
AcDbEntity
  8
$DDT_AUDIT_GENERATED_(69)
  6
Continuous
 62
     7
100
AcDbLine
 10
479.1461261696
 20
377.6797388156
 30
0.0
 11
477.6661261696
 21
376.1997388156
 31
0.0
  0
LINE
  5
C3
330
AC
100
AcDbEntity
  8
$DDT_AUDIT_GENERATED_(69)
  6
Continuous
 62
     7
100
AcDbLine
 10
477.6661261696
 20
369.9797388156
 30
0.0
 11
478.8661261696
 21
368.7797388156
 31
0.0
  0
LINE
  5
C4
330
AC
100
AcDbEntity
  8
$DDT_AUDIT_GENERATED_(69)
  6
Continuous
 62
     7
100
AcDbLine
 10
497.4261261696
 20
368.7797388156
 30
0.0
 11
498.6261261696
 21
369.9797388156
 31
0.0
  0
LINE
  5
C5
330
AC
100
AcDbEntity
  8
$DDT_AUDIT_GENERATED_(7D)
  6
Continuous
 62
     7
100
AcDbLine
 10
483.6461261696
 20
313.5648997554
 30
0.0
 11
492.6461261696
 21
313.5648997554
 31
0.0
  0
ARC
  5
C6
330
AC
100
AcDbEntity
  8
$DDT_AUDIT_GENERATED_(7D)
  6
Continuous
 62
     7
100
AcDbCircle
 10
488.1462077161
 20
406.2751224637
 30
0.0
 40
23.93674135962092
100
AcDbArc
 50
260.6875545587
 51
282.997147506
  0
CIRCLE
  5
C7
330
AC
100
AcDbEntity
  8
$DDT_AUDIT_GENERATED_(7D)
  6
Continuous
 62
     7
100
AcDbCircle
 10
488.1461261696
 20
408.65217508
 30
0.0
 40
22.55
  0
ARC
  5
C8
330
AC
100
AcDbEntity
  8
$DDT_AUDIT_GENERATED_(7D)
  6
Continuous
 62
     7
100
AcDbCircle
 10
492.6461261696
 20
314.0648997554
 30
0.0
 40
0.5000000000000004
100
AcDbArc
 50
270.0
 51
0.0
  0
ARC
  5
C9
330
AC
100
AcDbEntity
  8
$DDT_AUDIT_GENERATED_(7D)
  6
Continuous
 62
     7
100
AcDbCircle
 10
483.6461261696
 20
314.0648997554
 30
0.0
 40
0.4999999999999996
100
AcDbArc
 50
180.0
 51
270.0
  0
LINE
  5
CA
330
AC
100
AcDbEntity
  8
$DDT_AUDIT_GENERATED_(7D)
  6
Continuous
 62
     7
100
AcDbLine
 10
493.1461261696
 20
314.0648997554
 30
0.0
 11
493.1461261696
 21
382.4609388819
 31
0.0
  0
LINE
  5
CB
330
AC
100
AcDbEntity
  8
$DDT_AUDIT_GENERATED_(7D)
  6
Continuous
 62
     7
100
AcDbLine
 10
483.1461261696
 20
382.4611986918
 30
0.0
 11
483.1461261696
 21
314.0648997554
 31
0.0
  0
ARC
  5
CC
330
AC
100
AcDbEntity
  8
$DDT_AUDIT_GENERATED_(7D)
  6
Continuous
 62
     7
100
AcDbCircle
 10
482.6695323441
 20
382.4813789002
 30
0.0
 40
0.4720275970551737
100
AcDbArc
 50
357.326172253
 51
63.987055154
  0
SPLINE
  5
CD
330
AC
100
AcDbEntity
  8
$DDT_AUDIT_GENERATED_(7D)
  6
Continuous
 62
     7
100
AcDbSpline
210
0.0
220
0.0
230
1.0
 70
     8
 71
     3
 72
    14
 73
    10
 74
     0
 42
0.0000000181126012
 43
0.0000000001
 40
0.0
 40
0.0
 40
0.0
 40
0.0
 40
0.1204481807457168
 40
0.3349047684835726
 40
0.5158040828650658
 40
0.6697798066117554
 40
0.8002343150329048
 40
0.9382304615309339
 40
1.0
 40
1.0
 40
1.0
 40
1.0
 10
493.1551711748833
 20
382.4618470681798
 30
0.0
 10
493.1523930764427
 20
382.4925897118492
 30
0.0
 10
493.1465399549552
 20
382.5660502399232
 30
0.0
 10
493.1908994364863
 20
382.6835943736924
 30
0.0
 10
493.2578655464886
 20
382.7859611045711
 30
0.0
 10
493.3271192535827
 20
382.8511759363947
 30
0.0
 10
493.3783574425806
 20
382.8862901558568
 30
0.0
 10
493.4071326252879
 20
382.9017995486156
 30
0.0
 10
493.4136810133037
 20
382.9048036373422
 30
0.0
 10
493.4159265257554
 20
382.9057687580248
 30
0.0
  0
ARC
  5
CE
330
AC
100
AcDbEntity
  8
$DDT_AUDIT_GENERATED_(7D)
  6
Continuous
 62
     7
100
AcDbCircle
 10
488.1461261696
 20
408.65217508
 30
0.0
 40
26.51489975538265
100
AcDbArc
 50
0.0
 51
258.9924049586
  0
ARC
  5
CF
330
AC
100
AcDbEntity
  8
$DDT_AUDIT_GENERATED_(7D)
  6
Continuous
 62
     7
100
AcDbCircle
 10
488.1461261696
 20
408.65217508
 30
0.0
 40
26.51489975538265
100
AcDbArc
 50
280.9970529864
 51
0.0
  0
LINE
  5
D1
330
AC
100
AcDbEntity
  8
05941038_HUELSE_
  6
Continuous
 62
     7
100
AcDbLine
 10
455.1461261696
 20
393.6797388156
 30
0.0
 11
455.1461261696
 21
423.6797388156
 31
0.0
  0
LINE
  5
D2
330
AC
100
AcDbEntity
  8
05941038_HUELSE_
  6
Continuous
 62
     7
100
AcDbLine
 10
454.6461261696
 20
424.1797388156
 30
0.0
 11
419.6461261696
 21
424.1797388156
 31
0.0
  0
LINE
  5
D3
330
AC
100
AcDbEntity
  8
05941038_HUELSE_
  6
Continuous
 62
     7
100
AcDbLine
 10
419.6461261696
 20
393.1797388156
 30
0.0
 11
454.6461261696
 21
393.1797388156
 31
0.0
  0
LINE
  5
D4
330
AC
100
AcDbEntity
  8
05941038_HUELSE_
  6
Continuous
 62
     7
100
AcDbLine
 10
454.6461261696
 20
393.1797388156
 30
0.0
 11
455.1461261696
 21
393.6797388156
 31
0.0
  0
LINE
  5
D5
330
AC
100
AcDbEntity
  8
05941038_HUELSE_
  6
Continuous
 62
     7
100
AcDbLine
 10
455.1461261696
 20
423.6797388156
 30
0.0
 11
454.6461261696
 21
424.1797388156
 31
0.0
  0
LINE
  5
D6
330
AC
100
AcDbEntity
  8
08041038_ROSETTE
  6
Continuous
 62
     7
100
AcDbLine
 10
391.6461261696
 20
443.1797388156
 30
0.0
 11
391.6461261696
 21
374.1797388156
 31
0.0
  0
LINE
  5
D7
330
AC
100
AcDbEntity
  8
08041038_ROSETTE
  6
Continuous
 62
     7
100
AcDbLine
 10
406.6461261696
 20
374.6797388156
 30
0.0
 11
406.6461261696
 21
442.6797388156
 31
0.0
  0
LINE
  5
D8
330
AC
100
AcDbEntity
  8
08041038_ROSETTE
  6
Continuous
 62
     7
100
AcDbLine
 10
419.6461261696
 20
387.6797388156
 30
0.0
 11
419.6461261696
 21
429.6797388156
 31
0.0
  0
LINE
  5
D9
330
AC
100
AcDbEntity
  8
08041038_ROSETTE
  6
Continuous
 62
     7
100
AcDbLine
 10
392.1461261696
 20
373.6797388156
 30
0.0
 11
405.6461261696
 21
373.6797388156
 31
0.0
  0
LINE
  5
DA
330
AC
100
AcDbEntity
  8
08041038_ROSETTE
  6
Continuous
 62
     7
100
AcDbLine
 10
405.6461261696
 20
443.6797388156
 30
0.0
 11
392.1461261696
 21
443.6797388156
 31
0.0
  0
LINE
  5
DB
330
AC
100
AcDbEntity
  8
08041038_ROSETTE
  6
Continuous
 62
     7
100
AcDbLine
 10
407.6461261696
 20
386.6797388156
 30
0.0
 11
418.6461261696
 21
386.6797388156
 31
0.0
  0
LINE
  5
DC
330
AC
100
AcDbEntity
  8
08041038_ROSETTE
  6
Continuous
 62
     7
100
AcDbLine
 10
418.6461261696
 20
430.6797388156
 30
0.0
 11
407.6461261696
 21
430.6797388156
 31
0.0
  0
ARC
  5
DD
330
AC
100
AcDbEntity
  8
08041038_ROSETTE
  6
Continuous
 62
     7
100
AcDbCircle
 10
392.1461261696
 20
374.1797388156
 30
0.0
 40
0.5000000000000004
100
AcDbArc
 50
180.0
 51
270.0
  0
ARC
  5
DE
330
AC
100
AcDbEntity
  8
08041038_ROSETTE
  6
Continuous
 62
     7
100
AcDbCircle
 10
392.1461261696
 20
443.1797388156
 30
0.0
 40
0.5000000000000004
100
AcDbArc
 50
90.0
 51
180.0
  0
ARC
  5
DF
330
AC
100
AcDbEntity
  8
08041038_ROSETTE
  6
Continuous
 62
     7
100
AcDbCircle
 10
405.6461261696
 20
374.6797388156
 30
0.0
 40
1.000000000000001
100
AcDbArc
 50
270.0
 51
0.0
  0
ARC
  5
E0
330
AC
100
AcDbEntity
  8
08041038_ROSETTE
  6
Continuous
 62
     7
100
AcDbCircle
 10
405.6461261696
 20
442.6797388156
 30
0.0
 40
1.000000000000001
100
AcDbArc
 50
0.0
 51
90.0
  0
ARC
  5
E1
330
AC
100
AcDbEntity
  8
08041038_ROSETTE
  6
Continuous
 62
     7
100
AcDbCircle
 10
418.6461261696
 20
387.6797388156
 30
0.0
 40
1.000000000000001
100
AcDbArc
 50
270.0
 51
0.0
  0
ARC
  5
E2
330
AC
100
AcDbEntity
  8
08041038_ROSETTE
  6
Continuous
 62
     7
100
AcDbCircle
 10
418.6461261696
 20
429.6797388156
 30
0.0
 40
1.000000000000001
100
AcDbArc
 50
0.0
 51
90.0
  0
ARC
  5
E3
330
AC
100
AcDbEntity
  8
08041038_ROSETTE
  6
Continuous
 62
     7
100
AcDbCircle
 10
407.6461261696
 20
385.6797388156
 30
0.0
 40
1.000000000000001
100
AcDbArc
 50
90.0
 51
180.0
  0
ARC
  5
E4
330
AC
100
AcDbEntity
  8
08041038_ROSETTE
  6
Continuous
 62
     7
100
AcDbCircle
 10
407.6461261696
 20
431.6797388156
 30
0.0
 40
1.000000000000001
100
AcDbArc
 50
180.0
 51
270.0
  0
LINE
  5
E6
330
AC
100
AcDbEntity
  8
DV2_Standard
  6
CENTER2
 62
     7
100
AcDbLine
 10
411.6461257226
 20
408.6797388156
 30
0.0
 11
371.6461266166
 21
408.6797388156
 31
0.0
  0
LINE
  5
E7
330
AC
100
AcDbEntity
  8
DV2_Standard
  6
CENTER2
 62
     7
100
AcDbLine
 10
391.6461261696
 20
428.6797383686
 30
0.0
 11
391.6461261696
 21
388.6797392626
 31
0.0
  0
ENDBLK
  5
E9
330
AC
100
AcDbEntity
  8
0
100
AcDbBlockEnd
  0
BLOCK
  5
142
330
EA
100
AcDbEntity
  8
0
100
AcDbBlockBegin
  2
SE2
 70
     0
 10
0.0
 20
0.0
 30
0.0
  3
SE2
  1

  0
LINE
  5
EC
330
EA
100
AcDbEntity
  8
$DDT_AUDIT_GENERATED_(60)
  6
Continuous
 62
     7
100
AcDbLine
 10
68.5461261696
 20
158.8648997554
 30
0.0
 11
68.5461261696
 21
106.8648997554
 31
0.0
  0
LINE
  5
ED
330
EA
100
AcDbEntity
  8
$DDT_AUDIT_GENERATED_(60)
  6
Continuous
 62
     7
100
AcDbLine
 10
307.4461261696
 20
107.6648997554
 30
0.0
 11
307.4461261696
 21
158.0648997554
 31
0.0
  0
LINE
  5
EE
330
EA
100
AcDbEntity
  8
$DDT_AUDIT_GENERATED_(60)
  6
Continuous
 62
     7
100
AcDbLine
 10
88.9461087567
 20
164.8648997554
 30
0.0
 11
121.9461087567
 21
164.8648997554
 31
0.0
  0
LINE
  5
EF
330
EA
100
AcDbEntity
  8
$DDT_AUDIT_GENERATED_(60)
  6
Continuous
 62
     7
100
AcDbLine
 10
238.9461261696
 20
164.8648997554
 30
0.0
 11
271.9461261696
 21
164.8648997554
 31
0.0
  0
LINE
  5
F0
330
EA
100
AcDbEntity
  8
$DDT_AUDIT_GENERATED_(60)
  6
Continuous
 62
     7
100
AcDbLine
 10
68.5461261696
 20
106.8648997554
 30
0.0
 11
306.6461261696
 21
106.8648997554
 31
0.0
  0
LINE
  5
F1
330
EA
100
AcDbEntity
  8
$DDT_AUDIT_GENERATED_(60)
  6
Continuous
 62
     7
100
AcDbLine
 10
83.9481179805
 20
158.8648997554
 30
0.0
 11
68.5461261696
 21
158.8648997554
 31
0.0
  0
LINE
  5
F2
330
EA
100
AcDbEntity
  8
$DDT_AUDIT_GENERATED_(60)
  6
Continuous
 62
     7
100
AcDbLine
 10
233.9481353934
 20
158.8648997554
 30
0.0
 11
126.9362414971
 21
158.8648997554
 31
0.0
  0
LINE
  5
F3
330
EA
100
AcDbEntity
  8
$DDT_AUDIT_GENERATED_(60)
  6
Continuous
 62
     7
100
AcDbLine
 10
306.6461261696
 20
158.8648997554
 30
0.0
 11
276.9362589101
 21
158.8648997554
 31
0.0
  0
LINE
  5
F4
330
EA
100
AcDbEntity
  8
$DDT_AUDIT_GENERATED_(60)
  6
Continuous
 62
     7
100
AcDbLine
 10
88.9461087567
 20
164.8648997554
 30
0.0
 11
88.9461087567
 21
163.8560890673
 31
0.0
  0
LINE
  5
F5
330
EA
100
AcDbEntity
  8
$DDT_AUDIT_GENERATED_(60)
  6
Continuous
 62
     7
100
AcDbLine
 10
121.9461087567
 20
163.8397387158
 30
0.0
 11
121.9461087567
 21
164.8648997554
 31
0.0
  0
LINE
  5
F6
330
EA
100
AcDbEntity
  8
$DDT_AUDIT_GENERATED_(60)
  6
Continuous
 62
     7
100
AcDbLine
 10
238.9461261696
 20
164.8648997554
 30
0.0
 11
238.9461261696
 21
163.8560890673
 31
0.0
  0
LINE
  5
F7
330
EA
100
AcDbEntity
  8
$DDT_AUDIT_GENERATED_(60)
  6
Continuous
 62
     7
100
AcDbLine
 10
271.9461261696
 20
163.8397387158
 30
0.0
 11
271.9461261696
 21
164.8648997554
 31
0.0
  0
ARC
  5
F8
330
EA
100
AcDbEntity
  8
$DDT_AUDIT_GENERATED_(60)
  6
Continuous
 62
     7
100
AcDbCircle
 10
83.9500429456
 20
163.8605391453
 30
0.0
 40
4.993728683164906
100
AcDbArc
 50
269.9648915285
 51
359.9328947002
  0
ARC
  5
F9
330
EA
100
AcDbEntity
  8
$DDT_AUDIT_GENERATED_(60)
  6
Continuous
 62
     7
100
AcDbCircle
 10
126.9361130305
 20
163.8563786169
 30
0.0
 40
4.986803267688119
100
AcDbArc
 50
180.1634730145
 51
269.9956485288
  0
ARC
  5
FA
330
EA
100
AcDbEntity
  8
$DDT_AUDIT_GENERATED_(60)
  6
Continuous
 62
     7
100
AcDbCircle
 10
233.9500603585
 20
163.8605391453
 30
0.0
 40
4.993728683173408
100
AcDbArc
 50
269.9648915286
 51
359.9328947001
  0
ARC
  5
FB
330
EA
100
AcDbEntity
  8
$DDT_AUDIT_GENERATED_(60)
  6
Continuous
 62
     7
100
AcDbCircle
 10
276.9361304434
 20
163.8563786169
 30
0.0
 40
4.986803267687379
100
AcDbArc
 50
180.1634730146
 51
269.9956485288
  0
ARC
  5
FC
330
EA
100
AcDbEntity
  8
$DDT_AUDIT_GENERATED_(60)
  6
Continuous
 62
     7
100
AcDbCircle
 10
306.6461261696
 20
107.6648997554
 30
0.0
 40
0.7999999999999986
100
AcDbArc
 50
270.0
 51
0.0
  0
ARC
  5
FD
330
EA
100
AcDbEntity
  8
$DDT_AUDIT_GENERATED_(60)
  6
Continuous
 62
     7
100
AcDbCircle
 10
306.6461261696
 20
158.0648997554
 30
0.0
 40
0.7999999999999674
100
AcDbArc
 50
0.0
 51
90.0
  0
LINE
  5
FE
330
EA
100
AcDbEntity
  8
$DDT_AUDIT_GENERATED_(60)
  6
Continuous
 62
     7
100
AcDbLine
 10
117.9461087567
 20
164.8648997554
 30
0.0
 11
117.9461087567
 21
165.8648997554
 31
0.0
  0
LINE
  5
FF
330
EA
100
AcDbEntity
  8
$DDT_AUDIT_GENERATED_(60)
  6
Continuous
 62
     7
100
AcDbLine
 10
92.9461087567
 20
165.8648997554
 30
0.0
 11
92.9461087567
 21
164.8648997554
 31
0.0
  0
LINE
  5
100
330
EA
100
AcDbEntity
  8
$DDT_AUDIT_GENERATED_(60)
  6
Continuous
 62
     7
100
AcDbLine
 10
267.9461261696
 20
164.8648997554
 30
0.0
 11
267.9461261696
 21
165.8648997554
 31
0.0
  0
LINE
  5
101
330
EA
100
AcDbEntity
  8
$DDT_AUDIT_GENERATED_(60)
  6
Continuous
 62
     7
100
AcDbLine
 10
242.9461261696
 20
165.8648997554
 30
0.0
 11
242.9461261696
 21
164.8648997554
 31
0.0
  0
ARC
  5
102
330
EA
100
AcDbEntity
  8
$DDT_AUDIT_GENERATED_(76)
  6
Continuous
 62
     7
100
AcDbCircle
 10
54.0461261696
 20
132.8648997554
 30
0.0
 40
25.99999999999999
100
AcDbArc
 50
243.2658749137
 51
270.0
  0
ARC
  5
103
330
EA
100
AcDbEntity
  8
$DDT_AUDIT_GENERATED_(76)
  6
Continuous
 62
     7
100
AcDbCircle
 10
54.0461261696
 20
132.8648997554
 30
0.0
 40
26.0
100
AcDbArc
 50
90.0
 51
116.7341250863
  0
LINE
  5
104
330
EA
100
AcDbEntity
  8
$DDT_AUDIT_GENERATED_(76)
  6
Continuous
 62
     7
100
AcDbLine
 10
54.0461261696
 20
106.8648997554
 30
0.0
 11
68.0461261696
 21
106.8648997554
 31
0.0
  0
LINE
  5
105
330
EA
100
AcDbEntity
  8
$DDT_AUDIT_GENERATED_(76)
  6
Continuous
 62
     7
100
AcDbLine
 10
68.0461261696
 20
158.8648997554
 30
0.0
 11
54.0461261696
 21
158.8648997554
 31
0.0
  0
LINE
  5
106
330
EA
100
AcDbEntity
  8
$DDT_AUDIT_GENERATED_(76)
  6
Continuous
 62
     7
100
AcDbLine
 10
68.0461261696
 20
106.8648997554
 30
0.0
 11
68.5461261696
 21
107.3648997554
 31
0.0
  0
LINE
  5
107
330
EA
100
AcDbEntity
  8
$DDT_AUDIT_GENERATED_(76)
  6
Continuous
 62
     7
100
AcDbLine
 10
68.5461261696
 20
158.3648997554
 30
0.0
 11
68.0461261696
 21
158.8648997554
 31
0.0
  0
LINE
  5
108
330
EA
100
AcDbEntity
  8
$DDT_AUDIT_GENERATED_(7D)
  6
Continuous
 62
     7
100
AcDbLine
 10
12.35
 20
158.3700811493
 30
0.0
 11
12.35
 21
107.3597183615
 31
0.0
  0
LINE
  5
109
330
EA
100
AcDbEntity
  8
$DDT_AUDIT_GENERATED_(7D)
  6
Continuous
 62
     7
100
AcDbLine
 10
42.35
 20
106.65
 30
0.0
 11
42.35
 21
159.0797995108
 31
0.0
  0
LINE
  5
10A
330
EA
100
AcDbEntity
  8
$DDT_AUDIT_GENERATED_(7D)
  6
Continuous
 62
     7
100
AcDbLine
 10
42.0447642781
 20
159.3797538193
 30
0.0
 11
12.8412737968
 21
158.8700049968
 31
0.0
  0
LINE
  5
10B
330
EA
100
AcDbEntity
  8
$DDT_AUDIT_GENERATED_(7D)
  6
Continuous
 62
     7
100
AcDbLine
 10
12.8412737968
 20
106.8597945139
 30
0.0
 11
42.0447642781
 21
106.3500456915
 31
0.0
  0
ARC
  5
10C
330
EA
100
AcDbEntity
  8
$DDT_AUDIT_GENERATED_(7D)
  6
Continuous
 62
     7
100
AcDbCircle
 10
12.85
 20
107.3597183615
 30
0.0
 40
0.5000000000000004
100
AcDbArc
 50
180.0
 51
269.0
  0
ARC
  5
10D
330
EA
100
AcDbEntity
  8
$DDT_AUDIT_GENERATED_(7D)
  6
Continuous
 62
     7
100
AcDbCircle
 10
12.85
 20
158.3700811493
 30
0.0
 40
0.5000000000000016
100
AcDbArc
 50
91.0
 51
180.0
  0
ARC
  5
10E
330
EA
100
AcDbEntity
  8
$DDT_AUDIT_GENERATED_(7D)
  6
Continuous
 62
     7
100
AcDbCircle
 10
42.05
 20
159.0797995108
 30
0.0
 40
0.2999999999999947
100
AcDbArc
 50
0.0
 51
91.0
  0
ARC
  5
10F
330
EA
100
AcDbEntity
  8
$DDT_AUDIT_GENERATED_(7D)
  6
Continuous
 62
     7
100
AcDbCircle
 10
42.05
 20
106.65
 30
0.0
 40
0.3000000000000002
100
AcDbArc
 50
269.0
 51
0.0
  0
LINE
  5
110
330
EA
100
AcDbEntity
  8
$DDT_AUDIT_GENERATED_(8E)
  6
Continuous
 62
     7
100
AcDbLine
 10
6.35
 20
154.8648997554
 30
0.0
 11
6.35
 21
110.8648997554
 31
0.0
  0
ARC
  5
111
330
EA
100
AcDbEntity
  8
$DDT_AUDIT_GENERATED_(8E)
  6
Continuous
 62
     7
100
AcDbCircle
 10
6.85
 20
154.8648997554
 30
0.0
 40
0.5000000000000004
100
AcDbArc
 50
90.0
 51
180.0
  0
ARC
  5
112
330
EA
100
AcDbEntity
  8
$DDT_AUDIT_GENERATED_(8E)
  6
Continuous
 62
     7
100
AcDbCircle
 10
6.85
 20
110.8648997554
 30
0.0
 40
0.5000000000000004
100
AcDbArc
 50
180.0
 51
270.0
  0
LINE
  5
113
330
EA
100
AcDbEntity
  8
$DDT_AUDIT_GENERATED_(8E)
  6
Continuous
 62
     7
100
AcDbLine
 10
12.35
 20
155.3648997554
 30
0.0
 11
6.85
 21
155.3648997554
 31
0.0
  0
LINE
  5
114
330
EA
100
AcDbEntity
  8
$DDT_AUDIT_GENERATED_(8E)
  6
Continuous
 62
     7
100
AcDbLine
 10
6.85
 20
110.3648997554
 30
0.0
 11
12.35
 21
110.3648997554
 31
0.0
  0
LINE
  5
115
330
EA
100
AcDbEntity
  8
05941038_HUELSE_
  6
Continuous
 62
     7
100
AcDbLine
 10
240.4461261696
 20
165.8648997554
 30
0.0
 11
270.4461261696
 21
165.8648997554
 31
0.0
  0
LINE
  5
116
330
EA
100
AcDbEntity
  8
05941038_HUELSE_
  6
Continuous
 62
     7
100
AcDbLine
 10
270.9461261696
 20
166.3648997554
 30
0.0
 11
270.9461261696
 21
201.3648997554
 31
0.0
  0
LINE
  5
117
330
EA
100
AcDbEntity
  8
05941038_HUELSE_
  6
Continuous
 62
     7
100
AcDbLine
 10
239.9461261696
 20
201.3648997554
 30
0.0
 11
239.9461261696
 21
166.3648997554
 31
0.0
  0
LINE
  5
118
330
EA
100
AcDbEntity
  8
05941038_HUELSE_
  6
Continuous
 62
     7
100
AcDbLine
 10
239.9461261696
 20
166.3648997554
 30
0.0
 11
240.4461261696
 21
165.8648997554
 31
0.0
  0
LINE
  5
119
330
EA
100
AcDbEntity
  8
05941038_HUELSE_
  6
Continuous
 62
     7
100
AcDbLine
 10
270.4461261696
 20
165.8648997554
 30
0.0
 11
270.9461261696
 21
166.3648997554
 31
0.0
  0
LINE
  5
11A
330
EA
100
AcDbEntity
  8
05941038_HUELSE_
  6
Continuous
 62
     7
100
AcDbLine
 10
90.4461087567
 20
165.8648997554
 30
0.0
 11
120.4461087567
 21
165.8648997554
 31
0.0
  0
LINE
  5
11B
330
EA
100
AcDbEntity
  8
05941038_HUELSE_
  6
Continuous
 62
     7
100
AcDbLine
 10
120.9461087567
 20
166.3648997554
 30
0.0
 11
120.9461087567
 21
201.3648997554
 31
0.0
  0
LINE
  5
11C
330
EA
100
AcDbEntity
  8
05941038_HUELSE_
  6
Continuous
 62
     7
100
AcDbLine
 10
89.9461087567
 20
201.3648997554
 30
0.0
 11
89.9461087567
 21
166.3648997554
 31
0.0
  0
LINE
  5
11D
330
EA
100
AcDbEntity
  8
05941038_HUELSE_
  6
Continuous
 62
     7
100
AcDbLine
 10
89.9461087567
 20
166.3648997554
 30
0.0
 11
90.4461087567
 21
165.8648997554
 31
0.0
  0
LINE
  5
11E
330
EA
100
AcDbEntity
  8
05941038_HUELSE_
  6
Continuous
 62
     7
100
AcDbLine
 10
120.4461087567
 20
165.8648997554
 30
0.0
 11
120.9461087567
 21
166.3648997554
 31
0.0
  0
LINE
  5
11F
330
EA
100
AcDbEntity
  8
08041038_ROSETTE
  6
Continuous
 62
     7
100
AcDbLine
 10
220.9461261696
 20
229.3648997554
 30
0.0
 11
289.9461261696
 21
229.3648997554
 31
0.0
  0
LINE
  5
120
330
EA
100
AcDbEntity
  8
08041038_ROSETTE
  6
Continuous
 62
     7
100
AcDbLine
 10
221.4461261696
 20
214.3648997554
 30
0.0
 11
289.4461261696
 21
214.3648997554
 31
0.0
  0
LINE
  5
121
330
EA
100
AcDbEntity
  8
08041038_ROSETTE
  6
Continuous
 62
     7
100
AcDbLine
 10
234.4461261696
 20
201.3648997554
 30
0.0
 11
276.4461261696
 21
201.3648997554
 31
0.0
  0
LINE
  5
122
330
EA
100
AcDbEntity
  8
08041038_ROSETTE
  6
Continuous
 62
     7
100
AcDbLine
 10
220.4461261696
 20
228.8648997554
 30
0.0
 11
220.4461261696
 21
215.3648997554
 31
0.0
  0
LINE
  5
123
330
EA
100
AcDbEntity
  8
08041038_ROSETTE
  6
Continuous
 62
     7
100
AcDbLine
 10
290.4461261696
 20
215.3648997554
 30
0.0
 11
290.4461261696
 21
228.8648997554
 31
0.0
  0
LINE
  5
124
330
EA
100
AcDbEntity
  8
08041038_ROSETTE
  6
Continuous
 62
     7
100
AcDbLine
 10
233.4461261696
 20
213.3648997554
 30
0.0
 11
233.4461261696
 21
202.3648997554
 31
0.0
  0
LINE
  5
125
330
EA
100
AcDbEntity
  8
08041038_ROSETTE
  6
Continuous
 62
     7
100
AcDbLine
 10
277.4461261696
 20
202.3648997554
 30
0.0
 11
277.4461261696
 21
213.3648997554
 31
0.0
  0
ARC
  5
126
330
EA
100
AcDbEntity
  8
08041038_ROSETTE
  6
Continuous
 62
     7
100
AcDbCircle
 10
220.9461261696
 20
228.8648997554
 30
0.0
 40
0.5000000000000004
100
AcDbArc
 50
90.0
 51
180.0
  0
ARC
  5
127
330
EA
100
AcDbEntity
  8
08041038_ROSETTE
  6
Continuous
 62
     7
100
AcDbCircle
 10
289.9461261696
 20
228.8648997554
 30
0.0
 40
0.5000000000000004
100
AcDbArc
 50
0.0
 51
90.0
  0
ARC
  5
128
330
EA
100
AcDbEntity
  8
08041038_ROSETTE
  6
Continuous
 62
     7
100
AcDbCircle
 10
221.4461261696
 20
215.3648997554
 30
0.0
 40
1.000000000000001
100
AcDbArc
 50
180.0
 51
270.0
  0
ARC
  5
129
330
EA
100
AcDbEntity
  8
08041038_ROSETTE
  6
Continuous
 62
     7
100
AcDbCircle
 10
289.4461261696
 20
215.3648997554
 30
0.0
 40
1.000000000000001
100
AcDbArc
 50
270.0
 51
0.0
  0
ARC
  5
12A
330
EA
100
AcDbEntity
  8
08041038_ROSETTE
  6
Continuous
 62
     7
100
AcDbCircle
 10
234.4461261696
 20
202.3648997554
 30
0.0
 40
1.000000000000001
100
AcDbArc
 50
180.0
 51
270.0
  0
ARC
  5
12B
330
EA
100
AcDbEntity
  8
08041038_ROSETTE
  6
Continuous
 62
     7
100
AcDbCircle
 10
276.4461261696
 20
202.3648997554
 30
0.0
 40
1.000000000000001
100
AcDbArc
 50
270.0
 51
0.0
  0
ARC
  5
12C
330
EA
100
AcDbEntity
  8
08041038_ROSETTE
  6
Continuous
 62
     7
100
AcDbCircle
 10
232.4461261696
 20
213.3648997554
 30
0.0
 40
1.000000000000001
100
AcDbArc
 50
0.0
 51
90.0
  0
ARC
  5
12D
330
EA
100
AcDbEntity
  8
08041038_ROSETTE
  6
Continuous
 62
     7
100
AcDbCircle
 10
278.4461261696
 20
213.3648997554
 30
0.0
 40
1.000000000000001
100
AcDbArc
 50
90.0
 51
180.0
  0
LINE
  5
12E
330
EA
100
AcDbEntity
  8
08041038_ROSETTE
  6
Continuous
 62
     7
100
AcDbLine
 10
139.9461087567
 20
229.3648997554
 30
0.0
 11
70.9461087567
 21
229.3648997554
 31
0.0
  0
LINE
  5
12F
330
EA
100
AcDbEntity
  8
08041038_ROSETTE
  6
Continuous
 62
     7
100
AcDbLine
 10
71.4461087567
 20
214.3648997554
 30
0.0
 11
139.4461087567
 21
214.3648997554
 31
0.0
  0
LINE
  5
130
330
EA
100
AcDbEntity
  8
08041038_ROSETTE
  6
Continuous
 62
     7
100
AcDbLine
 10
84.4461087567
 20
201.3648997554
 30
0.0
 11
126.4461087567
 21
201.3648997554
 31
0.0
  0
LINE
  5
131
330
EA
100
AcDbEntity
  8
08041038_ROSETTE
  6
Continuous
 62
     7
100
AcDbLine
 10
70.4461087567
 20
228.8648997554
 30
0.0
 11
70.4461087567
 21
215.3648997554
 31
0.0
  0
LINE
  5
132
330
EA
100
AcDbEntity
  8
08041038_ROSETTE
  6
Continuous
 62
     7
100
AcDbLine
 10
140.4461087567
 20
215.3648997554
 30
0.0
 11
140.4461087567
 21
228.8648997554
 31
0.0
  0
LINE
  5
133
330
EA
100
AcDbEntity
  8
08041038_ROSETTE
  6
Continuous
 62
     7
100
AcDbLine
 10
83.4461087567
 20
213.3648997554
 30
0.0
 11
83.4461087567
 21
202.3648997554
 31
0.0
  0
LINE
  5
134
330
EA
100
AcDbEntity
  8
08041038_ROSETTE
  6
Continuous
 62
     7
100
AcDbLine
 10
127.4461087567
 20
202.3648997554
 30
0.0
 11
127.4461087567
 21
213.3648997554
 31
0.0
  0
ARC
  5
135
330
EA
100
AcDbEntity
  8
08041038_ROSETTE
  6
Continuous
 62
     7
100
AcDbCircle
 10
70.9461087567
 20
228.8648997554
 30
0.0
 40
0.5000000000000004
100
AcDbArc
 50
90.0
 51
180.0
  0
ARC
  5
136
330
EA
100
AcDbEntity
  8
08041038_ROSETTE
  6
Continuous
 62
     7
100
AcDbCircle
 10
139.9461087567
 20
228.8648997554
 30
0.0
 40
0.5000000000000004
100
AcDbArc
 50
0.0
 51
90.0
  0
ARC
  5
137
330
EA
100
AcDbEntity
  8
08041038_ROSETTE
  6
Continuous
 62
     7
100
AcDbCircle
 10
71.4461087567
 20
215.3648997554
 30
0.0
 40
1.000000000000001
100
AcDbArc
 50
180.0
 51
270.0
  0
ARC
  5
138
330
EA
100
AcDbEntity
  8
08041038_ROSETTE
  6
Continuous
 62
     7
100
AcDbCircle
 10
139.4461087567
 20
215.3648997554
 30
0.0
 40
1.000000000000001
100
AcDbArc
 50
270.0
 51
0.0
  0
ARC
  5
139
330
EA
100
AcDbEntity
  8
08041038_ROSETTE
  6
Continuous
 62
     7
100
AcDbCircle
 10
84.4461087567
 20
202.3648997554
 30
0.0
 40
1.000000000000001
100
AcDbArc
 50
180.0
 51
270.0
  0
ARC
  5
13A
330
EA
100
AcDbEntity
  8
08041038_ROSETTE
  6
Continuous
 62
     7
100
AcDbCircle
 10
126.4461087567
 20
202.3648997554
 30
0.0
 40
1.000000000000001
100
AcDbArc
 50
270.0
 51
0.0
  0
ARC
  5
13B
330
EA
100
AcDbEntity
  8
08041038_ROSETTE
  6
Continuous
 62
     7
100
AcDbCircle
 10
82.4461087567
 20
213.3648997554
 30
0.0
 40
1.000000000000001
100
AcDbArc
 50
0.0
 51
90.0
  0
ARC
  5
13C
330
EA
100
AcDbEntity
  8
08041038_ROSETTE
  6
Continuous
 62
     7
100
AcDbCircle
 10
128.4461087567
 20
213.3648997554
 30
0.0
 40
1.000000000000001
100
AcDbArc
 50
90.0
 51
180.0
  0
LINE
  5
13E
330
EA
100
AcDbEntity
  8
DV3_Standard
  6
CENTER2
 62
     7
100
AcDbLine
 10
125.4461083096
 20
229.3648997554
 30
0.0
 11
85.4461092037
 21
229.3648997554
 31
0.0
  0
LINE
  5
13F
330
EA
100
AcDbEntity
  8
DV3_Standard
  6
CENTER2
 62
     7
100
AcDbLine
 10
105.4461087567
 20
249.3648993083
 30
0.0
 11
105.4461087567
 21
209.3649002024
 31
0.0
  0
LINE
  5
140
330
EA
100
AcDbEntity
  8
DV3_Standard
  6
CENTER2
 62
     7
100
AcDbLine
 10
275.4461257226
 20
229.3648997554
 30
0.0
 11
235.4461266166
 21
229.3648997554
 31
0.0
  0
LINE
  5
141
330
EA
100
AcDbEntity
  8
DV3_Standard
  6
CENTER2
 62
     7
100
AcDbLine
 10
255.4461261696
 20
249.3648993083
 30
0.0
 11
255.4461261696
 21
209.3649002024
 31
0.0
  0
ENDBLK
  5
143
330
EA
100
AcDbEntity
  8
0
100
AcDbBlockEnd
  0
ENDSEC
  0
SECTION
  2
ENTITIES
  0
INSERT
  5
5F
330
1F
100
AcDbEntity
  8
Default
100
AcDbBlockReference
  2
SE
 10
0.0
 20
0.0
 30
0.0
  0
INSERT
  5
AD
330
1F
100
AcDbEntity
  8
Default
100
AcDbBlockReference
  2
SE1
 10
0.0
 20
0.0
 30
0.0
  0
INSERT
  5
EB
330
1F
100
AcDbEntity
  8
Default
100
AcDbBlockReference
  2
SE2
 10
0.0
 20
0.0
 30
0.0
  0
TEXT
  5
145
330
1F
100
AcDbEntity
  8
Default
  6
Continuous
 62
     7
100
AcDbText
 10
5.9362635081
 20
53.4225120485
 30
0.0
 40
10.0
  1
Grohe AG^J
  7
SEACAD_seiso_ttf
 11
5.9362635081
 21
63.4225120485
 31
0.0
100
AcDbText
 73
     3
  0
TEXT
  5
146
330
1F
100
AcDbEntity
  8
Default
  6
Continuous
 62
     7
100
AcDbText
 10
5.9362635081
 20
37.0588756849
 30
0.0
 40
10.0
  1
 
  7
SEACAD_seiso_ttf
 11
5.9362635081
 21
47.0588756849
 31
0.0
100
AcDbText
 73
     3
  0
TEXT
  5
147
330
1F
100
AcDbEntity
  8
Default
  6
Continuous
 62
     7
100
AcDbText
 10
5.9362635081
 20
20.6952393213
 30
0.0
 40
10.0
  1
ecn: 
  7
SEACAD_seiso_ttf
 11
5.9362635081
 21
30.6952393213
 31
0.0
100
AcDbText
 73
     3
  0
TEXT
  5
148
330
1F
100
AcDbEntity
  8
Default
  6
Continuous
 62
     7
100
AcDbText
 10
5.9362635081
 20
4.3316029576
 30
0.0
 40
10.0
  1
unit: mm
  7
SEACAD_seiso_ttf
 11
5.9362635081
 21
14.3316029576
 31
0.0
100
AcDbText
 73
     3
  0
LINE
  5
149
330
1F
100
AcDbEntity
  8
Default
  6
Continuous
 62
     7
100
AcDbLine
 10
0.0
 20
0.0
 30
0.0
 11
100.0
 21
0.0
 31
0.0
  0
LINE
  5
14A
330
1F
100
AcDbEntity
  8
Default
  6
Continuous
 62
     7
100
AcDbLine
 10
0.0
 20
0.0
 30
0.0
 11
0.0
 21
100.0
 31
0.0
  0
TEXT
  5
14B
330
1F
100
AcDbEntity
  8
Default
  6
Continuous
 62
     7
100
AcDbText
 10
24.3923665681
 20
-18.2375342018
 30
0.0
 40
10.0
  1
100 mm
  7
SEACAD_seiso_ttf
 11
24.3923665681
 21
-8.2375342018
 31
0.0
100
AcDbText
 73
     3
  0
TEXT
  5
14C
330
1F
100
AcDbEntity
  8
Default
  6
Continuous
 62
     7
100
AcDbText
 10
-7.6150308803
 20
24.6231930421
 30
0.0
 40
10.0
  1
100 mm
 50
90.0
  7
SEACAD_seiso_ttf
 11
-17.6150308803
 21
24.6231930421
 31
0.0
100
AcDbText
 73
     3
  0
TEXT
  5
14D
330
1F
100
AcDbEntity
  8
Default
  6
Continuous
 62
     7
100
AcDbText
 10
28.4878128572
 20
20.0907663715
 30
0.0
 40
10.0
  1
212469
  7
SEACAD_seiso_ttf
 11
28.4878128572
 21
30.0907663715
 31
0.0
100
AcDbText
 73
     3
  0
TEXT
  5
14E
330
1F
100
AcDbEntity
  8
Default
  6
Continuous
 62
     7
100
AcDbText
 10
5.9012241913
 20
36.7242780188
 30
0.0
 40
10.0
  1
32650001
  7
SEACAD_seiso_ttf
 11
5.9012241913
 21
46.7242780188
 31
0.0
100
AcDbText
 73
     3
  0
ENDSEC
  0
SECTION
  2
OBJECTS
  0
DICTIONARY
  5
C
330
0
100
AcDbDictionary
281
     1
  3
ACAD_GROUP
350
D
  3
ACAD_LAYOUT
350
1A
  3
ACAD_MLEADERSTYLE
350
152
  3
ACAD_MLINESTYLE
350
17
  3
ACAD_PLOTSETTINGS
350
19
  3
ACAD_PLOTSTYLENAME
350
E
  3
ACAD_SCALELIST
350
3B
  3
ACAD_TABLESTYLE
350
151
  3
ACAD_VISUALSTYLE
350
2A
  3
AcDbVariableDictionary
350
14F
  0
DICTIONARY
  5
D
102
{ACAD_REACTORS
330
C
102
}
330
C
100
AcDbDictionary
281
     1
  0
DICTIONARY
  5
1A
102
{ACAD_REACTORS
330
C
102
}
330
C
100
AcDbDictionary
281
     1
  3
Layout1
350
1E
  3
Model
350
22
  0
DICTIONARY
  5
152
102
{ACAD_REACTORS
330
C
102
}
330
C
100
AcDbDictionary
281
     1
  0
DICTIONARY
  5
17
102
{ACAD_REACTORS
330
C
102
}
330
C
100
AcDbDictionary
281
     1
  3
Standard
350
18
  0
DICTIONARY
  5
19
102
{ACAD_REACTORS
330
C
102
}
330
C
100
AcDbDictionary
281
     1
  0
ACDBDICTIONARYWDFLT
  5
E
102
{ACAD_REACTORS
330
C
102
}
330
C
100
AcDbDictionary
281
     1
  3
Normal
350
F
100
AcDbDictionaryWithDefault
340
F
  0
DICTIONARY
  5
3B
102
{ACAD_REACTORS
330
C
102
}
330
C
100
AcDbDictionary
281
     1
  3
A0
350
3C
  3
A1
350
3D
  3
A2
350
3E
  3
A3
350
3F
  3
A4
350
40
  3
A5
350
41
  3
A6
350
42
  3
A7
350
43
  3
A8
350
44
  3
A9
350
45
  3
B0
350
46
  3
B1
350
47
  3
B2
350
48
  3
B3
350
49
  3
B4
350
4A
  3
B5
350
4B
  3
B6
350
4C
  3
B7
350
4D
  3
B8
350
4E
  3
B9
350
4F
  3
C0
350
50
  3
C1
350
51
  3
C2
350
52
  3
C3
350
53
  3
C4
350
54
  3
C5
350
55
  3
C6
350
56
  3
C7
350
57
  3
C8
350
58
  3
C9
350
59
  3
D0
350
5A
  3
D1
350
5B
  3
D2
350
5C
  0
DICTIONARY
  5
151
102
{ACAD_REACTORS
330
C
102
}
330
C
100
AcDbDictionary
281
     1
  0
DICTIONARY
  5
2A
102
{ACAD_REACTORS
330
C
102
}
330
C
100
AcDbDictionary
281
     1
  3
2dWireframe
350
2F
  3
3D Hidden
350
31
  3
3dWireframe
350
30
  3
Basic
350
32
  3
Brighten
350
36
  3
ColorChange
350
3A
  3
Conceptual
350
34
  3
Dim
350
35
  3
Facepattern
350
39
  3
Flat
350
2B
  3
FlatWithEdges
350
2C
  3
Gouraud
350
2D
  3
GouraudWithEdges
350
2E
  3
Linepattern
350
38
  3
Realistic
350
33
  3
Thicken
350
37
  0
DICTIONARY
  5
14F
102
{ACAD_REACTORS
330
C
102
}
330
C
100
AcDbDictionary
281
     1
  3
CANNOSCALE
350
150
  3
PSOLHEIGHT
350
154
  3
PSOLWIDTH
350
153
  0
LAYOUT
  5
1E
102
{ACAD_REACTORS
330
1A
102
}
330
1A
100
AcDbPlotSettings
  1

  2
none_device
  4

  6

 40
0.0
 41
0.0
 42
0.0
 43
0.0
 44
0.0
 45
0.0
 46
0.0
 47
0.0
 48
0.0
 49
0.0
140
0.0
141
0.0
142
1.0
143
1.0
 70
   688
 72
     0
 73
     0
 74
     5
  7

 75
    16
147
1.0
148
0.0
149
0.0
100
AcDbLayout
  1
Layout1
 70
     1
 71
     1
 10
0.0
 20
0.0
 11
1682.0
 21
2378.0
 12
0.0
 22
0.0
 32
0.0
 14
0.0
 24
0.0
 34
0.0
 15
1682.0
 25
2378.0
 35
0.0
146
0.0
 13
0.0
 23
0.0
 33
0.0
 16
1.0
 26
0.0
 36
0.0
 17
0.0
 27
1.0
 37
0.0
 76
     0
330
1B
  0
LAYOUT
  5
22
102
{ACAD_REACTORS
330
1A
102
}
330
1A
100
AcDbPlotSettings
  1

  2
none_device
  4

  6

 40
0.0
 41
0.0
 42
0.0
 43
0.0
 44
0.0
 45
0.0
 46
0.0
 47
0.0
 48
0.0
 49
0.0
140
0.0
141
0.0
142
1.0
143
1.0
 70
  1712
 72
     0
 73
     0
 74
     0
  7

 75
     0
147
1.0
148
0.0
149
0.0
100
AcDbLayout
  1
Model
 70
     1
 71
     0
 10
0.0
 20
0.0
 11
1682.0
 21
2378.0
 12
0.0
 22
0.0
 32
0.0
 14
0.0
 24
0.0
 34
0.0
 15
1682.0
 25
2378.0
 35
0.0
146
0.0
 13
0.0
 23
0.0
 33
0.0
 16
1.0
 26
0.0
 36
0.0
 17
0.0
 27
1.0
 37
0.0
 76
     0
330
1F
331
29
  0
MLINESTYLE
  5
18
102
{ACAD_REACTORS
330
17
102
}
330
17
100
AcDbMlineStyle
  2
Standard
 70
     0
  3

 62
   256
 51
90.0
 52
90.0
 71
     2
 49
0.5
 62
   256
  6
BYLAYER
 49
-0.5
 62
   256
  6
BYLAYER
  0
ACDBPLACEHOLDER
  5
F
102
{ACAD_REACTORS
330
E
102
}
330
E
  0
SCALE
  5
3C
102
{ACAD_REACTORS
330
3B
102
}
330
3B
100
AcDbScale
 70
     0
300
1:1
140
1.0
141
1.0
290
     1
  0
SCALE
  5
3D
102
{ACAD_REACTORS
330
3B
102
}
330
3B
100
AcDbScale
 70
     0
300
1:2
140
1.0
141
2.0
290
     0
  0
SCALE
  5
3E
102
{ACAD_REACTORS
330
3B
102
}
330
3B
100
AcDbScale
 70
     0
300
1:4
140
1.0
141
4.0
290
     0
  0
SCALE
  5
3F
102
{ACAD_REACTORS
330
3B
102
}
330
3B
100
AcDbScale
 70
     0
300
1:5
140
1.0
141
5.0
290
     0
  0
SCALE
  5
40
102
{ACAD_REACTORS
330
3B
102
}
330
3B
100
AcDbScale
 70
     0
300
1:8
140
1.0
141
8.0
290
     0
  0
SCALE
  5
41
102
{ACAD_REACTORS
330
3B
102
}
330
3B
100
AcDbScale
 70
     0
300
1:10
140
1.0
141
10.0
290
     0
  0
SCALE
  5
42
102
{ACAD_REACTORS
330
3B
102
}
330
3B
100
AcDbScale
 70
     0
300
1:16
140
1.0
141
16.0
290
     0
  0
SCALE
  5
43
102
{ACAD_REACTORS
330
3B
102
}
330
3B
100
AcDbScale
 70
     0
300
1:20
140
1.0
141
20.0
290
     0
  0
SCALE
  5
44
102
{ACAD_REACTORS
330
3B
102
}
330
3B
100
AcDbScale
 70
     0
300
1:30
140
1.0
141
30.0
290
     0
  0
SCALE
  5
45
102
{ACAD_REACTORS
330
3B
102
}
330
3B
100
AcDbScale
 70
     0
300
1:40
140
1.0
141
40.0
290
     0
  0
SCALE
  5
46
102
{ACAD_REACTORS
330
3B
102
}
330
3B
100
AcDbScale
 70
     0
300
1:50
140
1.0
141
50.0
290
     0
  0
SCALE
  5
47
102
{ACAD_REACTORS
330
3B
102
}
330
3B
100
AcDbScale
 70
     0
300
1:100
140
1.0
141
100.0
290
     0
  0
SCALE
  5
48
102
{ACAD_REACTORS
330
3B
102
}
330
3B
100
AcDbScale
 70
     0
300
2:1
140
2.0
141
1.0
290
     0
  0
SCALE
  5
49
102
{ACAD_REACTORS
330
3B
102
}
330
3B
100
AcDbScale
 70
     0
300
4:1
140
4.0
141
1.0
290
     0
  0
SCALE
  5
4A
102
{ACAD_REACTORS
330
3B
102
}
330
3B
100
AcDbScale
 70
     0
300
8:1
140
8.0
141
1.0
290
     0
  0
SCALE
  5
4B
102
{ACAD_REACTORS
330
3B
102
}
330
3B
100
AcDbScale
 70
     0
300
10:1
140
10.0
141
1.0
290
     0
  0
SCALE
  5
4C
102
{ACAD_REACTORS
330
3B
102
}
330
3B
100
AcDbScale
 70
     0
300
100:1
140
100.0
141
1.0
290
     0
  0
SCALE
  5
4D
102
{ACAD_REACTORS
330
3B
102
}
330
3B
100
AcDbScale
 70
     0
300
1/128" = 1'-0"
140
0.0078125
141
12.0
290
     0
  0
SCALE
  5
4E
102
{ACAD_REACTORS
330
3B
102
}
330
3B
100
AcDbScale
 70
     0
300
1/64" = 1'-0"
140
0.015625
141
12.0
290
     0
  0
SCALE
  5
4F
102
{ACAD_REACTORS
330
3B
102
}
330
3B
100
AcDbScale
 70
     0
300
1/32" = 1'-0"
140
0.03125
141
12.0
290
     0
  0
SCALE
  5
50
102
{ACAD_REACTORS
330
3B
102
}
330
3B
100
AcDbScale
 70
     0
300
1/16" = 1'-0"
140
0.0625
141
12.0
290
     0
  0
SCALE
  5
51
102
{ACAD_REACTORS
330
3B
102
}
330
3B
100
AcDbScale
 70
     0
300
3/32" = 1'-0"
140
0.09375
141
12.0
290
     0
  0
SCALE
  5
52
102
{ACAD_REACTORS
330
3B
102
}
330
3B
100
AcDbScale
 70
     0
300
1/8" = 1'-0"
140
0.125
141
12.0
290
     0
  0
SCALE
  5
53
102
{ACAD_REACTORS
330
3B
102
}
330
3B
100
AcDbScale
 70
     0
300
3/16" = 1'-0"
140
0.1875
141
12.0
290
     0
  0
SCALE
  5
54
102
{ACAD_REACTORS
330
3B
102
}
330
3B
100
AcDbScale
 70
     0
300
1/4" = 1'-0"
140
0.25
141
12.0
290
     0
  0
SCALE
  5
55
102
{ACAD_REACTORS
330
3B
102
}
330
3B
100
AcDbScale
 70
     0
300
3/8" = 1'-0"
140
0.375
141
12.0
290
     0
  0
SCALE
  5
56
102
{ACAD_REACTORS
330
3B
102
}
330
3B
100
AcDbScale
 70
     0
300
1/2" = 1'-0"
140
0.5
141
12.0
290
     0
  0
SCALE
  5
57
102
{ACAD_REACTORS
330
3B
102
}
330
3B
100
AcDbScale
 70
     0
300
3/4" = 1'-0"
140
0.75
141
12.0
290
     0
  0
SCALE
  5
58
102
{ACAD_REACTORS
330
3B
102
}
330
3B
100
AcDbScale
 70
     0
300
1" = 1'-0"
140
1.0
141
12.0
290
     0
  0
SCALE
  5
59
102
{ACAD_REACTORS
330
3B
102
}
330
3B
100
AcDbScale
 70
     0
300
1-1/2" = 1'-0"
140
1.5
141
12.0
290
     0
  0
SCALE
  5
5A
102
{ACAD_REACTORS
330
3B
102
}
330
3B
100
AcDbScale
 70
     0
300
3" = 1'-0"
140
3.0
141
12.0
290
     0
  0
SCALE
  5
5B
102
{ACAD_REACTORS
330
3B
102
}
330
3B
100
AcDbScale
 70
     0
300
6" = 1'-0"
140
6.0
141
12.0
290
     0
  0
SCALE
  5
5C
102
{ACAD_REACTORS
330
3B
102
}
330
3B
100
AcDbScale
 70
     0
300
1'-0" = 1'-0"
140
12.0
141
12.0
290
     0
  0
VISUALSTYLE
  5
2F
102
{ACAD_REACTORS
330
2A
102
}
330
2A
100
AcDbVisualStyle
  2
2dWireframe
 70
     4
 71
     0
 72
     2
 73
     0
 90
        0
 40
-0.6
 41
-30.0
 62
     5
 63
     7
 74
     1
 91
        4
 64
     7
 65
   257
 75
     1
175
     1
 42
1.0
 92
        0
 66
   257
 43
1.0
 76
     1
 77
     6
 78
     2
 67
     7
 79
     5
170
     0
171
     0
290
     0
174
     0
 93
        1
 44
0.0
173
     0
291
     0
 45
0.0
1001
ACAD
1000
AcDbSavedByObjectVersion
1070
     0
  0
VISUALSTYLE
  5
31
102
{ACAD_REACTORS
330
2A
102
}
330
2A
100
AcDbVisualStyle
  2
3D Hidden
 70
     6
 71
     1
 72
     2
 73
     2
 90
        0
 40
-0.6
 41
-30.0
 62
     5
 63
     7
 74
     2
 91
        2
 64
     7
 65
   257
 75
     2
175
     1
 42
40.0
 92
        0
 66
   257
 43
1.0
 76
     1
 77
     6
 78
     2
 67
     7
 79
     3
170
     0
171
     0
290
     0
174
     0
 93
        1
 44
0.0
173
     0
291
     0
 45
0.0
1001
ACAD
1000
AcDbSavedByObjectVersion
1070
     0
  0
VISUALSTYLE
  5
30
102
{ACAD_REACTORS
330
2A
102
}
330
2A
100
AcDbVisualStyle
  2
3dWireframe
 70
     5
 71
     0
 72
     2
 73
     0
 90
        0
 40
-0.6
 41
-30.0
 62
     5
 63
     7
 74
     1
 91
        4
 64
     7
 65
   257
 75
     1
175
     1
 42
1.0
 92
        0
 66
   257
 43
1.0
 76
     1
 77
     6
 78
     2
 67
     7
 79
     5
170
     0
171
     0
290
     0
174
     0
 93
        1
 44
0.0
173
     0
291
     0
 45
0.0
1001
ACAD
1000
AcDbSavedByObjectVersion
1070
     0
  0
VISUALSTYLE
  5
32
102
{ACAD_REACTORS
330
2A
102
}
330
2A
100
AcDbVisualStyle
  2
Basic
 70
     7
 71
     1
 72
     0
 73
     1
 90
        0
 40
-0.6
 41
-30.0
 62
     5
 63
     7
 74
     0
 91
        4
 64
     7
 65
   257
 75
     1
175
     1
 42
1.0
 92
        8
 66
     7
 43
1.0
 76
     1
 77
     6
 78
     2
 67
     7
 79
     5
170
     0
171
     0
290
     0
174
     0
 93
        1
 44
0.0
173
     0
291
     1
 45
0.0
1001
ACAD
1000
AcDbSavedByObjectVersion
1070
     0
  0
VISUALSTYLE
  5
36
102
{ACAD_REACTORS
330
2A
102
}
330
2A
100
AcDbVisualStyle
  2
Brighten
 70
    12
 71
     2
 72
     2
 73
     0
 90
        0
 40
-0.6
 41
-30.0
 62
     5
 63
     7
 74
     1
 91
        4
 64
     7
 65
   257
 75
     1
175
     1
 42
1.0
 92
        8
 66
     7
 43
1.0
 76
     1
 77
     6
 78
     2
 67
     7
 79
     5
170
     0
171
     0
290
     0
174
     0
 93
        1
 44
50.0
173
     0
291
     1
 45
0.0
1001
ACAD
1000
AcDbSavedByObjectVersion
1070
     0
  0
VISUALSTYLE
  5
3A
102
{ACAD_REACTORS
330
2A
102
}
330
2A
100
AcDbVisualStyle
  2
ColorChange
 70
    16
 71
     2
 72
     2
 73
     3
 90
        0
 40
-0.6
 41
-30.0
 62
     5
 63
     8
 74
     1
 91
        4
 64
     7
 65
   257
 75
     1
175
     1
 42
1.0
 92
        8
 66
     8
 43
1.0
 76
     1
 77
     6
 78
     2
 67
     7
 79
     5
170
     0
171
     0
290
     0
174
     0
 93
        1
 44
0.0
173
     0
291
     1
 45
0.0
1001
ACAD
1000
AcDbSavedByObjectVersion
1070
     0
  0
VISUALSTYLE
  5
34
102
{ACAD_REACTORS
330
2A
102
}
330
2A
100
AcDbVisualStyle
  2
Conceptual
 70
     9
 71
     3
 72
     2
 73
     0
 90
        0
 40
-0.6
 41
-30.0
 62
     5
 63
     7
 74
     2
 91
        2
 64
     7
 65
   257
 75
     1
175
     1
 42
40.0
 92
        8
 66
     7
 43
1.0
 76
     1
 77
     6
 78
     2
 67
     7
 79
     3
170
     0
171
     0
290
     0
174
     0
 93
        1
 44
0.0
173
     0
291
     0
 45
0.0
1001
ACAD
1000
AcDbSavedByObjectVersion
1070
     0
  0
VISUALSTYLE
  5
35
102
{ACAD_REACTORS
330
2A
102
}
330
2A
100
AcDbVisualStyle
  2
Dim
 70
    11
 71
     2
 72
     2
 73
     0
 90
        0
 40
-0.6
 41
-30.0
 62
     5
 63
     7
 74
     1
 91
        4
 64
     7
 65
   257
 75
     1
175
     1
 42
1.0
 92
        8
 66
     7
 43
1.0
 76
     1
 77
     6
 78
     2
 67
     7
 79
     5
170
     0
171
     0
290
     0
174
     0
 93
        1
 44
-50.0
173
     0
291
     1
 45
0.0
1001
ACAD
1000
AcDbSavedByObjectVersion
1070
     0
  0
VISUALSTYLE
  5
39
102
{ACAD_REACTORS
330
2A
102
}
330
2A
100
AcDbVisualStyle
  2
Facepattern
 70
    15
 71
     2
 72
     2
 73
     0
 90
        0
 40
-0.6
 41
-30.0
 62
     5
 63
     7
 74
     1
 91
        4
 64
     7
 65
   257
 75
     1
175
     1
 42
1.0
 92
        8
 66
     7
 43
1.0
 76
     1
 77
     6
 78
     2
 67
     7
 79
     5
170
     0
171
     0
290
     0
174
     0
 93
        1
 44
0.0
173
     0
291
     1
 45
0.0
1001
ACAD
1000
AcDbSavedByObjectVersion
1070
     0
  0
VISUALSTYLE
  5
2B
102
{ACAD_REACTORS
330
2A
102
}
330
2A
100
AcDbVisualStyle
  2
Flat
 70
     0
 71
     2
 72
     1
 73
     1
 90
        2
 40
-0.6
 41
30.0
 62
     5
 63
     7
 74
     0
 91
        4
 64
     7
 65
   257
 75
     1
175
     1
 42
1.0
 92
        8
 66
     7
 43
1.0
 76
     1
 77
     6
 78
     2
 67
     7
 79
     5
170
     0
171
     0
290
     0
174
     0
 93
       13
 44
0.0
173
     0
291
     1
 45
0.0
1001
ACAD
1000
AcDbSavedByObjectVersion
1070
     0
  0
VISUALSTYLE
  5
2C
102
{ACAD_REACTORS
330
2A
102
}
330
2A
100
AcDbVisualStyle
  2
FlatWithEdges
 70
     1
 71
     2
 72
     1
 73
     1
 90
        2
 40
-0.6
 41
30.0
 62
     5
 63
     7
 74
     1
 91
        4
 64
     7
 65
   257
 75
     1
175
     1
 42
1.0
 92
        0
 66
   257
 43
1.0
 76
     1
 77
     6
 78
     2
 67
     7
 79
     5
170
     0
171
     0
290
     0
174
     0
 93
       13
 44
0.0
173
     0
291
     1
 45
0.0
1001
ACAD
1000
AcDbSavedByObjectVersion
1070
     0
  0
VISUALSTYLE
  5
2D
102
{ACAD_REACTORS
330
2A
102
}
330
2A
100
AcDbVisualStyle
  2
Gouraud
 70
     2
 71
     2
 72
     2
 73
     1
 90
        2
 40
-0.6
 41
30.0
 62
     5
 63
     7
 74
     0
 91
        4
 64
     7
 65
   257
 75
     1
175
     1
 42
1.0
 92
        0
 66
     7
 43
1.0
 76
     1
 77
     6
 78
     2
 67
     7
 79
     5
170
     0
171
     0
290
     0
174
     0
 93
       13
 44
0.0
173
     0
291
     1
 45
0.0
1001
ACAD
1000
AcDbSavedByObjectVersion
1070
     0
  0
VISUALSTYLE
  5
2E
102
{ACAD_REACTORS
330
2A
102
}
330
2A
100
AcDbVisualStyle
  2
GouraudWithEdges
 70
     3
 71
     2
 72
     2
 73
     1
 90
        2
 40
-0.6
 41
30.0
 62
     5
 63
     7
 74
     1
 91
        4
 64
     7
 65
   257
 75
     1
175
     1
 42
1.0
 92
        0
 66
   257
 43
1.0
 76
     1
 77
     6
 78
     2
 67
     7
 79
     5
170
     0
171
     0
290
     0
174
     0
 93
       13
 44
0.0
173
     0
291
     1
 45
0.0
1001
ACAD
1000
AcDbSavedByObjectVersion
1070
     0
  0
VISUALSTYLE
  5
38
102
{ACAD_REACTORS
330
2A
102
}
330
2A
100
AcDbVisualStyle
  2
Linepattern
 70
    14
 71
     2
 72
     2
 73
     0
 90
        0
 40
-0.6
 41
-30.0
 62
     5
 63
     7
 74
     1
 91
        4
 64
     7
 65
   257
 75
     7
175
     7
 42
1.0
 92
        8
 66
     7
 43
1.0
 76
     1
 77
     6
 78
     2
 67
     7
 79
     5
170
     0
171
     0
290
     0
174
     0
 93
        1
 44
0.0
173
     0
291
     1
 45
0.0
1001
ACAD
1000
AcDbSavedByObjectVersion
1070
     0
  0
VISUALSTYLE
  5
33
102
{ACAD_REACTORS
330
2A
102
}
330
2A
100
AcDbVisualStyle
  2
Realistic
 70
     8
 71
     2
 72
     2
 73
     0
 90
        0
 40
-0.6
 41
-30.0
 62
     5
 63
     7
 74
     1
 91
        0
 64
     7
 65
   257
 75
     1
175
     1
 42
1.0
 92
        8
 66
     8
 43
1.0
 76
     1
 77
     6
 78
     2
 67
     7
 79
     5
170
     0
171
     0
290
     0
174
     0
 93
       13
 44
0.0
173
     0
291
     0
 45
0.0
1001
ACAD
1000
AcDbSavedByObjectVersion
1070
     0
  0
VISUALSTYLE
  5
37
102
{ACAD_REACTORS
330
2A
102
}
330
2A
100
AcDbVisualStyle
  2
Thicken
 70
    13
 71
     2
 72
     2
 73
     0
 90
        0
 40
-0.6
 41
-30.0
 62
     5
 63
     7
 74
     1
 91
        4
 64
     7
 65
   257
 75
     1
175
     1
 42
1.0
 92
       12
 66
     7
 43
1.0
 76
     1
 77
     6
 78
     2
 67
     7
 79
     5
170
     0
171
     0
290
     0
174
     0
 93
        1
 44
0.0
173
     0
291
     1
 45
0.0
1001
ACAD
1000
AcDbSavedByObjectVersion
1070
     0
  0
DICTIONARYVAR
  5
150
102
{ACAD_REACTORS
330
14F
102
}
330
14F
100
DictionaryVariables
280
     0
  1
1:1
  0
DICTIONARYVAR
  5
154
102
{ACAD_REACTORS
330
14F
102
}
330
14F
100
DictionaryVariables
280
     0
  1
80.000000
  0
DICTIONARYVAR
  5
153
102
{ACAD_REACTORS
330
14F
102
}
330
14F
100
DictionaryVariables
280
     0
  1
5.000000
  0
ENDSEC
  0
EOF
