  0
SECTION
  2
HEADER
  9
$ACADVER
  1
AC1015
  9
$ACADMAINTVER
 70
     6
  9
$DWGCODEPAGE
  3
ANSI_1252
  9
$INSBASE
 10
0.0
 20
0.0
 30
0.0
  9
$EXTMIN
 10
0.0
 20
0.0
 30
0.0
  9
$EXTMAX
 10
1682.0
 20
2378.0
 30
0.0
  9
$LIMMIN
 10
0.0
 20
0.0
  9
$LIMMAX
 10
1682.0
 20
2378.0
  9
$ORTHOMODE
 70
     0
  9
$REGENMODE
 70
     1
  9
$FILLMODE
 70
     1
  9
$QTEXTMODE
 70
     0
  9
$MIRRTEXT
 70
     1
  9
$LTSCALE
 40
1.0
  9
$ATTMODE
 70
     1
  9
$TEXTSIZE
 40
2.5
  9
$TRACEWID
 40
1.0
  9
$TEXTSTYLE
  7
Standard
  9
$CLAYER
  8
0
  9
$CELTYPE
  6
ByLayer
  9
$CECOLOR
 62
   256
  9
$CELTSCALE
 40
1.0
  9
$DISPSILH
 70
     0
  9
$DIMSCALE
 40
1.0
  9
$DIMASZ
 40
2.5
  9
$DIMEXO
 40
0.625
  9
$DIMDLI
 40
3.75
  9
$DIMRND
 40
0.0
  9
$DIMDLE
 40
0.0
  9
$DIMEXE
 40
1.25
  9
$DIMTP
 40
0.0
  9
$DIMTM
 40
0.0
  9
$DIMTXT
 40
2.5
  9
$DIMCEN
 40
2.5
  9
$DIMTSZ
 40
0.0
  9
$DIMTOL
 70
     0
  9
$DIMLIM
 70
     0
  9
$DIMTIH
 70
     0
  9
$DIMTOH
 70
     0
  9
$DIMSE1
 70
     0
  9
$DIMSE2
 70
     0
  9
$DIMTAD
 70
     1
  9
$DIMZIN
 70
     8
  9
$DIMBLK
  1

  9
$DIMASO
 70
     1
  9
$DIMSHO
 70
     1
  9
$DIMPOST
  1

  9
$DIMAPOST
  1

  9
$DIMALT
 70
     0
  9
$DIMALTD
 70
     3
  9
$DIMALTF
 40
0.0393700787
  9
$DIMLFAC
 40
1.0
  9
$DIMTOFL
 70
     1
  9
$DIMTVP
 40
0.0
  9
$DIMTIX
 70
     0
  9
$DIMSOXD
 70
     0
  9
$DIMSAH
 70
     0
  9
$DIMBLK1
  1

  9
$DIMBLK2
  1

  9
$DIMSTYLE
  2
ISO-25
  9
$DIMCLRD
 70
     0
  9
$DIMCLRE
 70
     0
  9
$DIMCLRT
 70
     0
  9
$DIMTFAC
 40
1.0
  9
$DIMGAP
 40
0.625
  9
$DIMJUST
 70
     0
  9
$DIMSD1
 70
     0
  9
$DIMSD2
 70
     0
  9
$DIMTOLJ
 70
     0
  9
$DIMTZIN
 70
     8
  9
$DIMALTZ
 70
     0
  9
$DIMALTTZ
 70
     0
  9
$DIMUPT
 70
     0
  9
$DIMDEC
 70
     2
  9
$DIMTDEC
 70
     2
  9
$DIMALTU
 70
     2
  9
$DIMALTTD
 70
     3
  9
$DIMTXSTY
  7
Standard
  9
$DIMAUNIT
 70
     0
  9
$DIMADEC
 70
     0
  9
$DIMALTRND
 40
0.0
  9
$DIMAZIN
 70
     0
  9
$DIMDSEP
 70
    44
  9
$DIMATFIT
 70
     3
  9
$DIMFRAC
 70
     0
  9
$DIMLDRBLK
  1

  9
$DIMLUNIT
 70
     2
  9
$DIMLWD
 70
    -2
  9
$DIMLWE
 70
    -2
  9
$DIMTMOVE
 70
     0
  9
$LUNITS
 70
     2
  9
$LUPREC
 70
     4
  9
$SKETCHINC
 40
1.0
  9
$FILLETRAD
 40
10.0
  9
$AUNITS
 70
     0
  9
$AUPREC
 70
     0
  9
$MENU
  1
.
  9
$ELEVATION
 40
0.0
  9
$PELEVATION
 40
0.0
  9
$THICKNESS
 40
0.0
  9
$LIMCHECK
 70
     0
  9
$CHAMFERA
 40
10.0
  9
$CHAMFERB
 40
10.0
  9
$CHAMFERC
 40
20.0
  9
$CHAMFERD
 40
0.0
  9
$SKPOLY
 70
     0
  9
$TDCREATE
 40
2455232.584248345
  9
$TDUCREATE
 40
2455232.542581678
  9
$TDUPDATE
 40
2455232.584248357
  9
$TDUUPDATE
 40
2455232.54258169
  9
$TDINDWG
 40
0.0000000116
  9
$TDUSRTIMER
 40
0.0000000116
  9
$USRTIMER
 70
     1
  9
$ANGBASE
 50
0.0
  9
$ANGDIR
 70
     0
  9
$PDMODE
 70
     0
  9
$PDSIZE
 40
0.0
  9
$PLINEWID
 40
0.0
  9
$SPLFRAME
 70
     0
  9
$SPLINETYPE
 70
     6
  9
$SPLINESEGS
 70
     8
  9
$HANDSEED
  5
1ED
  9
$SURFTAB1
 70
     6
  9
$SURFTAB2
 70
     6
  9
$SURFTYPE
 70
     6
  9
$SURFU
 70
     6
  9
$SURFV
 70
     6
  9
$UCSBASE
  2

  9
$UCSNAME
  2

  9
$UCSORG
 10
0.0
 20
0.0
 30
0.0
  9
$UCSXDIR
 10
1.0
 20
0.0
 30
0.0
  9
$UCSYDIR
 10
0.0
 20
1.0
 30
0.0
  9
$UCSORTHOREF
  2

  9
$UCSORTHOVIEW
 70
     0
  9
$UCSORGTOP
 10
0.0
 20
0.0
 30
0.0
  9
$UCSORGBOTTOM
 10
0.0
 20
0.0
 30
0.0
  9
$UCSORGLEFT
 10
0.0
 20
0.0
 30
0.0
  9
$UCSORGRIGHT
 10
0.0
 20
0.0
 30
0.0
  9
$UCSORGFRONT
 10
0.0
 20
0.0
 30
0.0
  9
$UCSORGBACK
 10
0.0
 20
0.0
 30
0.0
  9
$PUCSBASE
  2

  9
$PUCSNAME
  2

  9
$PUCSORG
 10
0.0
 20
0.0
 30
0.0
  9
$PUCSXDIR
 10
1.0
 20
0.0
 30
0.0
  9
$PUCSYDIR
 10
0.0
 20
1.0
 30
0.0
  9
$PUCSORTHOREF
  2

  9
$PUCSORTHOVIEW
 70
     0
  9
$PUCSORGTOP
 10
0.0
 20
0.0
 30
0.0
  9
$PUCSORGBOTTOM
 10
0.0
 20
0.0
 30
0.0
  9
$PUCSORGLEFT
 10
0.0
 20
0.0
 30
0.0
  9
$PUCSORGRIGHT
 10
0.0
 20
0.0
 30
0.0
  9
$PUCSORGFRONT
 10
0.0
 20
0.0
 30
0.0
  9
$PUCSORGBACK
 10
0.0
 20
0.0
 30
0.0
  9
$USERI1
 70
     0
  9
$USERI2
 70
     0
  9
$USERI3
 70
     0
  9
$USERI4
 70
     0
  9
$USERI5
 70
     0
  9
$USERR1
 40
0.0
  9
$USERR2
 40
0.0
  9
$USERR3
 40
0.0
  9
$USERR4
 40
0.0
  9
$USERR5
 40
0.0
  9
$WORLDVIEW
 70
     1
  9
$SHADEDGE
 70
     3
  9
$SHADEDIF
 70
    70
  9
$TILEMODE
 70
     1
  9
$MAXACTVP
 70
    64
  9
$PINSBASE
 10
0.0
 20
0.0
 30
0.0
  9
$PLIMCHECK
 70
     0
  9
$PEXTMIN
 10
0.0
 20
0.0
 30
0.0
  9
$PEXTMAX
 10
1682.0
 20
2378.0
 30
0.0
  9
$PLIMMIN
 10
0.0
 20
0.0
  9
$PLIMMAX
 10
1682.0
 20
2378.0
  9
$UNITMODE
 70
     0
  9
$VISRETAIN
 70
     1
  9
$PLINEGEN
 70
     0
  9
$PSLTSCALE
 70
     1
  9
$TREEDEPTH
 70
  3020
  9
$CMLSTYLE
  2
Standard
  9
$CMLJUST
 70
     0
  9
$CMLSCALE
 40
20.0
  9
$PROXYGRAPHICS
 70
     1
  9
$MEASUREMENT
 70
     1
  9
$CELWEIGHT
370
    -1
  9
$ENDCAPS
280
     0
  9
$JOINSTYLE
280
     0
  9
$LWDISPLAY
290
     0
  9
$INSUNITS
 70
     4
  9
$HYPERLINKBASE
  1

  9
$STYLESHEET
  1

  9
$XEDIT
290
     1
  9
$CEPSNTYPE
380
     0
  9
$PSTYLEMODE
290
     1
  9
$FINGERPRINTGUID
  2
{E071F7FA-1B53-490F-8F12-302FFFF511C0}
  9
$VERSIONGUID
  2
{FAEB1C32-E019-11D5-929B-00C0DF256EC4}
  9
$EXTNAMES
290
     1
  9
$PSVPSCALE
 40
0.0
  9
$OLESTARTUP
290
     0
  0
ENDSEC
  0
SECTION
  2
CLASSES
  0
CLASS
  1
ACDBDICTIONARYWDFLT
  2
AcDbDictionaryWithDefault
  3
ObjectDBX Classes
 90
        0
280
     0
281
     0
  0
CLASS
  1
VISUALSTYLE
  2
AcDbVisualStyle
  3
ObjectDBX Classes
 90
     4095
280
     0
281
     0
  0
CLASS
  1
SCALE
  2
AcDbScale
  3
ObjectDBX Classes
 90
     1153
280
     0
281
     0
  0
CLASS
  1
DICTIONARYVAR
  2
AcDbDictionaryVar
  3
ObjectDBX Classes
 90
        0
280
     0
281
     0
  0
CLASS
  1
ACDBPLACEHOLDER
  2
AcDbPlaceHolder
  3
ObjectDBX Classes
 90
        0
280
     0
281
     0
  0
CLASS
  1
LAYOUT
  2
AcDbLayout
  3
ObjectDBX Classes
 90
        0
280
     0
281
     0
  0
ENDSEC
  0
SECTION
  2
TABLES
  0
TABLE
  2
VPORT
  5
8
330
0
100
AcDbSymbolTable
 70
     1
  0
VPORT
  5
29
330
8
100
AcDbSymbolTableRecord
100
AcDbViewportTableRecord
  2
*Active
 70
     0
 10
0.0
 20
0.0
 11
1.0
 21
1.0
 12
344.1869158879
 22
148.5
 13
0.0
 23
0.0
 14
10.0
 24
10.0
 15
10.0
 25
10.0
 16
0.0
 26
0.0
 36
1.0
 17
0.0
 27
0.0
 37
0.0
 40
297.0
 41
1.9729729729
 42
50.0
 43
0.0
 44
0.0
 50
0.0
 51
0.0
 71
     0
 72
   100
 73
     1
 74
     3
 75
     0
 76
     0
 77
     0
 78
     0
281
     0
 65
     1
110
0.0
120
0.0
130
0.0
111
1.0
121
0.0
131
0.0
112
0.0
122
1.0
132
0.0
 79
     0
146
0.0
  0
ENDTAB
  0
TABLE
  2
LTYPE
  5
5
330
0
100
AcDbSymbolTable
 70
     2
  0
LTYPE
  5
14
330
5
100
AcDbSymbolTableRecord
100
AcDbLinetypeTableRecord
  2
ByBlock
 70
     0
  3

 72
    65
 73
     0
 40
0.0
  0
LTYPE
  5
15
330
5
100
AcDbSymbolTableRecord
100
AcDbLinetypeTableRecord
  2
ByLayer
 70
     0
  3

 72
    65
 73
     0
 40
0.0
  0
LTYPE
  5
16
330
5
100
AcDbSymbolTableRecord
100
AcDbLinetypeTableRecord
  2
Continuous
 70
     0
  3
Solid line
 72
    65
 73
     0
 40
0.0
  0
LTYPE
  5
FB
330
5
100
AcDbSymbolTableRecord
100
AcDbLinetypeTableRecord
  2
CENTER2
 70
     0
  3
Center (.5x) ___ _ ___ _ ___ _ ___ _ ___ _ ___
 72
    65
 73
     4
 40
28.575
 49
19.05
 74
     4
 75
     0
340
0
 46
0.0
 50
0.0
 44
0.0
 45
0.0
 49
-3.175
 74
     4
 75
     0
340
0
 46
0.0
 50
0.0
 44
0.0
 45
0.0
 49
3.175
 74
     4
 75
     0
340
0
 46
0.0
 50
0.0
 44
0.0
 45
0.0
 49
-3.175
 74
     4
 75
     0
340
0
 46
0.0
 50
0.0
 44
0.0
 45
0.0
  0
ENDTAB
  0
TABLE
  2
LAYER
  5
2
330
0
100
AcDbSymbolTable
 70
    17
  0
LAYER
  5
10
330
2
100
AcDbSymbolTableRecord
100
AcDbLayerTableRecord
  2
0
 70
     0
 62
     7
  6
Continuous
370
    -3
390
F
  0
LAYER
  5
5D
330
2
100
AcDbSymbolTableRecord
100
AcDbLayerTableRecord
  2
Default
 70
     0
 62
     7
  6
Continuous
370
    -3
390
F
  0
LAYER
  5
60
330
2
100
AcDbSymbolTableRecord
100
AcDbLayerTableRecord
  2
$DDT_AUDIT_GENERATED_(60)
 70
     0
 62
     7
  6
Continuous
370
    -3
390
F
  0
LAYER
  5
78
330
2
100
AcDbSymbolTableRecord
100
AcDbLayerTableRecord
  2
$DDT_AUDIT_GENERATED_(78)
 70
     0
 62
     7
  6
Continuous
370
    -3
390
F
  0
LAYER
  5
85
330
2
100
AcDbSymbolTableRecord
100
AcDbLayerTableRecord
  2
$DDT_AUDIT_GENERATED_(85)
 70
     0
 62
     7
  6
Continuous
370
    -3
390
F
  0
LAYER
  5
88
330
2
100
AcDbSymbolTableRecord
100
AcDbLayerTableRecord
  2
$DDT_AUDIT_GENERATED_(88)
 70
     0
 62
     7
  6
Continuous
370
    -3
390
F
  0
LAYER
  5
9B
330
2
100
AcDbSymbolTableRecord
100
AcDbLayerTableRecord
  2
$DDT_AUDIT_GENERATED_(9B)
 70
     0
 62
     7
  6
Continuous
370
    -3
390
F
  0
LAYER
  5
BE
330
2
100
AcDbSymbolTableRecord
100
AcDbLayerTableRecord
  2
$DDT_AUDIT_GENERATED_(BE)
 70
     0
 62
     7
  6
Continuous
370
    -3
390
F
  0
LAYER
  5
C1
330
2
100
AcDbSymbolTableRecord
100
AcDbLayerTableRecord
  2
$DDT_AUDIT_GENERATED_(C1)
 70
     0
 62
     7
  6
Continuous
370
    -3
390
F
  0
LAYER
  5
C7
330
2
100
AcDbSymbolTableRecord
100
AcDbLayerTableRecord
  2
$DDT_AUDIT_GENERATED_(C7)
 70
     0
 62
     7
  6
Continuous
370
    -3
390
F
  0
LAYER
  5
CE
330
2
100
AcDbSymbolTableRecord
100
AcDbLayerTableRecord
  2
$DDT_AUDIT_GENERATED_(CE)
 70
     0
 62
     7
  6
Continuous
370
    -3
390
F
  0
LAYER
  5
E0
330
2
100
AcDbSymbolTableRecord
100
AcDbLayerTableRecord
  2
02636038_GEHÄUSE
 70
     0
 62
     7
  6
Continuous
370
    -3
390
F
  0
LAYER
  5
F1
330
2
100
AcDbSymbolTableRecord
100
AcDbLayerTableRecord
  2
$DDT_AUDIT_GENERATED_(F1)
 70
     0
 62
     7
  6
Continuous
370
    -3
390
F
  0
LAYER
  5
F5
330
2
100
AcDbSymbolTableRecord
100
AcDbLayerTableRecord
  2
DV1_Standard
 70
     0
 62
     7
  6
Continuous
370
    -3
390
F
  0
LAYER
  5
146
330
2
100
AcDbSymbolTableRecord
100
AcDbLayerTableRecord
  2
$DDT_AUDIT_GENERATED_(146)
 70
     0
 62
     7
  6
Continuous
370
    -3
390
F
  0
LAYER
  5
15B
330
2
100
AcDbSymbolTableRecord
100
AcDbLayerTableRecord
  2
DV2_Standard
 70
     0
 62
     7
  6
Continuous
370
    -3
390
F
  0
LAYER
  5
1D3
330
2
100
AcDbSymbolTableRecord
100
AcDbLayerTableRecord
  2
DV3_Standard
 70
     0
 62
     7
  6
Continuous
370
    -3
390
F
  0
ENDTAB
  0
TABLE
  2
STYLE
  5
3
330
0
100
AcDbSymbolTable
 70
     2
  0
STYLE
  5
11
330
3
100
AcDbSymbolTableRecord
100
AcDbTextStyleTableRecord
  2
Standard
 70
     0
 40
0.0
 41
1.0
 50
0.0
 71
     0
 42
2.5
  3
txt
  4

  0
STYLE
  5
1DC
330
3
100
AcDbSymbolTableRecord
100
AcDbTextStyleTableRecord
  2
SEACAD_seiso_ttf
 70
     0
 40
0.0
 41
1.0
 50
0.0
 71
     0
 42
0.2
  3
seiso.ttf
  4

  0
ENDTAB
  0
TABLE
  2
VIEW
  5
6
330
0
100
AcDbSymbolTable
 70
     0
  0
ENDTAB
  0
TABLE
  2
UCS
  5
7
330
0
100
AcDbSymbolTable
 70
     0
  0
ENDTAB
  0
TABLE
  2
APPID
  5
9
330
0
100
AcDbSymbolTable
 70
     1
  0
APPID
  5
12
330
9
100
AcDbSymbolTableRecord
100
AcDbRegAppTableRecord
  2
ACAD
 70
     0
  0
ENDTAB
  0
TABLE
  2
DIMSTYLE
  5
A
330
0
100
AcDbSymbolTable
 70
     1
100
AcDbDimStyleTable
  0
DIMSTYLE
105
27
330
A
100
AcDbSymbolTableRecord
100
AcDbDimStyleTableRecord
  2
ISO-25
 70
     0
 41
2.5
 42
0.625
 43
3.75
 44
1.25
 73
     0
 74
     0
 77
     1
 78
     8
140
2.5
141
2.5
143
0.0393700787
147
0.625
171
     3
172
     1
271
     2
272
     2
274
     3
278
    44
283
     0
284
     8
340
11
  0
ENDTAB
  0
TABLE
  2
BLOCK_RECORD
  5
1
330
0
100
AcDbSymbolTable
 70
     4
  0
BLOCK_RECORD
  5
1F
330
1
100
AcDbSymbolTableRecord
100
AcDbBlockTableRecord
  2
*Model_Space
340
22
  0
BLOCK_RECORD
  5
1B
330
1
100
AcDbSymbolTableRecord
100
AcDbBlockTableRecord
  2
*Paper_Space
340
1E
  0
BLOCK_RECORD
  5
5E
330
1
100
AcDbSymbolTableRecord
100
AcDbBlockTableRecord
  2
SE
340
0
102
{BLKREFS
331
5F
102
}
  0
BLOCK_RECORD
  5
100
330
1
100
AcDbSymbolTableRecord
100
AcDbBlockTableRecord
  2
SE1
340
0
102
{BLKREFS
331
101
102
}
  0
BLOCK_RECORD
  5
161
330
1
100
AcDbSymbolTableRecord
100
AcDbBlockTableRecord
  2
SE2
340
0
102
{BLKREFS
331
162
102
}
  0
ENDTAB
  0
ENDSEC
  0
SECTION
  2
BLOCKS
  0
BLOCK
  5
20
330
1F
100
AcDbEntity
  8
0
100
AcDbBlockBegin
  2
*Model_Space
 70
     0
 10
0.0
 20
0.0
 30
0.0
  3
*Model_Space
  1

  0
ENDBLK
  5
21
330
1F
100
AcDbEntity
  8
0
100
AcDbBlockEnd
  0
BLOCK
  5
1C
330
1B
100
AcDbEntity
 67
     1
  8
0
100
AcDbBlockBegin
  2
*Paper_Space
 70
     0
 10
0.0
 20
0.0
 30
0.0
  3
*Paper_Space
  1

  0
ENDBLK
  5
1D
330
1B
100
AcDbEntity
 67
     1
  8
0
100
AcDbBlockEnd
  0
BLOCK
  5
FE
330
5E
100
AcDbEntity
  8
0
100
AcDbBlockBegin
  2
SE
 70
     0
 10
0.0
 20
0.0
 30
0.0
  3
SE
  1

  0
SPLINE
  5
61
330
5E
100
AcDbEntity
  8
$DDT_AUDIT_GENERATED_(60)
  6
Continuous
 62
     7
100
AcDbSpline
210
0.0
220
0.0
230
1.0
 70
    12
 71
     3
 72
    35
 73
    31
 74
     0
 42
0.0000000008519296
 43
0.0000000001
 40
0.0
 40
0.0
 40
0.0
 40
0.0
 40
0.0625
 40
0.125
 40
0.1875
 40
0.21875
 40
0.25
 40
0.28125
 40
0.3125
 40
0.34375
 40
0.375
 40
0.40625
 40
0.4375
 40
0.46875
 40
0.484375
 40
0.5
 40
0.515625
 40
0.53125
 40
0.5625
 40
0.59375
 40
0.625
 40
0.65625
 40
0.6875
 40
0.71875
 40
0.75
 40
0.78125
 40
0.8125
 40
0.875
 40
0.9375
 40
1.0
 40
1.0
 40
1.0
 40
1.0
 10
64.4312286014742
 20
475.8683882045394
 30
0.0
 41
1.0
 10
64.1868011392438
 20
475.8683881946498
 30
0.0
 41
1.0
 10
63.69789189448439
 20
475.8680418899712
 30
0.0
 41
1.0
 10
62.96516985697559
 20
475.8296311059508
 30
0.0
 41
1.0
 10
62.35920094031949
 20
475.7454483779738
 30
0.0
 41
1.0
 10
61.8816785053994
 20
475.6397514141225
 30
0.0
 41
1.0
 10
61.52853948994629
 20
475.5407143966499
 30
0.0
 41
1.0
 10
61.18174406313139
 20
475.4212162951007
 30
0.0
 41
1.0
 10
60.8426369586204
 20
475.2813956770905
 30
0.0
 41
1.0
 10
60.5125633236632
 20
475.1213912421611
 30
0.0
 41
1.0
 10
60.19273263406229
 20
474.9417868335746
 30
0.0
 41
1.0
 10
59.8843544194515
 20
474.7431663133096
 30
0.0
 41
1.0
 10
59.5885002385195
 20
474.5263278583728
 30
0.0
 41
1.0
 10
59.35328471674259
 20
474.3311126588827
 30
0.0
 41
1.0
 10
59.1724000164325
 20
474.1666768241102
 30
0.0
 41
1.0
 10
59.04050283007479
 20
474.0393296609897
 30
0.0
 41
1.0
 10
58.91249446696569
 20
473.9080737648583
 30
0.0
 41
1.0
 10
58.74715540364929
 20
473.7280139755438
 30
0.0
 41
1.0
 10
58.55077983719649
 20
473.493766332374
 30
0.0
 41
1.0
 10
58.3325283413568
 20
473.1989508349757
 30
0.0
 41
1.0
 10
58.132508058695
 20
472.891477626826
 30
0.0
 41
1.0
 10
57.951551091302
 20
472.5724073894714
 30
0.0
 41
1.0
 10
57.79027391255029
 20
472.2429517052585
 30
0.0
 41
1.0
 10
57.6492934706904
 20
471.9043222513071
 30
0.0
 41
1.0
 10
57.5287702519967
 20
471.5578785483135
 30
0.0
 41
1.0
 10
57.42887245733879
 20
471.2049821308698
 30
0.0
 41
1.0
 10
57.3222399387106
 20
470.7276638018619
 30
0.0
 41
1.0
 10
57.23732118500019
 20
470.1217838064273
 30
0.0
 41
1.0
 10
57.19857456406409
 20
469.389072736743
 30
0.0
 41
1.0
 10
57.19822274492779
 20
468.9001609192783
 30
0.0
 41
1.0
 10
57.19822274492779
 20
468.6557334569636
 30
0.0
 41
1.0
  0
LINE
  5
62
330
5E
100
AcDbEntity
  8
$DDT_AUDIT_GENERATED_(60)
  6
Continuous
 62
     7
100
AcDbLine
 10
15.4945174405
 20
468.655733457
 30
0.0
 11
15.5018844366
 21
524.783830042
 31
0.0
  0
SPLINE
  5
63
330
5E
100
AcDbEntity
  8
$DDT_AUDIT_GENERATED_(60)
  6
Continuous
 62
     7
100
AcDbSpline
210
0.0
220
0.0
230
1.0
 70
    12
 71
     3
 72
    31
 73
    27
 74
     0
 42
0.0000000008518599
 43
0.0000000001
 40
0.0
 40
0.0
 40
0.0
 40
0.0
 40
0.0625
 40
0.125
 40
0.1875
 40
0.21875
 40
0.25
 40
0.28125
 40
0.3125
 40
0.34375
 40
0.375
 40
0.40625
 40
0.4375
 40
0.46875
 40
0.484375
 40
0.5
 40
0.515625
 40
0.53125
 40
0.5625
 40
0.59375
 40
0.625
 40
0.65625
 40
0.6875
 40
0.71875
 40
0.75
 40
0.7595854068544272
 40
0.7595854068544272
 40
0.7595854068544272
 40
0.7595854068544272
 10
57.1982227389814
 20
524.7838300419941
 30
0.0
 41
1.0
 10
57.19822274492779
 20
524.5393749713519
 30
0.0
 41
1.0
 10
57.19857186252529
 20
524.050409638811
 30
0.0
 41
1.0
 10
57.23730387561449
 20
523.3176139427713
 30
0.0
 41
1.0
 10
57.32220863101389
 20
522.7116631186848
 30
0.0
 41
1.0
 10
57.42881440885239
 20
522.2342822077597
 30
0.0
 41
1.0
 10
57.52869269010669
 20
521.8813349140054
 30
0.0
 41
1.0
 10
57.64918728835529
 20
521.5348381522631
 30
0.0
 41
1.0
 10
57.79013721131019
 20
521.1961510659291
 30
0.0
 41
1.0
 10
57.9513813380978
 20
520.8666332028411
 30
0.0
 41
1.0
 10
58.13230436213929
 20
520.5474961945915
 30
0.0
 41
1.0
 10
58.33229096993689
 20
520.2399517051213
 30
0.0
 41
1.0
 10
58.55051035398369
 20
519.945060980915
 30
0.0
 41
1.0
 10
58.74686151778699
 20
519.7107478358416
 30
0.0
 41
1.0
 10
58.9121830140858
 20
519.5306344484852
 30
0.0
 41
1.0
 10
59.0401793137052
 20
519.3993378792807
 30
0.0
 41
1.0
 10
59.17206568372819
 20
519.2719496910083
 30
0.0
 41
1.0
 10
59.3529377489775
 20
519.107458902486
 30
0.0
 41
1.0
 10
59.5881410613222
 20
518.9121749380635
 30
0.0
 41
1.0
 10
59.88398707168169
 20
518.695255142478
 30
0.0
 41
1.0
 10
60.19236390345709
 20
518.4965559025791
 30
0.0
 41
1.0
 10
60.51220030059699
 20
518.3168768674842
 30
0.0
 41
1.0
 10
60.8422865267661
 20
518.1568031777394
 30
0.0
 41
1.0
 10
61.1814127743644
 20
518.0169204305633
 30
0.0
 41
1.0
 10
61.44808713106013
 20
517.9249942729443
 30
0.0
 41
1.0
 10
61.60096090203952
 20
517.8787462953134
 30
0.0
 41
1.0
 10
61.63693846814147
 20
517.8682080446595
 30
0.0
 41
1.0
  0
SPLINE
  5
64
330
5E
100
AcDbEntity
  8
$DDT_AUDIT_GENERATED_(60)
  6
Continuous
 62
     7
100
AcDbSpline
210
0.0
220
0.0
230
1.0
 70
    12
 71
     3
 72
    10
 73
     6
 74
     0
 42
0.0000000008519492
 43
0.0000000001
 40
0.8356735742485835
 40
0.8356735742485835
 40
0.8356735742485835
 40
0.8356735742485835
 40
0.875
 40
0.9375
 40
1.0
 40
1.0
 40
1.0
 40
1.0
 10
62.50805731328681
 20
517.6756317472242
 30
0.0
 41
1.0
 10
62.66006700862599
 20
517.6521517230088
 30
0.0
 41
1.0
 10
63.05557329313746
 20
517.6035742359775
 30
0.0
 41
1.0
 10
63.697807382314
 20
517.5698904213018
 30
0.0
 41
1.0
 10
64.1867735309119
 20
517.5695412902537
 30
0.0
 41
1.0
 10
64.4312286014742
 20
517.5695412902537
 30
0.0
 41
1.0
  0
LINE
  5
65
330
5E
100
AcDbEntity
  8
$DDT_AUDIT_GENERATED_(60)
  6
Continuous
 62
     7
100
AcDbLine
 10
15.8018843849
 20
527.7197823756
 30
0.0
 11
36.3500005162
 21
527.7197823756
 31
0.0
  0
LINE
  5
66
330
5E
100
AcDbEntity
  8
$DDT_AUDIT_GENERATED_(60)
  6
Continuous
 62
     7
100
AcDbLine
 10
56.898222753
 20
527.7197823756
 30
0.0
 11
36.350000005
 21
527.7197823756
 31
0.0
  0
LINE
  5
67
330
5E
100
AcDbEntity
  8
$DDT_AUDIT_GENERATED_(60)
  6
Continuous
 62
     7
100
AcDbLine
 10
82.8500528576
 20
476.0853972461
 30
0.0
 11
82.8500528576
 21
475.8683881946
 31
0.0
  0
LINE
  5
68
330
5E
100
AcDbEntity
  8
$DDT_AUDIT_GENERATED_(60)
  6
Continuous
 62
     7
100
AcDbLine
 10
82.8500528576
 20
476.0853972461
 30
0.0
 11
84.0500528576
 21
476.0853972461
 31
0.0
  0
SPLINE
  5
69
330
5E
100
AcDbEntity
  8
$DDT_AUDIT_GENERATED_(60)
  6
Continuous
 62
     7
100
AcDbSpline
210
0.0
220
0.0
230
1.0
 70
     8
 71
     3
 72
    10
 73
     6
 74
     0
 42
0.000000020589353
 43
0.0000000001
 40
0.0
 40
0.0
 40
0.0
 40
0.0
 40
0.5
 40
0.5
 40
1.0
 40
1.0
 40
1.0
 40
1.0
 10
84.05005285755819
 20
476.0853972461429
 30
0.0
 10
84.1290876938388
 20
476.0853972461429
 30
0.0
 10
84.2078503765416
 20
476.1189004110678
 30
0.0
 10
84.31797762595248
 20
476.230964993817
 30
0.0
 10
84.35005285755818
 20
476.3093688319252
 30
0.0
 10
84.35005285755818
 20
476.3885992342753
 30
0.0
  0
LINE
  5
6A
330
5E
100
AcDbEntity
  8
$DDT_AUDIT_GENERATED_(60)
  6
Continuous
 62
     7
100
AcDbLine
 10
84.0500528576
 20
476.0852792549
 30
0.0
 11
82.8500528576
 21
476.0852792549
 31
0.0
  0
LINE
  5
6B
330
5E
100
AcDbEntity
  8
$DDT_AUDIT_GENERATED_(60)
  6
Continuous
 62
     7
100
AcDbLine
 10
84.0500528576
 20
517.5695412903
 30
0.0
 11
64.4312286015
 21
517.5695412903
 31
0.0
  0
LINE
  5
6C
330
5E
100
AcDbEntity
  8
$DDT_AUDIT_GENERATED_(60)
  6
Continuous
 62
     7
100
AcDbLine
 10
64.4312286015
 20
475.8683881946
 30
0.0
 11
82.8500528576
 21
475.8683881946
 31
0.0
  0
LINE
  5
6D
330
5E
100
AcDbEntity
  8
$DDT_AUDIT_GENERATED_(60)
  6
Continuous
 62
     7
100
AcDbLine
 10
15.5018843849
 20
527.4197823756
 30
0.0
 11
15.5018843849
 21
524.783830042
 31
0.0
  0
LINE
  5
6E
330
5E
100
AcDbEntity
  8
$DDT_AUDIT_GENERATED_(60)
  6
Continuous
 62
     7
100
AcDbLine
 10
57.198222772
 20
524.783830042
 30
0.0
 11
57.198222772
 21
527.4197823756
 31
0.0
  0
LINE
  5
6F
330
5E
100
AcDbEntity
  8
$DDT_AUDIT_GENERATED_(60)
  6
Continuous
 62
     7
100
AcDbLine
 10
15.4945173888
 20
468.655733457
 30
0.0
 11
15.4945173888
 21
428.5342112919
 31
0.0
  0
LINE
  5
70
330
5E
100
AcDbEntity
  8
$DDT_AUDIT_GENERATED_(60)
  6
Continuous
 62
     7
100
AcDbLine
 10
57.198222772
 20
428.4908082866
 30
0.0
 11
57.198222772
 21
428.4924309934
 31
0.0
  0
LINE
  5
71
330
5E
100
AcDbEntity
  8
$DDT_AUDIT_GENERATED_(60)
  6
Continuous
 62
     7
100
AcDbLine
 10
15.4924145584
 20
428.5461370486
 30
0.0
 11
15.5499596925
 21
428.2197823756
 31
0.0
  0
LINE
  5
72
330
5E
100
AcDbEntity
  8
$DDT_AUDIT_GENERATED_(60)
  6
Continuous
 62
     7
100
AcDbLine
 10
57.1501474644
 20
428.2197823756
 30
0.0
 11
57.198247772
 21
428.4925727755
 31
0.0
  0
LINE
  5
73
330
5E
100
AcDbEntity
  8
$DDT_AUDIT_GENERATED_(60)
  6
Continuous
 62
     7
100
AcDbLine
 10
57.1501474644
 20
427.8735193542
 30
0.0
 11
57.1501474644
 21
428.2197823756
 31
0.0
  0
LINE
  5
74
330
5E
100
AcDbEntity
  8
$DDT_AUDIT_GENERATED_(60)
  6
Continuous
 62
     7
100
AcDbLine
 10
15.5499596925
 20
428.2197823756
 30
0.0
 11
15.5499596925
 21
427.8735194958
 31
0.0
  0
ARC
  5
75
330
5E
100
AcDbEntity
  8
$DDT_AUDIT_GENERATED_(60)
  6
Continuous
 62
     7
100
AcDbCircle
 10
84.0500528576
 20
517.2695412903
 30
0.0
 40
0.3000000000000017
100
AcDbArc
 50
0.0
 51
90.0
  0
ARC
  5
76
330
5E
100
AcDbEntity
  8
$DDT_AUDIT_GENERATED_(60)
  6
Continuous
 62
     7
100
AcDbCircle
 10
15.8018843849
 20
527.4197823756
 30
0.0
 40
0.2999999999999947
100
AcDbArc
 50
90.0
 51
180.0
  0
ARC
  5
77
330
5E
100
AcDbEntity
  8
$DDT_AUDIT_GENERATED_(60)
  6
Continuous
 62
     7
100
AcDbCircle
 10
56.898222772
 20
527.4197823756
 30
0.0
 40
0.3000000000000017
100
AcDbArc
 50
0.0
 51
90.0
  0
LINE
  5
79
330
5E
100
AcDbEntity
  8
$DDT_AUDIT_GENERATED_(78)
  6
Continuous
 62
     7
100
AcDbLine
 10
84.3500528576
 20
476.1189647425
 30
0.0
 11
84.3500528576
 21
517.3189647425
 31
0.0
  0
ARC
  5
7A
330
5E
100
AcDbEntity
  8
$DDT_AUDIT_GENERATED_(78)
  6
Continuous
 62
     7
100
AcDbCircle
 10
79.3832324958
 20
481.7419084921
 30
0.0
 40
11.5
100
AcDbArc
 50
330.7544490008
 51
349.5976260137
  0
ARC
  5
7B
330
5E
100
AcDbEntity
  8
$DDT_AUDIT_GENERATED_(78)
  6
Continuous
 62
     7
100
AcDbCircle
 10
79.3832324958
 20
511.6960209928
 30
0.0
 40
11.49999999999996
100
AcDbArc
 50
10.4023739863
 51
29.2455509992
  0
ARC
  5
7C
330
5E
100
AcDbEntity
  8
$DDT_AUDIT_GENERATED_(78)
  6
Continuous
 62
     7
100
AcDbCircle
 10
89.0683592935
 20
517.1189647425
 30
0.0
 40
0.4000000000000079
100
AcDbArc
 50
29.2455509992
 51
90.0
  0
ARC
  5
7D
330
5E
100
AcDbEntity
  8
$DDT_AUDIT_GENERATED_(78)
  6
Continuous
 62
     7
100
AcDbCircle
 10
89.0683592935
 20
476.3189647425
 30
0.0
 40
0.3999999999999976
100
AcDbArc
 50
270.0
 51
330.7544490008
  0
LINE
  5
7E
330
5E
100
AcDbEntity
  8
$DDT_AUDIT_GENERATED_(78)
  6
Continuous
 62
     7
100
AcDbLine
 10
84.5500528576
 20
475.9189647425
 30
0.0
 11
89.0683592935
 21
475.9189647425
 31
0.0
  0
LINE
  5
7F
330
5E
100
AcDbEntity
  8
$DDT_AUDIT_GENERATED_(78)
  6
Continuous
 62
     7
100
AcDbLine
 10
89.0683592935
 20
517.5189647425
 30
0.0
 11
84.5500528576
 21
517.5189647425
 31
0.0
  0
ARC
  5
80
330
5E
100
AcDbEntity
  8
$DDT_AUDIT_GENERATED_(78)
  6
Continuous
 62
     7
100
AcDbCircle
 10
90.3991491878
 20
513.7182918535
 30
0.0
 40
0.2999999999999947
100
AcDbArc
 50
0.0
 51
10.4023739863
  0
ARC
  5
81
330
5E
100
AcDbEntity
  8
$DDT_AUDIT_GENERATED_(78)
  6
Continuous
 62
     7
100
AcDbCircle
 10
90.3991491878
 20
479.7196376314
 30
0.0
 40
0.2999999999999619
100
AcDbArc
 50
349.5976260137
 51
0.0
  0
LINE
  5
82
330
5E
100
AcDbEntity
  8
$DDT_AUDIT_GENERATED_(78)
  6
Continuous
 62
     7
100
AcDbLine
 10
90.6991491878
 20
479.7196376314
 30
0.0
 11
90.6991491878
 21
513.7182918535
 31
0.0
  0
ARC
  5
83
330
5E
100
AcDbEntity
  8
$DDT_AUDIT_GENERATED_(78)
  6
Continuous
 62
     7
100
AcDbCircle
 10
84.5500528576
 20
517.3189647425
 30
0.0
 40
0.2000000000000057
100
AcDbArc
 50
90.0
 51
180.0
  0
ARC
  5
84
330
5E
100
AcDbEntity
  8
$DDT_AUDIT_GENERATED_(78)
  6
Continuous
 62
     7
100
AcDbCircle
 10
84.5500528576
 20
476.1189647425
 30
0.0
 40
0.1999999999999988
100
AcDbArc
 50
180.0
 51
270.0
  0
ARC
  5
86
330
5E
100
AcDbEntity
  8
$DDT_AUDIT_GENERATED_(85)
  6
Continuous
 62
     7
100
AcDbCircle
 10
75.6647201908
 20
496.7072498833
 30
0.0
 40
19.0
100
AcDbArc
 50
32.1532465976
 51
37.6941715658
  0
ARC
  5
87
330
5E
100
AcDbEntity
  8
$DDT_AUDIT_GENERATED_(85)
  6
Continuous
 62
     7
100
AcDbCircle
 10
75.6647201908
 20
496.7072498833
 30
0.0
 40
19.0
100
AcDbArc
 50
322.3058284342
 51
340.6689059166
  0
SPLINE
  5
89
330
5E
100
AcDbEntity
  8
$DDT_AUDIT_GENERATED_(88)
  6
Continuous
 62
     7
100
AcDbSpline
210
0.0
220
0.0
230
1.0
 70
     8
 71
     2
 72
    24
 73
    21
 74
     0
 42
0.0000000002266008
 43
0.0000000001
 40
0.1809866076269892
 40
0.1809866076269892
 40
0.1809866076269892
 40
0.1875014306084376
 40
0.1875014306084376
 40
0.2500019074779168
 40
0.2500019074779168
 40
0.3750028612168751
 40
0.3750028612168751
 40
0.4375033380863543
 40
0.4375033380863543
 40
0.5000038149558336
 40
0.5000038149558336
 40
0.5625042918253127
 40
0.5625042918253127
 40
0.6250047686947919
 40
0.6250047686947919
 40
0.7500057224337503
 40
0.7500057224337503
 40
0.8125061993032294
 40
0.8125061993032294
 40
0.8180739493137046
 40
0.8180739493137046
 40
0.8180739493137046
 10
22.33472512256883
 20
690.2703116455582
 30
0.0
 10
22.44161844620009
 20
690.2897956079274
 30
0.0
 10
22.55232631897836
 20
690.3090251578948
 30
0.0
 10
23.41354099804976
 20
690.4586149773744
 30
0.0
 10
24.45195259067784
 20
690.5840921621516
 30
0.0
 10
26.82820332346743
 20
690.8712280670197
 30
0.0
 10
29.88168767449304
 20
691.0256992966181
 30
0.0
 10
31.43702172567882
 20
691.1043813318614
 30
0.0
 10
33.08665126433041
 20
691.144051872134
 30
0.0
 10
34.70157118106025
 20
691.1828877101767
 30
0.0
 10
36.34872170164877
 20
691.1829031614121
 30
0.0
 10
38.06172071164561
 20
691.1829192303451
 30
0.0
 10
39.74080783744297
 20
691.140920312443
 30
0.0
 10
41.30785449331412
 20
691.1017238569182
 30
0.0
 10
42.78743829166988
 20
691.0272593189893
 30
0.0
 10
45.86675766269468
 20
690.8722832410184
 30
0.0
 10
48.24818761756086
 20
690.5840881795574
 30
0.0
 10
49.30095059660752
 20
690.4566852757557
 30
0.0
 10
50.17240183592644
 20
690.3049473969314
 30
0.0
 10
50.26445784395824
 20
690.288918521463
 30
0.0
 10
50.35390182508617
 20
690.2726894977251
 30
0.0
  0
SPLINE
  5
8A
330
5E
100
AcDbEntity
  8
$DDT_AUDIT_GENERATED_(88)
  6
Continuous
 62
     7
100
AcDbSpline
210
0.0
220
0.0
230
1.0
 70
     8
 71
     3
 72
     8
 73
     4
 74
     0
 42
0.000000002383218
 43
0.0000000001
 40
0.8272469373460528
 40
0.8272469373460528
 40
0.8272469373460528
 40
0.8272469373460528
 40
1.0
 40
1.0
 40
1.0
 40
1.0
 10
48.16025621076687
 20
673.1436019703639
 30
0.0
 10
48.45498569767489
 20
673.3447211319699
 30
0.0
 10
48.6061164353024
 20
673.521318707219
 30
0.0
 10
48.59986416292722
 20
673.6567986871364
 30
0.0
  0
SPLINE
  5
8B
330
5E
100
AcDbEntity
  8
$DDT_AUDIT_GENERATED_(88)
  6
Continuous
 62
     7
100
AcDbSpline
210
0.0
220
0.0
230
1.0
 70
     8
 71
     3
 72
     8
 73
     4
 74
     0
 42
0.000000002383154
 43
0.0000000001
 40
0.8272464532080936
 40
0.8272464532080936
 40
0.8272464532080936
 40
0.8272464532080936
 40
1.0
 40
1.0
 40
1.0
 40
1.0
 10
24.53985148678428
 20
673.1436069831537
 30
0.0
 10
24.24512164216017
 20
673.3447292504679
 30
0.0
 10
24.09399142420443
 20
673.5213653769902
 30
0.0
 10
24.10024296347436
 20
673.6568358629866
 30
0.0
  0
SPLINE
  5
8C
330
5E
100
AcDbEntity
  8
$DDT_AUDIT_GENERATED_(88)
  6
Continuous
 62
     7
100
AcDbSpline
210
0.0
220
0.0
230
1.0
 70
     8
 71
     3
 72
    20
 73
    16
 74
     0
 42
0.0000000003955295
 43
0.0000000001
 40
0.0
 40
0.0
 40
0.0
 40
0.0
 40
0.1250000000000002
 40
0.1250000000000002
 40
0.2500000000000005
 40
0.2500000000000005
 40
0.3750000000000007
 40
0.3750000000000007
 40
0.5000000000000009
 40
0.5000000000000009
 40
0.625000000000001
 40
0.625000000000001
 40
0.7500000000000011
 40
0.7500000000000011
 40
1.0
 40
1.0
 40
1.0
 40
1.0
 10
24.10024296347436
 20
673.6568358629866
 30
0.0
 10
24.10918380154561
 20
673.8505831280759
 30
0.0
 10
24.43912812953745
 20
674.0432571090365
 30
0.0
 10
25.67030737945491
 20
674.3968924014919
 30
0.0
 10
26.58539028506388
 20
674.5606752524211
 30
0.0
 10
28.83951224024984
 20
674.8310249723837
 30
0.0
 10
30.20140983294315
 20
674.9404644417692
 30
0.0
 10
33.1458701968475
 20
675.0871873451423
 30
0.0
 10
34.7421942745445
 20
675.1256595670876
 30
0.0
 10
37.94389463436197
 20
675.1258745877344
 30
0.0
 10
39.52767258976691
 20
675.0883471445998
 30
0.0
 10
42.5072093869176
 20
674.9402032012068
 30
0.0
 10
43.85059331625472
 20
674.8321388909613
 30
0.0
 10
47.25342078444114
 20
674.42427493437
 30
0.0
 10
48.58193705991188
 20
674.0453050577339
 30
0.0
 10
48.59986416292722
 20
673.6567986871364
 30
0.0
  0
LINE
  5
8D
330
5E
100
AcDbEntity
  8
$DDT_AUDIT_GENERATED_(88)
  6
Continuous
 62
     7
100
AcDbLine
 10
36.3500005162
 20
528.2197823756
 30
0.0
 11
15.8018843849
 21
528.2197823756
 31
0.0
  0
LINE
  5
8E
330
5E
100
AcDbEntity
  8
$DDT_AUDIT_GENERATED_(88)
  6
Continuous
 62
     7
100
AcDbLine
 10
36.350000005
 20
528.2197823756
 30
0.0
 11
56.8982227528
 21
528.2197823756
 31
0.0
  0
ARC
  5
8F
330
5E
100
AcDbEntity
  8
$DDT_AUDIT_GENERATED_(88)
  6
Continuous
 62
     7
100
AcDbCircle
 10
23.5844014419
 20
679.3201183518
 30
0.0
 40
11.02008856246444
100
AcDbArc
 50
96.4957168097
 51
126.64431739
  0
ARC
  5
90
330
5E
100
AcDbEntity
  8
$DDT_AUDIT_GENERATED_(88)
  6
Continuous
 62
     7
100
AcDbCircle
 10
49.1048887625
 20
679.2998799294
 30
0.0
 40
11.04278356463475
100
AcDbArc
 50
53.373326633
 51
83.5416731755
  0
LINE
  5
91
330
5E
100
AcDbEntity
  8
$DDT_AUDIT_GENERATED_(88)
  6
Continuous
 62
     7
100
AcDbLine
 10
15.5003139737
 20
680.6912153937
 30
0.0
 11
15.500313834
 21
669.5401704887
 31
0.0
  0
ARC
  5
92
330
5E
100
AcDbEntity
  8
$DDT_AUDIT_GENERATED_(88)
  6
Continuous
 62
     7
100
AcDbCircle
 10
36.3501629636
 20
680.6898886914
 30
0.0
 40
20.85086751093792
100
AcDbArc
 50
159.7740522162
 51
179.9608720163
  0
ARC
  5
93
330
5E
100
AcDbEntity
  8
$DDT_AUDIT_GENERATED_(88)
  6
Continuous
 62
     7
100
AcDbCircle
 10
36.3501629636
 20
680.6898886914
 30
0.0
 40
20.85086751093793
100
AcDbArc
 50
359.9980634121
 51
20.2292204603
  0
ARC
  5
94
330
5E
100
AcDbEntity
  8
$DDT_AUDIT_GENERATED_(88)
  6
Continuous
 62
     7
100
AcDbCircle
 10
19685.0322818616
 20
651.9175364295
 30
0.0
 40
19669.53987083225
100
AcDbArc
 50
179.9486665043
 51
180.0553860119
  0
LINE
  5
95
330
5E
100
AcDbEntity
  8
$DDT_AUDIT_GENERATED_(88)
  6
Continuous
 62
     7
100
AcDbLine
 10
57.199793267
 20
669.5401699742
 30
0.0
 11
57.1997934067
 21
680.6912159517
 31
0.0
  0
ARC
  5
96
330
5E
100
AcDbEntity
  8
$DDT_AUDIT_GENERATED_(88)
  6
Continuous
 62
     7
100
AcDbCircle
 10
-20367.6636045766
 20
651.9433078149
 30
0.0
 40
20424.87098654115
100
AcDbArc
 50
359.9465899213
 51
0.04936284
  0
LINE
  5
97
330
5E
100
AcDbEntity
  8
$DDT_AUDIT_GENERATED_(88)
  6
Continuous
 62
     7
100
AcDbLine
 10
57.198222772
 20
528.5197823756
 30
0.0
 11
57.198222772
 21
632.9036285394
 31
0.0
  0
LINE
  5
98
330
5E
100
AcDbEntity
  8
$DDT_AUDIT_GENERATED_(88)
  6
Continuous
 62
     7
100
AcDbLine
 10
15.5018843849
 20
632.9036285394
 30
0.0
 11
15.5018843849
 21
528.5197823756
 31
0.0
  0
ARC
  5
99
330
5E
100
AcDbEntity
  8
$DDT_AUDIT_GENERATED_(88)
  6
Continuous
 62
     7
100
AcDbCircle
 10
15.8018843849
 20
528.5197823756
 30
0.0
 40
0.3000000000000017
100
AcDbArc
 50
180.0
 51
270.0
  0
ARC
  5
9A
330
5E
100
AcDbEntity
  8
$DDT_AUDIT_GENERATED_(88)
  6
Continuous
 62
     7
100
AcDbCircle
 10
56.898222772
 20
528.5197823756
 30
0.0
 40
0.2999999999999947
100
AcDbArc
 50
270.0
 51
0.0
  0
ELLIPSE
  5
9C
330
5E
100
AcDbEntity
  8
$DDT_AUDIT_GENERATED_(9B)
  6
Continuous
 62
     7
100
AcDbEllipse
 10
109.6536857023
 20
548.3531131707
 30
0.0
 11
2.991307697375323E-5
 21
-14.00272158823805
 31
0.0
210
0.0
220
0.0
230
1.0
 40
0.017125405
 41
3.141293659898187
 42
4.850967790811975
  0
LINE
  5
9D
330
5E
100
AcDbEntity
  8
$DDT_AUDIT_GENERATED_(9B)
  6
Continuous
 62
     7
100
AcDbLine
 10
109.4161864535
 20
546.4188370612
 30
0.0
 11
109.5396406976
 21
494.7786871668
 31
0.0
  0
ARC
  5
9E
330
5E
100
AcDbEntity
  8
$DDT_AUDIT_GENERATED_(9B)
  6
Continuous
 62
     7
100
AcDbCircle
 10
757.6417655545
 20
496.1468289868
 30
0.0
 40
646.7682507122996
100
AcDbArc
 50
179.8392756533
 51
180.081799045
  0
SPLINE
  5
9F
330
5E
100
AcDbEntity
  8
$DDT_AUDIT_GENERATED_(9B)
  6
Continuous
 62
     7
100
AcDbSpline
210
0.0
220
0.0
230
1.0
 70
     8
 71
     3
 72
    12
 73
     8
 74
     0
 42
0.0000000005383187
 43
0.0000000001
 40
0.4323086889592733
 40
0.4323086889592733
 40
0.4323086889592733
 40
0.4323086889592733
 40
0.4999999999999999
 40
0.4999999999999999
 40
0.7499999999999999
 40
0.7499999999999999
 40
1.0
 40
1.0
 40
1.0
 40
1.0
 10
111.1205272494048
 20
486.5786025171464
 30
0.0
 10
111.1082382943787
 20
486.3156478503041
 30
0.0
 10
111.0954591036686
 20
486.128032717231
 30
0.0
 10
111.0345448155553
 20
485.6317727138854
 30
0.0
 10
110.9842751887429
 20
486.3943207860129
 30
0.0
 10
110.907056359439
 20
489.8041071831444
 30
0.0
 10
110.8808317780747
 20
492.4010576095566
 30
0.0
 10
110.8741739702644
 20
495.2234624186154
 30
0.0
  0
SPLINE
  5
A0
330
5E
100
AcDbEntity
  8
$DDT_AUDIT_GENERATED_(9B)
  6
Continuous
 62
     7
100
AcDbSpline
210
0.0
220
0.0
230
1.0
 70
     8
 71
     3
 72
     8
 73
     4
 74
     0
 42
0.0000000015303405
 43
0.0000000001
 40
0.8874262774263373
 40
0.8874262774263373
 40
0.8874262774263373
 40
0.8874262774263373
 40
0.897006760132195
 40
0.897006760132195
 40
0.897006760132195
 40
0.897006760132195
 10
104.6461255753858
 20
512.2456616783421
 30
0.0
 10
104.6459330074736
 20
512.2670338633706
 30
0.0
 10
104.645813340504
 20
512.2878996602209
 30
0.0
 10
104.6457636093966
 20
512.308264008361
 30
0.0
  0
ELLIPSE
  5
A1
330
5E
100
AcDbEntity
  8
$DDT_AUDIT_GENERATED_(9B)
  6
Continuous
 62
     7
100
AcDbEllipse
 10
109.7771399483
 20
496.7129632759
 30
0.0
 11
0.0
 21
1.948802186028583
 31
0.0
210
0.0
220
0.0
230
1.0
 40
1.0
 41
3.019419601879878
 42
3.141599910210168
  0
ARC
  5
A2
330
5E
100
AcDbEntity
  8
$DDT_AUDIT_GENERATED_(9B)
  6
Continuous
 62
     7
100
AcDbCircle
 10
80.4184194862
 20
498.1863328147
 30
0.0
 40
21.76183108654853
100
AcDbArc
 50
26.3900775989
 51
26.409716211
  0
SPLINE
  5
A3
330
5E
100
AcDbEntity
  8
$DDT_AUDIT_GENERATED_(9B)
  6
Continuous
 62
     7
100
AcDbSpline
210
0.0
220
0.0
230
1.0
 70
    12
 71
     3
 72
     8
 73
     4
 74
     0
 42
0.0000000090439864
 43
0.0000000001
 40
0.1455928044244924
 40
0.1455928044244924
 40
0.1455928044244924
 40
0.1455928044244924
 40
0.1654561394653412
 40
0.1654561394653412
 40
0.1654561394653412
 40
0.1654561394653412
 10
101.1180456010315
 20
489.3951040107645
 30
0.0
 41
1.0
 10
101.118054524066
 20
489.4012585090888
 30
0.0
 41
1.0
 10
101.1181573743208
 20
489.4085744160882
 30
0.0
 41
1.0
 10
101.118359146481
 20
489.4170639144667
 30
0.0
 41
1.0
  0
SPLINE
  5
A4
330
5E
100
AcDbEntity
  8
$DDT_AUDIT_GENERATED_(9B)
  6
Continuous
 62
     7
100
AcDbSpline
210
0.0
220
0.0
230
1.0
 70
     8
 71
     3
 72
     8
 73
     4
 74
     0
 42
0.0000000085988572
 43
0.0000000001
 40
0.8388618880135417
 40
0.8388618880135417
 40
0.8388618880135417
 40
0.8388618880135417
 40
0.8923887631113974
 40
0.8923887631113974
 40
0.8923887631113974
 40
0.8923887631113974
 10
93.95753835111068
 20
489.6763391157962
 30
0.0
 10
93.96846288879027
 20
489.6464952106546
 30
0.0
 10
93.97824072533155
 20
489.6282007844753
 30
0.0
 10
93.98665164479655
 20
489.6233194191107
 30
0.0
  0
SPLINE
  5
A5
330
5E
100
AcDbEntity
  8
$DDT_AUDIT_GENERATED_(9B)
  6
Continuous
 62
     7
100
AcDbSpline
210
0.0
220
0.0
230
1.0
 70
     8
 71
     3
 72
     9
 73
     5
 74
     0
 42
0.0000000096515617
 43
0.0000000001
 40
0.8397976748498193
 40
0.8397976748498193
 40
0.8397976748498193
 40
0.8397976748498193
 40
0.8799179931627344
 40
0.89791069738484
 40
0.89791069738484
 40
0.89791069738484
 40
0.89791069738484
 10
92.09859864214316
 20
507.5994088227667
 30
0.0
 10
92.0899643875957
 20
507.6206378291566
 30
0.0
 10
92.07856510107717
 20
507.6414064408977
 30
0.0
 10
92.06896716832495
 20
507.6462896803471
 30
0.0
 10
92.06614230481694
 20
507.6465069779476
 30
0.0
  0
ELLIPSE
  5
A6
330
5E
100
AcDbEntity
  8
$DDT_AUDIT_GENERATED_(9B)
  6
Continuous
 62
     7
100
AcDbEllipse
 10
111.0588953114
 20
496.7030618808
 30
0.0
 11
2.296386067413003E-5
 21
-10.74999999997546
 31
0.0
210
0.0
220
0.0
230
1.0
 40
0.0171254054
 41
3.280126152045446
 42
4.595091407573372
  0
ELLIPSE
  5
A7
330
5E
100
AcDbEntity
  8
$DDT_AUDIT_GENERATED_(9B)
  6
Continuous
 62
     7
100
AcDbEllipse
 10
111.0588953114
 20
496.7030618808
 30
0.0
 11
2.296386067413003E-5
 21
-10.74999999997546
 31
0.0
210
0.0
220
0.0
230
1.0
 40
0.0171254054
 41
-3.487442343433608
 42
-3.240713187487555
  0
LINE
  5
A8
330
5E
100
AcDbEntity
  8
$DDT_AUDIT_GENERATED_(9B)
  6
Continuous
 62
     7
100
AcDbLine
 10
109.6537274835
 20
562.3558341332
 30
0.0
 11
108.6290920415
 21
562.373719646
 31
0.0
  0
ARC
  5
A9
330
5E
100
AcDbEntity
  8
$DDT_AUDIT_GENERATED_(9B)
  6
Continuous
 62
     7
100
AcDbCircle
 10
108.5615655093
 20
560.4503495197
 30
0.0
 40
1.917252312268327
100
AcDbArc
 50
87.9486761746
 51
130.8861618031
  0
SPLINE
  5
AA
330
5E
100
AcDbEntity
  8
$DDT_AUDIT_GENERATED_(9B)
  6
Continuous
 62
     7
100
AcDbSpline
210
0.0
220
0.0
230
1.0
 70
     8
 71
     3
 72
     8
 73
     4
 74
     0
 42
0.0000004549713729
 43
0.0000000001
 40
0.8651585641521777
 40
0.8651585641521777
 40
0.8651585641521777
 40
0.8651585641521777
 40
1.0
 40
1.0
 40
1.0
 40
1.0
 10
111.0378521051822
 20
486.0502399304154
 30
0.0
 10
111.0378567312983
 20
486.0504030995226
 30
0.0
 10
111.0375654839947
 20
486.0515096862667
 30
0.0
 10
111.0370407904289
 20
486.0530806051516
 30
0.0
  0
LINE
  5
AB
330
5E
100
AcDbEntity
  8
$DDT_AUDIT_GENERATED_(9B)
  6
Continuous
 62
     7
100
AcDbLine
 10
111.2201774094
 20
506.5425269781
 30
0.0
 11
111.1166381752
 21
549.8523509048
 31
0.0
  0
SPLINE
  5
AC
330
5E
100
AcDbEntity
  8
$DDT_AUDIT_GENERATED_(9B)
  6
Continuous
 62
     7
100
AcDbSpline
210
0.0
220
0.0
230
1.0
 70
     8
 71
     3
 72
    34
 73
    30
 74
     0
 42
0.0000000007930369
 43
0.0000000001
 40
0.0
 40
0.0
 40
0.0
 40
0.0
 40
0.025369938981893
 40
0.0630127724181353
 40
0.1032744465214617
 40
0.1451298179228475
 40
0.1881605077348698
 40
0.2320313556391083
 40
0.2765031963117165
 40
0.3213974390826634
 40
0.3665780112094947
 40
0.411939565426085
 40
0.4574008056384459
 40
0.5029023153286015
 40
0.5484099560138982
 40
0.593927907053968
 40
0.6395331618939399
 40
0.68546844702658
 40
0.7324370631602604
 40
0.7829392827972534
 40
0.8224860459951046
 40
0.8517227668253308
 40
0.8724527348591619
 40
0.8905585099822784
 40
0.9066928660504473
 40
0.922521056536425
 40
0.9426337036860379
 40
0.9685029875326283
 40
1.0
 40
1.0
 40
1.0
 40
1.0
 10
111.1165723227019
 20
549.8518289939921
 30
0.0
 10
111.116190258989
 20
550.0121119562228
 30
0.0
 10
111.1153678106308
 20
550.3492677388522
 30
0.0
 10
111.1131397940498
 20
550.9487874629968
 30
0.0
 10
111.1099695586071
 20
551.614875262919
 30
0.0
 10
111.1058317583953
 20
552.3029519846856
 30
0.0
 10
111.1007669986803
 20
552.9918518514282
 30
0.0
 10
111.094761127537
 20
553.6738630978701
 30
0.0
 10
111.0878334442527
 20
554.3403469340938
 30
0.0
 10
111.0800077437998
 20
554.984791153793
 30
0.0
 10
111.071315038154
 20
555.6016245532871
 30
0.0
 10
111.0617875771628
 20
556.1863225532745
 30
0.0
 10
111.0514537370449
 20
556.7352889426127
 30
0.0
 10
111.0403294248452
 20
557.2459018044574
 30
0.0
 10
111.028403073544
 20
557.7166316079856
 30
0.0
 10
111.015608141512
 20
558.1473112788461
 30
0.0
 10
111.0017573931625
 20
558.5397419313014
 30
0.0
 10
110.9863980875544
 20
558.8991057144096
 30
0.0
 10
110.9682167318925
 20
559.2392155722213
 30
0.0
 10
110.9466186834163
 20
559.5468317512398
 30
0.0
 10
110.9186608570161
 20
559.8323923971683
 30
0.0
 10
110.8829829355847
 20
560.0915948002706
 30
0.0
 10
110.8352415012502
 20
560.3390139571754
 30
0.0
 10
110.7748021763853
 20
560.5729072650174
 30
0.0
 10
110.690380062638
 20
560.8198155146226
 30
0.0
 10
110.5768020582649
 20
561.0879580680208
 30
0.0
 10
110.4176265546068
 20
561.4028331716177
 30
0.0
 10
110.1847823040851
 20
561.7957091495091
 30
0.0
 10
110.0151333792854
 20
562.052139665755
 30
0.0
 10
109.9032866369103
 20
562.2189303250824
 30
0.0
  0
ARC
  5
AD
330
5E
100
AcDbEntity
  8
$DDT_AUDIT_GENERATED_(9B)
  6
Continuous
 62
     7
100
AcDbCircle
 10
109.6748188799
 20
562.0826560287
 30
0.0
 40
0.2655920271146377
100
AcDbArc
 50
29.6602188237
 51
94.2923278215
  0
SPLINE
  5
AE
330
5E
100
AcDbEntity
  8
$DDT_AUDIT_GENERATED_(9B)
  6
Continuous
 62
     7
100
AcDbSpline
210
0.0
220
0.0
230
1.0
 70
     8
 71
     3
 72
    23
 73
    19
 74
     0
 42
0.0000000007045441
 43
0.0000000001
 40
0.0
 40
0.0
 40
0.0
 40
0.0
 40
0.0213587369277018
 40
0.0621882602421917
 40
0.1045146546082038
 40
0.1497743169542051
 40
0.1992287994142997
 40
0.2542824515050479
 40
0.3165933510519889
 40
0.3883311206048752
 40
0.4728447944345772
 40
0.5738866545014654
 40
0.6975614163750946
 40
0.8547005909635831
 40
0.8998604221908676
 40
0.9357606973445888
 40
0.9773471162019359
 40
1.0
 40
1.0
 40
1.0
 40
1.0
 10
107.3125269504414
 20
561.9106654647342
 30
0.0
 10
107.2277613472991
 20
561.837604558493
 30
0.0
 10
107.0190111603661
 20
561.6556121838803
 30
0.0
 10
106.673347743054
 20
561.2786350561577
 30
0.0
 10
106.3192759929465
 20
560.7848211562937
 30
0.0
 10
105.9990797718055
 20
560.2155306601954
 30
0.0
 10
105.7138473763635
 20
559.5644590996419
 30
0.0
 10
105.4604706242033
 20
558.8155141456972
 30
0.0
 10
105.2380684557166
 20
557.9493800483723
 30
0.0
 10
105.0449623682692
 20
556.9362987098436
 30
0.0
 10
104.8788452884582
 20
555.7319307215596
 30
0.0
 10
104.738319239022
 20
554.2776542503523
 30
0.0
 10
104.6297788904551
 20
552.4802035069425
 30
0.0
 10
104.5849954467552
 20
550.9519689374039
 30
0.0
 10
104.5682675693287
 20
549.8260959130272
 30
0.0
 10
104.5627037263249
 20
549.2478845913089
 30
0.0
 10
104.5602508923582
 20
548.7585057360852
 30
0.0
 10
104.5599987446073
 20
548.4720617837387
 30
0.0
 10
104.5599231453586
 20
548.3531022895655
 30
0.0
  0
LINE
  5
AF
330
5E
100
AcDbEntity
  8
$DDT_AUDIT_GENERATED_(9B)
  6
Continuous
 62
     7
100
AcDbLine
 10
104.5602817263
 20
548.0530394827
 30
0.0
 11
104.6457427956
 21
512.3052005841
 31
0.0
  0
ARC
  5
B0
330
5E
100
AcDbEntity
  8
$DDT_AUDIT_GENERATED_(9B)
  6
Continuous
 62
     7
100
AcDbCircle
 10
111.3527996389
 20
487.5606889137
 30
0.0
 40
5.892195740801734
100
AcDbArc
 50
195.0805985442
 51
229.0530456771
  0
ARC
  5
B1
330
5E
100
AcDbEntity
  8
$DDT_AUDIT_GENERATED_(9B)
  6
Continuous
 62
     7
100
AcDbCircle
 10
108.6688565486
 20
484.5703244332
 30
0.0
 40
1.869709479328244
100
AcDbArc
 50
228.732971404
 51
272.5755362276
  0
LINE
  5
B2
330
5E
100
AcDbEntity
  8
$DDT_AUDIT_GENERATED_(9B)
  6
Continuous
 62
     7
100
AcDbLine
 10
108.7526061389
 20
482.6923524225
 30
0.0
 11
109.7772415539
 21
482.7102423137
 31
0.0
  0
SPLINE
  5
B3
330
5E
100
AcDbEntity
  8
$DDT_AUDIT_GENERATED_(9B)
  6
Continuous
 62
     7
100
AcDbSpline
210
0.0
220
0.0
230
1.0
 70
     8
 71
     3
 72
    11
 73
     7
 74
     0
 42
0.000000029602095
 43
0.0000000001
 40
0.0
 40
0.0
 40
0.0
 40
0.0
 40
0.1303876766207767
 40
0.4310538367017219
 40
0.7058331196763068
 40
1.0
 40
1.0
 40
1.0
 40
1.0
 10
109.7759776906247
 20
482.7182503819836
 30
0.0
 10
109.7973203510936
 20
482.7163186472588
 30
0.0
 10
109.8573728307524
 20
482.7110015063374
 30
0.0
 10
109.9528401119323
 20
482.7629652304386
 30
0.0
 10
110.0182641753773
 20
482.8304652692144
 30
0.0
 10
110.0354501166456
 20
482.8595485553338
 30
0.0
 10
110.0442128765131
 20
482.8771016162232
 30
0.0
  0
SPLINE
  5
B4
330
5E
100
AcDbEntity
  8
$DDT_AUDIT_GENERATED_(9B)
  6
Continuous
 62
     7
100
AcDbSpline
210
0.0
220
0.0
230
1.0
 70
     8
 71
     3
 72
    19
 73
    15
 74
     0
 42
0.0000000011802673
 43
0.0000000001
 40
0.0
 40
0.0
 40
0.0
 40
0.0
 40
0.0480065421498257
 40
0.0810786684793042
 40
0.1068301401579804
 40
0.127732203436023
 40
0.1483754295538114
 40
0.1753509392898946
 40
0.2052459064492773
 40
0.2463637481149323
 40
0.318506684734073
 40
0.3849219023081226
 40
0.464781295676495
 40
0.4742598751916363
 40
0.4742598751916363
 40
0.4742598751916363
 40
0.4742598751916363
 10
110.0268000832132
 20
482.8471471325161
 30
0.0
 10
110.1602370273477
 20
483.0462183745682
 30
0.0
 10
110.3472241109658
 20
483.3297215934364
 30
0.0
 10
110.5917791465118
 20
483.7564122529458
 30
0.0
 10
110.7448814509705
 20
484.0760222274692
 30
0.0
 10
110.850566309814
 20
484.3462310406316
 30
0.0
 10
110.9275082050852
 20
484.5963116312935
 30
0.0
 10
110.9822709295518
 20
484.8390394946496
 30
0.0
 10
111.0237618215864
 20
485.0899980921276
 30
0.0
 10
111.0587707846825
 20
485.385354067361
 30
0.0
 10
111.0838271172867
 20
485.7009050121316
 30
0.0
 10
111.1068456063601
 20
486.0965290393216
 30
0.0
 10
111.1204209829549
 20
486.4090339081455
 30
0.0
 10
111.1277183414668
 20
486.6028818814478
 30
0.0
 10
111.1284872376513
 20
486.6236148204024
 30
0.0
  0
ARC
  5
B5
330
5E
100
AcDbEntity
  8
$DDT_AUDIT_GENERATED_(9B)
  6
Continuous
 62
     7
100
AcDbCircle
 10
99.7040753408
 20
512.8343048147
 30
0.0
 40
4.967558856924595
100
AcDbArc
 50
272.8778188673
 51
350.7435149468
  0
SPLINE
  5
B6
330
5E
100
AcDbEntity
  8
$DDT_AUDIT_GENERATED_(9B)
  6
Continuous
 62
     7
100
AcDbSpline
210
0.0
220
0.0
230
1.0
 70
     8
 71
     3
 72
     8
 73
     4
 74
     0
 42
0.0000000451072
 43
0.0000000001
 40
0.1233049827715089
 40
0.1233049827715089
 40
0.1233049827715089
 40
0.1233049827715089
 40
1.0
 40
1.0
 40
1.0
 40
1.0
 10
104.645178111556
 20
512.2531188858663
 30
0.0
 10
104.6437372066661
 20
512.2606983139946
 30
0.0
 10
104.6337507052509
 20
512.201744104673
 30
0.0
 10
104.6152186073106
 20
512.0762562579016
 30
0.0
  0
ARC
  5
B7
330
5E
100
AcDbEntity
  8
$DDT_AUDIT_GENERATED_(9B)
  6
Continuous
 62
     7
100
AcDbCircle
 10
100.9495197458
 20
484.4246999551
 30
0.0
 40
4.995226581714308
100
AcDbArc
 50
18.0384351176
 51
88.4566495774
  0
LINE
  5
B8
330
5E
100
AcDbEntity
  8
$DDT_AUDIT_GENERATED_(9B)
  6
Continuous
 62
     7
100
AcDbLine
 10
93.9528919065
 20
489.679546738
 30
0.0
 11
101.1191272942
 21
489.4309225822
 31
0.0
  0
ARC
  5
B9
330
5E
100
AcDbEntity
  8
$DDT_AUDIT_GENERATED_(9B)
  6
Continuous
 62
     7
100
AcDbCircle
 10
159.6478784204
 20
503.1463831732
 30
0.0
 40
67.27452720387214
100
AcDbArc
 50
184.902212259
 51
191.3969690228
  0
SPLINE
  5
BA
330
5E
100
AcDbEntity
  8
$DDT_AUDIT_GENERATED_(9B)
  6
Continuous
 62
     7
100
AcDbSpline
210
0.0
220
0.0
230
1.0
 70
     8
 71
     3
 72
    10
 73
     6
 74
     0
 42
0.0000000193902311
 43
0.0000000001
 40
0.0
 40
0.0
 40
0.0
 40
0.0
 40
0.2709807684258936
 40
0.5461855240323074
 40
1.0
 40
1.0
 40
1.0
 40
1.0
 10
93.66328815459084
 20
489.9658838060751
 30
0.0
 10
93.67603199080631
 20
489.9113453792293
 30
0.0
 10
93.6983600111729
 20
489.8214081081678
 30
0.0
 10
93.81972418529116
 20
489.6670911743271
 30
0.0
 10
93.91496509956121
 20
489.6485328926313
 30
0.0
 10
93.98766032484174
 20
489.6364484503337
 30
0.0
  0
LINE
  5
BB
330
5E
100
AcDbEntity
  8
$DDT_AUDIT_GENERATED_(9B)
  6
Continuous
 62
     7
100
AcDbLine
 10
99.8594724617
 20
507.8641684477
 30
0.0
 11
92.0992029888
 21
507.5949004409
 31
0.0
  0
ARC
  5
BC
330
5E
100
AcDbEntity
  8
$DDT_AUDIT_GENERATED_(9B)
  6
Continuous
 62
     7
100
AcDbCircle
 10
92.0697168419
 20
507.3461401047
 30
0.0
 40
0.3049407110243659
100
AcDbArc
 50
90.0542482283
 51
168.8236614195
  0
ARC
  5
BD
330
5E
100
AcDbEntity
  8
$DDT_AUDIT_GENERATED_(9B)
  6
Continuous
 62
     7
100
AcDbCircle
 10
194.0953427619
 20
511.3994910484
 30
0.0
 40
102.4372333518354
100
AcDbArc
 50
182.2936882998
 51
187.8560370329
  0
LINE
  5
BF
330
5E
100
AcDbEntity
  8
$DDT_AUDIT_GENERATED_(BE)
  6
Continuous
 62
     7
100
AcDbLine
 10
56.7000535784
 20
527.7197823756
 30
0.0
 11
56.7000535784
 21
528.2197823756
 31
0.0
  0
LINE
  5
C0
330
5E
100
AcDbEntity
  8
$DDT_AUDIT_GENERATED_(BE)
  6
Continuous
 62
     7
100
AcDbLine
 10
16.0000535784
 20
528.2197823756
 30
0.0
 11
16.0000535784
 21
527.7197823756
 31
0.0
  0
SPLINE
  5
C2
330
5E
100
AcDbEntity
  8
$DDT_AUDIT_GENERATED_(C1)
  6
Continuous
 62
     7
100
AcDbSpline
210
0.0
220
0.0
230
1.0
 70
     8
 71
     3
 72
    38
 73
    34
 74
     0
 42
0.0000000001196354
 43
0.0000000001
 40
0.2500845085325323
 40
0.2500845085325323
 40
0.2500845085325323
 40
0.2500845085325323
 40
0.2812500000000005
 40
0.2812500000000005
 40
0.3125000000000006
 40
0.3125000000000006
 40
0.3437500000000006
 40
0.3437500000000006
 40
0.3750000000000007
 40
0.3750000000000007
 40
0.4062500000000007
 40
0.4062500000000007
 40
0.4375000000000007
 40
0.4375000000000007
 40
0.4687500000000007
 40
0.4687500000000007
 40
0.5000000000000007
 40
0.5000000000000007
 40
0.5312500000000008
 40
0.5312500000000008
 40
0.5625000000000007
 40
0.5625000000000007
 40
0.6250000000000007
 40
0.6250000000000007
 40
0.6562500000000007
 40
0.6562500000000007
 40
0.6875000000000006
 40
0.6875000000000006
 40
0.7187500000000006
 40
0.7187500000000006
 40
0.7500000000000004
 40
0.7500000000000004
 40
0.7501603782065238
 40
0.7501603782065238
 40
0.7501603782065238
 40
0.7501603782065238
 10
15.45005364425675
 20
427.8735820507177
 30
0.0
 10
15.45006718646234
 20
427.8735820615913
 30
0.0
 10
15.58566202537662
 20
427.8734793642432
 30
0.0
 10
16.11801435617768
 20
427.8732831982555
 30
0.0
 10
16.51244410743363
 20
427.8731903376663
 30
0.0
 10
17.5585142705342
 20
427.8731147264027
 30
0.0
 10
18.2128771971007
 20
427.8731325965958
 30
0.0
 10
19.72554484137848
 20
427.8732751427584
 30
0.0
 10
20.58906032384489
 20
427.8733986216289
 30
0.0
 10
22.53881555949984
 20
427.8736795036101
 30
0.0
 10
23.59663941199401
 20
427.8738328339315
 30
0.0
 10
25.85978641371062
 20
427.8740238666887
 30
0.0
 10
27.08072351214597
 20
427.8740340814043
 30
0.0
 10
29.6134629965434
 20
427.873919695552
 30
0.0
 10
30.91622987074349
 20
427.8738122785898
 30
0.0
 10
33.59365737902593
 20
427.873641822015
 30
0.0
 10
34.97873568282432
 20
427.8735818953671
 30
0.0
 10
37.70659564373317
 20
427.8735815099801
 30
0.0
 10
39.06212896597107
 20
427.8736394192371
 30
0.0
 10
41.75606088903876
 20
427.8738100998306
 30
0.0
 10
43.07767738547643
 20
427.8739188349219
 30
0.0
 10
46.85147232524817
 20
427.874090628023
 30
0.0
 10
49.1853359968234
 20
427.8738200374049
 30
0.0
 10
52.0786865238295
 20
427.8734033141908
 30
0.0
 10
52.96184059439974
 20
427.873276654646
 30
0.0
 10
54.48215314002161
 20
427.8731327655998
 30
0.0
 10
55.12487445992807
 20
427.8731146627913
 30
0.0
 10
56.17495170526196
 20
427.8731883057498
 30
0.0
 10
56.57888849003384
 20
427.8732823873708
 30
0.0
 10
57.11227866903054
 20
427.8734782002604
 30
0.0
 10
57.24863583132291
 20
427.8735809353334
 30
0.0
 10
57.25004990774686
 20
427.8735820477874
 30
0.0
 10
57.25005354621986
 20
427.8735820507413
 30
0.0
 10
57.25005360389503
 20
427.8735820509835
 30
0.0
  0
LINE
  5
C3
330
5E
100
AcDbEntity
  8
$DDT_AUDIT_GENERATED_(C1)
  6
Continuous
 62
     7
100
AcDbLine
 10
15.4709428739
 20
427.8594637104
 30
0.0
 11
11.7015740649
 21
426.9895235547
 31
0.0
  0
LINE
  5
C4
330
5E
100
AcDbEntity
  8
$DDT_AUDIT_GENERATED_(C1)
  6
Continuous
 62
     7
100
AcDbLine
 10
60.9985330922
 20
426.9895235547
 30
0.0
 11
57.2378869071
 21
427.8574505986
 31
0.0
  0
LINE
  5
C5
330
5E
100
AcDbEntity
  8
$DDT_AUDIT_GENERATED_(C1)
  6
Continuous
 62
     7
100
AcDbLine
 10
11.7000535786
 20
427.0010957574
 30
0.0
 11
11.7000535786
 21
426.9197823458
 31
0.0
  0
LINE
  5
C6
330
5E
100
AcDbEntity
  8
$DDT_AUDIT_GENERATED_(C1)
  6
Continuous
 62
     7
100
AcDbLine
 10
61.0000535786
 20
426.9197823458
 30
0.0
 11
61.0000535786
 21
427.0010957574
 31
0.0
  0
LINE
  5
C8
330
5E
100
AcDbEntity
  8
$DDT_AUDIT_GENERATED_(C7)
  6
Continuous
 62
     7
100
AcDbLine
 10
65.3500535637
 20
426.9197823458
 30
0.0
 11
7.3500523003
 21
426.9197823458
 31
0.0
  0
LINE
  5
C9
330
5E
100
AcDbEntity
  8
$DDT_AUDIT_GENERATED_(C7)
  6
Continuous
 62
     7
100
AcDbLine
 10
6.3500029916
 20
421.2197823458
 30
0.0
 11
66.3500594452
 21
421.2197823458
 31
0.0
  0
SPLINE
  5
CA
330
5E
100
AcDbEntity
  8
$DDT_AUDIT_GENERATED_(C7)
  6
Continuous
 62
     7
100
AcDbSpline
210
0.0
220
0.0
230
1.0
 70
     8
 71
     3
 72
    13
 73
     9
 74
     0
 42
0.0000000063014676
 43
0.0000000001
 40
0.0
 40
0.0
 40
0.0
 40
0.0
 40
0.1294353618362324
 40
0.2550301133060662
 40
0.5000000000000001
 40
0.744969886693935
 40
0.8705646381637685
 40
1.0
 40
1.0
 40
1.0
 40
1.0
 10
66.3500535785512
 20
425.9197823308772
 30
0.0
 10
66.34637256901995
 20
425.9939617098106
 30
0.0
 10
66.33829924062667
 20
426.117873176188
 30
0.0
 10
66.25822814203535
 20
426.3728186878267
 30
0.0
 10
66.07467963725432
 20
426.6444084044814
 30
0.0
 10
65.80308992059966
 20
426.8279569092624
 30
0.0
 10
65.54814440896101
 20
426.9080280078538
 30
0.0
 10
65.42423294258357
 20
426.916101336247
 30
0.0
 10
65.3500535636502
 20
426.9197823457783
 30
0.0
  0
SPLINE
  5
CB
330
5E
100
AcDbEntity
  8
$DDT_AUDIT_GENERATED_(C7)
  6
Continuous
 62
     7
100
AcDbSpline
210
0.0
220
0.0
230
1.0
 70
     8
 71
     3
 72
    13
 73
     9
 74
     0
 42
0.0000000063014675
 43
0.0000000001
 40
0.0
 40
0.0
 40
0.0
 40
0.0
 40
0.1294353651929536
 40
0.2550301194024497
 40
0.5000000085273767
 40
0.7449698927901939
 40
0.870564641520388
 40
1.0
 40
1.0
 40
1.0
 40
1.0
 10
7.350052300342885
 20
426.9197823457783
 30
0.0
 10
7.275872917511833
 20
426.916101336271
 30
0.0
 10
7.151961444951269
 20
426.9080280079041
 30
0.0
 10
6.897015921171014
 20
426.8279569099142
 30
0.0
 10
6.625426191243012
 20
426.6444084073406
 30
0.0
 10
6.441877674539312
 20
426.3728186895839
 30
0.0
 10
6.361806571108533
 20
426.1178731765924
 30
0.0
 10
6.353733242261558
 20
425.9939617098394
 30
0.0
 10
6.350052232511547
 20
425.9197823308772
 30
0.0
  0
LINE
  5
CC
330
5E
100
AcDbEntity
  8
$DDT_AUDIT_GENERATED_(C7)
  6
Continuous
 62
     7
100
AcDbLine
 10
6.3500029916
 20
425.9247823309
 30
0.0
 11
6.3500029916
 21
421.2197823458
 31
0.0
  0
LINE
  5
CD
330
5E
100
AcDbEntity
  8
$DDT_AUDIT_GENERATED_(C7)
  6
Continuous
 62
     7
100
AcDbLine
 10
66.3500594452
 20
421.2197823458
 30
0.0
 11
66.3500594452
 21
425.9247823309
 31
0.0
  0
LINE
  5
CF
330
5E
100
AcDbEntity
  8
$DDT_AUDIT_GENERATED_(CE)
  6
Continuous
 62
     7
100
AcDbLine
 10
112.5519220784
 20
496.8761321374
 30
0.0
 11
112.5579488549
 21
496.7911699793
 31
0.0
  0
LINE
  5
D0
330
5E
100
AcDbEntity
  8
$DDT_AUDIT_GENERATED_(CE)
  6
Continuous
 62
     7
100
AcDbLine
 10
112.5340245483
 20
497.8137439585
 30
0.0
 11
112.553413397
 21
496.7905767862
 31
0.0
  0
LINE
  5
D1
330
5E
100
AcDbEntity
  8
$DDT_AUDIT_GENERATED_(CE)
  6
Continuous
 62
     7
100
AcDbLine
 10
112.4939495304
 20
498.6972534747
 30
0.0
 11
112.5249129019
 21
498.0629177702
 31
0.0
  0
LINE
  5
D2
330
5E
100
AcDbEntity
  8
$DDT_AUDIT_GENERATED_(CE)
  6
Continuous
 62
     7
100
AcDbLine
 10
112.4320996447
 20
499.5819682735
 30
0.0
 11
112.4787070836
 21
498.9468157761
 31
0.0
  0
LINE
  5
D3
330
5E
100
AcDbEntity
  8
$DDT_AUDIT_GENERATED_(CE)
  6
Continuous
 62
     7
100
AcDbLine
 10
112.5249129019
 20
498.0629177702
 30
0.0
 11
112.5340245483
 21
497.8137439585
 31
0.0
  0
LINE
  5
D4
330
5E
100
AcDbEntity
  8
$DDT_AUDIT_GENERATED_(CE)
  6
Continuous
 62
     7
100
AcDbLine
 10
112.4787070836
 20
498.9468157761
 30
0.0
 11
112.4939495304
 21
498.6972534747
 31
0.0
  0
LINE
  5
D5
330
5E
100
AcDbEntity
  8
$DDT_AUDIT_GENERATED_(CE)
  6
Continuous
 62
     7
100
AcDbLine
 10
112.4107438433
 20
499.8311475996
 30
0.0
 11
112.4320996447
 21
499.5819682735
 31
0.0
  0
ARC
  5
D6
330
5E
100
AcDbEntity
  8
$DDT_AUDIT_GENERATED_(CE)
  6
Continuous
 62
     7
100
AcDbCircle
 10
43.9264420357
 20
501.1483743546
 30
0.0
 40
67.4458333952046
100
AcDbArc
 50
4.6041106923
 51
4.8295175042
  0
ARC
  5
D7
330
5E
100
AcDbEntity
  8
$DDT_AUDIT_GENERATED_(CE)
  6
Continuous
 62
     7
100
AcDbCircle
 10
110.6009876838
 20
486.9535203503
 30
0.0
 40
0.6207804685797251
100
AcDbArc
 50
327.6152050269
 51
343.9583863665
  0
ELLIPSE
  5
D8
330
5E
100
AcDbEntity
  8
$DDT_AUDIT_GENERATED_(CE)
  6
Continuous
 62
     7
100
AcDbEllipse
 10
110.927324488
 20
486.6647070575
 30
0.0
 11
-0.1823818969007712
 21
0.08207827777722415
 31
0.0
210
0.0
220
0.0
230
0.9999999999999999
 40
0.9665453809
 41
3.132391146469978
 42
3.291496351924842
  0
ELLIPSE
  5
D9
330
5E
100
AcDbEntity
  8
$DDT_AUDIT_GENERATED_(CE)
  6
Continuous
 62
     7
100
AcDbEllipse
 10
110.9330054467
 20
486.6758067663
 30
0.0
 11
-0.1675579747402456
 21
0.1091985581450142
 31
0.0
210
0.0
220
0.0
230
0.9999999999999998
 40
0.9924017769
 41
3.132545132001808
 42
3.443699090031918
  0
ARC
  5
DA
330
5E
100
AcDbEntity
  8
$DDT_AUDIT_GENERATED_(CE)
  6
Continuous
 62
     7
100
AcDbCircle
 10
76.406535313
 20
496.6159866547
 30
0.0
 40
36.14729541962495
100
AcDbArc
 50
356.4146840674
 51
0.1371267793
  0
ARC
  5
DB
330
5E
100
AcDbEntity
  8
$DDT_AUDIT_GENERATED_(CE)
  6
Continuous
 62
     7
100
AcDbCircle
 10
76.224524087
 20
496.8868401572
 30
0.0
 40
36.26497980897685
100
AcDbArc
 50
9.5394085686
 51
15.4739867808
  0
ARC
  5
DC
330
5E
100
AcDbEntity
  8
$DDT_AUDIT_GENERATED_(CE)
  6
Continuous
 62
     7
100
AcDbCircle
 10
75.9287312604
 20
496.6678784679
 30
0.0
 40
36.62791778715821
100
AcDbArc
 50
344.2379262775
 51
353.0220409164
  0
ARC
  5
DD
330
5E
100
AcDbEntity
  8
$DDT_AUDIT_GENERATED_(CE)
  6
Continuous
 62
     7
100
AcDbCircle
 10
75.684845236
 20
496.7032729358
 30
0.0
 40
36.87429756721237
100
AcDbArc
 50
352.9876643916
 51
355.6720109846
  0
ARC
  5
DE
330
5E
100
AcDbEntity
  8
$DDT_AUDIT_GENERATED_(CE)
  6
Continuous
 62
     7
100
AcDbCircle
 10
75.684845236
 20
496.7032729358
 30
0.0
 40
36.87429756721237
100
AcDbArc
 50
359.7162555953
 51
0.1365830599
  0
ARC
  5
DF
330
5E
100
AcDbEntity
  8
$DDT_AUDIT_GENERATED_(CE)
  6
Continuous
 62
     7
100
AcDbCircle
 10
111.026092385
 20
486.6202094224
 30
0.0
 40
0.0916817693783088
100
AcDbArc
 50
334.6473360801
 51
334.7698403772
  0
ELLIPSE
  5
E1
330
5E
100
AcDbEntity
  8
02636038_GEHÄUSE
  6
Continuous
 62
     7
100
AcDbEllipse
 10
36.3500535784
 20
666.5442739694
 30
0.0
 11
10.75000000000001
 21
2.775557561562891E-14
 31
0.0
210
0.0
220
0.0
230
1.0
 40
0.1460162127
 41
5.480490692503194
 42
6.283185307179568
  0
ELLIPSE
  5
E2
330
5E
100
AcDbEntity
  8
02636038_GEHÄUSE
  6
Continuous
 62
     7
100
AcDbEllipse
 10
36.3500535784
 20
666.5442739694
 30
0.0
 11
10.75000000000001
 21
2.775557561562891E-14
 31
0.0
210
0.0
220
0.0
230
1.0
 40
0.1460162127
 41
0.0
 42
3.944287268266186
  0
LINE
  5
E3
330
5E
100
AcDbEntity
  8
02636038_GEHÄUSE
  6
Continuous
 62
     7
100
AcDbLine
 10
47.3500535784
 20
666.4807418228
 30
0.0
 11
47.3500535784
 21
667.2360846931
 31
0.0
  0
ELLIPSE
  5
E4
330
5E
100
AcDbEntity
  8
02636038_GEHÄUSE
  6
Continuous
 62
     7
100
AcDbEllipse
 10
36.3500535784
 20
669.5121205609
 30
0.0
 11
-11.80000000000002
 21
0.0
 31
0.0
210
0.0
220
0.0
230
1.0
 40
0.1460162127
 41
2.771250021498091
 42
3.511935285681524
  0
LINE
  5
E5
330
5E
100
AcDbEntity
  8
02636038_GEHÄUSE
  6
Continuous
 62
     7
100
AcDbLine
 10
47.3500535784
 20
667.2360846931
 30
0.0
 11
47.3500535784
 21
668.3387673838
 31
0.0
  0
LINE
  5
E6
330
5E
100
AcDbEntity
  8
02636038_GEHÄUSE
  6
Continuous
 62
     7
100
AcDbLine
 10
47.3500535784
 20
668.3387673838
 30
0.0
 11
47.3500535784
 21
670.1357311725
 31
0.0
  0
LINE
  5
E7
330
5E
100
AcDbEntity
  8
02636038_GEHÄUSE
  6
Continuous
 62
     7
100
AcDbLine
 10
25.3500535784
 20
667.2360846931
 30
0.0
 11
25.3500535784
 21
666.4807418228
 31
0.0
  0
ELLIPSE
  5
E8
330
5E
100
AcDbEntity
  8
02636038_GEHÄUSE
  6
Continuous
 62
     7
100
AcDbEllipse
 10
36.3500535784
 20
669.5121205609
 30
0.0
 11
11.79999999999961
 21
-1.110223024625157E-13
 31
0.0
210
0.0
220
0.0
230
1.0
 40
0.1460162127
 41
2.771250021498059
 42
3.51193528568152
  0
LINE
  5
E9
330
5E
100
AcDbEntity
  8
02636038_GEHÄUSE
  6
Continuous
 62
     7
100
AcDbLine
 10
25.3500535784
 20
670.1357311725
 30
0.0
 11
25.3500535784
 21
668.3387673838
 31
0.0
  0
LINE
  5
EA
330
5E
100
AcDbEntity
  8
02636038_GEHÄUSE
  6
Continuous
 62
     7
100
AcDbLine
 10
25.3500535784
 20
668.3387673838
 30
0.0
 11
25.3500535784
 21
667.2360846931
 31
0.0
  0
LINE
  5
EB
330
5E
100
AcDbEntity
  8
02636038_GEHÄUSE
  6
Continuous
 62
     7
100
AcDbLine
 10
25.4255517959
 20
666.4365992126
 30
0.0
 11
25.957275334
 21
666.1429906961
 31
0.0
  0
LINE
  5
EC
330
5E
100
AcDbEntity
  8
02636038_GEHÄUSE
  6
Continuous
 62
     7
100
AcDbLine
 10
46.7428318229
 20
666.1429906961
 30
0.0
 11
47.274555361
 21
666.4365992126
 31
0.0
  0
LINE
  5
ED
330
5E
100
AcDbEntity
  8
02636038_GEHÄUSE
  6
Continuous
 62
     7
100
AcDbLine
 10
47.288054809
 20
666.453220353
 30
0.0
 11
47.347475042
 21
666.4863284891
 31
0.0
  0
ARC
  5
EE
330
5E
100
AcDbEntity
  8
02636038_GEHÄUSE
  6
Continuous
 62
     7
100
AcDbCircle
 10
25.7625192324
 20
667.0804177007
 30
0.0
 40
0.7263009292251479
100
AcDbArc
 50
235.499987696
 51
243.997465568
  0
LINE
  5
EF
330
5E
100
AcDbEntity
  8
02636038_GEHÄUSE
  6
Continuous
 62
     7
100
AcDbLine
 10
24.5500535784
 20
674.0449597722
 30
0.0
 11
24.5500535784
 21
669.5121205609
 31
0.0
  0
LINE
  5
F0
330
5E
100
AcDbEntity
  8
02636038_GEHÄUSE
  6
Continuous
 62
     7
100
AcDbLine
 10
48.1500535784
 20
669.5121205609
 30
0.0
 11
48.1500535784
 21
674.0407508234
 31
0.0
  0
ELLIPSE
  5
F2
330
5E
100
AcDbEntity
  8
$DDT_AUDIT_GENERATED_(F1)
  6
Continuous
 62
     7
100
AcDbEllipse
 10
36.3500535784
 20
666.1485610905
 30
0.0
 11
9.000000000000005
 21
0.0
 31
0.0
210
0.0
220
0.0
230
1.0
 40
0.1460162127
 41
0.0
 42
6.283185307179586
  0
LINE
  5
F3
330
5E
100
AcDbEntity
  8
$DDT_AUDIT_GENERATED_(F1)
  6
Continuous
 62
     7
100
AcDbLine
 10
27.3500535784
 20
667.1973191357
 30
0.0
 11
27.3500535784
 21
666.1485610905
 31
0.0
  0
LINE
  5
F4
330
5E
100
AcDbEntity
  8
$DDT_AUDIT_GENERATED_(F1)
  6
Continuous
 62
     7
100
AcDbLine
 10
45.3500535784
 20
666.1485610905
 30
0.0
 11
45.3500535784
 21
667.1973191357
 31
0.0
  0
LINE
  5
F6
330
5E
100
AcDbEntity
  8
DV1_Standard
  6
Continuous
 62
     7
100
AcDbLine
 10
112.4107438433
 20
499.8311475996
 30
0.0
 11
112.1899773635
 21
501.5381766495
 31
0.0
  0
LINE
  5
F7
330
5E
100
AcDbEntity
  8
DV1_Standard
  6
Continuous
 62
     7
100
AcDbLine
 10
112.1899773635
 20
501.5381766495
 30
0.0
 11
112.1517482119
 21
501.8247878305
 31
0.0
  0
LINE
  5
F8
330
5E
100
AcDbEntity
  8
DV1_Standard
  6
Continuous
 62
     7
100
AcDbLine
 10
112.1517482119
 20
501.8247878305
 30
0.0
 11
111.9873057885
 21
502.9011734969
 31
0.0
  0
LINE
  5
F9
330
5E
100
AcDbEntity
  8
DV1_Standard
  6
Continuous
 62
     7
100
AcDbLine
 10
112.4107438433
 20
493.3983988739
 30
0.0
 11
112.4959190687
 21
494.3449210819
 31
0.0
  0
LINE
  5
FA
330
5E
100
AcDbEntity
  8
DV1_Standard
  6
Continuous
 62
     7
100
AcDbLine
 10
57.1982227449
 20
468.655733457
 30
0.0
 11
57.198222772
 21
428.4908082866
 31
0.0
  0
LINE
  5
FC
330
5E
100
AcDbEntity
  8
DV1_Standard
  6
CENTER2
 62
     7
100
AcDbLine
 10
56.3500307714
 20
421.2197823458
 30
0.0
 11
16.3500316654
 21
421.2197823458
 31
0.0
  0
LINE
  5
FD
330
5E
100
AcDbEntity
  8
DV1_Standard
  6
CENTER2
 62
     7
100
AcDbLine
 10
36.3500312184
 20
441.2197818987
 30
0.0
 11
36.3500312184
 21
401.2197827928
 31
0.0
  0
ENDBLK
  5
FF
330
5E
100
AcDbEntity
  8
0
100
AcDbBlockEnd
  0
BLOCK
  5
15F
330
100
100
AcDbEntity
  8
0
100
AcDbBlockBegin
  2
SE1
 70
     0
 10
0.0
 20
0.0
 30
0.0
  3
SE1
  1

  0
SPLINE
  5
102
330
100
100
AcDbEntity
  8
$DDT_AUDIT_GENERATED_(60)
  6
Continuous
 62
     7
100
AcDbSpline
210
0.0
220
0.0
230
1.0
 70
     8
 71
     3
 72
     9
 73
     5
 74
     0
 42
0.0000000002103879
 43
0.0000000001
 40
0.7149238272664441
 40
0.7149238272664441
 40
0.7149238272664441
 40
0.7149238272664441
 40
0.7357839854143436
 40
0.740212696281779
 40
0.740212696281779
 40
0.740212696281779
 40
0.740212696281779
 10
193.5557212103367
 20
482.2255709296072
 30
0.0
 10
193.5556993769376
 20
481.8952463644148
 30
0.0
 10
193.5556816624929
 20
481.4945669368242
 30
0.0
 10
193.5556728543906
 20
481.0937551289028
 30
0.0
 10
193.5556715719964
 20
481.0235590857696
 30
0.0
  0
SPLINE
  5
103
330
100
100
AcDbEntity
  8
$DDT_AUDIT_GENERATED_(60)
  6
Continuous
 62
     7
100
AcDbSpline
210
0.0
220
0.0
230
1.0
 70
     8
 71
     3
 72
     9
 73
     5
 74
     0
 42
0.0000000438115275
 43
0.0000000001
 40
0.0000073355153857
 40
0.0000073355153857
 40
0.0000073355153857
 40
0.0000073355153857
 40
0.0101813273803147
 40
0.075869954697544
 40
0.075869954697544
 40
0.075869954697544
 40
0.075869954697544
 10
235.2569187683258
 20
496.7188776005142
 30
0.0
 10
235.2568146193286
 20
496.7176091952937
 30
0.0
 10
235.2568148252133
 20
496.7156846325171
 30
0.0
 10
235.256815304347
 20
496.7110326086278
 30
0.0
 10
235.2568161018955
 20
496.7015661937642
 30
0.0
  0
SPLINE
  5
104
330
100
100
AcDbEntity
  8
$DDT_AUDIT_GENERATED_(60)
  6
Continuous
 62
     7
100
AcDbSpline
210
0.0
220
0.0
230
1.0
 70
     8
 71
     3
 72
    18
 73
    14
 74
     0
 42
0.0000000002235742
 43
0.0000000001
 40
0.4711474072306246
 40
0.4711474072306246
 40
0.4711474072306246
 40
0.4711474072306246
 40
0.4720967079361678
 40
0.4885936858131626
 40
0.5050906636901573
 40
0.5380846194441469
 40
0.5710785751981363
 40
0.6040725309521259
 40
0.6370664867061154
 40
0.6700604424601049
 40
0.7030543982140944
 40
0.7360483539680839
 40
0.7405375950946977
 40
0.7405375950946977
 40
0.7405375950946977
 40
0.7405375950946977
 10
235.2569207067894
 20
493.069725296449
 30
0.0
 10
235.2569208873703
 20
493.0591329459165
 30
0.0
 10
235.2569242062271
 20
492.8639043931326
 30
0.0
 10
235.2569306639768
 20
492.4640512801857
 30
0.0
 10
235.2569429490559
 20
491.6222364698301
 30
0.0
 10
235.2569573407812
 20
490.4710116176331
 30
0.0
 10
235.2569722855055
 20
488.9975578294013
 30
0.0
 10
235.2569848231911
 20
487.4757621411955
 30
0.0
 10
235.2569951583033
 20
485.9291283809141
 30
0.0
 10
235.257003566576
 20
484.3697587687248
 30
0.0
 10
235.2570103170724
 20
482.8037895403534
 30
0.0
 10
235.2570141126033
 20
481.68636214276
 30
0.0
 10
235.257015871187
 20
481.0916986712369
 30
0.0
 10
235.2570160781494
 20
481.0204728722631
 30
0.0
  0
LINE
  5
105
330
100
100
AcDbEntity
  8
$DDT_AUDIT_GENERATED_(60)
  6
Continuous
 62
     7
100
AcDbLine
 10
235.2570281278
 20
524.783830042
 30
0.0
 11
235.2570281278
 21
527.4197823756
 31
0.0
  0
ARC
  5
106
330
100
100
AcDbEntity
  8
$DDT_AUDIT_GENERATED_(60)
  6
Continuous
 62
     7
100
AcDbCircle
 10
-25.244143821
 20
451.3359123154
 30
0.0
 40
218.9470216630505
100
AcDbArc
 50
357.8826110135
 51
2.117473884
  0
SPLINE
  5
107
330
100
100
AcDbEntity
  8
$DDT_AUDIT_GENERATED_(60)
  6
Continuous
 62
     7
100
AcDbSpline
210
0.0
220
0.0
230
1.0
 70
     8
 71
     3
 72
     8
 73
     4
 74
     0
 42
0.0000000432853322
 43
0.0000000001
 40
0.0
 40
0.0
 40
0.0
 40
0.0
 40
0.0762600048364493
 40
0.0762600048364493
 40
0.0762600048364493
 40
0.0762600048364493
 10
235.2569189937646
 20
496.7188803456759
 30
0.0
 10
235.2570267470403
 20
496.7237929938264
 30
0.0
 10
235.25703011451
 20
496.7266420217878
 30
0.0
 10
235.2570335870304
 20
496.7364971399198
 30
0.0
  0
SPLINE
  5
108
330
100
100
AcDbEntity
  8
$DDT_AUDIT_GENERATED_(60)
  6
Continuous
 62
     7
100
AcDbSpline
210
0.0
220
0.0
230
1.0
 70
     8
 71
     3
 72
    13
 73
     9
 74
     0
 42
0.000000000223504
 43
0.0000000001
 40
0.4711178317789645
 40
0.4711178317789645
 40
0.4711178317789645
 40
0.4711178317789645
 40
0.47207745711942
 40
0.5377840348340835
 40
0.6037177024013447
 40
0.6697413359961374
 40
0.7357883552936535
 40
0.7376827726242987
 40
0.7376827726242987
 40
0.7376827726242987
 40
0.7376827726242987
 10
235.257008659901
 20
500.368510443988
 30
0.0
 10
235.2570089937455
 20
500.3792269307794
 30
0.0
 10
235.2570327002786
 20
501.12602180399
 30
0.0
 10
235.2571520066903
 20
502.930913763666
 30
0.0
 10
235.2565708060546
 20
505.9550154170713
 30
0.0
 10
235.2574116923784
 20
509.0668687036483
 30
0.0
 10
235.2575770194624
 20
511.1882705995419
 30
0.0
 10
235.2575988494572
 20
512.2651114471925
 30
0.0
 10
235.2575994109183
 20
512.2951378307415
 30
0.0
  0
SPLINE
  5
109
330
100
100
AcDbEntity
  8
$DDT_AUDIT_GENERATED_(60)
  6
Continuous
 62
     7
100
AcDbSpline
210
0.0
220
0.0
230
1.0
 70
     8
 71
     3
 72
     9
 73
     5
 74
     0
 42
0.0000000002101922
 43
0.0000000001
 40
0.7153346218140338
 40
0.7153346218140338
 40
0.7153346218140338
 40
0.7153346218140338
 40
0.7360527194817327
 40
0.7379607851476884
 40
0.7379607851476884
 40
0.7379607851476884
 40
0.7379607851476884
 10
193.5562751298271
 20
511.2194234331944
 30
0.0
 10
193.5562739730073
 20
511.5478115123687
 30
0.0
 10
193.5562728059185
 20
511.9066412105805
 30
0.0
 10
193.556271733589
 20
512.2656023829344
 30
0.0
 10
193.5562716438277
 20
512.2958745116233
 30
0.0
  0
LINE
  5
10A
330
100
100
AcDbEntity
  8
$DDT_AUDIT_GENERATED_(60)
  6
Continuous
 62
     7
100
AcDbLine
 10
193.5533233954
 20
527.4197823756
 30
0.0
 11
193.5533233954
 21
524.783830042
 31
0.0
  0
LINE
  5
10B
330
100
100
AcDbEntity
  8
$DDT_AUDIT_GENERATED_(60)
  6
Continuous
 62
     7
100
AcDbLine
 10
193.8533234098
 20
527.7197823756
 30
0.0
 11
234.9570281135
 21
527.7197823756
 31
0.0
  0
ARC
  5
10C
330
100
100
AcDbEntity
  8
$DDT_AUDIT_GENERATED_(60)
  6
Continuous
 62
     7
100
AcDbCircle
 10
193.8533234095
 20
527.4197823569
 30
0.0
 40
0.3000000140440321
100
AcDbArc
 50
89.9999999478
 51
179.9999964235
  0
ARC
  5
10D
330
100
100
AcDbEntity
  8
$DDT_AUDIT_GENERATED_(60)
  6
Continuous
 62
     7
100
AcDbCircle
 10
234.9570281135
 20
527.4197823756
 30
0.0
 40
0.2999999999999947
100
AcDbArc
 50
0.0
 51
90.0
  0
ARC
  5
10E
330
100
100
AcDbEntity
  8
$DDT_AUDIT_GENERATED_(60)
  6
Continuous
 62
     7
100
AcDbCircle
 10
847.9635248389
 20
480.3110997366
 30
0.0
 40
654.4076500945656
100
AcDbArc
 50
179.9369225389
 51
181.0205238398
  0
LINE
  5
10F
330
100
100
AcDbEntity
  8
$DDT_AUDIT_GENERATED_(60)
  6
Continuous
 62
     7
100
AcDbLine
 10
193.5557122581
 20
511.220086448
 30
0.0
 11
193.5557122964
 21
482.2252075017
 31
0.0
  0
ARC
  5
110
330
100
100
AcDbEntity
  8
$DDT_AUDIT_GENERATED_(60)
  6
Continuous
 62
     7
100
AcDbCircle
 10
-475.8263481968
 20
524.0881088753
 30
0.0
 40
669.4865316896419
100
AcDbArc
 50
358.9905034383
 51
0.0595409943
  0
ARC
  5
111
330
100
100
AcDbEntity
  8
$DDT_AUDIT_GENERATED_(60)
  6
Continuous
 62
     7
100
AcDbCircle
 10
-419.1502374839
 20
480.3110997363
 30
0.0
 40
654.4076501013483
100
AcDbArc
 50
358.9794761602
 51
0.0630774611
  0
LINE
  5
112
330
100
100
AcDbEntity
  8
$DDT_AUDIT_GENERATED_(60)
  6
Continuous
 62
     7
100
AcDbLine
 10
235.257009521
 20
493.0677620975
 30
0.0
 11
235.2570093653
 21
500.3715190655
 31
0.0
  0
ARC
  5
113
330
100
100
AcDbEntity
  8
$DDT_AUDIT_GENERATED_(60)
  6
Continuous
 62
     7
100
AcDbCircle
 10
904.6396354625
 20
524.0881088742
 30
0.0
 40
669.4865315936279
100
AcDbArc
 50
179.9404590056
 51
181.0094965617
  0
LINE
  5
114
330
100
100
AcDbEntity
  8
$DDT_AUDIT_GENERATED_(60)
  6
Continuous
 62
     7
100
AcDbLine
 10
193.55332307
 20
443.2608321505
 30
0.0
 11
193.55332307
 21
428.4908082866
 31
0.0
  0
LINE
  5
115
330
100
100
AcDbEntity
  8
$DDT_AUDIT_GENERATED_(60)
  6
Continuous
 62
     7
100
AcDbLine
 10
193.55332307
 20
468.655733457
 30
0.0
 11
193.55332307
 21
459.4143875986
 31
0.0
  0
LINE
  5
116
330
100
100
AcDbEntity
  8
$DDT_AUDIT_GENERATED_(60)
  6
Continuous
 62
     7
100
AcDbLine
 10
235.2570284532
 20
428.4908082866
 30
0.0
 11
235.2570284532
 21
468.655733457
 31
0.0
  0
LINE
  5
117
330
100
100
AcDbEntity
  8
$DDT_AUDIT_GENERATED_(60)
  6
Continuous
 62
     7
100
AcDbLine
 10
193.55329807
 20
428.5217879151
 30
0.0
 11
193.55332307
 21
428.521646133
 31
0.0
  0
LINE
  5
118
330
100
100
AcDbEntity
  8
$DDT_AUDIT_GENERATED_(60)
  6
Continuous
 62
     7
100
AcDbLine
 10
235.2570284532
 20
428.5049961651
 30
0.0
 11
235.2570534532
 21
428.5051379471
 31
0.0
  0
LINE
  5
119
330
100
100
AcDbEntity
  8
$DDT_AUDIT_GENERATED_(60)
  6
Continuous
 62
     7
100
AcDbLine
 10
235.2067375668
 20
427.8736199986
 30
0.0
 11
235.2067375668
 21
428.2197823756
 31
0.0
  0
LINE
  5
11A
330
100
100
AcDbEntity
  8
$DDT_AUDIT_GENERATED_(60)
  6
Continuous
 62
     7
100
AcDbLine
 10
193.6065497949
 20
428.2197823756
 30
0.0
 11
193.6065497949
 21
427.873620438
 31
0.0
  0
LINE
  5
11B
330
100
100
AcDbEntity
  8
$DDT_AUDIT_GENERATED_(88)
  6
Continuous
 62
     7
100
AcDbLine
 10
331.945035972
 20
670.7572058717
 30
0.0
 11
253.322810239
 21
661.1036036496
 31
0.0
  0
LINE
  5
11C
330
100
100
AcDbEntity
  8
$DDT_AUDIT_GENERATED_(88)
  6
Continuous
 62
     7
100
AcDbLine
 10
251.2510406245
 20
677.9768633498
 30
0.0
 11
342.0693287704
 21
689.1279470196
 31
0.0
  0
SPLINE
  5
11D
330
100
100
AcDbEntity
  8
$DDT_AUDIT_GENERATED_(88)
  6
Continuous
 62
     7
100
AcDbSpline
210
0.0
220
0.0
230
1.0
 70
    12
 71
     5
 72
    12
 73
     6
 74
     0
 42
0.0000000001959765
 43
0.0000000001
 40
0.407608228770716
 40
0.407608228770716
 40
0.407608228770716
 40
0.407608228770716
 40
0.407608228770716
 40
0.407608228770716
 40
1.0
 40
1.0
 40
1.0
 40
1.0
 40
1.0
 40
1.0
 10
226.7075971303002
 20
650.1123306281189
 30
0.0
 41
1.0
 10
229.5701929288611
 20
654.1684123605602
 30
0.0
 41
1.0
 10
233.9080826153729
 20
657.3644190818186
 30
0.0
 41
1.0
 10
239.6823904998583
 20
659.4287617091184
 30
0.0
 41
1.0
 10
246.1237938985309
 20
660.2196749705054
 30
0.0
 41
1.0
 10
253.3228102389747
 20
661.1036036496183
 30
0.0
 41
1.0
  0
SPLINE
  5
11E
330
100
100
AcDbEntity
  8
$DDT_AUDIT_GENERATED_(88)
  6
Continuous
 62
     7
100
AcDbSpline
210
0.0
220
0.0
230
1.0
 70
     8
 71
     2
 72
    22
 73
    19
 74
     0
 42
0.0000000002965428
 43
0.0000000001
 40
0.0
 40
0.0
 40
0.0
 40
0.0312502384347396
 40
0.0312502384347396
 40
0.0625004768694792
 40
0.0625004768694792
 40
0.1250009537389584
 40
0.1250009537389584
 40
0.1875014306084376
 40
0.1875014306084376
 40
0.2500019074779168
 40
0.2500019074779168
 40
0.3750028612168751
 40
0.3750028612168751
 40
0.4375033380863543
 40
0.4375033380863543
 40
0.5000038149558336
 40
0.5000038149558336
 40
0.5000292542307418
 40
0.5000292542307418
 40
0.5000292542307418
 10
342.0693263190341
 20
689.127966984107
 30
0.0
 10
343.0153470843516
 20
689.2441034632703
 30
0.0
 10
344.0178387231629
 20
689.3671939593679
 30
0.0
 10
344.8837210068995
 20
689.4735109357307
 30
0.0
 10
345.7352549440176
 20
689.5780661566482
 30
0.0
 10
347.1599324520818
 20
689.7529945594972
 30
0.0
 10
348.4927941551059
 20
689.9166493990023
 30
0.0
 10
350.185967356341
 20
690.1245449277533
 30
0.0
 10
351.6884382546316
 20
690.3090251578948
 30
0.0
 10
352.9067495624408
 20
690.4586149773744
 30
0.0
 10
353.9286792206076
 20
690.5840921621516
 30
0.0
 10
356.2672134938357
 20
690.8712280670197
 30
0.0
 10
357.5252806965733
 20
691.0256992966181
 30
0.0
 10
358.1660944470812
 20
691.1043813318614
 30
0.0
 10
358.4891850689502
 20
691.144051872134
 30
0.0
 10
358.8054775867186
 20
691.1828877101767
 30
0.0
 10
358.8056034269327
 20
691.1829031614121
 30
0.0
 10
358.8056034802005
 20
691.1829031679526
 30
0.0
 10
358.8056034767786
 20
691.1829031675325
 30
0.0
  0
SPLINE
  5
11F
330
100
100
AcDbEntity
  8
$DDT_AUDIT_GENERATED_(88)
  6
Continuous
 62
     7
100
AcDbSpline
210
0.0
220
0.0
230
1.0
 70
    12
 71
     5
 72
    12
 73
     6
 74
     0
 42
0.0000000001257372
 43
0.0000000001
 40
0.0
 40
0.0
 40
0.0
 40
0.0
 40
0.0
 40
0.0
 40
1.0
 40
1.0
 40
1.0
 40
1.0
 40
1.0
 40
1.0
 10
205.9066436808799
 20
632.9036285393634
 30
0.0
 41
1.0
 10
205.9066436808799
 20
650.4506126740733
 30
0.0
 41
1.0
 10
205.9066436808799
 20
662.9033606339523
 30
0.0
 41
1.0
 10
219.8591888604157
 20
674.1224192832224
 30
0.0
 41
1.0
 10
233.8348499691488
 20
675.8384146957853
 30
0.0
 41
1.0
 10
251.2509419333898
 20
677.9776671246706
 30
0.0
 41
1.0
  0
SPLINE
  5
120
330
100
100
AcDbEntity
  8
$DDT_AUDIT_GENERATED_(88)
  6
Continuous
 62
     7
100
AcDbSpline
210
0.0
220
0.0
230
1.0
 70
     8
 71
     3
 72
     8
 73
     4
 74
     0
 42
0.000000000104823
 43
0.0000000001
 40
0.0
 40
0.0
 40
0.0
 40
0.0
 40
0.0641191716467013
 40
0.0641191716467013
 40
0.0641191716467013
 40
0.0641191716467013
 10
222.9066436808799
 20
632.9036285393634
 30
0.0
 10
222.9062666656681
 20
630.8646649448759
 30
0.0
 10
222.9058896504563
 20
628.8257013503885
 30
0.0
 10
222.9058192111483
 20
626.7867308323139
 30
0.0
  0
SPLINE
  5
121
330
100
100
AcDbEntity
  8
$DDT_AUDIT_GENERATED_(88)
  6
Continuous
 62
     7
100
AcDbSpline
210
0.0
220
0.0
230
1.0
 70
     8
 71
     3
 72
    18
 73
    14
 74
     0
 42
0.0000000001254406
 43
0.0000000001
 40
0.6240167261518925
 40
0.6240167261518925
 40
0.6240167261518925
 40
0.6240167261518925
 40
0.6262928784716169
 40
0.7093503382000983
 40
0.7511334678078024
 40
0.813479491548105
 40
0.8757159607442254
 40
0.907813181709282
 40
0.9379056950071158
 40
0.9541601677881103
 40
0.9700360648566316
 40
0.9850785120504582
 40
1.0
 40
1.0
 40
1.0
 40
1.0
 10
224.0786348494792
 20
573.4041286152489
 30
0.0
 10
224.0866311308801
 20
573.3321638225783
 30
0.0
 10
224.3890624375414
 20
570.634426192857
 30
0.0
 10
224.9892061622039
 20
566.6295806405285
 30
0.0
 10
226.4067630568501
 20
560.863518862887
 30
0.0
 10
228.1159363346617
 20
555.9059517054753
 30
0.0
 10
230.1819619825393
 20
551.6310351279723
 30
0.0
 10
231.8305779892471
 20
548.761686512106
 30
0.0
 10
232.762385709479
 20
547.2742846355064
 30
0.0
 10
233.3536746189482
 20
546.3702933512653
 30
0.0
 10
233.691664286381
 20
545.8655274000276
 30
0.0
 10
233.9078204378261
 20
545.547725609036
 30
0.0
 10
233.9343467989835
 20
545.5090090083456
 30
0.0
 10
233.9475564535792
 20
545.4897288319082
 30
0.0
  0
SPLINE
  5
122
330
100
100
AcDbEntity
  8
$DDT_AUDIT_GENERATED_(88)
  6
Continuous
 62
     7
100
AcDbSpline
210
0.0
220
0.0
230
1.0
 70
    12
 71
     5
 72
    12
 73
     6
 74
     0
 42
0.0000000022847051
 43
0.0000000001
 40
0.0
 40
0.0
 40
0.0
 40
0.0
 40
0.0
 40
0.0
 40
0.8711078068373855
 40
0.8711078068373855
 40
0.8711078068373855
 40
0.8711078068373855
 40
0.8711078068373855
 40
0.8711078068373855
 10
193.5549835116799
 20
540.4789652063732
 30
0.0
 41
1.0
 10
193.5564296980324
 20
541.3823942998488
 30
0.0
 41
1.0
 10
193.5566161001638
 20
542.1239906593232
 30
0.0
 41
1.0
 10
193.351768028587
 20
542.8768168651388
 30
0.0
 41
1.0
 10
193.5199698792331
 20
543.4656362910473
 30
0.0
 41
1.0
 10
193.9268870967361
 20
544.1254284996018
 30
0.0
 41
1.0
  0
ARC
  5
123
330
100
100
AcDbEntity
  8
$DDT_AUDIT_GENERATED_(88)
  6
Continuous
 62
     7
100
AcDbCircle
 10
229.9491522422
 20
541.9339463146
 30
0.0
 40
5.350778032017715
100
AcDbArc
 50
352.7234007782
 51
41.6467081424
  0
LINE
  5
124
330
100
100
AcDbEntity
  8
$DDT_AUDIT_GENERATED_(88)
  6
Continuous
 62
     7
100
AcDbLine
 10
193.5533233954
 20
540.4789652064
 30
0.0
 11
193.5533233954
 21
538.0197823756
 31
0.0
  0
ARC
  5
125
330
100
100
AcDbEntity
  8
$DDT_AUDIT_GENERATED_(88)
  6
Continuous
 62
     7
100
AcDbCircle
 10
351.5005846158
 20
616.0457987345
 30
0.0
 40
58.10126981133628
100
AcDbArc
 50
109.2592914281
 51
109.6684605033
  0
ARC
  5
126
330
100
100
AcDbEntity
  8
$DDT_AUDIT_GENERATED_(88)
  6
Continuous
 62
     7
100
AcDbCircle
 10
351.5020937668
 20
616.0403068964
 30
0.0
 40
58.10694918048549
100
AcDbArc
 50
97.4492697393
 51
109.6680391435
  0
SPLINE
  5
127
330
100
100
AcDbEntity
  8
$DDT_AUDIT_GENERATED_(88)
  6
Continuous
 62
     7
100
AcDbSpline
210
0.0
220
0.0
230
1.0
 70
     8
 71
     3
 72
    16
 73
    12
 74
     0
 42
0.0000000004104609
 43
0.0000000001
 40
0.0
 40
0.0
 40
0.0
 40
0.0
 40
0.1250000000000002
 40
0.1250000000000002
 40
0.2500000000000004
 40
0.2500000000000004
 40
0.3750000000000006
 40
0.3750000000000006
 40
0.5000000000000008
 40
0.5000000000000008
 40
0.500183941370868
 40
0.500183941370868
 40
0.500183941370868
 40
0.500183941370868
 10
343.968626244655
 20
673.6568358629866
 30
0.0
 10
345.5653283341412
 20
673.8505831280758
 30
0.0
 10
347.152693685574
 20
674.0432571090365
 30
0.0
 10
350.0654826586838
 20
674.396892401492
 30
0.0
 10
351.4140541747316
 20
674.5606752524211
 30
0.0
 10
353.6398820622391
 20
674.8310249723837
 30
0.0
 10
354.5405782070686
 20
674.9404644417692
 30
0.0
 10
355.7482427906921
 20
675.0871873451424
 30
0.0
 10
356.0647634220182
 20
675.1256595670877
 30
0.0
 10
356.0656747803148
 20
675.1257672356159
 30
0.0
 10
356.0656754487241
 20
675.1257673123258
 30
0.0
 10
356.0656754464496
 20
675.1257673075444
 30
0.0
  0
LINE
  5
128
330
100
100
AcDbEntity
  8
$DDT_AUDIT_GENERATED_(88)
  6
Continuous
 62
     7
100
AcDbLine
 10
234.9570281135
 20
528.2197823756
 30
0.0
 11
193.8533234098
 21
528.2197823756
 31
0.0
  0
LINE
  5
129
330
100
100
AcDbEntity
  8
$DDT_AUDIT_GENERATED_(88)
  6
Continuous
 62
     7
100
AcDbLine
 10
235.2570281278
 20
528.5197823756
 30
0.0
 11
235.2570281278
 21
541.2562195094
 31
0.0
  0
ARC
  5
12A
330
100
100
AcDbEntity
  8
$DDT_AUDIT_GENERATED_(88)
  6
Continuous
 62
     7
100
AcDbCircle
 10
193.8533234098
 20
528.5197823756
 30
0.0
 40
0.2999999999999947
100
AcDbArc
 50
180.0
 51
270.0
  0
ARC
  5
12B
330
100
100
AcDbEntity
  8
$DDT_AUDIT_GENERATED_(88)
  6
Continuous
 62
     7
100
AcDbCircle
 10
234.9570281138
 20
528.5197823943
 30
0.0
 40
0.3000000140426998
100
AcDbArc
 50
269.9999999478
 51
359.999996424
  0
LINE
  5
12C
330
100
100
AcDbEntity
  8
$DDT_AUDIT_GENERATED_(88)
  6
Continuous
 62
     7
100
AcDbLine
 10
193.5533233954
 20
530.0197823756
 30
0.0
 11
193.5533233954
 21
528.5197823756
 31
0.0
  0
ARC
  5
12D
330
100
100
AcDbEntity
  8
$DDT_AUDIT_GENERATED_(88)
  6
Continuous
 62
     7
100
AcDbCircle
 10
173.1022931113
 20
534.0197823761
 30
0.0
 40
20.83853736901061
100
AcDbArc
 50
348.9332743352
 51
348.9791095679
  0
ARC
  5
12E
330
100
100
AcDbEntity
  8
$DDT_AUDIT_GENERATED_(88)
  6
Continuous
 62
     7
100
AcDbCircle
 10
173.1022084098
 20
534.0197823761
 30
0.0
 40
20.83862049541239
100
AcDbArc
 50
348.9333190383
 51
11.0666809587
  0
SPLINE
  5
12F
330
100
100
AcDbEntity
  8
$DDT_AUDIT_GENERATED_(88)
  6
Continuous
 62
     7
100
AcDbSpline
210
0.0
220
0.0
230
1.0
 70
     8
 71
     3
 72
    15
 73
    11
 74
     0
 42
0.0000000008551195
 43
0.0000000001
 40
0.0
 40
0.0
 40
0.0
 40
0.0
 40
0.2304122557682503
 40
0.423281032294663
 40
0.5796225059295352
 40
0.7031553870560558
 40
0.7999520822982588
 40
0.8775034485725262
 40
0.9427688408873257
 40
1.0
 40
1.0
 40
1.0
 40
1.0
 10
355.9506048002366
 20
675.0812849654299
 30
0.0
 10
356.8635927986708
 20
675.4485467575005
 30
0.0
 10
358.268673175182
 20
676.0312850109486
 30
0.0
 10
360.2858518965065
 20
677.1291262459338
 30
0.0
 10
361.78271947171
 20
678.1866259105781
 30
0.0
 10
362.8433832130911
 20
679.2054639216309
 30
0.0
 10
363.5077615942373
 20
680.1656423812874
 30
0.0
 10
363.8399494179432
 20
681.0403778077819
 30
0.0
 10
363.9252063965405
 20
681.8344899889697
 30
0.0
 10
363.8949637171298
 20
682.2760527148362
 30
0.0
 10
363.8743374337703
 20
682.5196143831226
 30
0.0
  0
SPLINE
  5
130
330
100
100
AcDbEntity
  8
$DDT_AUDIT_GENERATED_(88)
  6
Continuous
 62
     7
100
AcDbSpline
210
0.0
220
0.0
230
1.0
 70
     8
 71
     3
 72
    20
 73
    16
 74
     0
 42
0.0000000006278575
 43
0.0000000001
 40
0.0
 40
0.0
 40
0.0
 40
0.0
 40
0.1341098847385695
 40
0.2397321049589304
 40
0.3191093437592017
 40
0.3782094300071178
 40
0.4365138164477065
 40
0.4965430334354003
 40
0.5427321589600075
 40
0.5905134650563705
 40
0.642315755704852
 40
0.6994210841634995
 40
0.7855415533616618
 40
0.8850859094503802
 40
1.0
 40
1.0
 40
1.0
 40
1.0
 10
222.9066436808799
 20
632.903628539363
 30
0.0
 10
222.9064217219914
 20
633.8099269267777
 30
0.0
 10
222.9103887769183
 20
635.1713937082804
 30
0.0
 10
222.9626257261791
 20
637.170468965966
 30
0.0
 10
223.0496167861369
 20
638.6682967230622
 30
0.0
 10
223.1539643734934
 20
639.8548732589863
 30
0.0
 10
223.2781733466632
 20
640.908177163936
 30
0.0
 10
223.4251140160187
 20
641.8708251395004
 30
0.0
 10
223.5917028679105
 20
642.7575660397142
 30
0.0
 10
223.7753180094036
 20
643.5821436563151
 30
0.0
 10
223.9868092277977
 20
644.3883577635811
 30
0.0
 10
224.264929089266
 20
645.2984467605755
 30
0.0
 10
224.6254254613802
 20
646.2903110539555
 30
0.0
 10
225.1010489388335
 20
647.385370147287
 30
0.0
 10
225.4296546720708
 20
648.0117160589789
 30
0.0
 10
225.6393529882298
 20
648.4042557530053
 30
0.0
  0
ARC
  5
131
330
100
100
AcDbEntity
  8
$DDT_AUDIT_GENERATED_(88)
  6
Continuous
 62
     7
100
AcDbCircle
 10
358.1518504512
 20
684.7455078269
 30
0.0
 40
6.470362472859315
100
AcDbArc
 50
57.0347932115
 51
84.4019396451
  0
ARC
  5
132
330
100
100
AcDbEntity
  8
$DDT_AUDIT_GENERATED_(88)
  6
Continuous
 62
     7
100
AcDbCircle
 10
343.103940513
 20
680.6898886914
 30
0.0
 40
20.85086751093793
100
AcDbArc
 50
5.0323383191
 51
27.0555383026
  0
ARC
  5
133
330
100
100
AcDbEntity
  8
$DDT_AUDIT_GENERATED_(88)
  6
Continuous
 62
     7
100
AcDbCircle
 10
260.655591775
 20
585.3253951338
 30
0.0
 40
76.24671970894236
100
AcDbArc
 50
104.7944905636
 51
106.4927142692
  0
SPLINE
  5
134
330
100
100
AcDbEntity
  8
$DDT_AUDIT_GENERATED_(88)
  6
Continuous
 62
     7
100
AcDbSpline
210
0.0
220
0.0
230
1.0
 70
     8
 71
     3
 72
    43
 73
    39
 74
     0
 42
0.0000000001097025
 43
0.0000000001
 40
0.0
 40
0.0
 40
0.0
 40
0.0
 40
0.0639994444188713
 40
0.1228478544756515
 40
0.1761850256048806
 40
0.2240835573319069
 40
0.2665074281862521
 40
0.3035043135219085
 40
0.3351186226114232
 40
0.3561677994640736
 40
0.3738674932978251
 40
0.3882154326724102
 40
0.4013462931744199
 40
0.4158974811047835
 40
0.431874605513985
 40
0.4492699853106916
 40
0.4744717099903431
 40
0.5020039199372915
 40
0.5318100990352856
 40
0.5641448284149232
 40
0.6008612662998328
 40
0.642602631505003
 40
0.6700850257669059
 40
0.699394483767071
 40
0.7305103233905945
 40
0.7634278112051268
 40
0.7981854456189162
 40
0.813242733041659
 40
0.8278648688864982
 40
0.8441203132648786
 40
0.868430114224642
 40
0.8932132771241469
 40
0.9187223948241307
 40
0.9449239948974142
 40
0.9583677019938419
 40
0.9720224941819308
 40
0.9859181103924295
 40
1.0
 40
1.0
 40
1.0
 40
1.0
 10
205.9271964813942
 20
632.9036285393634
 30
0.0
 10
205.9272776310356
 20
630.5803886267154
 30
0.0
 10
205.9273045109568
 20
626.8277109544475
 30
0.0
 10
205.9275089769264
 20
620.9022952441912
 30
0.0
 10
205.9259617159701
 20
615.6451950227038
 30
0.0
 10
205.9212866397581
 20
610.8985278028564
 30
0.0
 10
205.9122110081406
 20
606.6983511554935
 30
0.0
 10
205.8981146236655
 20
603.0340363172629
 30
0.0
 10
205.8805274171002
 20
600.0754973910604
 30
0.0
 10
205.8621533776164
 20
597.7537876896204
 30
0.0
 10
205.8453072683303
 20
596.0018900299688
 30
0.0
 10
205.8298455688723
 20
594.5115401044657
 30
0.0
 10
205.813088087962
 20
593.1250111443056
 30
0.0
 10
205.7890368748995
 20
591.6844039358415
 30
0.0
 10
205.7557801674122
 20
590.1032124363163
 30
0.0
 10
205.7052025765076
 20
588.170965109056
 30
0.0
 10
205.6286660776107
 20
585.8583687189381
 30
0.0
 10
205.51188553545
 20
583.1384038499496
 30
0.0
 10
205.3476512222073
 20
580.186562827485
 30
0.0
 10
205.1125079104696
 20
576.9388559254709
 30
0.0
 10
204.7674642250387
 20
573.3072970053954
 30
0.0
 10
204.3178064396549
 20
569.8513993075553
 30
0.0
 10
203.7683483528847
 20
566.6655189940775
 30
0.0
 10
203.1671075575457
 20
563.8540456228695
 30
0.0
 10
202.3880609091146
 20
560.9205080630506
 30
0.0
 10
201.3972378451224
 20
557.9002064777476
 30
0.0
 10
200.4271567277401
 20
555.4758207964027
 30
0.0
 10
199.6082624586081
 20
553.6717054961765
 30
0.0
 10
199.005072276182
 20
552.4284991405608
 30
0.0
 10
198.2588186882315
 20
550.9874948978239
 30
0.0
 10
197.3629841646523
 20
549.3876756656664
 30
0.0
 10
196.3648053509305
 20
547.7392369418454
 30
0.0
 10
195.4251745219857
 20
546.2854556901045
 30
0.0
 10
194.7610612135768
 20
545.3098835279245
 30
0.0
 10
194.3495588912714
 20
544.7203851417651
 30
0.0
 10
194.1125586982848
 20
544.3851170803869
 30
0.0
 10
193.957486882266
 20
544.1682439683731
 30
0.0
 10
193.9367229146366
 20
544.1391308589677
 30
0.0
 10
193.9269571138845
 20
544.1255419288533
 30
0.0
  0
ARC
  5
135
330
100
100
AcDbEntity
  8
$DDT_AUDIT_GENERATED_(88)
  6
Continuous
 62
     7
100
AcDbCircle
 10
756.8305469456
 20
611.8990071967
 30
0.0
 40
534.1359017881621
100
AcDbArc
 50
178.3855200226
 51
184.1464748596
  0
SPLINE
  5
136
330
100
100
AcDbEntity
  8
$DDT_AUDIT_GENERATED_(88)
  6
Continuous
 62
     7
100
AcDbSpline
210
0.0
220
0.0
230
1.0
 70
     8
 71
     3
 72
     9
 73
     5
 74
     0
 42
0.0000000001119531
 43
0.0000000001
 40
0.7339679366415808
 40
0.7339679366415808
 40
0.7339679366415808
 40
0.7339679366415808
 40
0.7476082919308092
 40
0.7784360786618815
 40
0.7784360786618815
 40
0.7784360786618815
 40
0.7784360786618815
 10
201.8944222203851
 20
559.4057680739064
 30
0.0
 10
201.7662686616636
 20
559.015988649554
 30
0.0
 10
201.334800676965
 20
557.7533564652892
 30
0.0
 10
200.8588510709909
 20
556.5201155040847
 30
0.0
 10
200.5112685949805
 20
555.6839718320988
 30
0.0
  0
ELLIPSE
  5
137
330
100
100
AcDbEntity
  8
$DDT_AUDIT_GENERATED_(9B)
  6
Continuous
 62
     7
100
AcDbEllipse
 10
222.1644799389
 20
548.3531109819
 30
0.0
 11
0.001748633374198776
 21
-14.02060918146636
 31
0.0
210
0.0
220
0.0
230
1.0
 40
0.9998533495
 41
1.432092779296454
 42
2.844320715505076
  0
LINE
  5
138
330
100
100
AcDbEntity
  8
$DDT_AUDIT_GENERATED_(9B)
  6
Continuous
 62
     7
100
AcDbLine
 10
236.0486416236
 20
546.4163639418
 30
0.0
 11
235.2570281278
 21
540.7397749419
 31
0.0
  0
LINE
  5
139
330
100
100
AcDbEntity
  8
$DDT_AUDIT_GENERATED_(BE)
  6
Continuous
 62
     7
100
AcDbLine
 10
234.7566436809
 20
527.7197823756
 30
0.0
 11
234.7566436809
 21
528.2197823756
 31
0.0
  0
LINE
  5
13A
330
100
100
AcDbEntity
  8
$DDT_AUDIT_GENERATED_(BE)
  6
Continuous
 62
     7
100
AcDbLine
 10
194.0566436809
 20
528.2197823756
 30
0.0
 11
194.0566436809
 21
527.7197823756
 31
0.0
  0
SPLINE
  5
13B
330
100
100
AcDbEntity
  8
$DDT_AUDIT_GENERATED_(C1)
  6
Continuous
 62
     7
100
AcDbSpline
210
0.0
220
0.0
230
1.0
 70
     8
 71
     3
 72
    36
 73
    32
 74
     0
 42
0.0000000001196305
 43
0.0000000001
 40
0.0
 40
0.0
 40
0.0
 40
0.0
 40
0.0312500000000001
 40
0.0312500000000001
 40
0.0625000000000001
 40
0.0625000000000001
 40
0.0937500000000002
 40
0.0937500000000002
 40
0.1250000000000002
 40
0.1250000000000002
 40
0.1875000000000003
 40
0.1875000000000003
 40
0.2500000000000004
 40
0.2500000000000004
 40
0.2812500000000005
 40
0.2812500000000005
 40
0.3125000000000006
 40
0.3125000000000006
 40
0.3437500000000006
 40
0.3437500000000006
 40
0.3750000000000007
 40
0.3750000000000007
 40
0.4062500000000007
 40
0.4062500000000007
 40
0.4375000000000007
 40
0.4375000000000007
 40
0.4687500000000007
 40
0.4687500000000007
 40
0.5000000000000007
 40
0.5000000000000007
 40
0.5000553070811292
 40
0.5000553070811292
 40
0.5000553070811292
 40
0.5000553070811292
 10
193.5066481358024
 20
427.8735817021517
 30
0.0
 10
193.5066481358024
 20
427.8735817021517
 30
0.0
 10
193.6421325164587
 20
427.8736409195118
 30
0.0
 10
194.1729882829922
 20
427.8738104958047
 30
0.0
 10
194.5747986707592
 20
427.8739196879416
 30
0.0
 10
195.623841918385
 20
427.8740340309778
 30
0.0
 10
196.2657962374699
 20
427.8740250139961
 30
0.0
 10
197.7824661156587
 20
427.8738346491358
 30
0.0
 10
198.6652545024708
 20
427.8736788319623
 30
0.0
 10
201.5578187466177
 20
427.8732622283758
 30
0.0
 10
203.8895122493579
 20
427.8730777754465
 30
0.0
 10
208.9192670379223
 20
427.8732262522491
 30
0.0
 10
211.6695352543624
 20
427.8735809079333
 30
0.0
 10
215.7585581092933
 20
427.8735826185757
 30
0.0
 10
217.1429636710011
 20
427.8734796298456
 30
0.0
 10
219.8234647414121
 20
427.8732831982555
 30
0.0
 10
221.1262827251517
 20
427.8731903376663
 30
0.0
 10
223.656636729212
 20
427.8731147264027
 30
0.0
 10
224.8807897673818
 20
427.8731325965958
 30
0.0
 10
227.1459777593699
 20
427.8732751427584
 30
0.0
 10
228.2017131125371
 20
427.8733986216289
 30
0.0
 10
230.1534710048241
 20
427.8736795036101
 30
0.0
 10
231.0203186830813
 20
427.8738328339315
 30
0.0
 10
232.5344697580364
 20
427.8740238666887
 30
0.0
 10
233.1887874134667
 20
427.8740340814043
 30
0.0
 10
234.2386319764562
 20
427.873919695552
 30
0.0
 10
234.6340371282735
 20
427.8738122785898
 30
0.0
 10
235.1690175943089
 20
427.873641822015
 30
0.0
 10
235.3061646960698
 20
427.8735818953671
 30
0.0
 10
235.3066476833233
 20
427.8735817023326
 30
0.0
 10
235.3066481224204
 20
427.8735817021735
 30
0.0
 10
235.3066481473061
 20
427.8735817021963
 30
0.0
  0
LINE
  5
13C
330
100
100
AcDbEntity
  8
$DDT_AUDIT_GENERATED_(C1)
  6
Continuous
 62
     7
100
AcDbLine
 10
193.5164643094
 20
427.8299253733
 30
0.0
 11
189.7586217681
 21
426.9873313063
 31
0.0
  0
LINE
  5
13D
330
100
100
AcDbEntity
  8
$DDT_AUDIT_GENERATED_(C1)
  6
Continuous
 62
     7
100
AcDbLine
 10
239.0546744883
 20
426.98733124
 30
0.0
 11
235.2329839626
 21
427.8442415782
 31
0.0
  0
LINE
  5
13E
330
100
100
AcDbEntity
  8
$DDT_AUDIT_GENERATED_(C1)
  6
Continuous
 62
     7
100
AcDbLine
 10
189.7566481358
 20
427.0010957574
 30
0.0
 11
189.7566481358
 21
426.9197823458
 31
0.0
  0
LINE
  5
13F
330
100
100
AcDbEntity
  8
$DDT_AUDIT_GENERATED_(C1)
  6
Continuous
 62
     7
100
AcDbLine
 10
239.0566481358
 20
426.9197823458
 30
0.0
 11
239.0566481358
 21
427.0010957574
 31
0.0
  0
LINE
  5
140
330
100
100
AcDbEntity
  8
$DDT_AUDIT_GENERATED_(C7)
  6
Continuous
 62
     7
100
AcDbLine
 10
185.4066424026
 20
426.9197823458
 30
0.0
 11
243.4066449592
 21
426.9197823458
 31
0.0
  0
LINE
  5
141
330
100
100
AcDbEntity
  8
$DDT_AUDIT_GENERATED_(C7)
  6
Continuous
 62
     7
100
AcDbLine
 10
244.4066947618
 20
421.2197823458
 30
0.0
 11
184.4066383082
 21
421.2197823458
 31
0.0
  0
SPLINE
  5
142
330
100
100
AcDbEntity
  8
$DDT_AUDIT_GENERATED_(C7)
  6
Continuous
 62
     7
100
AcDbSpline
210
0.0
220
0.0
230
1.0
 70
     8
 71
     3
 72
    13
 73
     9
 74
     0
 42
0.0000000063014675
 43
0.0000000001
 40
0.0
 40
0.0
 40
0.0
 40
0.0
 40
0.1294353584734625
 40
0.2550301071986525
 40
0.4999999914570853
 40
0.7449698805865115
 40
0.8705646348009906
 40
1.0
 40
1.0
 40
1.0
 40
1.0
 10
244.4066450271345
 20
425.9197823308772
 30
0.0
 10
244.4029640173841
 20
425.9939617098394
 30
0.0
 10
244.3948906885363
 20
426.1178731765932
 30
0.0
 10
244.3148195850965
 20
426.3728186895872
 30
0.0
 10
244.1312710683708
 20
426.6444084073458
 30
0.0
 10
243.8596813384184
 20
426.8279569099153
 30
0.0
 10
243.604735814616
 20
426.9080280079042
 30
0.0
 10
243.4808243420441
 20
426.916101336271
 30
0.0
 10
243.406644959206
 20
426.9197823457783
 30
0.0
  0
SPLINE
  5
143
330
100
100
AcDbEntity
  8
$DDT_AUDIT_GENERATED_(C7)
  6
Continuous
 62
     7
100
AcDbSpline
210
0.0
220
0.0
230
1.0
 70
     8
 71
     3
 72
    13
 73
     9
 74
     0
 42
0.0000000063014675
 43
0.0000000001
 40
0.0
 40
0.0
 40
0.0
 40
0.0
 40
0.1294353651991215
 40
0.2550301194136423
 40
0.50000000854303
 40
0.7449698928013855
 40
0.8705646415265506
 40
1.0
 40
1.0
 40
1.0
 40
1.0
 10
185.4066424025537
 20
426.9197823457783
 30
0.0
 10
185.3324630197154
 20
426.916101336271
 30
0.0
 10
185.2085515471435
 20
426.9080280079042
 30
0.0
 10
184.953606023341
 20
426.8279569099153
 30
0.0
 10
184.6820162933886
 20
426.6444084073458
 30
0.0
 10
184.4984677766631
 20
426.3728186895872
 30
0.0
 10
184.4183966732234
 20
426.1178731765932
 30
0.0
 10
184.4103233443756
 20
425.9939617098394
 30
0.0
 10
184.4066423346252
 20
425.9197823308772
 30
0.0
  0
LINE
  5
144
330
100
100
AcDbEntity
  8
$DDT_AUDIT_GENERATED_(C7)
  6
Continuous
 62
     7
100
AcDbLine
 10
184.4066383082
 20
425.9247823309
 30
0.0
 11
184.4066383082
 21
421.2197823458
 31
0.0
  0
LINE
  5
145
330
100
100
AcDbEntity
  8
$DDT_AUDIT_GENERATED_(C7)
  6
Continuous
 62
     7
100
AcDbLine
 10
244.4066947618
 20
421.2197823458
 30
0.0
 11
244.4066947618
 21
425.9247823309
 31
0.0
  0
LINE
  5
147
330
100
100
AcDbEntity
  8
$DDT_AUDIT_GENERATED_(146)
  6
Continuous
 62
     7
100
AcDbLine
 10
175.0297285154
 20
458.1909318482
 30
0.0
 11
175.0298624449
 21
462.1909318459
 31
0.0
  0
LINE
  5
148
330
100
100
AcDbEntity
  8
$DDT_AUDIT_GENERATED_(146)
  6
Continuous
 62
     7
100
AcDbLine
 10
188.4971497973
 20
462.1904809292
 30
0.0
 11
175.0298624449
 21
462.1909318459
 31
0.0
  0
LINE
  5
149
330
100
100
AcDbEntity
  8
$DDT_AUDIT_GENERATED_(146)
  6
Continuous
 62
     7
100
AcDbLine
 10
175.0297285154
 20
458.1909318482
 30
0.0
 11
188.4970158679
 21
458.1904809315
 31
0.0
  0
ARC
  5
14A
330
100
100
AcDbEntity
  8
$DDT_AUDIT_GENERATED_(146)
  6
Continuous
 62
     7
100
AcDbCircle
 10
188.4969823855
 20
457.190480932
 30
0.0
 40
0.9999999999999283
100
AcDbArc
 50
17.9980816015
 51
89.9980816016
  0
ARC
  5
14B
330
100
100
AcDbEntity
  8
$DDT_AUDIT_GENERATED_(146)
  6
Continuous
 62
     7
100
AcDbCircle
 10
188.4969823855
 20
457.190480932
 30
0.0
 40
4.999999999999975
100
AcDbArc
 50
17.9980816016
 51
89.9980816016
  0
LINE
  5
14C
330
100
100
AcDbEntity
  8
$DDT_AUDIT_GENERATED_(146)
  6
Continuous
 62
     7
100
AcDbLine
 10
193.6064257105
 20
457.6454470301
 30
0.0
 11
193.2523166974
 21
458.7354066849
 31
0.0
  0
LINE
  5
14D
330
100
100
AcDbEntity
  8
$DDT_AUDIT_GENERATED_(146)
  6
Continuous
 62
     7
100
AcDbLine
 10
189.4480492479
 20
457.4994660826
 30
0.0
 11
193.6069575858
 21
444.6982039621
 31
0.0
  0
LINE
  5
14E
330
100
100
AcDbEntity
  8
02636038_GEHÄUSE
  6
Continuous
 62
     7
100
AcDbLine
 10
355.5843560095
 20
668.1139482558
 30
0.0
 11
334.3147887704
 21
664.9745996829
 31
0.0
  0
SPLINE
  5
14F
330
100
100
AcDbEntity
  8
02636038_GEHÄUSE
  6
Continuous
 62
     7
100
AcDbSpline
210
0.0
220
0.0
230
1.0
 70
     8
 71
     3
 72
    10
 73
     6
 74
     0
 42
0.0000000019260148
 43
0.0000000001
 40
0.0
 40
0.0
 40
0.0
 40
0.0
 40
0.5
 40
0.5
 40
1.0
 40
1.0
 40
1.0
 40
1.0
 10
347.4619878126038
 20
667.2360846930819
 30
0.0
 10
346.6255546092946
 20
666.9974374130834
 30
0.0
 10
345.781204402641
 20
666.8129123952436
 30
0.0
 10
344.0753469434142
 20
666.5611514520095
 30
0.0
 10
343.2138399219472
 20
666.4939139467247
 30
0.0
 10
342.3444242176629
 20
666.4807418227657
 30
0.0
  0
LINE
  5
150
330
100
100
AcDbEntity
  8
02636038_GEHÄUSE
  6
Continuous
 62
     7
100
AcDbLine
 10
348.7365811249
 20
670.1357311725
 30
0.0
 11
340.2864663789
 21
668.8885099493
 31
0.0
  0
LINE
  5
151
330
100
100
AcDbEntity
  8
02636038_GEHÄUSE
  6
Continuous
 62
     7
100
AcDbLine
 10
348.7365811249
 20
670.1357311725
 30
0.0
 11
349.0018096386
 21
668.3387673838
 31
0.0
  0
SPLINE
  5
152
330
100
100
AcDbEntity
  8
02636038_GEHÄUSE
  6
Continuous
 62
     7
100
AcDbSpline
210
0.0
220
0.0
230
1.0
 70
     8
 71
     3
 72
    14
 73
    10
 74
     0
 42
0.0000000049320844
 43
0.0000000001
 40
0.0
 40
0.0
 40
0.0
 40
0.0
 40
0.1249999999999997
 40
0.1249999999999997
 40
0.2499999999999994
 40
0.2499999999999994
 40
0.4999999999999996
 40
0.4999999999999996
 40
1.0
 40
1.0
 40
1.0
 40
1.0
 10
349.0018096385692
 20
668.3387673837865
 30
0.0
 10
349.01413708521
 20
668.2552470453722
 30
0.0
 10
348.9945783762577
 20
668.1674075883135
 30
0.0
 10
348.9201078444257
 20
668.0157285164246
 30
0.0
 10
348.8662562723529
 20
667.9481201756316
 30
0.0
 10
348.6881444083717
 20
667.769081750652
 30
0.0
 10
348.544252481338
 20
667.6756799849588
 30
0.0
 10
348.1035258139935
 20
667.437417946953
 30
0.0
 10
347.783229199116
 20
667.3277398100845
 30
0.0
 10
347.4619878126038
 20
667.2360846930819
 30
0.0
  0
SPLINE
  5
153
330
100
100
AcDbEntity
  8
02636038_GEHÄUSE
  6
Continuous
 62
     7
100
AcDbSpline
210
0.0
220
0.0
230
1.0
 70
     8
 71
     3
 72
    14
 73
    10
 74
     0
 42
0.0000000049319876
 43
0.0000000001
 40
0.0
 40
0.0
 40
0.0
 40
0.0
 40
0.4999999999999996
 40
0.4999999999999996
 40
0.7499999999999993
 40
0.7499999999999993
 40
0.8749999999999997
 40
0.8749999999999997
 40
1.0
 40
1.0
 40
1.0
 40
1.0
 10
342.3444242176629
 20
666.4807418227657
 30
0.0
 10
342.00896837661
 20
666.4756594830986
 30
0.0
 10
341.6732943822811
 20
666.4878427325916
 30
0.0
 10
341.1800575115375
 20
666.5892077770308
 30
0.0
 10
341.0167426385747
 20
666.636886476038
 30
0.0
 10
340.7958195326826
 20
666.755809507807
 30
0.0
 10
340.7242646998472
 20
666.8049919126847
 30
0.0
 10
340.608377498282
 20
666.9291049875386
 30
0.0
 10
340.5640807898583
 20
667.007629810132
 30
0.0
 10
340.5516948925805
 20
667.0915461605765
 30
0.0
  0
LINE
  5
154
330
100
100
AcDbEntity
  8
02636038_GEHÄUSE
  6
Continuous
 62
     7
100
AcDbLine
 10
340.5516948926
 20
667.0915461606
 30
0.0
 11
340.2864663789
 21
668.8885099493
 31
0.0
  0
LINE
  5
155
330
100
100
AcDbEntity
  8
02636038_GEHÄUSE
  6
Continuous
 62
     7
100
AcDbLine
 10
333.7243171872
 20
665.2084300545
 30
0.0
 11
334.3147887704
 21
664.9745996829
 31
0.0
  0
LINE
  5
156
330
100
100
AcDbEntity
  8
02636038_GEHÄUSE
  6
Continuous
 62
     7
100
AcDbLine
 10
355.5843560095
 20
668.1139482558
 30
0.0
 11
356.0820948431
 21
668.5083964614
 31
0.0
  0
ARC
  5
157
330
100
100
AcDbEntity
  8
02636038_GEHÄUSE
  6
Continuous
 62
     7
100
AcDbCircle
 10
355.460999995
 20
669.2921318693
 30
0.0
 40
1.000000000000022
100
AcDbArc
 50
308.3961302384
 51
8.3961302384
  0
ARC
  5
158
330
100
100
AcDbEntity
  8
02636038_GEHÄUSE
  6
Continuous
 62
     7
100
AcDbCircle
 10
334.0925045362
 20
666.1381816751
 30
0.0
 40
1.000000000000001
100
AcDbArc
 50
188.3961302384
 51
248.3961302384
  0
LINE
  5
159
330
100
100
AcDbEntity
  8
02636038_GEHÄUSE
  6
Continuous
 62
     7
100
AcDbLine
 10
332.3781837314
 20
670.9044130374
 30
0.0
 11
333.103222339
 21
665.9921654624
 31
0.0
  0
LINE
  5
15A
330
100
100
AcDbEntity
  8
02636038_GEHÄUSE
  6
Continuous
 62
     7
100
AcDbLine
 10
356.4502821921
 20
669.438148082
 30
0.0
 11
355.6187967076
 21
675.0715895462
 31
0.0
  0
LINE
  5
15C
330
100
100
AcDbEntity
  8
DV2_Standard
  6
Continuous
 62
     7
100
AcDbLine
 10
225.6393529882
 20
648.404255753
 30
0.0
 11
227.1071718717
 21
650.6566972237
 31
0.0
  0
LINE
  5
15D
330
100
100
AcDbEntity
  8
DV2_Standard
  6
CENTER2
 62
     7
100
AcDbLine
 10
234.4066660879
 20
421.2197823458
 30
0.0
 11
194.406666982
 21
421.2197823458
 31
0.0
  0
LINE
  5
15E
330
100
100
AcDbEntity
  8
DV2_Standard
  6
CENTER2
 62
     7
100
AcDbLine
 10
214.406666535
 20
441.2197818987
 30
0.0
 11
214.406666535
 21
401.2197827928
 31
0.0
  0
ENDBLK
  5
160
330
100
100
AcDbEntity
  8
0
100
AcDbBlockEnd
  0
BLOCK
  5
1DA
330
161
100
AcDbEntity
  8
0
100
AcDbBlockBegin
  2
SE2
 70
     0
 10
0.0
 20
0.0
 30
0.0
  3
SE2
  1

  0
LINE
  5
163
330
161
100
AcDbEntity
  8
$DDT_AUDIT_GENERATED_(60)
  6
Continuous
 62
     7
100
AcDbLine
 10
64.4312286015
 20
276.6819717086
 30
0.0
 11
61.7718911288
 21
276.6819718401
 31
0.0
  0
SPLINE
  5
164
330
161
100
AcDbEntity
  8
$DDT_AUDIT_GENERATED_(60)
  6
Continuous
 62
     7
100
AcDbSpline
210
0.0
220
0.0
230
1.0
 70
     8
 71
     3
 72
    10
 73
     6
 74
     0
 42
0.0000000002097845
 43
0.0000000001
 40
0.0000073355153857
 40
0.0000073355153857
 40
0.0000073355153857
 40
0.0000073355153857
 40
0.0101813273803147
 40
0.0761692388882937
 40
0.0958710729314062
 40
0.0958710729314062
 40
0.0958710729314062
 40
0.0958710729314062
 10
61.77116678321813
 20
234.981525837782
 30
0.0
 10
61.60918109256538
 20
234.9816299867791
 30
0.0
 10
60.39908333853992
 20
234.9816297800822
 30
0.0
 10
58.87595406606393
 20
234.9816291732631
 30
0.0
 10
57.51454459841235
 20
234.9816279782831
 30
0.0
 10
57.20153729398395
 20
234.981627663997
 30
0.0
  0
SPLINE
  5
165
330
161
100
AcDbEntity
  8
$DDT_AUDIT_GENERATED_(60)
  6
Continuous
 62
     7
100
AcDbSpline
210
0.0
220
0.0
230
1.0
 70
     8
 71
     3
 72
     9
 73
     5
 74
     0
 42
0.0000000002100207
 43
0.0000000001
 40
0.0
 40
0.0
 40
0.0
 40
0.0
 40
0.0762640968580715
 40
0.0959791296535876
 40
0.0959791296535876
 40
0.0959791296535876
 40
0.0959791296535876
 10
61.77151716200385
 20
234.9815256123431
 30
0.0
 10
60.56144050803443
 20
234.9814178532856
 30
0.0
 10
59.03807466285955
 20
234.9814136221133
 30
0.0
 10
57.51448815711363
 20
234.9814092156578
 30
0.0
 10
57.20153301215054
 20
234.9814083217529
 30
0.0
  0
LINE
  5
166
330
161
100
AcDbEntity
  8
$DDT_AUDIT_GENERATED_(60)
  6
Continuous
 62
     7
100
AcDbLine
 10
84.0500528576
 20
276.6827832374
 30
0.0
 11
64.4312286015
 21
276.6827832374
 31
0.0
  0
LINE
  5
167
330
161
100
AcDbEntity
  8
$DDT_AUDIT_GENERATED_(60)
  6
Continuous
 62
     7
100
AcDbLine
 10
64.4312286015
 20
234.9816301418
 30
0.0
 11
84.0500528576
 21
234.9816301418
 31
0.0
  0
ARC
  5
168
330
161
100
AcDbEntity
  8
$DDT_AUDIT_GENERATED_(60)
  6
Continuous
 62
     7
100
AcDbCircle
 10
52.6011538202
 20
1948.9853512721
 30
0.0
 40
1672.37038317996
100
AcDbArc
 50
269.4864996599
 51
270.4053043609
  0
ARC
  5
169
330
161
100
AcDbEntity
  8
$DDT_AUDIT_GENERATED_(60)
  6
Continuous
 62
     7
100
AcDbCircle
 10
43.3231708788
 20
8389.0897462446
 30
0.0
 40
8154.110275646888
100
AcDbArc
 50
270.0975185629
 51
270.1483183243
  0
ARC
  5
16A
330
161
100
AcDbEntity
  8
$DDT_AUDIT_GENERATED_(60)
  6
Continuous
 62
     7
100
AcDbCircle
 10
84.0500528576
 20
235.2816301418
 30
0.0
 40
0.3000000000000017
100
AcDbArc
 50
270.0
 51
0.0
  0
ARC
  5
16B
330
161
100
AcDbEntity
  8
$DDT_AUDIT_GENERATED_(60)
  6
Continuous
 62
     7
100
AcDbCircle
 10
84.0500528576
 20
276.3827832374
 30
0.0
 40
0.3000000000000017
100
AcDbArc
 50
0.0
 51
90.0
  0
LINE
  5
16C
330
161
100
AcDbEntity
  8
$DDT_AUDIT_GENERATED_(78)
  6
Continuous
 62
     7
100
AcDbLine
 10
84.3500528576
 20
276.4322066896
 30
0.0
 11
84.3500528576
 21
235.2322066896
 31
0.0
  0
ARC
  5
16D
330
161
100
AcDbEntity
  8
$DDT_AUDIT_GENERATED_(78)
  6
Continuous
 62
     7
100
AcDbCircle
 10
79.3832324958
 20
240.8551504393
 30
0.0
 40
11.5
100
AcDbArc
 50
330.7544490008
 51
349.5976260137
  0
ARC
  5
16E
330
161
100
AcDbEntity
  8
$DDT_AUDIT_GENERATED_(78)
  6
Continuous
 62
     7
100
AcDbCircle
 10
79.3832324958
 20
270.80926294
 30
0.0
 40
11.49999999999996
100
AcDbArc
 50
10.4023739863
 51
29.2455509992
  0
ARC
  5
16F
330
161
100
AcDbEntity
  8
$DDT_AUDIT_GENERATED_(78)
  6
Continuous
 62
     7
100
AcDbCircle
 10
89.0683592935
 20
276.2322066896
 30
0.0
 40
0.4000000000000045
100
AcDbArc
 50
29.2455509992
 51
90.0
  0
ARC
  5
170
330
161
100
AcDbEntity
  8
$DDT_AUDIT_GENERATED_(78)
  6
Continuous
 62
     7
100
AcDbCircle
 10
89.0683592935
 20
235.4322066896
 30
0.0
 40
0.3999999999999976
100
AcDbArc
 50
270.0
 51
330.7544490008
  0
LINE
  5
171
330
161
100
AcDbEntity
  8
$DDT_AUDIT_GENERATED_(78)
  6
Continuous
 62
     7
100
AcDbLine
 10
84.5500528576
 20
235.0322066896
 30
0.0
 11
89.0683592935
 21
235.0322066896
 31
0.0
  0
LINE
  5
172
330
161
100
AcDbEntity
  8
$DDT_AUDIT_GENERATED_(78)
  6
Continuous
 62
     7
100
AcDbLine
 10
89.0683592935
 20
276.6322066896
 30
0.0
 11
84.5500528576
 21
276.6322066896
 31
0.0
  0
ARC
  5
173
330
161
100
AcDbEntity
  8
$DDT_AUDIT_GENERATED_(78)
  6
Continuous
 62
     7
100
AcDbCircle
 10
90.3991491878
 20
272.8315338006
 30
0.0
 40
0.2999999999999947
100
AcDbArc
 50
0.0
 51
10.4023739863
  0
ARC
  5
174
330
161
100
AcDbEntity
  8
$DDT_AUDIT_GENERATED_(78)
  6
Continuous
 62
     7
100
AcDbCircle
 10
90.3991491878
 20
238.8328795786
 30
0.0
 40
0.2999999999999612
100
AcDbArc
 50
349.5976260137
 51
0.0
  0
LINE
  5
175
330
161
100
AcDbEntity
  8
$DDT_AUDIT_GENERATED_(78)
  6
Continuous
 62
     7
100
AcDbLine
 10
90.6991491878
 20
238.8328795786
 30
0.0
 11
90.6991491878
 21
272.8315338006
 31
0.0
  0
ARC
  5
176
330
161
100
AcDbEntity
  8
$DDT_AUDIT_GENERATED_(78)
  6
Continuous
 62
     7
100
AcDbCircle
 10
84.5500528576
 20
276.4322066896
 30
0.0
 40
0.1999999999999988
100
AcDbArc
 50
90.0
 51
180.0
  0
ARC
  5
177
330
161
100
AcDbEntity
  8
$DDT_AUDIT_GENERATED_(78)
  6
Continuous
 62
     7
100
AcDbCircle
 10
84.5500528576
 20
235.2322066896
 30
0.0
 40
0.1999999999999988
100
AcDbArc
 50
180.0
 51
270.0
  0
ARC
  5
178
330
161
100
AcDbEntity
  8
$DDT_AUDIT_GENERATED_(85)
  6
Continuous
 62
     7
100
AcDbCircle
 10
75.6647201908
 20
255.8428149298
 30
0.0
 40
19.00000000000001
100
AcDbArc
 50
25.03186531
 51
37.6941715658
  0
ARC
  5
179
330
161
100
AcDbEntity
  8
$DDT_AUDIT_GENERATED_(85)
  6
Continuous
 62
     7
100
AcDbCircle
 10
75.6647201908
 20
255.8428149298
 30
0.0
 40
19.0
100
AcDbArc
 50
322.3058284342
 51
331.2171140211
  0
LINE
  5
17A
330
161
100
AcDbEntity
  8
$DDT_AUDIT_GENERATED_(88)
  6
Continuous
 62
     7
100
AcDbLine
 10
19.4801632572
 20
218.9874039816
 30
0.0
 11
19.4801633969
 21
128.1691158357
 31
0.0
  0
ARC
  5
17B
330
161
100
AcDbEntity
  8
$DDT_AUDIT_GENERATED_(88)
  6
Continuous
 62
     7
100
AcDbCircle
 10
36.3501082389
 20
127.1926024557
 30
0.0
 40
20.83852433580085
100
AcDbArc
 50
343.3337480799
 51
343.5119944299
  0
ARC
  5
17C
330
161
100
AcDbEntity
  8
$DDT_AUDIT_GENERATED_(88)
  6
Continuous
 62
     7
100
AcDbCircle
 10
36.3501605153
 20
128.2996127281
 30
0.0
 40
16.86289026776418
100
AcDbArc
 50
180.4433910931
 51
359.5531307362
  0
LINE
  5
17D
330
161
100
AcDbEntity
  8
$DDT_AUDIT_GENERATED_(88)
  6
Continuous
 62
     7
100
AcDbLine
 10
53.2199436761
 20
218.9874048877
 30
0.0
 11
53.2199438158
 21
128.1679950049
 31
0.0
  0
SPLINE
  5
17E
330
161
100
AcDbEntity
  8
$DDT_AUDIT_GENERATED_(88)
  6
Continuous
 62
     7
100
AcDbSpline
210
0.0
220
0.0
230
1.0
 70
    12
 71
     5
 72
    12
 73
     6
 74
     0
 42
0.0000000002205349
 43
0.0000000001
 40
0.0
 40
0.0
 40
0.0
 40
0.0
 40
0.0
 40
0.0
 40
1.0
 40
1.0
 40
1.0
 40
1.0
 40
1.0
 40
1.0
 10
19.4877793164802
 20
264.3318009252279
 30
0.0
 41
1.0
 10
19.48777951164225
 20
264.3318009252279
 30
0.0
 41
1.0
 10
19.48777951164164
 20
264.3318009252279
 30
0.0
 41
1.0
 10
19.48777951164195
 20
250.3792557456921
 30
0.0
 41
1.0
 10
19.48777951164195
 20
236.4035946369589
 30
0.0
 41
1.0
 10
19.48758137653772
 20
218.987502672718
 30
0.0
 41
1.0
  0
SPLINE
  5
17F
330
161
100
AcDbEntity
  8
$DDT_AUDIT_GENERATED_(88)
  6
Continuous
 62
     7
100
AcDbSpline
210
0.0
220
0.0
230
1.0
 70
    12
 71
     5
 72
    12
 73
     6
 74
     0
 42
0.0000000002205349
 43
0.0000000001
 40
0.0
 40
0.0
 40
0.0
 40
0.0
 40
0.0
 40
0.0
 40
1.0
 40
1.0
 40
1.0
 40
1.0
 40
1.0
 40
1.0
 10
53.21255824223083
 20
218.9875026939646
 30
0.0
 41
1.0
 10
53.21232764525335
 20
236.4035946369589
 30
0.0
 41
1.0
 10
53.21232764525335
 20
250.3792557456921
 30
0.0
 41
1.0
 10
53.21232764525304
 20
264.3318009252279
 30
0.0
 41
1.0
 10
53.21232764525366
 20
264.3318009252279
 30
0.0
 41
1.0
 10
53.2123278404091
 20
264.3318009252279
 30
0.0
 41
1.0
  0
LINE
  5
180
330
161
100
AcDbEntity
  8
$DDT_AUDIT_GENERATED_(88)
  6
Continuous
 62
     7
100
AcDbLine
 10
19.4877793165
 20
264.3318009252
 30
0.0
 11
53.2123278404
 21
264.3318009252
 31
0.0
  0
SPLINE
  5
181
330
161
100
AcDbEntity
  8
$DDT_AUDIT_GENERATED_(88)
  6
Continuous
 62
     7
100
AcDbSpline
210
0.0
220
0.0
230
1.0
 70
     8
 71
     5
 72
    13
 73
     7
 74
     0
 42
0.0000000683226086
 43
0.0000000001
 40
0.7921621368403184
 40
0.7921621368403184
 40
0.7921621368403184
 40
0.7921621368403184
 40
0.7921621368403184
 40
0.7921621368403184
 40
0.875000032604233
 40
1.0
 40
1.0
 40
1.0
 40
1.0
 40
1.0
 40
1.0
 10
53.24130492183587
 20
264.3392363219816
 30
0.0
 10
53.23622064196705
 20
264.3366935529355
 30
0.0
 10
53.22497398544383
 20
264.3324121611334
 30
0.0
 10
53.21807869157641
 20
264.3316403758768
 30
0.0
 10
53.21382360524039
 20
264.3319075136476
 30
0.0
 10
53.21232798679119
 20
264.3318009252279
 30
0.0
 10
53.2123278404091
 20
264.3318009252279
 30
0.0
  0
SPLINE
  5
182
330
161
100
AcDbEntity
  8
$DDT_AUDIT_GENERATED_(88)
  6
Continuous
 62
     7
100
AcDbSpline
210
0.0
220
0.0
230
1.0
 70
     8
 71
     5
 72
    13
 73
     7
 74
     0
 42
0.0000001276591257
 43
0.0000000001
 40
0.0
 40
0.0
 40
0.0
 40
0.0
 40
0.0
 40
0.0
 40
0.12499996739575
 40
0.1250032717475724
 40
0.1250032717475724
 40
0.1250032717475724
 40
0.1250032717475724
 40
0.1250032717475724
 40
0.1250032717475724
 10
19.4877793164802
 20
264.3318009252279
 30
0.0
 10
19.4877791700802
 20
264.3318009252279
 30
0.0
 10
19.48687963757884
 20
264.3318650312165
 30
0.0
 10
19.48498190243966
 20
264.3317939487892
 30
0.0
 10
19.48211191299321
 20
264.3318950185488
 30
0.0
 10
19.47805609933063
 20
264.3326140312507
 30
0.0
 10
19.47805599211792
 20
264.3326140502576
 30
0.0
  0
SPLINE
  5
183
330
161
100
AcDbEntity
  8
$DDT_AUDIT_GENERATED_(88)
  6
Continuous
 62
     7
100
AcDbSpline
210
0.0
220
0.0
230
1.0
 70
    12
 71
     5
 72
    12
 73
     6
 74
     0
 42
0.000000002908793
 43
0.0000000001
 40
0.1469621358345891
 40
0.1469621358345891
 40
0.1469621358345891
 40
0.1469621358345891
 40
0.1469621358345891
 40
0.1469621358345891
 40
1.0
 40
1.0
 40
1.0
 40
1.0
 40
1.0
 40
1.0
 10
53.77951612281766
 20
264.3277653460322
 30
0.0
 41
1.0
 10
54.41567356282415
 20
264.3134548454668
 30
0.0
 41
1.0
 10
54.99179668621439
 20
264.2562295055725
 30
0.0
 41
1.0
 10
55.50909783551549
 20
264.0660263172749
 30
0.0
 41
1.0
 10
55.70054371227595
 20
263.6235101403065
 30
0.0
 41
1.0
 10
55.9350607229839
 20
262.9809408534212
 30
0.0
 41
1.0
  0
ARC
  5
184
330
161
100
AcDbEntity
  8
$DDT_AUDIT_GENERATED_(88)
  6
Continuous
 62
     7
100
AcDbCircle
 10
36.3422932471
 20
255.8244709968
 30
0.0
 40
20.85899153486836
100
AcDbArc
 50
20.3176904324
 51
22.1923106922
  0
ARC
  5
185
330
161
100
AcDbEntity
  8
$DDT_AUDIT_GENERATED_(88)
  6
Continuous
 62
     7
100
AcDbCircle
 10
36.3422932471
 20
255.8244709968
 30
0.0
 40
20.85899153486836
100
AcDbArc
 50
82.4463225912
 51
86.4986896364
  0
ARC
  5
186
330
161
100
AcDbEntity
  8
$DDT_AUDIT_GENERATED_(88)
  6
Continuous
 62
     7
100
AcDbCircle
 10
36.3243484197
 20
255.8285243086
 30
0.0
 40
20.87431674270062
100
AcDbArc
 50
0.1199656564
 51
20.03791778
  0
ARC
  5
187
330
161
100
AcDbEntity
  8
$DDT_AUDIT_GENERATED_(88)
  6
Continuous
 62
     7
100
AcDbCircle
 10
36.3500535761
 20
127.2248928233
 30
0.0
 40
20.87489282332922
100
AcDbArc
 50
196.6526266399
 51
343.3473736267
  0
LINE
  5
188
330
161
100
AcDbEntity
  8
$DDT_AUDIT_GENERATED_(88)
  6
Continuous
 62
     7
100
AcDbLine
 10
15.500313834
 20
217.95150718
 30
0.0
 11
15.5003139737
 21
127.133534748
 31
0.0
  0
SPLINE
  5
189
330
161
100
AcDbEntity
  8
$DDT_AUDIT_GENERATED_(88)
  6
Continuous
 62
     7
100
AcDbSpline
210
0.0
220
0.0
230
1.0
 70
     8
 71
     3
 72
    13
 73
     9
 74
     0
 42
0.000000005056033
 43
0.0000000001
 40
0.0
 40
0.0
 40
0.0
 40
0.0
 40
0.1756494004977324
 40
0.3438820854785535
 40
0.4289114992761271
 40
0.5215432259503306
 40
0.73964460468329
 40
1.0
 40
1.0
 40
1.0
 40
1.0
 10
18.10562651184215
 20
264.2464024421086
 30
0.0
 10
17.96838885602782
 20
264.2230274890126
 30
0.0
 10
17.74099715825564
 20
264.1794103751495
 30
0.0
 10
17.44872284317678
 20
264.0312799239144
 30
0.0
 10
17.25793939061191
 20
263.8757745439404
 30
0.0
 10
17.08349092932054
 20
263.6832186074422
 30
0.0
 10
16.91602768026404
 20
263.3834856170012
 30
0.0
 10
16.82088557019531
 20
263.139131201973
 30
0.0
 10
16.76487223466379
 20
262.9808584737017
 30
0.0
  0
ARC
  5
18A
330
161
100
AcDbEntity
  8
$DDT_AUDIT_GENERATED_(88)
  6
Continuous
 62
     7
100
AcDbCircle
 10
19.1641343615
 20
258.3423128743
 30
0.0
 40
5.998225778696464
100
AcDbArc
 50
86.9070003201
 51
100.1642235656
  0
ARC
  5
18B
330
161
100
AcDbEntity
  8
$DDT_AUDIT_GENERATED_(88)
  6
Continuous
 62
     7
100
AcDbCircle
 10
36.3501629636
 20
127.1345040931
 30
0.0
 40
20.85086751093793
100
AcDbArc
 50
343.6645158171
 51
0.0
  0
ARC
  5
18C
330
161
100
AcDbEntity
  8
$DDT_AUDIT_GENERATED_(88)
  6
Continuous
 62
     7
100
AcDbCircle
 10
36.3501629636
 20
127.1345040931
 30
0.0
 40
20.85086751093793
100
AcDbArc
 50
180.0027988652
 51
196.5525931816
  0
ARC
  5
18D
330
161
100
AcDbEntity
  8
$DDT_AUDIT_GENERATED_(88)
  6
Continuous
 62
     7
100
AcDbCircle
 10
36.4361938858
 20
255.9883650441
 30
0.0
 40
20.75212172678899
100
AcDbArc
 50
90.237903936
 51
118.4786921517
  0
SPLINE
  5
18E
330
161
100
AcDbEntity
  8
$DDT_AUDIT_GENERATED_(88)
  6
Continuous
 62
     7
100
AcDbSpline
210
0.0
220
0.0
230
1.0
 70
     8
 71
     3
 72
    38
 73
    34
 74
     0
 42
0.000000000263657
 43
0.0000000001
 40
0.0
 40
0.0
 40
0.0
 40
0.0
 40
0.047299639100027
 40
0.0965639687587879
 40
0.1412070464319869
 40
0.1817597827024243
 40
0.2187015155434575
 40
0.2524579355836925
 40
0.2833943682784995
 40
0.3163169174077262
 40
0.346171591357867
 40
0.3732250987206582
 40
0.3976456682061332
 40
0.4195194879962337
 40
0.4388808531851242
 40
0.4517544192545454
 40
0.4632070212981758
 40
0.4749618158557533
 40
0.4901042734008149
 40
0.5087680211688697
 40
0.531058930647103
 40
0.5571158204863977
 40
0.5871111940141691
 40
0.6175001070370929
 40
0.651380363548424
 40
0.6889331780247118
 40
0.7303547191497204
 40
0.775860128083036
 40
0.8146393975504213
 40
0.8562331910974065
 40
0.9008191627519869
 40
0.9486322886466239
 40
1.0
 40
1.0
 40
1.0
 40
1.0
 10
15.50030094588935
 20
255.8713962472337
 30
0.0
 10
15.5002581536426
 20
255.8735718727863
 30
0.0
 10
15.50017204643546
 20
255.8722128474945
 30
0.0
 10
15.49935182869105
 20
255.8250218103519
 30
0.0
 10
15.49833684327179
 20
255.6829006592895
 30
0.0
 10
15.4972792031091
 20
255.4324468209114
 30
0.0
 10
15.49630933124673
 20
255.0710991098435
 30
0.0
 10
15.49548332577952
 20
254.6064915720964
 30
0.0
 10
15.4947944914863
 20
254.0258576371975
 30
0.0
 10
15.49426966318047
 20
253.3305079373088
 30
0.0
 10
15.4939230443501
 20
252.5281572378252
 30
0.0
 10
15.49374966755053
 20
251.6910955313864
 30
0.0
 10
15.49370945355522
 20
250.8491275288215
 30
0.0
 10
15.49376380703444
 20
250.0287716733278
 30
0.0
 10
15.49387091002366
 20
249.3066558612686
 30
0.0
 10
15.49399360869917
 20
248.6964999466782
 30
0.0
 10
15.49411631628475
 20
248.1762896496739
 30
0.0
 10
15.49426632475237
 20
247.6081685336748
 30
0.0
 10
15.494467474436
 20
246.9141496442318
 30
0.0
 10
15.49474755383343
 20
246.0309318374056
 30
0.0
 10
15.49512080149926
 20
244.9378927943787
 30
0.0
 10
15.49559724372301
 20
243.6131956004414
 30
0.0
 10
15.49615455569929
 20
242.0997734048564
 30
0.0
 10
15.49677472870775
 20
240.398585448985
 30
0.0
 10
15.49743331959935
 20
238.5126988256994
 30
0.0
 10
15.49811943478206
 20
236.3749867566675
 30
0.0
 10
15.49879102759427
 20
233.9727393631389
 30
0.0
 10
15.49934749601025
 20
231.5104040304454
 30
0.0
 10
15.49977230940489
 20
229.0217712513357
 30
0.0
 10
15.50006827071701
 20
226.5311103593735
 30
0.0
 10
15.50025328115567
 20
223.8649924237477
 30
0.0
 10
15.50032868400579
 20
220.9264573448939
 30
0.0
 10
15.50033132268554
 20
219.0825702478254
 30
0.0
 10
15.50032892856744
 20
217.9477031081099
 30
0.0
  0
LINE
  5
18F
330
161
100
AcDbEntity
  8
$DDT_AUDIT_GENERATED_(88)
  6
Continuous
 62
     7
100
AcDbLine
 10
57.1997934067
 20
127.1335260146
 30
0.0
 11
57.199793267
 21
217.9515071813
 31
0.0
  0
ARC
  5
190
330
161
100
AcDbEntity
  8
$DDT_AUDIT_GENERATED_(88)
  6
Continuous
 62
     7
100
AcDbCircle
 10
36.2325838941
 20
255.6803494975
 30
0.0
 40
21.0152620156047
100
AcDbArc
 50
22.4382729817
 51
82.4053297517
  0
ARC
  5
191
330
161
100
AcDbEntity
  8
$DDT_AUDIT_GENERATED_(88)
  6
Continuous
 62
     7
100
AcDbCircle
 10
-29.2040050516
 20
-586.1922311535
 30
0.0
 40
865.4191444540119
100
AcDbArc
 50
85.5712882409
 51
85.6557807436
  0
ARC
  5
192
330
161
100
AcDbEntity
  8
$DDT_AUDIT_GENERATED_(88)
  6
Continuous
 62
     7
100
AcDbCircle
 10
-2494.7900852422
 20
236.9122232084
 30
0.0
 40
2552.060327500974
100
AcDbArc
 50
359.5742266016
 51
0.4256597494
  0
LINE
  5
193
330
161
100
AcDbEntity
  8
$DDT_AUDIT_GENERATED_(9B)
  6
Continuous
 62
     7
100
AcDbLine
 10
110.7590236717
 20
237.735673486
 30
0.0
 11
110.8760595416
 21
244.5626152034
 31
0.0
  0
SPLINE
  5
194
330
161
100
AcDbEntity
  8
$DDT_AUDIT_GENERATED_(9B)
  6
Continuous
 62
     7
100
AcDbSpline
210
0.0
220
0.0
230
1.0
 70
     8
 71
     3
 72
     8
 73
     4
 74
     0
 42
0.0000000042141407
 43
0.0000000001
 40
0.0
 40
0.0
 40
0.0
 40
0.0
 40
0.0440453605051972
 40
0.0440453605051972
 40
0.0440453605051972
 40
0.0440453605051972
 10
111.2399500591279
 20
265.9137916686595
 30
0.0
 10
111.2411408904465
 20
265.9836461214229
 30
0.0
 10
111.2417248911897
 20
266.0180719544875
 30
0.0
 10
111.2417154887876
 20
266.017849529229
 30
0.0
  0
LINE
  5
195
330
161
100
AcDbEntity
  8
$DDT_AUDIT_GENERATED_(9B)
  6
Continuous
 62
     7
100
AcDbLine
 10
110.7573131736
 20
237.6359865662
 30
0.0
 11
111.1118111079
 21
258.3332493159
 31
0.0
  0
ARC
  5
196
330
161
100
AcDbEntity
  8
$DDT_AUDIT_GENERATED_(9B)
  6
Continuous
 62
     7
100
AcDbCircle
 10
150.7540085359
 20
259.2371017721
 30
0.0
 40
45.10038215588122
100
AcDbArc
 50
170.0008321773
 51
170.2704438702
  0
LINE
  5
197
330
161
100
AcDbEntity
  8
$DDT_AUDIT_GENERATED_(9B)
  6
Continuous
 62
     7
100
AcDbLine
 10
107.6693149266
 20
268.7261085379
 30
0.0
 11
107.6715180696
 21
268.854738434
 31
0.0
  0
ARC
  5
198
330
161
100
AcDbEntity
  8
$DDT_AUDIT_GENERATED_(9B)
  6
Continuous
 62
     7
100
AcDbCircle
 10
119.7778764055
 20
258.3800477677
 30
0.0
 40
18.74624600056337
100
AcDbArc
 50
161.1276867808
 51
161.4343403332
  0
ELLIPSE
  5
199
330
161
100
AcDbEntity
  8
$DDT_AUDIT_GENERATED_(9B)
  6
Continuous
 62
     7
100
AcDbEllipse
 10
101.9504855927
 20
269.4429206758
 30
0.0
 11
-0.1316063154854358
 21
4.998267673983259
 31
0.0
210
0.0
220
0.0
230
1.0
 40
0.9974524243
 41
3.20002720712053
 42
4.203244668688808
  0
SPLINE
  5
19A
330
161
100
AcDbEntity
  8
$DDT_AUDIT_GENERATED_(9B)
  6
Continuous
 62
     7
100
AcDbSpline
210
0.0
220
0.0
230
1.0
 70
     8
 71
     3
 72
     8
 73
     4
 74
     0
 42
0.0000000033333495
 43
0.0000000001
 40
0.1481275675239343
 40
0.1481275675239343
 40
0.1481275675239343
 40
0.1481275675239343
 40
0.1595928644550563
 40
0.1595928644550563
 40
0.1595928644550563
 40
0.1595928644550563
 10
101.6004416735228
 20
245.8416067727373
 30
0.0
 10
101.5910115613634
 20
245.8471946283734
 30
0.0
 10
101.581300599911
 20
245.8532960980786
 30
0.0
 10
101.5713261173212
 20
245.8599057489779
 30
0.0
  0
ELLIPSE
  5
19B
330
161
100
AcDbEntity
  8
$DDT_AUDIT_GENERATED_(9B)
  6
Continuous
 62
     7
100
AcDbEllipse
 10
93.2131873062
 20
263.9078707427
 30
0.0
 11
0.2296787087635102
 21
-0.1929966076905133
 31
0.0
210
0.0
220
0.0
230
1.0
 40
0.984272164
 41
3.138054286364592
 42
3.497255217214848
  0
SPLINE
  5
19C
330
161
100
AcDbEntity
  8
$DDT_AUDIT_GENERATED_(9B)
  6
Continuous
 62
     7
100
AcDbSpline
210
0.0
220
0.0
230
1.0
 70
     8
 71
     3
 72
     8
 73
     4
 74
     0
 42
0.0000000060048543
 43
0.0000000001
 40
0.8393743427798932
 40
0.8393743427798932
 40
0.8393743427798932
 40
0.8393743427798932
 40
0.9013957271268774
 40
0.9013957271268774
 40
0.9013957271268774
 40
0.9013957271268774
 10
93.44996971457151
 20
264.2240877487898
 30
0.0
 10
93.42013673028485
 20
264.2508127809359
 30
0.0
 10
93.3895303786378
 20
264.2606445983345
 30
0.0
 10
93.35844927516199
 20
264.2601060721619
 30
0.0
  0
LINE
  5
19D
330
161
100
AcDbEntity
  8
$DDT_AUDIT_GENERATED_(9B)
  6
Continuous
 62
     7
100
AcDbLine
 10
110.8760595416
 20
244.5626152034
 30
0.0
 11
111.2288469778
 21
265.1601910332
 31
0.0
  0
LINE
  5
19E
330
161
100
AcDbEntity
  8
$DDT_AUDIT_GENERATED_(9B)
  6
Continuous
 62
     7
100
AcDbLine
 10
108.3889415887
 20
234.0554115061
 30
0.0
 11
109.4138834183
 21
234.0557467133
 31
0.0
  0
ARC
  5
19F
330
161
100
AcDbEntity
  8
$DDT_AUDIT_GENERATED_(9B)
  6
Continuous
 62
     7
100
AcDbCircle
 10
108.3377998765
 20
235.9310867401
 30
0.0
 40
1.866363038768338
100
AcDbArc
 50
227.7781335927
 51
271.5953104105
  0
SPLINE
  5
1A0
330
161
100
AcDbEntity
  8
$DDT_AUDIT_GENERATED_(9B)
  6
Continuous
 62
     7
100
AcDbSpline
210
0.0
220
0.0
230
1.0
 70
     8
 71
     3
 72
    11
 73
     7
 74
     0
 42
0.0000000755937346
 43
0.0000000001
 40
0.0
 40
0.0
 40
0.0
 40
0.0
 40
0.422893924730451
 40
0.6656432463649086
 40
0.7260690080772657
 40
0.7320759588241087
 40
0.7320759588241087
 40
0.7320759588241087
 40
0.7320759588241087
 10
111.2413284754943
 20
265.8885739127807
 30
0.0
 10
111.2419254896749
 20
265.923394137386
 30
0.0
 10
111.2426838165826
 20
265.9676929198434
 30
0.0
 10
111.2429590251701
 20
265.9835351282116
 30
0.0
 10
111.2429842127322
 20
265.9851307812613
 30
0.0
 10
111.2429898152675
 20
265.9853912293594
 30
0.0
 10
111.242990094278
 20
265.9854031224971
 30
0.0
  0
ARC
  5
1A1
330
161
100
AcDbEntity
  8
$DDT_AUDIT_GENERATED_(9B)
  6
Continuous
 62
     7
100
AcDbCircle
 10
105.8601669353
 20
237.2925471013
 30
0.0
 40
4.909174263026072
100
AcDbArc
 50
320.7120718666
 51
4.0116152679
  0
SPLINE
  5
1A2
330
161
100
AcDbEntity
  8
$DDT_AUDIT_GENERATED_(9B)
  6
Continuous
 62
     7
100
AcDbSpline
210
0.0
220
0.0
230
1.0
 70
     8
 71
     3
 72
    12
 73
     8
 74
     0
 42
0.0000000319419876
 43
0.0000000001
 40
0.0
 40
0.0
 40
0.0
 40
0.0
 40
0.1190368181101115
 40
0.4517587638574616
 40
0.718889614130428
 40
0.9440707391937099
 40
1.0
 40
1.0
 40
1.0
 40
1.0
 10
109.412706559811
 20
234.0601719694435
 30
0.0
 10
109.4260835401855
 20
234.0587044172571
 30
0.0
 10
109.4697676437323
 20
234.0542940420303
 30
0.0
 10
109.5445659522632
 20
234.0812034854571
 30
0.0
 10
109.613549290081
 20
234.1281578358181
 30
0.0
 10
109.6538410634065
 20
234.1715460470411
 30
0.0
 10
109.6666038677953
 20
234.1956015073183
 30
0.0
 10
109.6695393534149
 20
234.2012016423175
 30
0.0
  0
LINE
  5
1A3
330
161
100
AcDbEntity
  8
$DDT_AUDIT_GENERATED_(9B)
  6
Continuous
 62
     7
100
AcDbLine
 10
104.6654263439
 20
253.1060181083
 30
0.0
 11
104.5803986358
 21
248.1461779467
 31
0.0
  0
SPLINE
  5
1A4
330
161
100
AcDbEntity
  8
$DDT_AUDIT_GENERATED_(9B)
  6
Continuous
 62
     7
100
AcDbSpline
210
0.0
220
0.0
230
1.0
 70
     8
 71
     3
 72
    16
 73
    12
 74
     0
 42
0.000000000704131
 43
0.0000000001
 40
0.0
 40
0.0
 40
0.0
 40
0.0
 40
0.1510892175023304
 40
0.3089293698066972
 40
0.4658110565521207
 40
0.6143759633109218
 40
0.7011648538469524
 40
0.7824113120644025
 40
0.8583899424651791
 40
0.930190505168633
 40
1.0
 40
1.0
 40
1.0
 40
1.0
 10
104.5803495004814
 20
248.1433104777525
 30
0.0
 10
104.5684224595524
 20
247.3577944592373
 30
0.0
 10
104.5515216087056
 20
246.0036940529591
 30
0.0
 10
104.576677841434
 20
243.7574523254902
 30
0.0
 10
104.6810821176316
 20
241.5814591960504
 30
0.0
 10
104.8680758691056
 20
239.7319776042266
 30
0.0
 10
105.1320826678998
 20
238.2587579837477
 30
0.0
 10
105.4342239447754
 20
237.1413790958569
 30
0.0
 10
105.8390230219512
 20
236.1409862136252
 30
0.0
 10
106.3798958907955
 20
235.2330178626536
 30
0.0
 10
106.8233472221764
 20
234.7924839546584
 30
0.0
 10
107.0836597039125
 20
234.5395136541923
 30
0.0
  0
ARC
  5
1A5
330
161
100
AcDbEntity
  8
$DDT_AUDIT_GENERATED_(9B)
  6
Continuous
 62
     7
100
AcDbCircle
 10
110.7909755083
 20
265.0291724383
 30
0.0
 40
4.935578015833569
100
AcDbArc
 50
128.3675314201
 51
155.6021630349
  0
ARC
  5
1A6
330
161
100
AcDbEntity
  8
$DDT_AUDIT_GENERATED_(9B)
  6
Continuous
 62
     7
100
AcDbCircle
 10
108.9039107543
 20
267.3456951947
 30
0.0
 40
1.945247744988667
100
AcDbArc
 50
87.3249983896
 51
129.4224724849
  0
LINE
  5
1A7
330
161
100
AcDbEntity
  8
$DDT_AUDIT_GENERATED_(9B)
  6
Continuous
 62
     7
100
AcDbLine
 10
110.0169422323
 20
269.2584214947
 30
0.0
 11
108.9926130217
 21
269.2938564475
 31
0.0
  0
ARC
  5
1A8
330
161
100
AcDbEntity
  8
$DDT_AUDIT_GENERATED_(9B)
  6
Continuous
 62
     7
100
AcDbCircle
 10
110.0271135386
 20
268.9918055778
 30
0.0
 40
0.2618667355771969
100
AcDbArc
 50
25.0819535101
 51
91.9749667737
  0
ARC
  5
1A9
330
161
100
AcDbEntity
  8
$DDT_AUDIT_GENERATED_(9B)
  6
Continuous
 62
     7
100
AcDbCircle
 10
106.5230962744
 20
266.226356331
 30
0.0
 40
4.7260306479279
100
AcDbArc
 50
356.7108113048
 51
37.7828119615
  0
LINE
  5
1AA
330
161
100
AcDbEntity
  8
$DDT_AUDIT_GENERATED_(9B)
  6
Continuous
 62
     7
100
AcDbLine
 10
102.3850384863
 20
264.4619193595
 30
0.0
 11
102.0400240288
 21
264.4384493904
 31
0.0
  0
SPLINE
  5
1AB
330
161
100
AcDbEntity
  8
$DDT_AUDIT_GENERATED_(9B)
  6
Continuous
 62
     7
100
AcDbSpline
210
0.0
220
0.0
230
1.0
 70
     8
 71
     3
 72
    11
 73
     7
 74
     0
 42
0.0000000005351553
 43
0.0000000001
 40
0.0
 40
0.0
 40
0.0
 40
0.0
 40
0.0595978362695247
 40
0.1142879851353441
 40
0.1618413551733923
 40
0.1795142685932169
 40
0.1795142685932169
 40
0.1795142685932169
 40
0.1795142685932169
 10
101.5311873284641
 20
245.860646574088
 30
0.0
 10
101.9540543906751
 20
245.8307755070153
 30
0.0
 10
102.6393584435043
 20
245.772242279152
 30
0.0
 10
103.6160003361042
 20
245.4001867731976
 30
0.0
 10
104.2273219856309
 20
245.0152931349742
 30
0.0
 10
104.5165764838079
 20
244.7758928708066
 30
0.0
 10
104.591218803365
 20
244.7097488987063
 30
0.0
  0
ARC
  5
1AC
330
161
100
AcDbEntity
  8
$DDT_AUDIT_GENERATED_(9B)
  6
Continuous
 62
     7
100
AcDbCircle
 10
93.3541091021
 20
263.8247228476
 30
0.0
 40
0.4620900194425362
100
AcDbArc
 50
87.6452440644
 51
89.3806259851
  0
ARC
  5
1AD
330
161
100
AcDbEntity
  8
$DDT_AUDIT_GENERATED_(9B)
  6
Continuous
 62
     7
100
AcDbCircle
 10
93.3541091021
 20
263.8247228476
 30
0.0
 40
0.4620900194425362
100
AcDbArc
 50
91.8422368871
 51
143.1431936259
  0
LINE
  5
1AE
330
161
100
AcDbEntity
  8
$DDT_AUDIT_GENERATED_(9B)
  6
Continuous
 62
     7
100
AcDbLine
 10
101.9231470671
 20
264.377344009
 30
0.0
 11
93.4494539646
 21
264.2286437213
 31
0.0
  0
SPLINE
  5
1AF
330
161
100
AcDbEntity
  8
$DDT_AUDIT_GENERATED_(9B)
  6
Continuous
 62
     7
100
AcDbSpline
210
0.0
220
0.0
230
1.0
 70
     8
 71
     3
 72
    20
 73
    16
 74
     0
 42
0.0000000009853081
 43
0.0000000001
 40
0.0
 40
0.0
 40
0.0
 40
0.0
 40
0.1020454945063567
 40
0.1920960798382672
 40
0.2704108820903862
 40
0.3382747271415918
 40
0.4028962887021108
 40
0.4655817372935718
 40
0.5263305565485977
 40
0.5875154162551034
 40
0.6639265986531754
 40
0.7329341065375915
 40
0.8119586782635035
 40
0.9009811296905758
 40
1.0
 40
1.0
 40
1.0
 40
1.0
 10
92.98410055555938
 20
264.1015695657858
 30
0.0
 10
92.91051640339154
 20
263.9920123518243
 30
0.0
 10
92.79385466922125
 20
263.8098600569164
 30
0.0
 10
92.63042757961914
 20
263.3124922128222
 30
0.0
 10
92.4998459858385
 20
262.7755435321594
 30
0.0
 10
92.39020753006912
 20
262.2123258210048
 30
0.0
 10
92.2918024510045
 20
261.6205518179945
 30
0.0
 10
92.20234876319647
 20
260.98824753995
 30
0.0
 10
92.12001099744857
 20
260.3148592698299
 30
0.0
 10
92.03750355169872
 20
259.5424918314893
 30
0.0
 10
91.96066325577019
 20
258.6866622619164
 30
0.0
 10
91.88745366105827
 20
257.7102132432844
 30
0.0
 10
91.82412627187996
 20
256.6485854851791
 30
0.0
 10
91.76807060580228
 20
255.3958378577003
 30
0.0
 10
91.74965897211244
 20
254.5941932997017
 30
0.0
 10
91.73880525100303
 20
254.094903209413
 30
0.0
  0
SPLINE
  5
1B0
330
161
100
AcDbEntity
  8
$DDT_AUDIT_GENERATED_(9B)
  6
Continuous
 62
     7
100
AcDbSpline
210
0.0
220
0.0
230
1.0
 70
     8
 71
     3
 72
    21
 73
    17
 74
     0
 42
0.0000000012378745
 43
0.0000000001
 40
0.0
 40
0.0
 40
0.0
 40
0.0
 40
0.0953589547791712
 40
0.1835161608145694
 40
0.2644628609367336
 40
0.338201831415393
 40
0.4252583479611413
 40
0.4994852472779854
 40
0.5623676159782764
 40
0.6452458191282536
 40
0.715276544142817
 40
0.7595722541293892
 40
0.8252432136170045
 40
0.8811884185482425
 40
0.946871669098437
 40
1.0
 40
1.0
 40
1.0
 40
1.0
 10
91.73880524882377
 20
254.0949032266981
 30
0.0
 10
91.73322102933105
 20
253.6719609779757
 30
0.0
 10
91.72490461117624
 20
252.9860694466972
 30
0.0
 10
91.73336661242814
 20
251.9415385831834
 30
0.0
 10
91.75411504510079
 20
251.0494781020005
 30
0.0
 10
91.78820323135072
 20
250.2084947073361
 30
0.0
 10
91.83305116476164
 20
249.4534911117938
 30
0.0
 10
91.88729382158597
 20
248.801744858914
 30
0.0
 10
91.94903500327861
 20
248.226268879885
 30
0.0
 10
92.01894289302733
 20
247.7250703066976
 30
0.0
 10
92.08848456872413
 20
247.3519149798025
 30
0.0
 10
92.16715078361129
 20
247.0186210745507
 30
0.0
 10
92.26609447960793
 20
246.7343266061997
 30
0.0
 10
92.40953502485384
 20
246.4876828771614
 30
0.0
 10
92.57016285169152
 20
246.3233070773208
 30
0.0
 10
92.66998178397925
 20
246.2975718355157
 30
0.0
 10
92.72312731875056
 20
246.2857045171765
 30
0.0
  0
LINE
  5
1B1
330
161
100
AcDbEntity
  8
$DDT_AUDIT_GENERATED_(9B)
  6
Continuous
 62
     7
100
AcDbLine
 10
92.6520560449
 20
246.3268659236
 30
0.0
 11
101.5582193326
 21
245.8651442792
 31
0.0
  0
SPLINE
  5
1B2
330
161
100
AcDbEntity
  8
$DDT_AUDIT_GENERATED_(C1)
  6
Continuous
 62
     7
100
AcDbSpline
210
0.0
220
0.0
230
1.0
 70
     8
 71
     3
 72
    18
 73
    14
 74
     0
 42
0.0000000000642062
 43
0.0000000001
 40
0.1607505963404275
 40
0.1607505963404275
 40
0.1607505963404275
 40
0.1607505963404275
 40
0.1875
 40
0.1875
 40
0.25
 40
0.25
 40
0.3125
 40
0.3125
 40
0.375
 40
0.375
 40
0.4375
 40
0.4375
 40
0.4870632662630181
 40
0.4870632662630181
 40
0.4870632662630181
 40
0.4870632662630181
 10
15.47652921013624
 20
242.7227722743275
 30
0.0
 10
14.74187095183967
 20
243.8921064125319
 30
0.0
 10
14.10490400989291
 20
245.1227840875725
 30
0.0
 10
12.3416270986769
 20
249.3797111208492
 30
0.0
 10
11.70005357855077
 20
252.6051190156811
 30
0.0
 10
11.70005357855058
 20
259.0584739249303
 30
0.0
 10
12.34162709867653
 20
262.2838818197622
 30
0.0
 10
14.81121910561799
 20
268.2460043364489
 30
0.0
 10
16.63826591343528
 20
270.9803731176881
 30
0.0
 10
21.20147693116882
 20
275.5435841354218
 30
0.0
 10
23.93584571240785
 20
277.3706309432393
 30
0.0
 10
29.28092509704931
 20
279.5846353163188
 30
0.0
 10
31.79860511263809
 20
280.1907847853819
 30
0.0
 10
34.34872438534302
 20
280.3997626731537
 30
0.0
  0
SPLINE
  5
1B3
330
161
100
AcDbEntity
  8
$DDT_AUDIT_GENERATED_(C1)
  6
Continuous
 62
     7
100
AcDbSpline
210
0.0
220
0.0
230
1.0
 70
     8
 71
     3
 72
    10
 73
     6
 74
     0
 42
0.0000000000643729
 43
0.0000000001
 40
0.5129367337355896
 40
0.5129367337355896
 40
0.5129367337355896
 40
0.5129367337355896
 40
0.5625
 40
0.5625
 40
0.5892962412100915
 40
0.5892962412100915
 40
0.5892962412100915
 40
0.5892962412100915
 10
38.35138277154389
 20
280.3997626731714
 30
0.0
 10
40.90150204432228
 20
280.1907847854163
 30
0.0
 10
43.41918205998614
 20
279.5846353163467
 30
0.0
 10
47.06129997100083
 20
278.0760206818426
 30
0.0
 10
48.29405327070332
 20
277.4377481373874
 30
0.0
 10
49.46521963651162
 20
276.7014608344013
 30
0.0
  0
ARC
  5
1B4
330
161
100
AcDbEntity
  8
$DDT_AUDIT_GENERATED_(C1)
  6
Continuous
 62
     7
100
AcDbCircle
 10
36.3500535786
 20
255.8317964703
 30
0.0
 40
20.9
100
AcDbArc
 50
105.6463959899
 51
159.3125581417
  0
ARC
  5
1B5
330
161
100
AcDbEntity
  8
$DDT_AUDIT_GENERATED_(C1)
  6
Continuous
 62
     7
100
AcDbCircle
 10
36.3500535786
 20
255.8317964703
 30
0.0
 40
20.9
100
AcDbArc
 50
159.957972508
 51
184.3122781956
  0
SPLINE
  5
1B6
330
161
100
AcDbEntity
  8
$DDT_AUDIT_GENERATED_(C7)
  6
Continuous
 62
     7
100
AcDbSpline
210
0.0
220
0.0
230
1.0
 70
     8
 71
     3
 72
    20
 73
    16
 74
     0
 42
0.0000000000527317
 43
0.0000000001
 40
0.3724103500010939
 40
0.3724103500010939
 40
0.3724103500010939
 40
0.3724103500010939
 40
0.375
 40
0.375
 40
0.4375
 40
0.4375
 40
0.5
 40
0.5
 40
0.5625
 40
0.5625
 40
0.625
 40
0.625
 40
0.6875
 40
0.6875
 40
0.7393704873108097
 40
0.7393704873108097
 40
0.7393704873108097
 40
0.7393704873108097
 10
15.48481012785215
 20
234.2762343222405
 30
0.0
 10
15.36788062576736
 20
234.3893780059139
 30
0.0
 10
15.2518792975936
 20
234.5034833773099
 30
0.0
 10
12.36001741932871
 20
237.3953408495221
 30
0.0
 10
10.13642641333408
 20
240.7231744748435
 30
0.0
 10
7.130829408226319
 20
247.9793118927745
 30
0.0
 10
6.350005983189646
 20
251.904760705162
 30
0.0
 10
6.350000000000001
 20
259.7587497288987
 30
0.0
 10
7.130817444201153
 20
263.6841997309483
 30
0.0
 10
10.13640339381601
 20
270.9403417282145
 30
0.0
 10
12.35998932950311
 20
274.2681787414071
 30
0.0
 10
17.91359399679811
 20
279.82179187021
 30
0.0
 10
21.24142762211949
 20
282.0453828762046
 30
0.0
 10
27.88053140198334
 20
284.7953956292773
 30
0.0
 10
31.09639598458483
 20
285.5453277789155
 30
0.0
 10
34.34797995372345
 20
285.7643395984026
 30
0.0
  0
SPLINE
  5
1B7
330
161
100
AcDbEntity
  8
$DDT_AUDIT_GENERATED_(C7)
  6
Continuous
 62
     7
100
AcDbSpline
210
0.0
220
0.0
230
1.0
 70
     8
 71
     3
 72
    12
 73
     8
 74
     0
 42
0.0000000000527687
 43
0.0000000001
 40
0.7606299926496488
 40
0.7606299926496488
 40
0.7606299926496488
 40
0.7606299926496488
 40
0.8125
 40
0.8125
 40
0.875
 40
0.875
 40
0.8775965869376786
 40
0.8775965869376786
 40
0.8775965869376786
 40
0.8775965869376786
 10
38.3521271389331
 20
285.7643365691198
 30
0.0
 10
41.60368069364769
 20
285.5453219050691
 30
0.0
 10
44.81951476699032
 20
284.7953969929192
 30
0.0
 10
51.45859487549056
 20
282.0454058957227
 30
0.0
 10
54.78643188868311
 20
279.8218199600356
 30
0.0
 10
57.67860196754193
 20
276.9296542876991
 30
0.0
 10
57.79301062115027
 20
276.8133398582481
 30
0.0
 10
57.90645239727593
 20
276.6960923221685
 30
0.0
  0
ELLIPSE
  5
1B8
330
161
100
AcDbEntity
  8
$DDT_AUDIT_GENERATED_(146)
  6
Continuous
 62
     7
100
AcDbEllipse
 10
36.3500535784
 20
295.2086491259
 30
0.0
 11
2.0
 21
0.0
 31
0.0
210
0.0
220
0.0
230
1.0
 40
0.0000334824
 41
0.0
 42
6.283185307179586
  0
LINE
  5
1B9
330
161
100
AcDbEntity
  8
$DDT_AUDIT_GENERATED_(146)
  6
Continuous
 62
     7
100
AcDbLine
 10
38.3500535784
 20
281.7413617735
 30
0.0
 11
38.3500535784
 21
295.2086491259
 31
0.0
  0
LINE
  5
1BA
330
161
100
AcDbEntity
  8
$DDT_AUDIT_GENERATED_(146)
  6
Continuous
 62
     7
100
AcDbLine
 10
34.3500535784
 20
295.2086491259
 30
0.0
 11
34.3500535784
 21
281.7413617735
 31
0.0
  0
LINE
  5
1BB
330
161
100
AcDbEntity
  8
$DDT_AUDIT_GENERATED_(146)
  6
Continuous
 62
     7
100
AcDbLine
 10
34.3500535784
 20
281.7413617735
 30
0.0
 11
34.3500535784
 21
278.8882616335
 31
0.0
  0
LINE
  5
1BC
330
161
100
AcDbEntity
  8
$DDT_AUDIT_GENERATED_(146)
  6
Continuous
 62
     7
100
AcDbLine
 10
38.3500535784
 20
278.8882616335
 30
0.0
 11
38.3500535784
 21
281.7413617735
 31
0.0
  0
LINE
  5
1BD
330
161
100
AcDbEntity
  8
$DDT_AUDIT_GENERATED_(146)
  6
Continuous
 62
     7
100
AcDbLine
 10
38.3500535784
 20
276.6821855144
 30
0.0
 11
38.3500535784
 21
278.8882616335
 31
0.0
  0
LINE
  5
1BE
330
161
100
AcDbEntity
  8
$DDT_AUDIT_GENERATED_(146)
  6
Continuous
 62
     7
100
AcDbLine
 10
34.3500535784
 20
278.8882616335
 30
0.0
 11
34.3500535784
 21
276.6301691114
 31
0.0
  0
LINE
  5
1BF
330
161
100
AcDbEntity
  8
$DDT_AUDIT_GENERATED_(CE)
  6
Continuous
 62
     7
100
AcDbLine
 10
112.2576970387
 20
251.1718640459
 30
0.0
 11
112.1705752906
 21
250.5442211312
 31
0.0
  0
LINE
  5
1C0
330
161
100
AcDbEntity
  8
$DDT_AUDIT_GENERATED_(CE)
  6
Continuous
 62
     7
100
AcDbLine
 10
112.5399197239
 20
254.6550748238
 30
0.0
 11
112.4765570695
 21
253.3898211765
 31
0.0
  0
LINE
  5
1C1
330
161
100
AcDbEntity
  8
$DDT_AUDIT_GENERATED_(CE)
  6
Continuous
 62
     7
100
AcDbLine
 10
112.550135092
 20
256.6333368699
 30
0.0
 11
112.558934269
 21
255.7436638716
 31
0.0
  0
LINE
  5
1C2
330
161
100
AcDbEntity
  8
$DDT_AUDIT_GENERATED_(CE)
  6
Continuous
 62
     7
100
AcDbLine
 10
112.3250614008
 20
259.9383744862
 30
0.0
 11
112.4303397304
 21
258.8793626099
 31
0.0
  0
LINE
  5
1C3
330
161
100
AcDbEntity
  8
$DDT_AUDIT_GENERATED_(CE)
  6
Continuous
 62
     7
100
AcDbLine
 10
112.1705752906
 20
250.5442211312
 30
0.0
 11
111.8794257909
 21
248.8527894861
 31
0.0
  0
LINE
  5
1C4
330
161
100
AcDbEntity
  8
$DDT_AUDIT_GENERATED_(CE)
  6
Continuous
 62
     7
100
AcDbLine
 10
112.550135092
 20
256.6333368699
 30
0.0
 11
112.4303397304
 21
258.8793626099
 31
0.0
  0
LINE
  5
1C5
330
161
100
AcDbEntity
  8
$DDT_AUDIT_GENERATED_(CE)
  6
Continuous
 62
     7
100
AcDbLine
 10
112.4765570695
 20
253.3898211765
 30
0.0
 11
112.4318510195
 21
252.8005528095
 31
0.0
  0
ARC
  5
1C6
330
161
100
AcDbEntity
  8
$DDT_AUDIT_GENERATED_(CE)
  6
Continuous
 62
     7
100
AcDbCircle
 10
76.7165433034
 20
255.8811102229
 30
0.0
 40
35.83867282551923
100
AcDbArc
 50
8.0766907872
 51
15.1876625209
  0
SPLINE
  5
1C7
330
161
100
AcDbEntity
  8
$DDT_AUDIT_GENERATED_(CE)
  6
Continuous
 62
     7
100
AcDbSpline
210
0.0
220
0.0
230
1.0
 70
     8
 71
     3
 72
    14
 73
    10
 74
     0
 42
0.0000000010486974
 43
0.0000000001
 40
0.0082117142469706
 40
0.0082117142469706
 40
0.0082117142469706
 40
0.0082117142469706
 40
0.2500000000000001
 40
0.2500000000000001
 40
0.5000000000000001
 40
0.5000000000000001
 40
0.75
 40
0.75
 40
0.9104043362399512
 40
0.9104043362399512
 40
0.9104043362399512
 40
0.9104043362399512
 10
111.1054350766155
 20
253.7078054085721
 30
0.0
 10
111.0841069672833
 20
252.4461898168901
 30
0.0
 10
111.0666686379878
 20
251.2101800090337
 30
0.0
 10
111.0366420850697
 20
248.9594001637777
 30
0.0
 10
111.0233385871968
 20
247.9508676945558
 30
0.0
 10
110.996071099344
 20
246.3578983652714
 30
0.0
 10
110.9819544367336
 20
245.7658831726278
 30
0.0
 10
110.9655295022142
 20
245.2192107213272
 30
0.0
 10
110.9610585941599
 20
245.1095648392941
 30
0.0
 10
110.959491797583
 20
245.1065339292
 30
0.0
  0
SPLINE
  5
1C8
330
161
100
AcDbEntity
  8
$DDT_AUDIT_GENERATED_(CE)
  6
Continuous
 62
     7
100
AcDbSpline
210
0.0
220
0.0
230
1.0
 70
     8
 71
     3
 72
     8
 73
     4
 74
     0
 42
0.0000000089324043
 43
0.0000000001
 40
0.8360942273410603
 40
0.8360942273410603
 40
0.8360942273410603
 40
0.8360942273410603
 40
1.0
 40
1.0
 40
1.0
 40
1.0
 10
111.3075854651119
 20
265.3311691053456
 30
0.0
 10
111.3067977912911
 20
265.3923799194777
 30
0.0
 10
111.3052522871699
 20
265.3723367771526
 30
0.0
 10
111.3034762657527
 20
265.2701750407948
 30
0.0
  0
LINE
  5
1C9
330
161
100
AcDbEntity
  8
$DDT_AUDIT_GENERATED_(CE)
  6
Continuous
 62
     7
100
AcDbLine
 10
112.5537258434
 20
255.2115778393
 30
0.0
 11
112.558934269
 21
255.7436638716
 31
0.0
  0
ARC
  5
1CA
330
161
100
AcDbEntity
  8
$DDT_AUDIT_GENERATED_(CE)
  6
Continuous
 62
     7
100
AcDbCircle
 10
76.4500767767
 20
255.8380236909
 30
0.0
 40
36.10855021216327
100
AcDbArc
 50
6.5203583206
 51
8.0849753131
  0
LINE
  5
1CB
330
161
100
AcDbEntity
  8
$DDT_AUDIT_GENERATED_(CE)
  6
Continuous
 62
     7
100
AcDbLine
 10
112.5534736504
 20
255.2014123333
 30
0.0
 11
112.5399197239
 21
254.6550748238
 31
0.0
  0
LINE
  5
1CC
330
161
100
AcDbEntity
  8
$DDT_AUDIT_GENERATED_(CE)
  6
Continuous
 62
     7
100
AcDbLine
 10
112.5537228476
 20
255.2114019728
 30
0.0
 11
112.5538798526
 21
255.2206186477
 31
0.0
  0
LINE
  5
1CD
330
161
100
AcDbEntity
  8
$DDT_AUDIT_GENERATED_(CE)
  6
Continuous
 62
     7
100
AcDbLine
 10
112.5504479846
 20
255.1605650738
 30
0.0
 11
112.5537236308
 21
255.2114477051
 31
0.0
  0
LINE
  5
1CE
330
161
100
AcDbEntity
  8
$DDT_AUDIT_GENERATED_(CE)
  6
Continuous
 62
     7
100
AcDbLine
 10
112.5194255014
 20
254.6786737224
 30
0.0
 11
112.5504479846
 21
255.1605650738
 31
0.0
  0
ARC
  5
1CF
330
161
100
AcDbEntity
  8
$DDT_AUDIT_GENERATED_(CE)
  6
Continuous
 62
     7
100
AcDbCircle
 10
77.6203761016
 20
255.4822775029
 30
0.0
 40
34.90830027436371
100
AcDbArc
 50
342.7309730709
 51
358.6809104911
  0
LINE
  5
1D0
330
161
100
AcDbEntity
  8
$DDT_AUDIT_GENERATED_(CE)
  6
Continuous
 62
     7
100
AcDbLine
 10
112.5535505984
 20
255.2014104355
 30
0.0
 11
112.5537292524
 21
255.2117756207
 31
0.0
  0
ARC
  5
1D1
330
161
100
AcDbEntity
  8
$DDT_AUDIT_GENERATED_(CE)
  6
Continuous
 62
     7
100
AcDbCircle
 10
77.752201218
 20
256.1603526464
 30
0.0
 40
34.78590344053123
100
AcDbArc
 50
3.5486252163
 51
4.3661039506
  0
ARC
  5
1D2
330
161
100
AcDbEntity
  8
$DDT_AUDIT_GENERATED_(CE)
  6
Continuous
 62
     7
100
AcDbCircle
 10
77.752201218
 20
256.1603526464
 30
0.0
 40
34.78590344053123
100
AcDbArc
 50
13.4012191975
 51
15.3224043408
  0
LINE
  5
1D4
330
161
100
AcDbEntity
  8
DV3_Standard
  6
CENTER2
 62
     7
100
AcDbLine
 10
56.3500531315
 20
255.8317964703
 30
0.0
 11
16.3500540256
 21
255.8317964703
 31
0.0
  0
LINE
  5
1D5
330
161
100
AcDbEntity
  8
DV3_Standard
  6
CENTER2
 62
     7
100
AcDbLine
 10
36.3500535786
 20
275.8317960233
 30
0.0
 11
36.3500535786
 21
235.8317969173
 31
0.0
  0
LINE
  5
1D6
330
161
100
AcDbEntity
  8
DV3_Standard
  6
CENTER2
 62
     7
100
AcDbLine
 10
61.3500530198
 20
255.8317964703
 30
0.0
 11
60.7500535786
 21
255.8317964703
 31
0.0
  0
LINE
  5
1D7
330
161
100
AcDbEntity
  8
DV3_Standard
  6
CENTER2
 62
     7
100
AcDbLine
 10
36.3500535786
 20
280.8317959115
 30
0.0
 11
36.3500535786
 21
280.2317964703
 31
0.0
  0
LINE
  5
1D8
330
161
100
AcDbEntity
  8
DV3_Standard
  6
CENTER2
 62
     7
100
AcDbLine
 10
11.3500541373
 20
255.8317964703
 30
0.0
 11
11.9500535786
 21
255.8317964703
 31
0.0
  0
LINE
  5
1D9
330
161
100
AcDbEntity
  8
DV3_Standard
  6
CENTER2
 62
     7
100
AcDbLine
 10
36.3500535786
 20
230.8317970291
 30
0.0
 11
36.3500535786
 21
231.4317964703
 31
0.0
  0
ENDBLK
  5
1DB
330
161
100
AcDbEntity
  8
0
100
AcDbBlockEnd
  0
ENDSEC
  0
SECTION
  2
ENTITIES
  0
INSERT
  5
5F
330
1F
100
AcDbEntity
  8
Default
100
AcDbBlockReference
  2
SE
 10
0.0
 20
0.0
 30
0.0
  0
INSERT
  5
101
330
1F
100
AcDbEntity
  8
Default
100
AcDbBlockReference
  2
SE1
 10
0.0
 20
0.0
 30
0.0
  0
INSERT
  5
162
330
1F
100
AcDbEntity
  8
Default
100
AcDbBlockReference
  2
SE2
 10
0.0
 20
0.0
 30
0.0
  0
TEXT
  5
1DD
330
1F
100
AcDbEntity
  8
Default
  6
Continuous
 62
     7
100
AcDbText
 10
5.9362635081
 20
53.4225120485
 30
0.0
 40
10.0
  1
Grohe AG^J
  7
SEACAD_seiso_ttf
 11
5.9362635081
 21
63.4225120485
 31
0.0
100
AcDbText
 73
     3
  0
TEXT
  5
1DE
330
1F
100
AcDbEntity
  8
Default
  6
Continuous
 62
     7
100
AcDbText
 10
5.9362635081
 20
37.0588756849
 30
0.0
 40
10.0
  1
 
  7
SEACAD_seiso_ttf
 11
5.9362635081
 21
47.0588756849
 31
0.0
100
AcDbText
 73
     3
  0
TEXT
  5
1DF
330
1F
100
AcDbEntity
  8
Default
  6
Continuous
 62
     7
100
AcDbText
 10
5.9362635081
 20
20.6952393213
 30
0.0
 40
10.0
  1
ecn: 
  7
SEACAD_seiso_ttf
 11
5.9362635081
 21
30.6952393213
 31
0.0
100
AcDbText
 73
     3
  0
TEXT
  5
1E0
330
1F
100
AcDbEntity
  8
Default
  6
Continuous
 62
     7
100
AcDbText
 10
5.9362635081
 20
4.3316029576
 30
0.0
 40
10.0
  1
unit: mm
  7
SEACAD_seiso_ttf
 11
5.9362635081
 21
14.3316029576
 31
0.0
100
AcDbText
 73
     3
  0
LINE
  5
1E1
330
1F
100
AcDbEntity
  8
Default
  6
Continuous
 62
     7
100
AcDbLine
 10
0.0
 20
0.0
 30
0.0
 11
100.0
 21
0.0
 31
0.0
  0
LINE
  5
1E2
330
1F
100
AcDbEntity
  8
Default
  6
Continuous
 62
     7
100
AcDbLine
 10
0.0
 20
0.0
 30
0.0
 11
0.0
 21
100.0
 31
0.0
  0
TEXT
  5
1E3
330
1F
100
AcDbEntity
  8
Default
  6
Continuous
 62
     7
100
AcDbText
 10
24.3923665681
 20
-18.2375342018
 30
0.0
 40
10.0
  1
100 mm
  7
SEACAD_seiso_ttf
 11
24.3923665681
 21
-8.2375342018
 31
0.0
100
AcDbText
 73
     3
  0
TEXT
  5
1E4
330
1F
100
AcDbEntity
  8
Default
  6
Continuous
 62
     7
100
AcDbText
 10
-7.6150308803
 20
24.6231930421
 30
0.0
 40
10.0
  1
100 mm
 50
90.0
  7
SEACAD_seiso_ttf
 11
-17.6150308803
 21
24.6231930421
 31
0.0
100
AcDbText
 73
     3
  0
TEXT
  5
1E5
330
1F
100
AcDbEntity
  8
Default
  6
Continuous
 62
     7
100
AcDbText
 10
28.4878128572
 20
20.0907663715
 30
0.0
 40
10.0
  1
216065
  7
SEACAD_seiso_ttf
 11
28.4878128572
 21
30.0907663715
 31
0.0
100
AcDbText
 73
     3
  0
TEXT
  5
1E6
330
1F
100
AcDbEntity
  8
Default
  6
Continuous
 62
     7
100
AcDbText
 10
5.9012241913
 20
36.7242780188
 30
0.0
 40
10.0
  1
32184000
  7
SEACAD_seiso_ttf
 11
5.9012241913
 21
46.7242780188
 31
0.0
100
AcDbText
 73
     3
  0
ENDSEC
  0
SECTION
  2
OBJECTS
  0
DICTIONARY
  5
C
330
0
100
AcDbDictionary
281
     1
  3
ACAD_GROUP
350
D
  3
ACAD_LAYOUT
350
1A
  3
ACAD_MLEADERSTYLE
350
1EA
  3
ACAD_MLINESTYLE
350
17
  3
ACAD_PLOTSETTINGS
350
19
  3
ACAD_PLOTSTYLENAME
350
E
  3
ACAD_SCALELIST
350
3B
  3
ACAD_TABLESTYLE
350
1E9
  3
ACAD_VISUALSTYLE
350
2A
  3
AcDbVariableDictionary
350
1E7
  0
DICTIONARY
  5
D
102
{ACAD_REACTORS
330
C
102
}
330
C
100
AcDbDictionary
281
     1
  0
DICTIONARY
  5
1A
102
{ACAD_REACTORS
330
C
102
}
330
C
100
AcDbDictionary
281
     1
  3
Layout1
350
1E
  3
Model
350
22
  0
DICTIONARY
  5
1EA
102
{ACAD_REACTORS
330
C
102
}
330
C
100
AcDbDictionary
281
     1
  0
DICTIONARY
  5
17
102
{ACAD_REACTORS
330
C
102
}
330
C
100
AcDbDictionary
281
     1
  3
Standard
350
18
  0
DICTIONARY
  5
19
102
{ACAD_REACTORS
330
C
102
}
330
C
100
AcDbDictionary
281
     1
  0
ACDBDICTIONARYWDFLT
  5
E
102
{ACAD_REACTORS
330
C
102
}
330
C
100
AcDbDictionary
281
     1
  3
Normal
350
F
100
AcDbDictionaryWithDefault
340
F
  0
DICTIONARY
  5
3B
102
{ACAD_REACTORS
330
C
102
}
330
C
100
AcDbDictionary
281
     1
  3
A0
350
3C
  3
A1
350
3D
  3
A2
350
3E
  3
A3
350
3F
  3
A4
350
40
  3
A5
350
41
  3
A6
350
42
  3
A7
350
43
  3
A8
350
44
  3
A9
350
45
  3
B0
350
46
  3
B1
350
47
  3
B2
350
48
  3
B3
350
49
  3
B4
350
4A
  3
B5
350
4B
  3
B6
350
4C
  3
B7
350
4D
  3
B8
350
4E
  3
B9
350
4F
  3
C0
350
50
  3
C1
350
51
  3
C2
350
52
  3
C3
350
53
  3
C4
350
54
  3
C5
350
55
  3
C6
350
56
  3
C7
350
57
  3
C8
350
58
  3
C9
350
59
  3
D0
350
5A
  3
D1
350
5B
  3
D2
350
5C
  0
DICTIONARY
  5
1E9
102
{ACAD_REACTORS
330
C
102
}
330
C
100
AcDbDictionary
281
     1
  0
DICTIONARY
  5
2A
102
{ACAD_REACTORS
330
C
102
}
330
C
100
AcDbDictionary
281
     1
  3
2dWireframe
350
2F
  3
3D Hidden
350
31
  3
3dWireframe
350
30
  3
Basic
350
32
  3
Brighten
350
36
  3
ColorChange
350
3A
  3
Conceptual
350
34
  3
Dim
350
35
  3
Facepattern
350
39
  3
Flat
350
2B
  3
FlatWithEdges
350
2C
  3
Gouraud
350
2D
  3
GouraudWithEdges
350
2E
  3
Linepattern
350
38
  3
Realistic
350
33
  3
Thicken
350
37
  0
DICTIONARY
  5
1E7
102
{ACAD_REACTORS
330
C
102
}
330
C
100
AcDbDictionary
281
     1
  3
CANNOSCALE
350
1E8
  3
PSOLHEIGHT
350
1EC
  3
PSOLWIDTH
350
1EB
  0
LAYOUT
  5
1E
102
{ACAD_REACTORS
330
1A
102
}
330
1A
100
AcDbPlotSettings
  1

  2
none_device
  4

  6

 40
0.0
 41
0.0
 42
0.0
 43
0.0
 44
0.0
 45
0.0
 46
0.0
 47
0.0
 48
0.0
 49
0.0
140
0.0
141
0.0
142
1.0
143
1.0
 70
   688
 72
     0
 73
     0
 74
     5
  7

 75
    16
147
1.0
148
0.0
149
0.0
100
AcDbLayout
  1
Layout1
 70
     1
 71
     1
 10
0.0
 20
0.0
 11
1682.0
 21
2378.0
 12
0.0
 22
0.0
 32
0.0
 14
0.0
 24
0.0
 34
0.0
 15
1682.0
 25
2378.0
 35
0.0
146
0.0
 13
0.0
 23
0.0
 33
0.0
 16
1.0
 26
0.0
 36
0.0
 17
0.0
 27
1.0
 37
0.0
 76
     0
330
1B
  0
LAYOUT
  5
22
102
{ACAD_REACTORS
330
1A
102
}
330
1A
100
AcDbPlotSettings
  1

  2
none_device
  4

  6

 40
0.0
 41
0.0
 42
0.0
 43
0.0
 44
0.0
 45
0.0
 46
0.0
 47
0.0
 48
0.0
 49
0.0
140
0.0
141
0.0
142
1.0
143
1.0
 70
  1712
 72
     0
 73
     0
 74
     0
  7

 75
     0
147
1.0
148
0.0
149
0.0
100
AcDbLayout
  1
Model
 70
     1
 71
     0
 10
0.0
 20
0.0
 11
1682.0
 21
2378.0
 12
0.0
 22
0.0
 32
0.0
 14
0.0
 24
0.0
 34
0.0
 15
1682.0
 25
2378.0
 35
0.0
146
0.0
 13
0.0
 23
0.0
 33
0.0
 16
1.0
 26
0.0
 36
0.0
 17
0.0
 27
1.0
 37
0.0
 76
     0
330
1F
331
29
  0
MLINESTYLE
  5
18
102
{ACAD_REACTORS
330
17
102
}
330
17
100
AcDbMlineStyle
  2
Standard
 70
     0
  3

 62
   256
 51
90.0
 52
90.0
 71
     2
 49
0.5
 62
   256
  6
BYLAYER
 49
-0.5
 62
   256
  6
BYLAYER
  0
ACDBPLACEHOLDER
  5
F
102
{ACAD_REACTORS
330
E
102
}
330
E
  0
SCALE
  5
3C
102
{ACAD_REACTORS
330
3B
102
}
330
3B
100
AcDbScale
 70
     0
300
1:1
140
1.0
141
1.0
290
     1
  0
SCALE
  5
3D
102
{ACAD_REACTORS
330
3B
102
}
330
3B
100
AcDbScale
 70
     0
300
1:2
140
1.0
141
2.0
290
     0
  0
SCALE
  5
3E
102
{ACAD_REACTORS
330
3B
102
}
330
3B
100
AcDbScale
 70
     0
300
1:4
140
1.0
141
4.0
290
     0
  0
SCALE
  5
3F
102
{ACAD_REACTORS
330
3B
102
}
330
3B
100
AcDbScale
 70
     0
300
1:5
140
1.0
141
5.0
290
     0
  0
SCALE
  5
40
102
{ACAD_REACTORS
330
3B
102
}
330
3B
100
AcDbScale
 70
     0
300
1:8
140
1.0
141
8.0
290
     0
  0
SCALE
  5
41
102
{ACAD_REACTORS
330
3B
102
}
330
3B
100
AcDbScale
 70
     0
300
1:10
140
1.0
141
10.0
290
     0
  0
SCALE
  5
42
102
{ACAD_REACTORS
330
3B
102
}
330
3B
100
AcDbScale
 70
     0
300
1:16
140
1.0
141
16.0
290
     0
  0
SCALE
  5
43
102
{ACAD_REACTORS
330
3B
102
}
330
3B
100
AcDbScale
 70
     0
300
1:20
140
1.0
141
20.0
290
     0
  0
SCALE
  5
44
102
{ACAD_REACTORS
330
3B
102
}
330
3B
100
AcDbScale
 70
     0
300
1:30
140
1.0
141
30.0
290
     0
  0
SCALE
  5
45
102
{ACAD_REACTORS
330
3B
102
}
330
3B
100
AcDbScale
 70
     0
300
1:40
140
1.0
141
40.0
290
     0
  0
SCALE
  5
46
102
{ACAD_REACTORS
330
3B
102
}
330
3B
100
AcDbScale
 70
     0
300
1:50
140
1.0
141
50.0
290
     0
  0
SCALE
  5
47
102
{ACAD_REACTORS
330
3B
102
}
330
3B
100
AcDbScale
 70
     0
300
1:100
140
1.0
141
100.0
290
     0
  0
SCALE
  5
48
102
{ACAD_REACTORS
330
3B
102
}
330
3B
100
AcDbScale
 70
     0
300
2:1
140
2.0
141
1.0
290
     0
  0
SCALE
  5
49
102
{ACAD_REACTORS
330
3B
102
}
330
3B
100
AcDbScale
 70
     0
300
4:1
140
4.0
141
1.0
290
     0
  0
SCALE
  5
4A
102
{ACAD_REACTORS
330
3B
102
}
330
3B
100
AcDbScale
 70
     0
300
8:1
140
8.0
141
1.0
290
     0
  0
SCALE
  5
4B
102
{ACAD_REACTORS
330
3B
102
}
330
3B
100
AcDbScale
 70
     0
300
10:1
140
10.0
141
1.0
290
     0
  0
SCALE
  5
4C
102
{ACAD_REACTORS
330
3B
102
}
330
3B
100
AcDbScale
 70
     0
300
100:1
140
100.0
141
1.0
290
     0
  0
SCALE
  5
4D
102
{ACAD_REACTORS
330
3B
102
}
330
3B
100
AcDbScale
 70
     0
300
1/128" = 1'-0"
140
0.0078125
141
12.0
290
     0
  0
SCALE
  5
4E
102
{ACAD_REACTORS
330
3B
102
}
330
3B
100
AcDbScale
 70
     0
300
1/64" = 1'-0"
140
0.015625
141
12.0
290
     0
  0
SCALE
  5
4F
102
{ACAD_REACTORS
330
3B
102
}
330
3B
100
AcDbScale
 70
     0
300
1/32" = 1'-0"
140
0.03125
141
12.0
290
     0
  0
SCALE
  5
50
102
{ACAD_REACTORS
330
3B
102
}
330
3B
100
AcDbScale
 70
     0
300
1/16" = 1'-0"
140
0.0625
141
12.0
290
     0
  0
SCALE
  5
51
102
{ACAD_REACTORS
330
3B
102
}
330
3B
100
AcDbScale
 70
     0
300
3/32" = 1'-0"
140
0.09375
141
12.0
290
     0
  0
SCALE
  5
52
102
{ACAD_REACTORS
330
3B
102
}
330
3B
100
AcDbScale
 70
     0
300
1/8" = 1'-0"
140
0.125
141
12.0
290
     0
  0
SCALE
  5
53
102
{ACAD_REACTORS
330
3B
102
}
330
3B
100
AcDbScale
 70
     0
300
3/16" = 1'-0"
140
0.1875
141
12.0
290
     0
  0
SCALE
  5
54
102
{ACAD_REACTORS
330
3B
102
}
330
3B
100
AcDbScale
 70
     0
300
1/4" = 1'-0"
140
0.25
141
12.0
290
     0
  0
SCALE
  5
55
102
{ACAD_REACTORS
330
3B
102
}
330
3B
100
AcDbScale
 70
     0
300
3/8" = 1'-0"
140
0.375
141
12.0
290
     0
  0
SCALE
  5
56
102
{ACAD_REACTORS
330
3B
102
}
330
3B
100
AcDbScale
 70
     0
300
1/2" = 1'-0"
140
0.5
141
12.0
290
     0
  0
SCALE
  5
57
102
{ACAD_REACTORS
330
3B
102
}
330
3B
100
AcDbScale
 70
     0
300
3/4" = 1'-0"
140
0.75
141
12.0
290
     0
  0
SCALE
  5
58
102
{ACAD_REACTORS
330
3B
102
}
330
3B
100
AcDbScale
 70
     0
300
1" = 1'-0"
140
1.0
141
12.0
290
     0
  0
SCALE
  5
59
102
{ACAD_REACTORS
330
3B
102
}
330
3B
100
AcDbScale
 70
     0
300
1-1/2" = 1'-0"
140
1.5
141
12.0
290
     0
  0
SCALE
  5
5A
102
{ACAD_REACTORS
330
3B
102
}
330
3B
100
AcDbScale
 70
     0
300
3" = 1'-0"
140
3.0
141
12.0
290
     0
  0
SCALE
  5
5B
102
{ACAD_REACTORS
330
3B
102
}
330
3B
100
AcDbScale
 70
     0
300
6" = 1'-0"
140
6.0
141
12.0
290
     0
  0
SCALE
  5
5C
102
{ACAD_REACTORS
330
3B
102
}
330
3B
100
AcDbScale
 70
     0
300
1'-0" = 1'-0"
140
12.0
141
12.0
290
     0
  0
VISUALSTYLE
  5
2F
102
{ACAD_REACTORS
330
2A
102
}
330
2A
100
AcDbVisualStyle
  2
2dWireframe
 70
     4
 71
     0
 72
     2
 73
     0
 90
        0
 40
-0.6
 41
-30.0
 62
     5
 63
     7
 74
     1
 91
        4
 64
     7
 65
   257
 75
     1
175
     1
 42
1.0
 92
        0
 66
   257
 43
1.0
 76
     1
 77
     6
 78
     2
 67
     7
 79
     5
170
     0
171
     0
290
     0
174
     0
 93
        1
 44
0.0
173
     0
291
     0
 45
0.0
1001
ACAD
1000
AcDbSavedByObjectVersion
1070
     0
  0
VISUALSTYLE
  5
31
102
{ACAD_REACTORS
330
2A
102
}
330
2A
100
AcDbVisualStyle
  2
3D Hidden
 70
     6
 71
     1
 72
     2
 73
     2
 90
        0
 40
-0.6
 41
-30.0
 62
     5
 63
     7
 74
     2
 91
        2
 64
     7
 65
   257
 75
     2
175
     1
 42
40.0
 92
        0
 66
   257
 43
1.0
 76
     1
 77
     6
 78
     2
 67
     7
 79
     3
170
     0
171
     0
290
     0
174
     0
 93
        1
 44
0.0
173
     0
291
     0
 45
0.0
1001
ACAD
1000
AcDbSavedByObjectVersion
1070
     0
  0
VISUALSTYLE
  5
30
102
{ACAD_REACTORS
330
2A
102
}
330
2A
100
AcDbVisualStyle
  2
3dWireframe
 70
     5
 71
     0
 72
     2
 73
     0
 90
        0
 40
-0.6
 41
-30.0
 62
     5
 63
     7
 74
     1
 91
        4
 64
     7
 65
   257
 75
     1
175
     1
 42
1.0
 92
        0
 66
   257
 43
1.0
 76
     1
 77
     6
 78
     2
 67
     7
 79
     5
170
     0
171
     0
290
     0
174
     0
 93
        1
 44
0.0
173
     0
291
     0
 45
0.0
1001
ACAD
1000
AcDbSavedByObjectVersion
1070
     0
  0
VISUALSTYLE
  5
32
102
{ACAD_REACTORS
330
2A
102
}
330
2A
100
AcDbVisualStyle
  2
Basic
 70
     7
 71
     1
 72
     0
 73
     1
 90
        0
 40
-0.6
 41
-30.0
 62
     5
 63
     7
 74
     0
 91
        4
 64
     7
 65
   257
 75
     1
175
     1
 42
1.0
 92
        8
 66
     7
 43
1.0
 76
     1
 77
     6
 78
     2
 67
     7
 79
     5
170
     0
171
     0
290
     0
174
     0
 93
        1
 44
0.0
173
     0
291
     1
 45
0.0
1001
ACAD
1000
AcDbSavedByObjectVersion
1070
     0
  0
VISUALSTYLE
  5
36
102
{ACAD_REACTORS
330
2A
102
}
330
2A
100
AcDbVisualStyle
  2
Brighten
 70
    12
 71
     2
 72
     2
 73
     0
 90
        0
 40
-0.6
 41
-30.0
 62
     5
 63
     7
 74
     1
 91
        4
 64
     7
 65
   257
 75
     1
175
     1
 42
1.0
 92
        8
 66
     7
 43
1.0
 76
     1
 77
     6
 78
     2
 67
     7
 79
     5
170
     0
171
     0
290
     0
174
     0
 93
        1
 44
50.0
173
     0
291
     1
 45
0.0
1001
ACAD
1000
AcDbSavedByObjectVersion
1070
     0
  0
VISUALSTYLE
  5
3A
102
{ACAD_REACTORS
330
2A
102
}
330
2A
100
AcDbVisualStyle
  2
ColorChange
 70
    16
 71
     2
 72
     2
 73
     3
 90
        0
 40
-0.6
 41
-30.0
 62
     5
 63
     8
 74
     1
 91
        4
 64
     7
 65
   257
 75
     1
175
     1
 42
1.0
 92
        8
 66
     8
 43
1.0
 76
     1
 77
     6
 78
     2
 67
     7
 79
     5
170
     0
171
     0
290
     0
174
     0
 93
        1
 44
0.0
173
     0
291
     1
 45
0.0
1001
ACAD
1000
AcDbSavedByObjectVersion
1070
     0
  0
VISUALSTYLE
  5
34
102
{ACAD_REACTORS
330
2A
102
}
330
2A
100
AcDbVisualStyle
  2
Conceptual
 70
     9
 71
     3
 72
     2
 73
     0
 90
        0
 40
-0.6
 41
-30.0
 62
     5
 63
     7
 74
     2
 91
        2
 64
     7
 65
   257
 75
     1
175
     1
 42
40.0
 92
        8
 66
     7
 43
1.0
 76
     1
 77
     6
 78
     2
 67
     7
 79
     3
170
     0
171
     0
290
     0
174
     0
 93
        1
 44
0.0
173
     0
291
     0
 45
0.0
1001
ACAD
1000
AcDbSavedByObjectVersion
1070
     0
  0
VISUALSTYLE
  5
35
102
{ACAD_REACTORS
330
2A
102
}
330
2A
100
AcDbVisualStyle
  2
Dim
 70
    11
 71
     2
 72
     2
 73
     0
 90
        0
 40
-0.6
 41
-30.0
 62
     5
 63
     7
 74
     1
 91
        4
 64
     7
 65
   257
 75
     1
175
     1
 42
1.0
 92
        8
 66
     7
 43
1.0
 76
     1
 77
     6
 78
     2
 67
     7
 79
     5
170
     0
171
     0
290
     0
174
     0
 93
        1
 44
-50.0
173
     0
291
     1
 45
0.0
1001
ACAD
1000
AcDbSavedByObjectVersion
1070
     0
  0
VISUALSTYLE
  5
39
102
{ACAD_REACTORS
330
2A
102
}
330
2A
100
AcDbVisualStyle
  2
Facepattern
 70
    15
 71
     2
 72
     2
 73
     0
 90
        0
 40
-0.6
 41
-30.0
 62
     5
 63
     7
 74
     1
 91
        4
 64
     7
 65
   257
 75
     1
175
     1
 42
1.0
 92
        8
 66
     7
 43
1.0
 76
     1
 77
     6
 78
     2
 67
     7
 79
     5
170
     0
171
     0
290
     0
174
     0
 93
        1
 44
0.0
173
     0
291
     1
 45
0.0
1001
ACAD
1000
AcDbSavedByObjectVersion
1070
     0
  0
VISUALSTYLE
  5
2B
102
{ACAD_REACTORS
330
2A
102
}
330
2A
100
AcDbVisualStyle
  2
Flat
 70
     0
 71
     2
 72
     1
 73
     1
 90
        2
 40
-0.6
 41
30.0
 62
     5
 63
     7
 74
     0
 91
        4
 64
     7
 65
   257
 75
     1
175
     1
 42
1.0
 92
        8
 66
     7
 43
1.0
 76
     1
 77
     6
 78
     2
 67
     7
 79
     5
170
     0
171
     0
290
     0
174
     0
 93
       13
 44
0.0
173
     0
291
     1
 45
0.0
1001
ACAD
1000
AcDbSavedByObjectVersion
1070
     0
  0
VISUALSTYLE
  5
2C
102
{ACAD_REACTORS
330
2A
102
}
330
2A
100
AcDbVisualStyle
  2
FlatWithEdges
 70
     1
 71
     2
 72
     1
 73
     1
 90
        2
 40
-0.6
 41
30.0
 62
     5
 63
     7
 74
     1
 91
        4
 64
     7
 65
   257
 75
     1
175
     1
 42
1.0
 92
        0
 66
   257
 43
1.0
 76
     1
 77
     6
 78
     2
 67
     7
 79
     5
170
     0
171
     0
290
     0
174
     0
 93
       13
 44
0.0
173
     0
291
     1
 45
0.0
1001
ACAD
1000
AcDbSavedByObjectVersion
1070
     0
  0
VISUALSTYLE
  5
2D
102
{ACAD_REACTORS
330
2A
102
}
330
2A
100
AcDbVisualStyle
  2
Gouraud
 70
     2
 71
     2
 72
     2
 73
     1
 90
        2
 40
-0.6
 41
30.0
 62
     5
 63
     7
 74
     0
 91
        4
 64
     7
 65
   257
 75
     1
175
     1
 42
1.0
 92
        0
 66
     7
 43
1.0
 76
     1
 77
     6
 78
     2
 67
     7
 79
     5
170
     0
171
     0
290
     0
174
     0
 93
       13
 44
0.0
173
     0
291
     1
 45
0.0
1001
ACAD
1000
AcDbSavedByObjectVersion
1070
     0
  0
VISUALSTYLE
  5
2E
102
{ACAD_REACTORS
330
2A
102
}
330
2A
100
AcDbVisualStyle
  2
GouraudWithEdges
 70
     3
 71
     2
 72
     2
 73
     1
 90
        2
 40
-0.6
 41
30.0
 62
     5
 63
     7
 74
     1
 91
        4
 64
     7
 65
   257
 75
     1
175
     1
 42
1.0
 92
        0
 66
   257
 43
1.0
 76
     1
 77
     6
 78
     2
 67
     7
 79
     5
170
     0
171
     0
290
     0
174
     0
 93
       13
 44
0.0
173
     0
291
     1
 45
0.0
1001
ACAD
1000
AcDbSavedByObjectVersion
1070
     0
  0
VISUALSTYLE
  5
38
102
{ACAD_REACTORS
330
2A
102
}
330
2A
100
AcDbVisualStyle
  2
Linepattern
 70
    14
 71
     2
 72
     2
 73
     0
 90
        0
 40
-0.6
 41
-30.0
 62
     5
 63
     7
 74
     1
 91
        4
 64
     7
 65
   257
 75
     7
175
     7
 42
1.0
 92
        8
 66
     7
 43
1.0
 76
     1
 77
     6
 78
     2
 67
     7
 79
     5
170
     0
171
     0
290
     0
174
     0
 93
        1
 44
0.0
173
     0
291
     1
 45
0.0
1001
ACAD
1000
AcDbSavedByObjectVersion
1070
     0
  0
VISUALSTYLE
  5
33
102
{ACAD_REACTORS
330
2A
102
}
330
2A
100
AcDbVisualStyle
  2
Realistic
 70
     8
 71
     2
 72
     2
 73
     0
 90
        0
 40
-0.6
 41
-30.0
 62
     5
 63
     7
 74
     1
 91
        0
 64
     7
 65
   257
 75
     1
175
     1
 42
1.0
 92
        8
 66
     8
 43
1.0
 76
     1
 77
     6
 78
     2
 67
     7
 79
     5
170
     0
171
     0
290
     0
174
     0
 93
       13
 44
0.0
173
     0
291
     0
 45
0.0
1001
ACAD
1000
AcDbSavedByObjectVersion
1070
     0
  0
VISUALSTYLE
  5
37
102
{ACAD_REACTORS
330
2A
102
}
330
2A
100
AcDbVisualStyle
  2
Thicken
 70
    13
 71
     2
 72
     2
 73
     0
 90
        0
 40
-0.6
 41
-30.0
 62
     5
 63
     7
 74
     1
 91
        4
 64
     7
 65
   257
 75
     1
175
     1
 42
1.0
 92
       12
 66
     7
 43
1.0
 76
     1
 77
     6
 78
     2
 67
     7
 79
     5
170
     0
171
     0
290
     0
174
     0
 93
        1
 44
0.0
173
     0
291
     1
 45
0.0
1001
ACAD
1000
AcDbSavedByObjectVersion
1070
     0
  0
DICTIONARYVAR
  5
1E8
102
{ACAD_REACTORS
330
1E7
102
}
330
1E7
100
DictionaryVariables
280
     0
  1
1:1
  0
DICTIONARYVAR
  5
1EC
102
{ACAD_REACTORS
330
1E7
102
}
330
1E7
100
DictionaryVariables
280
     0
  1
80.000000
  0
DICTIONARYVAR
  5
1EB
102
{ACAD_REACTORS
330
1E7
102
}
330
1E7
100
DictionaryVariables
280
     0
  1
5.000000
  0
ENDSEC
  0
EOF
