  0
SECTION
  2
HEADER
  9
$ACADVER
  1
AC1015
  9
$ACADMAINTVER
 70
     6
  9
$DWGCODEPAGE
  3
ANSI_1252
  9
$INSBASE
 10
0.0
 20
0.0
 30
0.0
  9
$EXTMIN
 10
0.0
 20
0.0
 30
0.0
  9
$EXTMAX
 10
1682.0
 20
2378.0
 30
0.0
  9
$LIMMIN
 10
0.0
 20
0.0
  9
$LIMMAX
 10
1682.0
 20
2378.0
  9
$ORTHOMODE
 70
     0
  9
$REGENMODE
 70
     1
  9
$FILLMODE
 70
     1
  9
$QTEXTMODE
 70
     0
  9
$MIRRTEXT
 70
     1
  9
$LTSCALE
 40
1.0
  9
$ATTMODE
 70
     1
  9
$TEXTSIZE
 40
2.5
  9
$TRACEWID
 40
1.0
  9
$TEXTSTYLE
  7
Standard
  9
$CLAYER
  8
0
  9
$CELTYPE
  6
ByLayer
  9
$CECOLOR
 62
   256
  9
$CELTSCALE
 40
1.0
  9
$DISPSILH
 70
     0
  9
$DIMSCALE
 40
1.0
  9
$DIMASZ
 40
2.5
  9
$DIMEXO
 40
0.625
  9
$DIMDLI
 40
3.75
  9
$DIMRND
 40
0.0
  9
$DIMDLE
 40
0.0
  9
$DIMEXE
 40
1.25
  9
$DIMTP
 40
0.0
  9
$DIMTM
 40
0.0
  9
$DIMTXT
 40
2.5
  9
$DIMCEN
 40
2.5
  9
$DIMTSZ
 40
0.0
  9
$DIMTOL
 70
     0
  9
$DIMLIM
 70
     0
  9
$DIMTIH
 70
     0
  9
$DIMTOH
 70
     0
  9
$DIMSE1
 70
     0
  9
$DIMSE2
 70
     0
  9
$DIMTAD
 70
     1
  9
$DIMZIN
 70
     8
  9
$DIMBLK
  1

  9
$DIMASO
 70
     1
  9
$DIMSHO
 70
     1
  9
$DIMPOST
  1

  9
$DIMAPOST
  1

  9
$DIMALT
 70
     0
  9
$DIMALTD
 70
     3
  9
$DIMALTF
 40
0.0393700787
  9
$DIMLFAC
 40
1.0
  9
$DIMTOFL
 70
     1
  9
$DIMTVP
 40
0.0
  9
$DIMTIX
 70
     0
  9
$DIMSOXD
 70
     0
  9
$DIMSAH
 70
     0
  9
$DIMBLK1
  1

  9
$DIMBLK2
  1

  9
$DIMSTYLE
  2
ISO-25
  9
$DIMCLRD
 70
     0
  9
$DIMCLRE
 70
     0
  9
$DIMCLRT
 70
     0
  9
$DIMTFAC
 40
1.0
  9
$DIMGAP
 40
0.625
  9
$DIMJUST
 70
     0
  9
$DIMSD1
 70
     0
  9
$DIMSD2
 70
     0
  9
$DIMTOLJ
 70
     0
  9
$DIMTZIN
 70
     8
  9
$DIMALTZ
 70
     0
  9
$DIMALTTZ
 70
     0
  9
$DIMUPT
 70
     0
  9
$DIMDEC
 70
     2
  9
$DIMTDEC
 70
     2
  9
$DIMALTU
 70
     2
  9
$DIMALTTD
 70
     3
  9
$DIMTXSTY
  7
Standard
  9
$DIMAUNIT
 70
     0
  9
$DIMADEC
 70
     0
  9
$DIMALTRND
 40
0.0
  9
$DIMAZIN
 70
     0
  9
$DIMDSEP
 70
    44
  9
$DIMATFIT
 70
     3
  9
$DIMFRAC
 70
     0
  9
$DIMLDRBLK
  1

  9
$DIMLUNIT
 70
     2
  9
$DIMLWD
 70
    -2
  9
$DIMLWE
 70
    -2
  9
$DIMTMOVE
 70
     0
  9
$LUNITS
 70
     2
  9
$LUPREC
 70
     4
  9
$SKETCHINC
 40
1.0
  9
$FILLETRAD
 40
10.0
  9
$AUNITS
 70
     0
  9
$AUPREC
 70
     0
  9
$MENU
  1
.
  9
$ELEVATION
 40
0.0
  9
$PELEVATION
 40
0.0
  9
$THICKNESS
 40
0.0
  9
$LIMCHECK
 70
     0
  9
$CHAMFERA
 40
10.0
  9
$CHAMFERB
 40
10.0
  9
$CHAMFERC
 40
20.0
  9
$CHAMFERD
 40
0.0
  9
$SKPOLY
 70
     0
  9
$TDCREATE
 40
2455232.568184687
  9
$TDUCREATE
 40
2455232.526518021
  9
$TDUPDATE
 40
2455232.568184699
  9
$TDUUPDATE
 40
2455232.526518032
  9
$TDINDWG
 40
0.0000000116
  9
$TDUSRTIMER
 40
0.0000000116
  9
$USRTIMER
 70
     1
  9
$ANGBASE
 50
0.0
  9
$ANGDIR
 70
     0
  9
$PDMODE
 70
     0
  9
$PDSIZE
 40
0.0
  9
$PLINEWID
 40
0.0
  9
$SPLFRAME
 70
     0
  9
$SPLINETYPE
 70
     6
  9
$SPLINESEGS
 70
     8
  9
$HANDSEED
  5
163
  9
$SURFTAB1
 70
     6
  9
$SURFTAB2
 70
     6
  9
$SURFTYPE
 70
     6
  9
$SURFU
 70
     6
  9
$SURFV
 70
     6
  9
$UCSBASE
  2

  9
$UCSNAME
  2

  9
$UCSORG
 10
0.0
 20
0.0
 30
0.0
  9
$UCSXDIR
 10
1.0
 20
0.0
 30
0.0
  9
$UCSYDIR
 10
0.0
 20
1.0
 30
0.0
  9
$UCSORTHOREF
  2

  9
$UCSORTHOVIEW
 70
     0
  9
$UCSORGTOP
 10
0.0
 20
0.0
 30
0.0
  9
$UCSORGBOTTOM
 10
0.0
 20
0.0
 30
0.0
  9
$UCSORGLEFT
 10
0.0
 20
0.0
 30
0.0
  9
$UCSORGRIGHT
 10
0.0
 20
0.0
 30
0.0
  9
$UCSORGFRONT
 10
0.0
 20
0.0
 30
0.0
  9
$UCSORGBACK
 10
0.0
 20
0.0
 30
0.0
  9
$PUCSBASE
  2

  9
$PUCSNAME
  2

  9
$PUCSORG
 10
0.0
 20
0.0
 30
0.0
  9
$PUCSXDIR
 10
1.0
 20
0.0
 30
0.0
  9
$PUCSYDIR
 10
0.0
 20
1.0
 30
0.0
  9
$PUCSORTHOREF
  2

  9
$PUCSORTHOVIEW
 70
     0
  9
$PUCSORGTOP
 10
0.0
 20
0.0
 30
0.0
  9
$PUCSORGBOTTOM
 10
0.0
 20
0.0
 30
0.0
  9
$PUCSORGLEFT
 10
0.0
 20
0.0
 30
0.0
  9
$PUCSORGRIGHT
 10
0.0
 20
0.0
 30
0.0
  9
$PUCSORGFRONT
 10
0.0
 20
0.0
 30
0.0
  9
$PUCSORGBACK
 10
0.0
 20
0.0
 30
0.0
  9
$USERI1
 70
     0
  9
$USERI2
 70
     0
  9
$USERI3
 70
     0
  9
$USERI4
 70
     0
  9
$USERI5
 70
     0
  9
$USERR1
 40
0.0
  9
$USERR2
 40
0.0
  9
$USERR3
 40
0.0
  9
$USERR4
 40
0.0
  9
$USERR5
 40
0.0
  9
$WORLDVIEW
 70
     1
  9
$SHADEDGE
 70
     3
  9
$SHADEDIF
 70
    70
  9
$TILEMODE
 70
     1
  9
$MAXACTVP
 70
    64
  9
$PINSBASE
 10
0.0
 20
0.0
 30
0.0
  9
$PLIMCHECK
 70
     0
  9
$PEXTMIN
 10
0.0
 20
0.0
 30
0.0
  9
$PEXTMAX
 10
1682.0
 20
2378.0
 30
0.0
  9
$PLIMMIN
 10
0.0
 20
0.0
  9
$PLIMMAX
 10
1682.0
 20
2378.0
  9
$UNITMODE
 70
     0
  9
$VISRETAIN
 70
     1
  9
$PLINEGEN
 70
     0
  9
$PSLTSCALE
 70
     1
  9
$TREEDEPTH
 70
  3020
  9
$CMLSTYLE
  2
Standard
  9
$CMLJUST
 70
     0
  9
$CMLSCALE
 40
20.0
  9
$PROXYGRAPHICS
 70
     1
  9
$MEASUREMENT
 70
     1
  9
$CELWEIGHT
370
    -1
  9
$ENDCAPS
280
     0
  9
$JOINSTYLE
280
     0
  9
$LWDISPLAY
290
     0
  9
$INSUNITS
 70
     4
  9
$HYPERLINKBASE
  1

  9
$STYLESHEET
  1

  9
$XEDIT
290
     1
  9
$CEPSNTYPE
380
     0
  9
$PSTYLEMODE
290
     1
  9
$FINGERPRINTGUID
  2
{332FEB86-D5BE-4B2F-8F00-0A071123D567}
  9
$VERSIONGUID
  2
{FAEB1C32-E019-11D5-929B-00C0DF256EC4}
  9
$EXTNAMES
290
     1
  9
$PSVPSCALE
 40
0.0
  9
$OLESTARTUP
290
     0
  0
ENDSEC
  0
SECTION
  2
CLASSES
  0
CLASS
  1
ACDBDICTIONARYWDFLT
  2
AcDbDictionaryWithDefault
  3
ObjectDBX Classes
 90
        0
280
     0
281
     0
  0
CLASS
  1
VISUALSTYLE
  2
AcDbVisualStyle
  3
ObjectDBX Classes
 90
     4095
280
     0
281
     0
  0
CLASS
  1
SCALE
  2
AcDbScale
  3
ObjectDBX Classes
 90
     1153
280
     0
281
     0
  0
CLASS
  1
DICTIONARYVAR
  2
AcDbDictionaryVar
  3
ObjectDBX Classes
 90
        0
280
     0
281
     0
  0
CLASS
  1
ACDBPLACEHOLDER
  2
AcDbPlaceHolder
  3
ObjectDBX Classes
 90
        0
280
     0
281
     0
  0
CLASS
  1
LAYOUT
  2
AcDbLayout
  3
ObjectDBX Classes
 90
        0
280
     0
281
     0
  0
ENDSEC
  0
SECTION
  2
TABLES
  0
TABLE
  2
VPORT
  5
8
330
0
100
AcDbSymbolTable
 70
     1
  0
VPORT
  5
29
330
8
100
AcDbSymbolTableRecord
100
AcDbViewportTableRecord
  2
*Active
 70
     0
 10
0.0
 20
0.0
 11
1.0
 21
1.0
 12
344.1869158879
 22
148.5
 13
0.0
 23
0.0
 14
10.0
 24
10.0
 15
10.0
 25
10.0
 16
0.0
 26
0.0
 36
1.0
 17
0.0
 27
0.0
 37
0.0
 40
297.0
 41
1.9729729729
 42
50.0
 43
0.0
 44
0.0
 50
0.0
 51
0.0
 71
     0
 72
   100
 73
     1
 74
     3
 75
     0
 76
     0
 77
     0
 78
     0
281
     0
 65
     1
110
0.0
120
0.0
130
0.0
111
1.0
121
0.0
131
0.0
112
0.0
122
1.0
132
0.0
 79
     0
146
0.0
  0
ENDTAB
  0
TABLE
  2
LTYPE
  5
5
330
0
100
AcDbSymbolTable
 70
     2
  0
LTYPE
  5
14
330
5
100
AcDbSymbolTableRecord
100
AcDbLinetypeTableRecord
  2
ByBlock
 70
     0
  3

 72
    65
 73
     0
 40
0.0
  0
LTYPE
  5
15
330
5
100
AcDbSymbolTableRecord
100
AcDbLinetypeTableRecord
  2
ByLayer
 70
     0
  3

 72
    65
 73
     0
 40
0.0
  0
LTYPE
  5
16
330
5
100
AcDbSymbolTableRecord
100
AcDbLinetypeTableRecord
  2
Continuous
 70
     0
  3
Solid line
 72
    65
 73
     0
 40
0.0
  0
LTYPE
  5
AA
330
5
100
AcDbSymbolTableRecord
100
AcDbLinetypeTableRecord
  2
CENTER2
 70
     0
  3
Center (.5x) ___ _ ___ _ ___ _ ___ _ ___ _ ___
 72
    65
 73
     4
 40
28.575
 49
19.05
 74
     4
 75
     0
340
0
 46
0.0
 50
0.0
 44
0.0
 45
0.0
 49
-3.175
 74
     4
 75
     0
340
0
 46
0.0
 50
0.0
 44
0.0
 45
0.0
 49
3.175
 74
     4
 75
     0
340
0
 46
0.0
 50
0.0
 44
0.0
 45
0.0
 49
-3.175
 74
     4
 75
     0
340
0
 46
0.0
 50
0.0
 44
0.0
 45
0.0
  0
ENDTAB
  0
TABLE
  2
LAYER
  5
2
330
0
100
AcDbSymbolTable
 70
    13
  0
LAYER
  5
10
330
2
100
AcDbSymbolTableRecord
100
AcDbLayerTableRecord
  2
0
 70
     0
 62
     7
  6
Continuous
370
    -3
390
F
  0
LAYER
  5
5D
330
2
100
AcDbSymbolTableRecord
100
AcDbLayerTableRecord
  2
Default
 70
     0
 62
     7
  6
Continuous
370
    -3
390
F
  0
LAYER
  5
60
330
2
100
AcDbSymbolTableRecord
100
AcDbLayerTableRecord
  2
02636038_GEHÄUSE
 70
     0
 62
     7
  6
Continuous
370
    -3
390
F
  0
LAYER
  5
71
330
2
100
AcDbSymbolTableRecord
100
AcDbLayerTableRecord
  2
$DDT_AUDIT_GENERATED_(71)
 70
     0
 62
     7
  6
Continuous
370
    -3
390
F
  0
LAYER
  5
73
330
2
100
AcDbSymbolTableRecord
100
AcDbLayerTableRecord
  2
$DDT_AUDIT_GENERATED_(73)
 70
     0
 62
     7
  6
Continuous
370
    -3
390
F
  0
LAYER
  5
88
330
2
100
AcDbSymbolTableRecord
100
AcDbLayerTableRecord
  2
$DDT_AUDIT_GENERATED_(88)
 70
     0
 62
     7
  6
Continuous
370
    -3
390
F
  0
LAYER
  5
A7
330
2
100
AcDbSymbolTableRecord
100
AcDbLayerTableRecord
  2
DV1_Standard
 70
     0
 62
     7
  6
Continuous
370
    -3
390
F
  0
LAYER
  5
BE
330
2
100
AcDbSymbolTableRecord
100
AcDbLayerTableRecord
  2
$DDT_AUDIT_GENERATED_(BE)
 70
     0
 62
     7
  6
Continuous
370
    -3
390
F
  0
LAYER
  5
F7
330
2
100
AcDbSymbolTableRecord
100
AcDbLayerTableRecord
  2
$DDT_AUDIT_GENERATED_(F7)
 70
     0
 62
     7
  6
Continuous
370
    -3
390
F
  0
LAYER
  5
103
330
2
100
AcDbSymbolTableRecord
100
AcDbLayerTableRecord
  2
$DDT_AUDIT_GENERATED_(103)
 70
     0
 62
     7
  6
Continuous
370
    -3
390
F
  0
LAYER
  5
10B
330
2
100
AcDbSymbolTableRecord
100
AcDbLayerTableRecord
  2
DV2_Standard
 70
     0
 62
     7
  6
Continuous
370
    -3
390
F
  0
LAYER
  5
114
330
2
100
AcDbSymbolTableRecord
100
AcDbLayerTableRecord
  2
$DDT_AUDIT_GENERATED_(114)
 70
     0
 62
     7
  6
Continuous
370
    -3
390
F
  0
LAYER
  5
149
330
2
100
AcDbSymbolTableRecord
100
AcDbLayerTableRecord
  2
DV3_Standard
 70
     0
 62
     7
  6
Continuous
370
    -3
390
F
  0
ENDTAB
  0
TABLE
  2
STYLE
  5
3
330
0
100
AcDbSymbolTable
 70
     2
  0
STYLE
  5
11
330
3
100
AcDbSymbolTableRecord
100
AcDbTextStyleTableRecord
  2
Standard
 70
     0
 40
0.0
 41
1.0
 50
0.0
 71
     0
 42
2.5
  3
txt
  4

  0
STYLE
  5
152
330
3
100
AcDbSymbolTableRecord
100
AcDbTextStyleTableRecord
  2
SEACAD_seiso_ttf
 70
     0
 40
0.0
 41
1.0
 50
0.0
 71
     0
 42
0.2
  3
seiso.ttf
  4

  0
ENDTAB
  0
TABLE
  2
VIEW
  5
6
330
0
100
AcDbSymbolTable
 70
     0
  0
ENDTAB
  0
TABLE
  2
UCS
  5
7
330
0
100
AcDbSymbolTable
 70
     0
  0
ENDTAB
  0
TABLE
  2
APPID
  5
9
330
0
100
AcDbSymbolTable
 70
     1
  0
APPID
  5
12
330
9
100
AcDbSymbolTableRecord
100
AcDbRegAppTableRecord
  2
ACAD
 70
     0
  0
ENDTAB
  0
TABLE
  2
DIMSTYLE
  5
A
330
0
100
AcDbSymbolTable
 70
     1
100
AcDbDimStyleTable
  0
DIMSTYLE
105
27
330
A
100
AcDbSymbolTableRecord
100
AcDbDimStyleTableRecord
  2
ISO-25
 70
     0
 41
2.5
 42
0.625
 43
3.75
 44
1.25
 73
     0
 74
     0
 77
     1
 78
     8
140
2.5
141
2.5
143
0.0393700787
147
0.625
171
     3
172
     1
271
     2
272
     2
274
     3
278
    44
283
     0
284
     8
340
11
  0
ENDTAB
  0
TABLE
  2
BLOCK_RECORD
  5
1
330
0
100
AcDbSymbolTable
 70
     4
  0
BLOCK_RECORD
  5
1F
330
1
100
AcDbSymbolTableRecord
100
AcDbBlockTableRecord
  2
*Model_Space
340
22
  0
BLOCK_RECORD
  5
1B
330
1
100
AcDbSymbolTableRecord
100
AcDbBlockTableRecord
  2
*Paper_Space
340
1E
  0
BLOCK_RECORD
  5
5E
330
1
100
AcDbSymbolTableRecord
100
AcDbBlockTableRecord
  2
SE
340
0
102
{BLKREFS
331
5F
102
}
  0
BLOCK_RECORD
  5
AF
330
1
100
AcDbSymbolTableRecord
100
AcDbBlockTableRecord
  2
SE1
340
0
102
{BLKREFS
331
B0
102
}
  0
BLOCK_RECORD
  5
112
330
1
100
AcDbSymbolTableRecord
100
AcDbBlockTableRecord
  2
SE2
340
0
102
{BLKREFS
331
113
102
}
  0
ENDTAB
  0
ENDSEC
  0
SECTION
  2
BLOCKS
  0
BLOCK
  5
20
330
1F
100
AcDbEntity
  8
0
100
AcDbBlockBegin
  2
*Model_Space
 70
     0
 10
0.0
 20
0.0
 30
0.0
  3
*Model_Space
  1

  0
ENDBLK
  5
21
330
1F
100
AcDbEntity
  8
0
100
AcDbBlockEnd
  0
BLOCK
  5
1C
330
1B
100
AcDbEntity
 67
     1
  8
0
100
AcDbBlockBegin
  2
*Paper_Space
 70
     0
 10
0.0
 20
0.0
 30
0.0
  3
*Paper_Space
  1

  0
ENDBLK
  5
1D
330
1B
100
AcDbEntity
 67
     1
  8
0
100
AcDbBlockEnd
  0
BLOCK
  5
AD
330
5E
100
AcDbEntity
  8
0
100
AcDbBlockBegin
  2
SE
 70
     0
 10
0.0
 20
0.0
 30
0.0
  3
SE
  1

  0
ELLIPSE
  5
61
330
5E
100
AcDbEntity
  8
02636038_GEHÄUSE
  6
Continuous
 62
     7
100
AcDbEllipse
 10
42.5380298151
 20
476.7026843256
 30
0.0
 11
10.75000000000001
 21
0.0
 31
0.0
210
0.0
220
0.0
230
1.0
 40
0.3090169944
 41
0.0
 42
6.283185307179586
  0
LINE
  5
62
330
5E
100
AcDbEntity
  8
02636038_GEHÄUSE
  6
Continuous
 62
     7
100
AcDbLine
 10
31.5380298151
 20
477.8039588465
 30
0.0
 11
31.5380298151
 21
476.205411814
 31
0.0
  0
ELLIPSE
  5
63
330
5E
100
AcDbEntity
  8
02636038_GEHÄUSE
  6
Continuous
 62
     7
100
AcDbEllipse
 10
42.5380298151
 20
479.5558538745
 30
0.0
 11
11.80000000000018
 21
5.551115123125783E-14
 31
0.0
210
0.0
220
0.0
230
1.0
 40
0.3090169944
 41
2.771250021498079
 42
3.511935285681501
  0
LINE
  5
64
330
5E
100
AcDbEntity
  8
02636038_GEHÄUSE
  6
Continuous
 62
     7
100
AcDbLine
 10
31.5380298151
 20
480.8756133266
 30
0.0
 11
31.5380298151
 21
479.1480838859
 31
0.0
  0
LINE
  5
65
330
5E
100
AcDbEntity
  8
02636038_GEHÄUSE
  6
Continuous
 62
     7
100
AcDbLine
 10
31.5380298151
 20
479.1480838859
 30
0.0
 11
31.5380298151
 21
477.8039588465
 31
0.0
  0
LINE
  5
66
330
5E
100
AcDbEntity
  8
02636038_GEHÄUSE
  6
Continuous
 62
     7
100
AcDbLine
 10
31.5380298151
 20
476.1104316775
 30
0.0
 11
31.5380298151
 21
476.205411814
 31
0.0
  0
LINE
  5
67
330
5E
100
AcDbEntity
  8
02636038_GEHÄUSE
  6
Continuous
 62
     7
100
AcDbLine
 10
53.5380298151
 20
476.205411814
 30
0.0
 11
53.5380298151
 21
477.8039588465
 31
0.0
  0
ELLIPSE
  5
68
330
5E
100
AcDbEntity
  8
02636038_GEHÄUSE
  6
Continuous
 62
     7
100
AcDbEllipse
 10
42.5380298151
 20
479.5558538745
 30
0.0
 11
-11.79999999999996
 21
0.0
 31
0.0
210
0.0
220
0.0
230
1.0
 40
0.3090169944
 41
2.771250021498077
 42
3.511935285681509
  0
LINE
  5
69
330
5E
100
AcDbEntity
  8
02636038_GEHÄUSE
  6
Continuous
 62
     7
100
AcDbLine
 10
53.5380298151
 20
476.205411814
 30
0.0
 11
53.5380298151
 21
476.1103263245
 31
0.0
  0
LINE
  5
6A
330
5E
100
AcDbEntity
  8
02636038_GEHÄUSE
  6
Continuous
 62
     7
100
AcDbLine
 10
53.5380298151
 20
477.8039588465
 30
0.0
 11
53.5380298151
 21
479.1480838859
 31
0.0
  0
LINE
  5
6B
330
5E
100
AcDbEntity
  8
02636038_GEHÄUSE
  6
Continuous
 62
     7
100
AcDbLine
 10
53.5380298151
 20
479.1480838859
 30
0.0
 11
53.5380298151
 21
480.8756133266
 31
0.0
  0
ARC
  5
6C
330
5E
100
AcDbEntity
  8
02636038_GEHÄUSE
  6
Continuous
 62
     7
100
AcDbCircle
 10
50.2121888691
 20
479.5512847152
 30
0.0
 40
4.781893375203428
100
AcDbArc
 50
297.634339276
 51
314.0479183293
  0
ARC
  5
6D
330
5E
100
AcDbEntity
  8
02636038_GEHÄUSE
  6
Continuous
 62
     7
100
AcDbCircle
 10
35.5372554948
 20
480.4549663622
 30
0.0
 40
5.90232996130857
100
AcDbArc
 50
227.3470853904
 51
238.7632578542
  0
ARC
  5
6E
330
5E
100
AcDbEntity
  8
02636038_GEHÄUSE
  6
Continuous
 62
     7
100
AcDbCircle
 10
35.5372554948
 20
480.4549663622
 30
0.0
 40
5.90232996130857
100
AcDbArc
 50
238.9688992698
 51
247.5690265686
  0
LINE
  5
6F
330
5E
100
AcDbEntity
  8
02636038_GEHÄUSE
  6
Continuous
 62
     7
100
AcDbLine
 10
30.7380298151
 20
482.3840284645
 30
0.0
 11
30.7380298151
 21
479.5558538745
 31
0.0
  0
LINE
  5
70
330
5E
100
AcDbEntity
  8
02636038_GEHÄUSE
  6
Continuous
 62
     7
100
AcDbLine
 10
54.3380298151
 20
479.5558538745
 30
0.0
 11
54.3380298151
 21
482.3879449756
 31
0.0
  0
ELLIPSE
  5
72
330
5E
100
AcDbEntity
  8
$DDT_AUDIT_GENERATED_(71)
  6
Continuous
 62
     7
100
AcDbEllipse
 10
42.5380298151
 20
476.3222617191
 30
0.0
 11
-9.000000000000002
 21
0.0
 31
0.0
210
0.0
220
0.0
230
1.0
 40
0.3090169944
 41
0.0
 42
6.283185307179586
  0
SPLINE
  5
74
330
5E
100
AcDbEntity
  8
$DDT_AUDIT_GENERATED_(73)
  6
Continuous
 62
     7
100
AcDbSpline
210
0.0
220
0.0
230
1.0
 70
     8
 71
     5
 72
    12
 73
     6
 74
     0
 42
0.0000000006777054
 43
0.0000000001
 40
0.0
 40
0.0
 40
0.0
 40
0.0
 40
0.0
 40
0.0
 40
1.0
 40
1.0
 40
1.0
 40
1.0
 40
1.0
 40
1.0
 10
30.30762473701892
 20
481.8626320876485
 30
0.0
 10
26.89750747007757
 20
482.3296429781698
 30
0.0
 10
23.60356717361232
 20
483.0882967784507
 30
0.0
 10
20.85155696857325
 20
484.3121637957919
 30
0.0
 10
19.53802981319264
 20
486.2434671669567
 30
0.0
 10
19.53803029017236
 20
488.8294827896724
 30
0.0
  0
LINE
  5
75
330
5E
100
AcDbEntity
  8
$DDT_AUDIT_GENERATED_(73)
  6
Continuous
 62
     7
100
AcDbLine
 10
19.5380822897
 20
402.1400611793
 30
0.0
 11
19.5380302902
 21
488.8294827897
 31
0.0
  0
SPLINE
  5
76
330
5E
100
AcDbEntity
  8
$DDT_AUDIT_GENERATED_(73)
  6
Continuous
 62
     7
100
AcDbSpline
210
0.0
220
0.0
230
1.0
 70
     8
 71
     3
 72
    25
 73
    21
 74
     0
 42
0.0000000004248771
 43
0.0000000001
 40
0.0
 40
0.0
 40
0.0
 40
0.0
 40
0.0420655794558337
 40
0.0856264160488378
 40
0.1308850115853877
 40
0.1777948649629102
 40
0.2259526916541033
 40
0.2755864947351331
 40
0.3270049685362535
 40
0.3804242911119573
 40
0.435092804661703
 40
0.4911589858004133
 40
0.5490638680288242
 40
0.6089530785755264
 40
0.6699676300486593
 40
0.7325178187979725
 40
0.7972006904772865
 40
0.8632524651355002
 40
0.930598704290962
 40
1.0
 40
1.0
 40
1.0
 40
1.0
 10
42.53802981509436
 20
500.2188196483976
 30
0.0
 10
42.03143904542353
 20
500.2176236872736
 30
0.0
 10
41.00046204675115
 20
500.2151894676614
 30
0.0
 10
39.43162076524543
 20
500.1950978377222
 30
0.0
 10
37.81996009536552
 20
500.1615296597165
 30
0.0
 10
36.17846016841514
 20
500.1120636927971
 30
0.0
 10
34.52142181202103
 20
500.0459345108605
 30
0.0
 10
32.86100594248254
 20
499.961820328771
 30
0.0
 10
31.2045444441524
 20
499.8582786123578
 30
0.0
 10
29.57151860106065
 20
499.7346563217412
 30
0.0
 10
27.98461468150498
 20
499.5906452444971
 30
0.0
 10
26.46553612985093
 20
499.4260263799729
 30
0.0
 10
25.03152831761159
 20
499.2397476567864
 30
0.0
 10
23.70851046605557
 20
499.0323466514762
 30
0.0
 10
22.52123438657234
 20
498.8049346836933
 30
0.0
 10
21.49344642087468
 20
498.5583249953862
 30
0.0
 10
20.65153550459686
 20
498.2934110110958
 30
0.0
 10
20.02712328706165
 20
498.012558437634
 30
0.0
 10
19.61703329266392
 20
497.7184119844147
 30
0.0
 10
19.56462710649464
 20
497.5176927407559
 30
0.0
 10
19.53803030795091
 20
497.4158242374838
 30
0.0
  0
LINE
  5
77
330
5E
100
AcDbEntity
  8
$DDT_AUDIT_GENERATED_(73)
  6
Continuous
 62
     7
100
AcDbLine
 10
19.5380302919
 20
497.415836919
 30
0.0
 11
19.5380302919
 21
488.8295663134
 31
0.0
  0
LINE
  5
78
330
5E
100
AcDbEntity
  8
$DDT_AUDIT_GENERATED_(73)
  6
Continuous
 62
     7
100
AcDbLine
 10
19.5381352283
 20
402.1400612937
 30
0.0
 11
19.5378461878
 21
402.1400611592
 31
0.0
  0
LINE
  5
79
330
5E
100
AcDbEntity
  8
$DDT_AUDIT_GENERATED_(73)
  6
Continuous
 62
     7
100
AcDbLine
 10
19.5381352411
 20
402.1400611816
 30
0.0
 11
19.5382880424
 21
398.3418760328
 31
0.0
  0
LINE
  5
7A
330
5E
100
AcDbEntity
  8
$DDT_AUDIT_GENERATED_(73)
  6
Continuous
 62
     7
100
AcDbLine
 10
19.5379988055
 20
398.3418760155
 30
0.0
 11
19.5378461875
 21
402.1400610109
 31
0.0
  0
SPLINE
  5
7B
330
5E
100
AcDbEntity
  8
$DDT_AUDIT_GENERATED_(73)
  6
Continuous
 62
     7
100
AcDbSpline
210
0.0
220
0.0
230
1.0
 70
     8
 71
     3
 72
    11
 73
     7
 74
     0
 42
0.0000000004222036
 43
0.0000000001
 40
0.0
 40
0.0
 40
0.0
 40
0.0
 40
0.2500007188940135
 40
0.5000014377880271
 40
0.7500021566820406
 40
1.0
 40
1.0
 40
1.0
 40
1.0
 10
42.53802981509436
 20
500.2188196483976
 30
0.0
 10
45.54842159897732
 20
500.2188180946372
 30
0.0
 10
51.56899170456636
 20
500.0728680814046
 30
0.0
 10
59.22496478412336
 20
499.4494323249596
 30
0.0
 10
64.34048367180641
 20
498.5164018517785
 30
0.0
 10
65.53802921639378
 20
497.7826824683272
 30
0.0
 10
65.53802932223782
 20
497.4158242374838
 30
0.0
  0
LINE
  5
7C
330
5E
100
AcDbEntity
  8
$DDT_AUDIT_GENERATED_(73)
  6
Continuous
 62
     7
100
AcDbLine
 10
65.5379773405
 20
402.1400611793
 30
0.0
 11
65.53802934
 21
488.8294827897
 31
0.0
  0
SPLINE
  5
7D
330
5E
100
AcDbEntity
  8
$DDT_AUDIT_GENERATED_(73)
  6
Continuous
 62
     7
100
AcDbSpline
210
0.0
220
0.0
230
1.0
 70
     8
 71
     5
 72
    12
 73
     6
 74
     0
 42
0.0000000006777054
 43
0.0000000001
 40
0.0
 40
0.0
 40
0.0
 40
0.0
 40
0.0
 40
0.0
 40
1.0
 40
1.0
 40
1.0
 40
1.0
 40
1.0
 40
1.0
 10
54.7684348924415
 20
481.8626320207477
 30
0.0
 10
58.17855197920522
 20
482.3296430427412
 30
0.0
 10
61.4724921171512
 20
483.0882968302332
 30
0.0
 10
64.22450222290183
 20
484.3121638270474
 30
0.0
 10
65.53802934015995
 20
486.2434671970103
 30
0.0
 10
65.53802934001637
 20
488.8294827896724
 30
0.0
  0
LINE
  5
7E
330
5E
100
AcDbEntity
  8
$DDT_AUDIT_GENERATED_(73)
  6
Continuous
 62
     7
100
AcDbLine
 10
65.5380608246
 20
398.3418760161
 30
0.0
 11
65.5382134426
 21
402.1400610109
 31
0.0
  0
LINE
  5
7F
330
5E
100
AcDbEntity
  8
$DDT_AUDIT_GENERATED_(73)
  6
Continuous
 62
     7
100
AcDbLine
 10
65.5379243891
 20
402.1400611816
 30
0.0
 11
65.5377715878
 21
398.3418760251
 31
0.0
  0
LINE
  5
80
330
5E
100
AcDbEntity
  8
$DDT_AUDIT_GENERATED_(73)
  6
Continuous
 62
     7
100
AcDbLine
 10
65.5380293383
 20
497.415836919
 30
0.0
 11
65.5380293383
 21
488.8295663134
 31
0.0
  0
SPLINE
  5
81
330
5E
100
AcDbEntity
  8
$DDT_AUDIT_GENERATED_(73)
  6
Continuous
 62
     7
100
AcDbSpline
210
0.0
220
0.0
230
1.0
 70
     8
 71
     3
 72
     8
 73
     4
 74
     0
 42
0.000000002433294
 43
0.0000000001
 40
0.0
 40
0.0
 40
0.0
 40
0.0
 40
0.1411700834549531
 40
0.1411700834549531
 40
0.1411700834549531
 40
0.1411700834549531
 10
54.7684348924415
 20
481.8626320207477
 30
0.0
 10
54.7192452002981
 20
481.7468526567743
 30
0.0
 10
54.57900224334896
 20
481.620033647436
 30
0.0
 10
54.34959960850865
 20
481.4868019054196
 30
0.0
  0
SPLINE
  5
82
330
5E
100
AcDbEntity
  8
$DDT_AUDIT_GENERATED_(73)
  6
Continuous
 62
     7
100
AcDbSpline
210
0.0
220
0.0
230
1.0
 70
     8
 71
     3
 72
     8
 73
     4
 74
     0
 42
0.0000000024187499
 43
0.0000000001
 40
0.8593398417792407
 40
0.8593398417792407
 40
0.8593398417792407
 40
0.8593398417792407
 40
1.0
 40
1.0
 40
1.0
 40
1.0
 10
30.72810990249432
 20
481.4864922301555
 30
0.0
 10
30.49862991456425
 20
481.6198347227468
 30
0.0
 10
30.35663142406917
 20
481.7472834319852
 30
0.0
 10
30.30762473701892
 20
481.8626320876485
 30
0.0
  0
SPLINE
  5
83
330
5E
100
AcDbEntity
  8
$DDT_AUDIT_GENERATED_(73)
  6
Continuous
 62
     7
100
AcDbSpline
210
0.0
220
0.0
230
1.0
 70
     8
 71
     3
 72
    26
 73
    22
 74
     0
 42
0.0000000003913247
 43
0.0000000001
 40
0.0
 40
0.0
 40
0.0
 40
0.0
 40
0.1250000000000002
 40
0.1250000000000002
 40
0.2500000000000004
 40
0.2500000000000004
 40
0.3125000000000006
 40
0.3125000000000006
 40
0.3750000000000007
 40
0.3750000000000007
 40
0.5000000000000006
 40
0.5000000000000006
 40
0.5625000000000004
 40
0.5625000000000004
 40
0.6250000000000003
 40
0.6250000000000003
 40
0.7500000000000002
 40
0.7500000000000002
 40
0.8750000000000001
 40
0.8750000000000001
 40
1.0
 40
1.0
 40
1.0
 40
1.0
 10
30.30762473701892
 20
481.8626320876485
 30
0.0
 10
30.21366359874625
 20
482.0811874715691
 30
0.0
 10
30.45995367952608
 20
482.3016611254762
 30
0.0
 10
31.58484584532624
 20
482.7164546374865
 30
0.0
 10
32.47101235706764
 20
482.9112410361947
 30
0.0
 10
34.16797105810936
 20
483.1566109900326
 30
0.0
 10
34.80640366335818
 20
483.2322572906671
 30
0.0
 10
36.16632201669102
 20
483.36270385721
 30
0.0
 10
36.88973153994196
 20
483.4181675311686
 30
0.0
 10
39.1929419250862
 20
483.555101406501
 30
0.0
 10
40.85899653164171
 20
483.6029215985601
 30
0.0
 10
43.3861756420931
 20
483.6027608439852
 30
0.0
 10
44.21577648580546
 20
483.5910205002837
 30
0.0
 10
45.85010325902929
 20
483.5443940494786
 30
0.0
 10
46.66157246777195
 20
483.5088966356149
 30
0.0
 10
48.95397255052645
 20
483.3723731649208
 30
0.0
 10
50.34874767006376
 20
483.2376807972203
 30
0.0
 10
52.60881881260484
 20
482.9105023345495
 30
0.0
 10
53.49404737581986
 20
482.7156896455684
 30
0.0
 10
54.61694966806258
 20
482.3010692266722
 30
0.0
 10
54.86239537070841
 20
482.0811859346891
 30
0.0
 10
54.7684348924415
 20
481.8626320207477
 30
0.0
  0
LINE
  5
84
330
5E
100
AcDbEntity
  8
$DDT_AUDIT_GENERATED_(73)
  6
Continuous
 62
     7
100
AcDbLine
 10
19.5383688285
 20
398.341876036
 30
0.0
 11
42.5380298151
 21
398.3418760174
 31
0.0
  0
LINE
  5
85
330
5E
100
AcDbEntity
  8
$DDT_AUDIT_GENERATED_(73)
  6
Continuous
 62
     7
100
AcDbLine
 10
42.5380298151
 20
398.3418760174
 30
0.0
 11
65.5376908017
 21
398.341876036
 31
0.0
  0
SPLINE
  5
86
330
5E
100
AcDbEntity
  8
$DDT_AUDIT_GENERATED_(73)
  6
Continuous
 62
     7
100
AcDbSpline
210
0.0
220
0.0
230
1.0
 70
     8
 71
     3
 72
    55
 73
    51
 74
     0
 42
0.0000000004174138
 43
0.0000000001
 40
0.0
 40
0.0
 40
0.0
 40
0.0
 40
0.0428360123994615
 40
0.0875395022769418
 40
0.1280571854888224
 40
0.1643833885827127
 40
0.1965136785496867
 40
0.2244451426720992
 40
0.2488221773320299
 40
0.2710341525845932
 40
0.2911268663844734
 40
0.3090985706267954
 40
0.3335265682017074
 40
0.3612499037841904
 40
0.3929896974127937
 40
0.4297287296792983
 40
0.4553970881693812
 40
0.4822381256072426
 40
0.5052047817223286
 40
0.5234250760576793
 40
0.5368892077599294
 40
0.5507061151539236
 40
0.5701840745222201
 40
0.5941837070322904
 40
0.6185750365988745
 40
0.643006466298194
 40
0.6665501486525812
 40
0.682122718339988
 40
0.6949066757102531
 40
0.7075992637103359
 40
0.72405714027923
 40
0.7443307831116097
 40
0.7646930553777179
 40
0.7828972468321148
 40
0.7960830220572156
 40
0.8091875344703249
 40
0.8241000799525672
 40
0.8408655675477043
 40
0.86031644367265
 40
0.8769325558056404
 40
0.8953121985897239
 40
0.914716686633648
 40
0.9312932205700726
 40
0.9445093761621649
 40
0.9564564412242362
 40
0.9627289628713827
 40
0.9703454026445201
 40
0.9778079320849854
 40
0.9875749814672035
 40
1.0
 40
1.0
 40
1.0
 40
1.0
 10
42.53802672843507
 20
501.6571675209496
 30
0.0
 10
42.03003997920533
 20
501.6564847171971
 30
0.0
 10
41.15426872503048
 20
501.6548038413622
 30
0.0
 10
39.75126320500171
 20
501.6367163735545
 30
0.0
 10
38.46408728501861
 20
501.6101502527667
 30
0.0
 10
37.31572622546432
 20
501.577717669726
 30
0.0
 10
36.31498601370283
 20
501.542554318173
 30
0.0
 10
35.44998342680017
 20
501.5067523676771
 30
0.0
 10
34.69707267909425
 20
501.4713418247852
 30
0.0
 10
34.03286910452315
 20
501.4366422655334
 30
0.0
 10
33.44077823908414
 20
501.402838655866
 30
0.0
 10
32.83510897069034
 20
501.3655541776823
 30
0.0
 10
32.16585983253006
 20
501.3209317337573
 30
0.0
 10
31.38180344027076
 20
501.2635356938973
 30
0.0
 10
30.50601865409911
 20
501.1925787332254
 30
0.0
 10
29.67712487431713
 20
501.1174569882905
 30
0.0
 10
28.91850349842836
 20
501.0415322574222
 30
0.0
 10
28.29737004846076
 20
500.9740499887632
 30
0.0
 10
27.7557271337362
 20
500.9104675244004
 30
0.0
 10
27.33278394900555
 20
500.8575312712957
 30
0.0
 10
26.98802710333613
 20
500.8122123253609
 30
0.0
 10
26.63837215097286
 20
500.7642637415229
 30
0.0
 10
26.22037650380242
 20
500.7038752341051
 30
0.0
 10
25.74272426864478
 20
500.6299882043328
 30
0.0
 10
25.2505715802252
 20
500.5477665002953
 30
0.0
 10
24.78264710197098
 20
500.4631440173577
 30
0.0
 10
24.39062493890637
 20
500.3863487580292
 30
0.0
 10
24.08398603550141
 20
500.3221120125194
 30
0.0
 10
23.84977898543949
 20
500.2705548161475
 30
0.0
 10
23.6147748541695
 20
500.2164085252283
 30
0.0
 10
23.34266690486595
 20
500.1502049246358
 30
0.0
 10
23.04118929170604
 20
500.071383371723
 30
0.0
 10
22.74640689543777
 20
499.9876169762862
 30
0.0
 10
22.50021315217857
 20
499.9116140603875
 30
0.0
 10
22.29382193313321
 20
499.8432018887947
 30
0.0
 10
22.10538288304954
 20
499.7766642349762
 30
0.0
 10
21.90685903106348
 20
499.7013124861057
 30
0.0
 10
21.69342378478301
 20
499.6133233461603
 30
0.0
 10
21.47035396549592
 20
499.5113457571548
 30
0.0
 10
21.24582157414074
 20
499.3956331352316
 30
0.0
 10
21.03104435047216
 20
499.270002592878
 30
0.0
 10
20.83257119522913
 20
499.136484599473
 30
0.0
 10
20.65640624034658
 20
498.9984212670563
 30
0.0
 10
20.51868464616478
 20
498.8767976073066
 30
0.0
 10
20.37714495782106
 20
498.7356224201789
 30
0.0
 10
20.24331061120241
 20
498.5838489799857
 30
0.0
 10
20.11859575477135
 20
498.4277696975699
 30
0.0
 10
19.97000094532315
 20
498.2203967709103
 30
0.0
 10
19.7970860472557
 20
497.9555034055547
 30
0.0
 10
19.68658254125026
 20
497.7673632883555
 30
0.0
 10
19.61340759476278
 20
497.6416218072931
 30
0.0
  0
SPLINE
  5
87
330
5E
100
AcDbEntity
  8
$DDT_AUDIT_GENERATED_(73)
  6
Continuous
 62
     7
100
AcDbSpline
210
0.0
220
0.0
230
1.0
 70
     8
 71
     3
 72
    48
 73
    44
 74
     0
 42
0.0000000004174015
 43
0.0000000001
 40
0.0
 40
0.0
 40
0.0
 40
0.0
 40
0.0148531861258327
 40
0.0255036302867882
 40
0.0332852433178401
 40
0.0410632608916416
 40
0.0583149483741351
 40
0.0721918785802751
 40
0.0827995373942617
 40
0.0930454342823403
 40
0.1111410683137453
 40
0.1316906713894404
 40
0.1594471022627204
 40
0.1898727568062173
 40
0.2209225611992626
 40
0.2538373932853429
 40
0.2807056878014085
 40
0.3110366459707992
 40
0.3468622913016139
 40
0.3831957883648147
 40
0.4188411656282149
 40
0.4526277977391213
 40
0.4762798251469395
 40
0.4966204836720911
 40
0.5174753857606613
 40
0.5428137445297878
 40
0.5726253046070325
 40
0.5987389142205624
 40
0.6220510662121991
 40
0.6411082326679216
 40
0.6559185394985192
 40
0.6673122735657149
 40
0.6817128098321935
 40
0.6985053357086085
 40
0.7178000882201607
 40
0.7418945853194782
 40
0.7716920875360486
 40
0.8008781158516702
 40
0.8340199490241154
 40
0.8711139634819147
 40
0.9121545693627737
 40
0.9571346035473628
 40
1.0
 40
1.0
 40
1.0
 40
1.0
 10
65.46265203542556
 20
497.6416218072936
 30
0.0
 10
65.37443326705335
 20
497.7928992653657
 30
0.0
 10
65.24640117408538
 20
498.0098400241923
 30
0.0
 10
65.04749931712996
 20
498.3062695610029
 30
0.0
 10
64.890140811185
 20
498.5144370306959
 30
0.0
 10
64.72754375077908
 20
498.7064684695181
 30
0.0
 10
64.58155498582185
 20
498.8557783148595
 30
0.0
 10
64.39737138952252
 20
499.0171323876854
 30
0.0
 10
64.26220392580798
 20
499.1205669282742
 30
0.0
 10
64.11963165915438
 20
499.2209761456482
 30
0.0
 10
63.93534096920668
 20
499.3367870588944
 30
0.0
 10
63.67726767066952
 20
499.4776440836214
 30
0.0
 10
63.36076542159794
 20
499.6253307292654
 30
0.0
 10
62.97860223195909
 20
499.7767826988162
 30
0.0
 10
62.54461506584029
 20
499.9241616314141
 30
0.0
 10
62.09676009935541
 20
500.055825573955
 30
0.0
 10
61.61640058762392
 20
500.1805553595128
 30
0.0
 10
61.09906484843837
 20
500.3009031080501
 30
0.0
 10
60.48907844627173
 20
500.4271598421554
 30
0.0
 10
59.79875395683175
 20
500.5536917305312
 30
0.0
 10
59.07575225433138
 20
500.6716550594643
 30
0.0
 10
58.40112398780434
 20
500.770299821049
 30
0.0
 10
57.8130411083924
 20
500.8489116525527
 30
0.0
 10
57.30908712953912
 20
500.9118228967646
 30
0.0
 10
56.77919664393109
 20
500.9738682333872
 30
0.0
 10
56.15493606366591
 20
501.0419042621643
 30
0.0
 10
55.46460670893187
 20
501.1109270577904
 30
0.0
 10
54.7698520284455
 20
501.1745002272179
 30
0.0
 10
54.15366337473706
 20
501.2265394305853
 30
0.0
 10
53.62865285396481
 20
501.2678545315304
 30
0.0
 10
53.20680710178544
 20
501.2991788162407
 30
0.0
 10
52.82457441141671
 20
501.3262848021272
 30
0.0
 10
52.41969219994981
 20
501.3536955064004
 30
0.0
 10
51.93391941201857
 20
501.3847362586532
 30
0.0
 10
51.34704225619631
 20
501.4197169481016
 30
0.0
 10
50.62317120464592
 20
501.4592209020489
 30
0.0
 10
49.78751623919013
 20
501.4997366937592
 30
0.0
 10
48.84556004510836
 20
501.5393737496501
 30
0.0
 10
47.81419870805078
 20
501.5760639566933
 30
0.0
 10
46.64180763179402
 20
501.6094651363132
 30
0.0
 10
45.33790875718127
 20
501.6365286877365
 30
0.0
 10
43.92546043715033
 20
501.6547909811459
 30
0.0
 10
43.04643349498647
 20
501.6564821353926
 30
0.0
 10
42.53803292470598
 20
501.6571666773024
 30
0.0
  0
ELLIPSE
  5
89
330
5E
100
AcDbEntity
  8
$DDT_AUDIT_GENERATED_(88)
  6
Continuous
 62
     7
100
AcDbEllipse
 10
42.5380298151
 20
526.1264059489
 30
0.0
 11
-19.12136488320001
 21
-2.775557561562891E-14
 31
0.0
210
0.0
220
0.0
230
1.0
 40
0.2407663593
 41
3.14595837167598
 42
6.278855848995598
  0
ARC
  5
8A
330
5E
100
AcDbEntity
  8
$DDT_AUDIT_GENERATED_(88)
  6
Continuous
 62
     7
100
AcDbCircle
 10
59.7630752315
 20
526.093905994
 30
0.0
 40
1.89728109955352
100
AcDbArc
 50
0.0346851733
 51
1.0406410357
  0
SPLINE
  5
8B
330
5E
100
AcDbEntity
  8
$DDT_AUDIT_GENERATED_(88)
  6
Continuous
 62
     7
100
AcDbSpline
210
0.0
220
0.0
230
1.0
 70
     8
 71
     2
 72
     8
 73
     5
 74
     0
 42
0.0000000003989132
 43
0.0000000001
 40
0.0859375
 40
0.0859375
 40
0.0859375
 40
0.09375
 40
0.09375
 40
0.0957031250032257
 40
0.0957031250032257
 40
0.0957031250032257
 10
61.66068206151043
 20
523.3882883891443
 30
0.0
 10
61.66068551800831
 20
523.2701213906581
 30
0.0
 10
61.66069174586929
 20
523.1518095875609
 30
0.0
 10
61.6606918811183
 20
523.1492402375957
 30
0.0
 10
61.66069200034932
 20
523.143482631307
 30
0.0
  0
SPLINE
  5
8C
330
5E
100
AcDbEntity
  8
$DDT_AUDIT_GENERATED_(88)
  6
Continuous
 62
     7
100
AcDbSpline
210
0.0
220
0.0
230
1.0
 70
     8
 71
     3
 72
    12
 73
     8
 74
     0
 42
0.0000000012549591
 43
0.0000000001
 40
0.0
 40
0.0
 40
0.0
 40
0.0
 40
0.2499999999999998
 40
0.2499999999999998
 40
0.4999999999999998
 40
0.4999999999999998
 40
1.0
 40
1.0
 40
1.0
 40
1.0
 10
54.17716878952436
 20
504.4221358601324
 30
0.0
 10
54.98267241067906
 20
504.5643162888834
 30
0.0
 10
55.74633170995503
 20
504.7367570127428
 30
0.0
 10
57.17402842315166
 20
505.1440421313439
 30
0.0
 10
57.8379852352867
 20
505.3788903447585
 30
0.0
 10
59.65026929856545
 20
506.1801826069239
 30
0.0
 10
60.62068863329979
 20
506.8431302235845
 30
0.0
 10
61.25308649473436
 20
507.6457795355955
 30
0.0
  0
ARC
  5
8D
330
5E
100
AcDbEntity
  8
$DDT_AUDIT_GENERATED_(88)
  6
Continuous
 62
     7
100
AcDbCircle
 10
25.3082615927
 20
508.7981762816
 30
0.0
 40
1.892376606489493
100
AcDbArc
 50
178.1986562706
 51
180.9828796338
  0
SPLINE
  5
8E
330
5E
100
AcDbEntity
  8
$DDT_AUDIT_GENERATED_(88)
  6
Continuous
 62
     7
100
AcDbSpline
210
0.0
220
0.0
230
1.0
 70
     8
 71
     3
 72
    18
 73
    14
 74
     0
 42
0.0000000012601531
 43
0.0000000001
 40
0.0
 40
0.0
 40
0.0
 40
0.0
 40
0.1170283922426849
 40
0.2553262046877482
 40
0.3936240171328114
 40
0.5319218295778746
 40
0.6010707358003492
 40
0.6702196420229379
 40
0.7393685482454123
 40
0.808517454468001
 40
0.8776663606904755
 40
0.9468152669130644
 40
1.0
 40
1.0
 40
1.0
 40
1.0
 10
30.89889137528436
 20
504.4221401590293
 30
0.0
 10
30.52180629679073
 20
504.4886867717165
 30
0.0
 10
29.7192033018098
 20
504.6483880147135
 30
0.0
 10
28.55473876838296
 20
504.9439397601719
 30
0.0
 10
27.41954824277581
 20
505.3128146846597
 30
0.0
 10
26.55860464965121
 20
505.6688922894658
 30
0.0
 10
25.92612644130586
 20
505.9835013705609
 30
0.0
 10
25.48137764389937
 20
506.2344876001397
 30
0.0
 10
25.06779593293977
 20
506.5006728227005
 30
0.0
 10
24.68692499386137
 20
506.7822243459003
 30
0.0
 10
24.34028655840795
 20
507.079306301111
 30
0.0
 10
24.05344556649303
 20
507.3680305658646
 30
0.0
 10
23.88984540529751
 20
507.5607925393609
 30
0.0
 10
23.82262155990435
 20
507.6462259334858
 30
0.0
  0
SPLINE
  5
8F
330
5E
100
AcDbEntity
  8
$DDT_AUDIT_GENERATED_(88)
  6
Continuous
 62
     7
100
AcDbSpline
210
0.0
220
0.0
230
1.0
 70
     8
 71
     3
 72
    15
 73
    11
 74
     0
 42
0.0000000022578192
 43
0.0000000001
 40
0.0266382859207995
 40
0.0266382859207995
 40
0.0266382859207995
 40
0.0266382859207995
 40
0.125000068696857
 40
0.250000057590095
 40
0.375000046483333
 40
0.500000035376571
 40
0.6250000242698089
 40
0.7500000131630469
 40
0.8750000020562849
 40
1.0
 40
1.0
 40
1.0
 40
1.0
 10
33.32338609336603
 20
501.395158613898
 30
0.0
 10
33.32115876985377
 20
501.5379702200511
 30
0.0
 10
33.31414145718959
 20
501.8621479605418
 30
0.0
 10
33.25148279254353
 20
502.3670494895285
 30
0.0
 10
33.06064679259742
 20
502.8809166709947
 30
0.0
 10
32.77443440031498
 20
503.3470699360915
 30
0.0
 10
32.42143031866068
 20
503.7679266583714
 30
0.0
 10
31.98433632766639
 20
504.1136451049104
 30
0.0
 10
31.45628246941058
 20
504.3190960591413
 30
0.0
 10
31.08422652769358
 20
504.3866145930903
 30
0.0
 10
30.89889137528436
 20
504.4221401590293
 30
0.0
  0
SPLINE
  5
90
330
5E
100
AcDbEntity
  8
$DDT_AUDIT_GENERATED_(88)
  6
Continuous
 62
     7
100
AcDbSpline
210
0.0
220
0.0
230
1.0
 70
     8
 71
     3
 72
    16
 73
    12
 74
     0
 42
0.0000000022578512
 43
0.0000000001
 40
0.026609957339444
 40
0.026609957339444
 40
0.026609957339444
 40
0.026609957339444
 40
0.1249999999999999
 40
0.2499999999999998
 40
0.2499999999999998
 40
0.5000000000000004
 40
0.5000000000000004
 40
0.6250000000000003
 40
0.7500000000000002
 40
0.8750000000000001
 40
1.0
 40
1.0
 40
1.0
 40
1.0
 10
51.75267162058243
 20
501.3950352575779
 30
0.0
 10
51.75489909691845
 20
501.5378879640868
 30
0.0
 10
51.76191311172169
 20
501.8621068503699
 30
0.0
 10
51.80209355298022
 20
502.185879394219
 30
0.0
 10
51.93123665403304
 20
502.7145678833447
 30
0.0
 10
52.09968535339796
 20
503.0438501904473
 30
0.0
 10
52.41929385013709
 20
503.4873547444196
 30
0.0
 10
52.65463007670905
 20
503.7679255361782
 30
0.0
 10
53.09172425132877
 20
504.1136432166178
 30
0.0
 10
53.61977795055076
 20
504.31909342735
 30
0.0
 10
53.99183361347182
 20
504.3866116231916
 30
0.0
 10
54.17716878952436
 20
504.4221358601324
 30
0.0
  0
SPLINE
  5
91
330
5E
100
AcDbEntity
  8
$DDT_AUDIT_GENERATED_(88)
  6
Continuous
 62
     7
100
AcDbSpline
210
0.0
220
0.0
230
1.0
 70
    12
 71
     3
 72
    12
 73
     8
 74
     0
 42
0.0000000005782643
 43
0.0000000001
 40
0.0
 40
0.0
 40
0.0
 40
0.0
 40
0.0138532830293943
 40
0.0277302753177051
 40
0.04162329151579
 40
0.0555480424175018
 40
0.0652396461689172
 40
0.0652396461689172
 40
0.0652396461689172
 40
0.0652396461689172
 10
61.25308649473436
 20
507.6457795355955
 30
0.0
 41
1.066337813502887
 10
61.24647503898814
 20
507.5722115088956
 30
0.0
 41
1.066337813502887
 10
61.22170498259155
 20
507.4260532944668
 30
0.0
 41
1.066337813502887
 10
61.15018399355175
 20
507.2100388834324
 30
0.0
 41
1.066337813502887
 10
61.04439362272372
 20
506.9970587602978
 30
0.0
 41
1.066337813502887
 10
60.91865483274724
 20
506.8085275911278
 30
0.0
 41
1.066337813502887
 10
60.82339218321556
 20
506.6916613837932
 30
0.0
 41
1.066337813502887
 10
60.7816173580864
 20
506.644038246439
 30
0.0
 41
1.066337813502887
  0
LINE
  5
92
330
5E
100
AcDbEntity
  8
$DDT_AUDIT_GENERATED_(88)
  6
Continuous
 62
     7
100
AcDbLine
 10
61.6592154479
 20
526.1463401687
 30
0.0
 11
61.6406440341
 21
527.178987804
 31
0.0
  0
LINE
  5
93
330
5E
100
AcDbEntity
  8
$DDT_AUDIT_GENERATED_(88)
  6
Continuous
 62
     7
100
AcDbLine
 10
23.4354155961
 20
527.178987804
 30
0.0
 11
23.4168441822
 21
526.1463401687
 31
0.0
  0
ARC
  5
94
330
5E
100
AcDbEntity
  8
$DDT_AUDIT_GENERATED_(88)
  6
Continuous
 62
     7
100
AcDbCircle
 10
24.0251599395
 20
526.1199558015
 30
0.0
 40
0.6086129116426388
100
AcDbArc
 50
177.5149136044
 51
182.5655603392
  0
LINE
  5
95
330
5E
100
AcDbEntity
  8
$DDT_AUDIT_GENERATED_(88)
  6
Continuous
 62
     7
100
AcDbLine
 10
61.6587477276
 20
526.0926956298
 30
0.0
 11
61.6554563242
 21
526.1464455718
 31
0.0
  0
LINE
  5
96
330
5E
100
AcDbEntity
  8
$DDT_AUDIT_GENERATED_(88)
  6
Continuous
 62
     7
100
AcDbLine
 10
61.6610362543
 20
523.3527426522
 30
0.0
 11
61.6610362543
 21
526.0942496093
 31
0.0
  0
LINE
  5
97
330
5E
100
AcDbEntity
  8
$DDT_AUDIT_GENERATED_(88)
  6
Continuous
 62
     7
100
AcDbLine
 10
61.6610362543
 20
508.9717275504
 30
0.0
 11
61.6610362543
 21
523.1064790062
 31
0.0
  0
ARC
  5
98
330
5E
100
AcDbEntity
  8
$DDT_AUDIT_GENERATED_(88)
  6
Continuous
 62
     7
100
AcDbCircle
 10
40.3542465719
 20
495.4605198321
 30
0.0
 40
37.01959244289456
100
AcDbArc
 50
86.6181625619
 51
114.3768717371
  0
ARC
  5
99
330
5E
100
AcDbEntity
  8
$DDT_AUDIT_GENERATED_(88)
  6
Continuous
 62
     7
100
AcDbCircle
 10
44.7258912332
 20
495.4825290175
 30
0.0
 40
36.99786254571164
100
AcDbArc
 50
65.6148130912
 51
93.3901526098
  0
ARC
  5
9A
330
5E
100
AcDbEntity
  8
$DDT_AUDIT_GENERATED_(88)
  6
Continuous
 62
     7
100
AcDbCircle
 10
25.4924689733
 20
526.9784221297
 30
0.0
 40
2.065329719217208
100
AcDbArc
 50
122.2735976265
 51
174.5597836669
  0
ARC
  5
9B
330
5E
100
AcDbEntity
  8
$DDT_AUDIT_GENERATED_(88)
  6
Continuous
 62
     7
100
AcDbCircle
 10
59.7705582438
 20
527.0529015629
 30
0.0
 40
1.870480426008706
100
AcDbArc
 50
3.8964315641
 51
53.1255443381
  0
LINE
  5
9C
330
5E
100
AcDbEntity
  8
$DDT_AUDIT_GENERATED_(88)
  6
Continuous
 62
     7
100
AcDbLine
 10
23.4150132487
 20
508.9741621394
 30
0.0
 11
23.415011071
 21
508.8665938005
 31
0.0
  0
LINE
  5
9D
330
5E
100
AcDbEntity
  8
$DDT_AUDIT_GENERATED_(88)
  6
Continuous
 62
     7
100
AcDbLine
 10
23.4150526498
 20
526.0941417436
 30
0.0
 11
23.4150167832
 21
508.9717237303
 31
0.0
  0
LINE
  5
9E
330
5E
100
AcDbEntity
  8
$DDT_AUDIT_GENERATED_(88)
  6
Continuous
 62
     7
100
AcDbLine
 10
61.6611252582
 20
508.8685041232
 30
0.0
 11
61.6610526672
 21
508.9757244037
 31
0.0
  0
LINE
  5
9F
330
5E
100
AcDbEntity
  8
$DDT_AUDIT_GENERATED_(88)
  6
Continuous
 62
     7
100
AcDbLine
 10
61.6578348373
 20
508.7285972714
 30
0.0
 11
61.6610414412
 21
508.8690436565
 31
0.0
  0
LINE
  5
A0
330
5E
100
AcDbEntity
  8
$DDT_AUDIT_GENERATED_(88)
  6
Continuous
 62
     7
100
AcDbLine
 10
23.4296810214
 20
508.8108233306
 30
0.0
 11
23.4287006013
 21
508.7549242669
 31
0.0
  0
LINE
  5
A1
330
5E
100
AcDbEntity
  8
$DDT_AUDIT_GENERATED_(88)
  6
Continuous
 62
     7
100
AcDbLine
 10
23.4150140562
 20
508.8689032112
 30
0.0
 11
23.4181681707
 21
508.7294118762
 31
0.0
  0
ARC
  5
A2
330
5E
100
AcDbEntity
  8
$DDT_AUDIT_GENERATED_(88)
  6
Continuous
 62
     7
100
AcDbCircle
 10
47.7395442417
 20
522.3397134586
 30
0.0
 40
20.40324762946391
100
AcDbArc
 50
282.2899571767
 51
309.7119652848
  0
ARC
  5
A3
330
5E
100
AcDbEntity
  8
$DDT_AUDIT_GENERATED_(88)
  6
Continuous
 62
     7
100
AcDbCircle
 10
37.3522682934
 20
522.3876009007
 30
0.0
 40
20.44882720470856
100
AcDbArc
 50
230.3024606747
 51
257.6948374246
  0
ARC
  5
A4
330
5E
100
AcDbEntity
  8
$DDT_AUDIT_GENERATED_(88)
  6
Continuous
 62
     7
100
AcDbCircle
 10
26.7092379108
 20
508.8658665688
 30
0.0
 40
3.281562558097157
100
AcDbArc
 50
181.7496713886
 51
222.6979466593
  0
ARC
  5
A5
330
5E
100
AcDbEntity
  8
$DDT_AUDIT_GENERATED_(88)
  6
Continuous
 62
     7
100
AcDbCircle
 10
58.2574553324
 20
508.931082423
 30
0.0
 40
3.406369205435483
100
AcDbArc
 50
317.6575105235
 51
351.9753626279
  0
ARC
  5
A6
330
5E
100
AcDbEntity
  8
$DDT_AUDIT_GENERATED_(88)
  6
Continuous
 62
     7
100
AcDbCircle
 10
58.2574553324
 20
508.931082423
 30
0.0
 40
3.406369205435483
100
AcDbArc
 50
355.0316569264
 51
356.6318354811
  0
LINE
  5
A8
330
5E
100
AcDbEntity
  8
DV1_Standard
  6
Continuous
 62
     7
100
AcDbLine
 10
24.3896597563
 20
528.7246748835
 30
0.0
 11
25.0748989805
 21
529.1798282744
 31
0.0
  0
LINE
  5
A9
330
5E
100
AcDbEntity
  8
DV1_Standard
  6
Continuous
 62
     7
100
AcDbLine
 10
60.0011606497
 20
529.1798282744
 30
0.0
 11
60.8929655368
 21
528.5491966182
 31
0.0
  0
LINE
  5
AB
330
5E
100
AcDbEntity
  8
DV1_Standard
  6
CENTER2
 62
     7
100
AcDbLine
 10
62.5380293681
 20
398.3418760174
 30
0.0
 11
22.5380302621
 21
398.3418760174
 31
0.0
  0
LINE
  5
AC
330
5E
100
AcDbEntity
  8
DV1_Standard
  6
CENTER2
 62
     7
100
AcDbLine
 10
42.5380298151
 20
418.3418755704
 30
0.0
 11
42.5380298151
 21
378.3418764644
 31
0.0
  0
ENDBLK
  5
AE
330
5E
100
AcDbEntity
  8
0
100
AcDbBlockEnd
  0
BLOCK
  5
110
330
AF
100
AcDbEntity
  8
0
100
AcDbBlockBegin
  2
SE1
 70
     0
 10
0.0
 20
0.0
 30
0.0
  3
SE1
  1

  0
LINE
  5
B1
330
AF
100
AcDbEntity
  8
02636038_GEHÄUSE
  6
Continuous
 62
     7
100
AcDbLine
 10
318.6202834965
 20
473.3807516361
 30
0.0
 11
339.0679985969
 21
480.0246170152
 31
0.0
  0
SPLINE
  5
B2
330
AF
100
AcDbEntity
  8
02636038_GEHÄUSE
  6
Continuous
 62
     7
100
AcDbSpline
210
0.0
220
0.0
230
1.0
 70
     8
 71
     3
 72
    10
 73
     6
 74
     0
 42
0.0000000019260148
 43
0.0000000001
 40
0.0
 40
0.0
 40
0.0
 40
0.0
 40
0.5
 40
0.5
 40
1.0
 40
1.0
 40
1.0
 40
1.0
 10
331.2059259147273
 20
477.8039588465296
 30
0.0
 10
330.4212979436635
 20
477.4292374583888
 30
0.0
 10
329.6197180105991
 20
477.1064606917803
 30
0.0
 10
327.9797836572661
 20
476.5735924524413
 30
0.0
 10
327.1414287416299
 20
476.3635024976286
 30
0.0
 10
326.2861040292585
 20
476.2054118139831
 30
0.0
  0
LINE
  5
B3
330
AF
100
AcDbEntity
  8
02636038_GEHÄUSE
  6
Continuous
 62
     7
100
AcDbLine
 10
331.9788920022
 20
480.8756133266
 30
0.0
 11
323.8552881249
 21
478.2360944224
 31
0.0
  0
LINE
  5
B4
330
AF
100
AcDbEntity
  8
02636038_GEHÄUSE
  6
Continuous
 62
     7
100
AcDbLine
 10
331.9788920022
 20
480.8756133266
 30
0.0
 11
332.5402003433
 21
479.1480838859
 31
0.0
  0
SPLINE
  5
B5
330
AF
100
AcDbEntity
  8
02636038_GEHÄUSE
  6
Continuous
 62
     7
100
AcDbSpline
210
0.0
220
0.0
230
1.0
 70
     8
 71
     3
 72
    14
 73
    10
 74
     0
 42
0.0000000049321089
 43
0.0000000001
 40
0.0
 40
0.0
 40
0.0
 40
0.0
 40
0.1250000000000004
 40
0.1250000000000004
 40
0.2500000000000009
 40
0.2500000000000009
 40
0.5000000000000008
 40
0.5000000000000008
 40
1.0
 40
1.0
 40
1.0
 40
1.0
 10
332.5402003432981
 20
479.1480838858622
 30
0.0
 10
332.5662323362943
 20
479.067965649578
 30
0.0
 10
332.5616733135728
 20
478.9780171887534
 30
0.0
 10
332.513578899647
 20
478.8160290315303
 30
0.0
 10
332.4717784464471
 20
478.7403947741317
 30
0.0
 10
332.3260691784561
 20
478.5341530361903
 30
0.0
 10
332.1997795153958
 20
478.4180396705476
 30
0.0
 10
331.8050112592408
 20
478.1095803827841
 30
0.0
 10
331.5079302920293
 20
477.948189620426
 30
0.0
 10
331.2059259147273
 20
477.8039588465296
 30
0.0
  0
SPLINE
  5
B6
330
AF
100
AcDbEntity
  8
02636038_GEHÄUSE
  6
Continuous
 62
     7
100
AcDbSpline
210
0.0
220
0.0
230
1.0
 70
     8
 71
     3
 72
    18
 73
    14
 74
     0
 42
0.0000000049401632
 43
0.0000000001
 40
0.0
 40
0.0
 40
0.0
 40
0.0
 40
0.2499999999999998
 40
0.2499999999999998
 40
0.4999999999999997
 40
0.4999999999999997
 40
0.6249999999999992
 40
0.6249999999999992
 40
0.7499999999999989
 40
0.7499999999999989
 40
0.8749999999999994
 40
0.8749999999999994
 40
1.0
 40
1.0
 40
1.0
 40
1.0
 10
326.2861040292585
 20
476.2054118139831
 30
0.0
 10
326.1210600699962
 20
476.1749065427403
 30
0.0
 10
325.9552438269076
 20
476.1494971385236
 30
0.0
 10
325.6210953169839
 20
476.1152801570512
 30
0.0
 10
325.4528641884779
 20
476.1063075545747
 30
0.0
 10
325.2023633252009
 20
476.1152666753948
 30
0.0
 10
325.1190306421209
 20
476.1220143603296
 30
0.0
 10
324.9528740325852
 20
476.146927025142
 30
0.0
 10
324.8695744904151
 20
476.165217214806
 30
0.0
 10
324.7111215752998
 20
476.2191931933052
 30
0.0
 10
324.6338394868679
 20
476.2551823140449
 30
0.0
 10
324.498766687305
 20
476.3586659211057
 30
0.0
 10
324.4430949771289
 20
476.4270109503682
 30
0.0
 10
324.416596466028
 20
476.5085649817432
 30
0.0
  0
LINE
  5
B7
330
AF
100
AcDbEntity
  8
02636038_GEHÄUSE
  6
Continuous
 62
     7
100
AcDbLine
 10
324.416596466
 20
476.5085649817
 30
0.0
 11
323.8552881249
 21
478.2360944224
 31
0.0
  0
LINE
  5
B8
330
AF
100
AcDbEntity
  8
02636038_GEHÄUSE
  6
Continuous
 62
     7
100
AcDbLine
 10
317.9990763379
 20
473.5127932938
 30
0.0
 11
318.6202834965
 21
473.3807516361
 31
0.0
  0
LINE
  5
B9
330
AF
100
AcDbEntity
  8
02636038_GEHÄUSE
  6
Continuous
 62
     7
100
AcDbLine
 10
339.0679985969
 20
480.0246170152
 30
0.0
 11
339.4929536061
 21
480.4965773667
 31
0.0
  0
ARC
  5
BA
330
AF
100
AcDbEntity
  8
02636038_GEHÄUSE
  6
Continuous
 62
     7
100
AcDbCircle
 10
318.2069880287
 20
474.4909408946
 30
0.0
 40
0.999999999999995
100
AcDbArc
 50
198.0
 51
258.0
  0
ARC
  5
BB
330
AF
100
AcDbEntity
  8
02636038_GEHÄUSE
  6
Continuous
 62
     7
100
AcDbCircle
 10
338.7498087807
 20
481.1657079731
 30
0.0
 40
1.000000000000009
100
AcDbArc
 50
318.0
 51
18.0
  0
LINE
  5
BC
330
AF
100
AcDbEntity
  8
02636038_GEHÄUSE
  6
Continuous
 62
     7
100
AcDbLine
 10
315.4120527036
 20
479.8567993545
 30
0.0
 11
317.2559315124
 21
474.1819239002
 31
0.0
  0
LINE
  5
BD
330
AF
100
AcDbEntity
  8
02636038_GEHÄUSE
  6
Continuous
 62
     7
100
AcDbLine
 10
339.7008652969
 20
481.4747249674
 30
0.0
 11
339.0294311777
 21
483.5411867027
 31
0.0
  0
ARC
  5
BF
330
AF
100
AcDbEntity
  8
$DDT_AUDIT_GENERATED_(BE)
  6
Continuous
 62
     7
100
AcDbCircle
 10
230.1493935326
 20
471.4004785046
 30
0.0
 40
18.99999999995406
100
AcDbArc
 50
107.2815446445
 51
128.1902419414
  0
SPLINE
  5
C0
330
AF
100
AcDbEntity
  8
$DDT_AUDIT_GENERATED_(73)
  6
Continuous
 62
     7
100
AcDbSpline
210
0.0
220
0.0
230
1.0
 70
     8
 71
     3
 72
    25
 73
    21
 74
     0
 42
0.0000000004231362
 43
0.0000000001
 40
0.0278725610757748
 40
0.0278725610757748
 40
0.0278725610757748
 40
0.0278725610757748
 40
0.0420655794558337
 40
0.0856264160488378
 40
0.1308850115853877
 40
0.1777948649629102
 40
0.2259526916541033
 40
0.2755864947351331
 40
0.3270049685362535
 40
0.3804242911119573
 40
0.435092804661703
 40
0.4911589858004133
 40
0.5490638680288242
 40
0.6089530785755264
 40
0.6699676300486593
 40
0.7325178187979725
 40
0.7972006904772865
 40
0.8632524651355002
 40
0.930598704290962
 40
1.0
 40
1.0
 40
1.0
 40
1.0
 10
347.3342163039383
 20
500.2156905059629
 30
0.0
 10
347.3278153330694
 20
500.2149041280771
 30
0.0
 10
347.2953104379059
 20
500.210910863291
 30
0.0
 10
347.1665895074474
 20
500.1950978377222
 30
0.0
 10
346.8933098386248
 20
500.1615296597165
 30
0.0
 10
346.4905688529663
 20
500.1120636927971
 30
0.0
 10
345.9521292878912
 20
500.0459345108605
 30
0.0
 10
345.2672066999689
 20
499.961820328771
 30
0.0
 10
344.4240368572087
 20
499.8582786123578
 30
0.0
 10
343.4172734419428
 20
499.7346563217412
 30
0.0
 10
342.2444379875962
 20
499.5906452444971
 30
0.0
 10
340.9037315396525
 20
499.4260263799729
 30
0.0
 10
339.3865674268889
 20
499.2397476567864
 30
0.0
 10
337.6973058323449
 20
499.0323466514762
 30
0.0
 10
335.84506830375
 20
498.8049346836933
 30
0.0
 10
333.8364621757981
 20
498.5583249953862
 30
0.0
 10
331.6787296446475
 20
498.2934110110958
 30
0.0
 10
329.3912245637384
 20
498.012558437634
 30
0.0
 10
326.9955133040401
 20
497.7184119844147
 30
0.0
 10
325.3607773278823
 20
497.5176927407559
 30
0.0
 10
324.531125857803
 20
497.4158242374838
 30
0.0
  0
LINE
  5
C1
330
AF
100
AcDbEntity
  8
$DDT_AUDIT_GENERATED_(73)
  6
Continuous
 62
     7
100
AcDbLine
 10
348.4124816193
 20
491.6323939238
 30
0.0
 11
347.3596860809
 21
500.2188196484
 31
0.0
  0
LINE
  5
C2
330
AF
100
AcDbEntity
  8
$DDT_AUDIT_GENERATED_(73)
  6
Continuous
 62
     7
100
AcDbLine
 10
228.2543581847
 20
485.5945197751
 30
0.0
 11
324.5311259244
 21
497.4158236951
 31
0.0
  0
LINE
  5
C3
330
AF
100
AcDbEntity
  8
$DDT_AUDIT_GENERATED_(73)
  6
Continuous
 62
     7
100
AcDbLine
 10
205.4257971001
 20
482.7915261269
 30
0.0
 11
205.4257390622
 21
434.6693670393
 31
0.0
  0
LINE
  5
C4
330
AF
100
AcDbEntity
  8
$DDT_AUDIT_GENERATED_(73)
  6
Continuous
 62
     7
100
AcDbLine
 10
228.2543580896
 20
485.5945205496
 30
0.0
 11
205.4257971001
 21
482.7915261269
 31
0.0
  0
LINE
  5
C5
330
AF
100
AcDbEntity
  8
$DDT_AUDIT_GENERATED_(73)
  6
Continuous
 62
     7
100
AcDbLine
 10
324.3056682777
 20
499.2520299233
 30
0.0
 11
248.6736360006
 21
489.9655814689
 31
0.0
  0
LINE
  5
C6
330
AF
100
AcDbEntity
  8
$DDT_AUDIT_GENERATED_(73)
  6
Continuous
 62
     7
100
AcDbLine
 10
248.6736360006
 20
489.9655814689
 30
0.0
 11
248.5909192731
 21
489.955425129
 31
0.0
  0
SPLINE
  5
C7
330
AF
100
AcDbEntity
  8
$DDT_AUDIT_GENERATED_(73)
  6
Continuous
 62
     7
100
AcDbSpline
210
0.0
220
0.0
230
1.0
 70
     8
 71
     3
 72
    11
 73
     7
 74
     0
 42
0.0000000026437603
 43
0.0000000001
 40
0.0
 40
0.0
 40
0.0
 40
0.0
 40
0.2376983376574374
 40
0.2376983376574374
 40
0.2376983376574374
 40
1.0
 40
1.0
 40
1.0
 40
1.0
 10
251.4142911029572
 20
398.3418760173906
 30
0.0
 10
251.4150284377665
 20
398.6415723040399
 30
0.0
 10
251.4158456562045
 20
398.9412683906005
 30
0.0
 10
251.4166628275121
 20
399.2409644701962
 30
0.0
 10
251.4192835054773
 20
400.2020933114807
 30
0.0
 10
251.4219037064083
 20
401.1632245660491
 30
0.0
 10
251.421995584328
 20
402.1243568978278
 30
0.0
  0
SPLINE
  5
C8
330
AF
100
AcDbEntity
  8
$DDT_AUDIT_GENERATED_(73)
  6
Continuous
 62
     7
100
AcDbSpline
210
0.0
220
0.0
230
1.0
 70
     8
 71
     3
 72
    12
 73
     8
 74
     0
 42
0.0000000023507498
 43
0.0000000001
 40
0.0
 40
0.0
 40
0.0
 40
0.0
 40
0.125
 40
0.125
 40
0.25
 40
0.25
 40
0.269500952270348
 40
0.269500952270348
 40
0.269500952270348
 40
0.269500952270348
 10
347.3596860808811
 20
500.2188196483976
 30
0.0
 10
347.2549403767262
 20
500.3619655303465
 30
0.0
 10
347.1463998245418
 20
500.5019397668555
 30
0.0
 10
346.9200226914673
 20
500.7741173371154
 30
0.0
 10
346.8016798818509
 20
500.9068177286722
 30
0.0
 10
346.6532523902376
 20
501.0481312074044
 30
0.0
 10
346.6329999105865
 20
501.0669015397031
 30
0.0
 10
346.6125056000397
 20
501.0853440218945
 30
0.0
  0
SPLINE
  5
C9
330
AF
100
AcDbEntity
  8
$DDT_AUDIT_GENERATED_(73)
  6
Continuous
 62
     7
100
AcDbSpline
210
0.0
220
0.0
230
1.0
 70
     8
 71
     3
 72
     8
 73
     4
 74
     0
 42
0.0000000023700152
 43
0.0000000001
 40
0.7819766190667136
 40
0.7819766190667136
 40
0.7819766190667136
 40
0.7819766190667136
 40
0.9999266046725901
 40
0.9999266046725901
 40
0.9999266046725901
 40
0.9999266046725901
 10
344.5844417215911
 20
501.6482531811368
 30
0.0
 10
344.2789962277372
 20
501.6316250444413
 30
0.0
 10
343.9742837217823
 20
501.5964336585871
 30
0.0
 10
343.669339997117
 20
501.5611464405391
 30
0.0
  0
SPLINE
  5
CA
330
AF
100
AcDbEntity
  8
$DDT_AUDIT_GENERATED_(73)
  6
Continuous
 62
     7
100
AcDbSpline
210
0.0
220
0.0
230
1.0
 70
     8
 71
     5
 72
    16
 73
    10
 74
     0
 42
0.0000000000800503
 43
0.0000000001
 40
0.0
 40
0.0
 40
0.0
 40
0.0
 40
0.0
 40
0.0
 40
0.1678640341523613
 40
0.375898025614271
 40
0.5839320170761807
 40
0.7919660085380904
 40
1.0
 40
1.0
 40
1.0
 40
1.0
 40
1.0
 40
1.0
 10
314.9692255944715
 20
479.7634504682125
 30
0.0
 10
305.6774327492948
 20
478.6092129228796
 30
0.0
 10
286.5927334202187
 20
476.1617706591583
 30
0.0
 10
263.4968113310491
 20
472.3882007394129
 30
0.0
 10
258.3055311088754
 20
463.8144793627011
 30
0.0
 10
253.0534933860517
 20
452.3223638037248
 30
0.0
 10
251.7813327762391
 20
437.8339002391936
 30
0.0
 10
251.4713116405525
 20
421.5169694128156
 30
0.0
 10
251.4221041613909
 20
413.0456562400929
 30
0.0
 10
251.421995584328
 20
402.1243568978278
 30
0.0
  0
ARC
  5
CB
330
AF
100
AcDbEntity
  8
$DDT_AUDIT_GENERATED_(73)
  6
Continuous
 62
     7
100
AcDbCircle
 10
346.3337528586
 20
340.7714210259
 30
0.0
 40
142.4869040262933
100
AcDbArc
 50
98.0260200363
 51
102.7162090355
  0
SPLINE
  5
CC
330
AF
100
AcDbEntity
  8
$DDT_AUDIT_GENERATED_(73)
  6
Continuous
 62
     7
100
AcDbSpline
210
0.0
220
0.0
230
1.0
 70
     8
 71
     3
 72
    16
 73
    12
 74
     0
 42
0.0000000003798665
 43
0.0000000001
 40
0.0
 40
0.0
 40
0.0
 40
0.0
 40
0.1250000000000002
 40
0.1250000000000002
 40
0.2500000000000004
 40
0.2500000000000004
 40
0.3125000000000006
 40
0.3125000000000006
 40
0.3750000000000007
 40
0.3750000000000007
 40
0.4998608016293818
 40
0.4998608016293818
 40
0.4998608016293818
 40
0.4998608016293818
 10
326.4393320295424
 20
481.8626320876485
 30
0.0
 10
328.1129425742183
 20
482.0811874715691
 30
0.0
 10
329.7874052590907
 20
482.3016611254762
 30
0.0
 10
332.9129501427585
 20
482.7164546374865
 30
0.0
 10
334.3690699299232
 20
482.9112410361947
 30
0.0
 10
336.192075515558
 20
483.1566109900326
 30
0.0
 10
336.7515382321667
 20
483.2322572906671
 30
0.0
 10
337.7157811993299
 20
483.36270385721
 30
0.0
 10
338.1254911374294
 20
483.4181675311686
 30
0.0
 10
339.1321982170107
 20
483.554999747982
 30
0.0
 10
339.4825799606998
 20
483.6028150407701
 30
0.0
 10
339.4825650525432
 20
483.6028146085773
 30
0.0
  0
ARC
  5
CD
330
AF
100
AcDbEntity
  8
$DDT_AUDIT_GENERATED_(73)
  6
Continuous
 62
     7
100
AcDbCircle
 10
215.5090293039
 20
610.8580648794
 30
0.0
 40
124.1536484633589
100
AcDbArc
 50
275.7929127699
 51
278.6679013865
  0
SPLINE
  5
CE
330
AF
100
AcDbEntity
  8
$DDT_AUDIT_GENERATED_(73)
  6
Continuous
 62
     7
100
AcDbSpline
210
0.0
220
0.0
230
1.0
 70
     8
 71
     3
 72
    16
 73
    12
 74
     0
 42
0.0000000028075128
 43
0.0000000001
 40
0.0
 40
0.0
 40
0.0
 40
0.0
 40
0.2499999999999971
 40
0.2499999999999971
 40
0.4999999999999942
 40
0.4999999999999942
 40
0.6249999999999928
 40
0.6249999999999928
 40
0.7499999999999913
 40
0.7499999999999913
 40
1.0
 40
1.0
 40
1.0
 40
1.0
 10
208.0072826056386
 20
484.8913900786071
 30
0.0
 10
207.7150832578463
 20
484.8435027669837
 30
0.0
 10
207.4254039736099
 20
484.7846032573432
 30
0.0
 10
206.8616226000399
 20
484.5987348616294
 30
0.0
 10
206.5917388335986
 20
484.4704768284362
 30
0.0
 10
206.2450508390758
 20
484.1870356308933
 30
0.0
 10
206.1429840324029
 20
484.0807960973437
 30
0.0
 10
205.9605856104295
 20
483.8493788469374
 30
0.0
 10
205.8797161519355
 20
483.7236815789237
 30
0.0
 10
205.6597897815611
 20
483.3366826004984
 30
0.0
 10
205.537972824626
 20
483.066476964182
 30
0.0
 10
205.4257971000614
 20
482.7915261268646
 30
0.0
  0
SPLINE
  5
CF
330
AF
100
AcDbEntity
  8
$DDT_AUDIT_GENERATED_(73)
  6
Continuous
 62
     7
100
AcDbSpline
210
0.0
220
0.0
230
1.0
 70
     8
 71
     3
 72
    20
 73
    16
 74
     0
 42
0.000000000495494
 43
0.0000000001
 40
0.0
 40
0.0
 40
0.0
 40
0.0
 40
0.2499999999999997
 40
0.2499999999999997
 40
0.3749999999999997
 40
0.3749999999999997
 40
0.4999999999999998
 40
0.4999999999999998
 40
0.6249999999999998
 40
0.6249999999999998
 40
0.7499999999999999
 40
0.7499999999999999
 40
0.8749999999999999
 40
0.8749999999999999
 40
1.0
 40
1.0
 40
1.0
 40
1.0
 10
228.040258574059
 20
487.338444090844
 30
0.0
 10
225.3958895514466
 20
487.0158818561667
 30
0.0
 10
222.7511267546773
 20
486.6930614746358
 30
0.0
 10
219.134406513386
 20
486.2513992351356
 30
0.0
 10
217.9634915184686
 20
486.1083001130224
 30
0.0
 10
215.783251846722
 20
485.8419342958333
 30
0.0
 10
214.7771259594849
 20
485.7190506463399
 30
0.0
 10
212.930943493374
 20
485.4934124967565
 30
0.0
 10
212.0874708058366
 20
485.3902410460508
 30
0.0
 10
210.6407332302891
 20
485.2133685042529
 30
0.0
 10
210.027187630499
 20
485.1384054087711
 30
0.0
 10
209.0239533535579
 20
485.0157286806102
 30
0.0
 10
208.6424262279221
 20
484.9690131274217
 30
0.0
 10
208.1366111829977
 20
484.9071530141214
 30
0.0
 10
208.0072826064164
 20
484.8913900795085
 30
0.0
 10
208.0072826056386
 20
484.8913900786071
 30
0.0
  0
SPLINE
  5
D0
330
AF
100
AcDbEntity
  8
$DDT_AUDIT_GENERATED_(73)
  6
Continuous
 62
     7
100
AcDbSpline
210
0.0
220
0.0
230
1.0
 70
     8
 71
     3
 72
    14
 73
    10
 74
     0
 42
0.0000000006943816
 43
0.0000000001
 40
0.0
 40
0.0
 40
0.0
 40
0.0
 40
0.25
 40
0.25
 40
0.5
 40
0.5
 40
0.75
 40
0.75
 40
1.0
 40
1.0
 40
1.0
 40
1.0
 10
248.5053561424542
 20
489.9449192946714
 30
0.0
 10
248.5053558814715
 20
489.9449212025771
 30
0.0
 10
248.1561737677588
 20
489.8994015107697
 30
0.0
 10
246.8103961305094
 20
489.7246984657241
 30
0.0
 10
245.8153044708991
 20
489.5957293783719
 30
0.0
 10
243.258637642284
 20
489.2665900432275
 30
0.0
 10
241.7202849788063
 20
489.0694323014465
 30
0.0
 10
238.2026915606043
 20
488.6224778647834
 30
0.0
 10
236.2733005062711
 20
488.3790424925041
 30
0.0
 10
234.2198551990197
 20
488.1224407880526
 30
0.0
  0
LINE
  5
D1
330
AF
100
AcDbEntity
  8
$DDT_AUDIT_GENERATED_(73)
  6
Continuous
 62
     7
100
AcDbLine
 10
228.2542548851
 20
398.3418760174
 30
0.0
 11
228.4258169881
 21
398.3418760174
 31
0.0
  0
LINE
  5
D2
330
AF
100
AcDbEntity
  8
$DDT_AUDIT_GENERATED_(73)
  6
Continuous
 62
     7
100
AcDbLine
 10
228.425816597
 20
398.341876036
 30
0.0
 11
251.414291103
 21
398.3418760174
 31
0.0
  0
LINE
  5
D3
330
AF
100
AcDbEntity
  8
$DDT_AUDIT_GENERATED_(73)
  6
Continuous
 62
     7
100
AcDbLine
 10
205.4256952494
 20
398.3418760174
 30
0.0
 11
228.2542548586
 21
398.3418760161
 31
0.0
  0
LINE
  5
D4
330
AF
100
AcDbEntity
  8
$DDT_AUDIT_GENERATED_(73)
  6
Continuous
 62
     7
100
AcDbLine
 10
205.4257187674
 20
417.8418760174
 30
0.0
 11
205.4256952494
 21
398.3418760174
 31
0.0
  0
ARC
  5
D5
330
AF
100
AcDbEntity
  8
$DDT_AUDIT_GENERATED_(73)
  6
Continuous
 62
     7
100
AcDbCircle
 10
-35.4962076837
 20
426.255912093
 30
0.0
 40
241.0688089487852
100
AcDbArc
 50
1.9958343387
 51
2.0000653629
  0
ARC
  5
D6
330
AF
100
AcDbEntity
  8
$DDT_AUDIT_GENERATED_(73)
  6
Continuous
 62
     7
100
AcDbCircle
 10
-35.4624956693
 20
426.2559120523
 30
0.0
 40
241.035117476432
100
AcDbArc
 50
357.9995167446
 51
2.0003450519
  0
LINE
  5
D7
330
AF
100
AcDbEntity
  8
$DDT_AUDIT_GENERATED_(73)
  6
Continuous
 62
     7
100
AcDbLine
 10
248.590919273
 20
489.9554251301
 30
0.0
 11
248.5053561386
 21
489.9449192953
 31
0.0
  0
SPLINE
  5
D8
330
AF
100
AcDbEntity
  8
$DDT_AUDIT_GENERATED_(73)
  6
Continuous
 62
     7
100
AcDbSpline
210
0.0
220
0.0
230
1.0
 70
     8
 71
     3
 72
    15
 73
    11
 74
     0
 42
0.0000000007565078
 43
0.0000000001
 40
0.0
 40
0.0
 40
0.0
 40
0.0
 40
0.1033037985164713
 40
0.2726221425554836
 40
0.4266105039026928
 40
0.5633655134510371
 40
0.6836824073192281
 40
0.79171211559548
 40
0.8945634825535471
 40
1.0
 40
1.0
 40
1.0
 40
1.0
 10
339.458469109404
 20
483.6134274319686
 30
0.0
 10
339.938018938534
 20
483.7469565520428
 30
0.0
 10
341.0099017551649
 20
484.051154775303
 30
0.0
 10
342.8083365681033
 20
484.7142399306354
 30
0.0
 10
344.6232417293801
 20
485.5702852385843
 30
0.0
 10
346.1451323055902
 20
486.5500472973899
 30
0.0
 10
347.318484458859
 20
487.6573517063566
 30
0.0
 10
348.1044422511133
 20
488.8893287450082
 30
0.0
 10
348.4912472526119
 20
490.2718453578535
 30
0.0
 10
348.4488237548041
 20
491.1256251697458
 30
0.0
 10
348.4124816192678
 20
491.6323939238206
 30
0.0
  0
SPLINE
  5
D9
330
AF
100
AcDbEntity
  8
$DDT_AUDIT_GENERATED_(73)
  6
Continuous
 62
     7
100
AcDbSpline
210
0.0
220
0.0
230
1.0
 70
     8
 71
     3
 72
    12
 73
     8
 74
     0
 42
0.0000000023246854
 43
0.0000000001
 40
0.0
 40
0.0
 40
0.0
 40
0.0
 40
0.2691959687937487
 40
0.4590448185890494
 40
0.6385439045476714
 40
0.7710637436510299
 40
1.0
 40
1.0
 40
1.0
 40
1.0
 10
347.3375671799726
 20
500.2161037887136
 30
0.0
 10
347.0931196346539
 20
500.5580613906354
 30
0.0
 10
346.7207329348145
 20
501.0381669689672
 30
0.0
 10
345.9308919866454
 20
501.5572556793348
 30
0.0
 10
345.2180749230978
 20
501.662833747141
 30
0.0
 10
344.4403350833482
 20
501.6505880972126
 30
0.0
 10
343.970244263373
 20
501.5988894735026
 30
0.0
 10
343.615758579394
 20
501.5548138587631
 30
0.0
  0
LINE
  5
DA
330
AF
100
AcDbEntity
  8
$DDT_AUDIT_GENERATED_(73)
  6
Continuous
 62
     7
100
AcDbLine
 10
343.668723895
 20
501.5610751469
 30
0.0
 11
324.3056682777
 21
499.2520299233
 31
0.0
  0
LINE
  5
DB
330
AF
100
AcDbEntity
  8
$DDT_AUDIT_GENERATED_(88)
  6
Continuous
 62
     7
100
AcDbLine
 10
320.604875333
 20
530.7301873569
 30
0.0
 11
302.0460039409
 21
526.1264065129
 31
0.0
  0
LINE
  5
DC
330
AF
100
AcDbEntity
  8
$DDT_AUDIT_GENERATED_(88)
  6
Continuous
 62
     7
100
AcDbLine
 10
301.4262706621
 20
528.6246803915
 30
0.0
 11
232.4178120243
 21
511.5061922445
 31
0.0
  0
ARC
  5
DD
330
AF
100
AcDbEntity
  8
$DDT_AUDIT_GENERATED_(88)
  6
Continuous
 62
     7
100
AcDbCircle
 10
7524.9006000288
 20
-28742.6079688196
 30
0.0
 40
30146.78260841337
100
AcDbArc
 50
103.8623180341
 51
103.9974479688
  0
ARC
  5
DE
330
AF
100
AcDbEntity
  8
$DDT_AUDIT_GENERATED_(88)
  6
Continuous
 62
     7
100
AcDbCircle
 10
388.6958447732
 20
-134.8485487903
 30
0.0
 40
657.7784932935758
100
AcDbArc
 50
101.3052724127
 51
103.4492373923
  0
LINE
  5
DF
330
AF
100
AcDbEntity
  8
$DDT_AUDIT_GENERATED_(88)
  6
Continuous
 62
     7
100
AcDbLine
 10
303.3235095735
 20
520.9764855382
 30
0.0
 11
259.747329766
 21
510.1668205747
 31
0.0
  0
ARC
  5
E0
330
AF
100
AcDbEntity
  8
$DDT_AUDIT_GENERATED_(88)
  6
Continuous
 62
     7
100
AcDbCircle
 10
284.507199942
 20
266.3503302474
 30
0.0
 40
248.0448748866013
100
AcDbArc
 50
102.1294850762
 51
106.5073949061
  0
SPLINE
  5
E1
330
AF
100
AcDbEntity
  8
$DDT_AUDIT_GENERATED_(88)
  6
Continuous
 62
     7
100
AcDbSpline
210
0.0
220
0.0
230
1.0
 70
     8
 71
     3
 72
    20
 73
    16
 74
     0
 42
0.000000000402927
 43
0.0000000001
 40
0.0
 40
0.0
 40
0.0
 40
0.0
 40
0.0389818907635452
 40
0.1048369482894279
 40
0.1706920058153506
 40
0.2365470633412733
 40
0.302402120867196
 40
0.3682571783931187
 40
0.4999672934449641
 40
0.6316774084968095
 40
0.7633875235486549
 40
0.8292425810745777
 40
0.8950976386005004
 40
0.9609526961264231
 40
1.0
 40
1.0
 40
1.0
 40
1.0
 10
241.946779108173
 20
495.8503454911266
 30
0.0
 10
241.9843652199698
 20
496.1527582898555
 30
0.0
 10
242.0842469449053
 20
496.9584524719006
 30
0.0
 10
242.2875718378829
 20
498.2328924521349
 30
0.0
 10
242.6665703159191
 20
499.6447392577263
 30
0.0
 10
243.2309828056464
 20
500.9878946322232
 30
0.0
 10
244.0100317580233
 20
502.2584254787156
 30
0.0
 10
245.3313794499977
 20
503.8491700671459
 30
0.0
 10
247.4878352678996
 20
505.6330366988498
 30
0.0
 10
250.6642841436627
 20
507.3766667550772
 30
0.0
 10
253.5298542670235
 20
508.4541954945754
 30
0.0
 10
255.7656846981264
 20
509.1338315211834
 30
0.0
 10
257.3797256363383
 20
509.572415770201
 30
0.0
 10
258.6965844751644
 20
509.9061735604635
 30
0.0
 10
259.465957889333
 20
510.0970280784485
 30
0.0
 10
259.7473297659984
 20
510.1668205746687
 30
0.0
  0
ARC
  5
E2
330
AF
100
AcDbEntity
  8
$DDT_AUDIT_GENERATED_(88)
  6
Continuous
 62
     7
100
AcDbCircle
 10
165.7413997005
 20
805.2206984945
 30
0.0
 40
308.3989615091745
100
AcDbArc
 50
280.1611718234
 51
282.5277298909
  0
ARC
  5
E3
330
AF
100
AcDbEntity
  8
$DDT_AUDIT_GENERATED_(88)
  6
Continuous
 62
     7
100
AcDbCircle
 10
165.7413997005
 20
805.2206984945
 30
0.0
 40
308.3989615091745
100
AcDbArc
 50
280.1610129127
 51
280.1611718234
  0
SPLINE
  5
E4
330
AF
100
AcDbEntity
  8
$DDT_AUDIT_GENERATED_(88)
  6
Continuous
 62
     7
100
AcDbSpline
210
0.0
220
0.0
230
1.0
 70
    12
 71
     3
 72
     8
 73
     4
 74
     0
 42
0.0000000151832197
 43
0.0000000001
 40
0.0
 40
0.0
 40
0.0
 40
0.0
 40
0.7466168144327213
 40
0.7466168144327213
 40
0.7466168144327213
 40
0.7466168144327213
 10
223.01438757933
 20
489.8572636490812
 30
0.0
 41
1.249040884531065
 10
223.0142037136968
 20
489.6981680143369
 30
0.0
 41
0.9876569289888639
 10
223.1201021244454
 20
489.572874904751
 30
0.0
 41
0.9320270577915889
 10
223.2880416387132
 20
489.5580671675829
 30
0.0
 41
1.08215127093924
  0
ARC
  5
E5
330
AF
100
AcDbEntity
  8
$DDT_AUDIT_GENERATED_(88)
  6
Continuous
 62
     7
100
AcDbCircle
 10
43.5142994803
 20
-1281.822396024
 30
0.0
 40
1780.511439434925
100
AcDbArc
 50
83.9236803408
 51
84.1956697733
  0
LINE
  5
E6
330
AF
100
AcDbEntity
  8
$DDT_AUDIT_GENERATED_(88)
  6
Continuous
 62
     7
100
AcDbLine
 10
320.604875333
 20
530.7301873569
 30
0.0
 11
320.3306829489
 21
531.7583829396
 31
0.0
  0
ARC
  5
E7
330
AF
100
AcDbEntity
  8
$DDT_AUDIT_GENERATED_(88)
  6
Continuous
 62
     7
100
AcDbCircle
 10
318.6724086798
 20
530.2148499584
 30
0.0
 40
2.00000000000007
100
AcDbArc
 50
336.9026693788
 51
14.931775853
  0
SPLINE
  5
E8
330
AF
100
AcDbEntity
  8
$DDT_AUDIT_GENERATED_(88)
  6
Continuous
 62
     7
100
AcDbSpline
210
0.0
220
0.0
230
1.0
 70
     8
 71
     3
 72
    11
 73
     7
 74
     0
 42
0.0000000017659398
 43
0.0000000001
 40
0.0
 40
0.0
 40
0.0
 40
0.0
 40
0.2830525734212396
 40
0.552876557188063
 40
0.7696017857259826
 40
1.0
 40
1.0
 40
1.0
 40
1.0
 10
320.1361755101473
 20
531.9655220792304
 30
0.0
 10
319.577082120242
 20
532.137723246781
 30
0.0
 10
318.644481005674
 20
532.4064931479714
 30
0.0
 10
317.1619276659753
 20
532.440919682947
 30
0.0
 10
315.8158580604266
 20
532.193339977614
 30
0.0
 10
315.0582690107038
 20
532.010458223768
 30
0.0
 10
314.5970833725569
 20
531.8918798873108
 30
0.0
  0
ARC
  5
E9
330
AF
100
AcDbEntity
  8
$DDT_AUDIT_GENERATED_(88)
  6
Continuous
 62
     7
100
AcDbCircle
 10
320.0408129567
 20
531.6810823081
 30
0.0
 40
0.2999999999994643
100
AcDbArc
 50
14.9317801503
 51
71.4655267751
  0
SPLINE
  5
EA
330
AF
100
AcDbEntity
  8
$DDT_AUDIT_GENERATED_(88)
  6
Continuous
 62
     7
100
AcDbSpline
210
0.0
220
0.0
230
1.0
 70
     8
 71
     3
 72
    11
 73
     7
 74
     0
 42
0.0000000017357564
 43
0.0000000001
 40
0.0
 40
0.0
 40
0.0
 40
0.0
 40
0.2900957110109559
 40
0.5612001370052734
 40
0.7753917652245046
 40
1.0
 40
1.0
 40
1.0
 40
1.0
 10
219.2469993138778
 20
508.2389927486199
 30
0.0
 10
218.6525279518565
 20
508.1006982613883
 30
0.0
 10
217.6885822937124
 20
507.8533024247885
 30
0.0
 10
216.2688434335785
 20
507.3247711763254
 30
0.0
 10
215.1311142338598
 20
506.5303009486877
 30
0.0
 10
214.5766642916294
 20
505.98098177887
 30
0.0
 10
214.2468968072897
 20
505.642500513464
 30
0.0
  0
ARC
  5
EB
330
AF
100
AcDbEntity
  8
$DDT_AUDIT_GENERATED_(88)
  6
Continuous
 62
     7
100
AcDbCircle
 10
214.4656342484
 20
505.4795879413
 30
0.0
 40
0.2710428318087442
100
AcDbArc
 50
135.1941147802
 51
174.4567729746
  0
SPLINE
  5
EC
330
AF
100
AcDbEntity
  8
$DDT_AUDIT_GENERATED_(88)
  6
Continuous
 62
     7
100
AcDbSpline
210
0.0
220
0.0
230
1.0
 70
     8
 71
     3
 72
    15
 73
    11
 74
     0
 42
0.0000000005070674
 43
0.0000000001
 40
0.0
 40
0.0
 40
0.0
 40
0.0
 40
0.140805635494355
 40
0.2981455622207456
 40
0.4619167992254287
 40
0.6184548199822989
 40
0.7306663247736925
 40
0.831707361914354
 40
0.9210926355598469
 40
1.0
 40
1.0
 40
1.0
 40
1.0
 10
303.3235095734683
 20
520.9764855382239
 30
0.0
 10
304.3097986323521
 20
521.2199855218113
 30
0.0
 10
306.070762560546
 20
521.6603666562967
 30
0.0
 10
309.0557037754516
 20
522.4675812474986
 30
0.0
 10
312.026722692106
 20
523.4110903506846
 30
0.0
 10
314.6635288727994
 20
524.4778074888465
 30
0.0
 10
316.8079389408618
 20
525.6299138107381
 30
0.0
 10
318.4229648201509
 20
526.7687437238669
 30
0.0
 10
319.741734184602
 20
528.0250151749498
 30
0.0
 10
320.2424199277326
 20
528.9310754118161
 30
0.0
 10
320.5128529339761
 20
529.4320555320642
 30
0.0
  0
LINE
  5
ED
330
AF
100
AcDbEntity
  8
$DDT_AUDIT_GENERATED_(88)
  6
Continuous
 62
     7
100
AcDbLine
 10
214.1937620615
 20
505.5087883503
 30
0.0
 11
214.0268509407
 21
504.1626595641
 31
0.0
  0
ARC
  5
EE
330
AF
100
AcDbEntity
  8
$DDT_AUDIT_GENERATED_(88)
  6
Continuous
 62
     7
100
AcDbCircle
 10
219.8005036756
 20
511.5269679926
 30
0.0
 40
9.862646733768598
100
AcDbArc
 50
236.380440617
 51
272.0083296083
  0
ARC
  5
EF
330
AF
100
AcDbEntity
  8
$DDT_AUDIT_GENERATED_(88)
  6
Continuous
 62
     7
100
AcDbCircle
 10
215.0204023983
 20
504.0485037112
 30
0.0
 40
1.000047564602133
100
AcDbArc
 50
172.4274814383
 51
230.8944877119
  0
LINE
  5
F0
330
AF
100
AcDbEntity
  8
$DDT_AUDIT_GENERATED_(88)
  6
Continuous
 62
     7
100
AcDbLine
 10
241.1125385282
 20
489.1222421136
 30
0.0
 11
241.9467791084
 21
495.8503454932
 31
0.0
  0
LINE
  5
F1
330
AF
100
AcDbEntity
  8
$DDT_AUDIT_GENERATED_(88)
  6
Continuous
 62
     7
100
AcDbLine
 10
231.9813761417
 20
488.6538720368
 30
0.0
 11
234.8308571544
 21
488.3509486244
 31
0.0
  0
ARC
  5
F2
330
AF
100
AcDbEntity
  8
$DDT_AUDIT_GENERATED_(88)
  6
Continuous
 62
     7
100
AcDbCircle
 10
223.316546635
 20
489.8604812268
 30
0.0
 40
0.303816562490243
100
AcDbArc
 50
217.570301941
 51
265.2206403855
  0
LINE
  5
F3
330
AF
100
AcDbEntity
  8
$DDT_AUDIT_GENERATED_(88)
  6
Continuous
 62
     7
100
AcDbLine
 10
223.2879892336
 20
489.5580465586
 30
0.0
 11
223.2847094954
 21
489.5583768694
 31
0.0
  0
LINE
  5
F4
330
AF
100
AcDbEntity
  8
$DDT_AUDIT_GENERATED_(88)
  6
Continuous
 62
     7
100
AcDbLine
 10
223.3192522814
 20
489.5548979776
 30
0.0
 11
223.3386409667
 21
489.5529355651
 31
0.0
  0
LINE
  5
F5
330
AF
100
AcDbEntity
  8
$DDT_AUDIT_GENERATED_(88)
  6
Continuous
 62
     7
100
AcDbLine
 10
223.0248574742
 20
498.6589643447
 30
0.0
 11
223.0143449088
 21
489.8303326926
 31
0.0
  0
SPLINE
  5
F6
330
AF
100
AcDbEntity
  8
$DDT_AUDIT_GENERATED_(88)
  6
Continuous
 62
     7
100
AcDbSpline
210
0.0
220
0.0
230
1.0
 70
     8
 71
     3
 72
    13
 73
     9
 74
     0
 42
0.0000000019914011
 43
0.0000000001
 40
0.0
 40
0.0
 40
0.0
 40
0.0
 40
0.2457554551527828
 40
0.3612871934916496
 40
0.4757600088749386
 40
0.5930686869608222
 40
0.7161180718355856
 40
1.0
 40
1.0
 40
1.0
 40
1.0
 10
220.1092848930509
 20
501.6602211624021
 30
0.0
 10
220.5567160021278
 20
501.640821018914
 30
0.0
 10
221.1084085333611
 20
501.6007980798739
 30
0.0
 10
221.8823299666925
 20
501.3927531358304
 30
0.0
 10
222.3904153470891
 20
501.1011328109576
 30
0.0
 10
222.7509594436528
 20
500.6174033105064
 30
0.0
 10
223.0053805554255
 20
499.7673861159746
 30
0.0
 10
223.0277064418432
 20
499.1423325955478
 30
0.0
 10
223.0247820602485
 20
498.6250097349997
 30
0.0
  0
LINE
  5
F8
330
AF
100
AcDbEntity
  8
$DDT_AUDIT_GENERATED_(F7)
  6
Continuous
 62
     7
100
AcDbLine
 10
233.4318688847
 20
513.2805400766
 30
0.0
 11
232.4251078303
 21
513.0482581542
 31
0.0
  0
LINE
  5
F9
330
AF
100
AcDbEntity
  8
$DDT_AUDIT_GENERATED_(F7)
  6
Continuous
 62
     7
100
AcDbLine
 10
234.3068302353
 20
513.4584669814
 30
0.0
 11
233.6781043748
 21
513.3328467958
 31
0.0
  0
LINE
  5
FA
330
AF
100
AcDbEntity
  8
$DDT_AUDIT_GENERATED_(F7)
  6
Continuous
 62
     7
100
AcDbLine
 10
235.1882155125
 20
513.6155522766
 30
0.0
 11
234.5549225329
 21
513.5049177221
 31
0.0
  0
LINE
  5
FB
330
AF
100
AcDbEntity
  8
$DDT_AUDIT_GENERATED_(F7)
  6
Continuous
 62
     7
100
AcDbLine
 10
232.4251078303
 20
513.0482581542
 30
0.0
 11
232.3393234314
 21
513.0270845454
 31
0.0
  0
LINE
  5
FC
330
AF
100
AcDbEntity
  8
$DDT_AUDIT_GENERATED_(F7)
  6
Continuous
 62
     7
100
AcDbLine
 10
233.6781043748
 20
513.3328467958
 30
0.0
 11
233.4318688847
 21
513.2805400766
 31
0.0
  0
LINE
  5
FD
330
AF
100
AcDbEntity
  8
$DDT_AUDIT_GENERATED_(F7)
  6
Continuous
 62
     7
100
AcDbLine
 10
234.5549225329
 20
513.5049177221
 30
0.0
 11
234.3068302353
 21
513.4584669814
 31
0.0
  0
LINE
  5
FE
330
AF
100
AcDbEntity
  8
$DDT_AUDIT_GENERATED_(F7)
  6
Continuous
 62
     7
100
AcDbLine
 10
235.4374048421
 20
513.6559746426
 30
0.0
 11
235.1882155125
 21
513.6155522766
 31
0.0
  0
SPLINE
  5
FF
330
AF
100
AcDbEntity
  8
$DDT_AUDIT_GENERATED_(F7)
  6
Continuous
 62
     7
100
AcDbSpline
210
0.0
220
0.0
230
1.0
 70
     8
 71
     3
 72
     8
 73
     4
 74
     0
 42
0.0000000014055845
 43
0.0000000001
 40
0.0
 40
0.0
 40
0.0
 40
0.0
 40
1.0
 40
1.0
 40
1.0
 40
1.0
 10
242.5165449634978
 20
514.0862538265424
 30
0.0
 10
240.1500661229666
 20
514.1730324582691
 30
0.0
 10
237.7758795513975
 20
514.027102281093
 30
0.0
 10
235.4374048421046
 20
513.6559746426069
 30
0.0
  0
ARC
  5
100
330
AF
100
AcDbEntity
  8
$DDT_AUDIT_GENERATED_(F7)
  6
Continuous
 62
     7
100
AcDbCircle
 10
242.5055513713
 20
513.7864553261
 30
0.0
 40
0.299999999852381
100
AcDbArc
 50
60.6615532429
 51
87.8999083447
  0
SPLINE
  5
101
330
AF
100
AcDbEntity
  8
$DDT_AUDIT_GENERATED_(F7)
  6
Continuous
 62
     7
100
AcDbSpline
210
0.0
220
0.0
230
1.0
 70
     8
 71
     3
 72
     8
 73
     4
 74
     0
 42
0.0000000013027423
 43
0.0000000001
 40
0.0
 40
0.0
 40
0.0
 40
0.0
 40
1.0
 40
1.0
 40
1.0
 40
1.0
 10
223.0479334355358
 20
509.3219397661672
 30
0.0
 10
225.2689789127482
 20
510.5834997751627
 30
0.0
 10
227.6229117844529
 20
511.6093588653561
 30
0.0
 10
230.0571487128361
 20
512.3823821051843
 30
0.0
  0
SPLINE
  5
102
330
AF
100
AcDbEntity
  8
$DDT_AUDIT_GENERATED_(F7)
  6
Continuous
 62
     7
100
AcDbSpline
210
0.0
220
0.0
230
1.0
 70
     8
 71
     3
 72
     8
 73
     4
 74
     0
 42
0.000000004216321
 43
0.0000000001
 40
0.0
 40
0.0
 40
0.0
 40
0.0
 40
1.0
 40
1.0
 40
1.0
 40
1.0
 10
230.0571487128361
 20
512.3823821051843
 30
0.0
 10
230.8105163348457
 20
512.6216236815311
 30
0.0
 10
231.5715757163153
 20
512.8366478942188
 30
0.0
 10
232.3387680939669
 20
513.0269467962701
 30
0.0
  0
LINE
  5
104
330
AF
100
AcDbEntity
  8
$DDT_AUDIT_GENERATED_(103)
  6
Continuous
 62
     7
100
AcDbLine
 10
186.7708320319
 20
437.5132380217
 30
0.0
 11
186.7708320319
 21
433.5132380217
 31
0.0
  0
LINE
  5
105
330
AF
100
AcDbEntity
  8
$DDT_AUDIT_GENERATED_(103)
  6
Continuous
 62
     7
100
AcDbLine
 10
200.2381193919
 20
437.5132380217
 30
0.0
 11
186.7708320319
 21
437.5132380217
 31
0.0
  0
LINE
  5
106
330
AF
100
AcDbEntity
  8
$DDT_AUDIT_GENERATED_(103)
  6
Continuous
 62
     7
100
AcDbLine
 10
186.7708320319
 20
433.5132380217
 30
0.0
 11
200.2381193919
 21
433.5132380217
 31
0.0
  0
ARC
  5
107
330
AF
100
AcDbEntity
  8
$DDT_AUDIT_GENERATED_(103)
  6
Continuous
 62
     7
100
AcDbCircle
 10
200.2381193919
 20
432.5132380217
 30
0.0
 40
0.9999999999999454
100
AcDbArc
 50
18.0
 51
90.0
  0
ARC
  5
108
330
AF
100
AcDbEntity
  8
$DDT_AUDIT_GENERATED_(103)
  6
Continuous
 62
     7
100
AcDbCircle
 10
200.2381193919
 20
432.5132380217
 30
0.0
 40
4.999999999999967
100
AcDbArc
 50
18.0
 51
90.0
  0
LINE
  5
109
330
AF
100
AcDbEntity
  8
$DDT_AUDIT_GENERATED_(103)
  6
Continuous
 62
     7
100
AcDbLine
 10
205.4848707308
 20
432.5457376898
 30
0.0
 11
204.9934019734
 21
434.0583229936
 31
0.0
  0
LINE
  5
10A
330
AF
100
AcDbEntity
  8
$DDT_AUDIT_GENERATED_(103)
  6
Continuous
 62
     7
100
AcDbLine
 10
201.1891759082
 20
432.8222550161
 30
0.0
 11
205.4851462451
 21
419.6006178342
 31
0.0
  0
LINE
  5
10C
330
AF
100
AcDbEntity
  8
DV2_Standard
  6
Continuous
 62
     7
100
AcDbLine
 10
314.5970833726
 20
531.8918798873
 30
0.0
 11
301.4262706621
 21
528.6246803915
 31
0.0
  0
LINE
  5
10D
330
AF
100
AcDbEntity
  8
DV2_Standard
  6
Continuous
 62
     7
100
AcDbLine
 10
219.2469993139
 20
508.2389927486
 30
0.0
 11
223.0479334355
 21
509.3219397662
 31
0.0
  0
LINE
  5
10E
330
AF
100
AcDbEntity
  8
DV2_Standard
  6
CENTER2
 62
     7
100
AcDbLine
 10
248.42581615
 20
398.341876036
 30
0.0
 11
208.4258170441
 21
398.341876036
 31
0.0
  0
LINE
  5
10F
330
AF
100
AcDbEntity
  8
DV2_Standard
  6
CENTER2
 62
     7
100
AcDbLine
 10
228.425816597
 20
418.341875589
 30
0.0
 11
228.425816597
 21
378.3418764831
 31
0.0
  0
ENDBLK
  5
111
330
AF
100
AcDbEntity
  8
0
100
AcDbBlockEnd
  0
BLOCK
  5
150
330
112
100
AcDbEntity
  8
0
100
AcDbBlockBegin
  2
SE2
 70
     0
 10
0.0
 20
0.0
 30
0.0
  3
SE2
  1

  0
LINE
  5
115
330
112
100
AcDbEntity
  8
$DDT_AUDIT_GENERATED_(114)
  6
Continuous
 62
     7
100
AcDbLine
 10
22.538157799
 20
226.4591441839
 30
0.0
 11
22.538157799
 21
226.3894891949
 31
0.0
  0
LINE
  5
116
330
112
100
AcDbEntity
  8
$DDT_AUDIT_GENERATED_(114)
  6
Continuous
 62
     7
100
AcDbLine
 10
62.5379018312
 20
226.3894891949
 30
0.0
 11
62.5379018312
 21
226.4591441839
 31
0.0
  0
SPLINE
  5
117
330
112
100
AcDbEntity
  8
$DDT_AUDIT_GENERATED_(73)
  6
Continuous
 62
     7
100
AcDbSpline
210
0.0
220
0.0
230
1.0
 70
     8
 71
     5
 72
    12
 73
     6
 74
     0
 42
0.0000000056734393
 43
0.0000000001
 40
0.9458923208790647
 40
0.9458923208790647
 40
0.9458923208790647
 40
0.9458923208790647
 40
0.9458923208790647
 40
0.9458923208790647
 40
1.0
 40
1.0
 40
1.0
 40
1.0
 40
1.0
 40
1.0
 10
19.57664038796778
 20
129.1176739302904
 30
0.0
 10
19.56117383081983
 20
129.1338781320919
 30
0.0
 10
19.54958661848377
 20
129.1503181387594
 30
0.0
 10
19.54187577582796
 20
129.1669934270933
 30
0.0
 10
19.5380302643641
 20
129.1839031786019
 30
0.0
 10
19.53803029017236
 20
129.2010462584768
 30
0.0
  0
ARC
  5
118
330
112
100
AcDbEntity
  8
$DDT_AUDIT_GENERATED_(73)
  6
Continuous
 62
     7
100
AcDbCircle
 10
42.4513028722
 20
129.2864326449
 30
0.0
 40
22.91343167779662
100
AcDbArc
 50
180.2135119244
 51
270.216864053
  0
LINE
  5
119
330
112
100
AcDbEntity
  8
$DDT_AUDIT_GENERATED_(73)
  6
Continuous
 62
     7
100
AcDbLine
 10
19.5380302919
 20
130.2544175556
 30
0.0
 11
19.5380302919
 21
129.2003658773
 31
0.0
  0
LINE
  5
11A
330
112
100
AcDbEntity
  8
$DDT_AUDIT_GENERATED_(73)
  6
Continuous
 62
     7
100
AcDbLine
 10
19.5380302919
 20
226.5312885323
 30
0.0
 11
19.5380302919
 21
130.2545207925
 31
0.0
  0
LINE
  5
11B
330
112
100
AcDbEntity
  8
$DDT_AUDIT_GENERATED_(73)
  6
Continuous
 62
     7
100
AcDbLine
 10
19.5379988055
 20
226.5313918318
 30
0.0
 11
19.5378461875
 21
226.5313915745
 31
0.0
  0
ARC
  5
11C
330
112
100
AcDbEntity
  8
$DDT_AUDIT_GENERATED_(73)
  6
Continuous
 62
     7
100
AcDbCircle
 10
42.4551769609
 20
226.4426814054
 30
0.0
 40
22.91731798472198
100
AcDbArc
 50
89.7928556219
 51
179.778471787
  0
ARC
  5
11D
330
112
100
AcDbEntity
  8
$DDT_AUDIT_GENERATED_(73)
  6
Continuous
 62
     7
100
AcDbCircle
 10
42.6234299871
 20
226.4452478449
 30
0.0
 40
22.91476090572014
100
AcDbArc
 50
0.2151357942
 51
90.2135311995
  0
SPLINE
  5
11E
330
112
100
AcDbEntity
  8
$DDT_AUDIT_GENERATED_(73)
  6
Continuous
 62
     7
100
AcDbSpline
210
0.0
220
0.0
230
1.0
 70
     8
 71
     5
 72
    12
 73
     6
 74
     0
 42
0.0000000056734371
 43
0.0000000001
 40
0.9458923327332533
 40
0.9458923327332533
 40
0.9458923327332533
 40
0.9458923327332533
 40
0.9458923327332533
 40
0.9458923327332533
 40
1.0
 40
1.0
 40
1.0
 40
1.0
 40
1.0
 40
1.0
 10
65.49941914453738
 20
129.1176739489445
 30
0.0
 10
65.5148857150833
 20
129.1338781472391
 30
0.0
 10
65.52647294382244
 20
129.1503181502881
 30
0.0
 10
65.53418380595238
 20
129.1669934348916
 30
0.0
 10
65.53802934002414
 20
129.1839031825573
 30
0.0
 10
65.53802934001637
 20
129.2010462584768
 30
0.0
  0
LINE
  5
11F
330
112
100
AcDbEntity
  8
$DDT_AUDIT_GENERATED_(73)
  6
Continuous
 62
     7
100
AcDbLine
 10
65.5380608246
 20
226.5313918318
 30
0.0
 11
65.5382134426
 21
226.5313915745
 31
0.0
  0
LINE
  5
120
330
112
100
AcDbEntity
  8
$DDT_AUDIT_GENERATED_(73)
  6
Continuous
 62
     7
100
AcDbLine
 10
65.5380293383
 20
226.5312885323
 30
0.0
 11
65.5380293383
 21
130.2545207925
 31
0.0
  0
LINE
  5
121
330
112
100
AcDbEntity
  8
$DDT_AUDIT_GENERATED_(73)
  6
Continuous
 62
     7
100
AcDbLine
 10
65.5380293383
 20
130.2544175556
 30
0.0
 11
65.5380293383
 21
129.2003658773
 31
0.0
  0
ARC
  5
122
330
112
100
AcDbEntity
  8
$DDT_AUDIT_GENERATED_(73)
  6
Continuous
 62
     7
100
AcDbCircle
 10
42.2303468533
 20
226.4809869475
 30
0.0
 40
19.79231122197387
100
AcDbArc
 50
179.3499094332
 51
197.2346967658
  0
ARC
  5
123
330
112
100
AcDbEntity
  8
$DDT_AUDIT_GENERATED_(73)
  6
Continuous
 62
     7
100
AcDbCircle
 10
42.4616139667
 20
226.4077080919
 30
0.0
 40
20.02451950326626
100
AcDbArc
 50
89.7813522458
 51
179.1477589669
  0
ARC
  5
124
330
112
100
AcDbEntity
  8
$DDT_AUDIT_GENERATED_(73)
  6
Continuous
 62
     7
100
AcDbCircle
 10
42.6073026376
 20
226.4004302953
 30
0.0
 40
20.03177127174706
100
AcDbArc
 50
0.87275121
 51
90.1981376601
  0
ARC
  5
125
330
112
100
AcDbEntity
  8
$DDT_AUDIT_GENERATED_(73)
  6
Continuous
 62
     7
100
AcDbCircle
 10
42.8457224112
 20
226.4809855442
 30
0.0
 40
19.79230160441223
100
AcDbArc
 50
342.7652988506
 51
0.650095027
  0
ARC
  5
126
330
112
100
AcDbEntity
  8
$DDT_AUDIT_GENERATED_(73)
  6
Continuous
 62
     7
100
AcDbCircle
 10
42.5808379696
 20
226.6314171378
 30
0.0
 40
20.08996913862334
100
AcDbArc
 50
341.8108073106
 51
342.5793639413
  0
ARC
  5
127
330
112
100
AcDbEntity
  8
$DDT_AUDIT_GENERATED_(73)
  6
Continuous
 62
     7
100
AcDbCircle
 10
42.4782362662
 20
226.60823386
 30
0.0
 40
20.06682933812076
100
AcDbArc
 50
197.371997592
 51
198.1220586917
  0
SPLINE
  5
128
330
112
100
AcDbEntity
  8
$DDT_AUDIT_GENERATED_(73)
  6
Continuous
 62
     7
100
AcDbSpline
210
0.0
220
0.0
230
1.0
 70
     8
 71
     3
 72
    10
 73
     6
 74
     0
 42
0.0000000002767156
 43
0.0000000001
 40
0.536281892120613
 40
0.536281892120613
 40
0.536281892120613
 40
0.536281892120613
 40
0.75
 40
0.75
 40
0.9447512711585866
 40
0.9447512711585866
 40
0.9447512711585866
 40
0.9447512711585866
 10
57.82505632482187
 20
243.5860584527409
 30
0.0
 10
55.90506210979568
 20
245.2788433118409
 30
0.0
 10
53.68970559578987
 20
246.6578411464507
 30
0.0
 10
49.18089672176476
 20
248.509314235945
 30
0.0
 10
46.88069244898136
 20
249.0686344579118
 30
0.0
 10
44.53876034740436
 20
249.2727362579976
 30
0.0
  0
SPLINE
  5
129
330
112
100
AcDbEntity
  8
$DDT_AUDIT_GENERATED_(73)
  6
Continuous
 62
     7
100
AcDbSpline
210
0.0
220
0.0
230
1.0
 70
     8
 71
     3
 72
    14
 73
    10
 74
     0
 42
0.0000000002777645
 43
0.0000000001
 40
0.0554983347118753
 40
0.0554983347118753
 40
0.0554983347118753
 40
0.0554983347118753
 40
0.1249999999999999
 40
0.1249999999999999
 40
0.2499999999999999
 40
0.2499999999999999
 40
0.3749999999999998
 40
0.3749999999999998
 40
0.4643280236322224
 40
0.4643280236322224
 40
0.4643280236322224
 40
0.4643280236322224
 10
40.53772667967896
 20
249.2740071904476
 30
0.0
 10
39.70879052512087
 20
249.2024207368456
 30
0.0
 10
38.88742087072039
 20
249.0863225496447
 30
0.0
 10
36.60960558282859
 20
248.6390444813167
 30
0.0
 10
35.15494571529455
 20
248.2038387330894
 30
0.0
 10
32.3757214465496
 20
247.0656047956012
 30
0.0
 10
31.05661385743842
 20
246.3693416295798
 30
0.0
 10
28.91614349664076
 20
244.9567563007625
 30
0.0
 10
28.05672231108055
 20
244.297931630635
 30
0.0
 10
27.25083594300244
 20
243.5864500973612
 30
0.0
  0
ARC
  5
12A
330
112
100
AcDbEntity
  8
$DDT_AUDIT_GENERATED_(73)
  6
Continuous
 62
     7
100
AcDbCircle
 10
42.5377272491
 20
226.174618221
 30
0.0
 40
23.18528943566269
100
AcDbArc
 50
83.5597556601
 51
89.9992513922
  0
ARC
  5
12B
330
112
100
AcDbEntity
  8
$DDT_AUDIT_GENERATED_(73)
  6
Continuous
 62
     7
100
AcDbCircle
 10
42.5383446502
 20
226.1745533875
 30
0.0
 40
23.18535426928571
100
AcDbArc
 50
90.0007771194
 51
96.4403115529
  0
ARC
  5
12C
330
112
100
AcDbEntity
  8
$DDT_AUDIT_GENERATED_(73)
  6
Continuous
 62
     7
100
AcDbCircle
 10
42.5380298151
 20
129.2986563537
 30
0.0
 40
22.94865635366906
100
AcDbArc
 50
180.4832592347
 51
359.5167407653
  0
SPLINE
  5
12D
330
112
100
AcDbEntity
  8
$DDT_AUDIT_GENERATED_(88)
  6
Continuous
 62
     7
100
AcDbSpline
210
0.0
220
0.0
230
1.0
 70
     8
 71
     3
 72
     8
 73
     4
 74
     0
 42
0.000000031288863
 43
0.0000000001
 40
0.0
 40
0.0
 40
0.0
 40
0.0
 40
0.0250959805967422
 40
0.0250959805967422
 40
0.0250959805967422
 40
0.0250959805967422
 10
23.41599820771362
 20
152.7398859797235
 30
0.0
 10
23.41583333509795
 20
152.7372147059821
 30
0.0
 10
23.41575991584471
 20
152.7345430551578
 30
0.0
 10
23.41577781065548
 20
152.7318713923792
 30
0.0
  0
SPLINE
  5
12E
330
112
100
AcDbEntity
  8
$DDT_AUDIT_GENERATED_(88)
  6
Continuous
 62
     7
100
AcDbSpline
210
0.0
220
0.0
230
1.0
 70
     8
 71
     3
 72
     8
 73
     4
 74
     0
 42
0.0000000312287976
 43
0.0000000001
 40
0.0
 40
0.0
 40
0.0
 40
0.0
 40
0.0258452842633151
 40
0.0258452842633151
 40
0.0258452842633151
 40
0.0258452842633151
 10
61.66004340163442
 20
152.7401282780383
 30
0.0
 10
61.66027986947892
 20
152.7373744106596
 30
0.0
 10
61.66041546327889
 20
152.7346201392534
 30
0.0
 10
61.66045052591045
 20
152.7318658645655
 30
0.0
  0
SPLINE
  5
12F
330
112
100
AcDbEntity
  8
$DDT_AUDIT_GENERATED_(88)
  6
Continuous
 62
     7
100
AcDbSpline
210
0.0
220
0.0
230
1.0
 70
     8
 71
     2
 72
     6
 73
     3
 74
     0
 42
0.0000000000821404
 43
0.0000000001
 40
0.0898437500000001
 40
0.0898437500000001
 40
0.0898437500000001
 40
0.09375
 40
0.09375
 40
0.09375
 10
61.66068621084909
 20
164.2719205125635
 30
0.0
 10
61.6606886319388
 20
164.5097039104629
 30
0.0
 10
61.66069174586929
 20
164.7474783252799
 30
0.0
  0
LINE
  5
130
330
112
100
AcDbEntity
  8
$DDT_AUDIT_GENERATED_(88)
  6
Continuous
 62
     7
100
AcDbLine
 10
61.6410281684
 20
222.0046883394
 30
0.0
 11
61.6409868175
 21
222.0608036058
 31
0.0
  0
LINE
  5
131
330
112
100
AcDbEntity
  8
$DDT_AUDIT_GENERATED_(88)
  6
Continuous
 62
     7
100
AcDbLine
 10
61.6409997565
 20
152.9958460021
 30
0.0
 11
61.6409982805
 21
222.0043239101
 31
0.0
  0
LINE
  5
132
330
112
100
AcDbEntity
  8
$DDT_AUDIT_GENERATED_(88)
  6
Continuous
 62
     7
100
AcDbLine
 10
23.4350613497
 20
222.003959832
 30
0.0
 11
23.4350588536
 21
152.9958325189
 31
0.0
  0
LINE
  5
133
330
112
100
AcDbEntity
  8
$DDT_AUDIT_GENERATED_(88)
  6
Continuous
 62
     7
100
AcDbLine
 10
23.4350301148
 20
222.0608037991
 30
0.0
 11
23.4350738909
 21
222.0043238632
 31
0.0
  0
SPLINE
  5
134
330
112
100
AcDbEntity
  8
$DDT_AUDIT_GENERATED_(88)
  6
Continuous
 62
     7
100
AcDbSpline
210
0.0
220
0.0
230
1.0
 70
     8
 71
     2
 72
     6
 73
     3
 74
     0
 42
0.0000000005526554
 43
0.0000000001
 40
0.0
 40
0.0
 40
0.0
 40
0.0624998096217181
 40
0.0624998096217181
 40
0.0624998096217181
 10
23.4153637212766
 20
221.7489422501454
 30
0.0
 10
23.41536429713442
 20
221.6117750477857
 30
0.0
 10
23.41536480101023
 20
220.6180421527486
 30
0.0
  0
ARC
  5
135
330
112
100
AcDbEntity
  8
$DDT_AUDIT_GENERATED_(88)
  6
Continuous
 62
     7
100
AcDbCircle
 10
41.7567894803
 20
222.151200775
 30
0.0
 40
19.90397417379154
100
AcDbArc
 50
0.0835472427
 51
0.711206247
  0
ELLIPSE
  5
136
330
112
100
AcDbEntity
  8
$DDT_AUDIT_GENERATED_(88)
  6
Continuous
 62
     7
100
AcDbEllipse
 10
42.5380298151
 20
222.0863655927
 30
0.0
 11
-10.72500000000005
 21
-3.790370795009324E-13
 31
0.0
210
0.0
220
0.0
230
1.0
 40
0.9705831032
 41
0.0
 42
6.283185307179586
  0
LINE
  5
137
330
112
100
AcDbEntity
  8
$DDT_AUDIT_GENERATED_(88)
  6
Continuous
 62
     7
100
AcDbLine
 10
61.65199146
 20
152.4776803543
 30
0.0
 11
61.653465246
 21
152.73124416
 31
0.0
  0
ARC
  5
138
330
112
100
AcDbEntity
  8
$DDT_AUDIT_GENERATED_(88)
  6
Continuous
 62
     7
100
AcDbCircle
 10
42.5372210935
 20
153.2834280281
 30
0.0
 40
19.1317452282041
100
AcDbArc
 50
182.1661955278
 51
357.5862317259
  0
LINE
  5
139
330
112
100
AcDbEntity
  8
$DDT_AUDIT_GENERATED_(88)
  6
Continuous
 62
     7
100
AcDbLine
 10
23.4179489024
 20
152.7312295086
 30
0.0
 11
23.4191475774
 21
152.5602817691
 31
0.0
  0
LINE
  5
13A
330
112
100
AcDbEntity
  8
$DDT_AUDIT_GENERATED_(88)
  6
Continuous
 62
     7
100
AcDbLine
 10
61.6610362543
 20
164.7425262888
 30
0.0
 11
61.6610362543
 21
221.7563884724
 31
0.0
  0
LINE
  5
13B
330
112
100
AcDbEntity
  8
$DDT_AUDIT_GENERATED_(88)
  6
Continuous
 62
     7
100
AcDbLine
 10
61.6610362543
 20
152.7316682327
 30
0.0
 11
61.6610362543
 21
164.2589261753
 31
0.0
  0
LINE
  5
13C
330
112
100
AcDbEntity
  8
$DDT_AUDIT_GENERATED_(88)
  6
Continuous
 62
     7
100
AcDbLine
 10
23.4150110705
 20
222.1786579928
 30
0.0
 11
23.4150132483
 21
221.739747832
 31
0.0
  0
LINE
  5
13D
330
112
100
AcDbEntity
  8
$DDT_AUDIT_GENERATED_(88)
  6
Continuous
 62
     7
100
AcDbLine
 10
23.4150173939
 20
220.5810791701
 30
0.0
 11
23.4150526498
 21
152.7316404333
 31
0.0
  0
LINE
  5
13E
330
112
100
AcDbEntity
  8
$DDT_AUDIT_GENERATED_(88)
  6
Continuous
 62
     7
100
AcDbLine
 10
61.6610530977
 20
221.7398120285
 30
0.0
 11
61.6611257162
 21
222.17869226
 31
0.0
  0
LINE
  5
13F
330
112
100
AcDbEntity
  8
$DDT_AUDIT_GENERATED_(88)
  6
Continuous
 62
     7
100
AcDbLine
 10
61.6610414541
 20
222.1700592965
 30
0.0
 11
61.659725901
 21
222.3902323028
 31
0.0
  0
LINE
  5
140
330
112
100
AcDbEntity
  8
$DDT_AUDIT_GENERATED_(88)
  6
Continuous
 62
     7
100
AcDbLine
 10
23.4163100938
 20
222.3887914535
 30
0.0
 11
23.4150140321
 21
222.1700479498
 31
0.0
  0
ARC
  5
141
330
112
100
AcDbEntity
  8
$DDT_AUDIT_GENERATED_(88)
  6
Continuous
 62
     7
100
AcDbCircle
 10
42.5460681855
 20
221.570777849
 30
0.0
 40
19.12526674798146
100
AcDbArc
 50
2.339690589
 51
177.6589748571
  0
LINE
  5
142
330
112
100
AcDbEntity
  8
$DDT_AUDIT_GENERATED_(103)
  6
Continuous
 62
     7
100
AcDbLine
 10
40.5380298151
 20
268.014814685
 30
0.0
 11
44.5380298151
 21
268.014814685
 31
0.0
  0
LINE
  5
143
330
112
100
AcDbEntity
  8
$DDT_AUDIT_GENERATED_(103)
  6
Continuous
 62
     7
100
AcDbLine
 10
44.5380298151
 20
254.547527325
 30
0.0
 11
44.5380298151
 21
268.014814685
 31
0.0
  0
LINE
  5
144
330
112
100
AcDbEntity
  8
$DDT_AUDIT_GENERATED_(103)
  6
Continuous
 62
     7
100
AcDbLine
 10
40.5380298151
 20
268.014814685
 30
0.0
 11
40.5380298151
 21
254.547527325
 31
0.0
  0
LINE
  5
145
330
112
100
AcDbEntity
  8
$DDT_AUDIT_GENERATED_(103)
  6
Continuous
 62
     7
100
AcDbLine
 10
40.5380298151
 20
254.547527325
 30
0.0
 11
40.5380298151
 21
251.6943577761
 31
0.0
  0
LINE
  5
146
330
112
100
AcDbEntity
  8
$DDT_AUDIT_GENERATED_(103)
  6
Continuous
 62
     7
100
AcDbLine
 10
44.5380298151
 20
251.6943577761
 30
0.0
 11
44.5380298151
 21
254.547527325
 31
0.0
  0
LINE
  5
147
330
112
100
AcDbEntity
  8
$DDT_AUDIT_GENERATED_(103)
  6
Continuous
 62
     7
100
AcDbLine
 10
44.5380298151
 20
249.2730564934
 30
0.0
 11
44.5380298151
 21
251.6943577761
 31
0.0
  0
LINE
  5
148
330
112
100
AcDbEntity
  8
$DDT_AUDIT_GENERATED_(103)
  6
Continuous
 62
     7
100
AcDbLine
 10
40.5380298151
 20
251.6943577761
 30
0.0
 11
40.5380298151
 21
249.2743527844
 31
0.0
  0
LINE
  5
14A
330
112
100
AcDbEntity
  8
DV3_Standard
  6
CENTER2
 62
     7
100
AcDbLine
 10
62.4551765138
 20
226.4426814054
 30
0.0
 11
22.4551774079
 21
226.4426814054
 31
0.0
  0
LINE
  5
14B
330
112
100
AcDbEntity
  8
DV3_Standard
  6
CENTER2
 62
     7
100
AcDbLine
 10
42.4551769609
 20
246.4426809584
 30
0.0
 11
42.4551769609
 21
206.4426818525
 31
0.0
  0
LINE
  5
14C
330
112
100
AcDbEntity
  8
DV3_Standard
  6
CENTER2
 62
     7
100
AcDbLine
 10
67.4551764021
 20
226.4426814054
 30
0.0
 11
68.8724949456
 21
226.4426814054
 31
0.0
  0
LINE
  5
14D
330
112
100
AcDbEntity
  8
DV3_Standard
  6
CENTER2
 62
     7
100
AcDbLine
 10
42.4551769609
 20
251.4426808466
 30
0.0
 11
42.4551769609
 21
252.8599993902
 31
0.0
  0
LINE
  5
14E
330
112
100
AcDbEntity
  8
DV3_Standard
  6
CENTER2
 62
     7
100
AcDbLine
 10
17.4551775197
 20
226.4426814054
 30
0.0
 11
16.0378589761
 21
226.4426814054
 31
0.0
  0
LINE
  5
14F
330
112
100
AcDbEntity
  8
DV3_Standard
  6
CENTER2
 62
     7
100
AcDbLine
 10
42.4551769609
 20
201.4426819642
 30
0.0
 11
42.4551769609
 21
200.0253634207
 31
0.0
  0
ENDBLK
  5
151
330
112
100
AcDbEntity
  8
0
100
AcDbBlockEnd
  0
ENDSEC
  0
SECTION
  2
ENTITIES
  0
INSERT
  5
5F
330
1F
100
AcDbEntity
  8
Default
100
AcDbBlockReference
  2
SE
 10
0.0
 20
0.0
 30
0.0
  0
INSERT
  5
B0
330
1F
100
AcDbEntity
  8
Default
100
AcDbBlockReference
  2
SE1
 10
0.0
 20
0.0
 30
0.0
  0
INSERT
  5
113
330
1F
100
AcDbEntity
  8
Default
100
AcDbBlockReference
  2
SE2
 10
0.0
 20
0.0
 30
0.0
  0
TEXT
  5
153
330
1F
100
AcDbEntity
  8
Default
  6
Continuous
 62
     7
100
AcDbText
 10
5.9362635081
 20
53.4225120485
 30
0.0
 40
10.0
  1
Grohe AG^J
  7
SEACAD_seiso_ttf
 11
5.9362635081
 21
63.4225120485
 31
0.0
100
AcDbText
 73
     3
  0
TEXT
  5
154
330
1F
100
AcDbEntity
  8
Default
  6
Continuous
 62
     7
100
AcDbText
 10
5.9362635081
 20
37.0588756849
 30
0.0
 40
10.0
  1
 
  7
SEACAD_seiso_ttf
 11
5.9362635081
 21
47.0588756849
 31
0.0
100
AcDbText
 73
     3
  0
TEXT
  5
155
330
1F
100
AcDbEntity
  8
Default
  6
Continuous
 62
     7
100
AcDbText
 10
5.9362635081
 20
20.6952393213
 30
0.0
 40
10.0
  1
ecn: 
  7
SEACAD_seiso_ttf
 11
5.9362635081
 21
30.6952393213
 31
0.0
100
AcDbText
 73
     3
  0
TEXT
  5
156
330
1F
100
AcDbEntity
  8
Default
  6
Continuous
 62
     7
100
AcDbText
 10
5.9362635081
 20
4.3316029576
 30
0.0
 40
10.0
  1
unit: mm
  7
SEACAD_seiso_ttf
 11
5.9362635081
 21
14.3316029576
 31
0.0
100
AcDbText
 73
     3
  0
LINE
  5
157
330
1F
100
AcDbEntity
  8
Default
  6
Continuous
 62
     7
100
AcDbLine
 10
0.0
 20
0.0
 30
0.0
 11
100.0
 21
0.0
 31
0.0
  0
LINE
  5
158
330
1F
100
AcDbEntity
  8
Default
  6
Continuous
 62
     7
100
AcDbLine
 10
0.0
 20
0.0
 30
0.0
 11
0.0
 21
100.0
 31
0.0
  0
TEXT
  5
159
330
1F
100
AcDbEntity
  8
Default
  6
Continuous
 62
     7
100
AcDbText
 10
24.3923665681
 20
-18.2375342018
 30
0.0
 40
10.0
  1
100 mm
  7
SEACAD_seiso_ttf
 11
24.3923665681
 21
-8.2375342018
 31
0.0
100
AcDbText
 73
     3
  0
TEXT
  5
15A
330
1F
100
AcDbEntity
  8
Default
  6
Continuous
 62
     7
100
AcDbText
 10
-7.6150308803
 20
24.6231930421
 30
0.0
 40
10.0
  1
100 mm
 50
90.0
  7
SEACAD_seiso_ttf
 11
-17.6150308803
 21
24.6231930421
 31
0.0
100
AcDbText
 73
     3
  0
TEXT
  5
15B
330
1F
100
AcDbEntity
  8
Default
  6
Continuous
 62
     7
100
AcDbText
 10
28.4878128572
 20
20.0907663715
 30
0.0
 40
10.0
  1
216065
  7
SEACAD_seiso_ttf
 11
28.4878128572
 21
30.0907663715
 31
0.0
100
AcDbText
 73
     3
  0
TEXT
  5
15C
330
1F
100
AcDbEntity
  8
Default
  6
Continuous
 62
     7
100
AcDbText
 10
5.9012241913
 20
36.7242780188
 30
0.0
 40
10.0
  1
32183000
  7
SEACAD_seiso_ttf
 11
5.9012241913
 21
46.7242780188
 31
0.0
100
AcDbText
 73
     3
  0
ENDSEC
  0
SECTION
  2
OBJECTS
  0
DICTIONARY
  5
C
330
0
100
AcDbDictionary
281
     1
  3
ACAD_GROUP
350
D
  3
ACAD_LAYOUT
350
1A
  3
ACAD_MLEADERSTYLE
350
160
  3
ACAD_MLINESTYLE
350
17
  3
ACAD_PLOTSETTINGS
350
19
  3
ACAD_PLOTSTYLENAME
350
E
  3
ACAD_SCALELIST
350
3B
  3
ACAD_TABLESTYLE
350
15F
  3
ACAD_VISUALSTYLE
350
2A
  3
AcDbVariableDictionary
350
15D
  0
DICTIONARY
  5
D
102
{ACAD_REACTORS
330
C
102
}
330
C
100
AcDbDictionary
281
     1
  0
DICTIONARY
  5
1A
102
{ACAD_REACTORS
330
C
102
}
330
C
100
AcDbDictionary
281
     1
  3
Layout1
350
1E
  3
Model
350
22
  0
DICTIONARY
  5
160
102
{ACAD_REACTORS
330
C
102
}
330
C
100
AcDbDictionary
281
     1
  0
DICTIONARY
  5
17
102
{ACAD_REACTORS
330
C
102
}
330
C
100
AcDbDictionary
281
     1
  3
Standard
350
18
  0
DICTIONARY
  5
19
102
{ACAD_REACTORS
330
C
102
}
330
C
100
AcDbDictionary
281
     1
  0
ACDBDICTIONARYWDFLT
  5
E
102
{ACAD_REACTORS
330
C
102
}
330
C
100
AcDbDictionary
281
     1
  3
Normal
350
F
100
AcDbDictionaryWithDefault
340
F
  0
DICTIONARY
  5
3B
102
{ACAD_REACTORS
330
C
102
}
330
C
100
AcDbDictionary
281
     1
  3
A0
350
3C
  3
A1
350
3D
  3
A2
350
3E
  3
A3
350
3F
  3
A4
350
40
  3
A5
350
41
  3
A6
350
42
  3
A7
350
43
  3
A8
350
44
  3
A9
350
45
  3
B0
350
46
  3
B1
350
47
  3
B2
350
48
  3
B3
350
49
  3
B4
350
4A
  3
B5
350
4B
  3
B6
350
4C
  3
B7
350
4D
  3
B8
350
4E
  3
B9
350
4F
  3
C0
350
50
  3
C1
350
51
  3
C2
350
52
  3
C3
350
53
  3
C4
350
54
  3
C5
350
55
  3
C6
350
56
  3
C7
350
57
  3
C8
350
58
  3
C9
350
59
  3
D0
350
5A
  3
D1
350
5B
  3
D2
350
5C
  0
DICTIONARY
  5
15F
102
{ACAD_REACTORS
330
C
102
}
330
C
100
AcDbDictionary
281
     1
  0
DICTIONARY
  5
2A
102
{ACAD_REACTORS
330
C
102
}
330
C
100
AcDbDictionary
281
     1
  3
2dWireframe
350
2F
  3
3D Hidden
350
31
  3
3dWireframe
350
30
  3
Basic
350
32
  3
Brighten
350
36
  3
ColorChange
350
3A
  3
Conceptual
350
34
  3
Dim
350
35
  3
Facepattern
350
39
  3
Flat
350
2B
  3
FlatWithEdges
350
2C
  3
Gouraud
350
2D
  3
GouraudWithEdges
350
2E
  3
Linepattern
350
38
  3
Realistic
350
33
  3
Thicken
350
37
  0
DICTIONARY
  5
15D
102
{ACAD_REACTORS
330
C
102
}
330
C
100
AcDbDictionary
281
     1
  3
CANNOSCALE
350
15E
  3
PSOLHEIGHT
350
162
  3
PSOLWIDTH
350
161
  0
LAYOUT
  5
1E
102
{ACAD_REACTORS
330
1A
102
}
330
1A
100
AcDbPlotSettings
  1

  2
none_device
  4

  6

 40
0.0
 41
0.0
 42
0.0
 43
0.0
 44
0.0
 45
0.0
 46
0.0
 47
0.0
 48
0.0
 49
0.0
140
0.0
141
0.0
142
1.0
143
1.0
 70
   688
 72
     0
 73
     0
 74
     5
  7

 75
    16
147
1.0
148
0.0
149
0.0
100
AcDbLayout
  1
Layout1
 70
     1
 71
     1
 10
0.0
 20
0.0
 11
1682.0
 21
2378.0
 12
0.0
 22
0.0
 32
0.0
 14
0.0
 24
0.0
 34
0.0
 15
1682.0
 25
2378.0
 35
0.0
146
0.0
 13
0.0
 23
0.0
 33
0.0
 16
1.0
 26
0.0
 36
0.0
 17
0.0
 27
1.0
 37
0.0
 76
     0
330
1B
  0
LAYOUT
  5
22
102
{ACAD_REACTORS
330
1A
102
}
330
1A
100
AcDbPlotSettings
  1

  2
none_device
  4

  6

 40
0.0
 41
0.0
 42
0.0
 43
0.0
 44
0.0
 45
0.0
 46
0.0
 47
0.0
 48
0.0
 49
0.0
140
0.0
141
0.0
142
1.0
143
1.0
 70
  1712
 72
     0
 73
     0
 74
     0
  7

 75
     0
147
1.0
148
0.0
149
0.0
100
AcDbLayout
  1
Model
 70
     1
 71
     0
 10
0.0
 20
0.0
 11
1682.0
 21
2378.0
 12
0.0
 22
0.0
 32
0.0
 14
0.0
 24
0.0
 34
0.0
 15
1682.0
 25
2378.0
 35
0.0
146
0.0
 13
0.0
 23
0.0
 33
0.0
 16
1.0
 26
0.0
 36
0.0
 17
0.0
 27
1.0
 37
0.0
 76
     0
330
1F
331
29
  0
MLINESTYLE
  5
18
102
{ACAD_REACTORS
330
17
102
}
330
17
100
AcDbMlineStyle
  2
Standard
 70
     0
  3

 62
   256
 51
90.0
 52
90.0
 71
     2
 49
0.5
 62
   256
  6
BYLAYER
 49
-0.5
 62
   256
  6
BYLAYER
  0
ACDBPLACEHOLDER
  5
F
102
{ACAD_REACTORS
330
E
102
}
330
E
  0
SCALE
  5
3C
102
{ACAD_REACTORS
330
3B
102
}
330
3B
100
AcDbScale
 70
     0
300
1:1
140
1.0
141
1.0
290
     1
  0
SCALE
  5
3D
102
{ACAD_REACTORS
330
3B
102
}
330
3B
100
AcDbScale
 70
     0
300
1:2
140
1.0
141
2.0
290
     0
  0
SCALE
  5
3E
102
{ACAD_REACTORS
330
3B
102
}
330
3B
100
AcDbScale
 70
     0
300
1:4
140
1.0
141
4.0
290
     0
  0
SCALE
  5
3F
102
{ACAD_REACTORS
330
3B
102
}
330
3B
100
AcDbScale
 70
     0
300
1:5
140
1.0
141
5.0
290
     0
  0
SCALE
  5
40
102
{ACAD_REACTORS
330
3B
102
}
330
3B
100
AcDbScale
 70
     0
300
1:8
140
1.0
141
8.0
290
     0
  0
SCALE
  5
41
102
{ACAD_REACTORS
330
3B
102
}
330
3B
100
AcDbScale
 70
     0
300
1:10
140
1.0
141
10.0
290
     0
  0
SCALE
  5
42
102
{ACAD_REACTORS
330
3B
102
}
330
3B
100
AcDbScale
 70
     0
300
1:16
140
1.0
141
16.0
290
     0
  0
SCALE
  5
43
102
{ACAD_REACTORS
330
3B
102
}
330
3B
100
AcDbScale
 70
     0
300
1:20
140
1.0
141
20.0
290
     0
  0
SCALE
  5
44
102
{ACAD_REACTORS
330
3B
102
}
330
3B
100
AcDbScale
 70
     0
300
1:30
140
1.0
141
30.0
290
     0
  0
SCALE
  5
45
102
{ACAD_REACTORS
330
3B
102
}
330
3B
100
AcDbScale
 70
     0
300
1:40
140
1.0
141
40.0
290
     0
  0
SCALE
  5
46
102
{ACAD_REACTORS
330
3B
102
}
330
3B
100
AcDbScale
 70
     0
300
1:50
140
1.0
141
50.0
290
     0
  0
SCALE
  5
47
102
{ACAD_REACTORS
330
3B
102
}
330
3B
100
AcDbScale
 70
     0
300
1:100
140
1.0
141
100.0
290
     0
  0
SCALE
  5
48
102
{ACAD_REACTORS
330
3B
102
}
330
3B
100
AcDbScale
 70
     0
300
2:1
140
2.0
141
1.0
290
     0
  0
SCALE
  5
49
102
{ACAD_REACTORS
330
3B
102
}
330
3B
100
AcDbScale
 70
     0
300
4:1
140
4.0
141
1.0
290
     0
  0
SCALE
  5
4A
102
{ACAD_REACTORS
330
3B
102
}
330
3B
100
AcDbScale
 70
     0
300
8:1
140
8.0
141
1.0
290
     0
  0
SCALE
  5
4B
102
{ACAD_REACTORS
330
3B
102
}
330
3B
100
AcDbScale
 70
     0
300
10:1
140
10.0
141
1.0
290
     0
  0
SCALE
  5
4C
102
{ACAD_REACTORS
330
3B
102
}
330
3B
100
AcDbScale
 70
     0
300
100:1
140
100.0
141
1.0
290
     0
  0
SCALE
  5
4D
102
{ACAD_REACTORS
330
3B
102
}
330
3B
100
AcDbScale
 70
     0
300
1/128" = 1'-0"
140
0.0078125
141
12.0
290
     0
  0
SCALE
  5
4E
102
{ACAD_REACTORS
330
3B
102
}
330
3B
100
AcDbScale
 70
     0
300
1/64" = 1'-0"
140
0.015625
141
12.0
290
     0
  0
SCALE
  5
4F
102
{ACAD_REACTORS
330
3B
102
}
330
3B
100
AcDbScale
 70
     0
300
1/32" = 1'-0"
140
0.03125
141
12.0
290
     0
  0
SCALE
  5
50
102
{ACAD_REACTORS
330
3B
102
}
330
3B
100
AcDbScale
 70
     0
300
1/16" = 1'-0"
140
0.0625
141
12.0
290
     0
  0
SCALE
  5
51
102
{ACAD_REACTORS
330
3B
102
}
330
3B
100
AcDbScale
 70
     0
300
3/32" = 1'-0"
140
0.09375
141
12.0
290
     0
  0
SCALE
  5
52
102
{ACAD_REACTORS
330
3B
102
}
330
3B
100
AcDbScale
 70
     0
300
1/8" = 1'-0"
140
0.125
141
12.0
290
     0
  0
SCALE
  5
53
102
{ACAD_REACTORS
330
3B
102
}
330
3B
100
AcDbScale
 70
     0
300
3/16" = 1'-0"
140
0.1875
141
12.0
290
     0
  0
SCALE
  5
54
102
{ACAD_REACTORS
330
3B
102
}
330
3B
100
AcDbScale
 70
     0
300
1/4" = 1'-0"
140
0.25
141
12.0
290
     0
  0
SCALE
  5
55
102
{ACAD_REACTORS
330
3B
102
}
330
3B
100
AcDbScale
 70
     0
300
3/8" = 1'-0"
140
0.375
141
12.0
290
     0
  0
SCALE
  5
56
102
{ACAD_REACTORS
330
3B
102
}
330
3B
100
AcDbScale
 70
     0
300
1/2" = 1'-0"
140
0.5
141
12.0
290
     0
  0
SCALE
  5
57
102
{ACAD_REACTORS
330
3B
102
}
330
3B
100
AcDbScale
 70
     0
300
3/4" = 1'-0"
140
0.75
141
12.0
290
     0
  0
SCALE
  5
58
102
{ACAD_REACTORS
330
3B
102
}
330
3B
100
AcDbScale
 70
     0
300
1" = 1'-0"
140
1.0
141
12.0
290
     0
  0
SCALE
  5
59
102
{ACAD_REACTORS
330
3B
102
}
330
3B
100
AcDbScale
 70
     0
300
1-1/2" = 1'-0"
140
1.5
141
12.0
290
     0
  0
SCALE
  5
5A
102
{ACAD_REACTORS
330
3B
102
}
330
3B
100
AcDbScale
 70
     0
300
3" = 1'-0"
140
3.0
141
12.0
290
     0
  0
SCALE
  5
5B
102
{ACAD_REACTORS
330
3B
102
}
330
3B
100
AcDbScale
 70
     0
300
6" = 1'-0"
140
6.0
141
12.0
290
     0
  0
SCALE
  5
5C
102
{ACAD_REACTORS
330
3B
102
}
330
3B
100
AcDbScale
 70
     0
300
1'-0" = 1'-0"
140
12.0
141
12.0
290
     0
  0
VISUALSTYLE
  5
2F
102
{ACAD_REACTORS
330
2A
102
}
330
2A
100
AcDbVisualStyle
  2
2dWireframe
 70
     4
 71
     0
 72
     2
 73
     0
 90
        0
 40
-0.6
 41
-30.0
 62
     5
 63
     7
 74
     1
 91
        4
 64
     7
 65
   257
 75
     1
175
     1
 42
1.0
 92
        0
 66
   257
 43
1.0
 76
     1
 77
     6
 78
     2
 67
     7
 79
     5
170
     0
171
     0
290
     0
174
     0
 93
        1
 44
0.0
173
     0
291
     0
 45
0.0
1001
ACAD
1000
AcDbSavedByObjectVersion
1070
     0
  0
VISUALSTYLE
  5
31
102
{ACAD_REACTORS
330
2A
102
}
330
2A
100
AcDbVisualStyle
  2
3D Hidden
 70
     6
 71
     1
 72
     2
 73
     2
 90
        0
 40
-0.6
 41
-30.0
 62
     5
 63
     7
 74
     2
 91
        2
 64
     7
 65
   257
 75
     2
175
     1
 42
40.0
 92
        0
 66
   257
 43
1.0
 76
     1
 77
     6
 78
     2
 67
     7
 79
     3
170
     0
171
     0
290
     0
174
     0
 93
        1
 44
0.0
173
     0
291
     0
 45
0.0
1001
ACAD
1000
AcDbSavedByObjectVersion
1070
     0
  0
VISUALSTYLE
  5
30
102
{ACAD_REACTORS
330
2A
102
}
330
2A
100
AcDbVisualStyle
  2
3dWireframe
 70
     5
 71
     0
 72
     2
 73
     0
 90
        0
 40
-0.6
 41
-30.0
 62
     5
 63
     7
 74
     1
 91
        4
 64
     7
 65
   257
 75
     1
175
     1
 42
1.0
 92
        0
 66
   257
 43
1.0
 76
     1
 77
     6
 78
     2
 67
     7
 79
     5
170
     0
171
     0
290
     0
174
     0
 93
        1
 44
0.0
173
     0
291
     0
 45
0.0
1001
ACAD
1000
AcDbSavedByObjectVersion
1070
     0
  0
VISUALSTYLE
  5
32
102
{ACAD_REACTORS
330
2A
102
}
330
2A
100
AcDbVisualStyle
  2
Basic
 70
     7
 71
     1
 72
     0
 73
     1
 90
        0
 40
-0.6
 41
-30.0
 62
     5
 63
     7
 74
     0
 91
        4
 64
     7
 65
   257
 75
     1
175
     1
 42
1.0
 92
        8
 66
     7
 43
1.0
 76
     1
 77
     6
 78
     2
 67
     7
 79
     5
170
     0
171
     0
290
     0
174
     0
 93
        1
 44
0.0
173
     0
291
     1
 45
0.0
1001
ACAD
1000
AcDbSavedByObjectVersion
1070
     0
  0
VISUALSTYLE
  5
36
102
{ACAD_REACTORS
330
2A
102
}
330
2A
100
AcDbVisualStyle
  2
Brighten
 70
    12
 71
     2
 72
     2
 73
     0
 90
        0
 40
-0.6
 41
-30.0
 62
     5
 63
     7
 74
     1
 91
        4
 64
     7
 65
   257
 75
     1
175
     1
 42
1.0
 92
        8
 66
     7
 43
1.0
 76
     1
 77
     6
 78
     2
 67
     7
 79
     5
170
     0
171
     0
290
     0
174
     0
 93
        1
 44
50.0
173
     0
291
     1
 45
0.0
1001
ACAD
1000
AcDbSavedByObjectVersion
1070
     0
  0
VISUALSTYLE
  5
3A
102
{ACAD_REACTORS
330
2A
102
}
330
2A
100
AcDbVisualStyle
  2
ColorChange
 70
    16
 71
     2
 72
     2
 73
     3
 90
        0
 40
-0.6
 41
-30.0
 62
     5
 63
     8
 74
     1
 91
        4
 64
     7
 65
   257
 75
     1
175
     1
 42
1.0
 92
        8
 66
     8
 43
1.0
 76
     1
 77
     6
 78
     2
 67
     7
 79
     5
170
     0
171
     0
290
     0
174
     0
 93
        1
 44
0.0
173
     0
291
     1
 45
0.0
1001
ACAD
1000
AcDbSavedByObjectVersion
1070
     0
  0
VISUALSTYLE
  5
34
102
{ACAD_REACTORS
330
2A
102
}
330
2A
100
AcDbVisualStyle
  2
Conceptual
 70
     9
 71
     3
 72
     2
 73
     0
 90
        0
 40
-0.6
 41
-30.0
 62
     5
 63
     7
 74
     2
 91
        2
 64
     7
 65
   257
 75
     1
175
     1
 42
40.0
 92
        8
 66
     7
 43
1.0
 76
     1
 77
     6
 78
     2
 67
     7
 79
     3
170
     0
171
     0
290
     0
174
     0
 93
        1
 44
0.0
173
     0
291
     0
 45
0.0
1001
ACAD
1000
AcDbSavedByObjectVersion
1070
     0
  0
VISUALSTYLE
  5
35
102
{ACAD_REACTORS
330
2A
102
}
330
2A
100
AcDbVisualStyle
  2
Dim
 70
    11
 71
     2
 72
     2
 73
     0
 90
        0
 40
-0.6
 41
-30.0
 62
     5
 63
     7
 74
     1
 91
        4
 64
     7
 65
   257
 75
     1
175
     1
 42
1.0
 92
        8
 66
     7
 43
1.0
 76
     1
 77
     6
 78
     2
 67
     7
 79
     5
170
     0
171
     0
290
     0
174
     0
 93
        1
 44
-50.0
173
     0
291
     1
 45
0.0
1001
ACAD
1000
AcDbSavedByObjectVersion
1070
     0
  0
VISUALSTYLE
  5
39
102
{ACAD_REACTORS
330
2A
102
}
330
2A
100
AcDbVisualStyle
  2
Facepattern
 70
    15
 71
     2
 72
     2
 73
     0
 90
        0
 40
-0.6
 41
-30.0
 62
     5
 63
     7
 74
     1
 91
        4
 64
     7
 65
   257
 75
     1
175
     1
 42
1.0
 92
        8
 66
     7
 43
1.0
 76
     1
 77
     6
 78
     2
 67
     7
 79
     5
170
     0
171
     0
290
     0
174
     0
 93
        1
 44
0.0
173
     0
291
     1
 45
0.0
1001
ACAD
1000
AcDbSavedByObjectVersion
1070
     0
  0
VISUALSTYLE
  5
2B
102
{ACAD_REACTORS
330
2A
102
}
330
2A
100
AcDbVisualStyle
  2
Flat
 70
     0
 71
     2
 72
     1
 73
     1
 90
        2
 40
-0.6
 41
30.0
 62
     5
 63
     7
 74
     0
 91
        4
 64
     7
 65
   257
 75
     1
175
     1
 42
1.0
 92
        8
 66
     7
 43
1.0
 76
     1
 77
     6
 78
     2
 67
     7
 79
     5
170
     0
171
     0
290
     0
174
     0
 93
       13
 44
0.0
173
     0
291
     1
 45
0.0
1001
ACAD
1000
AcDbSavedByObjectVersion
1070
     0
  0
VISUALSTYLE
  5
2C
102
{ACAD_REACTORS
330
2A
102
}
330
2A
100
AcDbVisualStyle
  2
FlatWithEdges
 70
     1
 71
     2
 72
     1
 73
     1
 90
        2
 40
-0.6
 41
30.0
 62
     5
 63
     7
 74
     1
 91
        4
 64
     7
 65
   257
 75
     1
175
     1
 42
1.0
 92
        0
 66
   257
 43
1.0
 76
     1
 77
     6
 78
     2
 67
     7
 79
     5
170
     0
171
     0
290
     0
174
     0
 93
       13
 44
0.0
173
     0
291
     1
 45
0.0
1001
ACAD
1000
AcDbSavedByObjectVersion
1070
     0
  0
VISUALSTYLE
  5
2D
102
{ACAD_REACTORS
330
2A
102
}
330
2A
100
AcDbVisualStyle
  2
Gouraud
 70
     2
 71
     2
 72
     2
 73
     1
 90
        2
 40
-0.6
 41
30.0
 62
     5
 63
     7
 74
     0
 91
        4
 64
     7
 65
   257
 75
     1
175
     1
 42
1.0
 92
        0
 66
     7
 43
1.0
 76
     1
 77
     6
 78
     2
 67
     7
 79
     5
170
     0
171
     0
290
     0
174
     0
 93
       13
 44
0.0
173
     0
291
     1
 45
0.0
1001
ACAD
1000
AcDbSavedByObjectVersion
1070
     0
  0
VISUALSTYLE
  5
2E
102
{ACAD_REACTORS
330
2A
102
}
330
2A
100
AcDbVisualStyle
  2
GouraudWithEdges
 70
     3
 71
     2
 72
     2
 73
     1
 90
        2
 40
-0.6
 41
30.0
 62
     5
 63
     7
 74
     1
 91
        4
 64
     7
 65
   257
 75
     1
175
     1
 42
1.0
 92
        0
 66
   257
 43
1.0
 76
     1
 77
     6
 78
     2
 67
     7
 79
     5
170
     0
171
     0
290
     0
174
     0
 93
       13
 44
0.0
173
     0
291
     1
 45
0.0
1001
ACAD
1000
AcDbSavedByObjectVersion
1070
     0
  0
VISUALSTYLE
  5
38
102
{ACAD_REACTORS
330
2A
102
}
330
2A
100
AcDbVisualStyle
  2
Linepattern
 70
    14
 71
     2
 72
     2
 73
     0
 90
        0
 40
-0.6
 41
-30.0
 62
     5
 63
     7
 74
     1
 91
        4
 64
     7
 65
   257
 75
     7
175
     7
 42
1.0
 92
        8
 66
     7
 43
1.0
 76
     1
 77
     6
 78
     2
 67
     7
 79
     5
170
     0
171
     0
290
     0
174
     0
 93
        1
 44
0.0
173
     0
291
     1
 45
0.0
1001
ACAD
1000
AcDbSavedByObjectVersion
1070
     0
  0
VISUALSTYLE
  5
33
102
{ACAD_REACTORS
330
2A
102
}
330
2A
100
AcDbVisualStyle
  2
Realistic
 70
     8
 71
     2
 72
     2
 73
     0
 90
        0
 40
-0.6
 41
-30.0
 62
     5
 63
     7
 74
     1
 91
        0
 64
     7
 65
   257
 75
     1
175
     1
 42
1.0
 92
        8
 66
     8
 43
1.0
 76
     1
 77
     6
 78
     2
 67
     7
 79
     5
170
     0
171
     0
290
     0
174
     0
 93
       13
 44
0.0
173
     0
291
     0
 45
0.0
1001
ACAD
1000
AcDbSavedByObjectVersion
1070
     0
  0
VISUALSTYLE
  5
37
102
{ACAD_REACTORS
330
2A
102
}
330
2A
100
AcDbVisualStyle
  2
Thicken
 70
    13
 71
     2
 72
     2
 73
     0
 90
        0
 40
-0.6
 41
-30.0
 62
     5
 63
     7
 74
     1
 91
        4
 64
     7
 65
   257
 75
     1
175
     1
 42
1.0
 92
       12
 66
     7
 43
1.0
 76
     1
 77
     6
 78
     2
 67
     7
 79
     5
170
     0
171
     0
290
     0
174
     0
 93
        1
 44
0.0
173
     0
291
     1
 45
0.0
1001
ACAD
1000
AcDbSavedByObjectVersion
1070
     0
  0
DICTIONARYVAR
  5
15E
102
{ACAD_REACTORS
330
15D
102
}
330
15D
100
DictionaryVariables
280
     0
  1
1:1
  0
DICTIONARYVAR
  5
162
102
{ACAD_REACTORS
330
15D
102
}
330
15D
100
DictionaryVariables
280
     0
  1
80.000000
  0
DICTIONARYVAR
  5
161
102
{ACAD_REACTORS
330
15D
102
}
330
15D
100
DictionaryVariables
280
     0
  1
5.000000
  0
ENDSEC
  0
EOF
