  0
SECTION
  2
HEADER
  9
$ACADVER
  1
AC1015
  9
$ACADMAINTVER
 70
     6
  9
$DWGCODEPAGE
  3
ANSI_1252
  9
$INSBASE
 10
0.0
 20
0.0
 30
0.0
  9
$EXTMIN
 10
0.0
 20
0.0
 30
0.0
  9
$EXTMAX
 10
1682.0
 20
2378.0
 30
0.0
  9
$LIMMIN
 10
0.0
 20
0.0
  9
$LIMMAX
 10
1682.0
 20
2378.0
  9
$ORTHOMODE
 70
     0
  9
$REGENMODE
 70
     1
  9
$FILLMODE
 70
     1
  9
$QTEXTMODE
 70
     0
  9
$MIRRTEXT
 70
     1
  9
$LTSCALE
 40
1.0
  9
$ATTMODE
 70
     1
  9
$TEXTSIZE
 40
2.5
  9
$TRACEWID
 40
1.0
  9
$TEXTSTYLE
  7
Standard
  9
$CLAYER
  8
0
  9
$CELTYPE
  6
ByLayer
  9
$CECOLOR
 62
   256
  9
$CELTSCALE
 40
1.0
  9
$DISPSILH
 70
     0
  9
$DIMSCALE
 40
1.0
  9
$DIMASZ
 40
2.5
  9
$DIMEXO
 40
0.625
  9
$DIMDLI
 40
3.75
  9
$DIMRND
 40
0.0
  9
$DIMDLE
 40
0.0
  9
$DIMEXE
 40
1.25
  9
$DIMTP
 40
0.0
  9
$DIMTM
 40
0.0
  9
$DIMTXT
 40
2.5
  9
$DIMCEN
 40
2.5
  9
$DIMTSZ
 40
0.0
  9
$DIMTOL
 70
     0
  9
$DIMLIM
 70
     0
  9
$DIMTIH
 70
     0
  9
$DIMTOH
 70
     0
  9
$DIMSE1
 70
     0
  9
$DIMSE2
 70
     0
  9
$DIMTAD
 70
     1
  9
$DIMZIN
 70
     8
  9
$DIMBLK
  1

  9
$DIMASO
 70
     1
  9
$DIMSHO
 70
     1
  9
$DIMPOST
  1

  9
$DIMAPOST
  1

  9
$DIMALT
 70
     0
  9
$DIMALTD
 70
     3
  9
$DIMALTF
 40
0.0393700787
  9
$DIMLFAC
 40
1.0
  9
$DIMTOFL
 70
     1
  9
$DIMTVP
 40
0.0
  9
$DIMTIX
 70
     0
  9
$DIMSOXD
 70
     0
  9
$DIMSAH
 70
     0
  9
$DIMBLK1
  1

  9
$DIMBLK2
  1

  9
$DIMSTYLE
  2
ISO-25
  9
$DIMCLRD
 70
     0
  9
$DIMCLRE
 70
     0
  9
$DIMCLRT
 70
     0
  9
$DIMTFAC
 40
1.0
  9
$DIMGAP
 40
0.625
  9
$DIMJUST
 70
     0
  9
$DIMSD1
 70
     0
  9
$DIMSD2
 70
     0
  9
$DIMTOLJ
 70
     0
  9
$DIMTZIN
 70
     8
  9
$DIMALTZ
 70
     0
  9
$DIMALTTZ
 70
     0
  9
$DIMUPT
 70
     0
  9
$DIMDEC
 70
     2
  9
$DIMTDEC
 70
     2
  9
$DIMALTU
 70
     2
  9
$DIMALTTD
 70
     3
  9
$DIMTXSTY
  7
Standard
  9
$DIMAUNIT
 70
     0
  9
$DIMADEC
 70
     0
  9
$DIMALTRND
 40
0.0
  9
$DIMAZIN
 70
     0
  9
$DIMDSEP
 70
    44
  9
$DIMATFIT
 70
     3
  9
$DIMFRAC
 70
     0
  9
$DIMLDRBLK
  1

  9
$DIMLUNIT
 70
     2
  9
$DIMLWD
 70
    -2
  9
$DIMLWE
 70
    -2
  9
$DIMTMOVE
 70
     0
  9
$LUNITS
 70
     2
  9
$LUPREC
 70
     4
  9
$SKETCHINC
 40
1.0
  9
$FILLETRAD
 40
10.0
  9
$AUNITS
 70
     0
  9
$AUPREC
 70
     0
  9
$MENU
  1
.
  9
$ELEVATION
 40
0.0
  9
$PELEVATION
 40
0.0
  9
$THICKNESS
 40
0.0
  9
$LIMCHECK
 70
     0
  9
$CHAMFERA
 40
10.0
  9
$CHAMFERB
 40
10.0
  9
$CHAMFERC
 40
20.0
  9
$CHAMFERD
 40
0.0
  9
$SKPOLY
 70
     0
  9
$TDCREATE
 40
2455231.383243437
  9
$TDUCREATE
 40
2455231.341576771
  9
$TDUPDATE
 40
2455231.383243449
  9
$TDUUPDATE
 40
2455231.341576783
  9
$TDINDWG
 40
0.0000000116
  9
$TDUSRTIMER
 40
0.0000000116
  9
$USRTIMER
 70
     1
  9
$ANGBASE
 50
0.0
  9
$ANGDIR
 70
     0
  9
$PDMODE
 70
     0
  9
$PDSIZE
 40
0.0
  9
$PLINEWID
 40
0.0
  9
$SPLFRAME
 70
     0
  9
$SPLINETYPE
 70
     6
  9
$SPLINESEGS
 70
     8
  9
$HANDSEED
  5
2D1
  9
$SURFTAB1
 70
     6
  9
$SURFTAB2
 70
     6
  9
$SURFTYPE
 70
     6
  9
$SURFU
 70
     6
  9
$SURFV
 70
     6
  9
$UCSBASE
  2

  9
$UCSNAME
  2

  9
$UCSORG
 10
0.0
 20
0.0
 30
0.0
  9
$UCSXDIR
 10
1.0
 20
0.0
 30
0.0
  9
$UCSYDIR
 10
0.0
 20
1.0
 30
0.0
  9
$UCSORTHOREF
  2

  9
$UCSORTHOVIEW
 70
     0
  9
$UCSORGTOP
 10
0.0
 20
0.0
 30
0.0
  9
$UCSORGBOTTOM
 10
0.0
 20
0.0
 30
0.0
  9
$UCSORGLEFT
 10
0.0
 20
0.0
 30
0.0
  9
$UCSORGRIGHT
 10
0.0
 20
0.0
 30
0.0
  9
$UCSORGFRONT
 10
0.0
 20
0.0
 30
0.0
  9
$UCSORGBACK
 10
0.0
 20
0.0
 30
0.0
  9
$PUCSBASE
  2

  9
$PUCSNAME
  2

  9
$PUCSORG
 10
0.0
 20
0.0
 30
0.0
  9
$PUCSXDIR
 10
1.0
 20
0.0
 30
0.0
  9
$PUCSYDIR
 10
0.0
 20
1.0
 30
0.0
  9
$PUCSORTHOREF
  2

  9
$PUCSORTHOVIEW
 70
     0
  9
$PUCSORGTOP
 10
0.0
 20
0.0
 30
0.0
  9
$PUCSORGBOTTOM
 10
0.0
 20
0.0
 30
0.0
  9
$PUCSORGLEFT
 10
0.0
 20
0.0
 30
0.0
  9
$PUCSORGRIGHT
 10
0.0
 20
0.0
 30
0.0
  9
$PUCSORGFRONT
 10
0.0
 20
0.0
 30
0.0
  9
$PUCSORGBACK
 10
0.0
 20
0.0
 30
0.0
  9
$USERI1
 70
     0
  9
$USERI2
 70
     0
  9
$USERI3
 70
     0
  9
$USERI4
 70
     0
  9
$USERI5
 70
     0
  9
$USERR1
 40
0.0
  9
$USERR2
 40
0.0
  9
$USERR3
 40
0.0
  9
$USERR4
 40
0.0
  9
$USERR5
 40
0.0
  9
$WORLDVIEW
 70
     1
  9
$SHADEDGE
 70
     3
  9
$SHADEDIF
 70
    70
  9
$TILEMODE
 70
     1
  9
$MAXACTVP
 70
    64
  9
$PINSBASE
 10
0.0
 20
0.0
 30
0.0
  9
$PLIMCHECK
 70
     0
  9
$PEXTMIN
 10
0.0
 20
0.0
 30
0.0
  9
$PEXTMAX
 10
1682.0
 20
2378.0
 30
0.0
  9
$PLIMMIN
 10
0.0
 20
0.0
  9
$PLIMMAX
 10
1682.0
 20
2378.0
  9
$UNITMODE
 70
     0
  9
$VISRETAIN
 70
     1
  9
$PLINEGEN
 70
     0
  9
$PSLTSCALE
 70
     1
  9
$TREEDEPTH
 70
  3020
  9
$CMLSTYLE
  2
Standard
  9
$CMLJUST
 70
     0
  9
$CMLSCALE
 40
20.0
  9
$PROXYGRAPHICS
 70
     1
  9
$MEASUREMENT
 70
     1
  9
$CELWEIGHT
370
    -1
  9
$ENDCAPS
280
     0
  9
$JOINSTYLE
280
     0
  9
$LWDISPLAY
290
     0
  9
$INSUNITS
 70
     4
  9
$HYPERLINKBASE
  1

  9
$STYLESHEET
  1

  9
$XEDIT
290
     1
  9
$CEPSNTYPE
380
     0
  9
$PSTYLEMODE
290
     1
  9
$FINGERPRINTGUID
  2
{F766A018-C2B1-4182-BD02-859FF3B683C8}
  9
$VERSIONGUID
  2
{FAEB1C32-E019-11D5-929B-00C0DF256EC4}
  9
$EXTNAMES
290
     1
  9
$PSVPSCALE
 40
0.0
  9
$OLESTARTUP
290
     0
  0
ENDSEC
  0
SECTION
  2
CLASSES
  0
CLASS
  1
ACDBDICTIONARYWDFLT
  2
AcDbDictionaryWithDefault
  3
ObjectDBX Classes
 90
        0
280
     0
281
     0
  0
CLASS
  1
VISUALSTYLE
  2
AcDbVisualStyle
  3
ObjectDBX Classes
 90
     4095
280
     0
281
     0
  0
CLASS
  1
SCALE
  2
AcDbScale
  3
ObjectDBX Classes
 90
     1153
280
     0
281
     0
  0
CLASS
  1
DICTIONARYVAR
  2
AcDbDictionaryVar
  3
ObjectDBX Classes
 90
        0
280
     0
281
     0
  0
CLASS
  1
ACDBPLACEHOLDER
  2
AcDbPlaceHolder
  3
ObjectDBX Classes
 90
        0
280
     0
281
     0
  0
CLASS
  1
LAYOUT
  2
AcDbLayout
  3
ObjectDBX Classes
 90
        0
280
     0
281
     0
  0
ENDSEC
  0
SECTION
  2
TABLES
  0
TABLE
  2
VPORT
  5
8
330
0
100
AcDbSymbolTable
 70
     1
  0
VPORT
  5
29
330
8
100
AcDbSymbolTableRecord
100
AcDbViewportTableRecord
  2
*Active
 70
     0
 10
0.0
 20
0.0
 11
1.0
 21
1.0
 12
344.1869158879
 22
148.5
 13
0.0
 23
0.0
 14
10.0
 24
10.0
 15
10.0
 25
10.0
 16
0.0
 26
0.0
 36
1.0
 17
0.0
 27
0.0
 37
0.0
 40
297.0
 41
1.9729729729
 42
50.0
 43
0.0
 44
0.0
 50
0.0
 51
0.0
 71
     0
 72
   100
 73
     1
 74
     3
 75
     0
 76
     0
 77
     0
 78
     0
281
     0
 65
     1
110
0.0
120
0.0
130
0.0
111
1.0
121
0.0
131
0.0
112
0.0
122
1.0
132
0.0
 79
     0
146
0.0
  0
ENDTAB
  0
TABLE
  2
LTYPE
  5
5
330
0
100
AcDbSymbolTable
 70
     2
  0
LTYPE
  5
14
330
5
100
AcDbSymbolTableRecord
100
AcDbLinetypeTableRecord
  2
ByBlock
 70
     0
  3

 72
    65
 73
     0
 40
0.0
  0
LTYPE
  5
15
330
5
100
AcDbSymbolTableRecord
100
AcDbLinetypeTableRecord
  2
ByLayer
 70
     0
  3

 72
    65
 73
     0
 40
0.0
  0
LTYPE
  5
16
330
5
100
AcDbSymbolTableRecord
100
AcDbLinetypeTableRecord
  2
Continuous
 70
     0
  3
Solid line
 72
    65
 73
     0
 40
0.0
  0
LTYPE
  5
DC
330
5
100
AcDbSymbolTableRecord
100
AcDbLinetypeTableRecord
  2
CENTER2
 70
     0
  3
Center (.5x) ___ _ ___ _ ___ _ ___ _ ___ _ ___
 72
    65
 73
     4
 40
28.575
 49
19.05
 74
     4
 75
     0
340
0
 46
0.0
 50
0.0
 44
0.0
 45
0.0
 49
-3.175
 74
     4
 75
     0
340
0
 46
0.0
 50
0.0
 44
0.0
 45
0.0
 49
3.175
 74
     4
 75
     0
340
0
 46
0.0
 50
0.0
 44
0.0
 45
0.0
 49
-3.175
 74
     4
 75
     0
340
0
 46
0.0
 50
0.0
 44
0.0
 45
0.0
  0
ENDTAB
  0
TABLE
  2
LAYER
  5
2
330
0
100
AcDbSymbolTable
 70
    11
  0
LAYER
  5
10
330
2
100
AcDbSymbolTableRecord
100
AcDbLayerTableRecord
  2
0
 70
     0
 62
     7
  6
Continuous
370
    -3
390
F
  0
LAYER
  5
5D
330
2
100
AcDbSymbolTableRecord
100
AcDbLayerTableRecord
  2
Default
 70
     0
 62
     7
  6
Continuous
370
    -3
390
F
  0
LAYER
  5
60
330
2
100
AcDbSymbolTableRecord
100
AcDbLayerTableRecord
  2
$DDT_AUDIT_GENERATED_(60)
 70
     0
 62
     7
  6
Continuous
370
    -3
390
F
  0
LAYER
  5
C1
330
2
100
AcDbSymbolTableRecord
100
AcDbLayerTableRecord
  2
$DDT_AUDIT_GENERATED_(C1)
 70
     0
 62
     7
  6
Continuous
370
    -3
390
F
  0
LAYER
  5
DB
330
2
100
AcDbSymbolTableRecord
100
AcDbLayerTableRecord
  2
DV1_Standard
 70
     0
 62
     7
  6
Continuous
370
    -3
390
F
  0
LAYER
  5
F8
330
2
100
AcDbSymbolTableRecord
100
AcDbLayerTableRecord
  2
$DDT_AUDIT_GENERATED_(F8)
 70
     0
 62
     7
  6
Continuous
370
    -3
390
F
  0
LAYER
  5
1A5
330
2
100
AcDbSymbolTableRecord
100
AcDbLayerTableRecord
  2
$DDT_AUDIT_GENERATED_(1A5)
 70
     0
 62
     7
  6
Continuous
370
    -3
390
F
  0
LAYER
  5
1B0
330
2
100
AcDbSymbolTableRecord
100
AcDbLayerTableRecord
  2
$DDT_AUDIT_GENERATED_(1B0)
 70
     0
 62
     7
  6
Continuous
370
    -3
390
F
  0
LAYER
  5
1B5
330
2
100
AcDbSymbolTableRecord
100
AcDbLayerTableRecord
  2
$DDT_AUDIT_GENERATED_(1B5)
 70
     0
 62
     7
  6
Continuous
370
    -3
390
F
  0
LAYER
  5
1BE
330
2
100
AcDbSymbolTableRecord
100
AcDbLayerTableRecord
  2
DV2_Standard
 70
     0
 62
     7
  6
Continuous
370
    -3
390
F
  0
LAYER
  5
2B4
330
2
100
AcDbSymbolTableRecord
100
AcDbLayerTableRecord
  2
DV3_Standard
 70
     0
 62
     7
  6
Continuous
370
    -3
390
F
  0
ENDTAB
  0
TABLE
  2
STYLE
  5
3
330
0
100
AcDbSymbolTable
 70
     2
  0
STYLE
  5
11
330
3
100
AcDbSymbolTableRecord
100
AcDbTextStyleTableRecord
  2
Standard
 70
     0
 40
0.0
 41
1.0
 50
0.0
 71
     0
 42
2.5
  3
txt
  4

  0
STYLE
  5
2C0
330
3
100
AcDbSymbolTableRecord
100
AcDbTextStyleTableRecord
  2
SEACAD_seiso_ttf
 70
     0
 40
0.0
 41
1.0
 50
0.0
 71
     0
 42
0.2
  3
seiso.ttf
  4

  0
ENDTAB
  0
TABLE
  2
VIEW
  5
6
330
0
100
AcDbSymbolTable
 70
     0
  0
ENDTAB
  0
TABLE
  2
UCS
  5
7
330
0
100
AcDbSymbolTable
 70
     0
  0
ENDTAB
  0
TABLE
  2
APPID
  5
9
330
0
100
AcDbSymbolTable
 70
     1
  0
APPID
  5
12
330
9
100
AcDbSymbolTableRecord
100
AcDbRegAppTableRecord
  2
ACAD
 70
     0
  0
ENDTAB
  0
TABLE
  2
DIMSTYLE
  5
A
330
0
100
AcDbSymbolTable
 70
     1
100
AcDbDimStyleTable
  0
DIMSTYLE
105
27
330
A
100
AcDbSymbolTableRecord
100
AcDbDimStyleTableRecord
  2
ISO-25
 70
     0
 41
2.5
 42
0.625
 43
3.75
 44
1.25
 73
     0
 74
     0
 77
     1
 78
     8
140
2.5
141
2.5
143
0.0393700787
147
0.625
171
     3
172
     1
271
     2
272
     2
274
     3
278
    44
283
     0
284
     8
340
11
  0
ENDTAB
  0
TABLE
  2
BLOCK_RECORD
  5
1
330
0
100
AcDbSymbolTable
 70
     4
  0
BLOCK_RECORD
  5
1F
330
1
100
AcDbSymbolTableRecord
100
AcDbBlockTableRecord
  2
*Model_Space
340
22
  0
BLOCK_RECORD
  5
1B
330
1
100
AcDbSymbolTableRecord
100
AcDbBlockTableRecord
  2
*Paper_Space
340
1E
  0
BLOCK_RECORD
  5
5E
330
1
100
AcDbSymbolTableRecord
100
AcDbBlockTableRecord
  2
SE
340
0
102
{BLKREFS
331
5F
102
}
  0
BLOCK_RECORD
  5
E5
330
1
100
AcDbSymbolTableRecord
100
AcDbBlockTableRecord
  2
SE1
340
0
102
{BLKREFS
331
E6
102
}
  0
BLOCK_RECORD
  5
1CA
330
1
100
AcDbSymbolTableRecord
100
AcDbBlockTableRecord
  2
SE2
340
0
102
{BLKREFS
331
1CB
102
}
  0
ENDTAB
  0
ENDSEC
  0
SECTION
  2
BLOCKS
  0
BLOCK
  5
20
330
1F
100
AcDbEntity
  8
0
100
AcDbBlockBegin
  2
*Model_Space
 70
     0
 10
0.0
 20
0.0
 30
0.0
  3
*Model_Space
  1

  0
ENDBLK
  5
21
330
1F
100
AcDbEntity
  8
0
100
AcDbBlockEnd
  0
BLOCK
  5
1C
330
1B
100
AcDbEntity
 67
     1
  8
0
100
AcDbBlockBegin
  2
*Paper_Space
 70
     0
 10
0.0
 20
0.0
 30
0.0
  3
*Paper_Space
  1

  0
ENDBLK
  5
1D
330
1B
100
AcDbEntity
 67
     1
  8
0
100
AcDbBlockEnd
  0
BLOCK
  5
E3
330
5E
100
AcDbEntity
  8
0
100
AcDbBlockBegin
  2
SE
 70
     0
 10
0.0
 20
0.0
 30
0.0
  3
SE
  1

  0
ELLIPSE
  5
61
330
5E
100
AcDbEntity
  8
$DDT_AUDIT_GENERATED_(60)
  6
Continuous
 62
     7
100
AcDbEllipse
 10
39.3317955256
 20
298.2179887077
 30
0.0
 11
-2.700000000000007
 21
2.411265631607762E-13
 31
0.0
210
0.0
220
0.0
230
1.0
 40
0.9836717355
 41
0.0
 42
6.283185307179586
  0
ELLIPSE
  5
62
330
5E
100
AcDbEntity
  8
$DDT_AUDIT_GENERATED_(60)
  6
Continuous
 62
     7
100
AcDbEllipse
 10
27.3674645903
 20
289.525393464
 30
0.0
 11
-0.834345884811889
 21
-2.567852593997074
 31
0.0
210
0.0
220
0.0
230
0.9999999999999998
 40
0.9836717355
 41
0.0
 42
6.283185307179586
  0
ELLIPSE
  5
63
330
5E
100
AcDbEntity
  8
$DDT_AUDIT_GENERATED_(60)
  6
Continuous
 62
     7
100
AcDbEllipse
 10
31.9374323549
 20
275.4604789093
 30
0.0
 11
-2.184345884813207
 21
1.587020181188477
 31
0.0
210
0.0
220
0.0
230
0.9999999999999999
 40
0.9836717355
 41
0.0
 42
6.283185307179586
  0
ELLIPSE
  5
64
330
5E
100
AcDbEntity
  8
$DDT_AUDIT_GENERATED_(60)
  6
Continuous
 62
     7
100
AcDbEllipse
 10
46.7261586963
 20
275.4604789093
 30
0.0
 11
2.184345884812406
 21
1.58702018118961
 31
0.0
210
0.0
220
0.0
230
1.0
 40
0.9836717355
 41
0.0
 42
6.283185307179586
  0
ELLIPSE
  5
65
330
5E
100
AcDbEntity
  8
$DDT_AUDIT_GENERATED_(60)
  6
Continuous
 62
     7
100
AcDbEllipse
 10
51.3040194893
 20
289.5279580644
 30
0.0
 11
-0.8485958821594971
 21
2.611709576234397
 31
0.0
210
0.0
220
0.0
230
1.0
 40
0.9836717355
 41
0.0
 42
6.283185307179586
  0
ELLIPSE
  5
66
330
5E
100
AcDbEntity
  8
$DDT_AUDIT_GENERATED_(60)
  6
Continuous
 62
     7
100
AcDbEllipse
 10
39.3317955256
 20
292.2461399682
 30
0.0
 11
2.299999999999969
 21
3.899658373995862E-12
 31
0.0
210
0.0
220
0.0
230
1.0
 40
0.9955212713
 41
0.0
 42
6.283185307179586
  0
ELLIPSE
  5
67
330
5E
100
AcDbEntity
  8
$DDT_AUDIT_GENERATED_(60)
  6
Continuous
 62
     7
100
AcDbEllipse
 10
34.6590972479
 20
290.3106449686
 30
0.0
 11
-1.626345596720391
 21
-1.626345596737651
 31
0.0
210
0.0
220
0.0
230
1.0
 40
0.9955212713
 41
0.0
 42
6.283185307179586
  0
ELLIPSE
  5
68
330
5E
100
AcDbEntity
  8
$DDT_AUDIT_GENERATED_(60)
  6
Continuous
 62
     7
100
AcDbEllipse
 10
32.7236022483
 20
285.6379466909
 30
0.0
 11
-8.769027171062760E-13
 21
2.299999999999993
 31
0.0
210
0.0
220
0.0
230
1.0
 40
0.9955212712
 41
0.0
 42
6.283185307179586
  0
ELLIPSE
  5
69
330
5E
100
AcDbEntity
  8
$DDT_AUDIT_GENERATED_(60)
  6
Continuous
 62
     7
100
AcDbEllipse
 10
34.6590972479
 20
280.9652484131
 30
0.0
 11
-1.626345596730177
 21
1.626345596727929
 31
0.0
210
0.0
220
0.0
230
1.0
 40
0.9955212712
 41
0.0
 42
6.283185307179586
  0
ELLIPSE
  5
6A
330
5E
100
AcDbEntity
  8
$DDT_AUDIT_GENERATED_(60)
  6
Continuous
 62
     7
100
AcDbEllipse
 10
39.3317955256
 20
279.0297534135
 30
0.0
 11
2.299999999999993
 21
1.000068083900629E-12
 31
0.0
210
0.0
220
0.0
230
1.0
 40
0.9955212712
 41
0.0
 42
6.283185307179586
  0
ELLIPSE
  5
6B
330
5E
100
AcDbEntity
  8
$DDT_AUDIT_GENERATED_(60)
  6
Continuous
 62
     7
100
AcDbEllipse
 10
44.0044938034
 20
280.9652484131
 30
0.0
 11
1.626345596733979
 21
1.626345596724096
 31
0.0
210
0.0
220
0.0
230
1.0
 40
0.9955212713
 41
0.0
 42
6.283185307179586
  0
ELLIPSE
  5
6C
330
5E
100
AcDbEntity
  8
$DDT_AUDIT_GENERATED_(60)
  6
Continuous
 62
     7
100
AcDbEllipse
 10
45.9399888029
 20
285.6379466909
 30
0.0
 11
-9.593020822151743E-13
 21
2.299999999999993
 31
0.0
210
0.0
220
0.0
230
1.0
 40
0.9955212712
 41
0.0
 42
6.283185307179586
  0
ELLIPSE
  5
6D
330
5E
100
AcDbEntity
  8
$DDT_AUDIT_GENERATED_(60)
  6
Continuous
 62
     7
100
AcDbEllipse
 10
44.0044938034
 20
290.3106449686
 30
0.0
 11
-1.626345596727792
 21
1.626345596730317
 31
0.0
210
0.0
220
0.0
230
1.0
 40
0.9955212712
 41
0.0
 42
6.283185307179586
  0
ARC
  5
6E
330
5E
100
AcDbEntity
  8
$DDT_AUDIT_GENERATED_(60)
  6
Continuous
 62
     7
100
AcDbCircle
 10
27.7602870786
 20
266.8451028902
 30
0.0
 40
6.842542508659754
100
AcDbArc
 50
307.2919844176
 51
14.8132787403
  0
ARC
  5
6F
330
5E
100
AcDbEntity
  8
$DDT_AUDIT_GENERATED_(60)
  6
Continuous
 62
     7
100
AcDbCircle
 10
31.3003518588
 20
262.2431505293
 30
0.0
 40
1.036958206950004
100
AcDbArc
 50
196.3666588175
 51
305.7386043404
  0
ARC
  5
70
330
5E
100
AcDbEntity
  8
$DDT_AUDIT_GENERATED_(60)
  6
Continuous
 62
     7
100
AcDbCircle
 10
36.9202612736
 20
263.7004797771
 30
0.0
 40
6.842299247160264
100
AcDbArc
 50
127.2906227701
 51
194.8146403878
  0
ARC
  5
71
330
5E
100
AcDbEntity
  8
$DDT_AUDIT_GENERATED_(60)
  6
Continuous
 62
     7
100
AcDbCircle
 10
33.3912653894
 20
268.3337735691
 30
0.0
 40
1.018106433516136
100
AcDbArc
 50
14.8401650135
 51
127.2650981444
  0
ARC
  5
72
330
5E
100
AcDbEntity
  8
$DDT_AUDIT_GENERATED_(60)
  6
Continuous
 62
     7
100
AcDbCircle
 10
34.492913334
 20
264.1067553628
 30
0.0
 40
6.889393109462005
100
AcDbArc
 50
326.2267602839
 51
33.7732397161
  0
ARC
  5
73
330
5E
100
AcDbEntity
  8
$DDT_AUDIT_GENERATED_(60)
  6
Continuous
 62
     7
100
AcDbCircle
 10
39.3317955256
 20
260.9088255766
 30
0.0
 40
1.089808826776488
100
AcDbArc
 50
215.4406027893
 51
324.5593972107
  0
ARC
  5
74
330
5E
100
AcDbEntity
  8
$DDT_AUDIT_GENERATED_(60)
  6
Continuous
 62
     7
100
AcDbCircle
 10
39.3317955256
 20
267.3394750903
 30
0.0
 40
1.070011050960047
100
AcDbArc
 50
33.9226939489
 51
146.0773060511
  0
ARC
  5
75
330
5E
100
AcDbEntity
  8
$DDT_AUDIT_GENERATED_(60)
  6
Continuous
 62
     7
100
AcDbCircle
 10
44.1750124135
 20
264.1067553628
 30
0.0
 40
6.892996721745045
100
AcDbArc
 50
146.2467900428
 51
213.7532099572
  0
ARC
  5
76
330
5E
100
AcDbEntity
  8
$DDT_AUDIT_GENERATED_(60)
  6
Continuous
 62
     7
100
AcDbCircle
 10
41.7462637138
 20
263.7021922193
 30
0.0
 40
6.889393109579856
100
AcDbArc
 50
345.174128705
 51
52.7206081371
  0
ARC
  5
77
330
5E
100
AcDbEntity
  8
$DDT_AUDIT_GENERATED_(60)
  6
Continuous
 62
     7
100
AcDbCircle
 10
47.3613280253
 20
262.2487175689
 30
0.0
 40
1.089808826899561
100
AcDbArc
 50
234.3879712106
 51
343.5067656315
  0
ARC
  5
78
330
5E
100
AcDbEntity
  8
$DDT_AUDIT_GENERATED_(60)
  6
Continuous
 62
     7
100
AcDbCircle
 10
45.2732995416
 20
268.3309367543
 30
0.0
 40
1.070011051077687
100
AcDbArc
 50
52.8700623699
 51
165.0246744722
  0
ARC
  5
79
330
5E
100
AcDbEntity
  8
$DDT_AUDIT_GENERATED_(60)
  6
Continuous
 62
     7
100
AcDbCircle
 10
50.903759959
 20
266.8459646512
 30
0.0
 40
6.892996721863397
100
AcDbArc
 50
165.1941584639
 51
232.7005783782
  0
ARC
  5
7A
330
5E
100
AcDbEntity
  8
$DDT_AUDIT_GENERATED_(60)
  6
Continuous
 62
     7
100
AcDbCircle
 10
48.7379690011
 20
265.674708441
 30
0.0
 40
6.889393109547189
100
AcDbArc
 50
4.121497126
 51
71.6679765583
  0
ARC
  5
7B
330
5E
100
AcDbEntity
  8
$DDT_AUDIT_GENERATED_(60)
  6
Continuous
 62
     7
100
AcDbCircle
 10
54.5207360877
 20
266.1231954578
 30
0.0
 40
1.089808826877386
100
AcDbArc
 50
253.3353396316
 51
2.4541340526
  0
ARC
  5
7C
330
5E
100
AcDbEntity
  8
$DDT_AUDIT_GENERATED_(60)
  6
Continuous
 62
     7
100
AcDbCircle
 10
50.5709494055
 20
271.1978814908
 30
0.0
 40
1.07001105105574
100
AcDbArc
 50
71.8174307909
 51
183.9720428933
  0
ARC
  5
7D
330
5E
100
AcDbEntity
  8
$DDT_AUDIT_GENERATED_(60)
  6
Continuous
 62
     7
100
AcDbCircle
 10
56.3785056006
 20
271.6215767811
 30
0.0
 40
6.892996721839528
100
AcDbArc
 50
184.1415268849
 51
251.6479467993
  0
ARC
  5
7E
330
5E
100
AcDbEntity
  8
$DDT_AUDIT_GENERATED_(60)
  6
Continuous
 62
     7
100
AcDbCircle
 10
54.7103694405
 20
269.8105512887
 30
0.0
 40
6.889393109544837
100
AcDbArc
 50
23.0688655471
 51
90.6153449792
  0
ARC
  5
7F
330
5E
100
AcDbEntity
  8
$DDT_AUDIT_GENERATED_(60)
  6
Continuous
 62
     7
100
AcDbCircle
 10
60.0341867594
 20
272.1123994454
 30
0.0
 40
1.089808826856421
100
AcDbArc
 50
272.2827080523
 51
21.401502474
  0
ARC
  5
80
330
5E
100
AcDbEntity
  8
$DDT_AUDIT_GENERATED_(60)
  6
Continuous
 62
     7
100
AcDbCircle
 10
54.6506625531
 20
275.6296313525
 30
0.0
 40
1.070011051041351
100
AcDbArc
 50
90.7647992121
 51
202.9194113142
  0
ARC
  5
81
330
5E
100
AcDbEntity
  8
$DDT_AUDIT_GENERATED_(60)
  6
Continuous
 62
     7
100
AcDbCircle
 10
60.0059756987
 20
277.9160800772
 30
0.0
 40
6.89299672182239
100
AcDbArc
 50
203.088895306
 51
270.5953152203
  0
ARC
  5
82
330
5E
100
AcDbEntity
  8
$DDT_AUDIT_GENERATED_(60)
  6
Continuous
 62
     7
100
AcDbCircle
 10
22.288506135
 20
271.6189143556
 30
0.0
 40
6.889393109548061
100
AcDbArc
 50
288.3320234418
 51
355.878502874
  0
ARC
  5
83
330
5E
100
AcDbEntity
  8
$DDT_AUDIT_GENERATED_(60)
  6
Continuous
 62
     7
100
AcDbCircle
 10
24.1428549636
 20
266.1231954578
 30
0.0
 40
1.089808826863222
100
AcDbArc
 50
177.5458659473
 51
286.6646603685
  0
ARC
  5
84
330
5E
100
AcDbEntity
  8
$DDT_AUDIT_GENERATED_(60)
  6
Continuous
 62
     7
100
AcDbCircle
 10
28.0926416458
 20
271.1978814908
 30
0.0
 40
1.070011051043583
100
AcDbArc
 50
356.0279571067
 51
108.1825692091
  0
ARC
  5
85
330
5E
100
AcDbEntity
  8
$DDT_AUDIT_GENERATED_(60)
  6
Continuous
 62
     7
100
AcDbCircle
 10
29.9290427346
 20
265.6720460155
 30
0.0
 40
6.892996721836816
100
AcDbArc
 50
108.3520532008
 51
175.858473115
  0
ARC
  5
86
330
5E
100
AcDbEntity
  8
$DDT_AUDIT_GENERATED_(60)
  6
Continuous
 62
     7
100
AcDbCircle
 10
61.3930775821
 20
285.047367438
 30
0.0
 40
6.892996720844483
100
AcDbArc
 50
222.036263727
 51
289.5426836414
  0
ARC
  5
87
330
5E
100
AcDbEntity
  8
$DDT_AUDIT_GENERATED_(60)
  6
Continuous
 62
     7
100
AcDbCircle
 10
57.0703387615
 20
281.1459374761
 30
0.0
 40
1.070011050044943
100
AcDbArc
 50
109.7121676331
 51
221.8667797353
  0
ARC
  5
88
330
5E
100
AcDbEntity
  8
$DDT_AUDIT_GENERATED_(60)
  6
Continuous
 62
     7
100
AcDbCircle
 10
63.3042121103
 20
279.5673063475
 30
0.0
 40
1.089808825848799
100
AcDbArc
 50
291.2300764738
 51
40.3488708946
  0
ARC
  5
89
330
5E
100
AcDbEntity
  8
$DDT_AUDIT_GENERATED_(60)
  6
Continuous
 62
     7
100
AcDbCircle
 10
59.016262773
 20
275.6615380156
 30
0.0
 40
6.889393108568614
100
AcDbArc
 50
42.0162339681
 51
109.5627134003
  0
ARC
  5
8A
330
5E
100
AcDbEntity
  8
$DDT_AUDIT_GENERATED_(60)
  6
Continuous
 62
     7
100
AcDbCircle
 10
60.3894972386
 20
292.2426532247
 30
0.0
 40
6.892996720988306
100
AcDbArc
 50
240.9836321481
 51
308.4900520625
  0
ARC
  5
8B
330
5E
100
AcDbEntity
  8
$DDT_AUDIT_GENERATED_(60)
  6
Continuous
 62
     7
100
AcDbCircle
 10
57.5677685685
 20
287.1490224988
 30
0.0
 40
1.070011050186026
100
AcDbArc
 50
128.659536054
 51
240.8141481565
  0
ARC
  5
8C
330
5E
100
AcDbEntity
  8
$DDT_AUDIT_GENERATED_(60)
  6
Continuous
 62
     7
100
AcDbCircle
 10
63.9764541538
 20
287.6800613266
 30
0.0
 40
1.089808825990887
100
AcDbArc
 50
310.1774448946
 51
59.2962393159
  0
ARC
  5
8D
330
5E
100
AcDbEntity
  8
$DDT_AUDIT_GENERATED_(60)
  6
Continuous
 62
     7
100
AcDbCircle
 10
61.1890386433
 20
282.5936234223
 30
0.0
 40
6.889393108720613
100
AcDbArc
 50
60.9636023892
 51
128.5100818213
  0
ARC
  5
8E
330
5E
100
AcDbEntity
  8
$DDT_AUDIT_GENERATED_(60)
  6
Continuous
 62
     7
100
AcDbCircle
 10
57.1039881705
 20
298.7222165758
 30
0.0
 40
6.892996720871867
100
AcDbArc
 50
259.9310005691
 51
327.4374204835
  0
ARC
  5
8F
330
5E
100
AcDbEntity
  8
$DDT_AUDIT_GENERATED_(60)
  6
Continuous
 62
     7
100
AcDbCircle
 10
56.089047736
 20
292.9883590109
 30
0.0
 40
1.070011050067445
100
AcDbArc
 50
147.6069044753
 51
259.7615165774
  0
ARC
  5
90
330
5E
100
AcDbEntity
  8
$DDT_AUDIT_GENERATED_(60)
  6
Continuous
 62
     7
100
AcDbCircle
 10
61.9780650337
 20
295.5715214982
 30
0.0
 40
1.08980882586776
100
AcDbArc
 50
329.1248133157
 51
78.2436077369
  0
ARC
  5
91
330
5E
100
AcDbEntity
  8
$DDT_AUDIT_GENERATED_(60)
  6
Continuous
 62
     7
100
AcDbCircle
 10
60.9932430718
 20
289.8556084928
 30
0.0
 40
6.889393108578366
100
AcDbArc
 50
79.9109708102
 51
147.4574502425
  0
ARC
  5
92
330
5E
100
AcDbEntity
  8
$DDT_AUDIT_GENERATED_(60)
  6
Continuous
 62
     7
100
AcDbCircle
 10
51.8925862654
 20
303.7838962615
 30
0.0
 40
6.892996720870764
100
AcDbArc
 50
278.8783689902
 51
346.3847889045
  0
ARC
  5
93
330
5E
100
AcDbEntity
  8
$DDT_AUDIT_GENERATED_(60)
  6
Continuous
 62
     7
100
AcDbCircle
 10
52.7944186109
 20
298.0311642948
 30
0.0
 40
1.070011050058423
100
AcDbArc
 50
166.5542728961
 51
278.7088849986
  0
ARC
  5
94
330
5E
100
AcDbEntity
  8
$DDT_AUDIT_GENERATED_(60)
  6
Continuous
 62
     7
100
AcDbCircle
 10
57.5256012194
 20
302.3865247041
 30
0.0
 40
1.089808825857013
100
AcDbArc
 50
348.0721817365
 51
97.1909761583
  0
ARC
  5
95
330
5E
100
AcDbEntity
  8
$DDT_AUDIT_GENERATED_(60)
  6
Continuous
 62
     7
100
AcDbCircle
 10
58.4500935466
 20
296.6605444632
 30
0.0
 40
6.889393108590603
100
AcDbArc
 50
98.8583392313
 51
166.4048186634
  0
ARC
  5
96
330
5E
100
AcDbEntity
  8
$DDT_AUDIT_GENERATED_(60)
  6
Continuous
 62
     7
100
AcDbCircle
 10
45.320027783
 20
306.8791807478
 30
0.0
 40
6.892996720855987
100
AcDbArc
 50
297.8257374112
 51
5.3321573256
  0
ARC
  5
97
330
5E
100
AcDbEntity
  8
$DDT_AUDIT_GENERATED_(60)
  6
Continuous
 62
     7
100
AcDbCircle
 10
48.0409053805
 20
301.7309721507
 30
0.0
 40
1.070011050048124
100
AcDbArc
 50
185.5016413169
 51
297.6562534199
  0
ARC
  5
98
330
5E
100
AcDbEntity
  8
$DDT_AUDIT_GENERATED_(60)
  6
Continuous
 62
     7
100
AcDbCircle
 10
51.1015562521
 20
307.3865596013
 30
0.0
 40
1.089808825853042
100
AcDbArc
 50
7.0195501578
 51
116.138344579
  0
ARC
  5
99
330
5E
100
AcDbEntity
  8
$DDT_AUDIT_GENERATED_(60)
  6
Continuous
 62
     7
100
AcDbCircle
 10
53.8351797799
 20
302.2710109318
 30
0.0
 40
6.889393108574501
100
AcDbArc
 50
117.8057076523
 51
185.3521870845
  0
ARC
  5
9A
330
5E
100
AcDbEntity
  8
$DDT_AUDIT_GENERATED_(60)
  6
Continuous
 62
     7
100
AcDbCircle
 10
38.0985514184
 20
307.6726479323
 30
0.0
 40
6.892996720864627
100
AcDbArc
 50
316.7731058324
 51
24.2795257466
  0
ARC
  5
9B
330
5E
100
AcDbEntity
  8
$DDT_AUDIT_GENERATED_(60)
  6
Continuous
 62
     7
100
AcDbCircle
 10
42.3436249615
 20
303.6868509891
 30
0.0
 40
1.070011050042878
100
AcDbArc
 50
204.4490097385
 51
316.6036218405
  0
ARC
  5
9C
330
5E
100
AcDbEntity
  8
$DDT_AUDIT_GENERATED_(60)
  6
Continuous
 62
     7
100
AcDbCircle
 10
43.4020750834
 20
310.0297948252
 30
0.0
 40
1.089808825842407
100
AcDbArc
 50
25.9669185789
 51
135.0857130001
  0
ARC
  5
9D
330
5E
100
AcDbEntity
  8
$DDT_AUDIT_GENERATED_(60)
  6
Continuous
 62
     7
100
AcDbCircle
 10
47.6485992861
 20
306.0790268013
 30
0.0
 40
6.889393108556821
100
AcDbArc
 50
136.7530760733
 51
204.2995555056
  0
ARC
  5
9E
330
5E
100
AcDbEntity
  8
$DDT_AUDIT_GENERATED_(60)
  6
Continuous
 62
     7
100
AcDbCircle
 10
31.0107161886
 20
306.0783133337
 30
0.0
 40
6.892996720881475
100
AcDbArc
 50
335.7204742534
 51
43.2268941677
  0
ARC
  5
9F
330
5E
100
AcDbEntity
  8
$DDT_AUDIT_GENERATED_(60)
  6
Continuous
 62
     7
100
AcDbCircle
 10
36.3199660898
 20
303.6868509891
 30
0.0
 40
1.070011050073411
100
AcDbArc
 50
223.3963781595
 51
335.5509902615
  0
ARC
  5
A0
330
5E
100
AcDbEntity
  8
$DDT_AUDIT_GENERATED_(60)
  6
Continuous
 62
     7
100
AcDbCircle
 10
35.2615159678
 20
310.0297948252
 30
0.0
 40
1.089808825870956
100
AcDbArc
 50
44.9142869997
 51
154.0330814213
  0
ARC
  5
A1
330
5E
100
AcDbEntity
  8
$DDT_AUDIT_GENERATED_(60)
  6
Continuous
 62
     7
100
AcDbCircle
 10
40.5607640563
 20
307.6719344648
 30
0.0
 40
6.889393108608217
100
AcDbArc
 50
155.7004444945
 51
223.2469239266
  0
ARC
  5
A2
330
5E
100
AcDbEntity
  8
$DDT_AUDIT_GENERATED_(60)
  6
Continuous
 62
     7
100
AcDbCircle
 10
24.8245990198
 20
302.2689478444
 30
0.0
 40
6.892996720875468
100
AcDbArc
 50
354.6678426744
 51
62.1742625887
  0
ARC
  5
A3
330
5E
100
AcDbEntity
  8
$DDT_AUDIT_GENERATED_(60)
  6
Continuous
 62
     7
100
AcDbCircle
 10
30.6226856708
 20
301.7309721507
 30
0.0
 40
1.070011050066675
100
AcDbArc
 50
242.3437465806
 51
354.4983586826
  0
ARC
  5
A4
330
5E
100
AcDbEntity
  8
$DDT_AUDIT_GENERATED_(60)
  6
Continuous
 62
     7
100
AcDbCircle
 10
27.5620347992
 20
307.3865596013
 30
0.0
 40
1.089808825866855
100
AcDbArc
 50
63.861655421
 51
172.9804498421
  0
ARC
  5
A5
330
5E
100
AcDbEntity
  8
$DDT_AUDIT_GENERATED_(60)
  6
Continuous
 62
     7
100
AcDbCircle
 10
33.3397510168
 20
306.8771176604
 30
0.0
 40
6.889393108573753
100
AcDbArc
 50
174.6478129154
 51
242.1942923478
  0
ARC
  5
A6
330
5E
100
AcDbEntity
  8
$DDT_AUDIT_GENERATED_(60)
  6
Continuous
 62
     7
100
AcDbCircle
 10
26.7680689759
 20
303.7807071218
 30
0.0
 40
6.889393109544194
100
AcDbArc
 50
193.5951813365
 51
261.1416607688
  0
ARC
  5
A7
330
5E
100
AcDbEntity
  8
$DDT_AUDIT_GENERATED_(60)
  6
Continuous
 62
     7
100
AcDbCircle
 10
21.1379898319
 20
302.386524704
 30
0.0
 40
1.08980882686938
100
AcDbArc
 50
82.8090238422
 51
191.9278182631
  0
ARC
  5
A8
330
5E
100
AcDbEntity
  8
$DDT_AUDIT_GENERATED_(60)
  6
Continuous
 62
     7
100
AcDbCircle
 10
25.8691724403
 20
298.0311642948
 30
0.0
 40
1.070011051046661
100
AcDbArc
 50
261.2911150014
 51
13.4457271039
  0
ARC
  5
A9
330
5E
100
AcDbEntity
  8
$DDT_AUDIT_GENERATED_(60)
  6
Continuous
 62
     7
100
AcDbCircle
 10
20.2105616948
 20
296.6573553235
 30
0.0
 40
6.892996721838837
100
AcDbArc
 50
13.6152110955
 51
81.1216310098
  0
ARC
  5
AA
330
5E
100
AcDbEntity
  8
$DDT_AUDIT_GENERATED_(60)
  6
Continuous
 62
     7
100
AcDbCircle
 10
17.6686067518
 20
289.8516388936
 30
0.0
 40
6.892996720874385
100
AcDbArc
 50
32.5625795166
 51
100.0689994308
  0
ARC
  5
AB
330
5E
100
AcDbEntity
  8
$DDT_AUDIT_GENERATED_(60)
  6
Continuous
 62
     7
100
AcDbCircle
 10
22.5745433153
 20
292.9883590109
 30
0.0
 40
1.070011050046857
100
AcDbArc
 50
280.2384834223
 51
32.3930955251
  0
ARC
  5
AC
330
5E
100
AcDbEntity
  8
$DDT_AUDIT_GENERATED_(60)
  6
Continuous
 62
     7
100
AcDbCircle
 10
16.6855260175
 20
295.5715214982
 30
0.0
 40
1.089808825848555
100
AcDbArc
 50
101.7563922629
 51
210.8751866845
  0
ARC
  5
AD
330
5E
100
AcDbEntity
  8
$DDT_AUDIT_GENERATED_(60)
  6
Continuous
 62
     7
100
AcDbCircle
 10
21.5578616531
 20
298.7182469766
 30
0.0
 40
6.889393108578112
100
AcDbArc
 50
212.5425497576
 51
280.0890291898
  0
ARC
  5
AE
330
5E
100
AcDbEntity
  8
$DDT_AUDIT_GENERATED_(60)
  6
Continuous
 62
     7
100
AcDbCircle
 10
18.6732379862
 20
277.9193815651
 30
0.0
 40
6.838296634801032
100
AcDbArc
 50
269.3740374418
 51
336.9417520319
  0
ARC
  5
AF
330
5E
100
AcDbEntity
  8
$DDT_AUDIT_GENERATED_(60)
  6
Continuous
 62
     7
100
AcDbCircle
 10
18.6388592949
 20
272.1186249389
 30
0.0
 40
1.03791571094485
100
AcDbArc
 50
158.5503159076
 51
267.7731713763
  0
ARC
  5
B0
330
5E
100
AcDbEntity
  8
$DDT_AUDIT_GENERATED_(60)
  6
Continuous
 62
     7
100
AcDbCircle
 10
24.0263337616
 20
275.6384350817
 30
0.0
 40
1.019506205232129
100
AcDbArc
 50
337.058965427
 51
89.2491262364
  0
ARC
  5
B1
330
5E
100
AcDbEntity
  8
$DDT_AUDIT_GENERATED_(60)
  6
Continuous
 62
     7
100
AcDbCircle
 10
23.9649573837
 20
269.8198020599
 30
0.0
 40
6.838460087787376
100
AcDbArc
 50
89.3738076761
 51
156.9419817976
  0
ARC
  5
B2
330
5E
100
AcDbEntity
  8
$DDT_AUDIT_GENERATED_(60)
  6
Continuous
 62
     7
100
AcDbCircle
 10
17.2863616168
 20
285.0454173813
 30
0.0
 40
6.838296634800028
100
AcDbArc
 50
250.4266690208
 51
317.9943836108
  0
ARC
  5
B3
330
5E
100
AcDbEntity
  8
$DDT_AUDIT_GENERATED_(60)
  6
Continuous
 62
     7
100
AcDbCircle
 10
15.3710158998
 20
279.5702949263
 30
0.0
 40
1.038317825474324
100
AcDbArc
 50
139.6341719727
 51
248.7945784691
  0
ARC
  5
B4
330
5E
100
AcDbEntity
  8
$DDT_AUDIT_GENERATED_(60)
  6
Continuous
 62
     7
100
AcDbCircle
 10
21.6087897852
 20
281.149911513
 30
0.0
 40
1.019506205236056
100
AcDbArc
 50
318.1115970063
 51
70.301757815
  0
ARC
  5
B5
330
5E
100
AcDbEntity
  8
$DDT_AUDIT_GENERATED_(60)
  6
Continuous
 62
     7
100
AcDbCircle
 10
19.6614318951
 20
275.6664769552
 30
0.0
 40
6.838460087789597
100
AcDbArc
 50
70.426439255
 51
137.9946133765
  0
ARC
  5
B6
330
5E
100
AcDbEntity
  8
$DDT_AUDIT_GENERATED_(60)
  6
Continuous
 62
     7
100
AcDbCircle
 10
18.2884500816
 20
292.2356629422
 30
0.0
 40
6.838296634799208
100
AcDbArc
 50
231.4793005997
 51
299.0470151898
  0
ARC
  5
B7
330
5E
100
AcDbEntity
  8
$DDT_AUDIT_GENERATED_(60)
  6
Continuous
 62
     7
100
AcDbCircle
 10
14.7002916998
 20
287.6790119314
 30
0.0
 40
1.039003319054459
100
AcDbArc
 50
120.739921918
 51
229.7940916816
  0
ARC
  5
B8
330
5E
100
AcDbEntity
  8
$DDT_AUDIT_GENERATED_(60)
  6
Continuous
 62
     7
100
AcDbCircle
 10
21.1118084816
 20
287.1477361949
 30
0.0
 40
1.019506205233941
100
AcDbArc
 50
299.1642285851
 51
51.3543893942
  0
ARC
  5
B9
330
5E
100
AcDbEntity
  8
$DDT_AUDIT_GENERATED_(60)
  6
Continuous
 62
     7
100
AcDbCircle
 10
17.489495523
 20
282.5937153197
 30
0.0
 40
6.838460087786474
100
AcDbArc
 50
51.479070834
 51
119.0472449555
  0
ARC
  5
BA
330
5E
100
AcDbEntity
  8
$DDT_AUDIT_GENERATED_(60)
  6
Continuous
 62
     7
100
AcDbCircle
 10
22.5892454864
 20
292.9819517573
 30
0.0
 40
1.019506205235128
100
AcDbArc
 50
280.2168601641
 51
32.407020973
  0
LINE
  5
BB
330
5E
100
AcDbEntity
  8
$DDT_AUDIT_GENERATED_(60)
  6
Continuous
 62
     7
100
AcDbLine
 10
21.9541618664
 20
282.1532447404
 30
0.0
 11
21.9524356813
 21
282.1097582927
 31
0.0
  0
LINE
  5
BC
330
5E
100
AcDbEntity
  8
$DDT_AUDIT_GENERATED_(60)
  6
Continuous
 62
     7
100
AcDbLine
 10
22.3900880554
 20
280.4318111498
 30
0.0
 11
22.3678726595
 21
280.4692347658
 31
0.0
  0
LINE
  5
BD
330
5E
100
AcDbEntity
  8
$DDT_AUDIT_GENERATED_(60)
  6
Continuous
 62
     7
100
AcDbLine
 10
21.7642491171
 20
287.9845639291
 30
0.0
 11
21.748496435
 21
287.9439941885
 31
0.0
  0
LINE
  5
BE
330
5E
100
AcDbEntity
  8
$DDT_AUDIT_GENERATED_(60)
  6
Continuous
 62
     7
100
AcDbLine
 10
21.6176070497
 20
286.2148573565
 30
0.0
 11
21.6087467734
 21
286.257466585
 31
0.0
  0
LINE
  5
BF
330
5E
100
AcDbEntity
  8
$DDT_AUDIT_GENERATED_(60)
  6
Continuous
 62
     7
100
AcDbLine
 10
23.4780526098
 20
293.5615907285
 30
0.0
 11
23.4499804782
 21
293.5283340559
 31
0.0
  0
LINE
  5
C0
330
5E
100
AcDbEntity
  8
$DDT_AUDIT_GENERATED_(60)
  6
Continuous
 62
     7
100
AcDbLine
 10
22.7647332293
 20
291.9353863409
 30
0.0
 11
22.7701882211
 21
291.9785638108
 31
0.0
  0
SPLINE
  5
C2
330
5E
100
AcDbEntity
  8
$DDT_AUDIT_GENERATED_(C1)
  6
Continuous
 62
     7
100
AcDbSpline
210
0.0
220
0.0
230
1.0
 70
     8
 71
     3
 72
     8
 73
     4
 74
     0
 42
0.0000000277787345
 43
0.0000000001
 40
0.7312141521522498
 40
0.7312141521522498
 40
0.7312141521522498
 40
0.7312141521522498
 40
0.7381829564238592
 40
0.7381829564238592
 40
0.7381829564238592
 40
0.7381829564238592
 10
71.49011703249505
 20
294.1211427113765
 30
0.0
 10
71.49037773099268
 20
294.1218298156888
 30
0.0
 10
71.49055064955473
 20
294.1226403190756
 30
0.0
 10
71.49063412049253
 20
294.1235816660601
 30
0.0
  0
SPLINE
  5
C3
330
5E
100
AcDbEntity
  8
$DDT_AUDIT_GENERATED_(C1)
  6
Continuous
 62
     7
100
AcDbSpline
210
0.0
220
0.0
230
1.0
 70
     8
 71
     3
 72
     8
 73
     4
 74
     0
 42
0.0000000277787345
 43
0.0000000001
 40
0.7312141521521967
 40
0.7312141521521967
 40
0.7312141521521967
 40
0.7312141521521967
 40
0.7381829564278364
 40
0.7381829564278364
 40
0.7381829564278364
 40
0.7381829564278364
 10
15.90597151315174
 20
309.2462720486128
 30
0.0
 10
15.90524611411302
 20
309.2461542679782
 30
0.0
 10
15.90445773830869
 20
309.2458987681521
 30
0.0
 10
15.90360077243677
 20
309.2455003826121
 30
0.0
  0
SPLINE
  5
C4
330
5E
100
AcDbEntity
  8
$DDT_AUDIT_GENERATED_(C1)
  6
Continuous
 62
     7
100
AcDbSpline
210
0.0
220
0.0
230
1.0
 70
     8
 71
     3
 72
     8
 73
     4
 74
     0
 42
0.0000000277787345
 43
0.0000000001
 40
0.7312141521521768
 40
0.7312141521521768
 40
0.7312141521521768
 40
0.7312141521521768
 40
0.7381829564231961
 40
0.7381829564231961
 40
0.7381829564231961
 40
0.7381829564231961
 10
30.59929803125138
 20
253.5464253125922
 30
0.0
 10
30.59976273179203
 20
253.5458559889145
 30
0.0
 10
30.60037818903374
 20
253.5453009853537
 30
0.0
 10
30.60115168396721
 20
253.5447580239088
 30
0.0
  0
SPLINE
  5
C5
330
5E
100
AcDbEntity
  8
$DDT_AUDIT_GENERATED_(C1)
  6
Continuous
 62
     7
100
AcDbSpline
210
0.0
220
0.0
230
1.0
 70
     8
 71
     3
 72
    10
 73
     6
 74
     0
 42
0.0000000640473422
 43
0.0000000001
 40
0.2388334419581202
 40
0.2388334419581202
 40
0.2388334419581202
 40
0.2388334419581202
 40
0.25
 40
0.25
 40
0.255542484044197
 40
0.255542484044197
 40
0.255542484044197
 40
0.255542484044197
 10
48.12502834277247
 20
253.6664717517051
 30
0.0
 10
48.12547418356904
 20
253.666994933814
 30
0.0
 10
48.1255820717288
 20
253.6674960166857
 30
0.0
 10
48.12521974323418
 20
253.6682114241696
 30
0.0
 10
48.12507314984411
 20
253.6684625135904
 30
0.0
 10
48.12490021259595
 20
253.6687272684701
 30
0.0
  0
SPLINE
  5
C6
330
5E
100
AcDbEntity
  8
$DDT_AUDIT_GENERATED_(C1)
  6
Continuous
 62
     7
100
AcDbSpline
210
0.0
220
0.0
230
1.0
 70
     8
 71
     3
 72
    10
 73
     6
 74
     0
 42
0.0000000640473422
 43
0.0000000001
 40
0.2388334419581536
 40
0.2388334419581536
 40
0.2388334419581536
 40
0.2388334419581536
 40
0.2500000000000001
 40
0.2500000000000001
 40
0.2555424840441756
 40
0.2555424840441756
 40
0.2555424840441756
 40
0.2555424840441756
 10
7.247069623296736
 20
294.0085211594041
 30
0.0
 10
7.247299791895589
 20
294.0078734588938
 30
0.0
 10
7.247679798312021
 20
294.0075294835709
 30
0.0
 10
7.248480523614438
 20
294.0074855655097
 30
0.0
 10
7.248771270126555
 20
294.0074869743992
 30
0.0
 10
7.249087023202226
 20
294.0075043650095
 30
0.0
  0
SPLINE
  5
C7
330
5E
100
AcDbEntity
  8
$DDT_AUDIT_GENERATED_(C1)
  6
Continuous
 62
     7
100
AcDbSpline
210
0.0
220
0.0
230
1.0
 70
     8
 71
     3
 72
    10
 73
     6
 74
     0
 42
0.0000000640473422
 43
0.0000000001
 40
0.2388334419582001
 40
0.2388334419582001
 40
0.2388334419582001
 40
0.2388334419582001
 40
0.2500000000000002
 40
0.2500000000000002
 40
0.255542484044187
 40
0.255542484044187
 40
0.255542484044187
 40
0.255542484044187
 10
62.62328861082896
 20
309.2388471614723
 30
0.0
 10
62.62261260143355
 20
309.2389716798737
 30
0.0
 10
62.62212470685736
 20
309.2388145723249
 30
0.0
 10
62.62168631004958
 20
309.2381430829021
 30
0.0
 10
62.62154215692753
 20
309.2378905845919
 30
0.0
 10
62.62139934110002
 20
309.2376084391018
 30
0.0
  0
CIRCLE
  5
C8
330
5E
100
AcDbEntity
  8
$DDT_AUDIT_GENERATED_(C1)
  6
Continuous
 62
     7
100
AcDbCircle
 10
39.3317955256
 20
285.6379466909
 30
0.0
 40
29.54999999999999
  0
ARC
  5
C9
330
5E
100
AcDbEntity
  8
$DDT_AUDIT_GENERATED_(C1)
  6
Continuous
 62
     7
100
AcDbCircle
 10
39.3317955256
 20
285.6379466909
 30
0.0
 40
32.98179552563276
100
AcDbArc
 50
165.9201495311
 51
254.0484639666
  0
ARC
  5
CA
330
5E
100
AcDbEntity
  8
$DDT_AUDIT_GENERATED_(C1)
  6
Continuous
 62
     7
100
AcDbCircle
 10
39.3317955256
 20
285.6379466909
 30
0.0
 40
32.98179552563276
100
AcDbArc
 50
45.920206113
 51
134.0486468618
  0
ARC
  5
CB
330
5E
100
AcDbEntity
  8
$DDT_AUDIT_GENERATED_(C1)
  6
Continuous
 62
     7
100
AcDbCircle
 10
39.3317955256
 20
285.6379466909
 30
0.0
 40
32.98179552563276
100
AcDbArc
 50
285.920099268
 51
14.0488840139
  0
SPLINE
  5
CC
330
5E
100
AcDbEntity
  8
$DDT_AUDIT_GENERATED_(C1)
  6
Continuous
 62
     7
100
AcDbSpline
210
0.0
220
0.0
230
1.0
 70
     8
 71
     3
 72
    32
 73
    28
 74
     0
 42
0.0000000005391514
 43
0.0000000001
 40
0.0
 40
0.0
 40
0.0
 40
0.0
 40
0.0337804249133012
 40
0.0667468048354745
 40
0.092385217265002
 40
0.114601269863519
 40
0.131288961109677
 40
0.149770458346244
 40
0.1700540422908161
 40
0.1921386873340432
 40
0.2159443896943929
 40
0.2404791754262845
 40
0.3195174749029879
 40
0.4027099594549867
 40
0.4888292031620676
 40
0.5531826376873359
 40
0.6172053025830465
 40
0.6809067182056588
 40
0.7419764478014375
 40
0.7950980144272989
 40
0.8400512527943462
 40
0.8555222419927094
 40
0.8758602557286387
 40
0.9011044015961388
 40
0.9312482962293949
 40
0.9663066413483575
 40
1.0
 40
1.0
 40
1.0
 40
1.0
 10
30.61134633891069
 20
253.5463469234065
 30
0.0
 10
30.78118907198363
 20
253.3924432038936
 30
0.0
 10
31.06583997125053
 20
253.137145230039
 30
0.0
 10
31.55254136482962
 20
252.8162799843147
 30
0.0
 10
31.98315999317585
 20
252.5687645039396
 30
0.0
 10
32.33940662361519
 20
252.3885339151691
 30
0.0
 10
32.66132054004245
 20
252.2401095999198
 30
0.0
 10
32.97683270673506
 20
252.1063863615227
 30
0.0
 10
33.32755116411421
 20
251.9707793274296
 30
0.0
 10
33.71351413875625
 20
251.8355998954395
 30
0.0
 10
34.12868524963834
 20
251.704946500081
 30
0.0
 10
34.88665217302349
 20
251.492442652964
 30
0.0
 10
36.01679387134027
 20
251.2502264050635
 30
0.0
 10
37.54061351732829
 20
251.0554605146308
 30
0.0
 10
38.98434272197707
 20
250.9848842417346
 30
0.0
 10
40.31026708904778
 20
251.0094409092356
 30
0.0
 10
41.49436046025867
 20
251.1009177017344
 30
0.0
 10
42.65081593284799
 20
251.2603490993199
 30
0.0
 10
43.7285197123489
 20
251.4812314288233
 30
0.0
 10
44.67740623040417
 20
251.7420170688603
 30
0.0
 10
45.34078485618361
 20
251.9721041787102
 30
0.0
 10
45.80398757677365
 20
252.1578398580561
 30
0.0
 10
46.149554999692
 20
252.3086993233116
 30
0.0
 10
46.57087919526668
 20
252.5135060140273
 30
0.0
 10
47.05535861820165
 20
252.7857641770311
 30
0.0
 10
47.5775255768415
 20
253.1282315575523
 30
0.0
 10
47.87103082594523
 20
253.3914763831403
 30
0.0
 10
48.04043418365058
 20
253.5450362145069
 30
0.0
  0
SPLINE
  5
CD
330
5E
100
AcDbEntity
  8
$DDT_AUDIT_GENERATED_(C1)
  6
Continuous
 62
     7
100
AcDbSpline
210
0.0
220
0.0
230
1.0
 70
     8
 71
     3
 72
    32
 73
    28
 74
     0
 42
0.0000000005391514
 43
0.0000000001
 40
0.0
 40
0.0
 40
0.0
 40
0.0
 40
0.0337804249132961
 40
0.0667468048354702
 40
0.0923852172649983
 40
0.114601269863516
 40
0.1312889611096746
 40
0.1497704583462415
 40
0.1700540422908142
 40
0.1921386873340419
 40
0.215944389694392
 40
0.2404791754262843
 40
0.319517474902989
 40
0.4027099594549903
 40
0.488829203162073
 40
0.5531826376873427
 40
0.6172053025830545
 40
0.6809067182056685
 40
0.7419764478014691
 40
0.7950980144274198
 40
0.8400512527946263
 40
0.8555222419930404
 40
0.8758602557289821
 40
0.9011044015964578
 40
0.9312482962296512
 40
0.9663066413485133
 40
1.0
 40
1.0
 40
1.0
 40
1.0
 10
15.89987947229574
 20
309.2358771027001
 30
0.0
 10
15.68167357492424
 20
309.1657408409672
 30
0.0
 10
15.318253594398
 20
309.0468749179193
 30
0.0
 10
14.79702544361973
 20
308.7858117698847
 30
0.0
 10
14.36736143561184
 20
308.5366428385815
 30
0.0
 10
14.03315385197795
 20
308.3182395009937
 30
0.0
 10
13.74365766621908
 20
308.1136660291606
 30
0.0
 10
13.47009386134449
 20
307.9072860968004
 30
0.0
 10
13.17729549619854
 20
307.6713585201804
 30
0.0
 10
12.86724518670479
 20
307.4046944952153
 30
0.0
 10
12.5465104717927
 20
307.1104724639532
 30
0.0
 10
11.98349328009486
 20
306.5603057766318
 30
0.0
 10
11.20865700704523
 20
305.7026824799636
 30
0.0
 10
10.27807497514582
 20
304.4803989009685
 30
0.0
 10
9.495089527588904
 20
303.2653808700053
 30
0.0
 10
8.853394041941673
 20
302.1048183508747
 30
0.0
 10
8.340568582496932
 20
301.0336250147039
 30
0.0
 10
7.900412486672143
 20
299.952389498303
 30
0.0
 10
7.552850305518409
 20
298.9086294827485
 30
0.0
 10
7.304254035704866
 20
297.9564768327838
 30
0.0
 10
7.171826005028088
 20
297.2669305356045
 30
0.0
 10
7.101076461436026
 20
296.7729173727971
 30
0.0
 10
7.058940879289557
 20
296.3982174732015
 30
0.0
 10
7.02564657852743
 20
295.9309366712473
 30
0.0
 10
7.019189352609249
 20
295.3752361018741
 30
0.0
 10
7.054691324788448
 20
294.7517925604165
 30
0.0
 10
7.13591540661035
 20
294.3659871457562
 30
0.0
 10
7.184200442721854
 20
294.1424996188146
 30
0.0
  0
SPLINE
  5
CE
330
5E
100
AcDbEntity
  8
$DDT_AUDIT_GENERATED_(C1)
  6
Continuous
 62
     7
100
AcDbSpline
210
0.0
220
0.0
230
1.0
 70
     8
 71
     3
 72
    32
 73
    28
 74
     0
 42
0.0000000005391514
 43
0.0000000001
 40
0.0
 40
0.0
 40
0.0
 40
0.0
 40
0.0337804249132901
 40
0.0667468048354637
 40
0.0923852172649912
 40
0.1146012698635081
 40
0.1312889611096667
 40
0.1497704583462333
 40
0.1700540422908057
 40
0.1921386873340327
 40
0.2159443896943828
 40
0.2404791754262744
 40
0.3195174749029784
 40
0.4027099594549777
 40
0.4888292031620587
 40
0.5531826376873272
 40
0.6172053025830384
 40
0.6809067182056509
 40
0.7419764478014496
 40
0.7950980144273945
 40
0.8400512527945906
 40
0.855522241993001
 40
0.8758602557289418
 40
0.9011044015964185
 40
0.931248296229615
 40
0.9663066413484825
 40
1.0
 40
1.0
 40
1.0
 40
1.0
 10
71.48416076569177
 20
294.1316160464751
 30
0.0
 10
71.53252392999032
 20
294.3556560277208
 30
0.0
 10
71.61129301124966
 20
294.7298199246233
 30
0.0
 10
71.64581976844887
 20
295.3117483183822
 30
0.0
 10
71.64486514811057
 20
295.8084327300604
 30
0.0
 10
71.62282610130505
 20
296.2070666564186
 30
0.0
 10
71.59040837063665
 20
296.560064443501
 30
0.0
 10
71.54846000881865
 20
296.9001676142585
 30
0.0
 10
71.49053991658543
 20
297.2717022249715
 30
0.0
 10
71.41462725143718
 20
297.6735456819268
 30
0.0
 10
71.32019085546708
 20
298.0984211085473
 30
0.0
 10
71.12524112377992
 20
298.8610916429856
 30
0.0
 10
70.76993569851258
 20
299.9609311875544
 30
0.0
 10
70.17669808442407
 20
301.3779806569821
 30
0.0
 10
69.51595432733221
 20
302.6635749608415
 30
0.0
 10
68.83172544590869
 20
303.7995808124711
 30
0.0
 10
68.1604575341426
 20
304.779297356143
 30
0.0
 10
67.44415815737793
 20
305.7011014749583
 30
0.0
 10
66.71401655903009
 20
306.5239791610093
 30
0.0
 10
66.01372631078699
 20
307.2153461709362
 30
0.0
 10
65.48277571568258
 20
307.674805358265
 30
0.0
 10
65.09032253868368
 20
307.9830828417257
 30
0.0
 10
64.78689069791162
 20
308.2069232760655
 30
0.0
 10
64.39886080309964
 20
308.4693973873038
 30
0.0
 10
63.920838606084
 20
308.7528397936737
 30
0.0
 10
63.36316967526665
 20
309.0338159546109
 30
0.0
 10
62.988440344342
 20
309.1563765436844
 30
0.0
 10
62.77075195052576
 20
309.22630423926
 30
0.0
  0
ARC
  5
CF
330
5E
100
AcDbEntity
  8
$DDT_AUDIT_GENERATED_(C1)
  6
Continuous
 62
     7
100
AcDbCircle
 10
71.2641014633
 20
294.1633670757
 30
0.0
 40
0.2286671630908322
100
AcDbArc
 50
312.3283714075
 51
352.3437891815
  0
ARC
  5
D0
330
5E
100
AcDbEntity
  8
$DDT_AUDIT_GENERATED_(C1)
  6
Continuous
 62
     7
100
AcDbCircle
 10
62.6882052346
 20
309.0506693346
 30
0.0
 40
0.1989552005825051
100
AcDbArc
 50
64.9862515501
 51
109.4223947389
  0
ARC
  5
D1
330
5E
100
AcDbEntity
  8
$DDT_AUDIT_GENERATED_(C1)
  6
Continuous
 62
     7
100
AcDbCircle
 10
15.9824119266
 20
309.0294246298
 30
0.0
 40
0.2286671748928226
100
AcDbArc
 50
72.3283726014
 51
112.3437882882
  0
ARC
  5
D2
330
5E
100
AcDbEntity
  8
$DDT_AUDIT_GENERATED_(C1)
  6
Continuous
 62
     7
100
AcDbCircle
 10
7.3775780899
 20
294.1588295181
 30
0.0
 40
0.198955200581513
100
AcDbArc
 50
184.9862515499
 51
229.422394739
  0
ARC
  5
D3
330
5E
100
AcDbEntity
  8
$DDT_AUDIT_GENERATED_(C1)
  6
Continuous
 62
     7
100
AcDbCircle
 10
30.7488731865
 20
253.7210483539
 30
0.0
 40
0.2286671612729088
100
AcDbArc
 50
192.3283712237
 51
232.3437893192
  0
ARC
  5
D4
330
5E
100
AcDbEntity
  8
$DDT_AUDIT_GENERATED_(C1)
  6
Continuous
 62
     7
100
AcDbCircle
 10
47.9296032524
 20
253.7043412199
 30
0.0
 40
0.1989552005830264
100
AcDbArc
 50
304.9862515502
 51
349.4223947389
  0
ARC
  5
D5
330
5E
100
AcDbEntity
  8
$DDT_AUDIT_GENERATED_(C1)
  6
Continuous
 62
     7
100
AcDbCircle
 10
48.4984512369
 20
253.5479593173
 30
0.0
 40
0.3913792021809926
100
AcDbArc
 50
107.6681029468
 51
162.8537311157
  0
ARC
  5
D6
330
5E
100
AcDbEntity
  8
$DDT_AUDIT_GENERATED_(C1)
  6
Continuous
 62
     7
100
AcDbCircle
 10
30.1628276607
 20
253.5743169338
 30
0.0
 40
0.3666295346948165
100
AcDbArc
 50
15.1895691607
 51
73.7062980491
  0
ARC
  5
D7
330
5E
100
AcDbEntity
  8
$DDT_AUDIT_GENERATED_(C1)
  6
Continuous
 62
     7
100
AcDbCircle
 10
6.9577233974
 20
293.7443836639
 30
0.0
 40
0.3913792021822199
100
AcDbArc
 50
347.6681029469
 51
42.8537311156
  0
ARC
  5
D8
330
5E
100
AcDbEntity
  8
$DDT_AUDIT_GENERATED_(C1)
  6
Continuous
 62
     7
100
AcDbCircle
 10
16.148361551
 20
309.6103206669
 30
0.0
 40
0.3666295346947556
100
AcDbArc
 50
255.1895691607
 51
313.7062980491
  0
ARC
  5
D9
330
5E
100
AcDbEntity
  8
$DDT_AUDIT_GENERATED_(C1)
  6
Continuous
 62
     7
100
AcDbCircle
 10
62.5392119426
 20
309.6214970914
 30
0.0
 40
0.3913792021860905
100
AcDbArc
 50
227.668102947
 51
282.8537311152
  0
ARC
  5
DA
330
5E
100
AcDbEntity
  8
$DDT_AUDIT_GENERATED_(C1)
  6
Continuous
 62
     7
100
AcDbCircle
 10
71.6841973653
 20
293.7292024718
 30
0.0
 40
0.3666295346947117
100
AcDbArc
 50
135.1895691607
 51
193.7062980491
  0
LINE
  5
DD
330
5E
100
AcDbEntity
  8
DV1_Standard
  6
CENTER2
 62
     7
100
AcDbLine
 10
59.3317950786
 20
285.6379466909
 30
0.0
 11
19.3317959727
 21
285.6379466909
 31
0.0
  0
LINE
  5
DE
330
5E
100
AcDbEntity
  8
DV1_Standard
  6
CENTER2
 62
     7
100
AcDbLine
 10
39.3317955256
 20
305.6379462438
 30
0.0
 11
39.3317955256
 21
265.6379471379
 31
0.0
  0
LINE
  5
DF
330
5E
100
AcDbEntity
  8
DV1_Standard
  6
CENTER2
 62
     7
100
AcDbLine
 10
64.3317949668
 20
285.6379466909
 30
0.0
 11
72.3817955256
 21
285.6379466909
 31
0.0
  0
LINE
  5
E0
330
5E
100
AcDbEntity
  8
DV1_Standard
  6
CENTER2
 62
     7
100
AcDbLine
 10
39.3317955256
 20
310.6379461321
 30
0.0
 11
39.3317955256
 21
318.6879466909
 31
0.0
  0
LINE
  5
E1
330
5E
100
AcDbEntity
  8
DV1_Standard
  6
CENTER2
 62
     7
100
AcDbLine
 10
14.3317960844
 20
285.6379466909
 30
0.0
 11
6.2817955256
 21
285.6379466909
 31
0.0
  0
LINE
  5
E2
330
5E
100
AcDbEntity
  8
DV1_Standard
  6
CENTER2
 62
     7
100
AcDbLine
 10
39.3317955256
 20
260.6379472497
 30
0.0
 11
39.3317955256
 21
252.5879466909
 31
0.0
  0
ENDBLK
  5
E4
330
5E
100
AcDbEntity
  8
0
100
AcDbBlockEnd
  0
BLOCK
  5
1C8
330
E5
100
AcDbEntity
  8
0
100
AcDbBlockBegin
  2
SE1
 70
     0
 10
0.0
 20
0.0
 30
0.0
  3
SE1
  1

  0
LINE
  5
E7
330
E5
100
AcDbEntity
  8
$DDT_AUDIT_GENERATED_(60)
  6
Continuous
 62
     7
100
AcDbLine
 10
215.8017126322
 20
287.3203710736
 30
0.0
 11
215.8017126322
 21
287.3879466909
 31
0.0
  0
LINE
  5
E8
330
E5
100
AcDbEntity
  8
$DDT_AUDIT_GENERATED_(60)
  6
Continuous
 62
     7
100
AcDbLine
 10
214.133382772
 20
300.9275626138
 30
0.0
 11
215.1218299537
 21
295.5250132437
 31
0.0
  0
LINE
  5
E9
330
E5
100
AcDbEntity
  8
$DDT_AUDIT_GENERATED_(60)
  6
Continuous
 62
     7
100
AcDbLine
 10
215.4885509935
 20
292.0612983457
 30
0.0
 11
215.2473293431
 21
294.6014594838
 31
0.0
  0
LINE
  5
EA
330
E5
100
AcDbEntity
  8
$DDT_AUDIT_GENERATED_(60)
  6
Continuous
 62
     7
100
AcDbLine
 10
215.3215731982
 20
277.4562515962
 30
0.0
 11
215.4885509935
 21
279.2145950361
 31
0.0
  0
ELLIPSE
  5
EB
330
E5
100
AcDbEntity
  8
$DDT_AUDIT_GENERATED_(60)
  6
Continuous
 62
     7
100
AcDbEllipse
 10
213.2949433349
 20
301.6544319328
 30
0.0
 11
-0.2739481340921762
 21
0.9617444670115931
 31
0.0
210
0.0
220
0.0
230
1.0
 40
0.1466504572
 41
4.078943499714423
 42
4.189705781315753
  0
LINE
  5
EC
330
E5
100
AcDbEntity
  8
$DDT_AUDIT_GENERATED_(60)
  6
Continuous
 62
     7
100
AcDbLine
 10
210.8876912752
 20
259.8181313924
 30
0.0
 11
211.0618351002
 21
260.2768904808
 31
0.0
  0
ARC
  5
ED
330
E5
100
AcDbEntity
  8
$DDT_AUDIT_GENERATED_(60)
  6
Continuous
 62
     7
100
AcDbCircle
 10
128.1819921764
 20
291.35172928
 30
0.0
 40
88.51391963686451
100
AcDbArc
 50
339.4470472495
 51
340.4860019147
  0
ARC
  5
EE
330
E5
100
AcDbEntity
  8
$DDT_AUDIT_GENERATED_(60)
  6
Continuous
 62
     7
100
AcDbCircle
 10
271.2225735792
 20
325.8498898839
 30
0.0
 40
62.89124533923032
100
AcDbArc
 50
196.9452553257
 51
202.4062199775
  0
SPLINE
  5
EF
330
E5
100
AcDbEntity
  8
$DDT_AUDIT_GENERATED_(60)
  6
Continuous
 62
     7
100
AcDbSpline
210
0.0
220
0.0
230
1.0
 70
     8
 71
     3
 72
     9
 73
     5
 74
     0
 42
0.0000000059496023
 43
0.0000000001
 40
0.7077029777702444
 40
0.7077029777702444
 40
0.7077029777702444
 40
0.7077029777702444
 40
0.7499501309863627
 40
0.7868344780145256
 40
0.7868344780145256
 40
0.7868344780145256
 40
0.7868344780145256
 10
213.587368512529
 20
301.086999512655
 30
0.0
 10
213.5843021709724
 20
301.1091702039564
 30
0.0
 10
213.5780150123469
 20
301.1520173621836
 30
0.0
 10
213.5707579428801
 20
301.1970484677182
 30
0.0
 10
213.5671763544809
 20
301.218454080711
 30
0.0
  0
ARC
  5
F0
330
E5
100
AcDbEntity
  8
$DDT_AUDIT_GENERATED_(60)
  6
Continuous
 62
     7
100
AcDbCircle
 10
209.2453341683
 20
256.4879466909
 30
0.0
 40
0.1999999999999988
100
AcDbArc
 50
272.8610614548
 51
335.3154689058
  0
ARC
  5
F1
330
E5
100
AcDbEntity
  8
$DDT_AUDIT_GENERATED_(60)
  6
Continuous
 62
     7
100
AcDbCircle
 10
209.2453341683
 20
314.7879466909
 30
0.0
 40
0.2000000000000033
100
AcDbArc
 50
24.6845310942
 51
87.1389385452
  0
ARC
  5
F2
330
E5
100
AcDbEntity
  8
$DDT_AUDIT_GENERATED_(60)
  6
Continuous
 62
     7
100
AcDbCircle
 10
145.8235910513
 20
285.6379466909
 30
0.0
 40
70.0
100
AcDbArc
 50
12.6164300379
 51
13.3212351636
  0
ARC
  5
F3
330
E5
100
AcDbEntity
  8
$DDT_AUDIT_GENERATED_(60)
  6
Continuous
 62
     7
100
AcDbCircle
 10
145.8235910513
 20
285.6379466909
 30
0.0
 40
70.0
100
AcDbArc
 50
20.9183585472
 51
24.6845310942
  0
ARC
  5
F4
330
E5
100
AcDbEntity
  8
$DDT_AUDIT_GENERATED_(60)
  6
Continuous
 62
     7
100
AcDbCircle
 10
145.8235910513
 20
285.6379466909
 30
0.0
 40
70.0
100
AcDbArc
 50
7.3569343276
 51
8.1198264357
  0
ARC
  5
F5
330
E5
100
AcDbEntity
  8
$DDT_AUDIT_GENERATED_(60)
  6
Continuous
 62
     7
100
AcDbCircle
 10
145.8235910513
 20
285.6379466909
 30
0.0
 40
70.0
100
AcDbArc
 50
357.57414283
 51
358.5674562624
  0
ARC
  5
F6
330
E5
100
AcDbEntity
  8
$DDT_AUDIT_GENERATED_(60)
  6
Continuous
 62
     7
100
AcDbCircle
 10
145.8235910513
 20
285.6379466909
 30
0.0
 40
70.0
100
AcDbArc
 50
347.2757953235
 51
349.8804697248
  0
ARC
  5
F7
330
E5
100
AcDbEntity
  8
$DDT_AUDIT_GENERATED_(60)
  6
Continuous
 62
     7
100
AcDbCircle
 10
145.8235910513
 20
285.6379466909
 30
0.0
 40
70.0
100
AcDbArc
 50
335.3154689058
 51
338.3550756576
  0
ARC
  5
F9
330
E5
100
AcDbEntity
  8
$DDT_AUDIT_GENERATED_(F8)
  6
Continuous
 62
     7
100
AcDbCircle
 10
216.2315459225
 20
262.8118593359
 30
0.0
 40
2.67126192181345
100
AcDbArc
 50
151.9579852795
 51
171.8959567058
  0
ARC
  5
FA
330
E5
100
AcDbEntity
  8
$DDT_AUDIT_GENERATED_(F8)
  6
Continuous
 62
     7
100
AcDbCircle
 10
79.0621043565
 20
272.8076676988
 30
0.0
 40
139.279269980375
100
AcDbArc
 50
10.248900012
 51
10.9999461435
  0
ELLIPSE
  5
FB
330
E5
100
AcDbEntity
  8
$DDT_AUDIT_GENERATED_(F8)
  6
Continuous
 62
     7
100
AcDbEllipse
 10
215.6750823405
 20
289.5871798038
 30
0.0
 11
0.09712963682607587
 21
-1.717966447322885
 31
0.0
210
0.0
220
0.0
230
1.0
 40
0.1711635327
 41
0.3731747619357821
 42
0.4129821853786752
  0
ELLIPSE
  5
FC
330
E5
100
AcDbEntity
  8
$DDT_AUDIT_GENERATED_(F8)
  6
Continuous
 62
     7
100
AcDbEllipse
 10
214.5822453637
 20
289.525393464
 30
0.0
 11
0.124184320350846
 21
-2.196492261454423
 31
0.0
210
0.0
220
0.0
230
1.0
 40
0.1711635327
 41
3.095025738431981
 42
6.283185307179586
  0
ELLIPSE
  5
FD
330
E5
100
AcDbEntity
  8
$DDT_AUDIT_GENERATED_(F8)
  6
Continuous
 62
     7
100
AcDbEllipse
 10
214.5822453637
 20
289.525393464
 30
0.0
 11
0.124184320350846
 21
-2.196492261454423
 31
0.0
210
0.0
220
0.0
230
1.0
 40
0.1711635327
 41
0.0
 42
0.0465669151578793
  0
ELLIPSE
  5
FE
330
E5
100
AcDbEntity
  8
$DDT_AUDIT_GENERATED_(F8)
  6
Continuous
 62
     7
100
AcDbEllipse
 10
215.6750823405
 20
275.2987201717
 30
0.0
 11
-0.2519497392931792
 21
-1.702164565882887
 31
0.0
210
0.0
220
0.0
230
1.0
 40
0.1057848808
 41
-3.402498671834515
 42
-3.366736255354983
  0
ELLIPSE
  5
FF
330
E5
100
AcDbEntity
  8
$DDT_AUDIT_GENERATED_(F8)
  6
Continuous
 62
     7
100
AcDbEllipse
 10
214.5822453637
 20
275.4604789093
 30
0.0
 11
-0.3221283241563307
 21
-2.176288892317932
 31
0.0
210
0.0
220
0.0
230
1.0
 40
0.1057848808
 41
3.113083878617608
 42
6.283185307179586
  0
ELLIPSE
  5
100
330
E5
100
AcDbEntity
  8
$DDT_AUDIT_GENERATED_(F8)
  6
Continuous
 62
     7
100
AcDbEllipse
 10
214.5822453637
 20
275.4604789093
 30
0.0
 11
-0.3221283241563307
 21
-2.176288892317932
 31
0.0
210
0.0
220
0.0
230
1.0
 40
0.1057848808
 41
0.0
 42
0.028508774973065
  0
SPLINE
  5
101
330
E5
100
AcDbEntity
  8
$DDT_AUDIT_GENERATED_(F8)
  6
Continuous
 62
     7
100
AcDbSpline
210
0.0
220
0.0
230
1.0
 70
     8
 71
     3
 72
    11
 73
     7
 74
     0
 42
0.0000000126090763
 43
0.0000000001
 40
0.9786779010463811
 40
0.9786779010463811
 40
0.9786779010463811
 40
0.9786779010463811
 40
0.9840391095741882
 40
0.9840391095741882
 40
0.9840391095741882
 40
1.0
 40
1.0
 40
1.0
 40
1.0
 10
216.0878575449418
 20
276.141730966447
 30
0.0
 10
216.0867779496259
 20
276.1417457079995
 30
0.0
 10
216.0856740933744
 20
276.1415882387689
 30
0.0
 10
216.0845467205418
 20
276.1412575850601
 30
0.0
 10
216.0811474161431
 20
276.1402605833814
 30
0.0
 10
216.0775212268091
 20
276.1377233804801
 30
0.0
 10
216.0736955356232
 20
276.1336718125909
 30
0.0
  0
ARC
  5
102
330
E5
100
AcDbEntity
  8
$DDT_AUDIT_GENERATED_(F8)
  6
Continuous
 62
     7
100
AcDbCircle
 10
-306.1407728394
 20
329.0310604965
 30
0.0
 40
525.4171444851319
100
AcDbArc
 50
354.4741653585
 51
354.5728768705
  0
ARC
  5
103
330
E5
100
AcDbEntity
  8
$DDT_AUDIT_GENERATED_(F8)
  6
Continuous
 62
     7
100
AcDbCircle
 10
-306.1407728919
 20
242.2448328802
 30
0.0
 40
525.4171445378544
100
AcDbArc
 50
5.4271231295
 51
5.5258346414
  0
ELLIPSE
  5
104
330
E5
100
AcDbEntity
  8
$DDT_AUDIT_GENERATED_(F8)
  6
Continuous
 62
     7
100
AcDbEllipse
 10
215.4105279116
 20
290.3106449686
 30
0.0
 11
-0.1205967512863861
 21
1.79595557394362
 31
0.0
210
0.0
220
0.0
230
0.9999999999999999
 40
0.0668483302
 41
0.0000000000000797
 42
0.4903107056479251
  0
ELLIPSE
  5
105
330
E5
100
AcDbEntity
  8
$DDT_AUDIT_GENERATED_(F8)
  6
Continuous
 62
     7
100
AcDbEllipse
 10
215.4105279116
 20
290.3106449686
 30
0.0
 11
-0.1205967512863861
 21
1.79595557394362
 31
0.0
210
0.0
220
0.0
230
0.9999999999999999
 40
0.0668483302
 41
6.263019772467175
 42
6.283185307179586
  0
ELLIPSE
  5
106
330
E5
100
AcDbEntity
  8
$DDT_AUDIT_GENERATED_(F8)
  6
Continuous
 62
     7
100
AcDbEllipse
 10
216.7299623036
 20
290.3992437645
 30
0.0
 11
-0.07832033306624278
 21
1.16636507387672
 31
0.0
210
0.0
220
0.0
230
0.9999999999999999
 40
0.0668483302
 41
3.362630886935829
 42
3.403500329347042
  0
ELLIPSE
  5
107
330
E5
100
AcDbEntity
  8
$DDT_AUDIT_GENERATED_(F8)
  6
Continuous
 62
     7
100
AcDbEllipse
 10
216.7299623036
 20
290.3992437645
 30
0.0
 11
-0.07832033306624278
 21
1.16636507387672
 31
0.0
210
0.0
220
0.0
230
0.9999999999999999
 40
0.0668483302
 41
-0.2471719321469061
 42
-0.2210382333459924
  0
SPLINE
  5
108
330
E5
100
AcDbEntity
  8
$DDT_AUDIT_GENERATED_(F8)
  6
Continuous
 62
     7
100
AcDbSpline
210
0.0
220
0.0
230
1.0
 70
     8
 71
     3
 72
    17
 73
    13
 74
     0
 42
0.0000000049348172
 43
0.0000000001
 40
0.0
 40
0.0
 40
0.0
 40
0.0
 40
0.0538581918897926
 40
0.0538581918897926
 40
0.0538581918897926
 40
0.1077083235085583
 40
0.1077083235085583
 40
0.1077083235085583
 40
0.1616757198507685
 40
0.1616757198507685
 40
0.1616757198507685
 40
0.2156894650320073
 40
0.2156894650320073
 40
0.2156894650320073
 40
0.2156894650320073
 10
216.9079369090205
 20
290.4206954287309
 30
0.0
 10
216.9044646381727
 20
290.4712694554112
 30
0.0
 10
216.90036484193
 20
290.5223322006676
 30
0.0
 10
216.8959757490129
 20
290.5696542983328
 30
0.0
 10
216.8915870587045
 20
290.6169720551721
 30
0.0
 10
216.8867881424206
 20
290.6618551866997
 30
0.0
 10
216.8819732943271
 20
290.7006104554238
 30
0.0
 10
216.8771481890473
 20
290.7394482854258
 30
0.0
 10
216.8721740334196
 20
290.7732025815108
 30
0.0
 10
216.867462652589
 20
290.7990790528224
 30
0.0
 10
216.8627474941242
 20
290.8249762721588
 30
0.0
 10
216.85816527707
 20
290.8436972646235
 30
0.0
 10
216.8541002973177
 20
290.8536650935874
 30
0.0
  0
SPLINE
  5
109
330
E5
100
AcDbEntity
  8
$DDT_AUDIT_GENERATED_(F8)
  6
Continuous
 62
     7
100
AcDbSpline
210
0.0
220
0.0
230
1.0
 70
     8
 71
     3
 72
    17
 73
    13
 74
     0
 42
0.0000000046205017
 43
0.0000000001
 40
0.7977624431305386
 40
0.7977624431305386
 40
0.7977624431305386
 40
0.7977624431305386
 40
0.8513478319804578
 40
0.8513478319804578
 40
0.8513478319804578
 40
0.9048132923111916
 40
0.9048132923111916
 40
0.9048132923111916
 40
0.9582218841793225
 40
0.9582218841793225
 40
0.9582218841793225
 40
1.0
 40
1.0
 40
1.0
 40
1.0
 10
216.9164811524934
 20
289.9835351884984
 30
0.0
 10
216.9186427831962
 20
289.9992716089496
 30
0.0
 10
216.920096808151
 20
290.023491932498
 30
0.0
 10
216.9207226981342
 20
290.0541968899886
 30
0.0
 10
216.9213472156884
 20
290.0848345187558
 30
0.0
 10
216.9211645159117
 20
290.1227740240081
 30
0.0
 10
216.9201897132286
 20
290.1648660799081
 30
0.0
 10
216.9192158914104
 20
290.206915781983
 30
0.0
 10
216.9174248759998
 20
290.2542659093516
 30
0.0
 10
216.9149640223849
 20
290.3029983833961
 30
0.0
 10
216.9130284150563
 20
290.3413293646996
 30
0.0
 10
216.9106455636326
 20
290.3812435608812
 30
0.0
 10
216.9079369090205
 20
290.4206954287309
 30
0.0
  0
ELLIPSE
  5
10A
330
E5
100
AcDbEntity
  8
$DDT_AUDIT_GENERATED_(F8)
  6
Continuous
 62
     7
100
AcDbEllipse
 10
215.4105279116
 20
285.6379466909
 30
0.0
 11
0.0
 21
1.800000000000011
 31
0.0
210
0.0
220
0.0
230
1.0
 40
1.0
 41
0.0
 42
0.148364134395673
  0
ELLIPSE
  5
10B
330
E5
100
AcDbEntity
  8
$DDT_AUDIT_GENERATED_(F8)
  6
Continuous
 62
     7
100
AcDbEllipse
 10
215.4105279116
 20
285.6379466909
 30
0.0
 11
0.0
 21
0.9728975375731438
 31
0.0
210
0.0
220
0.0
230
1.0
 40
1.0
 41
2.993228519194155
 42
3.144295704183771
  0
ELLIPSE
  5
10C
330
E5
100
AcDbEntity
  8
$DDT_AUDIT_GENERATED_(F8)
  6
Continuous
 62
     7
100
AcDbEllipse
 10
215.4105279116
 20
285.6379466909
 30
0.0
 11
0.0
 21
1.799271254371203
 31
0.0
210
0.0
220
0.0
230
1.0
 40
1.0
 41
-0.0027030505940886
 42
0.0
  0
ELLIPSE
  5
10D
330
E5
100
AcDbEntity
  8
$DDT_AUDIT_GENERATED_(F8)
  6
Continuous
 62
     7
100
AcDbEllipse
 10
216.7299623036
 20
285.6379466909
 30
0.0
 11
0.0
 21
1.111645856729863
 31
0.0
210
0.0
220
0.0
230
1.0
 40
1.0
 41
3.172491105477868
 42
3.176628847446166
  0
ELLIPSE
  5
10E
330
E5
100
AcDbEntity
  8
$DDT_AUDIT_GENERATED_(F8)
  6
Continuous
 62
     7
100
AcDbEllipse
 10
215.4105279116
 20
280.9652484131
 30
0.0
 11
0.1205967512863861
 21
1.795955573943622
 31
0.0
210
0.0
220
0.0
230
0.9999999999999998
 40
0.0668483302
 41
0.0
 42
0.4903107056480425
  0
ELLIPSE
  5
10F
330
E5
100
AcDbEntity
  8
$DDT_AUDIT_GENERATED_(F8)
  6
Continuous
 62
     7
100
AcDbEllipse
 10
215.4105279116
 20
280.9652484131
 30
0.0
 11
0.1205967512863861
 21
1.795955573943622
 31
0.0
210
0.0
220
0.0
230
0.9999999999999998
 40
0.0668483302
 41
2.651281947940734
 42
3.161758188303806
  0
ELLIPSE
  5
110
330
E5
100
AcDbEntity
  8
$DDT_AUDIT_GENERATED_(F8)
  6
Continuous
 62
     7
100
AcDbEllipse
 10
215.4105279116
 20
280.9652484131
 30
0.0
 11
0.1205967512863861
 21
1.795955573943622
 31
0.0
210
0.0
220
0.0
230
0.9999999999999998
 40
0.0668483302
 41
6.263019772465611
 42
6.283185307179586
  0
ELLIPSE
  5
111
330
E5
100
AcDbEntity
  8
$DDT_AUDIT_GENERATED_(F8)
  6
Continuous
 62
     7
100
AcDbEllipse
 10
216.397385365
 20
280.8989818503
 30
0.0
 11
0.1006080678879455
 21
1.498279334888299
 31
0.0
210
0.0
220
0.0
230
1.0
 40
0.0668483302
 41
6.263019772465512
 42
6.283185307179586
  0
ELLIPSE
  5
112
330
E5
100
AcDbEntity
  8
$DDT_AUDIT_GENERATED_(F8)
  6
Continuous
 62
     7
100
AcDbEllipse
 10
216.7299623036
 20
280.8766496173
 30
0.0
 11
0.07832033306624279
 21
1.166365073876722
 31
0.0
210
0.0
220
0.0
230
0.9999999999999999
 40
0.0668483302
 41
3.362630886935777
 42
3.409017948933194
  0
SPLINE
  5
113
330
E5
100
AcDbEntity
  8
$DDT_AUDIT_GENERATED_(F8)
  6
Continuous
 62
     7
100
AcDbSpline
210
0.0
220
0.0
230
1.0
 70
     8
 71
     3
 72
    32
 73
    28
 74
     0
 42
0.000000005164904
 43
0.0000000001
 40
0.5372840714813452
 40
0.5372840714813452
 40
0.5372840714813452
 40
0.5372840714813452
 40
0.5910387793561691
 40
0.5910387793561691
 40
0.5910387793561691
 40
0.6449735705973395
 40
0.6449735705973395
 40
0.6449735705973395
 40
0.6989883169112927
 40
0.6989883169112927
 40
0.6989883169112927
 40
0.7441853350918007
 40
0.7441853350918007
 40
0.7441853350918007
 40
0.7977624431309018
 40
0.7977624431309018
 40
0.7977624431309018
 40
0.8513478319808213
 40
0.8513478319808213
 40
0.8513478319808213
 40
0.9048132923115553
 40
0.9048132923115553
 40
0.9048132923115553
 40
0.958221884179686
 40
0.958221884179686
 40
0.958221884179686
 40
1.0
 40
1.0
 40
1.0
 40
1.0
 10
216.8560985771552
 20
280.427694661309
 30
0.0
 10
216.860282350048
 20
280.4402861285453
 30
0.0
 10
216.8649407546039
 20
280.4614729122672
 30
0.0
 10
216.869687517086
 20
280.4894935827065
 30
0.0
 10
216.8744498570231
 20
280.5176062086076
 30
0.0
 10
216.8794321974046
 20
280.5533718224699
 30
0.0
 10
216.8842229546222
 20
280.593836008492
 30
0.0
 10
216.8890205121151
 20
280.634357631697
 30
0.0
 10
216.8937585130169
 20
280.6807118074015
 30
0.0
 10
216.8980453304518
 20
280.7290598554663
 30
0.0
 10
216.9016475042602
 20
280.7696862817313
 30
0.0
 10
216.9050108065479
 20
280.8125789318924
 30
0.0
 10
216.9079369090205
 20
280.8551979529913
 30
0.0
 10
216.9113913021053
 20
280.9055115879846
 30
0.0
 10
216.9143197256709
 20
280.9567256697428
 30
0.0
 10
216.9164811524934
 20
281.0046011384393
 30
0.0
 10
216.9186427831962
 20
281.0524811230715
 30
0.0
 10
216.920096808151
 20
281.0983424599816
 30
0.0
 10
216.9207226981342
 20
281.138362634288
 30
0.0
 10
216.9213472156884
 20
281.1782950537996
 30
0.0
 10
216.9211645159117
 20
281.2135142443449
 30
0.0
 10
216.9201897132286
 20
281.241099766572
 30
0.0
 10
216.9192158914104
 20
281.2686575317233
 30
0.0
 10
216.9174248759998
 20
281.2893571003563
 30
0.0
 10
216.9149640223849
 20
281.3015080824825
 30
0.0
 10
216.9130284150563
 20
281.3110655506356
 30
0.0
 10
216.9106455636327
 20
281.3155752575685
 30
0.0
 10
216.9079369090205
 20
281.3148207946587
 30
0.0
  0
SPLINE
  5
114
330
E5
100
AcDbEntity
  8
$DDT_AUDIT_GENERATED_(F8)
  6
Continuous
 62
     7
100
AcDbSpline
210
0.0
220
0.0
230
1.0
 70
     8
 71
     3
 72
    32
 73
    28
 74
     0
 42
0.0000000048756876
 43
0.0000000001
 40
0.0
 40
0.0
 40
0.0
 40
0.0
 40
0.0508193957770875
 40
0.0508193957770875
 40
0.0508193957770875
 40
0.1051360990010504
 40
0.1051360990010504
 40
0.1051360990010504
 40
0.1251222395901315
 40
0.1251222395901315
 40
0.1251222395901315
 40
0.181217855686026
 40
0.181217855686026
 40
0.181217855686026
 40
0.2373771155175216
 40
0.2373771155175216
 40
0.2373771155175216
 40
0.292285180722683
 40
0.292285180722683
 40
0.292285180722683
 40
0.3451014978428156
 40
0.3451014978428156
 40
0.3451014978428156
 40
0.3972311403706648
 40
0.3972311403706648
 40
0.3972311403706648
 40
0.4431346777988945
 40
0.4431346777988945
 40
0.4431346777988945
 40
0.4431346777988945
 10
213.8727300648945
 20
306.9238638573894
 30
0.0
 10
213.8703080820765
 20
306.9364612434756
 30
0.0
 10
213.8639352987419
 20
306.9565076415721
 30
0.0
 10
213.8545249571191
 20
306.9822217149782
 30
0.0
 10
213.8444754959684
 20
307.0096822038828
 30
0.0
 10
213.8307123698106
 20
307.0443624009734
 30
0.0
 10
213.8151311234861
 20
307.0832908719393
 30
0.0
 10
213.8093265842194
 20
307.0977930390707
 30
0.0
 10
213.8032361549078
 20
307.1129760049021
 30
0.0
 10
213.796965213867
 20
307.128677470532
 30
0.0
 10
213.7795806186262
 20
307.1722058058946
 30
0.0
 10
213.7604695823192
 20
307.220640301645
 30
0.0
 10
213.7418596436946
 20
307.2702385309667
 30
0.0
 10
213.7232387904774
 20
307.3198658492863
 30
0.0
 10
213.7046119242389
 20
307.3721015270211
 30
0.0
 10
213.6879131274112
 20
307.4225280038856
 30
0.0
 10
213.6715880068472
 20
307.4718260654716
 30
0.0
 10
213.6566468871087
 20
307.52081161934
 30
0.0
 10
213.644222379338
 20
307.5649527686681
 30
0.0
 10
213.6322600775055
 20
307.6074518166174
 30
0.0
 10
213.6222683056515
 20
307.6466431897853
 30
0.0
 10
213.6144738615175
 20
307.6790246216803
 30
0.0
 10
213.6067760829438
 20
307.7110044637755
 30
0.0
 10
213.6009695574346
 20
307.7372221492562
 30
0.0
 10
213.5967955299151
 20
307.7554910252011
 30
0.0
 10
213.5931202071701
 20
307.7715771710088
 30
0.0
 10
213.5905987089705
 20
307.7818851390587
 30
0.0
 10
213.5890290804927
 20
307.7858366043256
 30
0.0
  0
ELLIPSE
  5
115
330
E5
100
AcDbEntity
  8
$DDT_AUDIT_GENERATED_(F8)
  6
Continuous
 62
     7
100
AcDbEllipse
 10
213.2949433352
 20
297.9722207738
 30
0.0
 11
-0.1071321656915779
 21
0.4883878567944963
 31
0.0
210
0.0
220
0.0
230
1.0
 40
0.2266936419
 41
2.93470675155575
 42
3.141592653589793
  0
ELLIPSE
  5
116
330
E5
100
AcDbEntity
  8
$DDT_AUDIT_GENERATED_(F8)
  6
Continuous
 62
     7
100
AcDbEllipse
 10
212.2275730893
 20
304.2507248577
 30
0.0
 11
1.499850320911699
 21
-6.837430000728423
 31
0.0
210
0.0
220
0.0
230
1.0
 40
0.2266936419
 41
5.374857252559084
 42
6.076299405145963
  0
ELLIPSE
  5
117
330
E5
100
AcDbEntity
  8
$DDT_AUDIT_GENERATED_(F8)
  6
Continuous
 62
     7
100
AcDbEllipse
 10
211.1602028437
 20
302.4362659239
 30
0.0
 11
0.1071321657794074
 21
-0.4883878571948879
 31
0.0
210
0.0
220
0.0
230
0.9999999999999999
 40
0.2266936419
 41
3.141592653589793
 42
4.952159798948092
  0
ELLIPSE
  5
118
330
E5
100
AcDbEntity
  8
$DDT_AUDIT_GENERATED_(F8)
  6
Continuous
 62
     7
100
AcDbEllipse
 10
212.2275730893
 20
299.3139646107
 30
0.0
 11
-0.903100175083757
 21
6.941499122939026
 31
0.0
210
0.0
220
0.0
230
1.0
 40
0.282171053
 41
2.147498424170053
 42
3.141592653589793
  0
ELLIPSE
  5
119
330
E5
100
AcDbEntity
  8
$DDT_AUDIT_GENERATED_(F8)
  6
Continuous
 62
     7
100
AcDbEllipse
 10
211.1602028437
 20
295.6010229955
 30
0.0
 11
0.06450715536312568
 21
-0.4958213659242219
 31
0.0
210
0.0
220
0.0
230
1.0
 40
0.282171053
 41
3.271638030243902
 42
5.289091077759918
  0
ELLIPSE
  5
11A
330
E5
100
AcDbEntity
  8
$DDT_AUDIT_GENERATED_(F8)
  6
Continuous
 62
     7
100
AcDbEllipse
 10
212.2275730893
 20
289.2404580175
 30
0.0
 11
0.9031001751164636
 21
-6.941499123190494
 31
0.0
210
0.0
220
0.0
230
0.9999999999999999
 40
0.282171053
 41
3.141592653589792
 42
3.271638030243251
  0
SPLINE
  5
11B
330
E5
100
AcDbEntity
  8
$DDT_AUDIT_GENERATED_(F8)
  6
Continuous
 62
     7
100
AcDbSpline
210
0.0
220
0.0
230
1.0
 70
     8
 71
     3
 72
     8
 73
     4
 74
     0
 42
0.0000000027643491
 43
0.0000000001
 40
0.5765621155189666
 40
0.5765621155189666
 40
0.5765621155189666
 40
0.5765621155189666
 40
0.580654730752803
 40
0.580654730752803
 40
0.580654730752803
 40
0.580654730752803
 10
213.00423083836
 20
295.8599069428601
 30
0.0
 10
213.0004854405957
 20
295.8631414990237
 30
0.0
 10
212.9967328597628
 20
295.8663464685275
 30
0.0
 10
212.9929730606186
 20
295.8695218088559
 30
0.0
  0
ELLIPSE
  5
11C
330
E5
100
AcDbEntity
  8
$DDT_AUDIT_GENERATED_(F8)
  6
Continuous
 62
     7
100
AcDbEllipse
 10
212.2275730893
 20
292.8951956168
 30
0.0
 11
-0.1871543670271458
 21
6.997497641507475
 31
0.0
210
0.0
220
0.0
230
0.9999999999999998
 40
0.3070708522
 41
2.492642021502757
 42
3.141592653589793
  0
ELLIPSE
  5
11D
330
E5
100
AcDbEntity
  8
$DDT_AUDIT_GENERATED_(F8)
  6
Continuous
 62
     7
100
AcDbEllipse
 10
211.1602028437
 20
287.6861261564
 30
0.0
 11
0.0133681690733683
 21
-0.4998212601076786
 31
0.0
210
0.0
220
0.0
230
1.0
 40
0.3070708522
 41
3.616781627575999
 42
5.634234675092503
  0
ELLIPSE
  5
11E
330
E5
100
AcDbEntity
  8
$DDT_AUDIT_GENERATED_(F8)
  6
Continuous
 62
     7
100
AcDbEllipse
 10
212.2275730893
 20
281.9327661937
 30
0.0
 11
0.1871543670339242
 21
-6.997497641760955
 31
0.0
210
0.0
220
0.0
230
0.9999999999999999
 40
0.3070708522
 41
3.141592653589801
 42
3.616781627575949
  0
SPLINE
  5
11F
330
E5
100
AcDbEntity
  8
$DDT_AUDIT_GENERATED_(F8)
  6
Continuous
 62
     7
100
AcDbSpline
210
0.0
220
0.0
230
1.0
 70
     8
 71
     3
 72
     8
 73
     4
 74
     0
 42
0.0000000045104153
 43
0.0000000001
 40
0.423546988903061
 40
0.423546988903061
 40
0.423546988903061
 40
0.423546988903061
 40
0.4296048967438447
 40
0.4296048967438447
 40
0.4296048967438447
 40
0.4296048967438447
 10
213.0521639053791
 20
285.9150994785127
 30
0.0
 10
213.0477097579909
 20
285.9149693504844
 30
0.0
 10
213.0432335209004
 20
285.9148941385101
 30
0.0
 10
213.0387355515905
 20
285.9148739138825
 30
0.0
  0
ELLIPSE
  5
120
330
E5
100
AcDbEntity
  8
$DDT_AUDIT_GENERATED_(F8)
  6
Continuous
 62
     7
100
AcDbEllipse
 10
212.2275730893
 20
285.689991094
 30
0.0
 11
0.5548061226351353
 21
6.977978945675201
 31
0.0
210
0.0
220
0.0
230
1.0
 40
0.2986947598
 41
2.83967573326722
 42
3.14159265358979
  0
ELLIPSE
  5
121
330
E5
100
AcDbEntity
  8
$DDT_AUDIT_GENERATED_(F8)
  6
Continuous
 62
     7
100
AcDbEllipse
 10
211.1602028437
 20
279.5492772915
 30
0.0
 11
-0.03962900875965251
 21
-0.4984270675482327
 31
0.0
210
0.0
220
0.0
230
1.0
 40
0.2986947598
 41
3.963815339340499
 42
5.981268386856956
  0
ELLIPSE
  5
122
330
E5
100
AcDbEntity
  8
$DDT_AUDIT_GENERATED_(F8)
  6
Continuous
 62
     7
100
AcDbEllipse
 10
212.2275730893
 20
275.0265881686
 30
0.0
 11
-0.5548061226552286
 21
-6.977978945927969
 31
0.0
210
0.0
220
0.0
230
0.9999999999999999
 40
0.2986947598
 41
3.141592653589793
 42
3.963815339340431
  0
SPLINE
  5
123
330
E5
100
AcDbEntity
  8
$DDT_AUDIT_GENERATED_(F8)
  6
Continuous
 62
     7
100
AcDbSpline
210
0.0
220
0.0
230
1.0
 70
     8
 71
     3
 72
     8
 73
     4
 74
     0
 42
0.0000000029998049
 43
0.0000000001
 40
0.5326420301275664
 40
0.5326420301275664
 40
0.5326420301275664
 40
0.5326420301275664
 40
0.5364367347194986
 40
0.5364367347194986
 40
0.5364367347194986
 40
0.5364367347194986
 10
213.2889165057865
 20
279.0332873020527
 30
0.0
 10
213.2920083529199
 20
279.0361400547541
 30
0.0
 10
213.2950917410134
 20
279.0390162001336
 30
0.0
 10
213.2981666348765
 20
279.041915764876
 30
0.0
  0
ELLIPSE
  5
124
330
E5
100
AcDbEntity
  8
$DDT_AUDIT_GENERATED_(F8)
  6
Continuous
 62
     7
100
AcDbEllipse
 10
213.2949433352
 20
275.6772320134
 30
0.0
 11
-0.08721524746752116
 21
-0.4923347440505005
 31
0.0
210
0.0
220
0.0
230
1.0
 40
0.2579504555
 41
3.141592653589793
 42
3.181297473510874
  0
ELLIPSE
  5
125
330
E5
100
AcDbEntity
  8
$DDT_AUDIT_GENERATED_(F8)
  6
Continuous
 62
     7
100
AcDbEllipse
 10
211.1602028437
 20
272.0722302314
 30
0.0
 11
0.08721524753902213
 21
0.4923347444541256
 31
0.0
210
0.0
220
0.0
230
0.9999999999999999
 40
0.2579504555
 41
1.163844426068065
 42
3.141592653589989
  0
ELLIPSE
  5
126
330
E5
100
AcDbEntity
  8
$DDT_AUDIT_GENERATED_(F8)
  6
Continuous
 62
     7
100
AcDbEllipse
 10
212.2275730893
 20
269.2703154916
 30
0.0
 11
1.221013465590532
 21
6.892686422607394
 31
0.0
210
0.0
220
0.0
230
0.9999999999999999
 40
0.2579504555
 41
0.0397048199192041
 42
1.163844426068013
  0
ELLIPSE
  5
127
330
E5
100
AcDbEntity
  8
$DDT_AUDIT_GENERATED_(F8)
  6
Continuous
 62
     7
100
AcDbEllipse
 10
213.3900779794
 20
275.6603792691
 30
0.0
 11
-0.08721524758007348
 21
-0.4923347440305617
 31
0.0
210
0.0
220
0.0
230
1.0
 40
0.2579504555
 41
3.141592653589793
 42
3.181297473569027
  0
ELLIPSE
  5
128
330
E5
100
AcDbEntity
  8
$DDT_AUDIT_GENERATED_(F8)
  6
Continuous
 62
     7
100
AcDbEllipse
 10
211.2553374883
 20
272.0553774871
 30
0.0
 11
0.08721524753902256
 21
0.4923347444541256
 31
0.0
210
0.0
220
0.0
230
0.9999999999999999
 40
0.2579504555
 41
3.141592653589775
 42
3.181297473581082
  0
ELLIPSE
  5
129
330
E5
100
AcDbEntity
  8
$DDT_AUDIT_GENERATED_(F8)
  6
Continuous
 62
     7
100
AcDbEllipse
 10
211.2553374883
 20
272.0553774871
 30
0.0
 11
0.06184032507558544
 21
0.4961610365542077
 31
0.0
210
0.0
220
0.0
230
1.0
 40
0.7306416586
 41
3.085392541019167
 42
3.141592653589851
  0
ELLIPSE
  5
12A
330
E5
100
AcDbEntity
  8
$DDT_AUDIT_GENERATED_(F8)
  6
Continuous
 62
     7
100
AcDbEllipse
 10
213.2949433352
 20
271.2665600469
 30
0.0
 11
-0.1238137924501406
 21
-0.4844276461858938
 31
0.0
210
0.0
220
0.0
230
1.0
 40
0.1892532168
 41
3.141592653589875
 42
3.512949959630188
  0
ELLIPSE
  5
12B
330
E5
100
AcDbEntity
  8
$DDT_AUDIT_GENERATED_(F8)
  6
Continuous
 62
     7
100
AcDbEllipse
 10
211.1602028437
 20
266.0652390435
 30
0.0
 11
0.1238137925516454
 21
0.4844276465830397
 31
0.0
210
0.0
220
0.0
230
1.0
 40
0.1892532168
 41
1.495496912189047
 42
3.141592653589793
  0
ELLIPSE
  5
12C
330
E5
100
AcDbEntity
  8
$DDT_AUDIT_GENERATED_(F8)
  6
Continuous
 62
     7
100
AcDbEllipse
 10
212.2275730893
 20
265.287729625
 30
0.0
 11
1.733393095785809
 21
6.781987052408144
 31
0.0
210
0.0
220
0.0
230
1.0
 40
0.1892532168
 41
0.3713573060403478
 42
0.6968697563861718
  0
SPLINE
  5
12D
330
E5
100
AcDbEntity
  8
$DDT_AUDIT_GENERATED_(F8)
  6
Continuous
 62
     7
100
AcDbSpline
210
0.0
220
0.0
230
1.0
 70
     8
 71
     3
 72
    35
 73
    31
 74
     0
 42
0.0000000049691646
 43
0.0000000001
 40
0.5050890852393081
 40
0.5050890852393081
 40
0.5050890852393081
 40
0.5050890852393081
 40
0.5588087789172127
 40
0.5588087789172127
 40
0.5588087789172127
 40
0.6118411249425127
 40
0.6118411249425127
 40
0.6118411249425127
 40
0.6640675835282768
 40
0.6640675835282768
 40
0.6640675835282768
 40
0.716458937963869
 40
0.716458937963869
 40
0.716458937963869
 40
0.7705075048451653
 40
0.7705075048451653
 40
0.7705075048451653
 40
0.7905301498998039
 40
0.7905301498998039
 40
0.7905301498998039
 40
0.845017180140077
 40
0.845017180140077
 40
0.845017180140077
 40
0.8996606659871732
 40
0.8996606659871732
 40
0.8996606659871732
 40
0.9130576246075471
 40
0.9130576246075471
 40
0.9130576246075471
 40
0.9635047403057345
 40
0.9635047403057345
 40
0.9635047403057345
 40
0.9635047403057345
 10
213.5938215938874
 20
264.3831089768375
 30
0.0
 10
213.5973219137449
 20
264.3895016953835
 30
0.0
 10
213.6024119621985
 20
264.4047317778935
 30
0.0
 10
213.6094253085885
 20
264.4274683613687
 30
0.0
 10
213.6163494715429
 20
264.4499158208628
 30
0.0
 10
213.6253856073483
 20
264.4803149174136
 30
0.0
 10
213.6364563594625
 20
264.5159194870261
 30
0.0
 10
213.6473645090162
 20
264.5510011116639
 30
0.0
 10
213.6605689168355
 20
264.5920774483509
 30
0.0
 10
213.67527568437
 20
264.6355803874008
 30
0.0
 10
213.6900362570116
 20
264.679242483131
 30
0.0
 10
213.7066947149264
 20
264.7264875600558
 30
0.0
 10
213.7238066021818
 20
264.7736136176106
 30
0.0
 10
213.7414560811537
 20
264.8222202002411
 30
0.0
 10
213.7600376450009
 20
264.8719928266998
 30
0.0
 10
213.7776110389272
 20
264.9192746487577
 30
0.0
 10
213.7841959507157
 20
264.9369915808855
 30
0.0
 10
213.7906826755219
 20
264.9544851106436
 30
0.0
 10
213.7969652138671
 20
264.9715748965542
 30
0.0
 10
213.8138577473769
 20
265.017526033708
 30
0.0
 10
213.8295563491534
 20
265.0613790032543
 30
0.0
 10
213.8420331308264
 20
265.0996499641314
 30
0.0
 10
213.8545305709472
 20
265.1379842922025
 30
0.0
 10
213.8641031369855
 20
265.1717941059816
 30
0.0
 10
213.8692553019786
 20
265.1978663440332
 30
0.0
 10
213.8705376318711
 20
265.204355501555
 30
0.0
 10
213.8715612235586
 20
265.2104079315258
 30
0.0
 10
213.8723147431376
 20
265.215984701461
 30
0.0
 10
213.8751143011305
 20
265.2367041243954
 30
0.0
 10
213.8740946802903
 20
265.2510328617144
 30
0.0
 10
213.8694071912541
 20
265.2578033670155
 30
0.0
  0
SPLINE
  5
12E
330
E5
100
AcDbEntity
  8
$DDT_AUDIT_GENERATED_(F8)
  6
Continuous
 62
     7
100
AcDbSpline
210
0.0
220
0.0
230
1.0
 70
     8
 71
     3
 72
     8
 73
     4
 74
     0
 42
0.000000019190403
 43
0.0000000001
 40
0.9813083122695343
 40
0.9813083122695343
 40
0.9813083122695343
 40
0.9813083122695343
 40
1.0
 40
1.0
 40
1.0
 40
1.0
 10
213.8630552632451
 20
265.2622679988124
 30
0.0
 10
213.8603749089274
 20
265.2628678024357
 30
0.0
 10
213.8572315173836
 20
265.2624582957388
 30
0.0
 10
213.8536792810751
 20
265.2610437479739
 30
0.0
  0
ARC
  5
12F
330
E5
100
AcDbEntity
  8
$DDT_AUDIT_GENERATED_(F8)
  6
Continuous
 62
     7
100
AcDbCircle
 10
207.0903022726
 20
265.794809436
 30
0.0
 40
7.000000000000028
100
AcDbArc
 50
345.6979251184
 51
3.4229900469
  0
ARC
  5
130
330
E5
100
AcDbEntity
  8
$DDT_AUDIT_GENERATED_(F8)
  6
Continuous
 62
     7
100
AcDbCircle
 10
207.0903022726
 20
265.794809436
 30
0.0
 40
7.000000000000026
100
AcDbArc
 50
309.8548066241
 51
338.188235523
  0
ARC
  5
131
330
E5
100
AcDbEntity
  8
$DDT_AUDIT_GENERATED_(F8)
  6
Continuous
 62
     7
100
AcDbCircle
 10
211.2553374883
 20
260.8045707992
 30
0.0
 40
0.4999999999999988
100
AcDbArc
 50
252.0538348793
 51
309.8496073826
  0
ARC
  5
132
330
E5
100
AcDbEntity
  8
$DDT_AUDIT_GENERATED_(F8)
  6
Continuous
 62
     7
100
AcDbCircle
 10
212.1230660249
 20
297.7680587357
 30
0.0
 40
4.000000000000002
100
AcDbArc
 50
23.8107095319
 51
35.8469533919
  0
ARC
  5
133
330
E5
100
AcDbEntity
  8
$DDT_AUDIT_GENERATED_(F8)
  6
Continuous
 62
     7
100
AcDbCircle
 10
212.1230660249
 20
297.7680587357
 30
0.0
 40
4.000000000000002
100
AcDbArc
 50
344.8893030817
 51
357.4368314001
  0
ARC
  5
134
330
E5
100
AcDbEntity
  8
$DDT_AUDIT_GENERATED_(F8)
  6
Continuous
 62
     7
100
AcDbCircle
 10
215.5020499507
 20
296.8556620953
 30
0.0
 40
0.5000000000000009
100
AcDbArc
 50
295.3681282368
 51
344.8893030817
  0
ARC
  5
135
330
E5
100
AcDbEntity
  8
$DDT_AUDIT_GENERATED_(F8)
  6
Continuous
 62
     7
100
AcDbCircle
 10
214.9601106514
 20
299.8177362195
 30
0.0
 40
0.4999999999999999
100
AcDbArc
 50
35.8469533919
 51
85.3681282368
  0
LINE
  5
136
330
E5
100
AcDbEntity
  8
$DDT_AUDIT_GENERATED_(F8)
  6
Continuous
 62
     7
100
AcDbLine
 10
215.0213209686
 20
296.0743645537
 30
0.0
 11
215.7162662363
 21
296.4038752174
 31
0.0
  0
LINE
  5
137
330
E5
100
AcDbEntity
  8
$DDT_AUDIT_GENERATED_(F8)
  6
Continuous
 62
     7
100
AcDbLine
 10
215.000487345
 20
300.3161032756
 30
0.0
 11
214.2338917571
 21
300.3782113038
 31
0.0
  0
ARC
  5
138
330
E5
100
AcDbEntity
  8
$DDT_AUDIT_GENERATED_(F8)
  6
Continuous
 62
     7
100
AcDbCircle
 10
212.1230660249
 20
289.3863574564
 30
0.0
 40
4.000000000000001
100
AcDbArc
 50
11.3822604961
 51
26.8497582647
  0
ARC
  5
139
330
E5
100
AcDbEntity
  8
$DDT_AUDIT_GENERATED_(F8)
  6
Continuous
 62
     7
100
AcDbCircle
 10
212.1230660249
 20
289.3863574564
 30
0.0
 40
4.000000000000004
100
AcDbArc
 50
339.6220793952
 51
354.9658659654
  0
SPLINE
  5
13A
330
E5
100
AcDbEntity
  8
$DDT_AUDIT_GENERATED_(F8)
  6
Continuous
 62
     7
100
AcDbSpline
210
0.0
220
0.0
230
1.0
 70
     8
 71
     3
 72
    13
 73
     9
 74
     0
 42
0.0000000160316744
 43
0.0000000001
 40
0.0
 40
0.0
 40
0.0
 40
0.0
 40
0.0628977205550168
 40
0.2573470473215866
 40
0.4463529887825641
 40
0.6435117975109571
 40
0.8686879944720505
 40
1.0
 40
1.0
 40
1.0
 40
1.0
 10
215.4905993754043
 20
287.5933207399108
 30
0.0
 10
215.5071445721364
 20
287.5974165547672
 30
0.0
 10
215.5649933820349
 20
287.6119788649687
 30
0.0
 10
215.6571048236671
 20
287.6749441927591
 30
0.0
 10
215.7494221111897
 20
287.7643416762479
 30
0.0
 10
215.8175601451475
 20
287.8664195784852
 30
0.0
 10
215.8616452866952
 20
287.9580573526618
 30
0.0
 10
215.8784365246676
 20
288.0132489372509
 30
0.0
 10
215.8854336107444
 20
288.0371172826624
 30
0.0
  0
SPLINE
  5
13B
330
E5
100
AcDbEntity
  8
$DDT_AUDIT_GENERATED_(F8)
  6
Continuous
 62
     7
100
AcDbSpline
210
0.0
220
0.0
230
1.0
 70
     8
 71
     3
 72
    13
 73
     9
 74
     0
 42
0.0000000154154427
 43
0.0000000001
 40
0.0663304568538263
 40
0.0663304568538263
 40
0.0663304568538263
 40
0.0663304568538263
 40
0.109885070645542
 40
0.3596896014008719
 40
0.564775546832018
 40
0.7649399363022467
 40
0.9647138921134232
 40
1.0
 40
1.0
 40
1.0
 40
1.0
 10
215.7018498091222
 20
291.1700029415694
 30
0.0
 10
215.6989563656054
 20
291.1771118816472
 30
0.0
 10
215.6790741949494
 20
291.2237353869419
 30
0.0
 10
215.6302834006721
 20
291.3028565032962
 30
0.0
 10
215.5441879030767
 20
291.4073164272871
 30
0.0
 10
215.4333602651948
 20
291.4907413060048
 30
0.0
 10
215.3317824817514
 20
291.5422811222746
 30
0.0
 10
215.2756254849479
 20
291.5483872470954
 30
0.0
 10
215.2658035893638
 20
291.5494332196011
 30
0.0
  0
LINE
  5
13C
330
E5
100
AcDbEntity
  8
$DDT_AUDIT_GENERATED_(F8)
  6
Continuous
 62
     7
100
AcDbLine
 10
214.7237960046
 20
287.3322717549
 30
0.0
 11
215.4863246824
 21
287.5869071868
 31
0.0
  0
LINE
  5
13D
330
E5
100
AcDbEntity
  8
$DDT_AUDIT_GENERATED_(F8)
  6
Continuous
 62
     7
100
AcDbLine
 10
215.2620671673
 20
291.5534296513
 30
0.0
 11
214.4756966061
 21
291.7204940943
 31
0.0
  0
ARC
  5
13E
330
E5
100
AcDbEntity
  8
$DDT_AUDIT_GENERATED_(F8)
  6
Continuous
 62
     7
100
AcDbCircle
 10
212.1230660249
 20
275.8244799029
 30
0.0
 40
3.999999999999997
100
AcDbArc
 50
2.8288682499
 51
16.3720773677
  0
ARC
  5
13F
330
E5
100
AcDbEntity
  8
$DDT_AUDIT_GENERATED_(F8)
  6
Continuous
 62
     7
100
AcDbCircle
 10
212.1230660249
 20
275.8244799029
 30
0.0
 40
4.0
100
AcDbArc
 50
326.78866115
 51
340.0923670249
  0
ARC
  5
140
330
E5
100
AcDbEntity
  8
$DDT_AUDIT_GENERATED_(F8)
  6
Continuous
 62
     7
100
AcDbCircle
 10
215.4527625754
 20
276.8213623686
 30
0.0
 40
0.5246169891501478
100
AcDbArc
 50
10.1136836884
 51
66.7408367931
  0
ARC
  5
141
330
E5
100
AcDbEntity
  8
$DDT_AUDIT_GENERATED_(F8)
  6
Continuous
 62
     7
100
AcDbCircle
 10
215.0097590449
 20
273.9152463077
 30
0.0
 40
0.5385935497618707
100
AcDbArc
 50
276.851778017
 51
328.9956000894
  0
LINE
  5
142
330
E5
100
AcDbEntity
  8
$DDT_AUDIT_GENERATED_(F8)
  6
Continuous
 62
     7
100
AcDbLine
 10
214.2668102929
 20
273.2841030046
 30
0.0
 11
215.0732544341
 21
273.3783677674
 31
0.0
  0
LINE
  5
143
330
E5
100
AcDbEntity
  8
$DDT_AUDIT_GENERATED_(F8)
  6
Continuous
 62
     7
100
AcDbLine
 10
215.6553626015
 20
277.3110723569
 30
0.0
 11
214.9108051491
 21
277.6349121297
 31
0.0
  0
LINE
  5
144
330
E5
100
AcDbEntity
  8
$DDT_AUDIT_GENERATED_(F8)
  6
Continuous
 62
     7
100
AcDbLine
 10
215.6398421099
 20
277.3178228803
 30
0.0
 11
216.255422333
 21
277.441110435
 31
0.0
  0
ARC
  5
145
330
E5
100
AcDbEntity
  8
$DDT_AUDIT_GENERATED_(F8)
  6
Continuous
 62
     7
100
AcDbCircle
 10
216.3506322872
 20
279.9679476419
 30
0.0
 40
0.4999999999999884
100
AcDbArc
 50
11.5678649747
 51
24.5133893293
  0
ARC
  5
146
330
E5
100
AcDbEntity
  8
$DDT_AUDIT_GENERATED_(F8)
  6
Continuous
 62
     7
100
AcDbCircle
 10
216.1572329275
 20
277.931374487
 30
0.0
 40
0.4999999999999964
100
AcDbArc
 50
281.3252811534
 51
337.5826973322
  0
ARC
  5
147
330
E5
100
AcDbEntity
  8
$DDT_AUDIT_GENERATED_(F8)
  6
Continuous
 62
     7
100
AcDbCircle
 10
212.9217247335
 20
279.2660979514
 30
0.0
 40
3.999999999999999
100
AcDbArc
 50
0.9297333264
 51
11.5678649747
  0
ARC
  5
148
330
E5
100
AcDbEntity
  8
$DDT_AUDIT_GENERATED_(F8)
  6
Continuous
 62
     7
100
AcDbCircle
 10
212.9217247335
 20
279.2660979514
 30
0.0
 40
4.000000000000008
100
AcDbArc
 50
337.5826973322
 51
348.0521927506
  0
LINE
  5
149
330
E5
100
AcDbEntity
  8
$DDT_AUDIT_GENERATED_(F8)
  6
Continuous
 62
     7
100
AcDbLine
 10
216.255422333
 20
293.8347829467
 30
0.0
 11
215.3020021679
 21
294.0257326172
 31
0.0
  0
ARC
  5
14A
330
E5
100
AcDbEntity
  8
$DDT_AUDIT_GENERATED_(F8)
  6
Continuous
 62
     7
100
AcDbCircle
 10
216.1572329275
 20
293.3445188948
 30
0.0
 40
0.4999999999999972
100
AcDbArc
 50
22.4173026678
 51
78.6747188465
  0
ARC
  5
14B
330
E5
100
AcDbEntity
  8
$DDT_AUDIT_GENERATED_(F8)
  6
Continuous
 62
     7
100
AcDbCircle
 10
216.3506322872
 20
291.3079457398
 30
0.0
 40
0.5000000000000024
100
AcDbArc
 50
335.4866106707
 51
348.4321350253
  0
ARC
  5
14C
330
E5
100
AcDbEntity
  8
$DDT_AUDIT_GENERATED_(F8)
  6
Continuous
 62
     7
100
AcDbCircle
 10
212.9217247335
 20
292.0097954304
 30
0.0
 40
4.0
100
AcDbArc
 50
11.9386703436
 51
22.4173026678
  0
ARC
  5
14D
330
E5
100
AcDbEntity
  8
$DDT_AUDIT_GENERATED_(F8)
  6
Continuous
 62
     7
100
AcDbCircle
 10
212.9217247335
 20
292.0097954304
 30
0.0
 40
3.999999999999999
100
AcDbArc
 50
348.4321350253
 51
359.0608590582
  0
LINE
  5
14E
330
E5
100
AcDbEntity
  8
$DDT_AUDIT_GENERATED_(F8)
  6
Continuous
 62
     7
100
AcDbLine
 10
216.0664698912
 20
288.7158606649
 30
0.0
 11
216.4999925696
 21
288.8790724367
 31
0.0
  0
LINE
  5
14F
330
E5
100
AcDbEntity
  8
$DDT_AUDIT_GENERATED_(F8)
  6
Continuous
 62
     7
100
AcDbLine
 10
216.2988173446
 20
291.8750218537
 30
0.0
 11
215.2923765219
 21
292.1063979507
 31
0.0
  0
ARC
  5
150
330
E5
100
AcDbEntity
  8
$DDT_AUDIT_GENERATED_(F8)
  6
Continuous
 62
     7
100
AcDbCircle
 10
216.1952798581
 20
291.3798228439
 30
0.0
 40
0.5007228269036752
100
AcDbArc
 50
16.2494852332
 51
77.3961274151
  0
ARC
  5
151
330
E5
100
AcDbEntity
  8
$DDT_AUDIT_GENERATED_(F8)
  6
Continuous
 62
     7
100
AcDbCircle
 10
216.3276370122
 20
289.3606504809
 30
0.0
 40
0.506581747389313
100
AcDbArc
 50
290.2632604424
 51
352.5096594525
  0
ARC
  5
152
330
E5
100
AcDbEntity
  8
$DDT_AUDIT_GENERATED_(F8)
  6
Continuous
 62
     7
100
AcDbCircle
 10
212.9217247335
 20
290.1435241433
 30
0.0
 40
3.999999999999999
100
AcDbArc
 50
8.9813930921
 51
20.4086671453
  0
ARC
  5
153
330
E5
100
AcDbEntity
  8
$DDT_AUDIT_GENERATED_(F8)
  6
Continuous
 62
     7
100
AcDbCircle
 10
212.9217247335
 20
290.1435241433
 30
0.0
 40
3.999999999999996
100
AcDbArc
 50
347.2745158089
 51
358.6637153551
  0
LINE
  5
154
330
E5
100
AcDbEntity
  8
$DDT_AUDIT_GENERATED_(F8)
  6
Continuous
 62
     7
100
AcDbLine
 10
215.415391427
 20
283.8386820097
 30
0.0
 11
216.4014427618
 21
284.136906727
 31
0.0
  0
LINE
  5
155
330
E5
100
AcDbEntity
  8
$DDT_AUDIT_GENERATED_(F8)
  6
Continuous
 62
     7
100
AcDbLine
 10
216.4014427618
 20
287.1389866547
 30
0.0
 11
215.415391427
 21
287.4372113721
 31
0.0
  0
ARC
  5
156
330
E5
100
AcDbEntity
  8
$DDT_AUDIT_GENERATED_(F8)
  6
Continuous
 62
     7
100
AcDbCircle
 10
216.2542602509
 20
286.6316563833
 30
0.0
 40
0.5230623533082948
100
AcDbArc
 50
11.7552732304
 51
72.9611803508
  0
ARC
  5
157
330
E5
100
AcDbEntity
  8
$DDT_AUDIT_GENERATED_(F8)
  6
Continuous
 62
     7
100
AcDbCircle
 10
216.2388292914
 20
284.6557667452
 30
0.0
 40
0.5414986765646794
100
AcDbArc
 50
287.7174270204
 51
349.3146667323
  0
ARC
  5
158
330
E5
100
AcDbEntity
  8
$DDT_AUDIT_GENERATED_(F8)
  6
Continuous
 62
     7
100
AcDbCircle
 10
212.9217247335
 20
285.6379466909
 30
0.0
 40
3.999999999999999
100
AcDbArc
 50
4.7407052964
 51
16.1276818799
  0
ARC
  5
159
330
E5
100
AcDbEntity
  8
$DDT_AUDIT_GENERATED_(F8)
  6
Continuous
 62
     7
100
AcDbCircle
 10
212.9217247335
 20
285.6379466909
 30
0.0
 40
3.999999999999999
100
AcDbArc
 50
3.4625728517
 51
4.7407052964
  0
ARC
  5
15A
330
E5
100
AcDbEntity
  8
$DDT_AUDIT_GENERATED_(F8)
  6
Continuous
 62
     7
100
AcDbCircle
 10
212.9217247335
 20
285.6379466909
 30
0.0
 40
3.999999999999996
100
AcDbArc
 50
343.8723181201
 51
3.4625728517
  0
LINE
  5
15B
330
E5
100
AcDbEntity
  8
$DDT_AUDIT_GENERATED_(F8)
  6
Continuous
 62
     7
100
AcDbLine
 10
215.2923765219
 20
279.169495431
 30
0.0
 11
216.2988173446
 21
279.4008715281
 31
0.0
  0
LINE
  5
15C
330
E5
100
AcDbEntity
  8
$DDT_AUDIT_GENERATED_(F8)
  6
Continuous
 62
     7
100
AcDbLine
 10
216.4999925696
 20
282.396820945
 30
0.0
 11
215.5335209856
 21
282.7606762805
 31
0.0
  0
ARC
  5
15D
330
E5
100
AcDbEntity
  8
$DDT_AUDIT_GENERATED_(F8)
  6
Continuous
 62
     7
100
AcDbCircle
 10
216.315449716
 20
281.9132607682
 30
0.0
 40
0.5172875171284821
100
AcDbArc
 50
10.2234196095
 51
69.2396752084
  0
ARC
  5
15E
330
E5
100
AcDbEntity
  8
$DDT_AUDIT_GENERATED_(F8)
  6
Continuous
 62
     7
100
AcDbCircle
 10
216.1843849223
 20
279.9049965073
 30
0.0
 40
0.5148451077986279
100
AcDbArc
 50
283.7832403701
 51
344.9146321112
  0
ARC
  5
15F
330
E5
100
AcDbEntity
  8
$DDT_AUDIT_GENERATED_(F8)
  6
Continuous
 62
     7
100
AcDbCircle
 10
212.9217247335
 20
281.1323692385
 30
0.0
 40
3.999999999999998
100
AcDbArc
 50
1.2535219947
 51
12.7254841911
  0
ARC
  5
160
330
E5
100
AcDbEntity
  8
$DDT_AUDIT_GENERATED_(F8)
  6
Continuous
 62
     7
100
AcDbCircle
 10
212.9217247335
 20
281.1323692385
 30
0.0
 40
3.999999999999994
100
AcDbArc
 50
339.5913328547
 51
351.0025372867
  0
ARC
  5
161
330
E5
100
AcDbEntity
  8
$DDT_AUDIT_GENERATED_(F8)
  6
Continuous
 62
     7
100
AcDbCircle
 10
207.3236176016
 20
305.2850134216
 30
0.0
 40
6.741821815145425
100
AcDbArc
 50
21.7347749095
 51
49.7673094715
  0
ARC
  5
162
330
E5
100
AcDbEntity
  8
$DDT_AUDIT_GENERATED_(F8)
  6
Continuous
 62
     7
100
AcDbCircle
 10
207.3768346962
 20
305.211196463
 30
0.0
 40
6.712901183170799
100
AcDbArc
 50
350.4781180996
 51
14.8892664341
  0
ARC
  5
163
330
E5
100
AcDbEntity
  8
$DDT_AUDIT_GENERATED_(F8)
  6
Continuous
 62
     7
100
AcDbCircle
 10
211.0946392709
 20
309.8343453252
 30
0.0
 40
0.836372209067186
100
AcDbArc
 50
45.2681921039
 51
57.5608182915
  0
ARC
  5
164
330
E5
100
AcDbEntity
  8
$DDT_AUDIT_GENERATED_(F8)
  6
Continuous
 62
     7
100
AcDbCircle
 10
211.2553374883
 20
310.1326277033
 30
0.0
 40
0.5000000000000009
100
AcDbArc
 50
54.6635274107
 51
90.0
  0
ARC
  5
165
330
E5
100
AcDbEntity
  8
$DDT_AUDIT_GENERATED_(F8)
  6
Continuous
 62
     7
100
AcDbCircle
 10
208.3336710644
 20
303.1866115673
 30
0.0
 40
5.726505466024506
100
AcDbArc
 50
22.7934770766
 51
51.0224131897
  0
ARC
  5
166
330
E5
100
AcDbEntity
  8
$DDT_AUDIT_GENERATED_(F8)
  6
Continuous
 62
     7
100
AcDbCircle
 10
208.4228697208
 20
303.1048383288
 30
0.0
 40
5.666888032465863
100
AcDbArc
 50
344.9736653088
 51
17.5011474822
  0
ARC
  5
167
330
E5
100
AcDbEntity
  8
$DDT_AUDIT_GENERATED_(F8)
  6
Continuous
 62
     7
100
AcDbCircle
 10
213.3900779794
 20
301.6815305629
 30
0.0
 40
0.4999999997950423
100
AcDbArc
 50
285.8993396356
 51
337.6400764467
  0
ARC
  5
168
330
E5
100
AcDbEntity
  8
$DDT_AUDIT_GENERATED_(F8)
  6
Continuous
 62
     7
100
AcDbCircle
 10
213.4404824089
 20
301.7093257485
 30
0.0
 40
0.4637607471783031
100
AcDbArc
 50
331.8445865185
 51
351.0354077574
  0
LINE
  5
169
330
E5
100
AcDbEntity
  8
$DDT_AUDIT_GENERATED_(F8)
  6
Continuous
 62
     7
100
AcDbLine
 10
213.4020755009
 20
297.483832917
 30
0.0
 11
213.4972101451
 21
297.5047015367
 31
0.0
  0
LINE
  5
16A
330
E5
100
AcDbEntity
  8
$DDT_AUDIT_GENERATED_(F8)
  6
Continuous
 62
     7
100
AcDbLine
 10
211.1482053225
 20
302.9455224009
 30
0.0
 11
211.0530706779
 21
302.924653781
 31
0.0
  0
ARC
  5
16B
330
E5
100
AcDbEntity
  8
$DDT_AUDIT_GENERATED_(F8)
  6
Continuous
 62
     7
100
AcDbCircle
 10
209.7527226533
 20
299.1079924788
 30
0.0
 40
4.322334889888872
100
AcDbArc
 50
343.9789737947
 51
52.5772746553
  0
ARC
  5
16C
330
E5
100
AcDbEntity
  8
$DDT_AUDIT_GENERATED_(F8)
  6
Continuous
 62
     7
100
AcDbCircle
 10
211.203395713
 20
301.074609591
 30
0.0
 40
1.881460450676923
100
AcDbArc
 50
51.0638563253
 51
87.6337748164
  0
ARC
  5
16D
330
E5
100
AcDbEntity
  8
$DDT_AUDIT_GENERATED_(F8)
  6
Continuous
 62
     7
100
AcDbCircle
 10
213.3900779794
 20
297.9930893935
 30
0.0
 40
0.4999999997950448
100
AcDbArc
 50
282.3723708437
 51
317.0226778592
  0
ARC
  5
16E
330
E5
100
AcDbEntity
  8
$DDT_AUDIT_GENERATED_(F8)
  6
Continuous
 62
     7
100
AcDbCircle
 10
211.2553374883
 20
302.4571345437
 30
0.0
 40
0.5000000000000002
100
AcDbArc
 50
86.8769036542
 51
90.0
  0
ARC
  5
16F
330
E5
100
AcDbEntity
  8
$DDT_AUDIT_GENERATED_(F8)
  6
Continuous
 62
     7
100
AcDbCircle
 10
211.2553374883
 20
302.4571345437
 30
0.0
 40
0.5000000000000004
100
AcDbArc
 50
90.0
 51
102.3723708437
  0
ARC
  5
170
330
E5
100
AcDbEntity
  8
$DDT_AUDIT_GENERATED_(F8)
  6
Continuous
 62
     7
100
AcDbCircle
 10
213.3495468762
 20
298.0738047486
 30
0.0
 40
0.5820399566037974
100
AcDbArc
 50
313.8919862942
 51
344.1658526631
  0
LINE
  5
171
330
E5
100
AcDbEntity
  8
$DDT_AUDIT_GENERATED_(F8)
  6
Continuous
 62
     7
100
AcDbLine
 10
213.1306732644
 20
292.3724654877
 30
0.0
 11
213.5058174731
 21
292.4212723513
 31
0.0
  0
LINE
  5
172
330
E5
100
AcDbEntity
  8
$DDT_AUDIT_GENERATED_(F8)
  6
Continuous
 62
     7
100
AcDbLine
 10
211.6996184232
 20
296.2307641734
 30
0.0
 11
211.3244729142
 21
296.1819571407
 31
0.0
  0
ARC
  5
173
330
E5
100
AcDbEntity
  8
$DDT_AUDIT_GENERATED_(F8)
  6
Continuous
 62
     7
100
AcDbCircle
 10
211.2915460543
 20
293.6692217808
 30
0.0
 40
2.778680665421723
100
AcDbArc
 50
339.6670515401
 51
52.1124043855
  0
ARC
  5
174
330
E5
100
AcDbEntity
  8
$DDT_AUDIT_GENERATED_(F8)
  6
Continuous
 62
     7
100
AcDbCircle
 10
211.9579276698
 20
294.6667113481
 30
0.0
 40
1.58240072836843
100
AcDbArc
 50
48.4404252312
 51
99.7269959368
  0
ARC
  5
175
330
E5
100
AcDbEntity
  8
$DDT_AUDIT_GENERATED_(F8)
  6
Continuous
 62
     7
100
AcDbCircle
 10
213.4525790685
 20
292.9032689008
 30
0.0
 40
0.4844168644848443
100
AcDbArc
 50
276.2748427609
 51
335.7267348063
  0
LINE
  5
176
330
E5
100
AcDbEntity
  8
$DDT_AUDIT_GENERATED_(F8)
  6
Continuous
 62
     7
100
AcDbLine
 10
212.4147274564
 20
285.8976979753
 30
0.0
 11
213.0449614867
 21
285.9145541512
 31
0.0
  0
LINE
  5
177
330
E5
100
AcDbEntity
  8
$DDT_AUDIT_GENERATED_(F8)
  6
Continuous
 62
     7
100
AcDbLine
 10
212.6705911805
 20
288.9471183646
 30
0.0
 11
212.0404187223
 21
288.9302638355
 31
0.0
  0
ARC
  5
178
330
E5
100
AcDbEntity
  8
$DDT_AUDIT_GENERATED_(F8)
  6
Continuous
 62
     7
100
AcDbCircle
 10
212.3344400657
 20
287.317044776
 30
0.0
 40
1.752410826048427
100
AcDbArc
 50
322.9021257256
 51
46.2555429472
  0
ARC
  5
179
330
E5
100
AcDbEntity
  8
$DDT_AUDIT_GENERATED_(F8)
  6
Continuous
 62
     7
100
AcDbCircle
 10
212.7258260404
 20
287.8480991286
 30
0.0
 40
1.098201059024345
100
AcDbArc
 50
41.5586182882
 51
93.0862721663
  0
ARC
  5
17A
330
E5
100
AcDbEntity
  8
$DDT_AUDIT_GENERATED_(F8)
  6
Continuous
 62
     7
100
AcDbCircle
 10
213.0529066054
 20
286.7665785527
 30
0.0
 40
0.8482025302397057
100
AcDbArc
 50
268.4209414284
 51
323.2104721203
  0
LINE
  5
17B
330
E5
100
AcDbEntity
  8
$DDT_AUDIT_GENERATED_(F8)
  6
Continuous
 62
     7
100
AcDbLine
 10
211.6727669667
 20
278.7120121483
 30
0.0
 11
212.2246410413
 21
278.6681336674
 31
0.0
  0
LINE
  5
17C
330
E5
100
AcDbEntity
  8
$DDT_AUDIT_GENERATED_(F8)
  6
Continuous
 62
     7
100
AcDbLine
 10
213.3383149787
 20
281.9603656961
 30
0.0
 11
212.782379212
 21
282.0045671146
 31
0.0
  0
SPLINE
  5
17D
330
E5
100
AcDbEntity
  8
$DDT_AUDIT_GENERATED_(F8)
  6
Continuous
 62
     7
100
AcDbSpline
210
0.0
220
0.0
230
1.0
 70
     8
 71
     3
 72
    18
 73
    14
 74
     0
 42
0.0000000034018571
 43
0.0000000001
 40
0.0
 40
0.0
 40
0.0
 40
0.0
 40
0.0516669663776131
 40
0.1756537332724736
 40
0.2963978145665643
 40
0.4134032448524955
 40
0.5258593590781698
 40
0.6327741227140572
 40
0.7328207593078925
 40
0.8241121013694112
 40
0.9043170481084248
 40
0.972491526727142
 40
1.0
 40
1.0
 40
1.0
 40
1.0
 10
213.2624903974592
 20
279.0094500608198
 30
0.0
 10
213.3022131628453
 20
279.0462069448427
 30
0.0
 10
213.4166048517079
 20
279.1532328056998
 30
0.0
 10
213.6069851239086
 20
279.3726680467204
 30
0.0
 10
213.7943697426824
 20
279.658730237488
 30
0.0
 10
213.9383010391867
 20
279.9596672935626
 30
0.0
 10
214.0354863659279
 20
280.2641166695457
 30
0.0
 10
214.0871703776118
 20
280.5645470297352
 30
0.0
 10
214.0951982749086
 20
280.8519700333989
 30
0.0
 10
214.0638607664118
 20
281.1194588739483
 30
0.0
 10
213.9981778841043
 20
281.3560874699682
 30
0.0
 10
213.9219627599474
 20
281.5387157786018
 30
0.0
 10
213.8656158418865
 20
281.6252774419206
 30
0.0
 10
213.8465776486427
 20
281.6542817006722
 30
0.0
  0
ARC
  5
17E
330
E5
100
AcDbEntity
  8
$DDT_AUDIT_GENERATED_(F8)
  6
Continuous
 62
     7
100
AcDbCircle
 10
213.3076564666
 20
281.33223684
 30
0.0
 40
0.6275977800467302
100
AcDbArc
 50
30.4306489457
 51
87.2467332914
  0
ARC
  5
17F
330
E5
100
AcDbEntity
  8
$DDT_AUDIT_GENERATED_(F8)
  6
Continuous
 62
     7
100
AcDbCircle
 10
212.3685226932
 20
279.981758402
 30
0.0
 40
1.317067711408933
100
AcDbArc
 50
262.929169617
 51
314.9819664746
  0
LINE
  5
180
330
E5
100
AcDbEntity
  8
$DDT_AUDIT_GENERATED_(F8)
  6
Continuous
 62
     7
100
AcDbLine
 10
213.4772932268
 20
276.1527140131
 30
0.0
 11
213.3821585827
 21
276.1695667574
 31
0.0
  0
LINE
  5
181
330
E5
100
AcDbEntity
  8
$DDT_AUDIT_GENERATED_(F8)
  6
Continuous
 62
     7
100
AcDbLine
 10
211.0729875962
 20
271.5798954869
 30
0.0
 11
211.1681222408
 21
271.5630427426
 31
0.0
  0
ARC
  5
182
330
E5
100
AcDbEntity
  8
$DDT_AUDIT_GENERATED_(F8)
  6
Continuous
 62
     7
100
AcDbCircle
 10
210.5441368621
 20
274.7414175635
 30
0.0
 40
3.526201267272713
100
AcDbArc
 50
307.4270270965
 51
17.4500975829
  0
ARC
  5
183
330
E5
100
AcDbEntity
  8
$DDT_AUDIT_GENERATED_(F8)
  6
Continuous
 62
     7
100
AcDbCircle
 10
213.4011887972
 20
275.6147293714
 30
0.0
 40
0.5385025349441638
100
AcDbArc
 50
20.0172293358
 51
73.457343586
  0
ARC
  5
184
330
E5
100
AcDbEntity
  8
$DDT_AUDIT_GENERATED_(F8)
  6
Continuous
 62
     7
100
AcDbCircle
 10
213.3900779794
 20
275.6603792691
 30
0.0
 40
0.4999999998080652
100
AcDbArc
 50
71.1796046572
 51
79.9544818467
  0
ARC
  5
185
330
E5
100
AcDbEntity
  8
$DDT_AUDIT_GENERATED_(F8)
  6
Continuous
 62
     7
100
AcDbCircle
 10
211.2553374883
 20
272.0553774871
 30
0.0
 40
0.5000000000000004
100
AcDbArc
 50
259.9544818467
 51
262.8954286216
  0
ARC
  5
186
330
E5
100
AcDbEntity
  8
$DDT_AUDIT_GENERATED_(F8)
  6
Continuous
 62
     7
100
AcDbCircle
 10
211.5208836938
 20
273.3945036507
 30
0.0
 40
1.863637203352458
100
AcDbArc
 50
259.9073222194
 51
308.9177331412
  0
LINE
  5
187
330
E5
100
AcDbEntity
  8
$DDT_AUDIT_GENERATED_(F8)
  6
Continuous
 62
     7
100
AcDbLine
 10
213.5138917718
 20
271.7266724394
 30
0.0
 11
213.4187571277
 21
271.750987693
 31
0.0
  0
LINE
  5
188
330
E5
100
AcDbEntity
  8
$DDT_AUDIT_GENERATED_(F8)
  6
Continuous
 62
     7
100
AcDbLine
 10
211.0363890512
 20
265.5808113969
 30
0.0
 11
211.1315236958
 21
265.5564961432
 31
0.0
  0
ARC
  5
189
330
E5
100
AcDbEntity
  8
$DDT_AUDIT_GENERATED_(F8)
  6
Continuous
 62
     7
100
AcDbCircle
 10
209.172654537
 20
269.9531597767
 30
0.0
 40
4.915725081420891
100
AcDbArc
 50
338.6330217508
 51
15.8538480478
  0
ARC
  5
18A
330
E5
100
AcDbEntity
  8
$DDT_AUDIT_GENERATED_(F8)
  6
Continuous
 62
     7
100
AcDbCircle
 10
209.0206153478
 20
269.892572265
 30
0.0
 40
5.036480942754067
100
AcDbArc
 50
308.2047393649
 51
339.9051743331
  0
ARC
  5
18B
330
E5
100
AcDbEntity
  8
$DDT_AUDIT_GENERATED_(F8)
  6
Continuous
 62
     7
100
AcDbCircle
 10
213.3792799202
 20
271.1867348022
 30
0.0
 40
0.5348762843092068
100
AcDbArc
 50
11.7746808107
 51
34.2876031325
  0
ARC
  5
18C
330
E5
100
AcDbEntity
  8
$DDT_AUDIT_GENERATED_(F8)
  6
Continuous
 62
     7
100
AcDbCircle
 10
213.3900779794
 20
271.2422447932
 30
0.0
 40
0.4999999999270187
100
AcDbArc
 50
29.3775603601
 51
75.662830815
  0
ARC
  5
18D
330
E5
100
AcDbEntity
  8
$DDT_AUDIT_GENERATED_(F8)
  6
Continuous
 62
     7
100
AcDbCircle
 10
211.2553374883
 20
266.0409237897
 30
0.0
 40
0.5000000000000009
100
AcDbArc
 50
255.662830815
 51
283.0764481826
  0
ARC
  5
18E
330
E5
100
AcDbEntity
  8
$DDT_AUDIT_GENERATED_(F8)
  6
Continuous
 62
     7
100
AcDbCircle
 10
210.9371797002
 20
267.3748744
 30
0.0
 40
1.871070880426172
100
AcDbArc
 50
283.316305024
 51
310.0782305701
  0
LINE
  5
18F
330
E5
100
AcDbEntity
  8
$DDT_AUDIT_GENERATED_(F8)
  6
Continuous
 62
     7
100
AcDbLine
 10
211.0137539197
 20
261.7011825613
 30
0.0
 11
211.1088885643
 21
261.6720397331
 31
0.0
  0
ARC
  5
190
330
E5
100
AcDbEntity
  8
$DDT_AUDIT_GENERATED_(F8)
  6
Continuous
 62
     7
100
AcDbCircle
 10
207.8023491577
 20
266.8643029635
 30
0.0
 40
6.287638331317155
100
AcDbArc
 50
344.1897508034
 51
14.563941949
  0
ARC
  5
191
330
E5
100
AcDbEntity
  8
$DDT_AUDIT_GENERATED_(F8)
  6
Continuous
 62
     7
100
AcDbCircle
 10
207.7306675048
 20
266.7879991835
 30
0.0
 40
6.336088301420983
100
AcDbArc
 50
309.8160738622
 51
337.7985948032
  0
ARC
  5
192
330
E5
100
AcDbEntity
  8
$DDT_AUDIT_GENERATED_(F8)
  6
Continuous
 62
     7
100
AcDbCircle
 10
211.2553374883
 20
262.1501116029
 30
0.0
 40
0.500000000000001
100
AcDbArc
 50
252.9684741471
 51
299.4236565577
  0
ARC
  5
193
330
E5
100
AcDbEntity
  8
$DDT_AUDIT_GENERATED_(F8)
  6
Continuous
 62
     7
100
AcDbCircle
 10
210.7247900731
 20
263.1152089821
 30
0.0
 40
1.601227409067102
100
AcDbArc
 50
298.9871999251
 51
311.8511076618
  0
LINE
  5
194
330
E5
100
AcDbEntity
  8
$DDT_AUDIT_GENERATED_(C1)
  6
Continuous
 62
     7
100
AcDbLine
 10
202.1735910513
 20
253.7665253231
 30
0.0
 11
202.1735910513
 21
317.5093680586
 31
0.0
  0
ARC
  5
195
330
E5
100
AcDbEntity
  8
$DDT_AUDIT_GENERATED_(C1)
  6
Continuous
 62
     7
100
AcDbCircle
 10
213.3235910513
 20
285.6379466909
 30
0.0
 40
33.90000000000001
100
AcDbArc
 50
251.0389193629
 51
253.1564190768
  0
ARC
  5
196
330
E5
100
AcDbEntity
  8
$DDT_AUDIT_GENERATED_(C1)
  6
Continuous
 62
     7
100
AcDbCircle
 10
213.3235910513
 20
285.6379466909
 30
0.0
 40
33.9
100
AcDbArc
 50
104.0026242398
 51
108.9610806371
  0
ARC
  5
197
330
E5
100
AcDbEntity
  8
$DDT_AUDIT_GENERATED_(C1)
  6
Continuous
 62
     7
100
AcDbCircle
 10
144.4235910513
 20
285.6379466909
 30
0.0
 40
71.35000000000001
100
AcDbArc
 50
24.7166275186
 51
26.0178409658
  0
ARC
  5
198
330
E5
100
AcDbEntity
  8
$DDT_AUDIT_GENERATED_(C1)
  6
Continuous
 62
     7
100
AcDbCircle
 10
144.4235910513
 20
285.6379466909
 30
0.0
 40
71.35000000000001
100
AcDbArc
 50
333.9821590342
 51
335.2833724814
  0
ARC
  5
199
330
E5
100
AcDbEntity
  8
$DDT_AUDIT_GENERATED_(C1)
  6
Continuous
 62
     7
100
AcDbCircle
 10
202.3735910513
 20
253.7665253231
 30
0.0
 40
0.1999999999999988
100
AcDbArc
 50
180.0
 51
251.0389193629
  0
ARC
  5
19A
330
E5
100
AcDbEntity
  8
$DDT_AUDIT_GENERATED_(C1)
  6
Continuous
 62
     7
100
AcDbCircle
 10
202.3735910513
 20
317.5093680586
 30
0.0
 40
0.1999999999999999
100
AcDbArc
 50
108.9610806371
 51
180.0
  0
ARC
  5
19B
330
E5
100
AcDbEntity
  8
$DDT_AUDIT_GENERATED_(C1)
  6
Continuous
 62
     7
100
AcDbCircle
 10
205.8468312545
 20
315.6197422165
 30
0.0
 40
3.000000000000008
100
AcDbArc
 50
26.0178409658
 51
104.0026242398
  0
ARC
  5
19C
330
E5
100
AcDbEntity
  8
$DDT_AUDIT_GENERATED_(C1)
  6
Continuous
 62
     7
100
AcDbCircle
 10
205.8468312545
 20
255.6561511652
 30
0.0
 40
3.000000000000001
100
AcDbArc
 50
332.2123237869
 51
333.9821590342
  0
LINE
  5
19D
330
E5
100
AcDbEntity
  8
$DDT_AUDIT_GENERATED_(C1)
  6
Continuous
 62
     7
100
AcDbLine
 10
208.4483899908
 20
253.9386467719
 30
0.0
 11
208.4483899908
 21
254.0733957635
 31
0.0
  0
SPLINE
  5
19E
330
E5
100
AcDbEntity
  8
$DDT_AUDIT_GENERATED_(C1)
  6
Continuous
 62
     7
100
AcDbSpline
210
0.0
220
0.0
230
1.0
 70
     8
 71
     3
 72
    24
 73
    20
 74
     0
 42
0.0000000014228721
 43
0.0000000001
 40
0.0
 40
0.0
 40
0.0
 40
0.0
 40
0.0885531500088455
 40
0.1778362832492235
 40
0.2544670751931508
 40
0.3185537878666548
 40
0.3706368457561211
 40
0.4159710800349889
 40
0.4603356115203514
 40
0.5036072691117529
 40
0.5456549767454456
 40
0.5844154318232869
 40
0.6082091478059026
 40
0.630483036589277
 40
0.6565753869259038
 40
0.7163240240887438
 40
0.796037835924417
 40
0.890854721335572
 40
1.0
 40
1.0
 40
1.0
 40
1.0
 10
203.7978105419056
 20
252.8737408859539
 30
0.0
 10
203.9254038389375
 20
252.6853969024691
 30
0.0
 10
204.1440252675619
 20
252.3682354536765
 30
0.0
 10
204.532243147901
 20
251.9013595590606
 30
0.0
 10
204.9144415740783
 20
251.5260864564052
 30
0.0
 10
205.2770949620639
 20
251.2551979406331
 30
0.0
 10
205.6154475560046
 20
251.0839535906838
 30
0.0
 10
205.937792696069
 20
250.9967111009607
 30
0.0
 10
206.2518484029392
 20
250.9923549438425
 30
0.0
 10
206.5489491423522
 20
251.0660942939376
 30
0.0
 10
206.8078641360254
 20
251.2007641429263
 30
0.0
 10
207.0032522991866
 20
251.3487496465253
 30
0.0
 10
207.1480351452298
 20
251.4841837026823
 30
0.0
 10
207.263901590534
 20
251.6066817870854
 30
0.0
 10
207.4271214717462
 20
251.7994766672326
 30
0.0
 10
207.6487086376618
 20
252.1178598685902
 30
0.0
 10
207.9167210587801
 20
252.5927081310111
 30
0.0
 10
208.1987523218684
 20
253.2067175667543
 30
0.0
 10
208.3525151539102
 20
253.6198445347332
 30
0.0
 10
208.4483896738901
 20
253.8833408825496
 30
0.0
  0
ARC
  5
19F
330
E5
100
AcDbEntity
  8
$DDT_AUDIT_GENERATED_(C1)
  6
Continuous
 62
     7
100
AcDbCircle
 10
203.872740892
 20
252.9535243023
 30
0.0
 40
0.1077349241260299
100
AcDbArc
 50
186.1804234741
 51
227.0563139837
  0
ARC
  5
1A0
330
E5
100
AcDbEntity
  8
$DDT_AUDIT_GENERATED_(C1)
  6
Continuous
 62
     7
100
AcDbCircle
 10
203.4097018387
 20
252.8348503563
 30
0.0
 40
0.3644544896907661
100
AcDbArc
 50
16.7935578703
 51
75.7825252564
  0
ARC
  5
1A1
330
E5
100
AcDbEntity
  8
$DDT_AUDIT_GENERATED_(C1)
  6
Continuous
 62
     7
100
AcDbCircle
 10
208.8010178133
 20
254.0787114021
 30
0.0
 40
0.3487551815545186
100
AcDbArc
 50
149.0828410717
 51
172.1039547648
  0
ARC
  5
1A2
330
E5
100
AcDbEntity
  8
$DDT_AUDIT_GENERATED_(C1)
  6
Continuous
 62
     7
100
AcDbCircle
 10
209.0553170069
 20
255.8879466909
 30
0.0
 40
0.2000000000000033
100
AcDbArc
 50
335.2833724814
 51
0.0
  0
ARC
  5
1A3
330
E5
100
AcDbEntity
  8
$DDT_AUDIT_GENERATED_(C1)
  6
Continuous
 62
     7
100
AcDbCircle
 10
209.0553170069
 20
315.3879466909
 30
0.0
 40
0.1999999999999997
100
AcDbArc
 50
0.0
 51
24.7166275186
  0
LINE
  5
1A4
330
E5
100
AcDbEntity
  8
$DDT_AUDIT_GENERATED_(C1)
  6
Continuous
 62
     7
100
AcDbLine
 10
209.2553170069
 20
255.8879466909
 30
0.0
 11
209.2553170069
 21
315.3879466909
 31
0.0
  0
LINE
  5
1A6
330
E5
100
AcDbEntity
  8
$DDT_AUDIT_GENERATED_(1A5)
  6
Continuous
 62
     7
100
AcDbLine
 10
201.8735910513
 20
254.1211794647
 30
0.0
 11
201.8735910513
 21
317.154713917
 31
0.0
  0
ARC
  5
1A7
330
E5
100
AcDbEntity
  8
$DDT_AUDIT_GENERATED_(1A5)
  6
Continuous
 62
     7
100
AcDbCircle
 10
186.6204884144
 20
305.9720860141
 30
0.0
 40
0.4999999999999991
100
AcDbArc
 50
141.9541699495
 51
180.0
  0
ARC
  5
1A8
330
E5
100
AcDbEntity
  8
$DDT_AUDIT_GENERATED_(1A5)
  6
Continuous
 62
     7
100
AcDbCircle
 10
186.6204884144
 20
265.3038073677
 30
0.0
 40
0.5000000000000004
100
AcDbArc
 50
180.0
 51
218.0458300505
  0
LINE
  5
1A9
330
E5
100
AcDbEntity
  8
$DDT_AUDIT_GENERATED_(1A5)
  6
Continuous
 62
     7
100
AcDbLine
 10
186.1204884144
 20
305.9720860141
 30
0.0
 11
186.1204884144
 21
265.3038073677
 31
0.0
  0
LINE
  5
1AA
330
E5
100
AcDbEntity
  8
$DDT_AUDIT_GENERATED_(1A5)
  6
Continuous
 62
     7
100
AcDbLine
 10
202.1735910513
 20
316.2379466909
 30
0.0
 11
201.8735910513
 21
316.2379466909
 31
0.0
  0
LINE
  5
1AB
330
E5
100
AcDbEntity
  8
$DDT_AUDIT_GENERATED_(1A5)
  6
Continuous
 62
     7
100
AcDbLine
 10
201.8735910513
 20
255.0379466909
 30
0.0
 11
202.1735910513
 21
255.0379466909
 31
0.0
  0
ARC
  5
1AC
330
E5
100
AcDbEntity
  8
$DDT_AUDIT_GENERATED_(1A5)
  6
Continuous
 62
     7
100
AcDbCircle
 10
212.9235910513
 20
285.8879466909
 30
0.0
 40
33.9
100
AcDbArc
 50
218.0458300505
 51
250.4987215067
  0
ARC
  5
1AD
330
E5
100
AcDbEntity
  8
$DDT_AUDIT_GENERATED_(1A5)
  6
Continuous
 62
     7
100
AcDbCircle
 10
212.9235910513
 20
285.3879466909
 30
0.0
 40
33.89999999999999
100
AcDbArc
 50
109.5012784933
 51
141.9541699495
  0
ARC
  5
1AE
330
E5
100
AcDbEntity
  8
$DDT_AUDIT_GENERATED_(1A5)
  6
Continuous
 62
     7
100
AcDbCircle
 10
201.6735910513
 20
254.1211794647
 30
0.0
 40
0.2000000000000026
100
AcDbArc
 50
250.4987215067
 51
0.0
  0
ARC
  5
1AF
330
E5
100
AcDbEntity
  8
$DDT_AUDIT_GENERATED_(1A5)
  6
Continuous
 62
     7
100
AcDbCircle
 10
201.6735910513
 20
317.154713917
 30
0.0
 40
0.1999999999999988
100
AcDbArc
 50
0.0
 51
109.5012784933
  0
LINE
  5
1B1
330
E5
100
AcDbEntity
  8
$DDT_AUDIT_GENERATED_(1B0)
  6
Continuous
 62
     7
100
AcDbLine
 10
181.3135910512
 20
265.6379466909
 30
0.0
 11
181.5135910513
 21
265.6379466909
 31
0.0
  0
LINE
  5
1B2
330
E5
100
AcDbEntity
  8
$DDT_AUDIT_GENERATED_(1B0)
  6
Continuous
 62
     7
100
AcDbLine
 10
181.5135910513
 20
305.6379466909
 30
0.0
 11
181.3135910512
 21
305.6379466909
 31
0.0
  0
ARC
  5
1B3
330
E5
100
AcDbEntity
  8
$DDT_AUDIT_GENERATED_(1B0)
  6
Continuous
 62
     7
100
AcDbCircle
 10
181.5135910513
 20
285.6379466909
 30
0.0
 40
20.0
100
AcDbArc
 50
76.6826235793
 51
90.0
  0
ARC
  5
1B4
330
E5
100
AcDbEntity
  8
$DDT_AUDIT_GENERATED_(1B0)
  6
Continuous
 62
     7
100
AcDbCircle
 10
181.5135910513
 20
285.6379466909
 30
0.0
 40
20.0
100
AcDbArc
 50
270.0
 51
283.3173764207
  0
LINE
  5
1B6
330
E5
100
AcDbEntity
  8
$DDT_AUDIT_GENERATED_(1B5)
  6
Continuous
 62
     7
100
AcDbLine
 10
181.3135910512
 20
305.9975524802
 30
0.0
 11
181.3135910512
 21
265.2783409015
 31
0.0
  0
LINE
  5
1B7
330
E5
100
AcDbEntity
  8
$DDT_AUDIT_GENERATED_(1B5)
  6
Continuous
 62
     7
100
AcDbLine
 10
161.3135910513
 20
258.6429711165
 30
0.0
 11
161.3135910513
 21
312.6329222652
 31
0.0
  0
ARC
  5
1B8
330
E5
100
AcDbEntity
  8
$DDT_AUDIT_GENERATED_(1B5)
  6
Continuous
 62
     7
100
AcDbCircle
 10
181.0614746921
 20
305.9975524802
 30
0.0
 40
0.2521163590873954
100
AcDbArc
 50
0.0
 51
51.6641009508
  0
ARC
  5
1B9
330
E5
100
AcDbEntity
  8
$DDT_AUDIT_GENERATED_(1B5)
  6
Continuous
 62
     7
100
AcDbCircle
 10
181.0614746921
 20
265.2783409015
 30
0.0
 40
0.252116359087391
100
AcDbArc
 50
308.3358990492
 51
0.0
  0
ARC
  5
1BA
330
E5
100
AcDbEntity
  8
$DDT_AUDIT_GENERATED_(1B5)
  6
Continuous
 62
     7
100
AcDbCircle
 10
161.2451411966
 20
290.3378739364
 30
0.0
 40
32.2
100
AcDbArc
 50
271.0274928495
 51
308.3358990492
  0
ARC
  5
1BB
330
E5
100
AcDbEntity
  8
$DDT_AUDIT_GENERATED_(1B5)
  6
Continuous
 62
     7
100
AcDbCircle
 10
161.2451411966
 20
280.9380194453
 30
0.0
 40
32.2
100
AcDbArc
 50
51.6641009508
 51
88.9725071505
  0
ARC
  5
1BC
330
E5
100
AcDbEntity
  8
$DDT_AUDIT_GENERATED_(1B5)
  6
Continuous
 62
     7
100
AcDbCircle
 10
161.8135910513
 20
312.6329222652
 30
0.0
 40
0.5000000000000034
100
AcDbArc
 50
88.9725071505
 51
180.0
  0
ARC
  5
1BD
330
E5
100
AcDbEntity
  8
$DDT_AUDIT_GENERATED_(1B5)
  6
Continuous
 62
     7
100
AcDbCircle
 10
161.8135910513
 20
258.6429711165
 30
0.0
 40
0.5000000000000004
100
AcDbArc
 50
180.0
 51
271.0274928495
  0
LINE
  5
1BF
330
E5
100
AcDbEntity
  8
DV2_Standard
  6
CENTER2
 62
     7
100
AcDbLine
 10
181.3135906042
 20
285.6379466909
 30
0.0
 11
141.3135914983
 21
285.6379466909
 31
0.0
  0
LINE
  5
1C0
330
E5
100
AcDbEntity
  8
DV2_Standard
  6
CENTER2
 62
     7
100
AcDbLine
 10
161.3135910513
 20
305.6379462438
 30
0.0
 11
161.3135910513
 21
265.6379471379
 31
0.0
  0
LINE
  5
1C1
330
E5
100
AcDbEntity
  8
DV2_Standard
  6
Continuous
 62
     7
100
AcDbLine
 10
213.6129780446
 20
305.4051206751
 30
0.0
 11
213.8274427663
 21
304.8090126649
 31
0.0
  0
LINE
  5
1C2
330
E5
100
AcDbEntity
  8
DV2_Standard
  6
Continuous
 62
     7
100
AcDbLine
 10
211.0780974402
 20
302.2966921597
 30
0.0
 11
211.93573655
 21
299.7582898493
 31
0.0
  0
LINE
  5
1C3
330
E5
100
AcDbEntity
  8
DV2_Standard
  6
Continuous
 62
     7
100
AcDbLine
 10
215.4105279116
 20
287.4379466909
 30
0.0
 11
215.2936397828
 21
287.4379466909
 31
0.0
  0
LINE
  5
1C4
330
E5
100
AcDbEntity
  8
DV2_Standard
  6
Continuous
 62
     7
100
AcDbLine
 10
216.0443953244
 20
290.1757727622
 30
0.0
 11
216.1076364176
 21
289.0353606103
 31
0.0
  0
LINE
  5
1C5
330
E5
100
AcDbEntity
  8
DV2_Standard
  6
Continuous
 62
     7
100
AcDbLine
 10
215.3372181003
 20
286.5515542825
 30
0.0
 11
215.3372181003
 21
284.0135484306
 31
0.0
  0
LINE
  5
1C6
330
E5
100
AcDbEntity
  8
DV2_Standard
  6
Continuous
 62
     7
100
AcDbLine
 10
216.1181916161
 20
276.0218919352
 30
0.0
 11
215.8840371174
 21
274.4624606514
 31
0.0
  0
LINE
  5
1C7
330
E5
100
AcDbEntity
  8
DV2_Standard
  6
Continuous
 62
     7
100
AcDbLine
 10
211.0780974402
 20
266.1250474603
 30
0.0
 11
212.7452244665
 21
270.7228186751
 31
0.0
  0
ENDBLK
  5
1C9
330
E5
100
AcDbEntity
  8
0
100
AcDbBlockEnd
  0
BLOCK
  5
2BE
330
1CA
100
AcDbEntity
  8
0
100
AcDbBlockBegin
  2
SE2
 70
     0
 10
0.0
 20
0.0
 30
0.0
  3
SE2
  1

  0
LINE
  5
1CC
330
1CA
100
AcDbEntity
  8
$DDT_AUDIT_GENERATED_(60)
  6
Continuous
 62
     7
100
AcDbLine
 10
37.5817955256
 20
107.4700121013
 30
0.0
 11
37.6493711429
 21
107.4700121013
 31
0.0
  0
LINE
  5
1CD
330
1CA
100
AcDbEntity
  8
$DDT_AUDIT_GENERATED_(60)
  6
Continuous
 62
     7
100
AcDbLine
 10
41.0142199084
 20
107.4700121013
 30
0.0
 11
41.0817955256
 21
107.4700121013
 31
0.0
  0
ELLIPSE
  5
1CE
330
1CA
100
AcDbEntity
  8
$DDT_AUDIT_GENERATED_(60)
  6
Continuous
 62
     7
100
AcDbEllipse
 10
27.359571562
 20
108.6441183707
 30
0.0
 11
-2.705461870395431
 21
0.4707631566392631
 31
0.0
210
0.0
220
0.0
230
0.9999999999999997
 40
0.055614403
 41
2.477574476509522
 42
6.283185307179586
  0
LINE
  5
1CF
330
1CA
100
AcDbEntity
  8
$DDT_AUDIT_GENERATED_(60)
  6
Continuous
 62
     7
100
AcDbLine
 10
32.9084438708
 20
107.78317374
 30
0.0
 11
30.3682827327
 21
108.0243953904
 31
0.0
  0
LINE
  5
1D0
330
1CA
100
AcDbEntity
  8
$DDT_AUDIT_GENERATED_(60)
  6
Continuous
 62
     7
100
AcDbLine
 10
48.2953083186
 20
108.0243953904
 30
0.0
 11
45.7551471804
 21
107.78317374
 31
0.0
  0
ELLIPSE
  5
1D1
330
1CA
100
AcDbEntity
  8
$DDT_AUDIT_GENERATED_(60)
  6
Continuous
 62
     7
100
AcDbEllipse
 10
44.0085180137
 20
107.8012673229
 30
0.0
 11
2.354895975164408
 21
0.1581290808873497
 31
0.0
210
0.0
220
0.0
230
1.0
 40
0.0668483302
 41
5.547833493765291
 42
6.283185307179581
  0
ELLIPSE
  5
1D2
330
1CA
100
AcDbEntity
  8
$DDT_AUDIT_GENERATED_(60)
  6
Continuous
 62
     7
100
AcDbEllipse
 10
44.0085180137
 20
107.8012673229
 30
0.0
 11
2.354895975164408
 21
0.1581290808873497
 31
0.0
210
0.0
220
0.0
230
1.0
 40
0.0668483302
 41
0.0000000000000847
 42
3.876944467004007
  0
ARC
  5
1D3
330
1CA
100
AcDbEntity
  8
$DDT_AUDIT_GENERATED_(60)
  6
Continuous
 62
     7
100
AcDbCircle
 10
20.4627089912
 20
234.8294775745
 30
0.0
 40
130.2986797687996
100
AcDbArc
 50
288.6924973319
 51
289.7687355597
  0
ARC
  5
1D4
330
1CA
100
AcDbEntity
  8
$DDT_AUDIT_GENERATED_(60)
  6
Continuous
 62
     7
100
AcDbCircle
 10
93.8220429879
 20
11.6416984747
 30
0.0
 40
105.4225185850123
100
AcDbArc
 50
107.454852927
 51
110.3074394437
  0
ARC
  5
1D5
330
1CA
100
AcDbEntity
  8
$DDT_AUDIT_GENERATED_(60)
  6
Continuous
 62
     7
100
AcDbCircle
 10
-14.7635005508
 20
12.7584225104
 30
0.0
 40
104.2387567200638
100
AcDbArc
 50
69.6823304778
 51
72.5681223946
  0
ARC
  5
1D6
330
1CA
100
AcDbEntity
  8
$DDT_AUDIT_GENERATED_(60)
  6
Continuous
 62
     7
100
AcDbCircle
 10
58.1170373074
 20
234.5714867595
 30
0.0
 40
130.0275354441107
100
AcDbArc
 50
250.2275826867
 51
251.2780013354
  0
ARC
  5
1D7
330
1CA
100
AcDbEntity
  8
$DDT_AUDIT_GENERATED_(60)
  6
Continuous
 62
     7
100
AcDbCircle
 10
38.209932314
 20
173.7684218331
 30
0.0
 40
66.1539627411385
100
AcDbArc
 50
248.5182581699
 51
248.6126877601
  0
ARC
  5
1D8
330
1CA
100
AcDbEntity
  8
$DDT_AUDIT_GENERATED_(60)
  6
Continuous
 62
     7
100
AcDbCircle
 10
38.7051645991
 20
175.271846791
 30
0.0
 40
67.68303369062919
100
AcDbArc
 50
248.6185289016
 51
248.6981211117
  0
ARC
  5
1D9
330
1CA
100
AcDbEntity
  8
$DDT_AUDIT_GENERATED_(60)
  6
Continuous
 62
     7
100
AcDbCircle
 10
39.9582261895
 20
175.2927004015
 30
0.0
 40
67.70289359222714
100
AcDbArc
 50
291.2956286503
 51
291.3751758482
  0
ARC
  5
1DA
330
1CA
100
AcDbEntity
  8
$DDT_AUDIT_GENERATED_(60)
  6
Continuous
 62
     7
100
AcDbCircle
 10
10.1817955256
 20
114.0263905652
 30
0.0
 40
0.1999999999999988
100
AcDbArc
 50
182.8610614549
 51
245.3154689058
  0
ARC
  5
1DB
330
1CA
100
AcDbEntity
  8
$DDT_AUDIT_GENERATED_(60)
  6
Continuous
 62
     7
100
AcDbCircle
 10
39.3317955256
 20
177.4481336822
 30
0.0
 40
70.00000000000001
100
AcDbArc
 50
291.1261358891
 51
294.6845310942
  0
ARC
  5
1DC
330
1CA
100
AcDbEntity
  8
$DDT_AUDIT_GENERATED_(60)
  6
Continuous
 62
     7
100
AcDbCircle
 10
39.3317955256
 20
177.4481336822
 30
0.0
 40
70.0
100
AcDbArc
 50
277.3569343276
 51
278.1081597646
  0
ARC
  5
1DD
330
1CA
100
AcDbEntity
  8
$DDT_AUDIT_GENERATED_(60)
  6
Continuous
 62
     7
100
AcDbCircle
 10
39.3317955256
 20
177.4481336822
 30
0.0
 40
70.0
100
AcDbArc
 50
281.6336517854
 51
283.6403638619
  0
ARC
  5
1DE
330
1CA
100
AcDbEntity
  8
$DDT_AUDIT_GENERATED_(60)
  6
Continuous
 62
     7
100
AcDbCircle
 10
39.3317955256
 20
177.4481336822
 30
0.0
 40
70.0
100
AcDbArc
 50
271.4325437376
 51
272.42585717
  0
ARC
  5
1DF
330
1CA
100
AcDbEntity
  8
$DDT_AUDIT_GENERATED_(60)
  6
Continuous
 62
     7
100
AcDbCircle
 10
39.3317955256
 20
177.4481336822
 30
0.0
 40
70.0
100
AcDbArc
 50
267.57414283
 51
268.5674562624
  0
ARC
  5
1E0
330
1CA
100
AcDbEntity
  8
$DDT_AUDIT_GENERATED_(60)
  6
Continuous
 62
     7
100
AcDbCircle
 10
39.3317955256
 20
177.4481336822
 30
0.0
 40
70.0
100
AcDbArc
 50
256.3596361381
 51
258.3663482146
  0
ARC
  5
1E1
330
1CA
100
AcDbEntity
  8
$DDT_AUDIT_GENERATED_(60)
  6
Continuous
 62
     7
100
AcDbCircle
 10
39.3317955256
 20
177.4481336822
 30
0.0
 40
70.0
100
AcDbArc
 50
261.8918402354
 51
262.6430656724
  0
ARC
  5
1E2
330
1CA
100
AcDbEntity
  8
$DDT_AUDIT_GENERATED_(60)
  6
Continuous
 62
     7
100
AcDbCircle
 10
39.3317955256
 20
177.4481336822
 30
0.0
 40
70.0
100
AcDbArc
 50
245.3154689058
 51
248.8738641109
  0
ELLIPSE
  5
1E3
330
1CA
100
AcDbEntity
  8
$DDT_AUDIT_GENERATED_(F8)
  6
Continuous
 62
     7
100
AcDbEllipse
 10
39.3317955256
 20
107.5966423931
 30
0.0
 11
-1.720709993135732
 21
0.0
 31
0.0
210
0.0
220
0.0
230
1.0
 40
0.1799719888
 41
-3.582608106332334
 42
-3.535660299843221
  0
ELLIPSE
  5
1E4
330
1CA
100
AcDbEntity
  8
$DDT_AUDIT_GENERATED_(F8)
  6
Continuous
 62
     7
100
AcDbEllipse
 10
39.3317955256
 20
107.5966423931
 30
0.0
 11
-1.720709993135732
 21
0.0
 31
0.0
210
0.0
220
0.0
230
1.0
 40
0.1799719888
 41
0.3940676462534392
 42
0.4351511166952662
  0
ELLIPSE
  5
1E5
330
1CA
100
AcDbEntity
  8
$DDT_AUDIT_GENERATED_(F8)
  6
Continuous
 62
     7
100
AcDbEllipse
 10
39.3317955256
 20
108.6894793698
 30
0.0
 11
2.200000000011403
 21
0.0
 31
0.0
210
0.0
220
0.0
230
1.0
 40
0.1799719888
 41
6.234141826125715
 42
6.283185307179586
  0
ELLIPSE
  5
1E6
330
1CA
100
AcDbEntity
  8
$DDT_AUDIT_GENERATED_(F8)
  6
Continuous
 62
     7
100
AcDbEllipse
 10
39.3317955256
 20
108.6894793698
 30
0.0
 11
2.200000000011403
 21
0.0
 31
0.0
210
0.0
220
0.0
230
1.0
 40
0.1799719888
 41
0.0
 42
3.190636134643665
  0
ELLIPSE
  5
1E7
330
1CA
100
AcDbEntity
  8
$DDT_AUDIT_GENERATED_(F8)
  6
Continuous
 62
     7
100
AcDbEllipse
 10
27.1773057895
 20
107.5966423931
 30
0.0
 11
1.695237467960379
 21
-0.2949793343616884
 31
0.0
210
0.0
220
0.0
230
1.0
 40
0.055614403
 41
-0.1359041564292696
 42
-0.1171577435670326
  0
ELLIPSE
  5
1E8
330
1CA
100
AcDbEntity
  8
$DDT_AUDIT_GENERATED_(F8)
  6
Continuous
 62
     7
100
AcDbEllipse
 10
27.1773057895
 20
107.5966423931
 30
0.0
 11
1.695237467960379
 21
-0.2949793343616884
 31
0.0
210
0.0
220
0.0
230
1.0
 40
0.055614403
 41
3.258750397156881
 42
3.275680000304316
  0
ELLIPSE
  5
1E9
330
1CA
100
AcDbEntity
  8
$DDT_AUDIT_GENERATED_(F8)
  6
Continuous
 62
     7
100
AcDbEllipse
 10
27.2324140525
 20
107.9133479429
 30
0.0
 11
1.959146157586902
 21
-0.3409006940942342
 31
0.0
210
0.0
220
0.0
230
0.9999999999999998
 40
0.055614403
 41
6.268259819642584
 42
6.283185307179586
  0
ELLIPSE
  5
1EA
330
1CA
100
AcDbEntity
  8
$DDT_AUDIT_GENERATED_(F8)
  6
Continuous
 62
     7
100
AcDbEllipse
 10
27.3674645903
 20
108.6894793698
 30
0.0
 11
2.167432306669915
 21
-0.3771434687936332
 31
0.0
210
0.0
220
0.0
230
0.9999999999999998
 40
0.055614403
 41
6.268259819642741
 42
6.283185307179471
  0
ELLIPSE
  5
1EB
330
1CA
100
AcDbEntity
  8
$DDT_AUDIT_GENERATED_(F8)
  6
Continuous
 62
     7
100
AcDbEllipse
 10
27.3674645903
 20
108.6894793698
 30
0.0
 11
2.167432306669915
 21
-0.3771434687936332
 31
0.0
210
0.0
220
0.0
230
0.9999999999999998
 40
0.055614403
 41
2.555197265386473
 42
3.156518141126483
  0
ELLIPSE
  5
1EC
330
1CA
100
AcDbEntity
  8
$DDT_AUDIT_GENERATED_(F8)
  6
Continuous
 62
     7
100
AcDbEllipse
 10
27.3674645903
 20
108.6894793698
 30
0.0
 11
2.167432306669915
 21
-0.3771434687936332
 31
0.0
210
0.0
220
0.0
230
0.9999999999999998
 40
0.055614403
 41
0.0
 42
0.5863953882577179
  0
ELLIPSE
  5
1ED
330
1CA
100
AcDbEntity
  8
$DDT_AUDIT_GENERATED_(F8)
  6
Continuous
 62
     7
100
AcDbEllipse
 10
51.4862852618
 20
107.5966423931
 30
0.0
 11
1.695237467960377
 21
0.2949793343616893
 31
0.0
210
0.0
220
0.0
230
0.9999999999999999
 40
0.055614403
 41
-0.1359041564292722
 42
-0.1171577435670805
  0
ELLIPSE
  5
1EE
330
1CA
100
AcDbEntity
  8
$DDT_AUDIT_GENERATED_(F8)
  6
Continuous
 62
     7
100
AcDbEllipse
 10
51.4862852618
 20
107.5966423931
 30
0.0
 11
1.695237467960377
 21
0.2949793343616893
 31
0.0
210
0.0
220
0.0
230
0.9999999999999999
 40
0.055614403
 41
3.258750397156857
 42
3.275680000304283
  0
ELLIPSE
  5
1EF
330
1CA
100
AcDbEntity
  8
$DDT_AUDIT_GENERATED_(F8)
  6
Continuous
 62
     7
100
AcDbEllipse
 10
51.4311769988
 20
107.9133479429
 30
0.0
 11
1.9591461575869
 21
0.3409006940942342
 31
0.0
210
0.0
220
0.0
230
0.9999999999999998
 40
0.055614403
 41
6.268259819642704
 42
6.283185307179586
  0
ELLIPSE
  5
1F0
330
1CA
100
AcDbEntity
  8
$DDT_AUDIT_GENERATED_(F8)
  6
Continuous
 62
     7
100
AcDbEllipse
 10
51.296126461
 20
108.6894793698
 30
0.0
 11
2.167432306669915
 21
0.3771434687936332
 31
0.0
210
0.0
220
0.0
230
0.9999999999999998
 40
0.055614403
 41
6.268259819642852
 42
6.283185307179586
  0
ELLIPSE
  5
1F1
330
1CA
100
AcDbEntity
  8
$DDT_AUDIT_GENERATED_(F8)
  6
Continuous
 62
     7
100
AcDbEllipse
 10
51.296126461
 20
108.6894793698
 30
0.0
 11
2.167432306669915
 21
0.3771434687936332
 31
0.0
210
0.0
220
0.0
230
0.9999999999999998
 40
0.055614403
 41
2.555197265233392
 42
3.156518141126505
  0
ELLIPSE
  5
1F2
330
1CA
100
AcDbEntity
  8
$DDT_AUDIT_GENERATED_(F8)
  6
Continuous
 62
     7
100
AcDbEllipse
 10
51.296126461
 20
108.6894793698
 30
0.0
 11
2.167432306669915
 21
0.3771434687936332
 31
0.0
210
0.0
220
0.0
230
0.9999999999999998
 40
0.055614403
 41
0.0000000000000014
 42
0.5863953883835918
  0
SPLINE
  5
1F3
330
1CA
100
AcDbEntity
  8
$DDT_AUDIT_GENERATED_(F8)
  6
Continuous
 62
     7
100
AcDbSpline
210
0.0
220
0.0
230
1.0
 70
     8
 71
     3
 72
    17
 73
    13
 74
     0
 42
0.0000000029199989
 43
0.0000000001
 40
0.8692053366124755
 40
0.8692053366124755
 40
0.8692053366124755
 40
0.8692053366124755
 40
0.8786707249929022
 40
0.8786707249929022
 40
0.8786707249929022
 40
0.9313679466949519
 40
0.9313679466949519
 40
0.9313679466949519
 40
0.9840391095741785
 40
0.9840391095741785
 40
0.9840391095741785
 40
1.0
 40
1.0
 40
1.0
 40
1.0
 10
50.68208694629516
 20
107.1529988487497
 30
0.0
 10
50.68654086864078
 20
107.1527927930758
 30
0.0
 10
50.69150844641901
 20
107.15268421159
 30
0.0
 10
50.69698306753494
 20
107.1526745926429
 30
0.0
 10
50.727469483913
 20
107.152621027799
 30
0.0
 10
50.77451270649644
 20
107.155633460653
 30
0.0
 10
50.83415588762736
 20
107.1614657655779
 30
0.0
 10
50.89377905625506
 20
107.1672961135479
 30
0.0
 10
50.96760756584363
 20
107.1761021449506
 30
0.0
 10
51.04949812526768
 20
107.187178012973
 30
0.0
 10
51.07463122890342
 20
107.1905773173716
 30
0.0
 10
51.1006399586817
 20
107.1942035067057
 30
0.0
 10
51.12732057856198
 20
107.1980291978916
 30
0.0
  0
ARC
  5
1F4
330
1CA
100
AcDbEntity
  8
$DDT_AUDIT_GENERATED_(F8)
  6
Continuous
 62
     7
100
AcDbCircle
 10
-4.0613182843
 20
629.4124976172
 30
0.0
 40
525.4171445296502
100
AcDbArc
 50
275.4271231295
 51
275.5258346414
  0
ELLIPSE
  5
1F5
330
1CA
100
AcDbEntity
  8
$DDT_AUDIT_GENERATED_(F8)
  6
Continuous
 62
     7
100
AcDbEllipse
 10
44.0044938034
 20
107.8611968219
 30
0.0
 11
1.79595557394362
 21
0.1205967512863861
 31
0.0
210
0.0
220
0.0
230
0.9999999999999998
 40
0.0668483302
 41
0.0
 42
0.490310705648257
  0
ELLIPSE
  5
1F6
330
1CA
100
AcDbEntity
  8
$DDT_AUDIT_GENERATED_(F8)
  6
Continuous
 62
     7
100
AcDbEllipse
 10
44.0044938034
 20
107.8611968219
 30
0.0
 11
1.79595557394362
 21
0.1205967512863861
 31
0.0
210
0.0
220
0.0
230
0.9999999999999998
 40
0.0668483302
 41
2.651281947941556
 42
3.161758188303443
  0
ELLIPSE
  5
1F7
330
1CA
100
AcDbEntity
  8
$DDT_AUDIT_GENERATED_(F8)
  6
Continuous
 62
     7
100
AcDbEllipse
 10
44.0044938034
 20
107.8611968219
 30
0.0
 11
1.79595557394362
 21
0.1205967512863861
 31
0.0
210
0.0
220
0.0
230
0.9999999999999998
 40
0.0668483302
 41
6.26301977246576
 42
6.283185307179576
  0
ELLIPSE
  5
1F8
330
1CA
100
AcDbEntity
  8
$DDT_AUDIT_GENERATED_(F8)
  6
Continuous
 62
     7
100
AcDbEllipse
 10
44.0930925992
 20
106.5417624299
 30
0.0
 11
1.166365073876721
 21
0.07832033306624105
 31
0.0
210
0.0
220
0.0
230
1.0
 40
0.0668483302
 41
3.362630886935797
 42
3.407467265552772
  0
ELLIPSE
  5
1F9
330
1CA
100
AcDbEntity
  8
$DDT_AUDIT_GENERATED_(F8)
  6
Continuous
 62
     7
100
AcDbEllipse
 10
44.0930925992
 20
106.5417624299
 30
0.0
 11
1.166365073876721
 21
0.07832033306624105
 31
0.0
210
0.0
220
0.0
230
1.0
 40
0.0668483302
 41
-0.2463611327603505
 42
-0.2210382333460137
  0
SPLINE
  5
1FA
330
1CA
100
AcDbEntity
  8
$DDT_AUDIT_GENERATED_(F8)
  6
Continuous
 62
     7
100
AcDbSpline
210
0.0
220
0.0
230
1.0
 70
     8
 71
     3
 72
    17
 73
    13
 74
     0
 42
0.0000000049348172
 43
0.0000000001
 40
0.0
 40
0.0
 40
0.0
 40
0.0
 40
0.0538581918897928
 40
0.0538581918897928
 40
0.0538581918897928
 40
0.1077083235085585
 40
0.1077083235085585
 40
0.1077083235085585
 40
0.1616757198507685
 40
0.1616757198507685
 40
0.1616757198507685
 40
0.2156894650320078
 40
0.2156894650320078
 40
0.2156894650320078
 40
0.2156894650320078
 10
44.11454426350311
 20
106.3637878244943
 30
0.0
 10
44.16511829018339
 20
106.3672600953421
 30
0.0
 10
44.21618103543979
 20
106.3713598915847
 30
0.0
 10
44.26350313310501
 20
106.3757489845019
 30
0.0
 10
44.31082088994432
 20
106.3801376748103
 30
0.0
 10
44.35570402147189
 20
106.3849365910941
 30
0.0
 10
44.39445929019605
 20
106.3897514391876
 30
0.0
 10
44.43329712019806
 20
106.3945765444674
 30
0.0
 10
44.46705141628299
 20
106.3995507000951
 30
0.0
 10
44.49292788759467
 20
106.4042620809257
 30
0.0
 10
44.51882510693108
 20
106.4089772393906
 30
0.0
 10
44.53754609939585
 20
106.4135594564447
 30
0.0
 10
44.54751392835973
 20
106.4176244361971
 30
0.0
  0
SPLINE
  5
1FB
330
1CA
100
AcDbEntity
  8
$DDT_AUDIT_GENERATED_(F8)
  6
Continuous
 62
     7
100
AcDbSpline
210
0.0
220
0.0
230
1.0
 70
     8
 71
     3
 72
    17
 73
    13
 74
     0
 42
0.0000000046205017
 43
0.0000000001
 40
0.7977624431301453
 40
0.7977624431301453
 40
0.7977624431301453
 40
0.7977624431301453
 40
0.8513478319800658
 40
0.8513478319800658
 40
0.8513478319800658
 40
0.904813292310801
 40
0.904813292310801
 40
0.904813292310801
 40
0.9582218841789315
 40
0.9582218841789315
 40
0.9582218841789315
 40
1.0
 40
1.0
 40
1.0
 40
1.0
 10
43.67738402327026
 20
106.3552435810214
 30
0.0
 10
43.69312044372143
 20
106.3530819503186
 30
0.0
 10
43.71734076726968
 20
106.3516279253638
 30
0.0
 10
43.74804572476015
 20
106.3510020353806
 30
0.0
 10
43.77868335352723
 20
106.3503775178263
 30
0.0
 10
43.81662285877948
 20
106.3505602176031
 30
0.0
 10
43.85871491467941
 20
106.3515350202862
 30
0.0
 10
43.90076461675418
 20
106.3525088421043
 30
0.0
 10
43.94811474412278
 20
106.354299857515
 30
0.0
 10
43.99684721816729
 20
106.3567607111298
 30
0.0
 10
44.0351781994711
 20
106.3586963184585
 30
0.0
 10
44.07509239565309
 20
106.3610791698821
 30
0.0
 10
44.11454426350311
 20
106.3637878244943
 30
0.0
  0
ELLIPSE
  5
1FC
330
1CA
100
AcDbEntity
  8
$DDT_AUDIT_GENERATED_(F8)
  6
Continuous
 62
     7
100
AcDbEllipse
 10
39.3317955256
 20
106.5417624299
 30
0.0
 11
1.168991685227514
 21
0.0
 31
0.0
210
0.0
220
0.0
230
1.0
 40
0.0945378151
 41
3.457579126453758
 42
3.496653491581118
  0
ELLIPSE
  5
1FD
330
1CA
100
AcDbEntity
  8
$DDT_AUDIT_GENERATED_(F8)
  6
Continuous
 62
     7
100
AcDbEllipse
 10
34.6590972479
 20
107.8611968219
 30
0.0
 11
-1.795955573943619
 21
0.1205967512863853
 31
0.0
210
0.0
220
0.0
230
0.9999999999999999
 40
0.0668483302
 41
0.0
 42
0.0201655347137436
  0
ELLIPSE
  5
1FE
330
1CA
100
AcDbEntity
  8
$DDT_AUDIT_GENERATED_(F8)
  6
Continuous
 62
     7
100
AcDbEllipse
 10
34.6590972479
 20
107.8611968219
 30
0.0
 11
-1.795955573943619
 21
0.1205967512863853
 31
0.0
210
0.0
220
0.0
230
0.9999999999999999
 40
0.0668483302
 41
3.121427118875983
 42
3.631903359235641
  0
ELLIPSE
  5
1FF
330
1CA
100
AcDbEntity
  8
$DDT_AUDIT_GENERATED_(F8)
  6
Continuous
 62
     7
100
AcDbEllipse
 10
34.6590972479
 20
107.8611968219
 30
0.0
 11
-1.795955573943619
 21
0.1205967512863853
 31
0.0
210
0.0
220
0.0
230
0.9999999999999999
 40
0.0668483302
 41
5.792874601534804
 42
6.283185307179586
  0
ELLIPSE
  5
200
330
1CA
100
AcDbEntity
  8
$DDT_AUDIT_GENERATED_(F8)
  6
Continuous
 62
     7
100
AcDbEllipse
 10
34.592830685
 20
106.8743393685
 30
0.0
 11
-1.498279334888298
 21
0.1006080678879455
 31
0.0
210
0.0
220
0.0
230
1.0
 40
0.0668483302
 41
0.0
 42
0.0201655347135729
  0
ELLIPSE
  5
201
330
1CA
100
AcDbEntity
  8
$DDT_AUDIT_GENERATED_(F8)
  6
Continuous
 62
     7
100
AcDbEllipse
 10
34.570498452
 20
106.5417624299
 30
0.0
 11
-1.166365073876719
 21
0.07832033306624279
 31
0.0
210
0.0
220
0.0
230
0.9999999999999998
 40
0.0668483302
 41
0.2210382333460087
 42
0.2627882255055465
  0
ELLIPSE
  5
202
330
1CA
100
AcDbEntity
  8
$DDT_AUDIT_GENERATED_(F8)
  6
Continuous
 62
     7
100
AcDbEllipse
 10
34.570498452
 20
106.5417624299
 30
0.0
 11
-1.166365073876719
 21
0.07832033306624279
 31
0.0
210
0.0
220
0.0
230
0.9999999999999998
 40
0.0668483302
 41
-3.393311177030574
 42
-3.362630886935819
  0
SPLINE
  5
203
330
1CA
100
AcDbEntity
  8
$DDT_AUDIT_GENERATED_(F8)
  6
Continuous
 62
     7
100
AcDbSpline
210
0.0
220
0.0
230
1.0
 70
     8
 71
     3
 72
    32
 73
    28
 74
     0
 42
0.000000005164904
 43
0.0000000001
 40
0.5372840714813465
 40
0.5372840714813465
 40
0.5372840714813465
 40
0.5372840714813465
 40
0.5910387793561721
 40
0.5910387793561721
 40
0.5910387793561721
 40
0.644973570597344
 40
0.644973570597344
 40
0.644973570597344
 40
0.6989883169112971
 40
0.6989883169112971
 40
0.6989883169112971
 40
0.7441853350914376
 40
0.7441853350914376
 40
0.7441853350914376
 40
0.7977624431305386
 40
0.7977624431305386
 40
0.7977624431305386
 40
0.8513478319804578
 40
0.8513478319804578
 40
0.8513478319804578
 40
0.9048132923111916
 40
0.9048132923111916
 40
0.9048132923111916
 40
0.9582218841793225
 40
0.9582218841793225
 40
0.9582218841793225
 40
1.0
 40
1.0
 40
1.0
 40
1.0
 10
34.12154349608157
 20
106.4156261563595
 30
0.0
 10
34.13413496331798
 20
106.4114423834667
 30
0.0
 10
34.15532174703998
 20
106.4067839789107
 30
0.0
 10
34.18334241747947
 20
106.4020372164287
 30
0.0
 10
34.21145504338056
 20
106.3972748764916
 30
0.0
 10
34.24722065724303
 20
106.3922925361101
 30
0.0
 10
34.28768484326523
 20
106.3875017788924
 30
0.0
 10
34.32820646647032
 20
106.3827042213996
 30
0.0
 10
34.37456064217488
 20
106.3779662204977
 30
0.0
 10
34.42290869023969
 20
106.3736794030629
 30
0.0
 10
34.46353511650441
 20
106.3700772292545
 30
0.0
 10
34.50642776666518
 20
106.3667139269669
 30
0.0
 10
34.54904678776361
 20
106.3637878244942
 30
0.0
 10
34.59936042275693
 20
106.3603334314095
 30
0.0
 10
34.65057450451523
 20
106.3574050078438
 30
0.0
 10
34.69844997321174
 20
106.3552435810213
 30
0.0
 10
34.74632995784386
 20
106.3530819503185
 30
0.0
 10
34.79219129475393
 20
106.3516279253637
 30
0.0
 10
34.83221146906036
 20
106.3510020353805
 30
0.0
 10
34.87214388857194
 20
106.3503775178263
 30
0.0
 10
34.9073630791173
 20
106.3505602176031
 30
0.0
 10
34.93494860134436
 20
106.3515350202862
 30
0.0
 10
34.96250636649565
 20
106.3525088421043
 30
0.0
 10
34.98320593512855
 20
106.354299857515
 30
0.0
 10
34.99535691725486
 20
106.3567607111299
 30
0.0
 10
35.00491438540796
 20
106.3586963184585
 30
0.0
 10
35.00942409234086
 20
106.3610791698821
 30
0.0
 10
35.0086696294309
 20
106.3637878244943
 30
0.0
  0
ARC
  5
204
330
1CA
100
AcDbEntity
  8
$DDT_AUDIT_GENERATED_(F8)
  6
Continuous
 62
     7
100
AcDbCircle
 10
82.7249093388
 20
629.4124976513
 30
0.0
 40
525.4171445639062
100
AcDbArc
 50
264.4741653586
 51
264.5728768705
  0
SPLINE
  5
205
330
1CA
100
AcDbEntity
  8
$DDT_AUDIT_GENERATED_(F8)
  6
Continuous
 62
     7
100
AcDbSpline
210
0.0
220
0.0
230
1.0
 70
     8
 71
     3
 72
    32
 73
    28
 74
     0
 42
0.0000000048343952
 43
0.0000000001
 40
0.0
 40
0.0
 40
0.0
 40
0.0
 40
0.0521145369266404
 40
0.0521145369266404
 40
0.0521145369266404
 40
0.1040906012668423
 40
0.1040906012668423
 40
0.1040906012668423
 40
0.1147078941549338
 40
0.1147078941549338
 40
0.1147078941549338
 40
0.1708085696320495
 40
0.1708085696320495
 40
0.1708085696320495
 40
0.2269728945849267
 40
0.2269728945849267
 40
0.2269728945849267
 40
0.2818859120636065
 40
0.2818859120636065
 40
0.2818859120636065
 40
0.3347069927981082
 40
0.3347069927981082
 40
0.3347069927981082
 40
0.386841337007706
 40
0.386841337007706
 40
0.386841337007706
 40
0.4395842266813429
 40
0.4395842266813429
 40
0.4395842266813429
 40
0.4395842266813429
 10
60.84074068753298
 20
109.4009778030477
 30
0.0
 10
60.85265478068334
 20
109.4050449878163
 30
0.0
 10
60.87238725751551
 20
109.4131895131529
 30
0.0
 10
60.8981051937169
 20
109.424222516829
 30
0.0
 10
60.92378268446347
 20
109.4352381693909
 30
0.0
 10
60.9560699062034
 20
109.4493820380716
 30
0.0
 10
60.99249539605805
 20
109.4649265529902
 30
0.0
 10
61.00002806146355
 20
109.4681411049492
 30
0.0
 10
61.00775788277736
 20
109.4714240531901
 30
0.0
 10
61.01566163757677
 20
109.4747595196477
 30
0.0
 10
61.05685634896587
 20
109.4921441148885
 30
0.0
 10
61.10357606502988
 20
109.5112551511956
 30
0.0
 10
61.15221845356252
 20
109.5298650898201
 30
0.0
 10
61.20088937049967
 20
109.5484859430374
 30
0.0
 10
61.25290418442035
 20
109.5671128092758
 30
0.0
 10
61.30389115260202
 20
109.5838116061036
 30
0.0
 10
61.35373716314641
 20
109.6001367266675
 30
0.0
 10
61.40403703843025
 20
109.615077846406
 30
0.0
 10
61.45016373093171
 20
109.6275023541768
 30
0.0
 10
61.49457445757115
 20
109.6394646560093
 30
0.0
 10
61.53635281517425
 20
109.6494564278633
 30
0.0
 10
61.57177935963198
 20
109.6572508719973
 30
0.0
 10
61.60676654924755
 20
109.6649486505709
 30
0.0
 10
61.63651887789312
 20
109.6707551760802
 30
0.0
 10
61.65855896597274
 20
109.6749292035997
 30
0.0
 10
61.68085522994489
 20
109.6791517465889
 30
0.0
 10
61.69586952291724
 20
109.68185129987
 30
0.0
 10
61.70238781412897
 20
109.6833341232632
 30
0.0
  0
ELLIPSE
  5
206
330
1CA
100
AcDbEntity
  8
$DDT_AUDIT_GENERATED_(F8)
  6
Continuous
 62
     7
100
AcDbEllipse
 10
64.0803528483
 20
112.0163872452
 30
0.0
 11
-0.3953106296416021
 21
0.3061527496077123
 31
0.0
210
0.0
220
0.0
230
1.0
 40
0.5154078455
 41
3.067542935692663
 42
3.141592653589793
  0
ELLIPSE
  5
207
330
1CA
100
AcDbEntity
  8
$DDT_AUDIT_GENERATED_(F8)
  6
Continuous
 62
     7
100
AcDbEllipse
 10
62.0453216728
 20
112.1115218898
 30
0.0
 11
-0.4793591501606048
 21
-0.1421787788571205
 31
0.0
210
0.0
220
0.0
230
0.9999999999999998
 40
0.1237716995
 41
3.141592653589933
 42
4.108074402031701
  0
SPLINE
  5
208
330
1CA
100
AcDbEntity
  8
$DDT_AUDIT_GENERATED_(F8)
  6
Continuous
 62
     7
100
AcDbSpline
210
0.0
220
0.0
230
1.0
 70
     8
 71
     3
 72
    32
 73
    28
 74
     0
 42
0.0000000047058807
 43
0.0000000001
 40
0.0
 40
0.0
 40
0.0
 40
0.0
 40
0.0502904695078747
 40
0.0502904695078747
 40
0.0502904695078747
 40
0.1017775840750775
 40
0.1017775840750775
 40
0.1017775840750775
 40
0.1531372204760489
 40
0.1531372204760489
 40
0.1531372204760489
 40
0.2067575843575031
 40
0.2067575843575031
 40
0.2067575843575031
 40
0.2627415120835998
 40
0.2627415120835998
 40
0.2627415120835998
 40
0.3185606442933126
 40
0.3185606442933126
 40
0.3185606442933126
 40
0.3722702089590707
 40
0.3722702089590707
 40
0.3722702089590707
 40
0.4244953900174831
 40
0.4244953900174831
 40
0.4244953900174831
 40
0.4259423597885073
 40
0.4259423597885073
 40
0.4259423597885073
 40
0.4259423597885073
 10
59.05389747118934
 20
109.4036692685301
 30
0.0
 10
59.06327085124008
 20
109.3983560582039
 30
0.0
 10
59.08015095991858
 20
109.3966235881562
 30
0.0
 10
59.103186867879
 20
109.3987269985447
 30
0.0
 10
59.12676205396671
 20
109.4008796504573
 30
0.0
 10
59.15742534403311
 20
109.4071008988692
 30
0.0
 10
59.19248304282495
 20
109.4164734406856
 30
0.0
 10
59.22749035390755
 20
109.4258325115405
 30
0.0
 10
59.26777735002768
 20
109.4385382948095
 30
0.0
 10
59.31028923639005
 20
109.4529981949163
 30
0.0
 10
59.35465527670493
 20
109.4680887628957
 30
0.0
 10
59.40261276040935
 20
109.4854572015032
 30
0.0
 10
59.45070558745577
 20
109.5031200409286
 30
0.0
 10
59.50085519943222
 20
109.5215382666388
 30
0.0
 10
59.55256149305342
 20
109.5407627096058
 30
0.0
 10
59.60166933483743
 20
109.5586886317836
 30
0.0
 10
59.65059880406709
 20
109.576549442313
 30
0.0
 10
59.69835886045474
 20
109.5936136492445
 30
0.0
 10
59.74055346957415
 20
109.6082963054385
 30
0.0
 10
59.78117872547698
 20
109.6224328664274
 30
0.0
 10
59.81778617014731
 20
109.634773497336
 30
0.0
 10
59.84695190706178
 20
109.6446942820845
 30
0.0
 10
59.87533664895452
 20
109.6543494097875
 30
0.0
 10
59.89746123618104
 20
109.662017674772
 30
0.0
 10
59.91139838732808
 20
109.6677850464186
 30
0.0
 10
59.91178462624282
 20
109.6679448770283
 30
0.0
 10
59.91216487602783
 20
109.668103397495
 30
0.0
 10
59.91253912604541
 20
109.6682606148332
 30
0.0
  0
ELLIPSE
  5
209
330
1CA
100
AcDbEntity
  8
$DDT_AUDIT_GENERATED_(F8)
  6
Continuous
 62
     7
100
AcDbEllipse
 10
52.7303888785
 20
109.9767813983
 30
0.0
 11
0.48638206585579
 21
0.1158986005262552
 31
0.0
210
0.0
220
0.0
230
1.0
 40
0.2086861985
 41
2.852135521588369
 42
3.141592653589744
  0
ELLIPSE
  5
20A
330
1CA
100
AcDbEntity
  8
$DDT_AUDIT_GENERATED_(F8)
  6
Continuous
 62
     7
100
AcDbEllipse
 10
58.8800603773
 20
111.0441516442
 30
0.0
 11
-6.809348927563488
 21
-1.622580408697791
 31
0.0
210
0.0
220
0.0
230
1.0
 40
0.2086861985
 41
-0.756720839917377
 42
-0.2894571320014308
  0
ELLIPSE
  5
20B
330
1CA
100
AcDbEntity
  8
$DDT_AUDIT_GENERATED_(F8)
  6
Continuous
 62
     7
100
AcDbEllipse
 10
57.5796345878
 20
112.1115218898
 30
0.0
 11
-0.4863820662545371
 21
-0.1158986006212712
 31
0.0
210
0.0
220
0.0
230
1.0
 40
0.2086861985
 41
3.141592653589793
 42
4.869588568980237
  0
ELLIPSE
  5
20C
330
1CA
100
AcDbEntity
  8
$DDT_AUDIT_GENERATED_(F8)
  6
Continuous
 62
     7
100
AcDbEllipse
 10
54.4051030725
 20
111.0441516442
 30
0.0
 11
6.918285216529485
 21
1.06645659206061
 31
0.0
210
0.0
220
0.0
230
1.0
 40
0.2709863099
 41
2.06232313036815
 42
3.141592653589797
  0
ELLIPSE
  5
20D
330
1CA
100
AcDbEntity
  8
$DDT_AUDIT_GENERATED_(F8)
  6
Continuous
 62
     7
100
AcDbEllipse
 10
51.136510996
 20
112.1115218898
 30
0.0
 11
-0.4941632297521086
 21
-0.07617547086147215
 31
0.0
210
0.0
220
0.0
230
1.0
 40
0.2709863099
 41
3.186462736441195
 42
5.203915783957926
  0
ELLIPSE
  5
20E
330
1CA
100
AcDbEntity
  8
$DDT_AUDIT_GENERATED_(F8)
  6
Continuous
 62
     7
100
AcDbEllipse
 10
44.7308918092
 20
111.0441516442
 30
0.0
 11
-6.918285216780085
 21
-1.066456592099236
 31
0.0
210
0.0
220
0.0
230
1.0
 40
0.2709863099
 41
3.141592653589793
 42
3.186462736441329
  0
SPLINE
  5
20F
330
1CA
100
AcDbEntity
  8
$DDT_AUDIT_GENERATED_(F8)
  6
Continuous
 62
     7
100
AcDbSpline
210
0.0
220
0.0
230
1.0
 70
     8
 71
     3
 72
     8
 73
     4
 74
     0
 42
0.0000000021333196
 43
0.0000000001
 40
0.0344482956169924
 40
0.0344482956169924
 40
0.0344482956169924
 40
0.0344482956169924
 40
0.041885957191941
 40
0.041885957191941
 40
0.041885957191941
 40
0.041885957191941
 10
51.67720421002186
 20
111.9265472050541
 30
0.0
 10
51.67914528540589
 20
111.9149288529527
 30
0.0
 10
51.6809890917953
 20
111.9034581910849
 30
0.0
 10
51.68273620882117
 20
111.8921250940377
 30
0.0
  0
ELLIPSE
  5
210
330
1CA
100
AcDbEntity
  8
$DDT_AUDIT_GENERATED_(F8)
  6
Continuous
 62
     7
100
AcDbEllipse
 10
48.2967190086
 20
111.0441516442
 30
0.0
 11
6.990074640507587
 21
0.3726345664757467
 31
0.0
210
0.0
220
0.0
230
0.9999999999999998
 40
0.3039208498
 41
2.405884691760434
 42
3.141592653589796
  0
ELLIPSE
  5
211
330
1CA
100
AcDbEntity
  8
$DDT_AUDIT_GENERATED_(F8)
  6
Continuous
 62
     7
100
AcDbEllipse
 10
43.414163314
 20
112.1115218898
 30
0.0
 11
-0.4992910457505438
 21
-0.02661675474826706
 31
0.0
210
0.0
220
0.0
230
1.0
 40
0.3039208498
 41
3.530024297833636
 42
5.547477345350252
  0
ELLIPSE
  5
212
330
1CA
100
AcDbEntity
  8
$DDT_AUDIT_GENERATED_(F8)
  6
Continuous
 62
     7
100
AcDbEllipse
 10
37.4467446711
 20
111.0441516442
 30
0.0
 11
-6.990074640760795
 21
-0.3726345664892445
 31
0.0
210
0.0
220
0.0
230
0.9999999999999997
 40
0.3039208498
 41
3.14159265358979
 42
3.530024297833622
  0
SPLINE
  5
213
330
1CA
100
AcDbEntity
  8
$DDT_AUDIT_GENERATED_(F8)
  6
Continuous
 62
     7
100
AcDbSpline
210
0.0
220
0.0
230
1.0
 70
     8
 71
     3
 72
     8
 73
     4
 74
     0
 42
0.000000003169233
 43
0.0000000001
 40
0.4034604427606404
 40
0.4034604427606404
 40
0.4034604427606404
 40
0.4034604427606404
 40
0.4093427442669955
 40
0.4093427442669955
 40
0.4093427442669955
 40
0.4093427442669955
 10
44.0905975996162
 20
109.8340677147158
 30
0.0
 10
44.09504610407164
 20
109.8384054159671
 30
0.0
 10
44.09943594757396
 20
109.8427648624765
 30
0.0
 10
44.10376722179884
 20
109.8471459177489
 30
0.0
  0
ELLIPSE
  5
214
330
1CA
100
AcDbEntity
  8
$DDT_AUDIT_GENERATED_(F8)
  6
Continuous
 62
     7
100
AcDbEllipse
 10
41.2168463801
 20
111.0441516442
 30
0.0
 11
6.990074640507616
 21
-0.3726345664757502
 31
0.0
210
0.0
220
0.0
230
0.9999999999999999
 40
0.3039208498
 41
2.753161009321396
 42
3.141592653589793
  0
ELLIPSE
  5
215
330
1CA
100
AcDbEntity
  8
$DDT_AUDIT_GENERATED_(F8)
  6
Continuous
 62
     7
100
AcDbEllipse
 10
35.2494277376
 20
112.1115218898
 30
0.0
 11
-0.4992910457505446
 21
0.0266167547482675
 31
0.0
210
0.0
220
0.0
230
1.0
 40
0.3039208498
 41
3.877300615394578
 42
5.894753662911164
  0
ELLIPSE
  5
216
330
1CA
100
AcDbEntity
  8
$DDT_AUDIT_GENERATED_(F8)
  6
Continuous
 62
     7
100
AcDbEllipse
 10
30.3668720427
 20
111.0441516442
 30
0.0
 11
-6.990074640760756
 21
0.3726345664892454
 31
0.0
210
0.0
220
0.0
230
0.9999999999999998
 40
0.3039208498
 41
3.141592653589793
 42
3.877300615394586
  0
SPLINE
  5
217
330
1CA
100
AcDbEntity
  8
$DDT_AUDIT_GENERATED_(F8)
  6
Continuous
 62
     7
100
AcDbSpline
210
0.0
220
0.0
230
1.0
 70
     8
 71
     3
 72
     8
 73
     4
 74
     0
 42
0.0000000031746524
 43
0.0000000001
 40
0.5905946328319633
 40
0.5905946328319633
 40
0.5905946328319633
 40
0.5905946328319633
 40
0.5948604994346558
 40
0.5948604994346558
 40
0.5948604994346558
 40
0.5948604994346558
 10
34.55973191107751
 20
109.8471965931715
 30
0.0
 10
34.56287072915208
 20
109.8440205321837
 30
0.0
 10
34.56604033607901
 20
109.8408558404102
 30
0.0
 10
34.56924077051742
 20
109.837702567844
 30
0.0
  0
ELLIPSE
  5
218
330
1CA
100
AcDbEntity
  8
$DDT_AUDIT_GENERATED_(F8)
  6
Continuous
 62
     7
100
AcDbEllipse
 10
33.932699242
 20
111.0441516442
 30
0.0
 11
6.918285216529488
 21
-1.066456592060609
 31
0.0
210
0.0
220
0.0
230
1.0
 40
0.2709863099
 41
3.096722570713674
 42
3.141592653589789
  0
ELLIPSE
  5
219
330
1CA
100
AcDbEntity
  8
$DDT_AUDIT_GENERATED_(F8)
  6
Continuous
 62
     7
100
AcDbEllipse
 10
27.5270800555
 20
112.1115218898
 30
0.0
 11
-0.4941632297521086
 21
0.07617547086147301
 31
0.0
210
0.0
220
0.0
230
1.0
 40
0.2709863099
 41
4.220862176786878
 42
6.238315224303378
  0
ELLIPSE
  5
21A
330
1CA
100
AcDbEntity
  8
$DDT_AUDIT_GENERATED_(F8)
  6
Continuous
 62
     7
100
AcDbEllipse
 10
24.2584879788
 20
111.0441516442
 30
0.0
 11
-6.918285216780128
 21
1.066456592099238
 31
0.0
210
0.0
220
0.0
230
1.0
 40
0.2709863099
 41
3.14159265358979
 42
4.220862176786863
  0
SPLINE
  5
21B
330
1CA
100
AcDbEntity
  8
$DDT_AUDIT_GENERATED_(F8)
  6
Continuous
 62
     7
100
AcDbSpline
210
0.0
220
0.0
230
1.0
 70
     8
 71
     3
 72
     8
 73
     4
 74
     0
 42
0.0000000021391064
 43
0.0000000001
 40
0.958122883016262
 40
0.958122883016262
 40
0.958122883016262
 40
0.958122883016262
 40
0.9630013793497187
 40
0.9630013793497187
 40
0.9630013793497187
 40
0.9630013793497187
 10
26.98086397491212
 20
111.8919571895556
 30
0.0
 10
26.98201029022956
 20
111.899406106511
 30
0.0
 10
26.98319819013185
 20
111.9069138480964
 30
0.0
 10
26.98442783047013
 20
111.9144831129227
 30
0.0
  0
ELLIPSE
  5
21C
330
1CA
100
AcDbEntity
  8
$DDT_AUDIT_GENERATED_(F8)
  6
Continuous
 62
     7
100
AcDbEllipse
 10
25.933202173
 20
109.9767813983
 30
0.0
 11
-0.4863820658557883
 21
0.1158986005262543
 31
0.0
210
0.0
220
0.0
230
1.0
 40
0.2086861985
 41
3.141592653589793
 42
3.431049785615794
  0
ELLIPSE
  5
21D
330
1CA
100
AcDbEntity
  8
$DDT_AUDIT_GENERATED_(F8)
  6
Continuous
 62
     7
100
AcDbEllipse
 10
21.0839564636
 20
112.1115218898
 30
0.0
 11
0.4863820662545371
 21
-0.115898600621272
 31
0.0
210
0.0
220
0.0
230
1.0
 40
0.2086861985
 41
1.413596738174755
 42
3.141592653589736
  0
ELLIPSE
  5
21E
330
1CA
100
AcDbEntity
  8
$DDT_AUDIT_GENERATED_(F8)
  6
Continuous
 62
     7
100
AcDbEllipse
 10
19.783530674
 20
111.0441516442
 30
0.0
 11
6.809348927810151
 21
-1.622580408756564
 31
0.0
210
0.0
220
0.0
230
1.0
 40
0.2086861985
 41
1.18754701390043
 42
1.413596738174746
  0
ELLIPSE
  5
21F
330
1CA
100
AcDbEntity
  8
$DDT_AUDIT_GENERATED_(F8)
  6
Continuous
 62
     7
100
AcDbEllipse
 10
19.783530674
 20
111.0441516442
 30
0.0
 11
6.809348927810151
 21
-1.622580408756564
 31
0.0
210
0.0
220
0.0
230
1.0
 40
0.2086861985
 41
0.2894571320260057
 42
0.7174905883240084
  0
ELLIPSE
  5
220
330
1CA
100
AcDbEntity
  8
$DDT_AUDIT_GENERATED_(F8)
  6
Continuous
 62
     7
100
AcDbEllipse
 10
16.6182693785
 20
112.1115218898
 30
0.0
 11
0.4793591501606083
 21
-0.1421787788571214
 31
0.0
210
0.0
220
0.0
230
1.0
 40
0.1237716995
 41
2.177668657273009
 42
3.141592653589668
  0
ARC
  5
221
330
1CA
100
AcDbEntity
  8
$DDT_AUDIT_GENERATED_(F8)
  6
Continuous
 62
     7
100
AcDbCircle
 10
16.7939095901
 20
107.6887717208
 30
0.0
 40
2.002451698801381
100
AcDbArc
 50
58.6166456685
 51
85.318835507
  0
ELLIPSE
  5
222
330
1CA
100
AcDbEntity
  8
$DDT_AUDIT_GENERATED_(F8)
  6
Continuous
 62
     7
100
AcDbEllipse
 10
14.583238203
 20
112.0163872452
 30
0.0
 11
0.3953106297460812
 21
0.306152749472809
 31
0.0
210
0.0
220
0.0
230
0.9999999999999998
 40
0.5154078454
 41
3.141592653589793
 42
3.215642372221499
  0
ARC
  5
223
330
1CA
100
AcDbEntity
  8
$DDT_AUDIT_GENERATED_(F8)
  6
Continuous
 62
     7
100
AcDbCircle
 10
39.3317955256
 20
111.1486587086
 30
0.0
 40
3.999999999999999
100
AcDbArc
 50
279.0549457437
 51
293.4036602005
  0
ARC
  5
224
330
1CA
100
AcDbEntity
  8
$DDT_AUDIT_GENERATED_(F8)
  6
Continuous
 62
     7
100
AcDbCircle
 10
39.3317955256
 20
111.1486587086
 30
0.0
 40
4.000000000000002
100
AcDbArc
 50
277.6233165361
 51
279.0549457437
  0
ARC
  5
225
330
1CA
100
AcDbEntity
  8
$DDT_AUDIT_GENERATED_(F8)
  6
Continuous
 62
     7
100
AcDbCircle
 10
39.3317955256
 20
111.1486587086
 30
0.0
 40
4.000000000000002
100
AcDbArc
 50
246.5963397995
 51
262.4198193317
  0
SPLINE
  5
226
330
1CA
100
AcDbEntity
  8
$DDT_AUDIT_GENERATED_(F8)
  6
Continuous
 62
     7
100
AcDbSpline
210
0.0
220
0.0
230
1.0
 70
     8
 71
     3
 72
    13
 73
     9
 74
     0
 42
0.0000000155602598
 43
0.0000000001
 40
0.0
 40
0.0
 40
0.0
 40
0.0
 40
0.0742421660628313
 40
0.2621654795479875
 40
0.4466367840160371
 40
0.6408753883324824
 40
0.8648414928175685
 40
1.0
 40
1.0
 40
1.0
 40
1.0
 10
37.35194033356063
 20
107.8916598966916
 30
0.0
 10
37.35610834436606
 20
107.8713953791626
 30
0.0
 10
37.36896869014748
 20
107.8103620143851
 30
0.0
 10
37.42849629803557
 20
107.7132002279082
 30
0.0
 10
37.5134031833569
 20
107.6169895843746
 30
0.0
 10
37.61278055867012
 20
107.5427794011394
 30
0.0
 10
37.70493283283829
 20
107.4920447946341
 30
0.0
 10
37.76237242951652
 20
107.4710774593543
 30
0.0
 10
37.7877928665131
 20
107.4620841297889
 30
0.0
  0
ARC
  5
227
330
1CA
100
AcDbEntity
  8
$DDT_AUDIT_GENERATED_(F8)
  6
Continuous
 62
     7
100
AcDbCircle
 10
40.6960065327
 20
108.0844805821
 30
0.0
 40
0.647199819006154
100
AcDbArc
 50
288.6023775064
 51
342.6023123158
  0
LINE
  5
228
330
1CA
100
AcDbEntity
  8
$DDT_AUDIT_GENERATED_(F8)
  6
Continuous
 62
     7
100
AcDbLine
 10
37.1344407847
 20
108.670068957
 30
0.0
 11
37.3456024232
 21
107.895802834
 31
0.0
  0
LINE
  5
229
330
1CA
100
AcDbEntity
  8
$DDT_AUDIT_GENERATED_(F8)
  6
Continuous
 62
     7
100
AcDbLine
 10
41.3179886281
 20
107.895802834
 30
0.0
 11
41.5291502666
 21
108.670068957
 31
0.0
  0
ARC
  5
22A
330
1CA
100
AcDbEntity
  8
$DDT_AUDIT_GENERATED_(F8)
  6
Continuous
 62
     7
100
AcDbCircle
 10
27.795373422
 20
111.1486587086
 30
0.0
 40
4.0
100
AcDbArc
 50
272.5622115791
 51
285.4209011725
  0
ARC
  5
22B
330
1CA
100
AcDbEntity
  8
$DDT_AUDIT_GENERATED_(F8)
  6
Continuous
 62
     7
100
AcDbCircle
 10
27.795373422
 20
111.1486587086
 30
0.0
 40
4.0
100
AcDbArc
 50
234.8372872775
 51
247.3099223207
  0
ARC
  5
22C
330
1CA
100
AcDbEntity
  8
$DDT_AUDIT_GENERATED_(F8)
  6
Continuous
 62
     7
100
AcDbCircle
 10
28.7422846615
 20
107.7612886862
 30
0.0
 40
0.482393284645233
100
AcDbArc
 50
280.7903964241
 51
337.0875271638
  0
ARC
  5
22D
330
1CA
100
AcDbEntity
  8
$DDT_AUDIT_GENERATED_(F8)
  6
Continuous
 62
     7
100
AcDbCircle
 10
25.7630390338
 20
108.280982801
 30
0.0
 40
0.4853494514191316
100
AcDbArc
 50
184.1262388134
 51
239.1727328822
  0
LINE
  5
22E
330
1CA
100
AcDbEntity
  8
$DDT_AUDIT_GENERATED_(F8)
  6
Continuous
 62
     7
100
AcDbLine
 10
25.1999606541
 20
109.064781773
 30
0.0
 11
25.2732031489
 21
108.2525844943
 31
0.0
  0
LINE
  5
22F
330
1CA
100
AcDbEntity
  8
$DDT_AUDIT_GENERATED_(F8)
  6
Continuous
 62
     7
100
AcDbLine
 10
29.1910590328
 20
107.5708590472
 30
0.0
 11
29.5343424372
 21
108.3105788502
 31
0.0
  0
ARC
  5
230
330
1CA
100
AcDbEntity
  8
$DDT_AUDIT_GENERATED_(F8)
  6
Continuous
 62
     7
100
AcDbCircle
 10
50.8682176292
 20
111.1486587086
 30
0.0
 40
4.0
100
AcDbArc
 50
292.677877211
 51
305.1627127225
  0
ARC
  5
231
330
1CA
100
AcDbEntity
  8
$DDT_AUDIT_GENERATED_(F8)
  6
Continuous
 62
     7
100
AcDbCircle
 10
50.8682176292
 20
111.1486587086
 30
0.0
 40
3.999999999999998
100
AcDbArc
 50
254.5790988275
 51
267.4308484657
  0
ARC
  5
232
330
1CA
100
AcDbEntity
  8
$DDT_AUDIT_GENERATED_(F8)
  6
Continuous
 62
     7
100
AcDbCircle
 10
52.9036668157
 20
108.2802335007
 30
0.0
 40
0.4823932846453077
100
AcDbArc
 50
300.5322079741
 51
356.8293387138
  0
ARC
  5
233
330
1CA
100
AcDbEntity
  8
$DDT_AUDIT_GENERATED_(F8)
  6
Continuous
 62
     7
100
AcDbCircle
 10
49.9239850132
 20
107.7630460693
 30
0.0
 40
0.4853494514191354
100
AcDbArc
 50
203.8680503634
 51
258.9145444322
  0
LINE
  5
234
330
1CA
100
AcDbEntity
  8
$DDT_AUDIT_GENERATED_(F8)
  6
Continuous
 62
     7
100
AcDbLine
 10
49.1292486141
 20
108.3105788502
 30
0.0
 11
49.4725320184
 21
107.5708590472
 31
0.0
  0
LINE
  5
235
330
1CA
100
AcDbEntity
  8
$DDT_AUDIT_GENERATED_(F8)
  6
Continuous
 62
     7
100
AcDbLine
 10
53.3903879024
 20
108.2525844943
 30
0.0
 11
53.4636303971
 21
109.064781773
 31
0.0
  0
LINE
  5
236
330
1CA
100
AcDbEntity
  8
$DDT_AUDIT_GENERATED_(F8)
  6
Continuous
 62
     7
100
AcDbLine
 10
47.5286317815
 20
107.0163024005
 30
0.0
 11
47.719581452
 21
107.9697225656
 31
0.0
  0
ARC
  5
237
330
1CA
100
AcDbEntity
  8
$DDT_AUDIT_GENERATED_(F8)
  6
Continuous
 62
     7
100
AcDbCircle
 10
47.0383677295
 20
107.114491806
 30
0.0
 40
0.4999999999999967
100
AcDbArc
 50
292.4173026678
 51
348.6747188465
  0
ARC
  5
238
330
1CA
100
AcDbEntity
  8
$DDT_AUDIT_GENERATED_(F8)
  6
Continuous
 62
     7
100
AcDbCircle
 10
45.0017945746
 20
106.9210924463
 30
0.0
 40
0.5000000000000009
100
AcDbArc
 50
245.4866106707
 51
258.4321350253
  0
ARC
  5
239
330
1CA
100
AcDbEntity
  8
$DDT_AUDIT_GENERATED_(F8)
  6
Continuous
 62
     7
100
AcDbCircle
 10
45.7036442651
 20
110.35
 30
0.0
 40
4.000000000000001
100
AcDbArc
 50
281.9407809746
 51
292.4173026678
  0
ARC
  5
23A
330
1CA
100
AcDbEntity
  8
$DDT_AUDIT_GENERATED_(F8)
  6
Continuous
 62
     7
100
AcDbCircle
 10
45.7036442651
 20
110.35
 30
0.0
 40
3.999999999999998
100
AcDbArc
 50
258.4321350253
 51
269.063960592
  0
LINE
  5
23B
330
1CA
100
AcDbEntity
  8
$DDT_AUDIT_GENERATED_(F8)
  6
Continuous
 62
     7
100
AcDbLine
 10
42.209065936
 20
107.7382037479
 30
0.0
 11
42.5729212715
 21
106.7717321639
 31
0.0
  0
LINE
  5
23C
330
1CA
100
AcDbEntity
  8
$DDT_AUDIT_GENERATED_(F8)
  6
Continuous
 62
     7
100
AcDbLine
 10
45.5688706884
 20
106.9729073889
 30
0.0
 11
45.8002467854
 21
107.9793482116
 31
0.0
  0
ARC
  5
23D
330
1CA
100
AcDbEntity
  8
$DDT_AUDIT_GENERATED_(F8)
  6
Continuous
 62
     7
100
AcDbCircle
 10
45.0690364448
 20
107.0821736167
 30
0.0
 40
0.5076890647118556
100
AcDbArc
 50
286.5947448066
 51
346.9545641606
  0
ARC
  5
23E
330
1CA
100
AcDbEntity
  8
$DDT_AUDIT_GENERATED_(F8)
  6
Continuous
 62
     7
100
AcDbCircle
 10
43.0553682174
 20
106.9464535917
 30
0.0
 40
0.5085257807856579
100
AcDbArc
 50
200.4457974625
 51
262.6325572815
  0
ARC
  5
23F
330
1CA
100
AcDbEntity
  8
$DDT_AUDIT_GENERATED_(F8)
  6
Continuous
 62
     7
100
AcDbCircle
 10
43.837372978
 20
110.35
 30
0.0
 40
4.000000000000002
100
AcDbArc
 50
278.9528039546
 51
290.4086671453
  0
ARC
  5
240
330
1CA
100
AcDbEntity
  8
$DDT_AUDIT_GENERATED_(F8)
  6
Continuous
 62
     7
100
AcDbCircle
 10
43.837372978
 20
110.35
 30
0.0
 40
3.999999999999999
100
AcDbArc
 50
257.2745158089
 51
268.6662613075
  0
LINE
  5
241
330
1CA
100
AcDbEntity
  8
$DDT_AUDIT_GENERATED_(F8)
  6
Continuous
 62
     7
100
AcDbLine
 10
37.6288503236
 20
107.5378622159
 30
0.0
 11
37.8307555618
 21
106.8702819717
 31
0.0
  0
LINE
  5
242
330
1CA
100
AcDbEntity
  8
$DDT_AUDIT_GENERATED_(F8)
  6
Continuous
 62
     7
100
AcDbLine
 10
40.8328354895
 20
106.8702819717
 30
0.0
 11
41.0347874203
 21
107.5380166006
 31
0.0
  0
ARC
  5
243
330
1CA
100
AcDbEntity
  8
$DDT_AUDIT_GENERATED_(F8)
  6
Continuous
 62
     7
100
AcDbCircle
 10
40.3199135255
 20
107.0257749919
 30
0.0
 40
0.5328942798608535
100
AcDbArc
 50
282.3524805443
 51
342.0217849425
  0
ARC
  5
244
330
1CA
100
AcDbEntity
  8
$DDT_AUDIT_GENERATED_(F8)
  6
Continuous
 62
     7
100
AcDbCircle
 10
38.3505662782
 20
107.0368196985
 30
0.0
 40
0.5456336431241493
100
AcDbArc
 50
198.6429222059
 51
259.2859180512
  0
ARC
  5
245
330
1CA
100
AcDbEntity
  8
$DDT_AUDIT_GENERATED_(F8)
  6
Continuous
 62
     7
100
AcDbCircle
 10
39.3317955256
 20
110.35
 30
0.0
 40
4.0
100
AcDbArc
 50
274.7960989402
 51
286.1276818799
  0
ARC
  5
246
330
1CA
100
AcDbEntity
  8
$DDT_AUDIT_GENERATED_(F8)
  6
Continuous
 62
     7
100
AcDbCircle
 10
39.3317955256
 20
110.35
 30
0.0
 40
4.0
100
AcDbArc
 50
273.4911075918
 51
274.7960989402
  0
ARC
  5
247
330
1CA
100
AcDbEntity
  8
$DDT_AUDIT_GENERATED_(F8)
  6
Continuous
 62
     7
100
AcDbCircle
 10
39.3317955256
 20
110.35
 30
0.0
 40
3.999999999999998
100
AcDbArc
 50
253.8723181201
 51
273.4911075918
  0
LINE
  5
248
330
1CA
100
AcDbEntity
  8
$DDT_AUDIT_GENERATED_(F8)
  6
Continuous
 62
     7
100
AcDbLine
 10
32.8633442658
 20
107.9793482116
 30
0.0
 11
33.0947203628
 21
106.9729073889
 31
0.0
  0
LINE
  5
249
330
1CA
100
AcDbEntity
  8
$DDT_AUDIT_GENERATED_(F8)
  6
Continuous
 62
     7
100
AcDbLine
 10
36.0906697798
 20
106.7717321639
 30
0.0
 11
36.4545251153
 21
107.7382037479
 31
0.0
  0
ARC
  5
24A
330
1CA
100
AcDbEntity
  8
$DDT_AUDIT_GENERATED_(F8)
  6
Continuous
 62
     7
100
AcDbCircle
 10
35.6110818765
 20
106.9435016485
 30
0.0
 40
0.5045752337910704
100
AcDbArc
 50
278.3142336145
 51
339.5822936895
  0
ARC
  5
24B
330
1CA
100
AcDbEntity
  8
$DDT_AUDIT_GENERATED_(F8)
  6
Continuous
 62
     7
100
AcDbCircle
 10
33.602776245
 20
107.093590944
 30
0.0
 40
0.5217037262306305
100
AcDbArc
 50
193.6236424424
 51
254.3325457798
  0
ARC
  5
24C
330
1CA
100
AcDbEntity
  8
$DDT_AUDIT_GENERATED_(F8)
  6
Continuous
 62
     7
100
AcDbCircle
 10
34.8262180732
 20
110.35
 30
0.0
 40
3.999999999999999
100
AcDbArc
 50
271.2782952357
 51
282.7254841911
  0
ARC
  5
24D
330
1CA
100
AcDbEntity
  8
$DDT_AUDIT_GENERATED_(F8)
  6
Continuous
 62
     7
100
AcDbCircle
 10
34.8262180732
 20
110.35
 30
0.0
 40
3.999999999999996
100
AcDbArc
 50
249.5913328547
 51
261.0124843492
  0
LINE
  5
24E
330
1CA
100
AcDbEntity
  8
$DDT_AUDIT_GENERATED_(F8)
  6
Continuous
 62
     7
100
AcDbLine
 10
30.9440095993
 20
107.9697225656
 30
0.0
 11
31.1349592698
 21
107.0163024005
 31
0.0
  0
ARC
  5
24F
330
1CA
100
AcDbEntity
  8
$DDT_AUDIT_GENERATED_(F8)
  6
Continuous
 62
     7
100
AcDbCircle
 10
33.6617964767
 20
106.9210924463
 30
0.0
 40
0.4999999999999966
100
AcDbArc
 50
281.5678649747
 51
294.5133893293
  0
ARC
  5
250
330
1CA
100
AcDbEntity
  8
$DDT_AUDIT_GENERATED_(F8)
  6
Continuous
 62
     7
100
AcDbCircle
 10
31.6252233217
 20
107.114491806
 30
0.0
 40
0.5000000000000006
100
AcDbArc
 50
191.3252811535
 51
247.5826973322
  0
ARC
  5
251
330
1CA
100
AcDbEntity
  8
$DDT_AUDIT_GENERATED_(F8)
  6
Continuous
 62
     7
100
AcDbCircle
 10
32.9599467861
 20
110.35
 30
0.0
 40
3.999999999999999
100
AcDbArc
 50
270.9361607656
 51
281.5678649747
  0
ARC
  5
252
330
1CA
100
AcDbEntity
  8
$DDT_AUDIT_GENERATED_(F8)
  6
Continuous
 62
     7
100
AcDbCircle
 10
32.9599467861
 20
110.35
 30
0.0
 40
3.999999999999996
100
AcDbArc
 50
247.5826973322
 51
258.0593447731
  0
LINE
  5
253
330
1CA
100
AcDbEntity
  8
$DDT_AUDIT_GENERATED_(F8)
  6
Continuous
 62
     7
100
AcDbLine
 10
64.5561801291
 20
112.169972397
 30
0.0
 11
64.5437472003
 21
112.2084912685
 31
0.0
  0
ARC
  5
254
330
1CA
100
AcDbEntity
  8
$DDT_AUDIT_GENERATED_(F8)
  6
Continuous
 62
     7
100
AcDbCircle
 10
59.2035591321
 20
116.0155532776
 30
0.0
 40
6.802435826527383
100
AcDbArc
 50
291.5238328047
 51
320.0457792806
  0
ARC
  5
255
330
1CA
100
AcDbEntity
  8
$DDT_AUDIT_GENERATED_(F8)
  6
Continuous
 62
     7
100
AcDbCircle
 10
59.1083685258
 20
116.0240170749
 30
0.0
 40
6.842034397730059
100
AcDbArc
 50
263.0154032928
 51
284.6041003776
  0
ARC
  5
256
330
1CA
100
AcDbEntity
  8
$DDT_AUDIT_GENERATED_(F8)
  6
Continuous
 62
     7
100
AcDbCircle
 10
64.1405896846
 20
111.9130614321
 30
0.0
 40
0.3895176409717778
100
AcDbArc
 50
315.6963394351
 51
328.9618265916
  0
ARC
  5
257
330
1CA
100
AcDbEntity
  8
$DDT_AUDIT_GENERATED_(F8)
  6
Continuous
 62
     7
100
AcDbCircle
 10
64.0803528483
 20
112.0163872452
 30
0.0
 40
0.5000000000000001
100
AcDbArc
 50
322.2436070928
 51
0.0
  0
ARC
  5
258
330
1CA
100
AcDbEntity
  8
$DDT_AUDIT_GENERATED_(F8)
  6
Continuous
 62
     7
100
AcDbCircle
 10
64.0803528483
 20
112.0163872452
 30
0.0
 40
0.5000000000000004
100
AcDbArc
 50
0.0
 51
17.8887823272
  0
LINE
  5
259
330
1CA
100
AcDbEntity
  8
$DDT_AUDIT_GENERATED_(F8)
  6
Continuous
 62
     7
100
AcDbLine
 10
62.5528979283
 20
112.1585660241
 30
0.0
 11
62.524680823
 21
112.2537006687
 31
0.0
  0
ARC
  5
25A
330
1CA
100
AcDbEntity
  8
$DDT_AUDIT_GENERATED_(F8)
  6
Continuous
 62
     7
100
AcDbCircle
 10
57.6199069516
 20
115.2348431499
 30
0.0
 40
6.015516630503007
100
AcDbArc
 50
292.3795599021
 51
320.5754839116
  0
ARC
  5
25B
330
1CA
100
AcDbEntity
  8
$DDT_AUDIT_GENERATED_(F8)
  6
Continuous
 62
     7
100
AcDbCircle
 10
57.5061371231
 20
115.2216875857
 30
0.0
 40
6.039690775332771
100
AcDbArc
 50
255.4353481043
 51
286.4480912027
  0
ARC
  5
25C
330
1CA
100
AcDbEntity
  8
$DDT_AUDIT_GENERATED_(F8)
  6
Continuous
 62
     7
100
AcDbCircle
 10
61.2151822145
 20
112.3803758214
 30
0.0
 40
1.428816463311583
100
AcDbArc
 50
317.0751585911
 51
336.07053442
  0
ARC
  5
25D
330
1CA
100
AcDbEntity
  8
$DDT_AUDIT_GENERATED_(F8)
  6
Continuous
 62
     7
100
AcDbCircle
 10
56.0375654861
 20
109.8816467542
 30
0.0
 40
0.4999999997950427
100
AcDbArc
 50
225.6715964815
 51
249.9128193461
  0
ARC
  5
25E
330
1CA
100
AcDbEntity
  8
$DDT_AUDIT_GENERATED_(F8)
  6
Continuous
 62
     7
100
AcDbCircle
 10
62.0735387781
 20
112.0163872452
 30
0.0
 40
0.4999999999999997
100
AcDbArc
 50
334.1038586707
 51
0.0
  0
ARC
  5
25F
330
1CA
100
AcDbEntity
  8
$DDT_AUDIT_GENERATED_(F8)
  6
Continuous
 62
     7
100
AcDbCircle
 10
62.0735387781
 20
112.0163872452
 30
0.0
 40
0.5000000000000004
100
AcDbArc
 50
0.0
 51
16.5204505576
  0
ARC
  5
260
330
1CA
100
AcDbEntity
  8
$DDT_AUDIT_GENERATED_(F8)
  6
Continuous
 62
     7
100
AcDbCircle
 10
56.6960996198
 20
111.6529640492
 30
0.0
 40
2.387103286034775
100
AcDbArc
 50
249.6235335302
 51
252.741189364
  0
LINE
  5
261
330
1CA
100
AcDbEntity
  8
$DDT_AUDIT_GENERATED_(F8)
  6
Continuous
 62
     7
100
AcDbLine
 10
52.2440068126
 20
109.8608827978
 30
0.0
 11
52.2666761767
 21
109.7657481536
 31
0.0
  0
LINE
  5
262
330
1CA
100
AcDbEntity
  8
$DDT_AUDIT_GENERATED_(F8)
  6
Continuous
 62
     7
100
AcDbLine
 10
58.0886860182
 20
112.1322858458
 30
0.0
 11
58.0660166541
 21
112.2274204904
 31
0.0
  0
ARC
  5
263
330
1CA
100
AcDbEntity
  8
$DDT_AUDIT_GENERATED_(F8)
  6
Continuous
 62
     7
100
AcDbCircle
 10
53.9811334893
 20
113.8909776073
 30
0.0
 40
4.689637810775268
100
AcDbArc
 50
292.7255240062
 51
322.3790958658
  0
ARC
  5
264
330
1CA
100
AcDbEntity
  8
$DDT_AUDIT_GENERATED_(F8)
  6
Continuous
 62
     7
100
AcDbCircle
 10
53.9636539281
 20
113.7544562765
 30
0.0
 40
4.5709865656502
100
AcDbArc
 50
253.8519251172
 51
293.5887319849
  0
ARC
  5
265
330
1CA
100
AcDbEntity
  8
$DDT_AUDIT_GENERATED_(F8)
  6
Continuous
 62
     7
100
AcDbCircle
 10
56.1921291821
 20
112.2244074118
 30
0.0
 40
1.924684588235062
100
AcDbArc
 50
321.4604104961
 51
351.6649467619
  0
ARC
  5
266
330
1CA
100
AcDbEntity
  8
$DDT_AUDIT_GENERATED_(F8)
  6
Continuous
 62
     7
100
AcDbCircle
 10
52.7530582425
 20
109.8816467542
 30
0.0
 40
0.4999999997950443
100
AcDbArc
 50
193.4029036184
 51
235.0285414696
  0
ARC
  5
267
330
1CA
100
AcDbEntity
  8
$DDT_AUDIT_GENERATED_(F8)
  6
Continuous
 62
     7
100
AcDbCircle
 10
57.602303952
 20
112.0163872452
 30
0.0
 40
0.500000000000002
100
AcDbArc
 50
351.8108046908
 51
0.0
  0
ARC
  5
268
330
1CA
100
AcDbEntity
  8
$DDT_AUDIT_GENERATED_(F8)
  6
Continuous
 62
     7
100
AcDbCircle
 10
57.602303952
 20
112.0163872452
 30
0.0
 40
0.5000000000000004
100
AcDbArc
 50
0.0
 51
13.4029036184
  0
ARC
  5
269
330
1CA
100
AcDbEntity
  8
$DDT_AUDIT_GENERATED_(F8)
  6
Continuous
 62
     7
100
AcDbCircle
 10
52.8362623854
 20
109.947534776
 30
0.0
 40
0.5998910314694724
100
AcDbArc
 50
231.9381561864
 51
256.1749290169
  0
LINE
  5
26A
330
1CA
100
AcDbEntity
  8
$DDT_AUDIT_GENERATED_(F8)
  6
Continuous
 62
     7
100
AcDbLine
 10
47.486817856
 20
109.9776950521
 30
0.0
 11
47.5193134982
 21
109.7668902967
 31
0.0
  0
LINE
  5
26B
330
1CA
100
AcDbEntity
  8
$DDT_AUDIT_GENERATED_(F8)
  6
Continuous
 62
     7
100
AcDbLine
 10
51.6818432571
 20
111.8986968418
 30
0.0
 11
51.649177026
 21
112.1106082363
 31
0.0
  0
ARC
  5
26C
330
1CA
100
AcDbEntity
  8
$DDT_AUDIT_GENERATED_(F8)
  6
Continuous
 62
     7
100
AcDbCircle
 10
48.8265055232
 20
112.3383796373
 30
0.0
 40
3.137159705594103
100
AcDbArc
 50
251.393354946
 51
322.73614524
  0
ARC
  5
26D
330
1CA
100
AcDbEntity
  8
$DDT_AUDIT_GENERATED_(F8)
  6
Continuous
 62
     7
100
AcDbCircle
 10
49.9579008213
 20
111.5481098711
 30
0.0
 40
1.760217530988733
100
AcDbArc
 50
320.6966520183
 51
12.6720278312
  0
ARC
  5
26E
330
1CA
100
AcDbEntity
  8
$DDT_AUDIT_GENERATED_(F8)
  6
Continuous
 62
     7
100
AcDbCircle
 10
48.0074267212
 20
109.8228337064
 30
0.0
 40
0.489825860008231
100
AcDbArc
 50
186.400622181
 51
248.2502530769
  0
LINE
  5
26F
330
1CA
100
AcDbEntity
  8
$DDT_AUDIT_GENERATED_(F8)
  6
Continuous
 62
     7
100
AcDbLine
 10
41.3066443681
 20
110.6715170777
 30
0.0
 11
41.3389273501
 21
110.0659359689
 31
0.0
  0
LINE
  5
270
330
1CA
100
AcDbEntity
  8
$DDT_AUDIT_GENERATED_(F8)
  6
Continuous
 62
     7
100
AcDbLine
 10
44.4691098148
 20
110.8110640207
 30
0.0
 11
44.4368193119
 21
111.4167862107
 31
0.0
  0
ARC
  5
271
330
1CA
100
AcDbEntity
  8
$DDT_AUDIT_GENERATED_(F8)
  6
Continuous
 62
     7
100
AcDbCircle
 10
42.661438651
 20
111.0941406017
 30
0.0
 40
1.903577633392029
100
AcDbArc
 50
238.5210433974
 51
318.9157421422
  0
ARC
  5
272
330
1CA
100
AcDbEntity
  8
$DDT_AUDIT_GENERATED_(F8)
  6
Continuous
 62
     7
100
AcDbCircle
 10
43.256798024
 20
110.720156892
 30
0.0
 40
1.212086776365009
100
AcDbArc
 50
312.7958578198
 51
4.630561141
  0
ARC
  5
273
330
1CA
100
AcDbEntity
  8
$DDT_AUDIT_GENERATED_(F8)
  6
Continuous
 62
     7
100
AcDbCircle
 10
42.088707306
 20
110.0864987601
 30
0.0
 40
0.7480752649404615
100
AcDbArc
 50
181.3372406161
 51
235.7900269816
  0
LINE
  5
274
330
1CA
100
AcDbEntity
  8
$DDT_AUDIT_GENERATED_(F8)
  6
Continuous
 62
     7
100
AcDbLine
 10
34.2267717396
 20
111.4167862107
 30
0.0
 11
34.1947187483
 21
110.8155193887
 31
0.0
  0
LINE
  5
275
330
1CA
100
AcDbEntity
  8
$DDT_AUDIT_GENERATED_(F8)
  6
Continuous
 62
     7
100
AcDbLine
 10
37.324705002
 20
110.0667107059
 30
0.0
 11
37.3569466835
 21
110.6715170777
 31
0.0
  0
SPLINE
  5
276
330
1CA
100
AcDbEntity
  8
$DDT_AUDIT_GENERATED_(F8)
  6
Continuous
 62
     7
100
AcDbSpline
210
0.0
220
0.0
230
1.0
 70
     8
 71
     3
 72
    18
 73
    14
 74
     0
 42
0.0000000037348548
 43
0.0000000001
 40
0.0
 40
0.0
 40
0.0
 40
0.0
 40
0.0260181085193489
 40
0.1574059499373104
 40
0.2834611270955985
 40
0.4041398609969212
 40
0.5182222327472701
 40
0.6241892815384354
 40
0.7203506467895171
 40
0.8058007799001979
 40
0.8821269414351456
 40
0.9538641354909093
 40
1.0
 40
1.0
 40
1.0
 40
1.0
 10
34.56674415786441
 20
109.8425964811079
 30
0.0
 10
34.58348157009006
 20
109.8255080625332
 30
0.0
 10
34.67051296909271
 20
109.7371683056377
 30
0.0
 10
34.86038523263953
 20
109.5815904964714
 30
0.0
 10
35.12824567325793
 20
109.4154152233027
 30
0.0
 10
35.40824861169773
 20
109.2919551718958
 30
0.0
 10
35.68914594786421
 20
109.2132630566261
 30
0.0
 10
35.96380641270819
 20
109.1777022367528
 30
0.0
 10
36.22408263981515
 20
109.1823495518242
 30
0.0
 10
36.46565240107672
 20
109.2225067349454
 30
0.0
 10
36.683572096187
 20
109.2928903918777
 30
0.0
 10
36.86543237015124
 20
109.3789707078961
 30
0.0
 10
36.95456528276946
 20
109.4414465066843
 30
0.0
 10
36.99524314675729
 20
109.4703900493119
 30
0.0
  0
ARC
  5
277
330
1CA
100
AcDbEntity
  8
$DDT_AUDIT_GENERATED_(F8)
  6
Continuous
 62
     7
100
AcDbCircle
 10
36.5955842771
 20
110.0754592288
 30
0.0
 40
0.724538016675012
100
AcDbArc
 50
302.8348893409
 51
359.729349733
  0
ARC
  5
278
330
1CA
100
AcDbEntity
  8
$DDT_AUDIT_GENERATED_(F8)
  6
Continuous
 62
     7
100
AcDbCircle
 10
35.396180607
 20
110.7182361187
 30
0.0
 40
1.202537540027628
100
AcDbArc
 50
175.3364783038
 51
227.189909848
  0
LINE
  5
279
330
1CA
100
AcDbEntity
  8
$DDT_AUDIT_GENERATED_(F8)
  6
Continuous
 62
     7
100
AcDbLine
 10
27.0144140255
 20
112.1106082362
 30
0.0
 11
26.9815842486
 21
111.8976358924
 31
0.0
  0
LINE
  5
27A
330
1CA
100
AcDbEntity
  8
$DDT_AUDIT_GENERATED_(F8)
  6
Continuous
 62
     7
100
AcDbLine
 10
31.1437510793
 20
109.7634749701
 30
0.0
 11
31.1767731955
 21
109.9776950521
 31
0.0
  0
ARC
  5
27B
330
1CA
100
AcDbEntity
  8
$DDT_AUDIT_GENERATED_(F8)
  6
Continuous
 62
     7
100
AcDbCircle
 10
29.8335027146
 20
112.3466108065
 30
0.0
 40
3.143417980529893
100
AcDbArc
 50
217.4367161426
 51
288.6797431868
  0
ARC
  5
27C
330
1CA
100
AcDbEntity
  8
$DDT_AUDIT_GENERATED_(F8)
  6
Continuous
 62
     7
100
AcDbCircle
 10
30.6591177786
 20
109.8225413207
 30
0.0
 40
0.4871817869384128
100
AcDbArc
 50
291.9090466986
 51
353.0873286747
  0
ARC
  5
27D
330
1CA
100
AcDbEntity
  8
$DDT_AUDIT_GENERATED_(F8)
  6
Continuous
 62
     7
100
AcDbCircle
 10
28.7138383434
 20
111.5433339065
 30
0.0
 40
1.767618073872719
100
AcDbArc
 50
167.6741698306
 51
219.2482289802
  0
LINE
  5
27E
330
1CA
100
AcDbEntity
  8
$DDT_AUDIT_GENERATED_(F8)
  6
Continuous
 62
     7
100
AcDbLine
 10
26.3969148748
 20
109.7657481536
 30
0.0
 11
26.4195842388
 21
109.8608827978
 31
0.0
  0
LINE
  5
27F
330
1CA
100
AcDbEntity
  8
$DDT_AUDIT_GENERATED_(F8)
  6
Continuous
 62
     7
100
AcDbLine
 10
20.5975743974
 20
112.2274204904
 30
0.0
 11
20.5749050332
 21
112.1322858458
 31
0.0
  0
ARC
  5
280
330
1CA
100
AcDbEntity
  8
$DDT_AUDIT_GENERATED_(F8)
  6
Continuous
 62
     7
100
AcDbCircle
 10
24.7062254668
 20
113.9242726757
 30
0.0
 40
4.729954196604971
100
AcDbArc
 50
217.8089826684
 51
285.563452903
  0
ARC
  5
281
330
1CA
100
AcDbEntity
  8
$DDT_AUDIT_GENERATED_(F8)
  6
Continuous
 62
     7
100
AcDbCircle
 10
25.878487985
 20
109.8397912313
 30
0.0
 40
0.4836568935696066
100
AcDbArc
 50
281.5936454918
 51
311.0749751945
  0
ARC
  5
282
330
1CA
100
AcDbEntity
  8
$DDT_AUDIT_GENERATED_(F8)
  6
Continuous
 62
     7
100
AcDbCircle
 10
25.9105328089
 20
109.8816467542
 30
0.0
 40
0.4999999999059708
100
AcDbArc
 50
304.9714584456
 51
346.5970963816
  0
ARC
  5
283
330
1CA
100
AcDbEntity
  8
$DDT_AUDIT_GENERATED_(F8)
  6
Continuous
 62
     7
100
AcDbCircle
 10
21.0612870995
 20
112.0163872452
 30
0.0
 40
0.5000000000000018
100
AcDbArc
 50
166.5970963816
 51
188.1891952971
  0
ARC
  5
284
330
1CA
100
AcDbEntity
  8
$DDT_AUDIT_GENERATED_(F8)
  6
Continuous
 62
     7
100
AcDbCircle
 10
22.4563230256
 20
112.2198941835
 30
0.0
 40
1.908980913353847
100
AcDbArc
 50
188.2609807799
 51
218.7741192872
  0
LINE
  5
285
330
1CA
100
AcDbEntity
  8
$DDT_AUDIT_GENERATED_(F8)
  6
Continuous
 62
     7
100
AcDbLine
 10
16.1389102284
 20
112.2537006687
 30
0.0
 11
16.1106931231
 21
112.1585660241
 31
0.0
  0
ARC
  5
286
330
1CA
100
AcDbEntity
  8
$DDT_AUDIT_GENERATED_(F8)
  6
Continuous
 62
     7
100
AcDbCircle
 10
21.1529721604
 20
115.2371754475
 30
0.0
 40
6.054701499491457
100
AcDbArc
 50
253.602043015
 51
284.6049523467
  0
ARC
  5
287
330
1CA
100
AcDbEntity
  8
$DDT_AUDIT_GENERATED_(F8)
  6
Continuous
 62
     7
100
AcDbCircle
 10
21.0400013125
 20
115.2389988892
 30
0.0
 40
6.01669927325672
100
AcDbArc
 50
219.4730781296
 51
247.7181517417
  0
ARC
  5
288
330
1CA
100
AcDbEntity
  8
$DDT_AUDIT_GENERATED_(F8)
  6
Continuous
 62
     7
100
AcDbCircle
 10
22.6199601281
 20
109.7657751714
 30
0.0
 40
0.3932261756546903
100
AcDbArc
 50
278.3776465192
 51
297.0151474867
  0
ARC
  5
289
330
1CA
100
AcDbEntity
  8
$DDT_AUDIT_GENERATED_(F8)
  6
Continuous
 62
     7
100
AcDbCircle
 10
22.6260255653
 20
109.8816467542
 30
0.0
 40
0.4999999999665816
100
AcDbArc
 50
290.0871805925
 51
314.3415862506
  0
ARC
  5
28A
330
1CA
100
AcDbEntity
  8
$DDT_AUDIT_GENERATED_(F8)
  6
Continuous
 62
     7
100
AcDbCircle
 10
16.5900522733
 20
112.0163872452
 30
0.0
 40
0.4999999999999994
100
AcDbArc
 50
163.4795494424
 51
205.8961413107
  0
ARC
  5
28B
330
1CA
100
AcDbEntity
  8
$DDT_AUDIT_GENERATED_(F8)
  6
Continuous
 62
     7
100
AcDbCircle
 10
17.8045868546
 20
112.6196180961
 30
0.0
 40
1.856676089907279
100
AcDbArc
 50
206.2748935476
 51
220.8008410795
  0
LINE
  5
28C
330
1CA
100
AcDbEntity
  8
$DDT_AUDIT_GENERATED_(F8)
  6
Continuous
 62
     7
100
AcDbLine
 10
14.1198482278
 20
112.2085048284
 30
0.0
 11
14.1074109222
 21
112.169972397
 31
0.0
  0
ARC
  5
28D
330
1CA
100
AcDbEntity
  8
$DDT_AUDIT_GENERATED_(F8)
  6
Continuous
 62
     7
100
AcDbCircle
 10
19.5571283244
 20
115.9978652548
 30
0.0
 40
6.81621387668191
100
AcDbArc
 50
255.3566211922
 51
277.1295674402
  0
ARC
  5
28E
330
1CA
100
AcDbEntity
  8
$DDT_AUDIT_GENERATED_(F8)
  6
Continuous
 62
     7
100
AcDbCircle
 10
19.4803296792
 20
116.0465573812
 30
0.0
 40
6.839306557531272
100
AcDbArc
 50
220.0280851329
 51
248.3765623873
  0
ARC
  5
28F
330
1CA
100
AcDbEntity
  8
$DDT_AUDIT_GENERATED_(F8)
  6
Continuous
 62
     7
100
AcDbCircle
 10
14.583238203
 20
112.0163872452
 30
0.0
 40
0.4999999999999993
100
AcDbArc
 50
162.1112176728
 51
217.7563928877
  0
LINE
  5
290
330
1CA
100
AcDbEntity
  8
$DDT_AUDIT_GENERATED_(F8)
  6
Continuous
 62
     7
100
AcDbLine
 10
14.21260255
 20
111.6833477212
 30
0.0
 11
14.2430190466
 21
111.6448369801
 31
0.0
  0
ARC
  5
291
330
1CA
100
AcDbEntity
  8
$DDT_AUDIT_GENERATED_(F8)
  6
Continuous
 62
     7
100
AcDbCircle
 10
20.09364636
 20
115.7111127755
 30
0.0
 40
6.529441172408438
100
AcDbArc
 50
267.4460554728
 51
274.5404544244
  0
LINE
  5
292
330
1CA
100
AcDbEntity
  8
$DDT_AUDIT_GENERATED_(C1)
  6
Continuous
 62
     7
100
AcDbLine
 10
71.2032168934
 20
121.0981336822
 30
0.0
 11
7.4603741579
 21
121.0981336822
 31
0.0
  0
ARC
  5
293
330
1CA
100
AcDbEntity
  8
$DDT_AUDIT_GENERATED_(C1)
  6
Continuous
 62
     7
100
AcDbCircle
 10
39.3317955256
 20
109.9481336822
 30
0.0
 40
33.9
100
AcDbArc
 50
161.0389193629
 51
165.9973757602
  0
ARC
  5
294
330
1CA
100
AcDbEntity
  8
$DDT_AUDIT_GENERATED_(C1)
  6
Continuous
 62
     7
100
AcDbCircle
 10
39.3317955256
 20
109.9481336822
 30
0.0
 40
33.9
100
AcDbArc
 50
14.0026242398
 51
18.9610806371
  0
ARC
  5
295
330
1CA
100
AcDbEntity
  8
$DDT_AUDIT_GENERATED_(C1)
  6
Continuous
 62
     7
100
AcDbCircle
 10
39.3317955256
 20
178.8481336822
 30
0.0
 40
71.35000000000001
100
AcDbArc
 50
294.7166275186
 51
296.0178409658
  0
ARC
  5
296
330
1CA
100
AcDbEntity
  8
$DDT_AUDIT_GENERATED_(C1)
  6
Continuous
 62
     7
100
AcDbCircle
 10
39.3317955256
 20
178.8481336822
 30
0.0
 40
71.35000000000001
100
AcDbArc
 50
243.9821590342
 51
245.2833724814
  0
ARC
  5
297
330
1CA
100
AcDbEntity
  8
$DDT_AUDIT_GENERATED_(C1)
  6
Continuous
 62
     7
100
AcDbCircle
 10
7.4603741579
 20
120.8981336822
 30
0.0
 40
0.1999999999999997
100
AcDbArc
 50
90.0
 51
161.0389193629
  0
ARC
  5
298
330
1CA
100
AcDbEntity
  8
$DDT_AUDIT_GENERATED_(C1)
  6
Continuous
 62
     7
100
AcDbCircle
 10
71.2032168934
 20
120.8981336822
 30
0.0
 40
0.1999999999999999
100
AcDbArc
 50
18.9610806371
 51
90.0
  0
ARC
  5
299
330
1CA
100
AcDbEntity
  8
$DDT_AUDIT_GENERATED_(C1)
  6
Continuous
 62
     7
100
AcDbCircle
 10
69.3135910513
 20
117.4248934791
 30
0.0
 40
3.000000000000004
100
AcDbArc
 50
296.0178409658
 51
14.0026242398
  0
ARC
  5
29A
330
1CA
100
AcDbEntity
  8
$DDT_AUDIT_GENERATED_(C1)
  6
Continuous
 62
     7
100
AcDbCircle
 10
9.35
 20
117.4248934791
 30
0.0
 40
2.999999999999999
100
AcDbArc
 50
165.9973757602
 51
243.9821590342
  0
ARC
  5
29B
330
1CA
100
AcDbEntity
  8
$DDT_AUDIT_GENERATED_(C1)
  6
Continuous
 62
     7
100
AcDbCircle
 10
9.5817955256
 20
114.2164077266
 30
0.0
 40
0.2000000000000033
100
AcDbArc
 50
245.2833724814
 51
270.0
  0
ARC
  5
29C
330
1CA
100
AcDbEntity
  8
$DDT_AUDIT_GENERATED_(C1)
  6
Continuous
 62
     7
100
AcDbCircle
 10
69.0817955256
 20
114.2164077266
 30
0.0
 40
0.1999999999999997
100
AcDbArc
 50
270.0
 51
294.7166275186
  0
LINE
  5
29D
330
1CA
100
AcDbEntity
  8
$DDT_AUDIT_GENERATED_(C1)
  6
Continuous
 62
     7
100
AcDbLine
 10
9.5817955256
 20
114.0164077266
 30
0.0
 11
69.0817955256
 21
114.0164077266
 31
0.0
  0
LINE
  5
29E
330
1CA
100
AcDbEntity
  8
$DDT_AUDIT_GENERATED_(1A5)
  6
Continuous
 62
     7
100
AcDbLine
 10
7.8150282995
 20
121.3981336822
 30
0.0
 11
70.8485627518
 21
121.3981336822
 31
0.0
  0
ARC
  5
29F
330
1CA
100
AcDbEntity
  8
$DDT_AUDIT_GENERATED_(1A5)
  6
Continuous
 62
     7
100
AcDbCircle
 10
59.6659348488
 20
136.6512363191
 30
0.0
 40
0.4999999999999991
100
AcDbArc
 50
51.9541699495
 51
90.0
  0
ARC
  5
2A0
330
1CA
100
AcDbEntity
  8
$DDT_AUDIT_GENERATED_(1A5)
  6
Continuous
 62
     7
100
AcDbCircle
 10
18.9976562024
 20
136.6512363191
 30
0.0
 40
0.5000000000000004
100
AcDbArc
 50
90.0
 51
128.0458300505
  0
LINE
  5
2A1
330
1CA
100
AcDbEntity
  8
$DDT_AUDIT_GENERATED_(1A5)
  6
Continuous
 62
     7
100
AcDbLine
 10
59.6659348488
 20
137.1512363191
 30
0.0
 11
18.9976562024
 21
137.1512363191
 31
0.0
  0
LINE
  5
2A2
330
1CA
100
AcDbEntity
  8
$DDT_AUDIT_GENERATED_(1A5)
  6
Continuous
 62
     7
100
AcDbLine
 10
69.9317955256
 20
121.0981336822
 30
0.0
 11
69.9317955256
 21
121.3981336822
 31
0.0
  0
LINE
  5
2A3
330
1CA
100
AcDbEntity
  8
$DDT_AUDIT_GENERATED_(1A5)
  6
Continuous
 62
     7
100
AcDbLine
 10
8.7317955256
 20
121.3981336822
 30
0.0
 11
8.7317955256
 21
121.0981336822
 31
0.0
  0
ARC
  5
2A4
330
1CA
100
AcDbEntity
  8
$DDT_AUDIT_GENERATED_(1A5)
  6
Continuous
 62
     7
100
AcDbCircle
 10
39.5817955256
 20
110.3481336822
 30
0.0
 40
33.89999999999999
100
AcDbArc
 50
128.0458300505
 51
160.4987215067
  0
ARC
  5
2A5
330
1CA
100
AcDbEntity
  8
$DDT_AUDIT_GENERATED_(1A5)
  6
Continuous
 62
     7
100
AcDbCircle
 10
39.0817955256
 20
110.3481336822
 30
0.0
 40
33.9
100
AcDbArc
 50
19.5012784933
 51
51.9541699495
  0
ARC
  5
2A6
330
1CA
100
AcDbEntity
  8
$DDT_AUDIT_GENERATED_(1A5)
  6
Continuous
 62
     7
100
AcDbCircle
 10
7.8150282995
 20
121.5981336822
 30
0.0
 40
0.2000000000000026
100
AcDbArc
 50
160.4987215067
 51
270.0
  0
ARC
  5
2A7
330
1CA
100
AcDbEntity
  8
$DDT_AUDIT_GENERATED_(1A5)
  6
Continuous
 62
     7
100
AcDbCircle
 10
70.8485627518
 20
121.5981336822
 30
0.0
 40
0.1999999999999988
100
AcDbArc
 50
270.0
 51
19.5012784933
  0
LINE
  5
2A8
330
1CA
100
AcDbEntity
  8
$DDT_AUDIT_GENERATED_(1B0)
  6
Continuous
 62
     7
100
AcDbLine
 10
19.3317955256
 20
141.9581336823
 30
0.0
 11
19.3317955256
 21
141.7581336822
 31
0.0
  0
LINE
  5
2A9
330
1CA
100
AcDbEntity
  8
$DDT_AUDIT_GENERATED_(1B0)
  6
Continuous
 62
     7
100
AcDbLine
 10
59.3317955256
 20
141.7581336822
 30
0.0
 11
59.3317955256
 21
141.9581336823
 31
0.0
  0
ARC
  5
2AA
330
1CA
100
AcDbEntity
  8
$DDT_AUDIT_GENERATED_(1B0)
  6
Continuous
 62
     7
100
AcDbCircle
 10
39.3317955256
 20
141.7581336822
 30
0.0
 40
20.0
100
AcDbArc
 50
180.0
 51
193.3173764207
  0
ARC
  5
2AB
330
1CA
100
AcDbEntity
  8
$DDT_AUDIT_GENERATED_(1B0)
  6
Continuous
 62
     7
100
AcDbCircle
 10
39.3317955256
 20
141.7581336822
 30
0.0
 40
20.0
100
AcDbArc
 50
346.6826235793
 51
360.0
  0
LINE
  5
2AC
330
1CA
100
AcDbEntity
  8
$DDT_AUDIT_GENERATED_(1B5)
  6
Continuous
 62
     7
100
AcDbLine
 10
18.9721897363
 20
141.9581336823
 30
0.0
 11
59.691401315
 21
141.9581336823
 31
0.0
  0
LINE
  5
2AD
330
1CA
100
AcDbEntity
  8
$DDT_AUDIT_GENERATED_(1B5)
  6
Continuous
 62
     7
100
AcDbLine
 10
66.3267711
 20
161.9581336822
 30
0.0
 11
12.3368199513
 21
161.9581336822
 31
0.0
  0
ARC
  5
2AE
330
1CA
100
AcDbEntity
  8
$DDT_AUDIT_GENERATED_(1B5)
  6
Continuous
 62
     7
100
AcDbCircle
 10
59.691401315
 20
142.2102500414
 30
0.0
 40
0.2521163590873954
100
AcDbArc
 50
270.0
 51
321.6641009508
  0
ARC
  5
2AF
330
1CA
100
AcDbEntity
  8
$DDT_AUDIT_GENERATED_(1B5)
  6
Continuous
 62
     7
100
AcDbCircle
 10
18.9721897363
 20
142.2102500414
 30
0.0
 40
0.2521163590873937
100
AcDbArc
 50
218.3358990492
 51
270.0
  0
ARC
  5
2B0
330
1CA
100
AcDbEntity
  8
$DDT_AUDIT_GENERATED_(1B5)
  6
Continuous
 62
     7
100
AcDbCircle
 10
44.0317227712
 20
162.0265835369
 30
0.0
 40
32.20000000000001
100
AcDbArc
 50
181.0274928495
 51
218.3358990492
  0
ARC
  5
2B1
330
1CA
100
AcDbEntity
  8
$DDT_AUDIT_GENERATED_(1B5)
  6
Continuous
 62
     7
100
AcDbCircle
 10
34.6318682801
 20
162.0265835369
 30
0.0
 40
32.2
100
AcDbArc
 50
321.6641009508
 51
358.9725071505
  0
ARC
  5
2B2
330
1CA
100
AcDbEntity
  8
$DDT_AUDIT_GENERATED_(1B5)
  6
Continuous
 62
     7
100
AcDbCircle
 10
66.3267711
 20
161.4581336822
 30
0.0
 40
0.5000000000000034
100
AcDbArc
 50
358.9725071505
 51
90.0
  0
ARC
  5
2B3
330
1CA
100
AcDbEntity
  8
$DDT_AUDIT_GENERATED_(1B5)
  6
Continuous
 62
     7
100
AcDbCircle
 10
12.3368199513
 20
161.4581336822
 30
0.0
 40
0.5000000000000004
100
AcDbArc
 50
90.0
 51
181.0274928495
  0
LINE
  5
2B5
330
1CA
100
AcDbEntity
  8
DV3_Standard
  6
Continuous
 62
     7
100
AcDbLine
 10
26.252388326
 20
107.4582390857
 30
0.0
 11
27.9741899216
 21
107.1526576251
 31
0.0
  0
SPLINE
  5
2B6
330
1CA
100
AcDbEntity
  8
DV3_Standard
  6
Continuous
 62
     7
100
AcDbSpline
210
0.0
220
0.0
230
1.0
 70
     8
 71
     3
 72
     8
 73
     4
 74
     0
 42
0.0000000036784051
 43
0.0000000001
 40
0.0
 40
0.0
 40
0.0
 40
0.0
 40
1.0
 40
1.0
 40
1.0
 40
1.0
 10
22.64706445474443
 20
111.7542770003689
 30
0.0
 10
24.30789251661668
 20
111.0988159490866
 30
0.0
 10
25.14778802891396
 20
110.7609418255174
 30
0.0
 10
25.16675099163627
 20
110.7406546296612
 30
0.0
  0
SPLINE
  5
2B7
330
1CA
100
AcDbEntity
  8
DV3_Standard
  6
Continuous
 62
     7
100
AcDbSpline
210
0.0
220
0.0
230
1.0
 70
     8
 71
     3
 72
     8
 73
     4
 74
     0
 42
0.0000000031642956
 43
0.0000000001
 40
0.0
 40
0.0
 40
0.0
 40
0.0
 40
1.0
 40
1.0
 40
1.0
 40
1.0
 10
33.10182601550972
 20
108.025372159274
 30
0.0
 10
35.19391998916171
 20
107.8918399367684
 30
0.0
 10
36.24349484115311
 20
107.8202833868288
 30
0.0
 10
36.25055057148388
 20
107.8107025094552
 30
0.0
  0
LINE
  5
2B8
330
1CA
100
AcDbEntity
  8
DV3_Standard
  6
Continuous
 62
     7
100
AcDbLine
 10
38.804141492
 20
107.1836137882
 30
0.0
 11
39.8624345448
 21
107.184012163
 31
0.0
  0
LINE
  5
2B9
330
1CA
100
AcDbEntity
  8
DV3_Standard
  6
Continuous
 62
     7
100
AcDbLine
 10
51.1273205786
 20
107.1980291979
 30
0.0
 11
52.4104168585
 21
107.4579106086
 31
0.0
  0
LINE
  5
2BA
330
1CA
100
AcDbEntity
  8
DV3_Standard
  6
Continuous
 62
     7
100
AcDbLine
 10
57.4796018348
 20
112.1936272933
 30
0.0
 11
53.6890505788
 21
110.8363236251
 31
0.0
  0
SPLINE
  5
2BB
330
1CA
100
AcDbEntity
  8
DV3_Standard
  6
Continuous
 62
     7
100
AcDbSpline
210
0.0
220
0.0
230
1.0
 70
     8
 71
     3
 72
     8
 73
     4
 74
     0
 42
0.0000000026688798
 43
0.0000000001
 40
0.0
 40
0.0
 40
0.0
 40
0.0
 40
1.0
 40
1.0
 40
1.0
 40
1.0
 10
53.04958920913309
 20
109.0666215802136
 30
0.0
 10
50.67797808215919
 20
108.3123359010316
 30
0.0
 10
49.47463793836941
 20
108.3951387646317
 30
0.0
 10
49.43673643163921
 20
108.4307887212387
 30
0.0
  0
LINE
  5
2BC
330
1CA
100
AcDbEntity
  8
DV3_Standard
  6
CENTER2
 62
     7
100
AcDbLine
 10
59.3317950786
 20
161.9581336822
 30
0.0
 11
19.3317959727
 21
161.9581336822
 31
0.0
  0
LINE
  5
2BD
330
1CA
100
AcDbEntity
  8
DV3_Standard
  6
CENTER2
 62
     7
100
AcDbLine
 10
39.3317955256
 20
181.9581332352
 30
0.0
 11
39.3317955256
 21
141.9581341293
 31
0.0
  0
ENDBLK
  5
2BF
330
1CA
100
AcDbEntity
  8
0
100
AcDbBlockEnd
  0
ENDSEC
  0
SECTION
  2
ENTITIES
  0
INSERT
  5
5F
330
1F
100
AcDbEntity
  8
Default
100
AcDbBlockReference
  2
SE
 10
0.0
 20
0.0
 30
0.0
  0
INSERT
  5
E6
330
1F
100
AcDbEntity
  8
Default
100
AcDbBlockReference
  2
SE1
 10
0.0
 20
0.0
 30
0.0
  0
INSERT
  5
1CB
330
1F
100
AcDbEntity
  8
Default
100
AcDbBlockReference
  2
SE2
 10
0.0
 20
0.0
 30
0.0
  0
TEXT
  5
2C1
330
1F
100
AcDbEntity
  8
Default
  6
Continuous
 62
     7
100
AcDbText
 10
5.9362635081
 20
53.4225120485
 30
0.0
 40
10.0
  1
Grohe AG^J
  7
SEACAD_seiso_ttf
 11
5.9362635081
 21
63.4225120485
 31
0.0
100
AcDbText
 73
     3
  0
TEXT
  5
2C2
330
1F
100
AcDbEntity
  8
Default
  6
Continuous
 62
     7
100
AcDbText
 10
5.9362635081
 20
37.0588756849
 30
0.0
 40
10.0
  1
 
  7
SEACAD_seiso_ttf
 11
5.9362635081
 21
47.0588756849
 31
0.0
100
AcDbText
 73
     3
  0
TEXT
  5
2C3
330
1F
100
AcDbEntity
  8
Default
  6
Continuous
 62
     7
100
AcDbText
 10
5.9362635081
 20
20.6952393213
 30
0.0
 40
10.0
  1
ecn: 
  7
SEACAD_seiso_ttf
 11
5.9362635081
 21
30.6952393213
 31
0.0
100
AcDbText
 73
     3
  0
TEXT
  5
2C4
330
1F
100
AcDbEntity
  8
Default
  6
Continuous
 62
     7
100
AcDbText
 10
5.9362635081
 20
4.3316029576
 30
0.0
 40
10.0
  1
unit: mm
  7
SEACAD_seiso_ttf
 11
5.9362635081
 21
14.3316029576
 31
0.0
100
AcDbText
 73
     3
  0
LINE
  5
2C5
330
1F
100
AcDbEntity
  8
Default
  6
Continuous
 62
     7
100
AcDbLine
 10
0.0
 20
0.0
 30
0.0
 11
100.0
 21
0.0
 31
0.0
  0
LINE
  5
2C6
330
1F
100
AcDbEntity
  8
Default
  6
Continuous
 62
     7
100
AcDbLine
 10
0.0
 20
0.0
 30
0.0
 11
0.0
 21
100.0
 31
0.0
  0
TEXT
  5
2C7
330
1F
100
AcDbEntity
  8
Default
  6
Continuous
 62
     7
100
AcDbText
 10
24.3923665681
 20
-18.2375342018
 30
0.0
 40
10.0
  1
100 mm
  7
SEACAD_seiso_ttf
 11
24.3923665681
 21
-8.2375342018
 31
0.0
100
AcDbText
 73
     3
  0
TEXT
  5
2C8
330
1F
100
AcDbEntity
  8
Default
  6
Continuous
 62
     7
100
AcDbText
 10
-7.6150308803
 20
24.6231930421
 30
0.0
 40
10.0
  1
100 mm
 50
90.0
  7
SEACAD_seiso_ttf
 11
-17.6150308803
 21
24.6231930421
 31
0.0
100
AcDbText
 73
     3
  0
TEXT
  5
2C9
330
1F
100
AcDbEntity
  8
Default
  6
Continuous
 62
     7
100
AcDbText
 10
28.4878128572
 20
20.0907663715
 30
0.0
 40
10.0
  1
213468
  7
SEACAD_seiso_ttf
 11
28.4878128572
 21
30.0907663715
 31
0.0
100
AcDbText
 73
     3
  0
TEXT
  5
2CA
330
1F
100
AcDbEntity
  8
Default
  6
Continuous
 62
     7
100
AcDbText
 10
5.9012241913
 20
36.7242780188
 30
0.0
 40
10.0
  1
27067000
  7
SEACAD_seiso_ttf
 11
5.9012241913
 21
46.7242780188
 31
0.0
100
AcDbText
 73
     3
  0
ENDSEC
  0
SECTION
  2
OBJECTS
  0
DICTIONARY
  5
C
330
0
100
AcDbDictionary
281
     1
  3
ACAD_GROUP
350
D
  3
ACAD_LAYOUT
350
1A
  3
ACAD_MLEADERSTYLE
350
2CE
  3
ACAD_MLINESTYLE
350
17
  3
ACAD_PLOTSETTINGS
350
19
  3
ACAD_PLOTSTYLENAME
350
E
  3
ACAD_SCALELIST
350
3B
  3
ACAD_TABLESTYLE
350
2CD
  3
ACAD_VISUALSTYLE
350
2A
  3
AcDbVariableDictionary
350
2CB
  0
DICTIONARY
  5
D
102
{ACAD_REACTORS
330
C
102
}
330
C
100
AcDbDictionary
281
     1
  0
DICTIONARY
  5
1A
102
{ACAD_REACTORS
330
C
102
}
330
C
100
AcDbDictionary
281
     1
  3
Layout1
350
1E
  3
Model
350
22
  0
DICTIONARY
  5
2CE
102
{ACAD_REACTORS
330
C
102
}
330
C
100
AcDbDictionary
281
     1
  0
DICTIONARY
  5
17
102
{ACAD_REACTORS
330
C
102
}
330
C
100
AcDbDictionary
281
     1
  3
Standard
350
18
  0
DICTIONARY
  5
19
102
{ACAD_REACTORS
330
C
102
}
330
C
100
AcDbDictionary
281
     1
  0
ACDBDICTIONARYWDFLT
  5
E
102
{ACAD_REACTORS
330
C
102
}
330
C
100
AcDbDictionary
281
     1
  3
Normal
350
F
100
AcDbDictionaryWithDefault
340
F
  0
DICTIONARY
  5
3B
102
{ACAD_REACTORS
330
C
102
}
330
C
100
AcDbDictionary
281
     1
  3
A0
350
3C
  3
A1
350
3D
  3
A2
350
3E
  3
A3
350
3F
  3
A4
350
40
  3
A5
350
41
  3
A6
350
42
  3
A7
350
43
  3
A8
350
44
  3
A9
350
45
  3
B0
350
46
  3
B1
350
47
  3
B2
350
48
  3
B3
350
49
  3
B4
350
4A
  3
B5
350
4B
  3
B6
350
4C
  3
B7
350
4D
  3
B8
350
4E
  3
B9
350
4F
  3
C0
350
50
  3
C1
350
51
  3
C2
350
52
  3
C3
350
53
  3
C4
350
54
  3
C5
350
55
  3
C6
350
56
  3
C7
350
57
  3
C8
350
58
  3
C9
350
59
  3
D0
350
5A
  3
D1
350
5B
  3
D2
350
5C
  0
DICTIONARY
  5
2CD
102
{ACAD_REACTORS
330
C
102
}
330
C
100
AcDbDictionary
281
     1
  0
DICTIONARY
  5
2A
102
{ACAD_REACTORS
330
C
102
}
330
C
100
AcDbDictionary
281
     1
  3
2dWireframe
350
2F
  3
3D Hidden
350
31
  3
3dWireframe
350
30
  3
Basic
350
32
  3
Brighten
350
36
  3
ColorChange
350
3A
  3
Conceptual
350
34
  3
Dim
350
35
  3
Facepattern
350
39
  3
Flat
350
2B
  3
FlatWithEdges
350
2C
  3
Gouraud
350
2D
  3
GouraudWithEdges
350
2E
  3
Linepattern
350
38
  3
Realistic
350
33
  3
Thicken
350
37
  0
DICTIONARY
  5
2CB
102
{ACAD_REACTORS
330
C
102
}
330
C
100
AcDbDictionary
281
     1
  3
CANNOSCALE
350
2CC
  3
PSOLHEIGHT
350
2D0
  3
PSOLWIDTH
350
2CF
  0
LAYOUT
  5
1E
102
{ACAD_REACTORS
330
1A
102
}
330
1A
100
AcDbPlotSettings
  1

  2
none_device
  4

  6

 40
0.0
 41
0.0
 42
0.0
 43
0.0
 44
0.0
 45
0.0
 46
0.0
 47
0.0
 48
0.0
 49
0.0
140
0.0
141
0.0
142
1.0
143
1.0
 70
   688
 72
     0
 73
     0
 74
     5
  7

 75
    16
147
1.0
148
0.0
149
0.0
100
AcDbLayout
  1
Layout1
 70
     1
 71
     1
 10
0.0
 20
0.0
 11
1682.0
 21
2378.0
 12
0.0
 22
0.0
 32
0.0
 14
0.0
 24
0.0
 34
0.0
 15
1682.0
 25
2378.0
 35
0.0
146
0.0
 13
0.0
 23
0.0
 33
0.0
 16
1.0
 26
0.0
 36
0.0
 17
0.0
 27
1.0
 37
0.0
 76
     0
330
1B
  0
LAYOUT
  5
22
102
{ACAD_REACTORS
330
1A
102
}
330
1A
100
AcDbPlotSettings
  1

  2
none_device
  4

  6

 40
0.0
 41
0.0
 42
0.0
 43
0.0
 44
0.0
 45
0.0
 46
0.0
 47
0.0
 48
0.0
 49
0.0
140
0.0
141
0.0
142
1.0
143
1.0
 70
  1712
 72
     0
 73
     0
 74
     0
  7

 75
     0
147
1.0
148
0.0
149
0.0
100
AcDbLayout
  1
Model
 70
     1
 71
     0
 10
0.0
 20
0.0
 11
1682.0
 21
2378.0
 12
0.0
 22
0.0
 32
0.0
 14
0.0
 24
0.0
 34
0.0
 15
1682.0
 25
2378.0
 35
0.0
146
0.0
 13
0.0
 23
0.0
 33
0.0
 16
1.0
 26
0.0
 36
0.0
 17
0.0
 27
1.0
 37
0.0
 76
     0
330
1F
331
29
  0
MLINESTYLE
  5
18
102
{ACAD_REACTORS
330
17
102
}
330
17
100
AcDbMlineStyle
  2
Standard
 70
     0
  3

 62
   256
 51
90.0
 52
90.0
 71
     2
 49
0.5
 62
   256
  6
BYLAYER
 49
-0.5
 62
   256
  6
BYLAYER
  0
ACDBPLACEHOLDER
  5
F
102
{ACAD_REACTORS
330
E
102
}
330
E
  0
SCALE
  5
3C
102
{ACAD_REACTORS
330
3B
102
}
330
3B
100
AcDbScale
 70
     0
300
1:1
140
1.0
141
1.0
290
     1
  0
SCALE
  5
3D
102
{ACAD_REACTORS
330
3B
102
}
330
3B
100
AcDbScale
 70
     0
300
1:2
140
1.0
141
2.0
290
     0
  0
SCALE
  5
3E
102
{ACAD_REACTORS
330
3B
102
}
330
3B
100
AcDbScale
 70
     0
300
1:4
140
1.0
141
4.0
290
     0
  0
SCALE
  5
3F
102
{ACAD_REACTORS
330
3B
102
}
330
3B
100
AcDbScale
 70
     0
300
1:5
140
1.0
141
5.0
290
     0
  0
SCALE
  5
40
102
{ACAD_REACTORS
330
3B
102
}
330
3B
100
AcDbScale
 70
     0
300
1:8
140
1.0
141
8.0
290
     0
  0
SCALE
  5
41
102
{ACAD_REACTORS
330
3B
102
}
330
3B
100
AcDbScale
 70
     0
300
1:10
140
1.0
141
10.0
290
     0
  0
SCALE
  5
42
102
{ACAD_REACTORS
330
3B
102
}
330
3B
100
AcDbScale
 70
     0
300
1:16
140
1.0
141
16.0
290
     0
  0
SCALE
  5
43
102
{ACAD_REACTORS
330
3B
102
}
330
3B
100
AcDbScale
 70
     0
300
1:20
140
1.0
141
20.0
290
     0
  0
SCALE
  5
44
102
{ACAD_REACTORS
330
3B
102
}
330
3B
100
AcDbScale
 70
     0
300
1:30
140
1.0
141
30.0
290
     0
  0
SCALE
  5
45
102
{ACAD_REACTORS
330
3B
102
}
330
3B
100
AcDbScale
 70
     0
300
1:40
140
1.0
141
40.0
290
     0
  0
SCALE
  5
46
102
{ACAD_REACTORS
330
3B
102
}
330
3B
100
AcDbScale
 70
     0
300
1:50
140
1.0
141
50.0
290
     0
  0
SCALE
  5
47
102
{ACAD_REACTORS
330
3B
102
}
330
3B
100
AcDbScale
 70
     0
300
1:100
140
1.0
141
100.0
290
     0
  0
SCALE
  5
48
102
{ACAD_REACTORS
330
3B
102
}
330
3B
100
AcDbScale
 70
     0
300
2:1
140
2.0
141
1.0
290
     0
  0
SCALE
  5
49
102
{ACAD_REACTORS
330
3B
102
}
330
3B
100
AcDbScale
 70
     0
300
4:1
140
4.0
141
1.0
290
     0
  0
SCALE
  5
4A
102
{ACAD_REACTORS
330
3B
102
}
330
3B
100
AcDbScale
 70
     0
300
8:1
140
8.0
141
1.0
290
     0
  0
SCALE
  5
4B
102
{ACAD_REACTORS
330
3B
102
}
330
3B
100
AcDbScale
 70
     0
300
10:1
140
10.0
141
1.0
290
     0
  0
SCALE
  5
4C
102
{ACAD_REACTORS
330
3B
102
}
330
3B
100
AcDbScale
 70
     0
300
100:1
140
100.0
141
1.0
290
     0
  0
SCALE
  5
4D
102
{ACAD_REACTORS
330
3B
102
}
330
3B
100
AcDbScale
 70
     0
300
1/128" = 1'-0"
140
0.0078125
141
12.0
290
     0
  0
SCALE
  5
4E
102
{ACAD_REACTORS
330
3B
102
}
330
3B
100
AcDbScale
 70
     0
300
1/64" = 1'-0"
140
0.015625
141
12.0
290
     0
  0
SCALE
  5
4F
102
{ACAD_REACTORS
330
3B
102
}
330
3B
100
AcDbScale
 70
     0
300
1/32" = 1'-0"
140
0.03125
141
12.0
290
     0
  0
SCALE
  5
50
102
{ACAD_REACTORS
330
3B
102
}
330
3B
100
AcDbScale
 70
     0
300
1/16" = 1'-0"
140
0.0625
141
12.0
290
     0
  0
SCALE
  5
51
102
{ACAD_REACTORS
330
3B
102
}
330
3B
100
AcDbScale
 70
     0
300
3/32" = 1'-0"
140
0.09375
141
12.0
290
     0
  0
SCALE
  5
52
102
{ACAD_REACTORS
330
3B
102
}
330
3B
100
AcDbScale
 70
     0
300
1/8" = 1'-0"
140
0.125
141
12.0
290
     0
  0
SCALE
  5
53
102
{ACAD_REACTORS
330
3B
102
}
330
3B
100
AcDbScale
 70
     0
300
3/16" = 1'-0"
140
0.1875
141
12.0
290
     0
  0
SCALE
  5
54
102
{ACAD_REACTORS
330
3B
102
}
330
3B
100
AcDbScale
 70
     0
300
1/4" = 1'-0"
140
0.25
141
12.0
290
     0
  0
SCALE
  5
55
102
{ACAD_REACTORS
330
3B
102
}
330
3B
100
AcDbScale
 70
     0
300
3/8" = 1'-0"
140
0.375
141
12.0
290
     0
  0
SCALE
  5
56
102
{ACAD_REACTORS
330
3B
102
}
330
3B
100
AcDbScale
 70
     0
300
1/2" = 1'-0"
140
0.5
141
12.0
290
     0
  0
SCALE
  5
57
102
{ACAD_REACTORS
330
3B
102
}
330
3B
100
AcDbScale
 70
     0
300
3/4" = 1'-0"
140
0.75
141
12.0
290
     0
  0
SCALE
  5
58
102
{ACAD_REACTORS
330
3B
102
}
330
3B
100
AcDbScale
 70
     0
300
1" = 1'-0"
140
1.0
141
12.0
290
     0
  0
SCALE
  5
59
102
{ACAD_REACTORS
330
3B
102
}
330
3B
100
AcDbScale
 70
     0
300
1-1/2" = 1'-0"
140
1.5
141
12.0
290
     0
  0
SCALE
  5
5A
102
{ACAD_REACTORS
330
3B
102
}
330
3B
100
AcDbScale
 70
     0
300
3" = 1'-0"
140
3.0
141
12.0
290
     0
  0
SCALE
  5
5B
102
{ACAD_REACTORS
330
3B
102
}
330
3B
100
AcDbScale
 70
     0
300
6" = 1'-0"
140
6.0
141
12.0
290
     0
  0
SCALE
  5
5C
102
{ACAD_REACTORS
330
3B
102
}
330
3B
100
AcDbScale
 70
     0
300
1'-0" = 1'-0"
140
12.0
141
12.0
290
     0
  0
VISUALSTYLE
  5
2F
102
{ACAD_REACTORS
330
2A
102
}
330
2A
100
AcDbVisualStyle
  2
2dWireframe
 70
     4
 71
     0
 72
     2
 73
     0
 90
        0
 40
-0.6
 41
-30.0
 62
     5
 63
     7
 74
     1
 91
        4
 64
     7
 65
   257
 75
     1
175
     1
 42
1.0
 92
        0
 66
   257
 43
1.0
 76
     1
 77
     6
 78
     2
 67
     7
 79
     5
170
     0
171
     0
290
     0
174
     0
 93
        1
 44
0.0
173
     0
291
     0
 45
0.0
1001
ACAD
1000
AcDbSavedByObjectVersion
1070
     0
  0
VISUALSTYLE
  5
31
102
{ACAD_REACTORS
330
2A
102
}
330
2A
100
AcDbVisualStyle
  2
3D Hidden
 70
     6
 71
     1
 72
     2
 73
     2
 90
        0
 40
-0.6
 41
-30.0
 62
     5
 63
     7
 74
     2
 91
        2
 64
     7
 65
   257
 75
     2
175
     1
 42
40.0
 92
        0
 66
   257
 43
1.0
 76
     1
 77
     6
 78
     2
 67
     7
 79
     3
170
     0
171
     0
290
     0
174
     0
 93
        1
 44
0.0
173
     0
291
     0
 45
0.0
1001
ACAD
1000
AcDbSavedByObjectVersion
1070
     0
  0
VISUALSTYLE
  5
30
102
{ACAD_REACTORS
330
2A
102
}
330
2A
100
AcDbVisualStyle
  2
3dWireframe
 70
     5
 71
     0
 72
     2
 73
     0
 90
        0
 40
-0.6
 41
-30.0
 62
     5
 63
     7
 74
     1
 91
        4
 64
     7
 65
   257
 75
     1
175
     1
 42
1.0
 92
        0
 66
   257
 43
1.0
 76
     1
 77
     6
 78
     2
 67
     7
 79
     5
170
     0
171
     0
290
     0
174
     0
 93
        1
 44
0.0
173
     0
291
     0
 45
0.0
1001
ACAD
1000
AcDbSavedByObjectVersion
1070
     0
  0
VISUALSTYLE
  5
32
102
{ACAD_REACTORS
330
2A
102
}
330
2A
100
AcDbVisualStyle
  2
Basic
 70
     7
 71
     1
 72
     0
 73
     1
 90
        0
 40
-0.6
 41
-30.0
 62
     5
 63
     7
 74
     0
 91
        4
 64
     7
 65
   257
 75
     1
175
     1
 42
1.0
 92
        8
 66
     7
 43
1.0
 76
     1
 77
     6
 78
     2
 67
     7
 79
     5
170
     0
171
     0
290
     0
174
     0
 93
        1
 44
0.0
173
     0
291
     1
 45
0.0
1001
ACAD
1000
AcDbSavedByObjectVersion
1070
     0
  0
VISUALSTYLE
  5
36
102
{ACAD_REACTORS
330
2A
102
}
330
2A
100
AcDbVisualStyle
  2
Brighten
 70
    12
 71
     2
 72
     2
 73
     0
 90
        0
 40
-0.6
 41
-30.0
 62
     5
 63
     7
 74
     1
 91
        4
 64
     7
 65
   257
 75
     1
175
     1
 42
1.0
 92
        8
 66
     7
 43
1.0
 76
     1
 77
     6
 78
     2
 67
     7
 79
     5
170
     0
171
     0
290
     0
174
     0
 93
        1
 44
50.0
173
     0
291
     1
 45
0.0
1001
ACAD
1000
AcDbSavedByObjectVersion
1070
     0
  0
VISUALSTYLE
  5
3A
102
{ACAD_REACTORS
330
2A
102
}
330
2A
100
AcDbVisualStyle
  2
ColorChange
 70
    16
 71
     2
 72
     2
 73
     3
 90
        0
 40
-0.6
 41
-30.0
 62
     5
 63
     8
 74
     1
 91
        4
 64
     7
 65
   257
 75
     1
175
     1
 42
1.0
 92
        8
 66
     8
 43
1.0
 76
     1
 77
     6
 78
     2
 67
     7
 79
     5
170
     0
171
     0
290
     0
174
     0
 93
        1
 44
0.0
173
     0
291
     1
 45
0.0
1001
ACAD
1000
AcDbSavedByObjectVersion
1070
     0
  0
VISUALSTYLE
  5
34
102
{ACAD_REACTORS
330
2A
102
}
330
2A
100
AcDbVisualStyle
  2
Conceptual
 70
     9
 71
     3
 72
     2
 73
     0
 90
        0
 40
-0.6
 41
-30.0
 62
     5
 63
     7
 74
     2
 91
        2
 64
     7
 65
   257
 75
     1
175
     1
 42
40.0
 92
        8
 66
     7
 43
1.0
 76
     1
 77
     6
 78
     2
 67
     7
 79
     3
170
     0
171
     0
290
     0
174
     0
 93
        1
 44
0.0
173
     0
291
     0
 45
0.0
1001
ACAD
1000
AcDbSavedByObjectVersion
1070
     0
  0
VISUALSTYLE
  5
35
102
{ACAD_REACTORS
330
2A
102
}
330
2A
100
AcDbVisualStyle
  2
Dim
 70
    11
 71
     2
 72
     2
 73
     0
 90
        0
 40
-0.6
 41
-30.0
 62
     5
 63
     7
 74
     1
 91
        4
 64
     7
 65
   257
 75
     1
175
     1
 42
1.0
 92
        8
 66
     7
 43
1.0
 76
     1
 77
     6
 78
     2
 67
     7
 79
     5
170
     0
171
     0
290
     0
174
     0
 93
        1
 44
-50.0
173
     0
291
     1
 45
0.0
1001
ACAD
1000
AcDbSavedByObjectVersion
1070
     0
  0
VISUALSTYLE
  5
39
102
{ACAD_REACTORS
330
2A
102
}
330
2A
100
AcDbVisualStyle
  2
Facepattern
 70
    15
 71
     2
 72
     2
 73
     0
 90
        0
 40
-0.6
 41
-30.0
 62
     5
 63
     7
 74
     1
 91
        4
 64
     7
 65
   257
 75
     1
175
     1
 42
1.0
 92
        8
 66
     7
 43
1.0
 76
     1
 77
     6
 78
     2
 67
     7
 79
     5
170
     0
171
     0
290
     0
174
     0
 93
        1
 44
0.0
173
     0
291
     1
 45
0.0
1001
ACAD
1000
AcDbSavedByObjectVersion
1070
     0
  0
VISUALSTYLE
  5
2B
102
{ACAD_REACTORS
330
2A
102
}
330
2A
100
AcDbVisualStyle
  2
Flat
 70
     0
 71
     2
 72
     1
 73
     1
 90
        2
 40
-0.6
 41
30.0
 62
     5
 63
     7
 74
     0
 91
        4
 64
     7
 65
   257
 75
     1
175
     1
 42
1.0
 92
        8
 66
     7
 43
1.0
 76
     1
 77
     6
 78
     2
 67
     7
 79
     5
170
     0
171
     0
290
     0
174
     0
 93
       13
 44
0.0
173
     0
291
     1
 45
0.0
1001
ACAD
1000
AcDbSavedByObjectVersion
1070
     0
  0
VISUALSTYLE
  5
2C
102
{ACAD_REACTORS
330
2A
102
}
330
2A
100
AcDbVisualStyle
  2
FlatWithEdges
 70
     1
 71
     2
 72
     1
 73
     1
 90
        2
 40
-0.6
 41
30.0
 62
     5
 63
     7
 74
     1
 91
        4
 64
     7
 65
   257
 75
     1
175
     1
 42
1.0
 92
        0
 66
   257
 43
1.0
 76
     1
 77
     6
 78
     2
 67
     7
 79
     5
170
     0
171
     0
290
     0
174
     0
 93
       13
 44
0.0
173
     0
291
     1
 45
0.0
1001
ACAD
1000
AcDbSavedByObjectVersion
1070
     0
  0
VISUALSTYLE
  5
2D
102
{ACAD_REACTORS
330
2A
102
}
330
2A
100
AcDbVisualStyle
  2
Gouraud
 70
     2
 71
     2
 72
     2
 73
     1
 90
        2
 40
-0.6
 41
30.0
 62
     5
 63
     7
 74
     0
 91
        4
 64
     7
 65
   257
 75
     1
175
     1
 42
1.0
 92
        0
 66
     7
 43
1.0
 76
     1
 77
     6
 78
     2
 67
     7
 79
     5
170
     0
171
     0
290
     0
174
     0
 93
       13
 44
0.0
173
     0
291
     1
 45
0.0
1001
ACAD
1000
AcDbSavedByObjectVersion
1070
     0
  0
VISUALSTYLE
  5
2E
102
{ACAD_REACTORS
330
2A
102
}
330
2A
100
AcDbVisualStyle
  2
GouraudWithEdges
 70
     3
 71
     2
 72
     2
 73
     1
 90
        2
 40
-0.6
 41
30.0
 62
     5
 63
     7
 74
     1
 91
        4
 64
     7
 65
   257
 75
     1
175
     1
 42
1.0
 92
        0
 66
   257
 43
1.0
 76
     1
 77
     6
 78
     2
 67
     7
 79
     5
170
     0
171
     0
290
     0
174
     0
 93
       13
 44
0.0
173
     0
291
     1
 45
0.0
1001
ACAD
1000
AcDbSavedByObjectVersion
1070
     0
  0
VISUALSTYLE
  5
38
102
{ACAD_REACTORS
330
2A
102
}
330
2A
100
AcDbVisualStyle
  2
Linepattern
 70
    14
 71
     2
 72
     2
 73
     0
 90
        0
 40
-0.6
 41
-30.0
 62
     5
 63
     7
 74
     1
 91
        4
 64
     7
 65
   257
 75
     7
175
     7
 42
1.0
 92
        8
 66
     7
 43
1.0
 76
     1
 77
     6
 78
     2
 67
     7
 79
     5
170
     0
171
     0
290
     0
174
     0
 93
        1
 44
0.0
173
     0
291
     1
 45
0.0
1001
ACAD
1000
AcDbSavedByObjectVersion
1070
     0
  0
VISUALSTYLE
  5
33
102
{ACAD_REACTORS
330
2A
102
}
330
2A
100
AcDbVisualStyle
  2
Realistic
 70
     8
 71
     2
 72
     2
 73
     0
 90
        0
 40
-0.6
 41
-30.0
 62
     5
 63
     7
 74
     1
 91
        0
 64
     7
 65
   257
 75
     1
175
     1
 42
1.0
 92
        8
 66
     8
 43
1.0
 76
     1
 77
     6
 78
     2
 67
     7
 79
     5
170
     0
171
     0
290
     0
174
     0
 93
       13
 44
0.0
173
     0
291
     0
 45
0.0
1001
ACAD
1000
AcDbSavedByObjectVersion
1070
     0
  0
VISUALSTYLE
  5
37
102
{ACAD_REACTORS
330
2A
102
}
330
2A
100
AcDbVisualStyle
  2
Thicken
 70
    13
 71
     2
 72
     2
 73
     0
 90
        0
 40
-0.6
 41
-30.0
 62
     5
 63
     7
 74
     1
 91
        4
 64
     7
 65
   257
 75
     1
175
     1
 42
1.0
 92
       12
 66
     7
 43
1.0
 76
     1
 77
     6
 78
     2
 67
     7
 79
     5
170
     0
171
     0
290
     0
174
     0
 93
        1
 44
0.0
173
     0
291
     1
 45
0.0
1001
ACAD
1000
AcDbSavedByObjectVersion
1070
     0
  0
DICTIONARYVAR
  5
2CC
102
{ACAD_REACTORS
330
2CB
102
}
330
2CB
100
DictionaryVariables
280
     0
  1
1:1
  0
DICTIONARYVAR
  5
2D0
102
{ACAD_REACTORS
330
2CB
102
}
330
2CB
100
DictionaryVariables
280
     0
  1
80.000000
  0
DICTIONARYVAR
  5
2CF
102
{ACAD_REACTORS
330
2CB
102
}
330
2CB
100
DictionaryVariables
280
     0
  1
5.000000
  0
ENDSEC
  0
EOF
