  0
SECTION
  2
HEADER
  9
$ACADVER
  1
AC1015
  9
$ACADMAINTVER
 70
     6
  9
$DWGCODEPAGE
  3
ANSI_1252
  9
$INSBASE
 10
0.0
 20
0.0
 30
0.0
  9
$EXTMIN
 10
0.0
 20
0.0
 30
0.0
  9
$EXTMAX
 10
1682.0
 20
2378.0
 30
0.0
  9
$LIMMIN
 10
0.0
 20
0.0
  9
$LIMMAX
 10
1682.0
 20
2378.0
  9
$ORTHOMODE
 70
     0
  9
$REGENMODE
 70
     1
  9
$FILLMODE
 70
     1
  9
$QTEXTMODE
 70
     0
  9
$MIRRTEXT
 70
     1
  9
$LTSCALE
 40
1.0
  9
$ATTMODE
 70
     1
  9
$TEXTSIZE
 40
2.5
  9
$TRACEWID
 40
1.0
  9
$TEXTSTYLE
  7
Standard
  9
$CLAYER
  8
0
  9
$CELTYPE
  6
ByLayer
  9
$CECOLOR
 62
   256
  9
$CELTSCALE
 40
1.0
  9
$DISPSILH
 70
     0
  9
$DIMSCALE
 40
1.0
  9
$DIMASZ
 40
2.5
  9
$DIMEXO
 40
0.625
  9
$DIMDLI
 40
3.75
  9
$DIMRND
 40
0.0
  9
$DIMDLE
 40
0.0
  9
$DIMEXE
 40
1.25
  9
$DIMTP
 40
0.0
  9
$DIMTM
 40
0.0
  9
$DIMTXT
 40
2.5
  9
$DIMCEN
 40
2.5
  9
$DIMTSZ
 40
0.0
  9
$DIMTOL
 70
     0
  9
$DIMLIM
 70
     0
  9
$DIMTIH
 70
     0
  9
$DIMTOH
 70
     0
  9
$DIMSE1
 70
     0
  9
$DIMSE2
 70
     0
  9
$DIMTAD
 70
     1
  9
$DIMZIN
 70
     8
  9
$DIMBLK
  1

  9
$DIMASO
 70
     1
  9
$DIMSHO
 70
     1
  9
$DIMPOST
  1

  9
$DIMAPOST
  1

  9
$DIMALT
 70
     0
  9
$DIMALTD
 70
     3
  9
$DIMALTF
 40
0.0393700787
  9
$DIMLFAC
 40
1.0
  9
$DIMTOFL
 70
     1
  9
$DIMTVP
 40
0.0
  9
$DIMTIX
 70
     0
  9
$DIMSOXD
 70
     0
  9
$DIMSAH
 70
     0
  9
$DIMBLK1
  1

  9
$DIMBLK2
  1

  9
$DIMSTYLE
  2
ISO-25
  9
$DIMCLRD
 70
     0
  9
$DIMCLRE
 70
     0
  9
$DIMCLRT
 70
     0
  9
$DIMTFAC
 40
1.0
  9
$DIMGAP
 40
0.625
  9
$DIMJUST
 70
     0
  9
$DIMSD1
 70
     0
  9
$DIMSD2
 70
     0
  9
$DIMTOLJ
 70
     0
  9
$DIMTZIN
 70
     8
  9
$DIMALTZ
 70
     0
  9
$DIMALTTZ
 70
     0
  9
$DIMUPT
 70
     0
  9
$DIMDEC
 70
     2
  9
$DIMTDEC
 70
     2
  9
$DIMALTU
 70
     2
  9
$DIMALTTD
 70
     3
  9
$DIMTXSTY
  7
Standard
  9
$DIMAUNIT
 70
     0
  9
$DIMADEC
 70
     0
  9
$DIMALTRND
 40
0.0
  9
$DIMAZIN
 70
     0
  9
$DIMDSEP
 70
    44
  9
$DIMATFIT
 70
     3
  9
$DIMFRAC
 70
     0
  9
$DIMLDRBLK
  1

  9
$DIMLUNIT
 70
     2
  9
$DIMLWD
 70
    -2
  9
$DIMLWE
 70
    -2
  9
$DIMTMOVE
 70
     0
  9
$LUNITS
 70
     2
  9
$LUPREC
 70
     4
  9
$SKETCHINC
 40
1.0
  9
$FILLETRAD
 40
10.0
  9
$AUNITS
 70
     0
  9
$AUPREC
 70
     0
  9
$MENU
  1
.
  9
$ELEVATION
 40
0.0
  9
$PELEVATION
 40
0.0
  9
$THICKNESS
 40
0.0
  9
$LIMCHECK
 70
     0
  9
$CHAMFERA
 40
10.0
  9
$CHAMFERB
 40
10.0
  9
$CHAMFERC
 40
20.0
  9
$CHAMFERD
 40
0.0
  9
$SKPOLY
 70
     0
  9
$TDCREATE
 40
2455230.597189352
  9
$TDUCREATE
 40
2455230.555522685
  9
$TDUPDATE
 40
2455230.597189364
  9
$TDUUPDATE
 40
2455230.555522697
  9
$TDINDWG
 40
0.0000000116
  9
$TDUSRTIMER
 40
0.0000000116
  9
$USRTIMER
 70
     1
  9
$ANGBASE
 50
0.0
  9
$ANGDIR
 70
     0
  9
$PDMODE
 70
     0
  9
$PDSIZE
 40
0.0
  9
$PLINEWID
 40
0.0
  9
$SPLFRAME
 70
     0
  9
$SPLINETYPE
 70
     6
  9
$SPLINESEGS
 70
     8
  9
$HANDSEED
  5
1BA
  9
$SURFTAB1
 70
     6
  9
$SURFTAB2
 70
     6
  9
$SURFTYPE
 70
     6
  9
$SURFU
 70
     6
  9
$SURFV
 70
     6
  9
$UCSBASE
  2

  9
$UCSNAME
  2

  9
$UCSORG
 10
0.0
 20
0.0
 30
0.0
  9
$UCSXDIR
 10
1.0
 20
0.0
 30
0.0
  9
$UCSYDIR
 10
0.0
 20
1.0
 30
0.0
  9
$UCSORTHOREF
  2

  9
$UCSORTHOVIEW
 70
     0
  9
$UCSORGTOP
 10
0.0
 20
0.0
 30
0.0
  9
$UCSORGBOTTOM
 10
0.0
 20
0.0
 30
0.0
  9
$UCSORGLEFT
 10
0.0
 20
0.0
 30
0.0
  9
$UCSORGRIGHT
 10
0.0
 20
0.0
 30
0.0
  9
$UCSORGFRONT
 10
0.0
 20
0.0
 30
0.0
  9
$UCSORGBACK
 10
0.0
 20
0.0
 30
0.0
  9
$PUCSBASE
  2

  9
$PUCSNAME
  2

  9
$PUCSORG
 10
0.0
 20
0.0
 30
0.0
  9
$PUCSXDIR
 10
1.0
 20
0.0
 30
0.0
  9
$PUCSYDIR
 10
0.0
 20
1.0
 30
0.0
  9
$PUCSORTHOREF
  2

  9
$PUCSORTHOVIEW
 70
     0
  9
$PUCSORGTOP
 10
0.0
 20
0.0
 30
0.0
  9
$PUCSORGBOTTOM
 10
0.0
 20
0.0
 30
0.0
  9
$PUCSORGLEFT
 10
0.0
 20
0.0
 30
0.0
  9
$PUCSORGRIGHT
 10
0.0
 20
0.0
 30
0.0
  9
$PUCSORGFRONT
 10
0.0
 20
0.0
 30
0.0
  9
$PUCSORGBACK
 10
0.0
 20
0.0
 30
0.0
  9
$USERI1
 70
     0
  9
$USERI2
 70
     0
  9
$USERI3
 70
     0
  9
$USERI4
 70
     0
  9
$USERI5
 70
     0
  9
$USERR1
 40
0.0
  9
$USERR2
 40
0.0
  9
$USERR3
 40
0.0
  9
$USERR4
 40
0.0
  9
$USERR5
 40
0.0
  9
$WORLDVIEW
 70
     1
  9
$SHADEDGE
 70
     3
  9
$SHADEDIF
 70
    70
  9
$TILEMODE
 70
     1
  9
$MAXACTVP
 70
    64
  9
$PINSBASE
 10
0.0
 20
0.0
 30
0.0
  9
$PLIMCHECK
 70
     0
  9
$PEXTMIN
 10
0.0
 20
0.0
 30
0.0
  9
$PEXTMAX
 10
1682.0
 20
2378.0
 30
0.0
  9
$PLIMMIN
 10
0.0
 20
0.0
  9
$PLIMMAX
 10
1682.0
 20
2378.0
  9
$UNITMODE
 70
     0
  9
$VISRETAIN
 70
     1
  9
$PLINEGEN
 70
     0
  9
$PSLTSCALE
 70
     1
  9
$TREEDEPTH
 70
  3020
  9
$CMLSTYLE
  2
Standard
  9
$CMLJUST
 70
     0
  9
$CMLSCALE
 40
20.0
  9
$PROXYGRAPHICS
 70
     1
  9
$MEASUREMENT
 70
     1
  9
$CELWEIGHT
370
    -1
  9
$ENDCAPS
280
     0
  9
$JOINSTYLE
280
     0
  9
$LWDISPLAY
290
     0
  9
$INSUNITS
 70
     4
  9
$HYPERLINKBASE
  1

  9
$STYLESHEET
  1

  9
$XEDIT
290
     1
  9
$CEPSNTYPE
380
     0
  9
$PSTYLEMODE
290
     1
  9
$FINGERPRINTGUID
  2
{DBC418BC-B7B9-47FA-B9A4-82812DFB553A}
  9
$VERSIONGUID
  2
{FAEB1C32-E019-11D5-929B-00C0DF256EC4}
  9
$EXTNAMES
290
     1
  9
$PSVPSCALE
 40
0.0
  9
$OLESTARTUP
290
     0
  0
ENDSEC
  0
SECTION
  2
CLASSES
  0
CLASS
  1
ACDBDICTIONARYWDFLT
  2
AcDbDictionaryWithDefault
  3
ObjectDBX Classes
 90
        0
280
     0
281
     0
  0
CLASS
  1
VISUALSTYLE
  2
AcDbVisualStyle
  3
ObjectDBX Classes
 90
     4095
280
     0
281
     0
  0
CLASS
  1
SCALE
  2
AcDbScale
  3
ObjectDBX Classes
 90
     1153
280
     0
281
     0
  0
CLASS
  1
DICTIONARYVAR
  2
AcDbDictionaryVar
  3
ObjectDBX Classes
 90
        0
280
     0
281
     0
  0
CLASS
  1
ACDBPLACEHOLDER
  2
AcDbPlaceHolder
  3
ObjectDBX Classes
 90
        0
280
     0
281
     0
  0
CLASS
  1
LAYOUT
  2
AcDbLayout
  3
ObjectDBX Classes
 90
        0
280
     0
281
     0
  0
ENDSEC
  0
SECTION
  2
TABLES
  0
TABLE
  2
VPORT
  5
8
330
0
100
AcDbSymbolTable
 70
     1
  0
VPORT
  5
29
330
8
100
AcDbSymbolTableRecord
100
AcDbViewportTableRecord
  2
*Active
 70
     0
 10
0.0
 20
0.0
 11
1.0
 21
1.0
 12
344.1869158879
 22
148.5
 13
0.0
 23
0.0
 14
10.0
 24
10.0
 15
10.0
 25
10.0
 16
0.0
 26
0.0
 36
1.0
 17
0.0
 27
0.0
 37
0.0
 40
297.0
 41
1.9729729729
 42
50.0
 43
0.0
 44
0.0
 50
0.0
 51
0.0
 71
     0
 72
   100
 73
     1
 74
     3
 75
     0
 76
     0
 77
     0
 78
     0
281
     0
 65
     1
110
0.0
120
0.0
130
0.0
111
1.0
121
0.0
131
0.0
112
0.0
122
1.0
132
0.0
 79
     0
146
0.0
  0
ENDTAB
  0
TABLE
  2
LTYPE
  5
5
330
0
100
AcDbSymbolTable
 70
     2
  0
LTYPE
  5
14
330
5
100
AcDbSymbolTableRecord
100
AcDbLinetypeTableRecord
  2
ByBlock
 70
     0
  3

 72
    65
 73
     0
 40
0.0
  0
LTYPE
  5
15
330
5
100
AcDbSymbolTableRecord
100
AcDbLinetypeTableRecord
  2
ByLayer
 70
     0
  3

 72
    65
 73
     0
 40
0.0
  0
LTYPE
  5
16
330
5
100
AcDbSymbolTableRecord
100
AcDbLinetypeTableRecord
  2
Continuous
 70
     0
  3
Solid line
 72
    65
 73
     0
 40
0.0
  0
LTYPE
  5
E2
330
5
100
AcDbSymbolTableRecord
100
AcDbLinetypeTableRecord
  2
CENTER2
 70
     0
  3
Center (.5x) ___ _ ___ _ ___ _ ___ _ ___ _ ___
 72
    65
 73
     4
 40
28.575
 49
19.05
 74
     4
 75
     0
340
0
 46
0.0
 50
0.0
 44
0.0
 45
0.0
 49
-3.175
 74
     4
 75
     0
340
0
 46
0.0
 50
0.0
 44
0.0
 45
0.0
 49
3.175
 74
     4
 75
     0
340
0
 46
0.0
 50
0.0
 44
0.0
 45
0.0
 49
-3.175
 74
     4
 75
     0
340
0
 46
0.0
 50
0.0
 44
0.0
 45
0.0
  0
ENDTAB
  0
TABLE
  2
LAYER
  5
2
330
0
100
AcDbSymbolTable
 70
    18
  0
LAYER
  5
10
330
2
100
AcDbSymbolTableRecord
100
AcDbLayerTableRecord
  2
0
 70
     0
 62
     7
  6
Continuous
370
    -3
390
F
  0
LAYER
  5
5D
330
2
100
AcDbSymbolTableRecord
100
AcDbLayerTableRecord
  2
Default
 70
     0
 62
     7
  6
Continuous
370
    -3
390
F
  0
LAYER
  5
60
330
2
100
AcDbSymbolTableRecord
100
AcDbLayerTableRecord
  2
$DDT_AUDIT_GENERATED_(60)
 70
     0
 62
     7
  6
Continuous
370
    -3
390
F
  0
LAYER
  5
64
330
2
100
AcDbSymbolTableRecord
100
AcDbLayerTableRecord
  2
$DDT_AUDIT_GENERATED_(64)
 70
     0
 62
     7
  6
Continuous
370
    -3
390
F
  0
LAYER
  5
70
330
2
100
AcDbSymbolTableRecord
100
AcDbLayerTableRecord
  2
$DDT_AUDIT_GENERATED_(70)
 70
     0
 62
     7
  6
Continuous
370
    -3
390
F
  0
LAYER
  5
73
330
2
100
AcDbSymbolTableRecord
100
AcDbLayerTableRecord
  2
$DDT_AUDIT_GENERATED_(73)
 70
     0
 62
     7
  6
Continuous
370
    -3
390
F
  0
LAYER
  5
85
330
2
100
AcDbSymbolTableRecord
100
AcDbLayerTableRecord
  2
02636038_GEHÄUSE
 70
     0
 62
     7
  6
Continuous
370
    -3
390
F
  0
LAYER
  5
94
330
2
100
AcDbSymbolTableRecord
100
AcDbLayerTableRecord
  2
$DDT_AUDIT_GENERATED_(94)
 70
     0
 62
     7
  6
Continuous
370
    -3
390
F
  0
LAYER
  5
99
330
2
100
AcDbSymbolTableRecord
100
AcDbLayerTableRecord
  2
$DDT_AUDIT_GENERATED_(99)
 70
     0
 62
     7
  6
Continuous
370
    -3
390
F
  0
LAYER
  5
A7
330
2
100
AcDbSymbolTableRecord
100
AcDbLayerTableRecord
  2
$DDT_AUDIT_GENERATED_(A7)
 70
     0
 62
     7
  6
Continuous
370
    -3
390
F
  0
LAYER
  5
B7
330
2
100
AcDbSymbolTableRecord
100
AcDbLayerTableRecord
  2
$DDT_AUDIT_GENERATED_(B7)
 70
     0
 62
     7
  6
Continuous
370
    -3
390
F
  0
LAYER
  5
BE
330
2
100
AcDbSymbolTableRecord
100
AcDbLayerTableRecord
  2
$DDT_AUDIT_GENERATED_(BE)
 70
     0
 62
     7
  6
Continuous
370
    -3
390
F
  0
LAYER
  5
D1
330
2
100
AcDbSymbolTableRecord
100
AcDbLayerTableRecord
  2
$DDT_AUDIT_GENERATED_(D1)
 70
     0
 62
     7
  6
Continuous
370
    -3
390
F
  0
LAYER
  5
D4
330
2
100
AcDbSymbolTableRecord
100
AcDbLayerTableRecord
  2
$DDT_AUDIT_GENERATED_(D4)
 70
     0
 62
     7
  6
Continuous
370
    -3
390
F
  0
LAYER
  5
DE
330
2
100
AcDbSymbolTableRecord
100
AcDbLayerTableRecord
  2
DV1_Standard
 70
     0
 62
     7
  6
Continuous
370
    -3
390
F
  0
LAYER
  5
125
330
2
100
AcDbSymbolTableRecord
100
AcDbLayerTableRecord
  2
$DDT_AUDIT_GENERATED_(125)
 70
     0
 62
     7
  6
Continuous
370
    -3
390
F
  0
LAYER
  5
153
330
2
100
AcDbSymbolTableRecord
100
AcDbLayerTableRecord
  2
DV2_Standard
 70
     0
 62
     7
  6
Continuous
370
    -3
390
F
  0
LAYER
  5
193
330
2
100
AcDbSymbolTableRecord
100
AcDbLayerTableRecord
  2
DV3_Standard
 70
     0
 62
     7
  6
Continuous
370
    -3
390
F
  0
ENDTAB
  0
TABLE
  2
STYLE
  5
3
330
0
100
AcDbSymbolTable
 70
     2
  0
STYLE
  5
11
330
3
100
AcDbSymbolTableRecord
100
AcDbTextStyleTableRecord
  2
Standard
 70
     0
 40
0.0
 41
1.0
 50
0.0
 71
     0
 42
2.5
  3
txt
  4

  0
STYLE
  5
1A9
330
3
100
AcDbSymbolTableRecord
100
AcDbTextStyleTableRecord
  2
SEACAD_seiso_ttf
 70
     0
 40
0.0
 41
1.0
 50
0.0
 71
     0
 42
0.2
  3
seiso.ttf
  4

  0
ENDTAB
  0
TABLE
  2
VIEW
  5
6
330
0
100
AcDbSymbolTable
 70
     0
  0
ENDTAB
  0
TABLE
  2
UCS
  5
7
330
0
100
AcDbSymbolTable
 70
     0
  0
ENDTAB
  0
TABLE
  2
APPID
  5
9
330
0
100
AcDbSymbolTable
 70
     1
  0
APPID
  5
12
330
9
100
AcDbSymbolTableRecord
100
AcDbRegAppTableRecord
  2
ACAD
 70
     0
  0
ENDTAB
  0
TABLE
  2
DIMSTYLE
  5
A
330
0
100
AcDbSymbolTable
 70
     1
100
AcDbDimStyleTable
  0
DIMSTYLE
105
27
330
A
100
AcDbSymbolTableRecord
100
AcDbDimStyleTableRecord
  2
ISO-25
 70
     0
 41
2.5
 42
0.625
 43
3.75
 44
1.25
 73
     0
 74
     0
 77
     1
 78
     8
140
2.5
141
2.5
143
0.0393700787
147
0.625
171
     3
172
     1
271
     2
272
     2
274
     3
278
    44
283
     0
284
     8
340
11
  0
ENDTAB
  0
TABLE
  2
BLOCK_RECORD
  5
1
330
0
100
AcDbSymbolTable
 70
     4
  0
BLOCK_RECORD
  5
1F
330
1
100
AcDbSymbolTableRecord
100
AcDbBlockTableRecord
  2
*Model_Space
340
22
  0
BLOCK_RECORD
  5
1B
330
1
100
AcDbSymbolTableRecord
100
AcDbBlockTableRecord
  2
*Paper_Space
340
1E
  0
BLOCK_RECORD
  5
5E
330
1
100
AcDbSymbolTableRecord
100
AcDbBlockTableRecord
  2
SE
340
0
102
{BLKREFS
331
5F
102
}
  0
BLOCK_RECORD
  5
EB
330
1
100
AcDbSymbolTableRecord
100
AcDbBlockTableRecord
  2
SE1
340
0
102
{BLKREFS
331
EC
102
}
  0
BLOCK_RECORD
  5
158
330
1
100
AcDbSymbolTableRecord
100
AcDbBlockTableRecord
  2
SE2
340
0
102
{BLKREFS
331
159
102
}
  0
ENDTAB
  0
ENDSEC
  0
SECTION
  2
BLOCKS
  0
BLOCK
  5
20
330
1F
100
AcDbEntity
  8
0
100
AcDbBlockBegin
  2
*Model_Space
 70
     0
 10
0.0
 20
0.0
 30
0.0
  3
*Model_Space
  1

  0
ENDBLK
  5
21
330
1F
100
AcDbEntity
  8
0
100
AcDbBlockEnd
  0
BLOCK
  5
1C
330
1B
100
AcDbEntity
 67
     1
  8
0
100
AcDbBlockBegin
  2
*Paper_Space
 70
     0
 10
0.0
 20
0.0
 30
0.0
  3
*Paper_Space
  1

  0
ENDBLK
  5
1D
330
1B
100
AcDbEntity
 67
     1
  8
0
100
AcDbBlockEnd
  0
BLOCK
  5
E9
330
5E
100
AcDbEntity
  8
0
100
AcDbBlockBegin
  2
SE
 70
     0
 10
0.0
 20
0.0
 30
0.0
  3
SE
  1

  0
SPLINE
  5
61
330
5E
100
AcDbEntity
  8
$DDT_AUDIT_GENERATED_(60)
  6
Continuous
 62
     7
100
AcDbSpline
210
0.0
220
0.0
230
1.0
 70
     8
 71
     3
 72
    38
 73
    34
 74
     0
 42
0.0000000001196349
 43
0.0000000001
 40
0.2500863922480495
 40
0.2500863922480495
 40
0.2500863922480495
 40
0.2500863922480495
 40
0.2812500000000004
 40
0.2812500000000004
 40
0.3125000000000005
 40
0.3125000000000005
 40
0.3437500000000006
 40
0.3437500000000006
 40
0.3750000000000006
 40
0.3750000000000006
 40
0.4062500000000006
 40
0.4062500000000006
 40
0.4375000000000006
 40
0.4375000000000006
 40
0.4687500000000006
 40
0.4687500000000006
 40
0.5000000000000006
 40
0.5000000000000006
 40
0.5312500000000006
 40
0.5312500000000006
 40
0.5625000000000007
 40
0.5625000000000007
 40
0.6250000000000007
 40
0.6250000000000007
 40
0.6562500000000006
 40
0.6562500000000006
 40
0.6875000000000006
 40
0.6875000000000006
 40
0.7187500000000004
 40
0.7187500000000004
 40
0.7500000000000004
 40
0.7500000000000004
 40
0.7501602238572926
 40
0.7501602238572926
 40
0.7501602238572926
 40
0.7501602238572926
 10
151.5986106717942
 20
699.1320281766325
 30
0.0
 10
151.5986406018752
 20
699.1320281750906
 30
0.0
 10
151.7342351155022
 20
699.1319254842367
 30
0.0
 10
152.2665713797736
 20
699.1317293241693
 30
0.0
 10
152.6610011310295
 20
699.1316364635801
 30
0.0
 10
153.7070712941301
 20
699.1315608523165
 30
0.0
 10
154.3614342206966
 20
699.1315787225096
 30
0.0
 10
155.8741018649744
 20
699.1317212686723
 30
0.0
 10
156.7376173474408
 20
699.1318447475428
 30
0.0
 10
158.6873725830957
 20
699.132125629524
 30
0.0
 10
159.7451964355899
 20
699.1322789598453
 30
0.0
 10
162.0083434373065
 20
699.1324699926026
 30
0.0
 10
163.2292805357419
 20
699.132480207318
 30
0.0
 10
165.7620200201393
 20
699.1323658214659
 30
0.0
 10
167.0647868943394
 20
699.1322584045037
 30
0.0
 10
169.7422144026218
 20
699.1320879479288
 30
0.0
 10
171.1272927064202
 20
699.1320280212809
 30
0.0
 10
173.8551526673291
 20
699.1320276358939
 30
0.0
 10
175.210685989567
 20
699.1320855451509
 30
0.0
 10
177.9046179126346
 20
699.1322562257444
 30
0.0
 10
179.2262344090723
 20
699.1323649608357
 30
0.0
 10
183.000029348844
 20
699.1325367539368
 30
0.0
 10
185.3338930204193
 20
699.1322661633187
 30
0.0
 10
188.2272435474254
 20
699.1318494401047
 30
0.0
 10
189.1103976179956
 20
699.1317227805598
 30
0.0
 10
190.6307101636175
 20
699.1315788915136
 30
0.0
 10
191.273431483524
 20
699.1315607887051
 30
0.0
 10
192.3235087288578
 20
699.1316344316635
 30
0.0
 10
192.7274455136298
 20
699.1317285132847
 30
0.0
 10
193.2608356926264
 20
699.1319243261743
 30
0.0
 10
193.3971928549188
 20
699.1320270612472
 30
0.0
 10
193.398606924394
 20
699.1320281736957
 30
0.0
 10
193.398610562809
 20
699.1320281766494
 30
0.0
 10
193.3986106273144
 20
699.1320281768966
 30
0.0
  0
LINE
  5
62
330
5E
100
AcDbEntity
  8
$DDT_AUDIT_GENERATED_(60)
  6
Continuous
 62
     7
100
AcDbLine
 10
151.6720704204
 20
699.1020469064
 30
0.0
 11
147.8505249562
 21
698.2460774532
 31
0.0
  0
LINE
  5
63
330
5E
100
AcDbEntity
  8
$DDT_AUDIT_GENERATED_(60)
  6
Continuous
 62
     7
100
AcDbLine
 10
197.1471704286
 20
698.2484032835
 30
0.0
 11
193.3786510417
 21
699.1240053315
 31
0.0
  0
LINE
  5
65
330
5E
100
AcDbEntity
  8
$DDT_AUDIT_GENERATED_(64)
  6
Continuous
 62
     7
100
AcDbLine
 10
302.4985936147
 20
696.3782284866
 30
0.0
 11
242.4985371611
 21
696.3782284866
 31
0.0
  0
SPLINE
  5
66
330
5E
100
AcDbEntity
  8
$DDT_AUDIT_GENERATED_(64)
  6
Continuous
 62
     7
100
AcDbSpline
210
0.0
220
0.0
230
1.0
 70
     8
 71
     3
 72
    11
 73
     7
 74
     0
 42
0.0000000063198503
 43
0.0000000001
 40
0.0
 40
0.0
 40
0.0
 40
0.0
 40
0.1294353618362325
 40
0.2550301133060676
 40
0.4999999999999964
 40
0.5801022184547462
 40
0.5801022184547462
 40
0.5801022184547462
 40
0.5801022184547462
 10
302.498587748051
 20
696.378228486593
 30
0.0
 10
302.4949067385197
 20
696.4524078655264
 30
0.0
 10
302.4868334101264
 20
696.5763193319038
 30
0.0
 10
302.4067623115351
 20
696.8312648435425
 30
0.0
 10
302.2723763033647
 20
697.0301106904476
 30
0.0
 10
302.1445922017031
 20
697.1426912373977
 30
0.0
 10
302.1114550042342
 20
697.1683903277002
 30
0.0
  0
SPLINE
  5
67
330
5E
100
AcDbEntity
  8
$DDT_AUDIT_GENERATED_(64)
  6
Continuous
 62
     7
100
AcDbSpline
210
0.0
220
0.0
230
1.0
 70
     8
 71
     3
 72
    11
 73
     7
 74
     0
 42
0.0000000063198501
 43
0.0000000001
 40
0.4198967062629442
 40
0.4198967062629442
 40
0.4198967062629442
 40
0.4198967062629442
 40
0.5000000085273743
 40
0.7449698927901937
 40
0.8705646415203876
 40
1.0
 40
1.0
 40
1.0
 40
1.0
 10
242.8857205110105
 20
697.1683913705967
 30
0.0
 10
242.8525828190415
 20
697.1426919880051
 30
0.0
 10
242.7247981831802
 20
697.0301111698202
 30
0.0
 10
242.5904118440391
 20
696.8312648452998
 30
0.0
 10
242.5103407406082
 20
696.5763193323082
 30
0.0
 10
242.5022674117613
 20
696.4524078655552
 30
0.0
 10
242.4985864020113
 20
696.378228486593
 30
0.0
  0
LINE
  5
68
330
5E
100
AcDbEntity
  8
$DDT_AUDIT_GENERATED_(64)
  6
Continuous
 62
     7
100
AcDbLine
 10
242.4985371611
 20
696.3832284866
 30
0.0
 11
242.4985371611
 21
691.6782285015
 31
0.0
  0
LINE
  5
69
330
5E
100
AcDbEntity
  8
$DDT_AUDIT_GENERATED_(64)
  6
Continuous
 62
     7
100
AcDbLine
 10
302.4985936147
 20
691.6782285015
 30
0.0
 11
302.4985936147
 21
696.3832284866
 31
0.0
  0
LINE
  5
6A
330
5E
100
AcDbEntity
  8
$DDT_AUDIT_GENERATED_(64)
  6
Continuous
 62
     7
100
AcDbLine
 10
101.4985845715
 20
697.3782285015
 30
0.0
 11
43.4985820148
 21
697.3782285015
 31
0.0
  0
LINE
  5
6B
330
5E
100
AcDbEntity
  8
$DDT_AUDIT_GENERATED_(64)
  6
Continuous
 62
     7
100
AcDbLine
 10
42.4985779204
 20
691.6782285015
 30
0.0
 11
102.498634374
 21
691.6782285015
 31
0.0
  0
SPLINE
  5
6C
330
5E
100
AcDbEntity
  8
$DDT_AUDIT_GENERATED_(64)
  6
Continuous
 62
     7
100
AcDbSpline
210
0.0
220
0.0
230
1.0
 70
     8
 71
     3
 72
    13
 73
     9
 74
     0
 42
0.0000000063014675
 43
0.0000000001
 40
0.0
 40
0.0
 40
0.0
 40
0.0
 40
0.1294353584734628
 40
0.2550301071986517
 40
0.4999999914570863
 40
0.7449698805865091
 40
0.8705646348009926
 40
1.0
 40
1.0
 40
1.0
 40
1.0
 10
102.498584639383
 20
696.3782284865931
 30
0.0
 10
102.4949036296326
 20
696.4524078655553
 30
0.0
 10
102.4868303007848
 20
696.576319332309
 30
0.0
 10
102.4067591973449
 20
696.831264845303
 30
0.0
 10
102.2232106806193
 20
697.1028545630617
 30
0.0
 10
101.9516209506669
 20
697.2864030656311
 30
0.0
 10
101.6966754268645
 20
697.36647416362
 30
0.0
 10
101.5727639542926
 20
697.3745474919868
 30
0.0
 10
101.4985845714545
 20
697.3782285014942
 30
0.0
  0
SPLINE
  5
6D
330
5E
100
AcDbEntity
  8
$DDT_AUDIT_GENERATED_(64)
  6
Continuous
 62
     7
100
AcDbSpline
210
0.0
220
0.0
230
1.0
 70
     8
 71
     3
 72
    13
 73
     9
 74
     0
 42
0.0000000063014675
 43
0.0000000001
 40
0.0
 40
0.0
 40
0.0
 40
0.0
 40
0.1294353651991197
 40
0.2550301194136515
 40
0.500000008543031
 40
0.7449698928013845
 40
0.8705646415265493
 40
1.0
 40
1.0
 40
1.0
 40
1.0
 10
43.49858201480217
 20
697.3782285014942
 30
0.0
 10
43.42440263196396
 20
697.3745474919868
 30
0.0
 10
43.30049115939208
 20
697.36647416362
 30
0.0
 10
43.04554563558949
 20
697.2864030656311
 30
0.0
 10
42.7739559056371
 20
697.1028545630617
 30
0.0
 10
42.59040738891157
 20
696.831264845303
 30
0.0
 10
42.51033628547185
 20
696.576319332309
 30
0.0
 10
42.50226295662407
 20
696.4524078655553
 30
0.0
 10
42.49858194687367
 20
696.3782284865931
 30
0.0
  0
LINE
  5
6E
330
5E
100
AcDbEntity
  8
$DDT_AUDIT_GENERATED_(64)
  6
Continuous
 62
     7
100
AcDbLine
 10
42.4985779204
 20
696.3832284866
 30
0.0
 11
42.4985779204
 21
691.6782285015
 31
0.0
  0
LINE
  5
6F
330
5E
100
AcDbEntity
  8
$DDT_AUDIT_GENERATED_(64)
  6
Continuous
 62
     7
100
AcDbLine
 10
102.498634374
 20
691.6782285015
 30
0.0
 11
102.498634374
 21
696.3832284866
 31
0.0
  0
LINE
  5
71
330
5E
100
AcDbEntity
  8
$DDT_AUDIT_GENERATED_(70)
  6
Continuous
 62
     7
100
AcDbLine
 10
51.6585095491
 20
698.3225073591
 30
0.0
 11
47.8505819023
 21
697.4694127842
 31
0.0
  0
LINE
  5
72
330
5E
100
AcDbEntity
  8
$DDT_AUDIT_GENERATED_(70)
  6
Continuous
 62
     7
100
AcDbLine
 10
97.1470675376
 20
697.4717507972
 30
0.0
 11
93.3459706184
 21
698.3552353071
 31
0.0
  0
SPLINE
  5
74
330
5E
100
AcDbEntity
  8
$DDT_AUDIT_GENERATED_(73)
  6
Continuous
 62
     7
100
AcDbSpline
210
0.0
220
0.0
230
1.0
 70
     8
 71
     5
 72
    12
 73
     6
 74
     0
 42
0.000000002536328
 43
0.0000000001
 40
0.0
 40
0.0
 40
0.0
 40
0.0
 40
0.0
 40
0.0
 40
1.0
 40
1.0
 40
1.0
 40
1.0
 40
1.0
 40
1.0
 10
82.89679041725846
 20
721.0382938521091
 30
0.0
 10
83.38127106506501
 20
721.0382938521091
 30
0.0
 10
84.132714450585
 20
721.0382938521091
 30
0.0
 10
84.833379893079
 20
721.0382938521091
 30
0.0
 10
85.577819457906
 20
720.5342961045891
 30
0.0
 10
86.49389409651101
 20
719.9125932757651
 30
0.0
  0
LINE
  5
75
330
5E
100
AcDbEntity
  8
$DDT_AUDIT_GENERATED_(73)
  6
Continuous
 62
     7
100
AcDbLine
 10
72.4986178922
 20
719.9125932758
 30
0.0
 11
86.4938940965
 21
719.9125932758
 31
0.0
  0
LINE
  5
76
330
5E
100
AcDbEntity
  8
$DDT_AUDIT_GENERATED_(73)
  6
Continuous
 62
     7
100
AcDbLine
 10
72.4986178922
 20
719.9125932758
 30
0.0
 11
20.3452762043
 21
719.9125932758
 31
0.0
  0
SPLINE
  5
77
330
5E
100
AcDbEntity
  8
$DDT_AUDIT_GENERATED_(73)
  6
Continuous
 62
     7
100
AcDbSpline
210
0.0
220
0.0
230
1.0
 70
     8
 71
     7
 72
    16
 73
     8
 74
     0
 42
0.0000000005620664
 43
0.0000000001
 40
0.0
 40
0.0
 40
0.0
 40
0.0
 40
0.0
 40
0.0
 40
0.0
 40
0.0
 40
1.0
 40
1.0
 40
1.0
 40
1.0
 40
1.0
 40
1.0
 40
1.0
 40
1.0
 10
6.349999999999994
 20
719.9125932757651
 30
0.0
 10
6.349999999999994
 20
718.7676253998932
 30
0.0
 10
6.349999999999994
 20
716.3368284270431
 30
0.0
 10
10.13961893548401
 20
715.177096132321
 30
0.0
 10
11.05168130696901
 20
714.8979788371481
 30
0.0
 10
15.68018413622299
 20
714.678224399424
 30
0.0
 10
18.345951032287
 20
714.678224399424
 30
0.0
 10
20.34527620433499
 20
714.678224399424
 30
0.0
  0
LINE
  5
78
330
5E
100
AcDbEntity
  8
$DDT_AUDIT_GENERATED_(73)
  6
Continuous
 62
     7
100
AcDbLine
 10
82.8967904173
 20
721.0382938521
 30
0.0
 11
72.4986178183
 21
721.0382938521
 31
0.0
  0
LINE
  5
79
330
5E
100
AcDbEntity
  8
$DDT_AUDIT_GENERATED_(73)
  6
Continuous
 62
     7
100
AcDbLine
 10
6.35
 20
719.9125932758
 30
0.0
 11
20.3452762043
 21
719.9125932758
 31
0.0
  0
LINE
  5
7A
330
5E
100
AcDbEntity
  8
$DDT_AUDIT_GENERATED_(73)
  6
Continuous
 62
     7
100
AcDbLine
 10
72.4986178183
 20
721.0382938521
 30
0.0
 11
20.3452762745
 21
721.0382938521
 31
0.0
  0
SPLINE
  5
7B
330
5E
100
AcDbEntity
  8
$DDT_AUDIT_GENERATED_(73)
  6
Continuous
 62
     7
100
AcDbSpline
210
0.0
220
0.0
230
1.0
 70
     8
 71
     5
 72
    12
 73
     6
 74
     0
 42
0.000000002536328
 43
0.0000000001
 40
0.0
 40
0.0
 40
0.0
 40
0.0
 40
0.0
 40
0.0
 40
1.0
 40
1.0
 40
1.0
 40
1.0
 40
1.0
 40
1.0
 10
6.349999999999994
 20
719.9125932757651
 30
0.0
 10
7.266074638605014
 20
720.5342961045891
 30
0.0
 10
8.01051420343199
 20
721.0382938521091
 30
0.0
 10
8.71117964592702
 20
721.0382938521091
 30
0.0
 10
9.462623031446988
 20
721.0382938521091
 30
0.0
 10
9.9471036792525
 20
721.0382938521091
 30
0.0
  0
LINE
  5
7C
330
5E
100
AcDbEntity
  8
$DDT_AUDIT_GENERATED_(73)
  6
Continuous
 62
     7
100
AcDbLine
 10
20.3452762756
 20
721.0382938521
 30
0.0
 11
9.9471036793
 21
721.0382938521
 31
0.0
  0
SPLINE
  5
7D
330
5E
100
AcDbEntity
  8
$DDT_AUDIT_GENERATED_(73)
  6
Continuous
 62
     7
100
AcDbSpline
210
0.0
220
0.0
230
1.0
 70
     8
 71
     7
 72
    16
 73
     8
 74
     0
 42
0.0000000010390712
 43
0.0000000001
 40
0.0
 40
0.0
 40
0.0
 40
0.0
 40
0.0
 40
0.0
 40
0.0
 40
0.0
 40
1.0
 40
1.0
 40
1.0
 40
1.0
 40
1.0
 40
1.0
 40
1.0
 40
1.0
 10
79.68818751318832
 20
715.0037010393821
 30
0.0
 10
81.43561101527338
 20
715.2294581374297
 30
0.0
 10
83.06345679251156
 20
715.5860644430535
 30
0.0
 10
84.45835519799178
 20
716.1315796331036
 30
0.0
 10
85.60926433703256
 20
716.932043886671
 30
0.0
 10
86.49389409651101
 20
718.015132234548
 30
0.0
 10
86.49389409651101
 20
719.2076048779403
 30
0.0
 10
86.49389409651101
 20
719.9125932757651
 30
0.0
  0
LINE
  5
7E
330
5E
100
AcDbEntity
  8
$DDT_AUDIT_GENERATED_(73)
  6
Continuous
 62
     7
100
AcDbLine
 10
72.4986178922
 20
715.0037054196
 30
0.0
 11
79.6881875132
 21
715.0037010394
 31
0.0
  0
LINE
  5
7F
330
5E
100
AcDbEntity
  8
$DDT_AUDIT_GENERATED_(73)
  6
Continuous
 62
     7
100
AcDbLine
 10
65.1838097932
 20
714.6782243994
 30
0.0
 11
20.3452762043
 21
714.6782243994
 31
0.0
  0
ARC
  5
80
330
5E
100
AcDbEntity
  8
$DDT_AUDIT_GENERATED_(73)
  6
Continuous
 62
     7
100
AcDbCircle
 10
73.2456365341
 20
615.8566777131
 30
0.0
 40
99.14984185498339
100
AcDbArc
 50
90.4316842018
 51
94.6638413507
  0
ARC
  5
81
330
5E
100
AcDbEntity
  8
$DDT_AUDIT_GENERATED_(73)
  6
Continuous
 62
     7
100
AcDbCircle
 10
79.81630886
 20
714.0119485982
 30
0.0
 40
0.9999939919912717
100
AcDbArc
 50
97.3610900611
 51
179.5001289426
  0
SPLINE
  5
82
330
5E
100
AcDbEntity
  8
$DDT_AUDIT_GENERATED_(73)
  6
Continuous
 62
     7
100
AcDbSpline
210
0.0
220
0.0
230
1.0
 70
     8
 71
     3
 72
    10
 73
     6
 74
     0
 42
0.0000000062458196
 43
0.0000000001
 40
0.0
 40
0.0
 40
0.0
 40
0.0
 40
0.5
 40
0.5
 40
1.0
 40
1.0
 40
1.0
 40
1.0
 10
66.18377171625319
 20
713.6869509349225
 30
0.0
 10
66.1814998068335
 20
713.9472859685405
 30
0.0
 10
66.07271769144839
 20
714.2051230990936
 30
0.0
 10
65.70293134384157
 20
714.5716964510011
 30
0.0
 10
65.44415473994484
 20
714.678224399424
 30
0.0
 10
65.18380979318901
 20
714.678224399424
 30
0.0
  0
LINE
  5
83
330
5E
100
AcDbEntity
  8
$DDT_AUDIT_GENERATED_(73)
  6
Continuous
 62
     7
100
AcDbLine
 10
66.1837717163
 20
713.6869509345
 30
0.0
 11
66.2128513019
 21
710.3547604645
 31
0.0
  0
LINE
  5
84
330
5E
100
AcDbEntity
  8
$DDT_AUDIT_GENERATED_(73)
  6
Continuous
 62
     7
100
AcDbLine
 10
78.7843623232
 20
710.354912943
 30
0.0
 11
78.8163529251
 21
714.0206728311
 31
0.0
  0
ELLIPSE
  5
86
330
5E
100
AcDbEntity
  8
02636038_GEHÄUSE
  6
Continuous
 62
     7
100
AcDbEllipse
 10
172.4985877481
 20
937.8027200953
 30
0.0
 11
10.75000000000001
 21
-5.551115123125783E-14
 31
0.0
210
0.0
220
0.0
230
1.0
 40
0.1460162127
 41
5.480490692521552
 42
6.283185307179586
  0
ELLIPSE
  5
87
330
5E
100
AcDbEntity
  8
02636038_GEHÄUSE
  6
Continuous
 62
     7
100
AcDbEllipse
 10
172.4985877481
 20
937.8027200953
 30
0.0
 11
10.75000000000001
 21
-5.551115123125783E-14
 31
0.0
210
0.0
220
0.0
230
1.0
 40
0.1460162127
 41
0.0
 42
3.944287268247828
  0
LINE
  5
88
330
5E
100
AcDbEntity
  8
02636038_GEHÄUSE
  6
Continuous
 62
     7
100
AcDbLine
 10
183.4985877481
 20
937.7391879487
 30
0.0
 11
183.4985877481
 21
938.494530819
 31
0.0
  0
ELLIPSE
  5
89
330
5E
100
AcDbEntity
  8
02636038_GEHÄUSE
  6
Continuous
 62
     7
100
AcDbEllipse
 10
172.4985877481
 20
940.7705666868
 30
0.0
 11
-11.80000000000008
 21
1.942890293094024E-13
 31
0.0
210
0.0
220
0.0
230
1.0
 40
0.1460162127
 41
2.771250021498064
 42
3.5119352856815
  0
LINE
  5
8A
330
5E
100
AcDbEntity
  8
02636038_GEHÄUSE
  6
Continuous
 62
     7
100
AcDbLine
 10
183.4985877481
 20
938.494530819
 30
0.0
 11
183.4985877481
 21
939.5972135097
 31
0.0
  0
LINE
  5
8B
330
5E
100
AcDbEntity
  8
02636038_GEHÄUSE
  6
Continuous
 62
     7
100
AcDbLine
 10
183.4985877481
 20
939.5972135097
 30
0.0
 11
183.4985877481
 21
941.3941772984
 31
0.0
  0
LINE
  5
8C
330
5E
100
AcDbEntity
  8
02636038_GEHÄUSE
  6
Continuous
 62
     7
100
AcDbLine
 10
161.4985877481
 20
938.494530819
 30
0.0
 11
161.4985877481
 21
937.7391879487
 31
0.0
  0
ELLIPSE
  5
8D
330
5E
100
AcDbEntity
  8
02636038_GEHÄUSE
  6
Continuous
 62
     7
100
AcDbEllipse
 10
172.4985877481
 20
940.7705666868
 30
0.0
 11
11.80000000000002
 21
0.0
 31
0.0
210
0.0
220
0.0
230
1.0
 40
0.1460162127
 41
2.771250021498055
 42
3.511935285681532
  0
LINE
  5
8E
330
5E
100
AcDbEntity
  8
02636038_GEHÄUSE
  6
Continuous
 62
     7
100
AcDbLine
 10
161.4985877481
 20
941.3941772984
 30
0.0
 11
161.4985877481
 21
939.5972135097
 31
0.0
  0
LINE
  5
8F
330
5E
100
AcDbEntity
  8
02636038_GEHÄUSE
  6
Continuous
 62
     7
100
AcDbLine
 10
161.4985877481
 20
939.5972135097
 30
0.0
 11
161.4985877481
 21
938.494530819
 31
0.0
  0
LINE
  5
90
330
5E
100
AcDbEntity
  8
02636038_GEHÄUSE
  6
Continuous
 62
     7
100
AcDbLine
 10
161.5740859655
 20
937.6950453385
 30
0.0
 11
162.1058095036
 21
937.4014368221
 31
0.0
  0
LINE
  5
91
330
5E
100
AcDbEntity
  8
02636038_GEHÄUSE
  6
Continuous
 62
     7
100
AcDbLine
 10
182.8913659925
 20
937.4014368221
 30
0.0
 11
183.4230895306
 21
937.6950453385
 31
0.0
  0
LINE
  5
92
330
5E
100
AcDbEntity
  8
02636038_GEHÄUSE
  6
Continuous
 62
     7
100
AcDbLine
 10
160.6985877481
 20
945.3032896156
 30
0.0
 11
160.6985877481
 21
940.7705666868
 31
0.0
  0
LINE
  5
93
330
5E
100
AcDbEntity
  8
02636038_GEHÄUSE
  6
Continuous
 62
     7
100
AcDbLine
 10
184.2985877481
 20
940.7705666868
 30
0.0
 11
184.2985877481
 21
945.2834248215
 31
0.0
  0
ELLIPSE
  5
95
330
5E
100
AcDbEntity
  8
$DDT_AUDIT_GENERATED_(94)
  6
Continuous
 62
     7
100
AcDbEllipse
 10
172.4985877481
 20
937.4070072164
 30
0.0
 11
9.0
 21
-5.551115123125783E-14
 31
0.0
210
0.0
220
0.0
230
1.0
 40
0.1460162127
 41
0.0
 42
6.283185307179586
  0
ELLIPSE
  5
96
330
5E
100
AcDbEntity
  8
$DDT_AUDIT_GENERATED_(94)
  6
Continuous
 62
     7
100
AcDbEllipse
 10
172.4985877481
 20
937.4070072164
 30
0.0
 11
2.15
 21
-2.775557561562891E-14
 31
0.0
210
0.0
220
0.0
230
1.0
 40
0.1460162127
 41
0.0
 42
6.283185307179586
  0
LINE
  5
97
330
5E
100
AcDbEntity
  8
$DDT_AUDIT_GENERATED_(94)
  6
Continuous
 62
     7
100
AcDbLine
 10
163.4985877481
 20
938.4557652616
 30
0.0
 11
163.4985877481
 21
937.4070072164
 31
0.0
  0
LINE
  5
98
330
5E
100
AcDbEntity
  8
$DDT_AUDIT_GENERATED_(94)
  6
Continuous
 62
     7
100
AcDbLine
 10
181.4985877481
 20
937.4070072164
 30
0.0
 11
181.4985877481
 21
938.4557652616
 31
0.0
  0
SPLINE
  5
9A
330
5E
100
AcDbEntity
  8
$DDT_AUDIT_GENERATED_(99)
  6
Continuous
 62
     7
100
AcDbSpline
210
0.0
220
0.0
230
1.0
 70
     8
 71
     3
 72
    20
 73
    16
 74
     0
 42
0.0000000003794647
 43
0.0000000001
 40
0.2500855464342808
 40
0.2500855464342808
 40
0.2500855464342808
 40
0.2500855464342808
 40
0.3125
 40
0.3125
 40
0.375
 40
0.375
 40
0.5
 40
0.5
 40
0.625
 40
0.625
 40
0.6875
 40
0.6875
 40
0.75
 40
0.75
 40
0.750160307916235
 40
0.750160307916235
 40
0.750160307916235
 40
0.750160307916235
 10
79.08779894519128
 20
710.3552074505923
 30
0.0
 10
79.08778648622867
 20
710.3552078170974
 30
0.0
 10
78.91733337797083
 20
710.3546648877391
 30
0.0
 10
78.25818736850265
 20
710.3546622959029
 30
0.0
 10
77.77496015278862
 20
710.3552056265598
 30
0.0
 10
75.93082879251958
 20
710.3552110856899
 30
0.0
 10
74.22096863367918
 20
710.3552049632522
 30
0.0
 10
70.78086550616412
 20
710.3552099329868
 30
0.0
 10
69.0601040171163
 20
710.3552006429366
 30
0.0
 10
67.23569517130755
 20
710.35521083427
 30
0.0
 10
66.74488862838543
 20
710.3546657708467
 30
0.0
 10
66.08276531821032
 20
710.3546614268685
 30
0.0
 10
65.91026590292384
 20
710.355203822746
 30
0.0
 10
65.90937768818598
 20
710.3552074450834
 30
0.0
 10
65.90937659012233
 20
710.3552074543176
 30
0.0
 10
65.90937666592829
 20
710.355207463519
 30
0.0
  0
SPLINE
  5
9B
330
5E
100
AcDbEntity
  8
$DDT_AUDIT_GENERATED_(99)
  6
Continuous
 62
     7
100
AcDbSpline
210
0.0
220
0.0
230
1.0
 70
     8
 71
     3
 72
     8
 73
     4
 74
     0
 42
0.0000000007055492
 43
0.0000000001
 40
0.0
 40
0.0
 40
0.0
 40
0.0
 40
1.0
 40
1.0
 40
1.0
 40
1.0
 10
65.99448802398044
 20
710.3612310940816
 30
0.0
 10
61.27713681550684
 20
710.0290226977887
 30
0.0
 10
56.61240676071418
 20
709.3403727293892
 30
0.0
 10
52.00029785960248
 20
708.2952811888831
 30
0.0
  0
SPLINE
  5
9C
330
5E
100
AcDbEntity
  8
$DDT_AUDIT_GENERATED_(99)
  6
Continuous
 62
     7
100
AcDbSpline
210
0.0
220
0.0
230
1.0
 70
     8
 71
     3
 72
     8
 73
     4
 74
     0
 42
0.0000000007055492
 43
0.0000000001
 40
0.0
 40
0.0
 40
0.0
 40
0.0
 40
1.0
 40
1.0
 40
1.0
 40
1.0
 10
92.99687763650067
 20
708.295281188883
 30
0.0
 10
88.38476873538886
 20
709.340372729389
 30
0.0
 10
83.72003868059623
 20
710.0290226977886
 30
0.0
 10
79.00268747212276
 20
710.3612310940815
 30
0.0
  0
ARC
  5
9D
330
5E
100
AcDbEntity
  8
$DDT_AUDIT_GENERATED_(99)
  6
Continuous
 62
     7
100
AcDbCircle
 10
92.8486803316
 20
708.0213158297
 30
0.0
 40
0.2999292390459455
100
AcDbArc
 50
359.9880839378
 51
77.2839985118
  0
ARC
  5
9E
330
5E
100
AcDbEntity
  8
$DDT_AUDIT_GENERATED_(99)
  6
Continuous
 62
     7
100
AcDbCircle
 10
52.1484951919
 20
708.0213158299
 30
0.0
 40
0.2999292389334082
100
AcDbArc
 50
102.7160015404
 51
180.0119160955
  0
LINE
  5
9F
330
5E
100
AcDbEntity
  8
$DDT_AUDIT_GENERATED_(99)
  6
Continuous
 62
     7
100
AcDbLine
 10
51.8486101081
 20
708.0212531738
 30
0.0
 11
51.8486101081
 21
698.3663930432
 31
0.0
  0
LINE
  5
A0
330
5E
100
AcDbEntity
  8
$DDT_AUDIT_GENERATED_(99)
  6
Continuous
 62
     7
100
AcDbLine
 10
93.148565388
 20
698.3663930432
 30
0.0
 11
93.148565388
 21
708.0212531738
 31
0.0
  0
ARC
  5
A1
330
5E
100
AcDbEntity
  8
$DDT_AUDIT_GENERATED_(99)
  6
Continuous
 62
     7
100
AcDbCircle
 10
65.9235879894
 20
710.1557129842
 30
0.0
 40
0.1999999926503748
100
AcDbArc
 50
89.766341008
 51
89.7965830068
  0
LINE
  5
A2
330
5E
100
AcDbEntity
  8
$DDT_AUDIT_GENERATED_(73)
  6
Continuous
 62
     7
100
AcDbLine
 10
324.6519176204
 20
721.0382938521
 30
0.0
 11
272.4985760744
 21
721.0382938521
 31
0.0
  0
SPLINE
  5
A3
330
5E
100
AcDbEntity
  8
$DDT_AUDIT_GENERATED_(73)
  6
Continuous
 62
     7
100
AcDbSpline
210
0.0
220
0.0
230
1.0
 70
     8
 71
     7
 72
    16
 73
     8
 74
     0
 42
0.0000000005620664
 43
0.0000000001
 40
0.0
 40
0.0
 40
0.0
 40
0.0
 40
0.0
 40
0.0
 40
0.0
 40
0.0
 40
1.0
 40
1.0
 40
1.0
 40
1.0
 40
1.0
 40
1.0
 40
1.0
 40
1.0
 10
338.647193895276
 20
719.9125932757651
 30
0.0
 10
338.647193895276
 20
718.7676253998932
 30
0.0
 10
338.647193895276
 20
716.3368284270431
 30
0.0
 10
334.857574959792
 20
715.177096132321
 30
0.0
 10
333.9455125883069
 20
714.8979788371481
 30
0.0
 10
329.317009759053
 20
714.678224399424
 30
0.0
 10
326.651242862989
 20
714.678224399424
 30
0.0
 10
324.651917690941
 20
714.678224399424
 30
0.0
  0
LINE
  5
A4
330
5E
100
AcDbEntity
  8
$DDT_AUDIT_GENERATED_(73)
  6
Continuous
 62
     7
100
AcDbLine
 10
335.050090216
 20
721.0382938521
 30
0.0
 11
324.6519176204
 21
721.0382938521
 31
0.0
  0
SPLINE
  5
A5
330
5E
100
AcDbEntity
  8
$DDT_AUDIT_GENERATED_(73)
  6
Continuous
 62
     7
100
AcDbSpline
210
0.0
220
0.0
230
1.0
 70
     8
 71
     5
 72
    12
 73
     6
 74
     0
 42
0.000000002536328
 43
0.0000000001
 40
0.0
 40
0.0
 40
0.0
 40
0.0
 40
0.0
 40
0.0
 40
1.0
 40
1.0
 40
1.0
 40
1.0
 40
1.0
 40
1.0
 10
338.647193895276
 20
719.9125932757651
 30
0.0
 10
337.731119256671
 20
720.5342961045891
 30
0.0
 10
336.986679691844
 20
721.0382938521091
 30
0.0
 10
336.286014249349
 20
721.0382938521091
 30
0.0
 10
335.534570863829
 20
721.0382938521091
 30
0.0
 10
335.0500902160235
 20
721.0382938521091
 30
0.0
  0
LINE
  5
A6
330
5E
100
AcDbEntity
  8
$DDT_AUDIT_GENERATED_(73)
  6
Continuous
 62
     7
100
AcDbLine
 10
298.8762128097
 20
714.6782243994
 30
0.0
 11
324.6519176909
 21
714.6782243994
 31
0.0
  0
LINE
  5
A8
330
5E
100
AcDbEntity
  8
$DDT_AUDIT_GENERATED_(A7)
  6
Continuous
 62
     7
100
AcDbLine
 10
250.979097087
 20
737.4782285015
 30
0.0
 11
294.0180784091
 21
737.4782285015
 31
0.0
  0
LINE
  5
A9
330
5E
100
AcDbEntity
  8
$DDT_AUDIT_GENERATED_(A7)
  6
Continuous
 62
     7
100
AcDbLine
 10
245.1605267257
 20
700.9433502646
 30
0.0
 11
299.8366487704
 21
700.9433502646
 31
0.0
  0
LINE
  5
AA
330
5E
100
AcDbEntity
  8
$DDT_AUDIT_GENERATED_(A7)
  6
Continuous
 62
     7
100
AcDbLine
 10
299.8366487704
 20
700.9433502646
 30
0.0
 11
298.8762128097
 21
714.6782243994
 31
0.0
  0
LINE
  5
AB
330
5E
100
AcDbEntity
  8
$DDT_AUDIT_GENERATED_(A7)
  6
Continuous
 62
     7
100
AcDbLine
 10
298.4314734292
 20
721.0382938521
 30
0.0
 11
297.509552585
 21
734.2223761596
 31
0.0
  0
LINE
  5
AC
330
5E
100
AcDbEntity
  8
$DDT_AUDIT_GENERATED_(A7)
  6
Continuous
 62
     7
100
AcDbLine
 10
247.4876229111
 20
734.2223761596
 30
0.0
 11
245.1605267257
 21
700.9433502646
 31
0.0
  0
ARC
  5
AD
330
5E
100
AcDbEntity
  8
$DDT_AUDIT_GENERATED_(A7)
  6
Continuous
 62
     7
100
AcDbCircle
 10
294.0180784091
 20
733.9782285015
 30
0.0
 40
3.499999999999992
100
AcDbArc
 50
4.0
 51
90.0
  0
ARC
  5
AE
330
5E
100
AcDbEntity
  8
$DDT_AUDIT_GENERATED_(A7)
  6
Continuous
 62
     7
100
AcDbCircle
 10
250.979097087
 20
733.9782285015
 30
0.0
 40
3.500000000000003
100
AcDbArc
 50
90.0
 51
176.0
  0
LINE
  5
AF
330
5E
100
AcDbEntity
  8
$DDT_AUDIT_GENERATED_(A7)
  6
Continuous
 62
     7
100
AcDbLine
 10
302.49851456
 20
691.4782285015
 30
0.0
 11
302.4845291976
 21
691.6782285015
 31
0.0
  0
LINE
  5
B0
330
5E
100
AcDbEntity
  8
$DDT_AUDIT_GENERATED_(A7)
  6
Continuous
 62
     7
100
AcDbLine
 10
302.1015158552
 20
697.1555744828
 30
0.0
 11
302.0683638232
 21
697.629670629
 31
0.0
  0
LINE
  5
B1
330
5E
100
AcDbEntity
  8
$DDT_AUDIT_GENERATED_(A7)
  6
Continuous
 62
     7
100
AcDbLine
 10
242.9288116729
 20
697.629670629
 30
0.0
 11
242.8956597064
 21
697.1555754204
 31
0.0
  0
LINE
  5
B2
330
5E
100
AcDbEntity
  8
$DDT_AUDIT_GENERATED_(A7)
  6
Continuous
 62
     7
100
AcDbLine
 10
242.5126462985
 20
691.6782285015
 30
0.0
 11
242.4986609361
 21
691.4782285015
 31
0.0
  0
ARC
  5
B3
330
5E
100
AcDbEntity
  8
$DDT_AUDIT_GENERATED_(A7)
  6
Continuous
 62
     7
100
AcDbCircle
 10
300.3354307956
 20
700.9782285015
 30
0.0
 40
0.5000000000006254
100
AcDbArc
 50
184.0
 51
243.9193866631
  0
ARC
  5
B4
330
5E
100
AcDbEntity
  8
$DDT_AUDIT_GENERATED_(A7)
  6
Continuous
 62
     7
100
AcDbCircle
 10
244.6617447005
 20
700.9782285015
 30
0.0
 40
0.500000000000003
100
AcDbArc
 50
296.0806133369
 51
356.0
  0
ARC
  5
B5
330
5E
100
AcDbEntity
  8
$DDT_AUDIT_GENERATED_(A7)
  6
Continuous
 62
     7
100
AcDbCircle
 10
298.5768896473
 20
697.3855229709
 30
0.0
 40
3.500000000000008
100
AcDbArc
 50
4.0
 51
63.919386663
  0
ARC
  5
B6
330
5E
100
AcDbEntity
  8
$DDT_AUDIT_GENERATED_(A7)
  6
Continuous
 62
     7
100
AcDbCircle
 10
246.4202858488
 20
697.3855229709
 30
0.0
 40
3.499999999999387
100
AcDbArc
 50
116.080613337
 51
176.0
  0
LINE
  5
B8
330
5E
100
AcDbEntity
  8
$DDT_AUDIT_GENERATED_(B7)
  6
Continuous
 62
     7
100
AcDbLine
 10
201.4985890264
 20
698.1782284717
 30
0.0
 11
143.4985864697
 21
698.1782284717
 31
0.0
  0
LINE
  5
B9
330
5E
100
AcDbEntity
  8
$DDT_AUDIT_GENERATED_(B7)
  6
Continuous
 62
     7
100
AcDbLine
 10
142.4985823753
 20
692.4782284717
 30
0.0
 11
202.498638829
 21
692.4782284717
 31
0.0
  0
SPLINE
  5
BA
330
5E
100
AcDbEntity
  8
$DDT_AUDIT_GENERATED_(B7)
  6
Continuous
 62
     7
100
AcDbSpline
210
0.0
220
0.0
230
1.0
 70
     8
 71
     3
 72
    13
 73
     9
 74
     0
 42
0.0000000063014675
 43
0.0000000001
 40
0.0
 40
0.0
 40
0.0
 40
0.0
 40
0.1294353584734629
 40
0.2550301071986517
 40
0.4999999914570848
 40
0.7449698805865111
 40
0.8705646348009904
 40
1.0
 40
1.0
 40
1.0
 40
1.0
 10
202.4985890943056
 20
697.1782284567911
 30
0.0
 10
202.4949080845552
 20
697.2524078357533
 30
0.0
 10
202.4868347557074
 20
697.376319302507
 30
0.0
 10
202.4067636522676
 20
697.631264815501
 30
0.0
 10
202.2232151355419
 20
697.9028545332596
 30
0.0
 10
201.9516254055895
 20
698.0864030358291
 30
0.0
 10
201.6966798817871
 20
698.1664741338179
 30
0.0
 10
201.5727684092152
 20
698.1745474621849
 30
0.0
 10
201.4985890263771
 20
698.1782284716921
 30
0.0
  0
SPLINE
  5
BB
330
5E
100
AcDbEntity
  8
$DDT_AUDIT_GENERATED_(B7)
  6
Continuous
 62
     7
100
AcDbSpline
210
0.0
220
0.0
230
1.0
 70
     8
 71
     3
 72
    13
 73
     9
 74
     0
 42
0.0000000063014675
 43
0.0000000001
 40
0.0
 40
0.0
 40
0.0
 40
0.0
 40
0.1294353651991215
 40
0.2550301194136423
 40
0.50000000854303
 40
0.7449698928013855
 40
0.8705646415265506
 40
1.0
 40
1.0
 40
1.0
 40
1.0
 10
143.4985864697248
 20
698.1782284716921
 30
0.0
 10
143.4244070868866
 20
698.1745474621849
 30
0.0
 10
143.3004956143146
 20
698.166474133818
 30
0.0
 10
143.0455500905121
 20
698.0864030358291
 30
0.0
 10
142.7739603605597
 20
697.9028545332598
 30
0.0
 10
142.5904118438342
 20
697.631264815501
 30
0.0
 10
142.5103407403944
 20
697.376319302507
 30
0.0
 10
142.5022674115467
 20
697.2524078357533
 30
0.0
 10
142.4985864017963
 20
697.1782284567911
 30
0.0
  0
LINE
  5
BC
330
5E
100
AcDbEntity
  8
$DDT_AUDIT_GENERATED_(B7)
  6
Continuous
 62
     7
100
AcDbLine
 10
142.4985823753
 20
697.1832284568
 30
0.0
 11
142.4985823753
 21
692.4782284717
 31
0.0
  0
LINE
  5
BD
330
5E
100
AcDbEntity
  8
$DDT_AUDIT_GENERATED_(B7)
  6
Continuous
 62
     7
100
AcDbLine
 10
202.498638829
 20
692.4782284717
 30
0.0
 11
202.498638829
 21
697.1832284568
 31
0.0
  0
SPLINE
  5
BF
330
5E
100
AcDbEntity
  8
$DDT_AUDIT_GENERATED_(BE)
  6
Continuous
 62
     7
100
AcDbSpline
210
0.0
220
0.0
230
1.0
 70
     8
 71
     2
 72
    24
 73
    21
 74
     0
 42
0.0000000002263566
 43
0.0000000001
 40
0.182594213786811
 40
0.182594213786811
 40
0.182594213786811
 40
0.1875014306084376
 40
0.1875014306084376
 40
0.2500019074779168
 40
0.2500019074779168
 40
0.3750028612168751
 40
0.3750028612168751
 40
0.4375033380863543
 40
0.4375033380863543
 40
0.5000038149558336
 40
0.5000038149558336
 40
0.5625042918253127
 40
0.5625042918253127
 40
0.6250047686947919
 40
0.6250047686947919
 40
0.7500057224337503
 40
0.7500057224337503
 40
0.8125061993032294
 40
0.8125061993032294
 40
0.816922611675159
 40
0.816922611675159
 40
0.816922611675159
 10
158.5362458344827
 20
961.5383580556087
 30
0.0
 10
158.6174710339335
 20
961.5529868425059
 30
0.0
 10
158.7008604885866
 20
961.5674712838086
 30
0.0
 10
159.562075167658
 20
961.7170611032882
 30
0.0
 10
160.600486760286
 20
961.8425382880653
 30
0.0
 10
162.9767374930756
 20
962.1296741929335
 30
0.0
 10
166.0302218441012
 20
962.2841454225319
 30
0.0
 10
167.585555895287
 20
962.3628274577752
 30
0.0
 10
169.2351854339386
 20
962.4024979980478
 30
0.0
 10
170.8501053506684
 20
962.4413338360904
 30
0.0
 10
172.497255871257
 20
962.4413492873259
 30
0.0
 10
174.2102548812538
 20
962.4413653562588
 30
0.0
 10
175.8893420070512
 20
962.3993664383568
 30
0.0
 10
177.4563886629223
 20
962.360169982832
 30
0.0
 10
178.9359724612781
 20
962.2857054449031
 30
0.0
 10
182.0152918323029
 20
962.1307293669322
 30
0.0
 10
184.3967217871691
 20
961.8425343054713
 30
0.0
 10
185.4494847662157
 20
961.7151314016695
 30
0.0
 10
186.3209360055346
 20
961.5633935228451
 30
0.0
 10
186.393956039124
 20
961.5506792084824
 30
0.0
 10
186.4653326191905
 20
961.5378389634187
 30
0.0
  0
ARC
  5
C0
330
5E
100
AcDbEntity
  8
$DDT_AUDIT_GENERATED_(BE)
  6
Continuous
 62
     7
100
AcDbCircle
 10
172.0962540385
 20
951.9561442521
 30
0.0
 40
20.44821543786723
100
AcDbArc
 50
180.0236327622
 51
182.0109745618
  0
ARC
  5
C1
330
5E
100
AcDbEntity
  8
$DDT_AUDIT_GENERATED_(BE)
  6
Continuous
 62
     7
100
AcDbCircle
 10
172.8969477067
 20
951.9573934808
 30
0.0
 40
20.45233988978441
100
AcDbArc
 50
357.9859219343
 51
0.7671306762
  0
SPLINE
  5
C2
330
5E
100
AcDbEntity
  8
$DDT_AUDIT_GENERATED_(BE)
  6
Continuous
 62
     7
100
AcDbSpline
210
0.0
220
0.0
230
1.0
 70
     8
 71
     3
 72
     8
 73
     4
 74
     0
 42
0.000000002409128
 43
0.0000000001
 40
0.8306302041974101
 40
0.8306302041974101
 40
0.8306302041974101
 40
0.8306302041974101
 40
1.0
 40
1.0
 40
1.0
 40
1.0
 10
184.3259413548647
 20
944.4138361564278
 30
0.0
 10
184.6093791159022
 20
944.6100686059924
 30
0.0
 10
184.7545281578434
 20
944.7824181286406
 30
0.0
 10
184.7483983325354
 20
944.9152448130502
 30
0.0
  0
SPLINE
  5
C3
330
5E
100
AcDbEntity
  8
$DDT_AUDIT_GENERATED_(BE)
  6
Continuous
 62
     7
100
AcDbSpline
210
0.0
220
0.0
230
1.0
 70
     8
 71
     3
 72
     8
 73
     4
 74
     0
 42
0.000000002409047
 43
0.0000000001
 40
0.830627825339452
 40
0.830627825339452
 40
0.830627825339452
 40
0.830627825339452
 40
1.0
 40
1.0
 40
1.0
 40
1.0
 10
160.6712442218722
 20
944.4138347730641
 30
0.0
 10
160.3877998468046
 20
944.6100743398431
 30
0.0
 10
160.2426479576139
 20
944.7824631192352
 30
0.0
 10
160.2487771330825
 20
944.9152819889003
 30
0.0
  0
SPLINE
  5
C4
330
5E
100
AcDbEntity
  8
$DDT_AUDIT_GENERATED_(BE)
  6
Continuous
 62
     7
100
AcDbSpline
210
0.0
220
0.0
230
1.0
 70
     8
 71
     3
 72
    20
 73
    16
 74
     0
 42
0.0000000003955295
 43
0.0000000001
 40
0.0
 40
0.0
 40
0.0
 40
0.0
 40
0.1250000000000002
 40
0.1250000000000002
 40
0.2500000000000005
 40
0.2500000000000005
 40
0.3750000000000007
 40
0.3750000000000007
 40
0.5000000000000009
 40
0.5000000000000009
 40
0.625000000000001
 40
0.625000000000001
 40
0.7500000000000011
 40
0.7500000000000011
 40
1.0
 40
1.0
 40
1.0
 40
1.0
 10
160.2487771330825
 20
944.9152819889003
 30
0.0
 10
160.2577179711538
 20
945.1090292539897
 30
0.0
 10
160.5876622991456
 20
945.3017032349504
 30
0.0
 10
161.8188415490631
 20
945.6553385274058
 30
0.0
 10
162.7339244546721
 20
945.8191213783349
 30
0.0
 10
164.988046409858
 20
946.0894710982974
 30
0.0
 10
166.3499440025514
 20
946.198910567683
 30
0.0
 10
169.2944043664557
 20
946.3456334710562
 30
0.0
 10
170.8907284441527
 20
946.3841056930015
 30
0.0
 10
174.0924288039702
 20
946.3843207136482
 30
0.0
 10
175.6762067593751
 20
946.3467932705136
 30
0.0
 10
178.6557435565258
 20
946.1986493271206
 30
0.0
 10
179.9991274858629
 20
946.0905850168753
 30
0.0
 10
183.4019549540494
 20
945.6827210602838
 30
0.0
 10
184.7304712295201
 20
945.3037511836476
 30
0.0
 10
184.7483983325354
 20
944.9152448130502
 30
0.0
  0
ARC
  5
C5
330
5E
100
AcDbEntity
  8
$DDT_AUDIT_GENERATED_(BE)
  6
Continuous
 62
     7
100
AcDbCircle
 10
160.6920214666
 20
948.3058547542
 30
0.0
 40
13.40779354719919
100
AcDbArc
 50
99.1279208381
 51
122.2944721719
  0
ARC
  5
C6
330
5E
100
AcDbEntity
  8
$DDT_AUDIT_GENERATED_(BE)
  6
Continuous
 62
     7
100
AcDbCircle
 10
184.3051495541
 20
948.3058435892
 30
0.0
 40
13.407805279933
100
AcDbArc
 50
57.7055405577
 51
80.8720676023
  0
LINE
  5
C7
330
5E
100
AcDbEntity
  8
$DDT_AUDIT_GENERATED_(BE)
  6
Continuous
 62
     7
100
AcDbLine
 10
151.6488481433
 20
951.9496615196
 30
0.0
 11
151.6488480036
 21
940.7986166146
 31
0.0
  0
ARC
  5
C8
330
5E
100
AcDbEntity
  8
$DDT_AUDIT_GENERATED_(BE)
  6
Continuous
 62
     7
100
AcDbCircle
 10
172.4986971332
 20
951.9483348173
 30
0.0
 40
20.85086751093793
100
AcDbArc
 50
159.7499287017
 51
179.9938231571
  0
ARC
  5
C9
330
5E
100
AcDbEntity
  8
$DDT_AUDIT_GENERATED_(BE)
  6
Continuous
 62
     7
100
AcDbCircle
 10
172.4986971332
 20
951.9483348173
 30
0.0
 40
20.85086751093793
100
AcDbArc
 50
0.7989578828
 51
20.2501999511
  0
ARC
  5
CA
330
5E
100
AcDbEntity
  8
$DDT_AUDIT_GENERATED_(BE)
  6
Continuous
 62
     7
100
AcDbCircle
 10
22257.112445646
 20
922.435155389
 30
0.0
 40
22105.47123352324
100
AcDbArc
 50
179.9524030699
 51
180.0473624628
  0
LINE
  5
CB
330
5E
100
AcDbEntity
  8
$DDT_AUDIT_GENERATED_(BE)
  6
Continuous
 62
     7
100
AcDbLine
 10
193.3483274366
 20
940.7986161001
 30
0.0
 11
193.3483275763
 21
951.9496620776
 31
0.0
  0
ARC
  5
CC
330
5E
100
AcDbEntity
  8
$DDT_AUDIT_GENERATED_(BE)
  6
Continuous
 62
     7
100
AcDbCircle
 10
-21926.225246505
 20
922.435132895
 30
0.0
 40
22119.58120503147
100
AcDbArc
 50
359.9526678083
 51
0.0475666265
  0
LINE
  5
CD
330
5E
100
AcDbEntity
  8
$DDT_AUDIT_GENERATED_(BE)
  6
Continuous
 62
     7
100
AcDbLine
 10
193.3467569416
 20
799.7782285015
 30
0.0
 11
193.3467569416
 21
904.1620746653
 31
0.0
  0
LINE
  5
CE
330
5E
100
AcDbEntity
  8
$DDT_AUDIT_GENERATED_(BE)
  6
Continuous
 62
     7
100
AcDbLine
 10
151.6504185545
 20
904.1620746653
 30
0.0
 11
151.6504185545
 21
799.7782285015
 31
0.0
  0
ARC
  5
CF
330
5E
100
AcDbEntity
  8
$DDT_AUDIT_GENERATED_(BE)
  6
Continuous
 62
     7
100
AcDbCircle
 10
151.9504185545
 20
799.7782285015
 30
0.0
 40
0.3000000000000017
100
AcDbArc
 50
180.0
 51
270.0
  0
ARC
  5
D0
330
5E
100
AcDbEntity
  8
$DDT_AUDIT_GENERATED_(BE)
  6
Continuous
 62
     7
100
AcDbCircle
 10
193.0467569416
 20
799.7782285015
 30
0.0
 40
0.2999999999999947
100
AcDbArc
 50
270.0
 51
0.0
  0
LINE
  5
D2
330
5E
100
AcDbEntity
  8
$DDT_AUDIT_GENERATED_(D1)
  6
Continuous
 62
     7
100
AcDbLine
 10
192.8485877481
 20
798.9782285015
 30
0.0
 11
192.8485877481
 21
799.4782285015
 31
0.0
  0
LINE
  5
D3
330
5E
100
AcDbEntity
  8
$DDT_AUDIT_GENERATED_(D1)
  6
Continuous
 62
     7
100
AcDbLine
 10
152.1485877481
 20
799.4782285015
 30
0.0
 11
152.1485877481
 21
798.9782285015
 31
0.0
  0
LINE
  5
D5
330
5E
100
AcDbEntity
  8
$DDT_AUDIT_GENERATED_(D4)
  6
Continuous
 62
     7
100
AcDbLine
 10
151.9485877481
 20
798.9782285015
 30
0.0
 11
193.0485877481
 21
798.9782285015
 31
0.0
  0
ARC
  5
D6
330
5E
100
AcDbEntity
  8
$DDT_AUDIT_GENERATED_(D4)
  6
Continuous
 62
     7
100
AcDbCircle
 10
151.9485877481
 20
798.6782285015
 30
0.0
 40
0.2999999999999947
100
AcDbArc
 50
90.0
 51
180.0
  0
ARC
  5
D7
330
5E
100
AcDbEntity
  8
$DDT_AUDIT_GENERATED_(D4)
  6
Continuous
 62
     7
100
AcDbCircle
 10
193.0485877481
 20
798.6782285015
 30
0.0
 40
0.3000000000000017
100
AcDbArc
 50
0.0
 51
90.0
  0
LINE
  5
D8
330
5E
100
AcDbEntity
  8
$DDT_AUDIT_GENERATED_(D4)
  6
Continuous
 62
     7
100
AcDbLine
 10
193.3485877481
 20
699.7617925925
 30
0.0
 11
193.3485877481
 21
798.6782285015
 31
0.0
  0
LINE
  5
D9
330
5E
100
AcDbEntity
  8
$DDT_AUDIT_GENERATED_(D4)
  6
Continuous
 62
     7
100
AcDbLine
 10
151.6485877481
 20
798.6782285015
 30
0.0
 11
151.6485877481
 21
699.7617925925
 31
0.0
  0
LINE
  5
DA
330
5E
100
AcDbEntity
  8
$DDT_AUDIT_GENERATED_(D4)
  6
Continuous
 62
     7
100
AcDbLine
 10
193.2985877481
 20
699.0332746005
 30
0.0
 11
193.2985877481
 21
699.4782285015
 31
0.0
  0
LINE
  5
DB
330
5E
100
AcDbEntity
  8
$DDT_AUDIT_GENERATED_(D4)
  6
Continuous
 62
     7
100
AcDbLine
 10
151.6985877481
 20
699.4782285015
 30
0.0
 11
151.6985877481
 21
699.0262876755
 31
0.0
  0
LINE
  5
DC
330
5E
100
AcDbEntity
  8
$DDT_AUDIT_GENERATED_(D4)
  6
Continuous
 62
     7
100
AcDbLine
 10
151.6485877481
 20
699.7617925925
 30
0.0
 11
151.6985877481
 21
699.4782285015
 31
0.0
  0
LINE
  5
DD
330
5E
100
AcDbEntity
  8
$DDT_AUDIT_GENERATED_(D4)
  6
Continuous
 62
     7
100
AcDbLine
 10
193.2985877481
 20
699.4782285015
 30
0.0
 11
193.3485877481
 21
699.7617925925
 31
0.0
  0
LINE
  5
DF
330
5E
100
AcDbEntity
  8
DV1_Standard
  6
Continuous
 62
     7
100
AcDbLine
 10
153.4832533034
 20
959.6147256307
 30
0.0
 11
152.9366028685
 21
959.1652000606
 31
0.0
  0
LINE
  5
E0
330
5E
100
AcDbEntity
  8
DV1_Standard
  6
Continuous
 62
     7
100
AcDbLine
 10
191.4685458498
 20
959.63964242
 30
0.0
 11
192.0607751929
 21
959.1652439856
 31
0.0
  0
LINE
  5
E1
330
5E
100
AcDbEntity
  8
DV1_Standard
  6
Continuous
 62
     7
100
AcDbLine
 10
242.4986609361
 20
691.4782285015
 30
0.0
 11
302.49851456
 21
691.4782285015
 31
0.0
  0
LINE
  5
E3
330
5E
100
AcDbEntity
  8
DV1_Standard
  6
CENTER2
 62
     7
100
AcDbLine
 10
92.4986057002
 20
691.6782285015
 30
0.0
 11
52.4986065943
 21
691.6782285015
 31
0.0
  0
LINE
  5
E4
330
5E
100
AcDbEntity
  8
DV1_Standard
  6
CENTER2
 62
     7
100
AcDbLine
 10
72.4986061472
 20
711.6782280545
 30
0.0
 11
72.4986061472
 21
671.6782289485
 31
0.0
  0
LINE
  5
E5
330
5E
100
AcDbEntity
  8
DV1_Standard
  6
CENTER2
 62
     7
100
AcDbLine
 10
192.4986101551
 20
692.4782284717
 30
0.0
 11
152.4986110492
 21
692.4782284717
 31
0.0
  0
LINE
  5
E6
330
5E
100
AcDbEntity
  8
DV1_Standard
  6
CENTER2
 62
     7
100
AcDbLine
 10
172.4986106021
 20
712.4782280247
 30
0.0
 11
172.4986106021
 21
672.4782289187
 31
0.0
  0
LINE
  5
E7
330
5E
100
AcDbEntity
  8
DV1_Standard
  6
CENTER2
 62
     7
100
AcDbLine
 10
292.498587301
 20
691.4782285015
 30
0.0
 11
252.4985881951
 21
691.4782285015
 31
0.0
  0
LINE
  5
E8
330
5E
100
AcDbEntity
  8
DV1_Standard
  6
CENTER2
 62
     7
100
AcDbLine
 10
272.4985877481
 20
711.4782280545
 30
0.0
 11
272.4985877481
 21
671.4782289485
 31
0.0
  0
ENDBLK
  5
EA
330
5E
100
AcDbEntity
  8
0
100
AcDbBlockEnd
  0
BLOCK
  5
156
330
EB
100
AcDbEntity
  8
0
100
AcDbBlockBegin
  2
SE1
 70
     0
 10
0.0
 20
0.0
 30
0.0
  3
SE1
  1

  0
LINE
  5
ED
330
EB
100
AcDbEntity
  8
$DDT_AUDIT_GENERATED_(64)
  6
Continuous
 62
     7
100
AcDbLine
 10
419.5226677655
 20
697.3782285015
 30
0.0
 11
477.5226690288
 21
697.3782285015
 31
0.0
  0
LINE
  5
EE
330
EB
100
AcDbEntity
  8
$DDT_AUDIT_GENERATED_(64)
  6
Continuous
 62
     7
100
AcDbLine
 10
478.5227183376
 20
691.6782285015
 30
0.0
 11
418.5226618839
 21
691.6782285015
 31
0.0
  0
SPLINE
  5
EF
330
EB
100
AcDbEntity
  8
$DDT_AUDIT_GENERATED_(64)
  6
Continuous
 62
     7
100
AcDbSpline
210
0.0
220
0.0
230
1.0
 70
     8
 71
     3
 72
    13
 73
     9
 74
     0
 42
0.0000000063014675
 43
0.0000000001
 40
0.0
 40
0.0
 40
0.0
 40
0.0
 40
0.1294353584796122
 40
0.255030107209807
 40
0.499999991472623
 40
0.7449698805975513
 40
0.870564634807048
 40
1.0
 40
1.0
 40
1.0
 40
1.0
 10
478.5226690966626
 20
696.3782284865931
 30
0.0
 10
478.5189880869125
 20
696.4524078655552
 30
0.0
 10
478.5109147580656
 20
696.5763193323082
 30
0.0
 10
478.4308436546348
 20
696.8312648452998
 30
0.0
 10
478.2472951379312
 20
697.1028545630564
 30
0.0
 10
477.975705408003
 20
697.28640306563
 30
0.0
 10
477.7207598842229
 20
697.3664741636198
 30
0.0
 10
477.5968484116623
 20
697.3745474919868
 30
0.0
 10
477.5226690288312
 20
697.3782285014942
 30
0.0
  0
SPLINE
  5
F0
330
EB
100
AcDbEntity
  8
$DDT_AUDIT_GENERATED_(64)
  6
Continuous
 62
     7
100
AcDbSpline
210
0.0
220
0.0
230
1.0
 70
     8
 71
     3
 72
    13
 73
     9
 74
     0
 42
0.0000000063014676
 43
0.0000000001
 40
0.0
 40
0.0
 40
0.0
 40
0.0
 40
0.1294353618362314
 40
0.2550301133060649
 40
0.4999999999999998
 40
0.7449698866939337
 40
0.8705646381637675
 40
1.0
 40
1.0
 40
1.0
 40
1.0
 10
419.5226677655239
 20
697.3782285014942
 30
0.0
 10
419.4484883865906
 20
697.3745474919629
 30
0.0
 10
419.3245769202131
 20
697.3664741635696
 30
0.0
 10
419.0696314085744
 20
697.2864030649782
 30
0.0
 10
418.7980416919198
 20
697.1028545601972
 30
0.0
 10
418.6144931871388
 20
696.8312648435425
 30
0.0
 10
418.5344220885474
 20
696.5763193319038
 30
0.0
 10
418.5263487601542
 20
696.4524078655265
 30
0.0
 10
418.522667750623
 20
696.3782284865931
 30
0.0
  0
LINE
  5
F1
330
EB
100
AcDbEntity
  8
$DDT_AUDIT_GENERATED_(64)
  6
Continuous
 62
     7
100
AcDbLine
 10
418.5226618839
 20
696.3832284866
 30
0.0
 11
418.5226618839
 21
691.6782285015
 31
0.0
  0
LINE
  5
F2
330
EB
100
AcDbEntity
  8
$DDT_AUDIT_GENERATED_(64)
  6
Continuous
 62
     7
100
AcDbLine
 10
478.5227183376
 20
691.6782285015
 30
0.0
 11
478.5227183376
 21
696.3832284866
 31
0.0
  0
LINE
  5
F3
330
EB
100
AcDbEntity
  8
$DDT_AUDIT_GENERATED_(70)
  6
Continuous
 62
     7
100
AcDbLine
 10
448.5226677506
 20
698.3663902939
 30
0.0
 11
462.9357727224
 21
698.3663930432
 31
0.0
  0
LINE
  5
F4
330
EB
100
AcDbEntity
  8
$DDT_AUDIT_GENERATED_(70)
  6
Continuous
 62
     7
100
AcDbLine
 10
434.1095627788
 20
698.3663930432
 30
0.0
 11
448.5226677506
 21
698.3663902939
 31
0.0
  0
SPLINE
  5
F5
330
EB
100
AcDbEntity
  8
$DDT_AUDIT_GENERATED_(70)
  6
Continuous
 62
     7
100
AcDbSpline
210
0.0
220
0.0
230
1.0
 70
     8
 71
     3
 72
    17
 73
    13
 74
     0
 42
0.000000001553544
 43
0.0000000001
 40
0.0
 40
0.0
 40
0.0
 40
0.0
 40
0.0833354487014831
 40
0.1663736216528879
 40
0.2494866424919604
 40
0.3752626340111653
 40
0.5000479199939184
 40
0.6246601036732432
 40
0.7502964613493427
 40
0.8754314240554908
 40
0.9377169111661814
 40
1.0
 40
1.0
 40
1.0
 40
1.0
 10
434.1095627788451
 20
698.366393043235
 30
0.0
 10
433.7778689604227
 20
698.3663283725188
 30
0.0
 10
433.1156645478862
 20
698.3661992617809
 30
0.0
 10
432.2096749504058
 20
698.3660697515385
 30
0.0
 10
431.2305116681956
 20
698.3660315926007
 30
0.0
 10
430.2420151602333
 20
698.3659262966839
 30
0.0
 10
429.3169547601857
 20
698.3659416873
 30
0.0
 10
428.5876228626553
 20
698.3660302909964
 30
0.0
 10
428.0602372405999
 20
698.3661781388926
 30
0.0
 10
427.7971971227481
 20
698.3663093729654
 30
0.0
 10
427.687918566086
 20
698.3663694136397
 30
0.0
 10
427.6777512905275
 20
698.3663814025589
 30
0.0
 10
427.6726677506217
 20
698.366393043235
 30
0.0
  0
SPLINE
  5
F6
330
EB
100
AcDbEntity
  8
$DDT_AUDIT_GENERATED_(70)
  6
Continuous
 62
     7
100
AcDbSpline
210
0.0
220
0.0
230
1.0
 70
     8
 71
     3
 72
    17
 73
    13
 74
     0
 42
0.000000001553544
 43
0.0000000001
 40
0.0
 40
0.0
 40
0.0
 40
0.0
 40
0.0627289163599583
 40
0.1254602832760826
 40
0.2499137825791045
 40
0.3746483269236378
 40
0.500297641949969
 40
0.6249459110890658
 40
0.7494413562942406
 40
0.8749659811880093
 40
0.9374489124370873
 40
1.0
 40
1.0
 40
1.0
 40
1.0
 10
469.3726677506218
 20
698.366393043235
 30
0.0
 10
469.3675118012345
 20
698.3663812859752
 30
0.0
 10
469.3571997010388
 20
698.3663690638806
 30
0.0
 10
469.2470440894257
 20
698.366308830973
 30
0.0
 10
468.984209821593
 20
698.3661778196198
 30
0.0
 10
468.4580226151334
 20
698.3660309173063
 30
0.0
 10
467.7289957698043
 20
698.3659395958828
 30
0.0
 10
466.8044180708313
 20
698.3659339076905
 30
0.0
 10
465.6954439030569
 20
698.3660162566919
 30
0.0
 10
464.6228576833323
 20
698.3661552924789
 30
0.0
 10
463.6857218347824
 20
698.366279914839
 30
0.0
 10
463.1858465875742
 20
698.3663553200686
 30
0.0
 10
462.9357727224314
 20
698.366393043235
 30
0.0
  0
LINE
  5
F7
330
EB
100
AcDbEntity
  8
$DDT_AUDIT_GENERATED_(70)
  6
Continuous
 62
     7
100
AcDbLine
 10
427.6823236996
 20
698.323424009
 30
0.0
 11
423.8745619415
 21
697.4698151568
 31
0.0
  0
LINE
  5
F8
330
EB
100
AcDbEntity
  8
$DDT_AUDIT_GENERATED_(70)
  6
Continuous
 62
     7
100
AcDbLine
 10
473.1707735597
 20
697.4698151568
 30
0.0
 11
469.3630116324
 21
698.3234240469
 31
0.0
  0
LINE
  5
F9
330
EB
100
AcDbEntity
  8
$DDT_AUDIT_GENERATED_(70)
  6
Continuous
 62
     7
100
AcDbLine
 10
423.8726677506
 20
697.4832285015
 30
0.0
 11
423.8726677506
 21
697.3782285015
 31
0.0
  0
LINE
  5
FA
330
EB
100
AcDbEntity
  8
$DDT_AUDIT_GENERATED_(70)
  6
Continuous
 62
     7
100
AcDbLine
 10
473.1726677506
 20
697.3782285015
 30
0.0
 11
473.1726677506
 21
697.4832285015
 31
0.0
  0
SPLINE
  5
FB
330
EB
100
AcDbEntity
  8
$DDT_AUDIT_GENERATED_(73)
  6
Continuous
 62
     7
100
AcDbSpline
210
0.0
220
0.0
230
1.0
 70
     8
 71
     7
 72
    16
 73
     8
 74
     0
 42
0.0000000005620664
 43
0.0000000001
 40
0.0
 40
0.0
 40
0.0
 40
0.0
 40
0.0
 40
0.0
 40
0.0
 40
0.0
 40
1.0
 40
1.0
 40
1.0
 40
1.0
 40
1.0
 40
1.0
 40
1.0
 40
1.0
 10
448.5226902151898
 20
714.678224399424
 30
0.0
 10
446.5233650431416
 20
714.678224399424
 30
0.0
 10
443.8575981470776
 20
714.678224399424
 30
0.0
 10
439.2290953178236
 20
714.8979788371481
 30
0.0
 10
438.3170329463386
 20
715.177096132321
 30
0.0
 10
434.5274140108546
 20
716.3368284270431
 30
0.0
 10
434.5274140108546
 20
718.7676253998932
 30
0.0
 10
434.5274140108546
 20
719.9125932757651
 30
0.0
  0
SPLINE
  5
FC
330
EB
100
AcDbEntity
  8
$DDT_AUDIT_GENERATED_(73)
  6
Continuous
 62
     7
100
AcDbSpline
210
0.0
220
0.0
230
1.0
 70
     8
 71
     7
 72
    16
 73
     8
 74
     0
 42
0.0000000005620664
 43
0.0000000001
 40
0.0
 40
0.0
 40
0.0
 40
0.0
 40
0.0
 40
0.0
 40
0.0
 40
0.0
 40
1.0
 40
1.0
 40
1.0
 40
1.0
 40
1.0
 40
1.0
 40
1.0
 40
1.0
 10
462.5179664195256
 20
719.9125932757651
 30
0.0
 10
462.5179664195256
 20
718.7676253998932
 30
0.0
 10
462.5179664195256
 20
716.3368284270431
 30
0.0
 10
458.7283474840406
 20
715.177096132321
 30
0.0
 10
457.8162851125556
 20
714.8979788371481
 30
0.0
 10
453.1877822833016
 20
714.678224399424
 30
0.0
 10
450.5220153872376
 20
714.678224399424
 30
0.0
 10
448.5226902151898
 20
714.678224399424
 30
0.0
  0
ARC
  5
FD
330
EB
100
AcDbEntity
  8
$DDT_AUDIT_GENERATED_(73)
  6
Continuous
 62
     7
100
AcDbCircle
 10
437.7285806702
 20
715.9934782636
 30
0.0
 40
5.060329086069354
100
AcDbArc
 50
85.5124001445
 51
93.1412822228
  0
LINE
  5
FE
330
EB
100
AcDbEntity
  8
$DDT_AUDIT_GENERATED_(73)
  6
Continuous
 62
     7
100
AcDbLine
 10
434.5274140109
 20
719.9125932758
 30
0.0
 11
448.5226902152
 21
719.9125932758
 31
0.0
  0
LINE
  5
FF
330
EB
100
AcDbEntity
  8
$DDT_AUDIT_GENERATED_(73)
  6
Continuous
 62
     7
100
AcDbLine
 10
448.5226902152
 20
719.9125932758
 30
0.0
 11
462.5179664195
 21
719.9125932758
 31
0.0
  0
ARC
  5
100
330
EB
100
AcDbEntity
  8
$DDT_AUDIT_GENERATED_(73)
  6
Continuous
 62
     7
100
AcDbCircle
 10
459.3167997601
 20
715.9934782636
 30
0.0
 40
5.060329086071961
100
AcDbArc
 50
78.3947051595
 51
94.4875998555
  0
LINE
  5
101
330
EB
100
AcDbEntity
  8
$DDT_AUDIT_GENERATED_(73)
  6
Continuous
 62
     7
100
AcDbLine
 10
448.5226902158
 20
721.0382938521
 30
0.0
 11
438.1245177078
 21
721.0382938521
 31
0.0
  0
LINE
  5
102
330
EB
100
AcDbEntity
  8
$DDT_AUDIT_GENERATED_(73)
  6
Continuous
 62
     7
100
AcDbLine
 10
458.9208627226
 20
721.0382938521
 30
0.0
 11
448.5226902158
 21
721.0382938521
 31
0.0
  0
ARC
  5
103
330
EB
100
AcDbEntity
  8
$DDT_AUDIT_GENERATED_(73)
  6
Continuous
 62
     7
100
AcDbCircle
 10
455.8403988248
 20
714.011947801
 30
0.0
 40
0.9999999999991234
100
AcDbArc
 50
97.3614393481
 51
179.5
  0
ARC
  5
104
330
EB
100
AcDbEntity
  8
$DDT_AUDIT_GENERATED_(73)
  6
Continuous
 62
     7
100
AcDbCircle
 10
441.2049754603
 20
714.0119395553
 30
0.0
 40
1.000006008191223
100
AcDbArc
 50
0.5004710041
 51
62.9946914597
  0
ARC
  5
105
330
EB
100
AcDbEntity
  8
$DDT_AUDIT_GENERATED_(73)
  6
Continuous
 62
     7
100
AcDbCircle
 10
437.469874667
 20
717.279448409
 30
0.0
 40
3.752505378808261
100
AcDbArc
 50
90.2693906003
 51
135.4361913476
  0
ARC
  5
106
330
EB
100
AcDbEntity
  8
$DDT_AUDIT_GENERATED_(73)
  6
Continuous
 62
     7
100
AcDbCircle
 10
459.6524669704
 20
717.4450923052
 30
0.0
 40
3.582012038218207
100
AcDbArc
 50
43.5398508237
 51
79.0271792386
  0
LINE
  5
107
330
EB
100
AcDbEntity
  8
$DDT_AUDIT_GENERATED_(73)
  6
Continuous
 62
     7
100
AcDbLine
 10
442.2049433715
 20
714.0206684106
 30
0.0
 11
442.2369351467
 21
710.3547740746
 31
0.0
  0
LINE
  5
108
330
EB
100
AcDbEntity
  8
$DDT_AUDIT_GENERATED_(73)
  6
Continuous
 62
     7
100
AcDbLine
 10
454.8084450377
 20
710.3547698233
 30
0.0
 11
454.8404369018
 21
714.0206743462
 31
0.0
  0
LINE
  5
109
330
EB
100
AcDbEntity
  8
02636038_GEHÄUSE
  6
Continuous
 62
     7
100
AcDbLine
 10
568.4308128402
 20
936.2330458088
 30
0.0
 11
589.7003800793
 21
939.3723943818
 31
0.0
  0
LINE
  5
10A
330
EB
100
AcDbEntity
  8
02636038_GEHÄUSE
  6
Continuous
 62
     7
100
AcDbLine
 10
567.8403412569
 20
936.4668761804
 30
0.0
 11
568.4308128402
 21
936.2330458088
 31
0.0
  0
LINE
  5
10B
330
EB
100
AcDbEntity
  8
02636038_GEHÄUSE
  6
Continuous
 62
     7
100
AcDbLine
 10
589.7003800793
 20
939.3723943818
 30
0.0
 11
590.1981189129
 21
939.7668425873
 31
0.0
  0
ARC
  5
10C
330
EB
100
AcDbEntity
  8
02636038_GEHÄUSE
  6
Continuous
 62
     7
100
AcDbCircle
 10
589.5770240647
 20
940.5505779952
 30
0.0
 40
1.0
100
AcDbArc
 50
308.3961302384
 51
8.3961302384
  0
ARC
  5
10D
330
EB
100
AcDbEntity
  8
02636038_GEHÄUSE
  6
Continuous
 62
     7
100
AcDbCircle
 10
568.2085286059
 20
937.396627801
 30
0.0
 40
1.000000000000001
100
AcDbArc
 50
188.3961302384
 51
248.3961302384
  0
LINE
  5
10E
330
EB
100
AcDbEntity
  8
02636038_GEHÄUSE
  6
Continuous
 62
     7
100
AcDbLine
 10
566.4942078012
 20
942.1628591634
 30
0.0
 11
567.2192464088
 21
937.2506115883
 31
0.0
  0
LINE
  5
10F
330
EB
100
AcDbEntity
  8
02636038_GEHÄUSE
  6
Continuous
 62
     7
100
AcDbLine
 10
590.5663062619
 20
940.6965942079
 30
0.0
 11
589.7348207774
 21
946.3300356721
 31
0.0
  0
SPLINE
  5
110
330
EB
100
AcDbEntity
  8
$DDT_AUDIT_GENERATED_(99)
  6
Continuous
 62
     7
100
AcDbSpline
210
0.0
220
0.0
230
1.0
 70
     8
 71
     3
 72
    16
 73
    12
 74
     0
 42
0.0000000003793653
 43
0.0000000001
 40
0.5000563846239996
 40
0.5000563846239996
 40
0.5000563846239996
 40
0.5000563846239996
 40
0.6249999999999999
 40
0.6249999999999999
 40
0.6875
 40
0.6875
 40
0.75
 40
0.75
 40
0.875
 40
0.875
 40
1.0
 40
1.0
 40
1.0
 40
1.0
 10
455.1118790440599
 20
710.3552074514749
 30
0.0
 10
455.1118440187906
 20
710.355209924609
 30
0.0
 10
454.3998284017395
 20
710.3552006460013
 30
0.0
 10
452.57950058042
 20
710.35521083427
 30
0.0
 10
451.847926778224
 20
710.3546657708467
 30
0.0
 10
450.2546108292056
 20
710.3546614268685
 30
0.0
 10
449.3983386852303
 20
710.355203822746
 30
0.0
 10
446.7914853024301
 20
710.3552146619561
 30
0.0
 10
445.0848211324545
 20
710.3552018311381
 30
0.0
 10
442.6494114728997
 20
710.355213051286
 30
0.0
 10
441.9334566420084
 20
710.3552074498027
 30
0.0
 10
441.9334566420084
 20
710.3552074498027
 30
0.0
  0
SPLINE
  5
111
330
EB
100
AcDbEntity
  8
$DDT_AUDIT_GENERATED_(99)
  6
Continuous
 62
     7
100
AcDbSpline
210
0.0
220
0.0
230
1.0
 70
     8
 71
     3
 72
     8
 73
     4
 74
     0
 42
0.0000000007055492
 43
0.0000000001
 40
0.0
 40
0.0
 40
0.0
 40
0.0
 40
1.0
 40
1.0
 40
1.0
 40
1.0
 10
442.0185681309723
 20
710.3612310940815
 30
0.0
 10
437.3012169224988
 20
710.0290226977887
 30
0.0
 10
432.6364868677063
 20
709.3403727293891
 30
0.0
 10
428.0243779665948
 20
708.295281188883
 30
0.0
  0
SPLINE
  5
112
330
EB
100
AcDbEntity
  8
$DDT_AUDIT_GENERATED_(99)
  6
Continuous
 62
     7
100
AcDbSpline
210
0.0
220
0.0
230
1.0
 70
     8
 71
     3
 72
     8
 73
     4
 74
     0
 42
0.0000000007055492
 43
0.0000000001
 40
0.0
 40
0.0
 40
0.0
 40
0.0
 40
1.0
 40
1.0
 40
1.0
 40
1.0
 10
469.0209577434921
 20
708.295281188883
 30
0.0
 10
464.4088488423807
 20
709.3403727293891
 30
0.0
 10
459.7441187875882
 20
710.0290226977887
 30
0.0
 10
455.0267675791144
 20
710.3612310940815
 30
0.0
  0
SPLINE
  5
113
330
EB
100
AcDbEntity
  8
$DDT_AUDIT_GENERATED_(99)
  6
Continuous
 62
     7
100
AcDbSpline
210
0.0
220
0.0
230
1.0
 70
     8
 71
     3
 72
    11
 73
     7
 74
     0
 42
0.0000000244193847
 43
0.0000000001
 40
0.0
 40
0.0
 40
0.0
 40
0.0
 40
0.2533056710154847
 40
0.4999737596469236
 40
0.74665618642391
 40
1.0
 40
1.0
 40
1.0
 40
1.0
 10
469.172872481213
 20
708.0212545091288
 30
0.0
 10
469.1696967900897
 20
708.0585276090959
 30
0.0
 10
469.1626370995612
 20
708.1216273846229
 30
0.0
 10
469.1114235397619
 20
708.2119664082543
 30
0.0
 10
469.0345641103432
 20
708.2818051570409
 30
0.0
 10
468.9745608318478
 20
708.3025846505511
 30
0.0
 10
468.938895855396
 20
708.3138895129283
 30
0.0
  0
SPLINE
  5
114
330
EB
100
AcDbEntity
  8
$DDT_AUDIT_GENERATED_(99)
  6
Continuous
 62
     7
100
AcDbSpline
210
0.0
220
0.0
230
1.0
 70
     8
 71
     3
 72
    11
 73
     7
 74
     0
 42
0.0000000244211846
 43
0.0000000001
 40
0.0
 40
0.0
 40
0.0
 40
0.0
 40
0.2533237735973242
 40
0.4999999999992771
 40
0.7466762264016377
 40
1.0
 40
1.0
 40
1.0
 40
1.0
 10
428.1066254954054
 20
708.3138885319153
 30
0.0
 10
428.0709665584163
 20
708.3025834214761
 30
0.0
 10
428.0109716145228
 20
708.2818032647058
 30
0.0
 10
427.9341263483996
 20
708.2119632280906
 30
0.0
 10
427.8829233378713
 20
708.1216245467141
 30
0.0
 10
427.8758651396494
 20
708.0585262896379
 30
0.0
 10
427.8726902150993
 20
708.0212531738123
 30
0.0
  0
LINE
  5
115
330
EB
100
AcDbEntity
  8
$DDT_AUDIT_GENERATED_(99)
  6
Continuous
 62
     7
100
AcDbLine
 10
427.8726902151
 20
708.0212531738
 30
0.0
 11
427.8726902151
 21
698.3661976423
 31
0.0
  0
LINE
  5
116
330
EB
100
AcDbEntity
  8
$DDT_AUDIT_GENERATED_(99)
  6
Continuous
 62
     7
100
AcDbLine
 10
469.172645495
 20
698.3663362983
 30
0.0
 11
469.172645495
 21
708.0212531738
 31
0.0
  0
LINE
  5
117
330
EB
100
AcDbEntity
  8
$DDT_AUDIT_GENERATED_(A7)
  6
Continuous
 62
     7
100
AcDbLine
 10
427.0031770896
 20
737.4782285015
 30
0.0
 11
427.6726677506
 21
737.4782285015
 31
0.0
  0
LINE
  5
118
330
EB
100
AcDbEntity
  8
$DDT_AUDIT_GENERATED_(A7)
  6
Continuous
 62
     7
100
AcDbLine
 10
469.3726677506
 20
737.4782285015
 30
0.0
 11
470.0421584117
 21
737.4782285015
 31
0.0
  0
LINE
  5
119
330
EB
100
AcDbEntity
  8
$DDT_AUDIT_GENERATED_(A7)
  6
Continuous
 62
     7
100
AcDbLine
 10
475.860728773
 20
700.9433502646
 30
0.0
 11
473.5336325876
 21
734.2223761596
 31
0.0
  0
LINE
  5
11A
330
EB
100
AcDbEntity
  8
$DDT_AUDIT_GENERATED_(A7)
  6
Continuous
 62
     7
100
AcDbLine
 10
423.2069449601
 20
729.8641343761
 30
0.0
 11
421.1846067282
 21
700.9433502646
 31
0.0
  0
ARC
  5
11B
330
EB
100
AcDbEntity
  8
$DDT_AUDIT_GENERATED_(A7)
  6
Continuous
 62
     7
100
AcDbCircle
 10
470.0421584117
 20
733.9782285015
 30
0.0
 40
3.500000000000003
100
AcDbArc
 50
4.0
 51
90.0
  0
ARC
  5
11C
330
EB
100
AcDbEntity
  8
$DDT_AUDIT_GENERATED_(A7)
  6
Continuous
 62
     7
100
AcDbCircle
 10
427.0031770896
 20
733.9782285015
 30
0.0
 40
3.500000000000003
100
AcDbArc
 50
90.0
 51
122.591511659
  0
ARC
  5
11D
330
EB
100
AcDbEntity
  8
$DDT_AUDIT_GENERATED_(A7)
  6
Continuous
 62
     7
100
AcDbCircle
 10
476.3595107981
 20
700.9782285015
 30
0.0
 40
0.5000000000006133
100
AcDbArc
 50
184.0
 51
243.9193866631
  0
ARC
  5
11E
330
EB
100
AcDbEntity
  8
$DDT_AUDIT_GENERATED_(A7)
  6
Continuous
 62
     7
100
AcDbCircle
 10
420.6858247031
 20
700.9782285015
 30
0.0
 40
0.4999999999999996
100
AcDbArc
 50
296.0806133369
 51
356.0
  0
ARC
  5
11F
330
EB
100
AcDbEntity
  8
$DDT_AUDIT_GENERATED_(A7)
  6
Continuous
 62
     7
100
AcDbCircle
 10
474.6009696498
 20
697.3855229709
 30
0.0
 40
3.500000000000001
100
AcDbArc
 50
11.4362363422
 51
63.919386663
  0
ARC
  5
120
330
EB
100
AcDbEntity
  8
$DDT_AUDIT_GENERATED_(A7)
  6
Continuous
 62
     7
100
AcDbCircle
 10
422.4443658514
 20
697.3855229709
 30
0.0
 40
3.499999999999387
100
AcDbArc
 50
116.080613337
 51
168.6039651397
  0
SPLINE
  5
121
330
EB
100
AcDbEntity
  8
$DDT_AUDIT_GENERATED_(B7)
  6
Continuous
 62
     7
100
AcDbSpline
210
0.0
220
0.0
230
1.0
 70
     8
 71
     3
 72
    13
 73
     9
 74
     0
 42
0.0000000063014675
 43
0.0000000001
 40
0.0
 40
0.0
 40
0.0
 40
0.0
 40
0.1294353584796121
 40
0.2550301072098068
 40
0.4999999914726231
 40
0.7449698805975513
 40
0.8705646348070479
 40
1.0
 40
1.0
 40
1.0
 40
1.0
 10
478.5226690965533
 20
697.1782284567911
 30
0.0
 10
478.5189880868033
 20
697.2524078357533
 30
0.0
 10
478.5109147579562
 20
697.3763193025062
 30
0.0
 10
478.4308436545255
 20
697.6312648154977
 30
0.0
 10
478.2472951378218
 20
697.9028545332544
 30
0.0
 10
477.9757054078939
 20
698.0864030358281
 30
0.0
 10
477.7207598841135
 20
698.1664741338179
 30
0.0
 10
477.596848411553
 20
698.1745474621848
 30
0.0
 10
477.5226690287219
 20
698.1782284716921
 30
0.0
  0
SPLINE
  5
122
330
EB
100
AcDbEntity
  8
$DDT_AUDIT_GENERATED_(B7)
  6
Continuous
 62
     7
100
AcDbSpline
210
0.0
220
0.0
230
1.0
 70
     8
 71
     3
 72
    13
 73
     9
 74
     0
 42
0.0000000063014676
 43
0.0000000001
 40
0.0
 40
0.0
 40
0.0
 40
0.0
 40
0.1294353618362314
 40
0.2550301133060649
 40
0.4999999999999999
 40
0.7449698866939338
 40
0.8705646381637676
 40
1.0
 40
1.0
 40
1.0
 40
1.0
 10
419.5226677654146
 20
698.1782284716921
 30
0.0
 10
419.4484883864812
 20
698.174547462161
 30
0.0
 10
419.3245769201038
 20
698.1664741337676
 30
0.0
 10
419.0696314084652
 20
698.0864030351762
 30
0.0
 10
418.7980416918105
 20
697.9028545303952
 30
0.0
 10
418.6144931870295
 20
697.6312648137406
 30
0.0
 10
418.5344220884382
 20
697.3763193021018
 30
0.0
 10
418.5263487600449
 20
697.2524078357245
 30
0.0
 10
418.5226677505136
 20
697.1782284567911
 30
0.0
  0
LINE
  5
123
330
EB
100
AcDbEntity
  8
$DDT_AUDIT_GENERATED_(B7)
  6
Continuous
 62
     7
100
AcDbLine
 10
418.5226618838
 20
697.1832284568
 30
0.0
 11
418.5226618838
 21
696.3832284866
 31
0.0
  0
LINE
  5
124
330
EB
100
AcDbEntity
  8
$DDT_AUDIT_GENERATED_(B7)
  6
Continuous
 62
     7
100
AcDbLine
 10
478.5227183375
 20
696.3832284866
 30
0.0
 11
478.5227183375
 21
697.1832284568
 31
0.0
  0
LINE
  5
126
330
EB
100
AcDbEntity
  8
$DDT_AUDIT_GENERATED_(125)
  6
Continuous
 62
     7
100
AcDbLine
 10
401.0310083026
 20
758.4308086415
 30
0.0
 11
401.0309982869
 21
754.4308086415
 31
0.0
  0
LINE
  5
127
330
EB
100
AcDbEntity
  8
$DDT_AUDIT_GENERATED_(125)
  6
Continuous
 62
     7
100
AcDbLine
 10
414.4982956625
 20
758.4307749205
 30
0.0
 11
401.0310083026
 21
758.4308086415
 31
0.0
  0
LINE
  5
128
330
EB
100
AcDbEntity
  8
$DDT_AUDIT_GENERATED_(125)
  6
Continuous
 62
     7
100
AcDbLine
 10
401.0309982869
 20
754.4308086415
 30
0.0
 11
414.4982856468
 21
754.4307749205
 31
0.0
  0
ARC
  5
129
330
EB
100
AcDbEntity
  8
$DDT_AUDIT_GENERATED_(125)
  6
Continuous
 62
     7
100
AcDbCircle
 10
414.4982831429
 20
753.4307749205
 30
0.0
 40
0.9999999999999714
100
AcDbArc
 50
17.9998565361
 51
89.9998565361
  0
ARC
  5
12A
330
EB
100
AcDbEntity
  8
$DDT_AUDIT_GENERATED_(125)
  6
Continuous
 62
     7
100
AcDbCircle
 10
414.4982831429
 20
753.4307749205
 30
0.0
 40
4.999999999999963
100
AcDbArc
 50
17.9998565361
 51
89.9998565361
  0
LINE
  5
12B
330
EB
100
AcDbEntity
  8
$DDT_AUDIT_GENERATED_(125)
  6
Continuous
 62
     7
100
AcDbLine
 10
427.7263962356
 20
728.8989467439
 30
0.0
 11
419.2535695932
 21
754.9758479855
 31
0.0
  0
LINE
  5
12C
330
EB
100
AcDbEntity
  8
$DDT_AUDIT_GENERATED_(125)
  6
Continuous
 62
     7
100
AcDbLine
 10
415.449340433
 20
753.7397895335
 30
0.0
 11
427.726324376
 21
715.9547962441
 31
0.0
  0
LINE
  5
12D
330
EB
100
AcDbEntity
  8
$DDT_AUDIT_GENERATED_(BE)
  6
Continuous
 62
     7
100
AcDbLine
 10
566.0610600417
 20
942.0156519976
 30
0.0
 11
487.4388343087
 21
932.3620497755
 31
0.0
  0
LINE
  5
12E
330
EB
100
AcDbEntity
  8
$DDT_AUDIT_GENERATED_(BE)
  6
Continuous
 62
     7
100
AcDbLine
 10
485.3670646943
 20
949.2353094758
 30
0.0
 11
576.1853528401
 21
960.3863931455
 31
0.0
  0
LINE
  5
12F
330
EB
100
AcDbEntity
  8
$DDT_AUDIT_GENERATED_(BE)
  6
Continuous
 62
     7
100
AcDbLine
 10
485.5334455561
 20
947.8802451233
 30
0.0
 11
576.3514316373
 21
959.0312917042
 31
0.0
  0
SPLINE
  5
130
330
EB
100
AcDbEntity
  8
$DDT_AUDIT_GENERATED_(BE)
  6
Continuous
 62
     7
100
AcDbSpline
210
0.0
220
0.0
230
1.0
 70
    12
 71
     5
 72
    12
 73
     6
 74
     0
 42
0.0000000001959765
 43
0.0000000001
 40
0.407608228770716
 40
0.407608228770716
 40
0.407608228770716
 40
0.407608228770716
 40
0.407608228770716
 40
0.407608228770716
 40
1.0
 40
1.0
 40
1.0
 40
1.0
 40
1.0
 40
1.0
 10
460.823621200042
 20
921.3707767540328
 30
0.0
 41
1.0
 10
463.6862169986029
 20
925.426858486474
 30
0.0
 41
1.0
 10
468.0241066851148
 20
928.6228652077325
 30
0.0
 41
1.0
 10
473.7984145696001
 20
930.6872078350323
 30
0.0
 41
1.0
 10
480.2398179682727
 20
931.4781210964192
 30
0.0
 41
1.0
 10
487.4388343087166
 20
932.362049775532
 30
0.0
 41
1.0
  0
SPLINE
  5
131
330
EB
100
AcDbEntity
  8
$DDT_AUDIT_GENERATED_(BE)
  6
Continuous
 62
     7
100
AcDbSpline
210
0.0
220
0.0
230
1.0
 70
     8
 71
     2
 72
    22
 73
    19
 74
     0
 42
0.0000000002965428
 43
0.0000000001
 40
0.0
 40
0.0
 40
0.0
 40
0.0312502384347396
 40
0.0312502384347396
 40
0.0625004768694792
 40
0.0625004768694792
 40
0.1250009537389584
 40
0.1250009537389584
 40
0.1875014306084376
 40
0.1875014306084376
 40
0.2500019074779168
 40
0.2500019074779168
 40
0.3750028612168751
 40
0.3750028612168751
 40
0.4375033380863543
 40
0.4375033380863543
 40
0.5000038149558336
 40
0.5000038149558336
 40
0.5000292542307418
 40
0.5000292542307418
 40
0.5000292542307418
 10
576.185350388776
 20
960.3864131100208
 30
0.0
 10
577.1313711540934
 20
960.5025495891841
 30
0.0
 10
578.1338627929048
 20
960.6256400852817
 30
0.0
 10
578.9997450766413
 20
960.7319570616445
 30
0.0
 10
579.8512790137594
 20
960.8365122825619
 30
0.0
 10
581.2759565218237
 20
961.011440685411
 30
0.0
 10
582.6088182248477
 20
961.175095524916
 30
0.0
 10
584.3019914260829
 20
961.3829910536671
 30
0.0
 10
585.8044623243734
 20
961.5674712838086
 30
0.0
 10
587.0227736321827
 20
961.7170611032882
 30
0.0
 10
588.0447032903494
 20
961.8425382880653
 30
0.0
 10
590.3832375635776
 20
962.1296741929335
 30
0.0
 10
591.6413047663151
 20
962.2841454225319
 30
0.0
 10
592.282118516823
 20
962.3628274577752
 30
0.0
 10
592.6052091386921
 20
962.4024979980478
 30
0.0
 10
592.9215016564604
 20
962.4413338360904
 30
0.0
 10
592.9216274966744
 20
962.4413492873259
 30
0.0
 10
592.9216275499423
 20
962.4413492938663
 30
0.0
 10
592.9216275465204
 20
962.4413492934463
 30
0.0
  0
SPLINE
  5
132
330
EB
100
AcDbEntity
  8
$DDT_AUDIT_GENERATED_(BE)
  6
Continuous
 62
     7
100
AcDbSpline
210
0.0
220
0.0
230
1.0
 70
     8
 71
     3
 72
    18
 73
    14
 74
     0
 42
0.0000000002553022
 43
0.0000000001
 40
0.4999786867882196
 40
0.4999786867882196
 40
0.4999786867882196
 40
0.4999786867882196
 40
0.5000392477592377
 40
0.5625898151313691
 40
0.6251403193206921
 40
0.7496387907488602
 40
0.8121891113937479
 40
0.874739380705376
 40
0.9060522131752679
 40
0.9373650360658757
 40
0.9686778506875536
 40
0.9843898279035108
 40
1.0
 40
1.0
 40
1.0
 40
1.0
 10
595.788880768484
 20
961.4327438692267
 30
0.0
 10
595.7888809937343
 20
961.4327438946098
 30
0.0
 10
595.7889918915964
 20
961.4327551597644
 30
0.0
 10
595.5371137487805
 20
961.4018234973494
 30
0.0
 10
594.0630446025202
 20
961.2208214815591
 30
0.0
 10
591.1600552784929
 20
960.8643645592825
 30
0.0
 10
587.2200428889745
 20
960.3805946783289
 30
0.0
 10
584.3983943662274
 20
960.0341065832454
 30
0.0
 10
582.00175847505
 20
959.7398923265469
 30
0.0
 10
580.1482313492605
 20
959.5121261404342
 30
0.0
 10
578.5717687115124
 20
959.3191217544604
 30
0.0
 10
577.3029578466856
 20
959.162181827812
 30
0.0
 10
576.6667301054244
 20
959.0845486533233
 30
0.0
 10
576.3500090795743
 20
959.042877506757
 30
0.0
  0
SPLINE
  5
133
330
EB
100
AcDbEntity
  8
$DDT_AUDIT_GENERATED_(BE)
  6
Continuous
 62
     7
100
AcDbSpline
210
0.0
220
0.0
230
1.0
 70
    12
 71
     5
 72
    12
 73
     6
 74
     0
 42
0.0000000001257372
 43
0.0000000001
 40
0.0
 40
0.0
 40
0.0
 40
0.0
 40
0.0
 40
0.0
 40
1.0
 40
1.0
 40
1.0
 40
1.0
 40
1.0
 40
1.0
 10
440.0226677506217
 20
904.1620746652771
 30
0.0
 41
1.0
 10
440.0226677506217
 20
921.7090587999871
 30
0.0
 41
1.0
 10
440.0226677506217
 20
934.1618067598662
 30
0.0
 41
1.0
 10
453.9752129301575
 20
945.3808654091362
 30
0.0
 41
1.0
 10
467.9508740388907
 20
947.0968608216992
 30
0.0
 41
1.0
 10
485.3669660031316
 20
949.2361132505844
 30
0.0
 41
1.0
  0
SPLINE
  5
134
330
EB
100
AcDbEntity
  8
$DDT_AUDIT_GENERATED_(BE)
  6
Continuous
 62
     7
100
AcDbSpline
210
0.0
220
0.0
230
1.0
 70
     8
 71
     3
 72
    18
 73
    14
 74
     0
 42
0.0000000001394382
 43
0.0000000001
 40
0.0
 40
0.0
 40
0.0
 40
0.0
 40
0.1430038274664357
 40
0.2755378753327033
 40
0.381662011234571
 40
0.503018277644731
 40
0.5921376482271133
 40
0.6634577441589351
 40
0.7185176905115194
 40
0.7803813314499303
 40
0.8492565575359505
 40
0.9058775133886542
 40
1.0
 40
1.0
 40
1.0
 40
1.0
 10
485.53203654915
 20
947.8917205635842
 30
0.0
 10
482.1513716823239
 20
947.4797577101472
 30
0.0
 10
475.63822579041
 20
946.6805037500002
 30
0.0
 10
466.725289783613
 20
944.7653625314871
 30
0.0
 10
458.6872109023884
 20
941.6840628219194
 30
0.0
 10
452.2865707134763
 20
937.5319967143273
 30
0.0
 10
447.6997718620152
 20
932.5549407412201
 30
0.0
 10
445.0670358133204
 20
928.1161639711592
 30
0.0
 10
443.3992839230535
 20
923.94214139558
 30
0.0
 10
442.3040497986502
 20
919.6437661478304
 30
0.0
 10
441.6772463963418
 20
915.2185758759733
 30
0.0
 10
441.3722392962313
 20
909.9944355010033
 30
0.0
 10
441.3730008807042
 20
906.4039394553115
 30
0.0
 10
441.3735278224418
 20
904.1620746652771
 30
0.0
  0
SPLINE
  5
135
330
EB
100
AcDbEntity
  8
$DDT_AUDIT_GENERATED_(BE)
  6
Continuous
 62
     7
100
AcDbSpline
210
0.0
220
0.0
230
1.0
 70
     8
 71
     3
 72
     8
 73
     4
 74
     0
 42
0.000000000104823
 43
0.0000000001
 40
0.0
 40
0.0
 40
0.0
 40
0.0
 40
0.0641191716467013
 40
0.0641191716467013
 40
0.0641191716467013
 40
0.0641191716467013
 10
457.0226677506217
 20
904.1620746652771
 30
0.0
 10
457.0222907354099
 20
902.1231110707897
 30
0.0
 10
457.0219137201981
 20
900.0841474763023
 30
0.0
 10
457.0218432808902
 20
898.0451769582276
 30
0.0
  0
SPLINE
  5
136
330
EB
100
AcDbEntity
  8
$DDT_AUDIT_GENERATED_(BE)
  6
Continuous
 62
     7
100
AcDbSpline
210
0.0
220
0.0
230
1.0
 70
     8
 71
     3
 72
    18
 73
    14
 74
     0
 42
0.0000000001254406
 43
0.0000000001
 40
0.6240167261518925
 40
0.6240167261518925
 40
0.6240167261518925
 40
0.6240167261518925
 40
0.6262928784716169
 40
0.7093503382000983
 40
0.7511334678078024
 40
0.813479491548105
 40
0.8757159607442254
 40
0.907813181709282
 40
0.9379056950071158
 40
0.9541601677881103
 40
0.9700360648566316
 40
0.9850785120504582
 40
1.0
 40
1.0
 40
1.0
 40
1.0
 10
458.194658919221
 20
844.6625747411625
 30
0.0
 10
458.2026552006218
 20
844.5906099484921
 30
0.0
 10
458.5050865072832
 20
841.8928723187707
 30
0.0
 10
459.1052302319458
 20
837.8880267664423
 30
0.0
 10
460.522787126592
 20
832.1219649888008
 30
0.0
 10
462.2319604044035
 20
827.164397831389
 30
0.0
 10
464.2979860522812
 20
822.8894812538861
 30
0.0
 10
465.946602058989
 20
820.0201326380198
 30
0.0
 10
466.8784097792209
 20
818.5327307614202
 30
0.0
 10
467.46969868869
 20
817.6287394771791
 30
0.0
 10
467.8076883561229
 20
817.1239735259414
 30
0.0
 10
468.0238445075679
 20
816.8061717349498
 30
0.0
 10
468.0503708687253
 20
816.7674551342594
 30
0.0
 10
468.063580523321
 20
816.748174957822
 30
0.0
  0
SPLINE
  5
137
330
EB
100
AcDbEntity
  8
$DDT_AUDIT_GENERATED_(BE)
  6
Continuous
 62
     7
100
AcDbSpline
210
0.0
220
0.0
230
1.0
 70
    12
 71
     5
 72
    12
 73
     6
 74
     0
 42
0.0000000022847051
 43
0.0000000001
 40
0.0
 40
0.0
 40
0.0
 40
0.0
 40
0.0
 40
0.0
 40
0.8711078068373855
 40
0.8711078068373855
 40
0.8711078068373855
 40
0.8711078068373855
 40
0.8711078068373855
 40
0.8711078068373855
 10
427.6710075814218
 20
811.737411332287
 30
0.0
 41
1.0
 10
427.6724537677742
 20
812.6408404257627
 30
0.0
 41
1.0
 10
427.6726401699057
 20
813.3824367852371
 30
0.0
 41
1.0
 10
427.4677920983289
 20
814.1352629910527
 30
0.0
 41
1.0
 10
427.6359939489749
 20
814.7240824169611
 30
0.0
 41
1.0
 10
428.0429111664779
 20
815.3838746255155
 30
0.0
 41
1.0
  0
ARC
  5
138
330
EB
100
AcDbEntity
  8
$DDT_AUDIT_GENERATED_(BE)
  6
Continuous
 62
     7
100
AcDbCircle
 10
464.0651763119
 20
813.1923924405
 30
0.0
 40
5.350778032017715
100
AcDbArc
 50
352.7234007782
 51
41.6467081424
  0
LINE
  5
139
330
EB
100
AcDbEntity
  8
$DDT_AUDIT_GENERATED_(BE)
  6
Continuous
 62
     7
100
AcDbLine
 10
427.6693474652
 20
811.7374113323
 30
0.0
 11
427.6693474652
 21
809.2782285015
 31
0.0
  0
ARC
  5
13A
330
EB
100
AcDbEntity
  8
$DDT_AUDIT_GENERATED_(BE)
  6
Continuous
 62
     7
100
AcDbCircle
 10
585.6166086855
 20
887.3042448605
 30
0.0
 40
58.10126981133627
100
AcDbArc
 50
109.2592914281
 51
109.6684605033
  0
ARC
  5
13B
330
EB
100
AcDbEntity
  8
$DDT_AUDIT_GENERATED_(BE)
  6
Continuous
 62
     7
100
AcDbCircle
 10
585.6181178365
 20
887.2987530223
 30
0.0
 40
58.1069491804855
100
AcDbArc
 50
97.4492697393
 51
109.6680391435
  0
SPLINE
  5
13C
330
EB
100
AcDbEntity
  8
$DDT_AUDIT_GENERATED_(BE)
  6
Continuous
 62
     7
100
AcDbSpline
210
0.0
220
0.0
230
1.0
 70
     8
 71
     3
 72
    16
 73
    12
 74
     0
 42
0.0000000004104609
 43
0.0000000001
 40
0.0
 40
0.0
 40
0.0
 40
0.0
 40
0.1250000000000002
 40
0.1250000000000002
 40
0.2500000000000004
 40
0.2500000000000004
 40
0.3750000000000006
 40
0.3750000000000006
 40
0.5000000000000008
 40
0.5000000000000008
 40
0.500183941370868
 40
0.500183941370868
 40
0.500183941370868
 40
0.500183941370868
 10
578.0846503143969
 20
944.9152819889003
 30
0.0
 10
579.6813524038831
 20
945.1090292539897
 30
0.0
 10
581.2687177553158
 20
945.3017032349504
 30
0.0
 10
584.1815067284256
 20
945.6553385274058
 30
0.0
 10
585.5300782444737
 20
945.8191213783349
 30
0.0
 10
587.7559061319811
 20
946.0894710982974
 30
0.0
 10
588.6566022768105
 20
946.1989105676831
 30
0.0
 10
589.8642668604339
 20
946.3456334710562
 30
0.0
 10
590.18078749176
 20
946.3841056930015
 30
0.0
 10
590.1816988500567
 20
946.3842133615296
 30
0.0
 10
590.1816995184658
 20
946.3842134382395
 30
0.0
 10
590.1816995161913
 20
946.3842134334582
 30
0.0
  0
LINE
  5
13D
330
EB
100
AcDbEntity
  8
$DDT_AUDIT_GENERATED_(BE)
  6
Continuous
 62
     7
100
AcDbLine
 10
469.0730521833
 20
799.4782285015
 30
0.0
 11
427.9693474795
 21
799.4782285015
 31
0.0
  0
LINE
  5
13E
330
EB
100
AcDbEntity
  8
$DDT_AUDIT_GENERATED_(BE)
  6
Continuous
 62
     7
100
AcDbLine
 10
469.3730521976
 20
799.7782285015
 30
0.0
 11
469.3730521976
 21
812.5146656353
 31
0.0
  0
ARC
  5
13F
330
EB
100
AcDbEntity
  8
$DDT_AUDIT_GENERATED_(BE)
  6
Continuous
 62
     7
100
AcDbCircle
 10
427.9693474795
 20
799.7782285015
 30
0.0
 40
0.2999999999999947
100
AcDbArc
 50
180.0
 51
270.0
  0
ARC
  5
140
330
EB
100
AcDbEntity
  8
$DDT_AUDIT_GENERATED_(BE)
  6
Continuous
 62
     7
100
AcDbCircle
 10
469.0730521835
 20
799.7782285202
 30
0.0
 40
0.3000000140426998
100
AcDbArc
 50
269.9999999478
 51
359.999996424
  0
LINE
  5
141
330
EB
100
AcDbEntity
  8
$DDT_AUDIT_GENERATED_(BE)
  6
Continuous
 62
     7
100
AcDbLine
 10
427.6693474652
 20
801.2782285015
 30
0.0
 11
427.6693474652
 21
799.7782285015
 31
0.0
  0
ARC
  5
142
330
EB
100
AcDbEntity
  8
$DDT_AUDIT_GENERATED_(BE)
  6
Continuous
 62
     7
100
AcDbCircle
 10
407.218317181
 20
805.278228502
 30
0.0
 40
20.83853736901061
100
AcDbArc
 50
348.9332743352
 51
348.9791095679
  0
ARC
  5
143
330
EB
100
AcDbEntity
  8
$DDT_AUDIT_GENERATED_(BE)
  6
Continuous
 62
     7
100
AcDbCircle
 10
407.2182324795
 20
805.278228502
 30
0.0
 40
20.83862049541239
100
AcDbArc
 50
348.9333190383
 51
11.0666809587
  0
SPLINE
  5
144
330
EB
100
AcDbEntity
  8
$DDT_AUDIT_GENERATED_(BE)
  6
Continuous
 62
     7
100
AcDbSpline
210
0.0
220
0.0
230
1.0
 70
     8
 71
     3
 72
    15
 73
    11
 74
     0
 42
0.0000000008551195
 43
0.0000000001
 40
0.0
 40
0.0
 40
0.0
 40
0.0
 40
0.2304122557682503
 40
0.423281032294663
 40
0.5796225059295352
 40
0.7031553870560558
 40
0.7999520822982588
 40
0.8775034485725262
 40
0.9427688408873257
 40
1.0
 40
1.0
 40
1.0
 40
1.0
 10
590.0666288699786
 20
946.3397310913437
 30
0.0
 10
590.9796168684124
 20
946.7069928834142
 30
0.0
 10
592.3846972449238
 20
947.2897311368622
 30
0.0
 10
594.4018759662483
 20
948.3875723718476
 30
0.0
 10
595.8987435414518
 20
949.4450720364919
 30
0.0
 10
596.959407282833
 20
950.4639100475446
 30
0.0
 10
597.6237856639792
 20
951.4240885072012
 30
0.0
 10
597.955973487685
 20
952.2988239336955
 30
0.0
 10
598.0412304662823
 20
953.0929361148834
 30
0.0
 10
598.0109877868715
 20
953.53449884075
 30
0.0
 10
597.9903615035122
 20
953.7780605090364
 30
0.0
  0
SPLINE
  5
145
330
EB
100
AcDbEntity
  8
$DDT_AUDIT_GENERATED_(BE)
  6
Continuous
 62
     7
100
AcDbSpline
210
0.0
220
0.0
230
1.0
 70
     8
 71
     3
 72
    20
 73
    16
 74
     0
 42
0.0000000006278575
 43
0.0000000001
 40
0.0
 40
0.0
 40
0.0
 40
0.0
 40
0.1341098847385695
 40
0.2397321049589304
 40
0.3191093437592017
 40
0.3782094300071178
 40
0.4365138164477065
 40
0.4965430334354003
 40
0.5427321589600075
 40
0.5905134650563705
 40
0.642315755704852
 40
0.6994210841634995
 40
0.7855415533616618
 40
0.8850859094503802
 40
1.0
 40
1.0
 40
1.0
 40
1.0
 10
457.0226677506217
 20
904.1620746652768
 30
0.0
 10
457.0224457917333
 20
905.0683730526915
 30
0.0
 10
457.0264128466602
 20
906.4298398341945
 30
0.0
 10
457.078649795921
 20
908.4289150918797
 30
0.0
 10
457.1656408558787
 20
909.926742848976
 30
0.0
 10
457.2699884432353
 20
911.1133193849003
 30
0.0
 10
457.3941974164051
 20
912.1666232898498
 30
0.0
 10
457.5411380857606
 20
913.1292712654144
 30
0.0
 10
457.7077269376524
 20
914.016012165628
 30
0.0
 10
457.8913420791454
 20
914.8405897822288
 30
0.0
 10
458.1028332975395
 20
915.6468038894949
 30
0.0
 10
458.3809531590079
 20
916.5568928864894
 30
0.0
 10
458.741449531122
 20
917.5487571798693
 30
0.0
 10
459.2170730085753
 20
918.6438162732007
 30
0.0
 10
459.5456787418127
 20
919.2701621848927
 30
0.0
 10
459.7553770579717
 20
919.6627018789192
 30
0.0
  0
ARC
  5
146
330
EB
100
AcDbEntity
  8
$DDT_AUDIT_GENERATED_(BE)
  6
Continuous
 62
     7
100
AcDbCircle
 10
592.267874521
 20
956.0039539528
 30
0.0
 40
6.470362472860542
100
AcDbArc
 50
57.0347932115
 51
84.4019396451
  0
ARC
  5
147
330
EB
100
AcDbEntity
  8
$DDT_AUDIT_GENERATED_(BE)
  6
Continuous
 62
     7
100
AcDbCircle
 10
577.2199645828
 20
951.9483348173
 30
0.0
 40
20.85086751093793
100
AcDbArc
 50
5.034991434
 51
27.0590902001
  0
SPLINE
  5
148
330
EB
100
AcDbEntity
  8
$DDT_AUDIT_GENERATED_(BE)
  6
Continuous
 62
     7
100
AcDbSpline
210
0.0
220
0.0
230
1.0
 70
     8
 71
     3
 72
    43
 73
    39
 74
     0
 42
0.0000000001097025
 43
0.0000000001
 40
0.0
 40
0.0
 40
0.0
 40
0.0
 40
0.0639994444188713
 40
0.1228478544756515
 40
0.1761850256048806
 40
0.2240835573319068
 40
0.2665074281862521
 40
0.3035043135219085
 40
0.3351186226114232
 40
0.3561677994640736
 40
0.373867493297825
 40
0.3882154326724102
 40
0.4013462931744198
 40
0.4158974811047835
 40
0.4318746055139849
 40
0.4492699853106915
 40
0.474471709990343
 40
0.5020039199372914
 40
0.5318100990352855
 40
0.5641448284149232
 40
0.6008612662998327
 40
0.6426026315050029
 40
0.6700850257669058
 40
0.6993944837670709
 40
0.7305103233905944
 40
0.7634278112051267
 40
0.7981854456189161
 40
0.8132427330416588
 40
0.8278648688864981
 40
0.8441203132648785
 40
0.8684301142246419
 40
0.8932132771241469
 40
0.9187223948241307
 40
0.9449239948974142
 40
0.9583677019938419
 40
0.9720224941819308
 40
0.9859181103924295
 40
1.0
 40
1.0
 40
1.0
 40
1.0
 10
440.0432205511361
 20
904.1620746652771
 30
0.0
 10
440.0433017007774
 20
901.8388347526292
 30
0.0
 10
440.0433285806986
 20
898.0861570803611
 30
0.0
 10
440.0435330466682
 20
892.1607413701051
 30
0.0
 10
440.0419857857119
 20
886.9036411486175
 30
0.0
 10
440.0373107094999
 20
882.15697392877
 30
0.0
 10
440.0282350778824
 20
877.9567972814075
 30
0.0
 10
440.0141386934075
 20
874.2924824431764
 30
0.0
 10
439.9965514868421
 20
871.3339435169744
 30
0.0
 10
439.9781774473582
 20
869.0122338155342
 30
0.0
 10
439.9613313380721
 20
867.2603361558827
 30
0.0
 10
439.9458696386142
 20
865.7699862303793
 30
0.0
 10
439.9291121577039
 20
864.3834572702195
 30
0.0
 10
439.9050609446413
 20
862.9428500617554
 30
0.0
 10
439.8718042371541
 20
861.3616585622302
 30
0.0
 10
439.8212266462494
 20
859.4294112349696
 30
0.0
 10
439.7446901473525
 20
857.1168148448521
 30
0.0
 10
439.6279096051918
 20
854.3968499758631
 30
0.0
 10
439.4636752919492
 20
851.445008953399
 30
0.0
 10
439.2285319802115
 20
848.1973020513844
 30
0.0
 10
438.8834882947806
 20
844.5657431313094
 30
0.0
 10
438.4338305093967
 20
841.1098454334689
 30
0.0
 10
437.8843724226265
 20
837.9239651199913
 30
0.0
 10
437.2831316272876
 20
835.1124917487833
 30
0.0
 10
436.5040849788564
 20
832.1789541889643
 30
0.0
 10
435.5132619148643
 20
829.1586526036615
 30
0.0
 10
434.543180797482
 20
826.7342669223165
 30
0.0
 10
433.72428652835
 20
824.9301516220904
 30
0.0
 10
433.1210963459238
 20
823.6869452664745
 30
0.0
 10
432.3748427579734
 20
822.2459410237379
 30
0.0
 10
431.4790082343942
 20
820.6461217915802
 30
0.0
 10
430.4808294206724
 20
818.9976830677591
 30
0.0
 10
429.5411985917276
 20
817.5439018160184
 30
0.0
 10
428.8770852833187
 20
816.5683296538382
 30
0.0
 10
428.4655829610132
 20
815.9788312676789
 30
0.0
 10
428.2285827680267
 20
815.6435632063007
 30
0.0
 10
428.0735109520078
 20
815.4266900942868
 30
0.0
 10
428.0527469843785
 20
815.3975769848814
 30
0.0
 10
428.0429811836264
 20
815.3839880547672
 30
0.0
  0
ARC
  5
149
330
EB
100
AcDbEntity
  8
$DDT_AUDIT_GENERATED_(BE)
  6
Continuous
 62
     7
100
AcDbCircle
 10
989.2794802405
 20
883.1206115829
 30
0.0
 40
532.4705173863258
100
AcDbArc
 50
178.3765032478
 51
184.1554916345
  0
LINE
  5
14A
330
EB
100
AcDbEntity
  8
$DDT_AUDIT_GENERATED_(D1)
  6
Continuous
 62
     7
100
AcDbLine
 10
468.8726677506
 20
798.9782285015
 30
0.0
 11
468.8726677506
 21
799.4782285015
 31
0.0
  0
LINE
  5
14B
330
EB
100
AcDbEntity
  8
$DDT_AUDIT_GENERATED_(D1)
  6
Continuous
 62
     7
100
AcDbLine
 10
428.1726677506
 20
799.4782285015
 30
0.0
 11
428.1726677506
 21
798.9782285015
 31
0.0
  0
ARC
  5
14C
330
EB
100
AcDbEntity
  8
$DDT_AUDIT_GENERATED_(D4)
  6
Continuous
 62
     7
100
AcDbCircle
 10
210.7308827058
 20
722.5921206164
 30
0.0
 40
217.0925838003152
100
AcDbArc
 50
357.8643053595
 51
2.1356847987
  0
LINE
  5
14D
330
EB
100
AcDbEntity
  8
$DDT_AUDIT_GENERATED_(D4)
  6
Continuous
 62
     7
100
AcDbLine
 10
427.9726677506
 20
798.9782285015
 30
0.0
 11
469.0726677506
 21
798.9782285015
 31
0.0
  0
ARC
  5
14E
330
EB
100
AcDbEntity
  8
$DDT_AUDIT_GENERATED_(D4)
  6
Continuous
 62
     7
100
AcDbCircle
 10
427.9726677506
 20
798.6782285015
 30
0.0
 40
0.2999999999999947
100
AcDbArc
 50
90.0
 51
180.0
  0
ARC
  5
14F
330
EB
100
AcDbEntity
  8
$DDT_AUDIT_GENERATED_(D4)
  6
Continuous
 62
     7
100
AcDbCircle
 10
469.0726677506
 20
798.6782285015
 30
0.0
 40
0.3000000000000017
100
AcDbArc
 50
0.0
 51
90.0
  0
LINE
  5
150
330
EB
100
AcDbEntity
  8
$DDT_AUDIT_GENERATED_(D4)
  6
Continuous
 62
     7
100
AcDbLine
 10
469.3726677506
 20
699.7617925925
 30
0.0
 11
469.3726677506
 21
798.6782285015
 31
0.0
  0
LINE
  5
151
330
EB
100
AcDbEntity
  8
$DDT_AUDIT_GENERATED_(D4)
  6
Continuous
 62
     7
100
AcDbLine
 10
427.6726677506
 20
714.5018893058
 30
0.0
 11
427.6726677506
 21
699.7617925925
 31
0.0
  0
LINE
  5
152
330
EB
100
AcDbEntity
  8
$DDT_AUDIT_GENERATED_(D4)
  6
Continuous
 62
     7
100
AcDbLine
 10
427.6726677506
 20
798.6782285015
 30
0.0
 11
427.6726677506
 21
730.6816797275
 31
0.0
  0
LINE
  5
154
330
EB
100
AcDbEntity
  8
DV2_Standard
  6
CENTER2
 62
     7
100
AcDbLine
 10
468.5226896637
 20
691.6782285015
 30
0.0
 11
428.5226905578
 21
691.6782285015
 31
0.0
  0
LINE
  5
155
330
EB
100
AcDbEntity
  8
DV2_Standard
  6
CENTER2
 62
     7
100
AcDbLine
 10
448.5226901108
 20
711.6782280545
 30
0.0
 11
448.5226901108
 21
671.6782289485
 31
0.0
  0
ENDBLK
  5
157
330
EB
100
AcDbEntity
  8
0
100
AcDbBlockEnd
  0
BLOCK
  5
1A7
330
158
100
AcDbEntity
  8
0
100
AcDbBlockBegin
  2
SE2
 70
     0
 10
0.0
 20
0.0
 30
0.0
  3
SE2
  1

  0
ARC
  5
15A
330
158
100
AcDbEntity
  8
$DDT_AUDIT_GENERATED_(60)
  6
Continuous
 62
     7
100
AcDbCircle
 10
172.4986106021
 20
255.8324359498
 30
0.0
 40
20.9
100
AcDbArc
 50
22.0644527046
 51
27.2805253776
  0
ARC
  5
15B
330
158
100
AcDbEntity
  8
$DDT_AUDIT_GENERATED_(60)
  6
Continuous
 62
     7
100
AcDbCircle
 10
172.4986106021
 20
255.8324359498
 30
0.0
 40
20.9
100
AcDbArc
 50
355.6685261166
 51
358.9003724975
  0
SPLINE
  5
15C
330
158
100
AcDbEntity
  8
$DDT_AUDIT_GENERATED_(64)
  6
Continuous
 62
     7
100
AcDbSpline
210
0.0
220
0.0
230
1.0
 70
     8
 71
     3
 72
    34
 73
    30
 74
     0
 42
0.0000000000527304
 43
0.0000000001
 40
0.077391666396941
 40
0.077391666396941
 40
0.077391666396941
 40
0.077391666396941
 40
0.125
 40
0.125
 40
0.1875
 40
0.1875
 40
0.25
 40
0.25
 40
0.3125
 40
0.3125
 40
0.375
 40
0.375
 40
0.4375
 40
0.4375
 40
0.5
 40
0.5
 40
0.5625
 40
0.5625
 40
0.625
 40
0.625
 40
0.6875
 40
0.6875
 40
0.75
 40
0.75
 40
0.8125
 40
0.8125
 40
0.875
 40
0.875
 40
0.9226083533401843
 40
0.9226083533401843
 40
0.9226083533401843
 40
0.9226083533401843
 10
299.0202961190395
 20
241.8131283350885
 30
0.0
 10
297.621173764355
 20
239.1693335685688
 30
0.0
 10
295.8269878527645
 20
236.7344188083211
 30
0.0
 10
290.9350026095163
 20
231.8424261116126
 30
0.0
 10
287.607168984195
 20
229.618835105618
 30
0.0
 10
280.3510315662638
 20
226.6132381005102
 30
0.0
 10
276.4255827538764
 20
225.8324146754736
 30
0.0
 10
268.5715937301397
 20
225.8324086922839
 30
0.0
 10
264.6461437280901
 20
226.6132261364851
 30
0.0
 10
257.3900017308239
 20
229.6188120861
 30
0.0
 10
254.0621647176313
 20
231.842398021787
 30
0.0
 10
248.5085515888284
 20
237.396002689082
 30
0.0
 10
246.2849605828338
 20
240.7238363144034
 30
0.0
 10
243.2793635777261
 20
247.9799737323345
 30
0.0
 10
242.4985401526894
 20
251.9054225447219
 30
0.0
 10
242.4985341694997
 20
259.7594115684587
 30
0.0
 10
243.2793516137009
 20
263.6848615705082
 30
0.0
 10
246.2849375633157
 20
270.9410035677744
 30
0.0
 10
248.5085234990028
 20
274.268840580967
 30
0.0
 10
254.0621281662978
 20
279.8224537097699
 30
0.0
 10
257.3899617916192
 20
282.0460447157645
 30
0.0
 10
264.6460992095504
 20
285.0516417208723
 30
0.0
 10
268.5715480219378
 20
285.832465145909
 30
0.0
 10
276.4255370456745
 20
285.8324711290987
 30
0.0
 10
280.3509870477241
 20
285.0516536848975
 30
0.0
 10
287.6071290449903
 20
282.0460677352826
 30
0.0
 10
290.9349660581828
 20
279.8224817995956
 30
0.0
 10
295.8269596317902
 20
274.9304956794498
 30
0.0
 10
297.6211498639735
 20
272.4955825108365
 30
0.0
 10
299.0202764992308
 20
269.8517886067926
 30
0.0
  0
SPLINE
  5
15D
330
158
100
AcDbEntity
  8
$DDT_AUDIT_GENERATED_(73)
  6
Continuous
 62
     7
100
AcDbSpline
210
0.0
220
0.0
230
1.0
 70
     8
 71
     5
 72
    33
 73
    27
 74
     0
 42
0.0000000004543255
 43
0.0000000001
 40
0.0
 40
0.0
 40
0.0
 40
0.0
 40
0.0
 40
0.0
 40
0.125
 40
0.125
 40
0.125
 40
0.25
 40
0.25
 40
0.25
 40
0.375
 40
0.375
 40
0.375
 40
0.5
 40
0.5
 40
0.5
 40
0.625
 40
0.625
 40
0.625
 40
0.75
 40
0.75
 40
0.75
 40
0.875
 40
0.875
 40
0.875
 40
1.0
 40
1.0
 40
1.0
 40
1.0
 40
1.0
 40
1.0
 10
86.49389409651101
 20
255.8324358452964
 30
0.0
 10
86.49389409651101
 20
256.3820244975146
 30
0.0
 10
86.466829217693
 20
256.9316131497396
 30
0.0
 10
86.412872808079
 20
257.4794417699946
 30
0.0
 10
86.25152362329901
 20
258.5680588826116
 30
0.0
 10
85.98399509950299
 20
259.6355556115356
 30
0.0
 10
85.824199385241
 20
260.1623314851416
 30
0.0
 10
85.45357181676701
 20
261.1985534607776
 30
0.0
 10
84.982925497955
 20
262.1933463135326
 30
0.0
 10
84.72343133872701
 20
262.6788257390866
 30
0.0
 10
84.157768396153
 20
263.6228311483405
 30
0.0
 10
83.502090956398
 20
264.5066907934756
 30
0.0
 10
83.15287056721
 20
264.9322170689086
 30
0.0
 10
82.413910360181
 20
265.7477283133016
 30
0.0
 10
81.59839911578901
 20
266.4866885203306
 30
0.0
 10
81.172872840355
 20
266.8359089095186
 30
0.0
 10
80.289013195222
 20
267.4915863492766
 30
0.0
 10
79.345007785971
 20
268.0572492918576
 30
0.0
 10
78.85952836042
 20
268.3167434510896
 30
0.0
 10
77.86473550767
 20
268.7873897699096
 30
0.0
 10
76.828513532036
 20
269.1580173383876
 30
0.0
 10
76.30173765843
 20
269.3178130526496
 30
0.0
 10
75.234240929508
 20
269.5853415764426
 30
0.0
 10
74.145623816893
 20
269.7466907612096
 30
0.0
 10
73.59779519663701
 20
269.8006471708186
 30
0.0
 10
73.04820654440701
 20
269.8277120496316
 30
0.0
 10
72.49861789217606
 20
269.8277120496316
 30
0.0
  0
LINE
  5
15E
330
158
100
AcDbEntity
  8
$DDT_AUDIT_GENERATED_(73)
  6
Continuous
 62
     7
100
AcDbLine
 10
20.3452762043
 20
269.8277120496
 30
0.0
 11
72.4986178922
 21
269.8277120496
 31
0.0
  0
SPLINE
  5
15F
330
158
100
AcDbEntity
  8
$DDT_AUDIT_GENERATED_(73)
  6
Continuous
 62
     7
100
AcDbSpline
210
0.0
220
0.0
230
1.0
 70
     8
 71
     5
 72
    33
 73
    27
 74
     0
 42
0.0000000004543255
 43
0.0000000001
 40
0.0
 40
0.0
 40
0.0
 40
0.0
 40
0.0
 40
0.0
 40
0.125
 40
0.125
 40
0.125
 40
0.25
 40
0.25
 40
0.25
 40
0.375
 40
0.375
 40
0.375
 40
0.5
 40
0.5
 40
0.5
 40
0.625
 40
0.625
 40
0.625
 40
0.75
 40
0.75
 40
0.75
 40
0.875
 40
0.875
 40
0.875
 40
1.0
 40
1.0
 40
1.0
 40
1.0
 40
1.0
 40
1.0
 10
72.49861789217606
 20
241.8371596409606
 30
0.0
 10
73.04820654440701
 20
241.8371596409606
 30
0.0
 10
73.59779519663701
 20
241.8642245197746
 30
0.0
 10
74.145623816893
 20
241.9181809293826
 30
0.0
 10
75.234240929508
 20
242.0795301141506
 30
0.0
 10
76.30173765843
 20
242.3470586379436
 30
0.0
 10
76.828513532036
 20
242.5068543522056
 30
0.0
 10
77.86473550767
 20
242.8774819206826
 30
0.0
 10
78.85952836042
 20
243.3481282395036
 30
0.0
 10
79.345007785971
 20
243.6076223987356
 30
0.0
 10
80.289013195222
 20
244.1732853413166
 30
0.0
 10
81.172872840355
 20
244.8289627810736
 30
0.0
 10
81.59839911578901
 20
245.1781831702626
 30
0.0
 10
82.413910360181
 20
245.9171433772906
 30
0.0
 10
83.15287056721
 20
246.7326546216836
 30
0.0
 10
83.502090956398
 20
247.1581808971176
 30
0.0
 10
84.157768396153
 20
248.0420405422526
 30
0.0
 10
84.72343133872701
 20
248.9860459515066
 30
0.0
 10
84.982925497955
 20
249.4715253770606
 30
0.0
 10
85.45357181676701
 20
250.4663182298146
 30
0.0
 10
85.824199385241
 20
251.5025402054516
 30
0.0
 10
85.98399509950299
 20
252.0293160790576
 30
0.0
 10
86.25152362329901
 20
253.0968128079816
 30
0.0
 10
86.412872808079
 20
254.1854299205976
 30
0.0
 10
86.466829217693
 20
254.7332585408526
 30
0.0
 10
86.49389409651101
 20
255.2828471930776
 30
0.0
 10
86.49389409651101
 20
255.8324358452964
 30
0.0
  0
LINE
  5
160
330
158
100
AcDbEntity
  8
$DDT_AUDIT_GENERATED_(73)
  6
Continuous
 62
     7
100
AcDbLine
 10
72.4986178922
 20
241.837159641
 30
0.0
 11
20.3452762043
 21
241.837159641
 31
0.0
  0
SPLINE
  5
161
330
158
100
AcDbEntity
  8
$DDT_AUDIT_GENERATED_(73)
  6
Continuous
 62
     7
100
AcDbSpline
210
0.0
220
0.0
230
1.0
 70
     8
 71
     5
 72
    33
 73
    27
 74
     0
 42
0.0000000004543255
 43
0.0000000001
 40
0.0
 40
0.0
 40
0.0
 40
0.0
 40
0.0
 40
0.0
 40
0.125
 40
0.125
 40
0.125
 40
0.25
 40
0.25
 40
0.25
 40
0.375
 40
0.375
 40
0.375
 40
0.5
 40
0.5
 40
0.5
 40
0.625
 40
0.625
 40
0.625
 40
0.75
 40
0.75
 40
0.75
 40
0.875
 40
0.875
 40
0.875
 40
1.0
 40
1.0
 40
1.0
 40
1.0
 40
1.0
 40
1.0
 10
20.34527620433499
 20
269.8277120496316
 30
0.0
 10
19.79568755210501
 20
269.8277120496316
 30
0.0
 10
19.246098899874
 20
269.8006471708186
 30
0.0
 10
18.69827027961798
 20
269.7466907612096
 30
0.0
 10
17.609653167003
 20
269.5853415764426
 30
0.0
 10
16.54215643808102
 20
269.3178130526496
 30
0.0
 10
16.01538056447602
 20
269.1580173383876
 30
0.0
 10
14.979158588841
 20
268.7873897699096
 30
0.0
 10
13.98436573609099
 20
268.3167434510896
 30
0.0
 10
13.49888631054
 20
268.0572492918576
 30
0.0
 10
12.55488090128901
 20
267.4915863492766
 30
0.0
 10
11.67102125615602
 20
266.8359089095186
 30
0.0
 10
11.245494980722
 20
266.4866885203306
 30
0.0
 10
10.42998373633
 20
265.7477283133016
 30
0.0
 10
9.691023529301013
 20
264.9322170689086
 30
0.0
 10
9.341803140112987
 20
264.5066907934756
 30
0.0
 10
8.68612570035801
 20
263.6228311483405
 30
0.0
 10
8.120462757785024
 20
262.6788257390866
 30
0.0
 10
7.860968598556006
 20
262.1933463135326
 30
0.0
 10
7.390322279743983
 20
261.1985534607776
 30
0.0
 10
7.01969471126998
 20
260.1623314851416
 30
0.0
 10
6.859898997008007
 20
259.6355556115356
 30
0.0
 10
6.592370473212012
 20
258.5680588826116
 30
0.0
 10
6.431021288432009
 20
257.4794417699946
 30
0.0
 10
6.377064878818006
 20
256.9316131497396
 30
0.0
 10
6.349999999999994
 20
256.3820244975146
 30
0.0
 10
6.349999999999994
 20
255.8324358452964
 30
0.0
  0
SPLINE
  5
162
330
158
100
AcDbEntity
  8
$DDT_AUDIT_GENERATED_(73)
  6
Continuous
 62
     7
100
AcDbSpline
210
0.0
220
0.0
230
1.0
 70
     8
 71
     5
 72
    33
 73
    27
 74
     0
 42
0.0000000004543255
 43
0.0000000001
 40
0.0
 40
0.0
 40
0.0
 40
0.0
 40
0.0
 40
0.0
 40
0.125
 40
0.125
 40
0.125
 40
0.25
 40
0.25
 40
0.25
 40
0.375
 40
0.375
 40
0.375
 40
0.5
 40
0.5
 40
0.5
 40
0.625
 40
0.625
 40
0.625
 40
0.75
 40
0.75
 40
0.75
 40
0.875
 40
0.875
 40
0.875
 40
1.0
 40
1.0
 40
1.0
 40
1.0
 40
1.0
 40
1.0
 10
6.349999999999994
 20
255.8324358452964
 30
0.0
 10
6.349999999999994
 20
255.2828471930776
 30
0.0
 10
6.377064878818006
 20
254.7332585408526
 30
0.0
 10
6.431021288432009
 20
254.1854299205976
 30
0.0
 10
6.592370473212012
 20
253.0968128079816
 30
0.0
 10
6.859898997008007
 20
252.0293160790576
 30
0.0
 10
7.01969471126998
 20
251.5025402054516
 30
0.0
 10
7.390322279743983
 20
250.4663182298146
 30
0.0
 10
7.860968598556006
 20
249.4715253770606
 30
0.0
 10
8.120462757785024
 20
248.9860459515066
 30
0.0
 10
8.68612570035801
 20
248.0420405422526
 30
0.0
 10
9.341803140112987
 20
247.1581808971176
 30
0.0
 10
9.691023529301013
 20
246.7326546216836
 30
0.0
 10
10.42998373633
 20
245.9171433772906
 30
0.0
 10
11.245494980722
 20
245.1781831702626
 30
0.0
 10
11.67102125615602
 20
244.8289627810736
 30
0.0
 10
12.55488090128901
 20
244.1732853413166
 30
0.0
 10
13.49888631054
 20
243.6076223987356
 30
0.0
 10
13.98436573609099
 20
243.3481282395036
 30
0.0
 10
14.979158588841
 20
242.8774819206826
 30
0.0
 10
16.01538056447602
 20
242.5068543522056
 30
0.0
 10
16.54215643808102
 20
242.3470586379436
 30
0.0
 10
17.609653167003
 20
242.0795301141506
 30
0.0
 10
18.69827027961798
 20
241.9181809293826
 30
0.0
 10
19.246098899874
 20
241.8642245197746
 30
0.0
 10
19.79568755210501
 20
241.8371596409606
 30
0.0
 10
20.34527620433499
 20
241.8371596409606
 30
0.0
  0
LINE
  5
163
330
158
100
AcDbEntity
  8
$DDT_AUDIT_GENERATED_(73)
  6
Continuous
 62
     7
100
AcDbLine
 10
324.6519176909
 20
241.83718221
 30
0.0
 11
278.258058477
 21
241.83718221
 31
0.0
  0
LINE
  5
164
330
158
100
AcDbEntity
  8
$DDT_AUDIT_GENERATED_(73)
  6
Continuous
 62
     7
100
AcDbLine
 10
278.2580581153
 20
269.8277346186
 30
0.0
 11
324.6519176909
 21
269.8277346186
 31
0.0
  0
SPLINE
  5
165
330
158
100
AcDbEntity
  8
$DDT_AUDIT_GENERATED_(73)
  6
Continuous
 62
     7
100
AcDbSpline
210
0.0
220
0.0
230
1.0
 70
     8
 71
     5
 72
    33
 73
    27
 74
     0
 42
0.0000000004543255
 43
0.0000000001
 40
0.0
 40
0.0
 40
0.0
 40
0.0
 40
0.0
 40
0.0
 40
0.125
 40
0.125
 40
0.125
 40
0.25
 40
0.25
 40
0.25
 40
0.375
 40
0.375
 40
0.375
 40
0.5
 40
0.5
 40
0.5
 40
0.625
 40
0.625
 40
0.625
 40
0.75
 40
0.75
 40
0.75
 40
0.875
 40
0.875
 40
0.875
 40
1.0
 40
1.0
 40
1.0
 40
1.0
 40
1.0
 40
1.0
 10
324.651917690941
 20
241.8371822099525
 30
0.0
 10
325.201506343171
 20
241.8371822099525
 30
0.0
 10
325.751094995402
 20
241.8642470887655
 30
0.0
 10
326.298923615658
 20
241.9182034983745
 30
0.0
 10
327.387540728273
 20
242.0795526831415
 30
0.0
 10
328.455037457195
 20
242.3470812069345
 30
0.0
 10
328.9818133308
 20
242.5068769211965
 30
0.0
 10
330.018035306435
 20
242.8775044896745
 30
0.0
 10
331.012828159185
 20
243.3481508084945
 30
0.0
 10
331.498307584736
 20
243.6076449677265
 30
0.0
 10
332.4423129939869
 20
244.1733079103075
 30
0.0
 10
333.32617263912
 20
244.8289853500655
 30
0.0
 10
333.751698914554
 20
245.1782057392535
 30
0.0
 10
334.567210158946
 20
245.9171659462825
 30
0.0
 10
335.306170365975
 20
246.7326771906754
 30
0.0
 10
335.655390755163
 20
247.1582034661085
 30
0.0
 10
336.3110681949179
 20
248.0420631112435
 30
0.0
 10
336.8767311374909
 20
248.9860685204975
 30
0.0
 10
337.1362252967199
 20
249.4715479460515
 30
0.0
 10
337.606871615532
 20
250.4663407988065
 30
0.0
 10
337.977499184006
 20
251.5025627744425
 30
0.0
 10
338.137294898268
 20
252.0293386480485
 30
0.0
 10
338.404823422064
 20
253.0968353769725
 30
0.0
 10
338.566172606844
 20
254.1854524895895
 30
0.0
 10
338.620129016458
 20
254.7332811098445
 30
0.0
 10
338.647193895276
 20
255.2828697620695
 30
0.0
 10
338.647193895276
 20
255.8324584142877
 30
0.0
  0
SPLINE
  5
166
330
158
100
AcDbEntity
  8
$DDT_AUDIT_GENERATED_(73)
  6
Continuous
 62
     7
100
AcDbSpline
210
0.0
220
0.0
230
1.0
 70
     8
 71
     5
 72
    33
 73
    27
 74
     0
 42
0.0000000004543255
 43
0.0000000001
 40
0.0
 40
0.0
 40
0.0
 40
0.0
 40
0.0
 40
0.0
 40
0.125
 40
0.125
 40
0.125
 40
0.25
 40
0.25
 40
0.25
 40
0.375
 40
0.375
 40
0.375
 40
0.5
 40
0.5
 40
0.5
 40
0.625
 40
0.625
 40
0.625
 40
0.75
 40
0.75
 40
0.75
 40
0.875
 40
0.875
 40
0.875
 40
1.0
 40
1.0
 40
1.0
 40
1.0
 40
1.0
 40
1.0
 10
338.647193895276
 20
255.8324584142877
 30
0.0
 10
338.647193895276
 20
256.3820470665065
 30
0.0
 10
338.620129016458
 20
256.9316357187315
 30
0.0
 10
338.566172606844
 20
257.4794643389865
 30
0.0
 10
338.404823422064
 20
258.5680814516025
 30
0.0
 10
338.137294898268
 20
259.6355781805265
 30
0.0
 10
337.977499184006
 20
260.1623540541324
 30
0.0
 10
337.606871615532
 20
261.1985760297695
 30
0.0
 10
337.1362252967199
 20
262.1933688825235
 30
0.0
 10
336.8767311374909
 20
262.6788483080775
 30
0.0
 10
336.3110681949179
 20
263.6228537173315
 30
0.0
 10
335.655390755163
 20
264.5067133624664
 30
0.0
 10
335.306170365975
 20
264.9322396379005
 30
0.0
 10
334.567210158946
 20
265.7477508822935
 30
0.0
 10
333.751698914554
 20
266.4867110893215
 30
0.0
 10
333.32617263912
 20
266.8359314785105
 30
0.0
 10
332.4423129939869
 20
267.4916089182674
 30
0.0
 10
331.498307584736
 20
268.0572718608485
 30
0.0
 10
331.012828159185
 20
268.3167660200805
 30
0.0
 10
330.018035306435
 20
268.7874123389014
 30
0.0
 10
328.9818133308
 20
269.1580399073785
 30
0.0
 10
328.455037457195
 20
269.3178356216405
 30
0.0
 10
327.3875407282731
 20
269.5853641454335
 30
0.0
 10
326.298923615658
 20
269.7467133302015
 30
0.0
 10
325.751094995402
 20
269.8006697398095
 30
0.0
 10
325.201506343171
 20
269.8277346186235
 30
0.0
 10
324.651917690941
 20
269.8277346186235
 30
0.0
  0
ARC
  5
167
330
158
100
AcDbEntity
  8
$DDT_AUDIT_GENERATED_(A7)
  6
Continuous
 62
     7
100
AcDbCircle
 10
272.4985877481
 20
255.8324583099
 30
0.0
 40
15.0
100
AcDbArc
 50
60.0
 51
120.0
  0
ARC
  5
168
330
158
100
AcDbEntity
  8
$DDT_AUDIT_GENERATED_(A7)
  6
Continuous
 62
     7
100
AcDbCircle
 10
272.4985877481
 20
255.8324583099
 30
0.0
 40
15.00000000000001
100
AcDbArc
 50
120.0
 51
180.0
  0
ARC
  5
169
330
158
100
AcDbEntity
  8
$DDT_AUDIT_GENERATED_(A7)
  6
Continuous
 62
     7
100
AcDbCircle
 10
272.4985877481
 20
255.8324583099
 30
0.0
 40
15.0
100
AcDbArc
 50
180.0
 51
240.0
  0
ARC
  5
16A
330
158
100
AcDbEntity
  8
$DDT_AUDIT_GENERATED_(A7)
  6
Continuous
 62
     7
100
AcDbCircle
 10
272.4985877481
 20
255.8324583099
 30
0.0
 40
15.00000000000001
100
AcDbArc
 50
240.0
 51
300.0
  0
SPLINE
  5
16B
330
158
100
AcDbEntity
  8
$DDT_AUDIT_GENERATED_(A7)
  6
Continuous
 62
     7
100
AcDbSpline
210
0.0
220
0.0
230
1.0
 70
     8
 71
     3
 72
     8
 73
     4
 74
     0
 42
0.0000000074832987
 43
0.0000000001
 40
0.7593611204159443
 40
0.7593611204159443
 40
0.7593611204159443
 40
0.7593611204159443
 40
1.0
 40
1.0
 40
1.0
 40
1.0
 10
287.704502638016
 20
230.0817510747331
 30
0.0
 10
287.6618743025162
 20
229.9855654544806
 30
0.0
 10
287.5883297917758
 20
229.9035829547079
 30
0.0
 10
287.4963331083827
 20
229.8504791160345
 30
0.0
  0
SPLINE
  5
16C
330
158
100
AcDbEntity
  8
$DDT_AUDIT_GENERATED_(A7)
  6
Continuous
 62
     7
100
AcDbSpline
210
0.0
220
0.0
230
1.0
 70
     8
 71
     3
 72
     8
 73
     4
 74
     0
 42
0.0000000075408032
 43
0.0000000001
 40
0.0
 40
0.0
 40
0.0
 40
0.0
 40
0.2048672221082236
 40
0.2048672221082236
 40
0.2048672221082236
 40
0.2048672221082236
 10
257.5008423877192
 20
229.8504791160345
 30
0.0
 10
257.4225277423955
 20
229.8956851836627
 30
0.0
 10
257.35806698466
 20
229.9609692525613
 30
0.0
 10
257.3141350046422
 20
230.0389536411229
 30
0.0
  0
ARC
  5
16D
330
158
100
AcDbEntity
  8
$DDT_AUDIT_GENERATED_(A7)
  6
Continuous
 62
     7
100
AcDbCircle
 10
272.4985877481
 20
255.8324583099
 30
0.0
 40
29.99992681194353
100
AcDbArc
 50
27.8223168883
 51
29.995108618
  0
SPLINE
  5
16E
330
158
100
AcDbEntity
  8
$DDT_AUDIT_GENERATED_(A7)
  6
Continuous
 62
     7
100
AcDbSpline
210
0.0
220
0.0
230
1.0
 70
     8
 71
     3
 72
     8
 73
     4
 74
     0
 42
0.0000000075408032
 43
0.0000000001
 40
0.0
 40
0.0
 40
0.0
 40
0.0
 40
0.2048672221082581
 40
0.2048672221082581
 40
0.2048672221082581
 40
0.2048672221082581
 10
298.480566941881
 20
240.8347129495327
 30
0.0
 10
298.4353608742528
 20
240.756398304209
 30
0.0
 10
298.3700768053542
 20
240.6919375464735
 30
0.0
 10
298.2920924167926
 20
240.6480055664557
 30
0.0
  0
SPLINE
  5
16F
330
158
100
AcDbEntity
  8
$DDT_AUDIT_GENERATED_(A7)
  6
Continuous
 62
     7
100
AcDbSpline
210
0.0
220
0.0
230
1.0
 70
     8
 71
     3
 72
     8
 73
     4
 74
     0
 42
0.0000000074832987
 43
0.0000000001
 40
0.7593611204159486
 40
0.7593611204159486
 40
0.7593611204159486
 40
0.7593611204159486
 40
1.0
 40
1.0
 40
1.0
 40
1.0
 10
246.7478805129196
 20
240.6265434198995
 30
0.0
 10
246.6516948926671
 20
240.6691717553993
 30
0.0
 10
246.5697123928944
 20
240.7427162661396
 30
0.0
 10
246.516608554221
 20
240.8347129495327
 30
0.0
  0
ARC
  5
170
330
158
100
AcDbEntity
  8
$DDT_AUDIT_GENERATED_(A7)
  6
Continuous
 62
     7
100
AcDbCircle
 10
272.4985877481
 20
255.8324583099
 30
0.0
 40
29.99992681194352
100
AcDbArc
 50
205.9278781817
 51
209.995108618
  0
SPLINE
  5
171
330
158
100
AcDbEntity
  8
$DDT_AUDIT_GENERATED_(A7)
  6
Continuous
 62
     7
100
AcDbSpline
210
0.0
220
0.0
230
1.0
 70
     8
 71
     3
 72
     8
 73
     4
 74
     0
 42
0.0000000075408032
 43
0.0000000001
 40
0.0
 40
0.0
 40
0.0
 40
0.0
 40
0.2048672221082109
 40
0.2048672221082109
 40
0.2048672221082109
 40
0.2048672221082109
 10
246.516608554221
 20
270.8302036701963
 30
0.0
 10
246.5618146218492
 20
270.90851831552
 30
0.0
 10
246.6270986907477
 20
270.9729790732555
 30
0.0
 10
246.7050830793093
 20
271.0169110532733
 30
0.0
  0
SPLINE
  5
172
330
158
100
AcDbEntity
  8
$DDT_AUDIT_GENERATED_(B7)
  6
Continuous
 62
     7
100
AcDbSpline
210
0.0
220
0.0
230
1.0
 70
     8
 71
     3
 72
    20
 73
    16
 74
     0
 42
0.0000000000527317
 43
0.0000000001
 40
0.0106414836225951
 40
0.0106414836225951
 40
0.0106414836225951
 40
0.0106414836225951
 40
0.0625
 40
0.0625
 40
0.125
 40
0.125
 40
0.1875
 40
0.1875
 40
0.25
 40
0.25
 40
0.3125
 40
0.3125
 40
0.375
 40
0.375
 40
0.3775502305673257
 40
0.3775502305673257
 40
0.3775502305673257
 40
0.3775502305673257
 10
174.5028675069229
 20
285.7648488120321
 30
0.0
 10
177.7536849008463
 20
285.5456474915515
 30
0.0
 10
180.9687611917816
 20
284.7957785747619
 30
0.0
 10
187.6071742592307
 20
282.04606377442
 30
0.0
 10
190.9350112724233
 20
279.8224778387329
 30
0.0
 10
196.4886244012262
 20
274.268873171438
 30
0.0
 10
198.7122154072208
 20
270.9410395461166
 30
0.0
 10
201.7178124123286
 20
263.6849021281855
 30
0.0
 10
202.4986358373652
 20
259.7594533157981
 30
0.0
 10
202.4986418205549
 20
251.9054642920613
 30
0.0
 10
201.7178243763537
 20
247.9800142900117
 30
0.0
 10
198.7122384267388
 20
240.7238722927455
 30
0.0
 10
196.4886524910518
 20
237.3960352795529
 30
0.0
 10
193.5985463783532
 20
234.5059247634701
 30
0.0
 10
193.4843251646891
 20
234.3935418830771
 30
0.0
 10
193.369203554437
 20
234.2820914584358
 30
0.0
  0
SPLINE
  5
173
330
158
100
AcDbEntity
  8
$DDT_AUDIT_GENERATED_(B7)
  6
Continuous
 62
     7
100
AcDbSpline
210
0.0
220
0.0
230
1.0
 70
     8
 71
     3
 72
    20
 73
    16
 74
     0
 42
0.0000000000527317
 43
0.0000000001
 40
0.6224503063144752
 40
0.6224503063144752
 40
0.6224503063144752
 40
0.6224503063144752
 40
0.625
 40
0.625
 40
0.6875
 40
0.6875
 40
0.75
 40
0.75
 40
0.8125
 40
0.8125
 40
0.875
 40
0.875
 40
0.9375
 40
0.9375
 40
0.9893585153132921
 40
0.9893585153132921
 40
0.9893585153132921
 40
0.9893585153132921
 10
151.6279777769261
 20
234.2821300485103
 30
0.0
 10
151.5128806116611
 20
234.3935572274517
 30
0.0
 10
151.3986834660811
 20
234.5059164685551
 30
0.0
 10
148.5085968030688
 20
237.3959987282195
 30
0.0
 10
146.2850057970742
 20
240.7238323535408
 30
0.0
 10
143.2794087919665
 20
247.9799697714719
 30
0.0
 10
142.4985853669298
 20
251.9054185838594
 30
0.0
 10
142.4985793837402
 20
259.7594076075961
 30
0.0
 10
143.2793968279413
 20
263.6848576096457
 30
0.0
 10
146.2849827775562
 20
270.9409996069119
 30
0.0
 10
148.5085687132432
 20
274.2688366201045
 30
0.0
 10
154.0621733805382
 20
279.8224497489073
 30
0.0
 10
157.3900070058596
 20
282.046040754902
 30
0.0
 10
164.0284158220502
 20
284.7957656439756
 30
0.0
 10
167.2434909003046
 20
285.5456394540839
 30
0.0
 10
170.4943078920759
 20
285.7648457448069
 30
0.0
  0
LINE
  5
174
330
158
100
AcDbEntity
  8
$DDT_AUDIT_GENERATED_(125)
  6
Continuous
 62
     7
100
AcDbLine
 10
170.4985877481
 20
303.3241227657
 30
0.0
 11
174.4985877481
 21
303.3241227657
 31
0.0
  0
LINE
  5
175
330
158
100
AcDbEntity
  8
$DDT_AUDIT_GENERATED_(125)
  6
Continuous
 62
     7
100
AcDbLine
 10
174.4985877481
 20
289.8568354058
 30
0.0
 11
174.4985877481
 21
303.3241227657
 31
0.0
  0
LINE
  5
176
330
158
100
AcDbEntity
  8
$DDT_AUDIT_GENERATED_(125)
  6
Continuous
 62
     7
100
AcDbLine
 10
170.4985877481
 20
303.3241227657
 30
0.0
 11
170.4985877481
 21
289.8568354058
 31
0.0
  0
LINE
  5
177
330
158
100
AcDbEntity
  8
$DDT_AUDIT_GENERATED_(125)
  6
Continuous
 62
     7
100
AcDbLine
 10
170.4985877481
 20
289.8568354058
 30
0.0
 11
170.4985877481
 21
287.0036710474
 31
0.0
  0
LINE
  5
178
330
158
100
AcDbEntity
  8
$DDT_AUDIT_GENERATED_(125)
  6
Continuous
 62
     7
100
AcDbLine
 10
174.4985877481
 20
287.0036710474
 30
0.0
 11
174.4985877481
 21
289.8568354058
 31
0.0
  0
LINE
  5
179
330
158
100
AcDbEntity
  8
$DDT_AUDIT_GENERATED_(125)
  6
Continuous
 62
     7
100
AcDbLine
 10
174.4985877481
 20
276.6178345033
 30
0.0
 11
174.4985877481
 21
287.0036710474
 31
0.0
  0
LINE
  5
17A
330
158
100
AcDbEntity
  8
$DDT_AUDIT_GENERATED_(125)
  6
Continuous
 62
     7
100
AcDbLine
 10
170.4985877481
 20
287.0036710474
 30
0.0
 11
170.4985877481
 21
276.6297812727
 31
0.0
  0
LINE
  5
17B
330
158
100
AcDbEntity
  8
$DDT_AUDIT_GENERATED_(BE)
  6
Continuous
 62
     7
100
AcDbLine
 10
155.6286974268
 20
218.9880613662
 30
0.0
 11
155.6286975665
 21
128.1697732204
 31
0.0
  0
ARC
  5
17C
330
158
100
AcDbEntity
  8
$DDT_AUDIT_GENERATED_(BE)
  6
Continuous
 62
     7
100
AcDbCircle
 10
172.4986424085
 20
127.1932598404
 30
0.0
 40
20.83852433580085
100
AcDbArc
 50
196.6513710606
 51
343.3220969126
  0
ARC
  5
17D
330
158
100
AcDbEntity
  8
$DDT_AUDIT_GENERATED_(BE)
  6
Continuous
 62
     7
100
AcDbCircle
 10
172.4986946849
 20
128.3002701127
 30
0.0
 40
16.86289026776418
100
AcDbArc
 50
180.4433910931
 51
359.5531307362
  0
LINE
  5
17E
330
158
100
AcDbEntity
  8
$DDT_AUDIT_GENERATED_(BE)
  6
Continuous
 62
     7
100
AcDbLine
 10
189.3684778457
 20
218.9880622724
 30
0.0
 11
189.3684779854
 21
128.1686523895
 31
0.0
  0
SPLINE
  5
17F
330
158
100
AcDbEntity
  8
$DDT_AUDIT_GENERATED_(BE)
  6
Continuous
 62
     7
100
AcDbSpline
210
0.0
220
0.0
230
1.0
 70
    12
 71
     5
 72
    12
 73
     6
 74
     0
 42
0.0000000002205349
 43
0.0000000001
 40
0.0
 40
0.0
 40
0.0
 40
0.0
 40
0.0
 40
0.0
 40
1.0
 40
1.0
 40
1.0
 40
1.0
 40
1.0
 40
1.0
 10
155.6363134860884
 20
264.3324583098645
 30
0.0
 41
1.0
 10
155.6363136812504
 20
264.3324583098645
 30
0.0
 41
1.0
 10
155.6363136812498
 20
264.3324583098645
 30
0.0
 41
1.0
 10
155.6363136812501
 20
250.3799131303286
 30
0.0
 41
1.0
 10
155.6363136812501
 20
236.4042520215955
 30
0.0
 41
1.0
 10
155.6361155461459
 20
218.9881600573545
 30
0.0
 41
1.0
  0
SPLINE
  5
180
330
158
100
AcDbEntity
  8
$DDT_AUDIT_GENERATED_(BE)
  6
Continuous
 62
     7
100
AcDbSpline
210
0.0
220
0.0
230
1.0
 70
    12
 71
     5
 72
    12
 73
     6
 74
     0
 42
0.0000000028294995
 43
0.0000000001
 40
0.4779319920400591
 40
0.4779319920400591
 40
0.4779319920400591
 40
0.4779319920400591
 40
0.4779319920400591
 40
0.4779319920400591
 40
1.0
 40
1.0
 40
1.0
 40
1.0
 40
1.0
 40
1.0
 10
153.8207730927924
 20
264.1352303550983
 30
0.0
 41
1.0
 10
154.1111985049645
 20
264.2556300753901
 30
0.0
 41
1.0
 10
154.4529976271167
 20
264.3154916452709
 30
0.0
 41
1.0
 10
154.8324486599549
 20
264.3324583098645
 30
0.0
 41
1.0
 10
155.2176815287266
 20
264.3324583098645
 30
0.0
 41
1.0
 10
155.6363134860884
 20
264.3324583098645
 30
0.0
 41
1.0
  0
SPLINE
  5
181
330
158
100
AcDbEntity
  8
$DDT_AUDIT_GENERATED_(BE)
  6
Continuous
 62
     7
100
AcDbSpline
210
0.0
220
0.0
230
1.0
 70
    12
 71
     5
 72
    12
 73
     6
 74
     0
 42
0.0000000002205349
 43
0.0000000001
 40
0.0
 40
0.0
 40
0.0
 40
0.0
 40
0.0
 40
0.0
 40
1.0
 40
1.0
 40
1.0
 40
1.0
 40
1.0
 40
1.0
 10
189.361092411839
 20
218.9881600786012
 30
0.0
 41
1.0
 10
189.3608618148615
 20
236.4042520215955
 30
0.0
 41
1.0
 10
189.3608618148615
 20
250.3799131303286
 30
0.0
 41
1.0
 10
189.3608618148612
 20
264.3324583098645
 30
0.0
 41
1.0
 10
189.3608618148619
 20
264.3324583098645
 30
0.0
 41
1.0
 10
189.3608620100173
 20
264.3324583098645
 30
0.0
 41
1.0
  0
LINE
  5
182
330
158
100
AcDbEntity
  8
$DDT_AUDIT_GENERATED_(BE)
  6
Continuous
 62
     7
100
AcDbLine
 10
155.6363134861
 20
264.3324583099
 30
0.0
 11
189.36086201
 21
264.3324583099
 31
0.0
  0
SPLINE
  5
183
330
158
100
AcDbEntity
  8
$DDT_AUDIT_GENERATED_(BE)
  6
Continuous
 62
     7
100
AcDbSpline
210
0.0
220
0.0
230
1.0
 70
     8
 71
     5
 72
    13
 73
     7
 74
     0
 42
0.0000000683142187
 43
0.0000000001
 40
0.7921436212773075
 40
0.7921436212773075
 40
0.7921436212773075
 40
0.7921436212773075
 40
0.7921436212773075
 40
0.7921436212773075
 40
0.875000032604233
 40
1.0
 40
1.0
 40
1.0
 40
1.0
 40
1.0
 40
1.0
 10
189.3898447738243
 20
264.339896548779
 30
0.0
 10
189.3847588194868
 20
264.3373524633972
 30
0.0
 10
189.3735099979492
 20
264.3330697520619
 30
0.0
 10
189.3666136193486
 20
264.3322977129136
 30
0.0
 10
189.3623579080881
 20
264.3325649077798
 30
0.0
 10
189.3608621563994
 20
264.3324583098645
 30
0.0
 10
189.3608620100173
 20
264.3324583098645
 30
0.0
  0
SPLINE
  5
184
330
158
100
AcDbEntity
  8
$DDT_AUDIT_GENERATED_(BE)
  6
Continuous
 62
     7
100
AcDbSpline
210
0.0
220
0.0
230
1.0
 70
     8
 71
     5
 72
    13
 73
     7
 74
     0
 42
0.0000001276491962
 43
0.0000000001
 40
0.0
 40
0.0
 40
0.0
 40
0.0
 40
0.0
 40
0.0
 40
0.12499996739575
 40
0.1250120041603868
 40
0.1250120041603868
 40
0.1250120041603868
 40
0.1250120041603868
 40
0.1250120041603868
 40
0.1250120041603868
 10
155.6363134860884
 20
264.3324583098645
 30
0.0
 10
155.6363133396884
 20
264.3324583098645
 30
0.0
 10
155.635413744348
 20
264.3325224203313
 30
0.0
 10
155.633515806901
 20
264.3324513234938
 30
0.0
 10
155.6306454811165
 20
264.3325524243693
 30
0.0
 10
155.6265891355885
 20
264.3332716168191
 30
0.0
 10
155.6265887450128
 20
264.3332716860722
 30
0.0
  0
ARC
  5
185
330
158
100
AcDbEntity
  8
$DDT_AUDIT_GENERATED_(BE)
  6
Continuous
 62
     7
100
AcDbCircle
 10
172.4978007343
 20
255.8375614791
 30
0.0
 40
20.84655701417166
100
AcDbArc
 50
157.6736111636
 51
159.7041845742
  0
ARC
  5
186
330
158
100
AcDbEntity
  8
$DDT_AUDIT_GENERATED_(BE)
  6
Continuous
 62
     7
100
AcDbCircle
 10
172.5242929068
 20
255.8291816932
 30
0.0
 40
20.87431674270154
100
AcDbArc
 50
159.96208222
 51
177.0525114555
  0
SPLINE
  5
187
330
158
100
AcDbEntity
  8
$DDT_AUDIT_GENERATED_(BE)
  6
Continuous
 62
     7
100
AcDbSpline
210
0.0
220
0.0
230
1.0
 70
    12
 71
     5
 72
    12
 73
     6
 74
     0
 42
0.0000000029087759
 43
0.0000000001
 40
0.1469379358591861
 40
0.1469379358591861
 40
0.1469379358591861
 40
0.1469379358591861
 40
0.1469379358591861
 40
0.1469379358591861
 40
1.0
 40
1.0
 40
1.0
 40
1.0
 40
1.0
 40
1.0
 10
189.9279600556528
 20
264.3284247602085
 30
0.0
 41
1.0
 10
190.5641423556111
 20
264.3141187232026
 30
0.0
 41
1.0
 10
191.1402868288245
 20
264.2569030773191
 30
0.0
 41
1.0
 10
191.6576211428375
 20
264.066708809383
 30
0.0
 41
1.0
 10
191.8490712288314
 20
263.6241857540998
 30
0.0
 41
1.0
 10
192.0835948925921
 20
262.9815982380578
 30
0.0
 41
1.0
  0
ARC
  5
188
330
158
100
AcDbEntity
  8
$DDT_AUDIT_GENERATED_(BE)
  6
Continuous
 62
     7
100
AcDbCircle
 10
172.4908274167
 20
255.8251283814
 30
0.0
 40
20.85899153486836
100
AcDbArc
 50
20.317728167
 51
22.3677086623
  0
ARC
  5
189
330
158
100
AcDbEntity
  8
$DDT_AUDIT_GENERATED_(BE)
  6
Continuous
 62
     7
100
AcDbCircle
 10
172.4728825893
 20
255.8291816932
 30
0.0
 40
20.87431674270062
100
AcDbArc
 50
14.9053362372
 51
20.03791778
  0
LINE
  5
18A
330
158
100
AcDbEntity
  8
$DDT_AUDIT_GENERATED_(BE)
  6
Continuous
 62
     7
100
AcDbLine
 10
151.6488480036
 20
217.9521645646
 30
0.0
 11
151.6488481433
 21
127.1341921326
 31
0.0
  0
SPLINE
  5
18B
330
158
100
AcDbEntity
  8
$DDT_AUDIT_GENERATED_(BE)
  6
Continuous
 62
     7
100
AcDbSpline
210
0.0
220
0.0
230
1.0
 70
     8
 71
     3
 72
    10
 73
     6
 74
     0
 42
0.0000000065224799
 43
0.0000000001
 40
0.0
 40
0.0
 40
0.0
 40
0.0
 40
0.1931029861495319
 40
0.4329225744379782
 40
1.0
 40
1.0
 40
1.0
 40
1.0
 10
153.8186969956323
 20
264.1266441380778
 30
0.0
 10
153.7189811158835
 20
264.0830632748512
 30
0.0
 10
153.5294336660428
 20
263.9971232109543
 30
0.0
 10
153.1542997036614
 20
263.6279800068469
 30
0.0
 10
153.0158309681658
 20
263.2763769227872
 30
0.0
 10
152.9134324442821
 20
262.9816289110775
 30
0.0
  0
ARC
  5
18C
330
158
100
AcDbEntity
  8
$DDT_AUDIT_GENERATED_(BE)
  6
Continuous
 62
     7
100
AcDbCircle
 10
172.4986971332
 20
127.1351614777
 30
0.0
 40
20.85086751093793
100
AcDbArc
 50
343.4735544309
 51
0.0
  0
ARC
  5
18D
330
158
100
AcDbEntity
  8
$DDT_AUDIT_GENERATED_(BE)
  6
Continuous
 62
     7
100
AcDbCircle
 10
172.4986971332
 20
127.1351614777
 30
0.0
 40
20.85086751093793
100
AcDbArc
 50
180.0104191167
 51
196.5004672354
  0
ARC
  5
18E
330
158
100
AcDbEntity
  8
$DDT_AUDIT_GENERATED_(BE)
  6
Continuous
 62
     7
100
AcDbCircle
 10
172.6537328971
 20
255.6975949157
 30
0.0
 40
21.04394245079362
100
AcDbArc
 50
90.4224856648
 51
157.4904056964
  0
ARC
  5
18F
330
158
100
AcDbEntity
  8
$DDT_AUDIT_GENERATED_(BE)
  6
Continuous
 62
     7
100
AcDbCircle
 10
879.9166550347
 20
236.9109467078
 30
0.0
 40
728.5145476145549
100
AcDbArc
 50
178.427459626
 51
181.4912267797
  0
LINE
  5
190
330
158
100
AcDbEntity
  8
$DDT_AUDIT_GENERATED_(BE)
  6
Continuous
 62
     7
100
AcDbLine
 10
193.3483275763
 20
127.1341833992
 30
0.0
 11
193.3483274366
 21
217.9521645659
 31
0.0
  0
ARC
  5
191
330
158
100
AcDbEntity
  8
$DDT_AUDIT_GENERATED_(BE)
  6
Continuous
 62
     7
100
AcDbCircle
 10
172.3121482748
 20
255.651495515
 30
0.0
 40
21.09052393290511
100
AcDbArc
 50
22.5930398505
 51
89.4935728538
  0
SPLINE
  5
192
330
158
100
AcDbEntity
  8
$DDT_AUDIT_GENERATED_(BE)
  6
Continuous
 62
     7
100
AcDbSpline
210
0.0
220
0.0
230
1.0
 70
     8
 71
     3
 72
    28
 73
    24
 74
     0
 42
0.0000000002308984
 43
0.0000000001
 40
0.0
 40
0.0
 40
0.0
 40
0.0
 40
0.0850205552655783
 40
0.1660109220638917
 40
0.2434362173850184
 40
0.3174441095707503
 40
0.3880761600496662
 40
0.4445842316789309
 40
0.4998546837667715
 40
0.55507153971604
 40
0.5971264813323516
 40
0.6393073194796283
 40
0.6809039990594735
 40
0.7210993030600693
 40
0.7799033069097691
 40
0.8302204349445331
 40
0.8724709563276123
 40
0.907337907083792
 40
0.935802774921486
 40
0.9509376442371171
 40
0.9644818724574067
 40
0.9883787460468422
 40
1.0
 40
1.0
 40
1.0
 40
1.0
 10
193.3483358705687
 20
217.9521723492529
 30
0.0
 10
193.348328206726
 20
219.8902813940483
 30
0.0
 10
193.3483423358335
 20
223.0746683699671
 30
0.0
 10
193.3487098879341
 20
228.1939993448576
 30
0.0
 10
193.3495592129329
 20
232.9114572546959
 30
0.0
 10
193.3508055276358
 20
237.3494975517916
 30
0.0
 10
193.3521741623607
 20
241.2107317278286
 30
0.0
 10
193.3533986795385
 20
244.5156746364953
 30
0.0
 10
193.3543319967554
 20
247.3068477871057
 30
0.0
 10
193.3548710134898
 20
249.5601667668121
 30
0.0
 10
193.3549541351986
 20
251.3057000093268
 30
0.0
 10
193.3546322987921
 20
252.6217724530633
 30
0.0
 10
193.3540202044863
 20
253.6692287646235
 30
0.0
 10
193.3531221290166
 20
254.611034344536
 30
0.0
 10
193.3520913130093
 20
255.3729374496314
 30
0.0
 10
193.3473230668982
 20
256.057368762901
 30
0.0
 10
193.3312037258345
 20
256.6953258314108
 30
0.0
 10
193.2937650389995
 20
257.3816010661354
 30
0.0
 10
193.2301945916922
 20
258.0823045468177
 30
0.0
 10
193.1459348709586
 20
258.7485453018621
 30
0.0
 10
193.0331156880515
 20
259.468958795481
 30
0.0
 10
192.8770560539537
 20
260.3144677251773
 30
0.0
 10
192.7028558020096
 20
260.9516276842412
 30
0.0
 10
192.6358289929248
 20
261.1963730215124
 30
0.0
  0
LINE
  5
194
330
158
100
AcDbEntity
  8
DV3_Standard
  6
CENTER2
 62
     7
100
AcDbLine
 10
292.498587301
 20
255.8324583099
 30
0.0
 11
252.4985881951
 21
255.8324583099
 31
0.0
  0
LINE
  5
195
330
158
100
AcDbEntity
  8
DV3_Standard
  6
CENTER2
 62
     7
100
AcDbLine
 10
272.4985877481
 20
275.8324578628
 30
0.0
 11
272.4985877481
 21
235.8324587569
 31
0.0
  0
LINE
  5
196
330
158
100
AcDbEntity
  8
DV3_Standard
  6
CENTER2
 62
     7
100
AcDbLine
 10
297.4985871893
 20
255.8324583099
 30
0.0
 11
290.9985877481
 21
255.8324583099
 31
0.0
  0
LINE
  5
197
330
158
100
AcDbEntity
  8
DV3_Standard
  6
CENTER2
 62
     7
100
AcDbLine
 10
272.4985877481
 20
280.8324577511
 30
0.0
 11
272.4985877481
 21
274.3324583099
 31
0.0
  0
LINE
  5
198
330
158
100
AcDbEntity
  8
DV3_Standard
  6
CENTER2
 62
     7
100
AcDbLine
 10
247.4985883068
 20
255.8324583099
 30
0.0
 11
253.9985877481
 21
255.8324583099
 31
0.0
  0
LINE
  5
199
330
158
100
AcDbEntity
  8
DV3_Standard
  6
CENTER2
 62
     7
100
AcDbLine
 10
272.4985877481
 20
230.8324588687
 30
0.0
 11
272.4985877481
 21
237.3324583099
 31
0.0
  0
LINE
  5
19A
330
158
100
AcDbEntity
  8
DV3_Standard
  6
CENTER2
 62
     7
100
AcDbLine
 10
192.3121478278
 20
255.651495515
 30
0.0
 11
152.3121487218
 21
255.651495515
 31
0.0
  0
LINE
  5
19B
330
158
100
AcDbEntity
  8
DV3_Standard
  6
CENTER2
 62
     7
100
AcDbLine
 10
172.3121482748
 20
275.651495068
 30
0.0
 11
172.3121482748
 21
235.6514959621
 31
0.0
  0
LINE
  5
19C
330
158
100
AcDbEntity
  8
DV3_Standard
  6
CENTER2
 62
     7
100
AcDbLine
 10
197.312147716
 20
255.651495515
 30
0.0
 11
196.9026722077
 21
255.651495515
 31
0.0
  0
LINE
  5
19D
330
158
100
AcDbEntity
  8
DV3_Standard
  6
CENTER2
 62
     7
100
AcDbLine
 10
172.3121482748
 20
280.6514949562
 30
0.0
 11
172.3121482748
 21
280.2420194479
 31
0.0
  0
LINE
  5
19E
330
158
100
AcDbEntity
  8
DV3_Standard
  6
CENTER2
 62
     7
100
AcDbLine
 10
147.3121488336
 20
255.651495515
 30
0.0
 11
147.7216243419
 21
255.651495515
 31
0.0
  0
LINE
  5
19F
330
158
100
AcDbEntity
  8
DV3_Standard
  6
CENTER2
 62
     7
100
AcDbLine
 10
172.3121482748
 20
230.6514960738
 30
0.0
 11
172.3121482748
 21
231.0609715821
 31
0.0
  0
ARC
  5
1A0
330
158
100
AcDbEntity
  8
DV3_Standard
  6
Continuous
 62
     7
100
AcDbCircle
 10
72.4986061472
 20
255.8324359497
 30
0.0
 40
30.00002822682122
100
AcDbArc
 50
207.8079109168
 51
152.1920895341
  0
LINE
  5
1A1
330
158
100
AcDbEntity
  8
DV3_Standard
  6
CENTER2
 62
     7
100
AcDbLine
 10
92.4986057002
 20
255.8324359497
 30
0.0
 11
52.4986065943
 21
255.8324359497
 31
0.0
  0
LINE
  5
1A2
330
158
100
AcDbEntity
  8
DV3_Standard
  6
CENTER2
 62
     7
100
AcDbLine
 10
72.4986061472
 20
275.8324355027
 30
0.0
 11
72.4986061472
 21
235.8324363968
 31
0.0
  0
LINE
  5
1A3
330
158
100
AcDbEntity
  8
DV3_Standard
  6
CENTER2
 62
     7
100
AcDbLine
 10
97.4986055884
 20
255.8324359497
 30
0.0
 11
105.998634374
 21
255.8324359497
 31
0.0
  0
LINE
  5
1A4
330
158
100
AcDbEntity
  8
DV3_Standard
  6
CENTER2
 62
     7
100
AcDbLine
 10
72.4986061472
 20
280.8324353909
 30
0.0
 11
72.4986061472
 21
289.3324641765
 31
0.0
  0
LINE
  5
1A5
330
158
100
AcDbEntity
  8
DV3_Standard
  6
CENTER2
 62
     7
100
AcDbLine
 10
47.498606706
 20
255.8324359497
 30
0.0
 11
38.9985779204
 21
255.8324359497
 31
0.0
  0
LINE
  5
1A6
330
158
100
AcDbEntity
  8
DV3_Standard
  6
CENTER2
 62
     7
100
AcDbLine
 10
72.4986061472
 20
230.8324365085
 30
0.0
 11
72.4986061472
 21
222.3324077229
 31
0.0
  0
ENDBLK
  5
1A8
330
158
100
AcDbEntity
  8
0
100
AcDbBlockEnd
  0
ENDSEC
  0
SECTION
  2
ENTITIES
  0
INSERT
  5
5F
330
1F
100
AcDbEntity
  8
Default
100
AcDbBlockReference
  2
SE
 10
0.0
 20
0.0
 30
0.0
  0
INSERT
  5
EC
330
1F
100
AcDbEntity
  8
Default
100
AcDbBlockReference
  2
SE1
 10
0.0
 20
0.0
 30
0.0
  0
INSERT
  5
159
330
1F
100
AcDbEntity
  8
Default
100
AcDbBlockReference
  2
SE2
 10
0.0
 20
0.0
 30
0.0
  0
TEXT
  5
1AA
330
1F
100
AcDbEntity
  8
Default
  6
Continuous
 62
     7
100
AcDbText
 10
5.9362635081
 20
53.4225120485
 30
0.0
 40
10.0
  1
Grohe AG^J
  7
SEACAD_seiso_ttf
 11
5.9362635081
 21
63.4225120485
 31
0.0
100
AcDbText
 73
     3
  0
TEXT
  5
1AB
330
1F
100
AcDbEntity
  8
Default
  6
Continuous
 62
     7
100
AcDbText
 10
5.9362635081
 20
37.0588756849
 30
0.0
 40
10.0
  1
 
  7
SEACAD_seiso_ttf
 11
5.9362635081
 21
47.0588756849
 31
0.0
100
AcDbText
 73
     3
  0
TEXT
  5
1AC
330
1F
100
AcDbEntity
  8
Default
  6
Continuous
 62
     7
100
AcDbText
 10
5.9362635081
 20
20.6952393213
 30
0.0
 40
10.0
  1
ecn: 
  7
SEACAD_seiso_ttf
 11
5.9362635081
 21
30.6952393213
 31
0.0
100
AcDbText
 73
     3
  0
TEXT
  5
1AD
330
1F
100
AcDbEntity
  8
Default
  6
Continuous
 62
     7
100
AcDbText
 10
5.9362635081
 20
4.3316029576
 30
0.0
 40
10.0
  1
unit: mm
  7
SEACAD_seiso_ttf
 11
5.9362635081
 21
14.3316029576
 31
0.0
100
AcDbText
 73
     3
  0
LINE
  5
1AE
330
1F
100
AcDbEntity
  8
Default
  6
Continuous
 62
     7
100
AcDbLine
 10
0.0
 20
0.0
 30
0.0
 11
100.0
 21
0.0
 31
0.0
  0
LINE
  5
1AF
330
1F
100
AcDbEntity
  8
Default
  6
Continuous
 62
     7
100
AcDbLine
 10
0.0
 20
0.0
 30
0.0
 11
0.0
 21
100.0
 31
0.0
  0
TEXT
  5
1B0
330
1F
100
AcDbEntity
  8
Default
  6
Continuous
 62
     7
100
AcDbText
 10
24.3923665681
 20
-18.2375342018
 30
0.0
 40
10.0
  1
100 mm
  7
SEACAD_seiso_ttf
 11
24.3923665681
 21
-8.2375342018
 31
0.0
100
AcDbText
 73
     3
  0
TEXT
  5
1B1
330
1F
100
AcDbEntity
  8
Default
  6
Continuous
 62
     7
100
AcDbText
 10
-7.6150308803
 20
24.6231930421
 30
0.0
 40
10.0
  1
100 mm
 50
90.0
  7
SEACAD_seiso_ttf
 11
-17.6150308803
 21
24.6231930421
 31
0.0
100
AcDbText
 73
     3
  0
TEXT
  5
1B2
330
1F
100
AcDbEntity
  8
Default
  6
Continuous
 62
     7
100
AcDbText
 10
28.4878128572
 20
20.0907663715
 30
0.0
 40
10.0
  1
215311
  7
SEACAD_seiso_ttf
 11
28.4878128572
 21
30.0907663715
 31
0.0
100
AcDbText
 73
     3
  0
TEXT
  5
1B3
330
1F
100
AcDbEntity
  8
Default
  6
Continuous
 62
     7
100
AcDbText
 10
5.9012241913
 20
36.7242780188
 30
0.0
 40
10.0
  1
20180000
  7
SEACAD_seiso_ttf
 11
5.9012241913
 21
46.7242780188
 31
0.0
100
AcDbText
 73
     3
  0
ENDSEC
  0
SECTION
  2
OBJECTS
  0
DICTIONARY
  5
C
330
0
100
AcDbDictionary
281
     1
  3
ACAD_GROUP
350
D
  3
ACAD_LAYOUT
350
1A
  3
ACAD_MLEADERSTYLE
350
1B7
  3
ACAD_MLINESTYLE
350
17
  3
ACAD_PLOTSETTINGS
350
19
  3
ACAD_PLOTSTYLENAME
350
E
  3
ACAD_SCALELIST
350
3B
  3
ACAD_TABLESTYLE
350
1B6
  3
ACAD_VISUALSTYLE
350
2A
  3
AcDbVariableDictionary
350
1B4
  0
DICTIONARY
  5
D
102
{ACAD_REACTORS
330
C
102
}
330
C
100
AcDbDictionary
281
     1
  0
DICTIONARY
  5
1A
102
{ACAD_REACTORS
330
C
102
}
330
C
100
AcDbDictionary
281
     1
  3
Layout1
350
1E
  3
Model
350
22
  0
DICTIONARY
  5
1B7
102
{ACAD_REACTORS
330
C
102
}
330
C
100
AcDbDictionary
281
     1
  0
DICTIONARY
  5
17
102
{ACAD_REACTORS
330
C
102
}
330
C
100
AcDbDictionary
281
     1
  3
Standard
350
18
  0
DICTIONARY
  5
19
102
{ACAD_REACTORS
330
C
102
}
330
C
100
AcDbDictionary
281
     1
  0
ACDBDICTIONARYWDFLT
  5
E
102
{ACAD_REACTORS
330
C
102
}
330
C
100
AcDbDictionary
281
     1
  3
Normal
350
F
100
AcDbDictionaryWithDefault
340
F
  0
DICTIONARY
  5
3B
102
{ACAD_REACTORS
330
C
102
}
330
C
100
AcDbDictionary
281
     1
  3
A0
350
3C
  3
A1
350
3D
  3
A2
350
3E
  3
A3
350
3F
  3
A4
350
40
  3
A5
350
41
  3
A6
350
42
  3
A7
350
43
  3
A8
350
44
  3
A9
350
45
  3
B0
350
46
  3
B1
350
47
  3
B2
350
48
  3
B3
350
49
  3
B4
350
4A
  3
B5
350
4B
  3
B6
350
4C
  3
B7
350
4D
  3
B8
350
4E
  3
B9
350
4F
  3
C0
350
50
  3
C1
350
51
  3
C2
350
52
  3
C3
350
53
  3
C4
350
54
  3
C5
350
55
  3
C6
350
56
  3
C7
350
57
  3
C8
350
58
  3
C9
350
59
  3
D0
350
5A
  3
D1
350
5B
  3
D2
350
5C
  0
DICTIONARY
  5
1B6
102
{ACAD_REACTORS
330
C
102
}
330
C
100
AcDbDictionary
281
     1
  0
DICTIONARY
  5
2A
102
{ACAD_REACTORS
330
C
102
}
330
C
100
AcDbDictionary
281
     1
  3
2dWireframe
350
2F
  3
3D Hidden
350
31
  3
3dWireframe
350
30
  3
Basic
350
32
  3
Brighten
350
36
  3
ColorChange
350
3A
  3
Conceptual
350
34
  3
Dim
350
35
  3
Facepattern
350
39
  3
Flat
350
2B
  3
FlatWithEdges
350
2C
  3
Gouraud
350
2D
  3
GouraudWithEdges
350
2E
  3
Linepattern
350
38
  3
Realistic
350
33
  3
Thicken
350
37
  0
DICTIONARY
  5
1B4
102
{ACAD_REACTORS
330
C
102
}
330
C
100
AcDbDictionary
281
     1
  3
CANNOSCALE
350
1B5
  3
PSOLHEIGHT
350
1B9
  3
PSOLWIDTH
350
1B8
  0
LAYOUT
  5
1E
102
{ACAD_REACTORS
330
1A
102
}
330
1A
100
AcDbPlotSettings
  1

  2
none_device
  4

  6

 40
0.0
 41
0.0
 42
0.0
 43
0.0
 44
0.0
 45
0.0
 46
0.0
 47
0.0
 48
0.0
 49
0.0
140
0.0
141
0.0
142
1.0
143
1.0
 70
   688
 72
     0
 73
     0
 74
     5
  7

 75
    16
147
1.0
148
0.0
149
0.0
100
AcDbLayout
  1
Layout1
 70
     1
 71
     1
 10
0.0
 20
0.0
 11
1682.0
 21
2378.0
 12
0.0
 22
0.0
 32
0.0
 14
0.0
 24
0.0
 34
0.0
 15
1682.0
 25
2378.0
 35
0.0
146
0.0
 13
0.0
 23
0.0
 33
0.0
 16
1.0
 26
0.0
 36
0.0
 17
0.0
 27
1.0
 37
0.0
 76
     0
330
1B
  0
LAYOUT
  5
22
102
{ACAD_REACTORS
330
1A
102
}
330
1A
100
AcDbPlotSettings
  1

  2
none_device
  4

  6

 40
0.0
 41
0.0
 42
0.0
 43
0.0
 44
0.0
 45
0.0
 46
0.0
 47
0.0
 48
0.0
 49
0.0
140
0.0
141
0.0
142
1.0
143
1.0
 70
  1712
 72
     0
 73
     0
 74
     0
  7

 75
     0
147
1.0
148
0.0
149
0.0
100
AcDbLayout
  1
Model
 70
     1
 71
     0
 10
0.0
 20
0.0
 11
1682.0
 21
2378.0
 12
0.0
 22
0.0
 32
0.0
 14
0.0
 24
0.0
 34
0.0
 15
1682.0
 25
2378.0
 35
0.0
146
0.0
 13
0.0
 23
0.0
 33
0.0
 16
1.0
 26
0.0
 36
0.0
 17
0.0
 27
1.0
 37
0.0
 76
     0
330
1F
331
29
  0
MLINESTYLE
  5
18
102
{ACAD_REACTORS
330
17
102
}
330
17
100
AcDbMlineStyle
  2
Standard
 70
     0
  3

 62
   256
 51
90.0
 52
90.0
 71
     2
 49
0.5
 62
   256
  6
BYLAYER
 49
-0.5
 62
   256
  6
BYLAYER
  0
ACDBPLACEHOLDER
  5
F
102
{ACAD_REACTORS
330
E
102
}
330
E
  0
SCALE
  5
3C
102
{ACAD_REACTORS
330
3B
102
}
330
3B
100
AcDbScale
 70
     0
300
1:1
140
1.0
141
1.0
290
     1
  0
SCALE
  5
3D
102
{ACAD_REACTORS
330
3B
102
}
330
3B
100
AcDbScale
 70
     0
300
1:2
140
1.0
141
2.0
290
     0
  0
SCALE
  5
3E
102
{ACAD_REACTORS
330
3B
102
}
330
3B
100
AcDbScale
 70
     0
300
1:4
140
1.0
141
4.0
290
     0
  0
SCALE
  5
3F
102
{ACAD_REACTORS
330
3B
102
}
330
3B
100
AcDbScale
 70
     0
300
1:5
140
1.0
141
5.0
290
     0
  0
SCALE
  5
40
102
{ACAD_REACTORS
330
3B
102
}
330
3B
100
AcDbScale
 70
     0
300
1:8
140
1.0
141
8.0
290
     0
  0
SCALE
  5
41
102
{ACAD_REACTORS
330
3B
102
}
330
3B
100
AcDbScale
 70
     0
300
1:10
140
1.0
141
10.0
290
     0
  0
SCALE
  5
42
102
{ACAD_REACTORS
330
3B
102
}
330
3B
100
AcDbScale
 70
     0
300
1:16
140
1.0
141
16.0
290
     0
  0
SCALE
  5
43
102
{ACAD_REACTORS
330
3B
102
}
330
3B
100
AcDbScale
 70
     0
300
1:20
140
1.0
141
20.0
290
     0
  0
SCALE
  5
44
102
{ACAD_REACTORS
330
3B
102
}
330
3B
100
AcDbScale
 70
     0
300
1:30
140
1.0
141
30.0
290
     0
  0
SCALE
  5
45
102
{ACAD_REACTORS
330
3B
102
}
330
3B
100
AcDbScale
 70
     0
300
1:40
140
1.0
141
40.0
290
     0
  0
SCALE
  5
46
102
{ACAD_REACTORS
330
3B
102
}
330
3B
100
AcDbScale
 70
     0
300
1:50
140
1.0
141
50.0
290
     0
  0
SCALE
  5
47
102
{ACAD_REACTORS
330
3B
102
}
330
3B
100
AcDbScale
 70
     0
300
1:100
140
1.0
141
100.0
290
     0
  0
SCALE
  5
48
102
{ACAD_REACTORS
330
3B
102
}
330
3B
100
AcDbScale
 70
     0
300
2:1
140
2.0
141
1.0
290
     0
  0
SCALE
  5
49
102
{ACAD_REACTORS
330
3B
102
}
330
3B
100
AcDbScale
 70
     0
300
4:1
140
4.0
141
1.0
290
     0
  0
SCALE
  5
4A
102
{ACAD_REACTORS
330
3B
102
}
330
3B
100
AcDbScale
 70
     0
300
8:1
140
8.0
141
1.0
290
     0
  0
SCALE
  5
4B
102
{ACAD_REACTORS
330
3B
102
}
330
3B
100
AcDbScale
 70
     0
300
10:1
140
10.0
141
1.0
290
     0
  0
SCALE
  5
4C
102
{ACAD_REACTORS
330
3B
102
}
330
3B
100
AcDbScale
 70
     0
300
100:1
140
100.0
141
1.0
290
     0
  0
SCALE
  5
4D
102
{ACAD_REACTORS
330
3B
102
}
330
3B
100
AcDbScale
 70
     0
300
1/128" = 1'-0"
140
0.0078125
141
12.0
290
     0
  0
SCALE
  5
4E
102
{ACAD_REACTORS
330
3B
102
}
330
3B
100
AcDbScale
 70
     0
300
1/64" = 1'-0"
140
0.015625
141
12.0
290
     0
  0
SCALE
  5
4F
102
{ACAD_REACTORS
330
3B
102
}
330
3B
100
AcDbScale
 70
     0
300
1/32" = 1'-0"
140
0.03125
141
12.0
290
     0
  0
SCALE
  5
50
102
{ACAD_REACTORS
330
3B
102
}
330
3B
100
AcDbScale
 70
     0
300
1/16" = 1'-0"
140
0.0625
141
12.0
290
     0
  0
SCALE
  5
51
102
{ACAD_REACTORS
330
3B
102
}
330
3B
100
AcDbScale
 70
     0
300
3/32" = 1'-0"
140
0.09375
141
12.0
290
     0
  0
SCALE
  5
52
102
{ACAD_REACTORS
330
3B
102
}
330
3B
100
AcDbScale
 70
     0
300
1/8" = 1'-0"
140
0.125
141
12.0
290
     0
  0
SCALE
  5
53
102
{ACAD_REACTORS
330
3B
102
}
330
3B
100
AcDbScale
 70
     0
300
3/16" = 1'-0"
140
0.1875
141
12.0
290
     0
  0
SCALE
  5
54
102
{ACAD_REACTORS
330
3B
102
}
330
3B
100
AcDbScale
 70
     0
300
1/4" = 1'-0"
140
0.25
141
12.0
290
     0
  0
SCALE
  5
55
102
{ACAD_REACTORS
330
3B
102
}
330
3B
100
AcDbScale
 70
     0
300
3/8" = 1'-0"
140
0.375
141
12.0
290
     0
  0
SCALE
  5
56
102
{ACAD_REACTORS
330
3B
102
}
330
3B
100
AcDbScale
 70
     0
300
1/2" = 1'-0"
140
0.5
141
12.0
290
     0
  0
SCALE
  5
57
102
{ACAD_REACTORS
330
3B
102
}
330
3B
100
AcDbScale
 70
     0
300
3/4" = 1'-0"
140
0.75
141
12.0
290
     0
  0
SCALE
  5
58
102
{ACAD_REACTORS
330
3B
102
}
330
3B
100
AcDbScale
 70
     0
300
1" = 1'-0"
140
1.0
141
12.0
290
     0
  0
SCALE
  5
59
102
{ACAD_REACTORS
330
3B
102
}
330
3B
100
AcDbScale
 70
     0
300
1-1/2" = 1'-0"
140
1.5
141
12.0
290
     0
  0
SCALE
  5
5A
102
{ACAD_REACTORS
330
3B
102
}
330
3B
100
AcDbScale
 70
     0
300
3" = 1'-0"
140
3.0
141
12.0
290
     0
  0
SCALE
  5
5B
102
{ACAD_REACTORS
330
3B
102
}
330
3B
100
AcDbScale
 70
     0
300
6" = 1'-0"
140
6.0
141
12.0
290
     0
  0
SCALE
  5
5C
102
{ACAD_REACTORS
330
3B
102
}
330
3B
100
AcDbScale
 70
     0
300
1'-0" = 1'-0"
140
12.0
141
12.0
290
     0
  0
VISUALSTYLE
  5
2F
102
{ACAD_REACTORS
330
2A
102
}
330
2A
100
AcDbVisualStyle
  2
2dWireframe
 70
     4
 71
     0
 72
     2
 73
     0
 90
        0
 40
-0.6
 41
-30.0
 62
     5
 63
     7
 74
     1
 91
        4
 64
     7
 65
   257
 75
     1
175
     1
 42
1.0
 92
        0
 66
   257
 43
1.0
 76
     1
 77
     6
 78
     2
 67
     7
 79
     5
170
     0
171
     0
290
     0
174
     0
 93
        1
 44
0.0
173
     0
291
     0
 45
0.0
1001
ACAD
1000
AcDbSavedByObjectVersion
1070
     0
  0
VISUALSTYLE
  5
31
102
{ACAD_REACTORS
330
2A
102
}
330
2A
100
AcDbVisualStyle
  2
3D Hidden
 70
     6
 71
     1
 72
     2
 73
     2
 90
        0
 40
-0.6
 41
-30.0
 62
     5
 63
     7
 74
     2
 91
        2
 64
     7
 65
   257
 75
     2
175
     1
 42
40.0
 92
        0
 66
   257
 43
1.0
 76
     1
 77
     6
 78
     2
 67
     7
 79
     3
170
     0
171
     0
290
     0
174
     0
 93
        1
 44
0.0
173
     0
291
     0
 45
0.0
1001
ACAD
1000
AcDbSavedByObjectVersion
1070
     0
  0
VISUALSTYLE
  5
30
102
{ACAD_REACTORS
330
2A
102
}
330
2A
100
AcDbVisualStyle
  2
3dWireframe
 70
     5
 71
     0
 72
     2
 73
     0
 90
        0
 40
-0.6
 41
-30.0
 62
     5
 63
     7
 74
     1
 91
        4
 64
     7
 65
   257
 75
     1
175
     1
 42
1.0
 92
        0
 66
   257
 43
1.0
 76
     1
 77
     6
 78
     2
 67
     7
 79
     5
170
     0
171
     0
290
     0
174
     0
 93
        1
 44
0.0
173
     0
291
     0
 45
0.0
1001
ACAD
1000
AcDbSavedByObjectVersion
1070
     0
  0
VISUALSTYLE
  5
32
102
{ACAD_REACTORS
330
2A
102
}
330
2A
100
AcDbVisualStyle
  2
Basic
 70
     7
 71
     1
 72
     0
 73
     1
 90
        0
 40
-0.6
 41
-30.0
 62
     5
 63
     7
 74
     0
 91
        4
 64
     7
 65
   257
 75
     1
175
     1
 42
1.0
 92
        8
 66
     7
 43
1.0
 76
     1
 77
     6
 78
     2
 67
     7
 79
     5
170
     0
171
     0
290
     0
174
     0
 93
        1
 44
0.0
173
     0
291
     1
 45
0.0
1001
ACAD
1000
AcDbSavedByObjectVersion
1070
     0
  0
VISUALSTYLE
  5
36
102
{ACAD_REACTORS
330
2A
102
}
330
2A
100
AcDbVisualStyle
  2
Brighten
 70
    12
 71
     2
 72
     2
 73
     0
 90
        0
 40
-0.6
 41
-30.0
 62
     5
 63
     7
 74
     1
 91
        4
 64
     7
 65
   257
 75
     1
175
     1
 42
1.0
 92
        8
 66
     7
 43
1.0
 76
     1
 77
     6
 78
     2
 67
     7
 79
     5
170
     0
171
     0
290
     0
174
     0
 93
        1
 44
50.0
173
     0
291
     1
 45
0.0
1001
ACAD
1000
AcDbSavedByObjectVersion
1070
     0
  0
VISUALSTYLE
  5
3A
102
{ACAD_REACTORS
330
2A
102
}
330
2A
100
AcDbVisualStyle
  2
ColorChange
 70
    16
 71
     2
 72
     2
 73
     3
 90
        0
 40
-0.6
 41
-30.0
 62
     5
 63
     8
 74
     1
 91
        4
 64
     7
 65
   257
 75
     1
175
     1
 42
1.0
 92
        8
 66
     8
 43
1.0
 76
     1
 77
     6
 78
     2
 67
     7
 79
     5
170
     0
171
     0
290
     0
174
     0
 93
        1
 44
0.0
173
     0
291
     1
 45
0.0
1001
ACAD
1000
AcDbSavedByObjectVersion
1070
     0
  0
VISUALSTYLE
  5
34
102
{ACAD_REACTORS
330
2A
102
}
330
2A
100
AcDbVisualStyle
  2
Conceptual
 70
     9
 71
     3
 72
     2
 73
     0
 90
        0
 40
-0.6
 41
-30.0
 62
     5
 63
     7
 74
     2
 91
        2
 64
     7
 65
   257
 75
     1
175
     1
 42
40.0
 92
        8
 66
     7
 43
1.0
 76
     1
 77
     6
 78
     2
 67
     7
 79
     3
170
     0
171
     0
290
     0
174
     0
 93
        1
 44
0.0
173
     0
291
     0
 45
0.0
1001
ACAD
1000
AcDbSavedByObjectVersion
1070
     0
  0
VISUALSTYLE
  5
35
102
{ACAD_REACTORS
330
2A
102
}
330
2A
100
AcDbVisualStyle
  2
Dim
 70
    11
 71
     2
 72
     2
 73
     0
 90
        0
 40
-0.6
 41
-30.0
 62
     5
 63
     7
 74
     1
 91
        4
 64
     7
 65
   257
 75
     1
175
     1
 42
1.0
 92
        8
 66
     7
 43
1.0
 76
     1
 77
     6
 78
     2
 67
     7
 79
     5
170
     0
171
     0
290
     0
174
     0
 93
        1
 44
-50.0
173
     0
291
     1
 45
0.0
1001
ACAD
1000
AcDbSavedByObjectVersion
1070
     0
  0
VISUALSTYLE
  5
39
102
{ACAD_REACTORS
330
2A
102
}
330
2A
100
AcDbVisualStyle
  2
Facepattern
 70
    15
 71
     2
 72
     2
 73
     0
 90
        0
 40
-0.6
 41
-30.0
 62
     5
 63
     7
 74
     1
 91
        4
 64
     7
 65
   257
 75
     1
175
     1
 42
1.0
 92
        8
 66
     7
 43
1.0
 76
     1
 77
     6
 78
     2
 67
     7
 79
     5
170
     0
171
     0
290
     0
174
     0
 93
        1
 44
0.0
173
     0
291
     1
 45
0.0
1001
ACAD
1000
AcDbSavedByObjectVersion
1070
     0
  0
VISUALSTYLE
  5
2B
102
{ACAD_REACTORS
330
2A
102
}
330
2A
100
AcDbVisualStyle
  2
Flat
 70
     0
 71
     2
 72
     1
 73
     1
 90
        2
 40
-0.6
 41
30.0
 62
     5
 63
     7
 74
     0
 91
        4
 64
     7
 65
   257
 75
     1
175
     1
 42
1.0
 92
        8
 66
     7
 43
1.0
 76
     1
 77
     6
 78
     2
 67
     7
 79
     5
170
     0
171
     0
290
     0
174
     0
 93
       13
 44
0.0
173
     0
291
     1
 45
0.0
1001
ACAD
1000
AcDbSavedByObjectVersion
1070
     0
  0
VISUALSTYLE
  5
2C
102
{ACAD_REACTORS
330
2A
102
}
330
2A
100
AcDbVisualStyle
  2
FlatWithEdges
 70
     1
 71
     2
 72
     1
 73
     1
 90
        2
 40
-0.6
 41
30.0
 62
     5
 63
     7
 74
     1
 91
        4
 64
     7
 65
   257
 75
     1
175
     1
 42
1.0
 92
        0
 66
   257
 43
1.0
 76
     1
 77
     6
 78
     2
 67
     7
 79
     5
170
     0
171
     0
290
     0
174
     0
 93
       13
 44
0.0
173
     0
291
     1
 45
0.0
1001
ACAD
1000
AcDbSavedByObjectVersion
1070
     0
  0
VISUALSTYLE
  5
2D
102
{ACAD_REACTORS
330
2A
102
}
330
2A
100
AcDbVisualStyle
  2
Gouraud
 70
     2
 71
     2
 72
     2
 73
     1
 90
        2
 40
-0.6
 41
30.0
 62
     5
 63
     7
 74
     0
 91
        4
 64
     7
 65
   257
 75
     1
175
     1
 42
1.0
 92
        0
 66
     7
 43
1.0
 76
     1
 77
     6
 78
     2
 67
     7
 79
     5
170
     0
171
     0
290
     0
174
     0
 93
       13
 44
0.0
173
     0
291
     1
 45
0.0
1001
ACAD
1000
AcDbSavedByObjectVersion
1070
     0
  0
VISUALSTYLE
  5
2E
102
{ACAD_REACTORS
330
2A
102
}
330
2A
100
AcDbVisualStyle
  2
GouraudWithEdges
 70
     3
 71
     2
 72
     2
 73
     1
 90
        2
 40
-0.6
 41
30.0
 62
     5
 63
     7
 74
     1
 91
        4
 64
     7
 65
   257
 75
     1
175
     1
 42
1.0
 92
        0
 66
   257
 43
1.0
 76
     1
 77
     6
 78
     2
 67
     7
 79
     5
170
     0
171
     0
290
     0
174
     0
 93
       13
 44
0.0
173
     0
291
     1
 45
0.0
1001
ACAD
1000
AcDbSavedByObjectVersion
1070
     0
  0
VISUALSTYLE
  5
38
102
{ACAD_REACTORS
330
2A
102
}
330
2A
100
AcDbVisualStyle
  2
Linepattern
 70
    14
 71
     2
 72
     2
 73
     0
 90
        0
 40
-0.6
 41
-30.0
 62
     5
 63
     7
 74
     1
 91
        4
 64
     7
 65
   257
 75
     7
175
     7
 42
1.0
 92
        8
 66
     7
 43
1.0
 76
     1
 77
     6
 78
     2
 67
     7
 79
     5
170
     0
171
     0
290
     0
174
     0
 93
        1
 44
0.0
173
     0
291
     1
 45
0.0
1001
ACAD
1000
AcDbSavedByObjectVersion
1070
     0
  0
VISUALSTYLE
  5
33
102
{ACAD_REACTORS
330
2A
102
}
330
2A
100
AcDbVisualStyle
  2
Realistic
 70
     8
 71
     2
 72
     2
 73
     0
 90
        0
 40
-0.6
 41
-30.0
 62
     5
 63
     7
 74
     1
 91
        0
 64
     7
 65
   257
 75
     1
175
     1
 42
1.0
 92
        8
 66
     8
 43
1.0
 76
     1
 77
     6
 78
     2
 67
     7
 79
     5
170
     0
171
     0
290
     0
174
     0
 93
       13
 44
0.0
173
     0
291
     0
 45
0.0
1001
ACAD
1000
AcDbSavedByObjectVersion
1070
     0
  0
VISUALSTYLE
  5
37
102
{ACAD_REACTORS
330
2A
102
}
330
2A
100
AcDbVisualStyle
  2
Thicken
 70
    13
 71
     2
 72
     2
 73
     0
 90
        0
 40
-0.6
 41
-30.0
 62
     5
 63
     7
 74
     1
 91
        4
 64
     7
 65
   257
 75
     1
175
     1
 42
1.0
 92
       12
 66
     7
 43
1.0
 76
     1
 77
     6
 78
     2
 67
     7
 79
     5
170
     0
171
     0
290
     0
174
     0
 93
        1
 44
0.0
173
     0
291
     1
 45
0.0
1001
ACAD
1000
AcDbSavedByObjectVersion
1070
     0
  0
DICTIONARYVAR
  5
1B5
102
{ACAD_REACTORS
330
1B4
102
}
330
1B4
100
DictionaryVariables
280
     0
  1
1:1
  0
DICTIONARYVAR
  5
1B9
102
{ACAD_REACTORS
330
1B4
102
}
330
1B4
100
DictionaryVariables
280
     0
  1
80.000000
  0
DICTIONARYVAR
  5
1B8
102
{ACAD_REACTORS
330
1B4
102
}
330
1B4
100
DictionaryVariables
280
     0
  1
5.000000
  0
ENDSEC
  0
EOF
