999
Converted by 3D Exploration 
999
XDimension Software, LLC
999
http://www.xdsoft.com/explorer/
0
SECTION
2
HEADER
9
$ACADVER
1
AC1008
9
$UCSORG
10
0.0
20
0.0
30
0.0
9
$UCSXDIR
10
1.0
20
0.0
30
0.0
9
$TILEMODE
70
1
9
$UCSYDIR
10
0.0
20
1.0
30
0.0
9
$EXTMIN
10
-64.259003
20
-64.117996
30
-64.117996
9
$EXTMAX
10
64.259003
20
64.306000
30
76.203003
0
ENDSEC
0
SECTION
2
TABLES
0
TABLE
2
LTYPE
70
1
0
LTYPE
2
CONTINUOUS
70
64
3
Solid line
72
65
73
0
40
0.0
0
ENDTAB
0
TABLE
2
LAYER
70
29
0
LAYER
2
OBJECT__0
70
0
62
253
6
CONTINUOUS
0
LAYER
2
OBJECT__1
70
0
62
253
6
CONTINUOUS
0
LAYER
2
OBJECT__3
70
0
62
253
6
CONTINUOUS
0
LAYER
2
OBJECT__4
70
0
62
253
6
CONTINUOUS
0
LAYER
2
OBJECT__5
70
0
62
253
6
CONTINUOUS
0
LAYER
2
OBJECT__6
70
0
62
253
6
CONTINUOUS
0
LAYER
2
OBJECT__7
70
0
62
253
6
CONTINUOUS
0
LAYER
2
OBJECT__8
70
0
62
253
6
CONTINUOUS
0
LAYER
2
OBJECT__10
70
0
62
253
6
CONTINUOUS
0
LAYER
2
OBJECT__11
70
0
62
253
6
CONTINUOUS
0
LAYER
2
OBJECT__12
70
0
62
253
6
CONTINUOUS
0
LAYER
2
OBJECT__13
70
0
62
253
6
CONTINUOUS
0
LAYER
2
OBJECT__14
70
0
62
253
6
CONTINUOUS
0
LAYER
2
OBJECT__15
70
0
62
253
6
CONTINUOUS
0
LAYER
2
OBJECT__16
70
0
62
253
6
CONTINUOUS
0
LAYER
2
OBJECT__17
70
0
62
253
6
CONTINUOUS
0
LAYER
2
OBJECT__19
70
0
62
253
6
CONTINUOUS
0
LAYER
2
OBJECT__20
70
0
62
253
6
CONTINUOUS
0
LAYER
2
OBJECT__21
70
0
62
253
6
CONTINUOUS
0
LAYER
2
OBJECT__23
70
0
62
253
6
CONTINUOUS
0
LAYER
2
OBJECT__24
70
0
62
253
6
CONTINUOUS
0
LAYER
2
OBJECT__25
70
0
62
253
6
CONTINUOUS
0
LAYER
2
OBJECT__26
70
0
62
253
6
CONTINUOUS
0
LAYER
2
OBJECT__27
70
0
62
253
6
CONTINUOUS
0
LAYER
2
OBJECT__28
70
0
62
253
6
CONTINUOUS
0
ENDTAB
0
TABLE
2
STYLE
70
1
0
STYLE
2
STANDARD
70
0
40
0.0
41
1.0
50
0.0
71
0
42
0.2
3
txt
4
1
0
ENDTAB
0
TABLE
2
UCS
70
0
0
ENDTAB
0
ENDSEC
0
SECTION
2
ENTITIES
0
POLYLINE
8
OBJECT__0
66
1
70
64
71
117
72
142
62
253
0
VERTEX
8
OBJECT__0
10
14.802000
20
-57.647999
30
19.451000
70
192
0
VERTEX
8
OBJECT__0
10
13.860000
20
-56.910999
30
24.212000
70
192
0
VERTEX
8
OBJECT__0
10
4.054000
20
-58.148998
30
24.212000
70
192
0
VERTEX
8
OBJECT__0
10
0.000000
20
-59.518002
30
19.451000
70
192
0
VERTEX
8
OBJECT__0
10
14.589000
20
-56.819000
30
24.212000
70
192
0
VERTEX
8
OBJECT__0
10
28.673000
20
-52.155998
30
19.451000
70
192
0
VERTEX
8
OBJECT__0
10
23.079000
20
-53.457001
30
24.212000
70
192
0
VERTEX
8
OBJECT__0
10
28.260000
20
-51.404999
30
24.212000
70
192
0
VERTEX
8
OBJECT__0
10
40.743000
20
-43.387001
30
19.451000
70
192
0
VERTEX
8
OBJECT__0
10
39.719002
20
-43.080002
30
24.212000
70
192
0
VERTEX
8
OBJECT__0
10
31.731001
20
-48.883999
30
24.212000
70
192
0
VERTEX
8
OBJECT__0
10
40.157001
20
-42.762001
30
24.212000
70
192
0
VERTEX
8
OBJECT__0
10
50.252998
20
-31.891001
30
19.451000
70
192
0
VERTEX
8
OBJECT__0
10
46.106998
20
-35.569000
30
24.212000
70
192
0
VERTEX
8
OBJECT__0
10
49.529999
20
-31.431999
30
24.212000
70
192
0
VERTEX
8
OBJECT__0
10
56.605000
20
-18.392000
30
19.451000
70
192
0
VERTEX
8
OBJECT__0
10
55.646000
20
-18.433001
30
24.212000
70
192
0
VERTEX
8
OBJECT__0
10
51.438999
20
-27.375000
30
24.212000
70
192
0
VERTEX
8
OBJECT__0
10
55.790001
20
-18.127001
30
24.212000
70
192
0
VERTEX
8
OBJECT__0
10
59.401001
20
-3.737000
30
19.451000
70
192
0
VERTEX
8
OBJECT__0
10
57.576000
20
-8.766000
30
24.212000
70
192
0
VERTEX
8
OBJECT__0
10
58.546001
20
-3.683000
30
24.212000
70
192
0
VERTEX
8
OBJECT__0
10
58.464001
20
11.153000
30
19.451000
70
192
0
VERTEX
8
OBJECT__0
10
57.622002
20
10.992000
30
24.212000
70
192
0
VERTEX
8
OBJECT__0
10
58.408001
20
2.686000
30
24.212000
70
192
0
VERTEX
8
OBJECT__0
10
58.661999
20
0.000000
30
24.212000
70
192
0
VERTEX
8
OBJECT__0
10
53.854000
20
25.341999
30
19.451000
70
192
0
VERTEX
8
OBJECT__0
10
55.021000
20
19.000000
30
24.212000
70
192
0
VERTEX
8
OBJECT__0
10
57.153000
20
12.437000
30
24.212000
70
192
0
VERTEX
8
OBJECT__0
10
53.078999
20
24.976999
30
24.212000
70
192
0
VERTEX
8
OBJECT__0
10
45.860001
20
37.938000
30
19.451000
70
192
0
VERTEX
8
OBJECT__0
10
47.470001
20
33.813999
30
24.212000
70
192
0
VERTEX
8
OBJECT__0
10
51.169998
20
27.983000
30
24.212000
70
192
0
VERTEX
8
OBJECT__0
10
45.199001
20
37.391998
30
24.212000
70
192
0
VERTEX
8
OBJECT__0
10
34.984001
20
48.151001
30
19.451000
70
192
0
VERTEX
8
OBJECT__0
10
34.480000
20
47.458000
30
24.212000
70
192
0
VERTEX
8
OBJECT__0
10
41.112000
20
41.230000
30
24.212000
70
192
0
VERTEX
8
OBJECT__0
10
21.910000
20
55.339001
30
19.451000
70
192
0
VERTEX
8
OBJECT__0
10
25.589001
20
52.346001
30
24.212000
70
192
0
VERTEX
8
OBJECT__0
10
21.594999
20
54.542000
30
24.212000
70
192
0
VERTEX
8
OBJECT__0
10
34.240002
20
47.590000
30
24.212000
70
192
0
VERTEX
8
OBJECT__0
10
7.460000
20
59.049000
30
19.451000
70
192
0
VERTEX
8
OBJECT__0
10
9.770000
20
57.577999
30
24.212000
70
192
0
VERTEX
8
OBJECT__0
10
16.457001
20
55.861000
30
24.212000
70
192
0
VERTEX
8
OBJECT__0
10
7.352000
20
58.199001
30
24.212000
70
192
0
VERTEX
8
OBJECT__0
10
-7.460000
20
59.049000
30
19.451000
70
192
0
VERTEX
8
OBJECT__0
10
0.000000
20
58.199001
30
24.212000
70
192
0
VERTEX
8
OBJECT__0
10
-7.352000
20
58.199001
30
24.212000
70
192
0
VERTEX
8
OBJECT__0
10
-21.910000
20
55.339001
30
19.451000
70
192
0
VERTEX
8
OBJECT__0
10
-19.055000
20
55.194000
30
24.212000
70
192
0
VERTEX
8
OBJECT__0
10
-9.486000
20
57.651001
30
24.212000
70
192
0
VERTEX
8
OBJECT__0
10
-21.594999
20
54.542000
30
24.212000
70
192
0
VERTEX
8
OBJECT__0
10
-34.984001
20
48.151001
30
19.451000
70
192
0
VERTEX
8
OBJECT__0
10
-30.743000
20
49.513000
30
24.212000
70
192
0
VERTEX
8
OBJECT__0
10
-27.943001
20
51.051998
30
24.212000
70
192
0
VERTEX
8
OBJECT__0
10
-34.480000
20
47.458000
30
24.212000
70
192
0
VERTEX
8
OBJECT__0
10
-45.860001
20
37.938000
30
19.451000
70
192
0
VERTEX
8
OBJECT__0
10
-45.199001
20
37.391998
30
24.212000
70
192
0
VERTEX
8
OBJECT__0
10
-38.554001
20
43.632000
30
24.212000
70
192
0
VERTEX
8
OBJECT__0
10
-53.854000
20
25.341999
30
19.451000
70
192
0
VERTEX
8
OBJECT__0
10
-49.300999
20
30.929001
30
24.212000
70
192
0
VERTEX
8
OBJECT__0
10
-45.605999
20
36.750999
30
24.212000
70
192
0
VERTEX
8
OBJECT__0
10
-53.078999
20
24.976999
30
24.212000
70
192
0
VERTEX
8
OBJECT__0
10
-58.464001
20
11.153000
30
19.451000
70
192
0
VERTEX
8
OBJECT__0
10
-56.995998
20
12.921000
30
24.212000
70
192
0
VERTEX
8
OBJECT__0
10
-53.943001
20
22.316000
30
24.212000
70
192
0
VERTEX
8
OBJECT__0
10
-57.622002
20
10.992000
30
24.212000
70
192
0
VERTEX
8
OBJECT__0
10
-59.401001
20
-3.737000
30
19.451000
70
192
0
VERTEX
8
OBJECT__0
10
-58.115002
20
3.167000
30
24.212000
70
192
0
VERTEX
8
OBJECT__0
10
-58.546001
20
-3.683000
30
24.212000
70
192
0
VERTEX
8
OBJECT__0
10
-56.605000
20
-18.392000
30
19.451000
70
192
0
VERTEX
8
OBJECT__0
10
-57.092999
20
-13.473000
30
24.212000
70
192
0
VERTEX
8
OBJECT__0
10
-58.542000
20
-3.710000
30
24.212000
70
192
0
VERTEX
8
OBJECT__0
10
-55.790001
20
-18.127001
30
24.212000
70
192
0
VERTEX
8
OBJECT__0
10
-50.252998
20
-31.891001
30
19.451000
70
192
0
VERTEX
8
OBJECT__0
10
-49.616001
20
-31.247999
30
24.212000
70
192
0
VERTEX
8
OBJECT__0
10
-53.816002
20
-22.323000
30
24.212000
70
192
0
VERTEX
8
OBJECT__0
10
-49.529999
20
-31.431999
30
24.212000
70
192
0
VERTEX
8
OBJECT__0
10
-40.743000
20
-43.387001
30
19.451000
70
192
0
VERTEX
8
OBJECT__0
10
-40.157001
20
-42.762001
30
24.212000
70
192
0
VERTEX
8
OBJECT__0
10
-45.269001
20
-36.583000
30
24.212000
70
192
0
VERTEX
8
OBJECT__0
10
-28.673000
20
-52.155998
30
19.451000
70
192
0
VERTEX
8
OBJECT__0
10
-30.667999
20
-49.655998
30
24.212000
70
192
0
VERTEX
8
OBJECT__0
10
-38.660000
20
-43.849998
30
24.212000
70
192
0
VERTEX
8
OBJECT__0
10
-28.260000
20
-51.404999
30
24.212000
70
192
0
VERTEX
8
OBJECT__0
10
-14.802000
20
-57.647999
30
19.451000
70
192
0
VERTEX
8
OBJECT__0
10
-15.460000
20
-56.473999
30
24.212000
70
192
0
VERTEX
8
OBJECT__0
10
-21.872000
20
-53.935001
30
24.212000
70
192
0
VERTEX
8
OBJECT__0
10
-14.589000
20
-56.819000
30
24.212000
70
192
0
VERTEX
8
OBJECT__0
10
-5.722000
20
-57.938999
30
24.212000
70
192
0
VERTEX
8
OBJECT__0
10
0.000000
20
-58.661999
30
24.212000
70
192
0
VERTEX
8
OBJECT__0
10
0.000000
20
-60.083000
30
15.020000
70
192
0
VERTEX
8
OBJECT__0
10
14.942000
20
-58.195000
30
15.020000
70
192
0
VERTEX
8
OBJECT__0
10
28.945000
20
-52.651001
30
15.020000
70
192
0
VERTEX
8
OBJECT__0
10
41.130001
20
-43.799000
30
15.020000
70
192
0
VERTEX
8
OBJECT__0
10
50.730000
20
-32.194000
30
15.020000
70
192
0
VERTEX
8
OBJECT__0
10
57.141998
20
-18.566999
30
15.020000
70
192
0
VERTEX
8
OBJECT__0
10
59.964001
20
-3.773000
30
15.020000
70
192
0
VERTEX
8
OBJECT__0
10
60.083000
20
0.000000
30
15.020000
70
192
0
VERTEX
8
OBJECT__0
10
59.019001
20
11.258000
30
15.020000
70
192
0
VERTEX
8
OBJECT__0
10
54.365002
20
25.582001
30
15.020000
70
192
0
VERTEX
8
OBJECT__0
10
46.294998
20
38.298000
30
15.020000
70
192
0
VERTEX
8
OBJECT__0
10
35.316002
20
48.608002
30
15.020000
70
192
0
VERTEX
8
OBJECT__0
10
22.118000
20
55.863998
30
15.020000
70
192
0
VERTEX
8
OBJECT__0
10
7.530000
20
59.609001
30
15.020000
70
192
0
VERTEX
8
OBJECT__0
10
-7.530000
20
59.609001
30
15.020000
70
192
0
VERTEX
8
OBJECT__0
10
-22.118000
20
55.863998
30
15.020000
70
192
0
VERTEX
8
OBJECT__0
10
-35.316002
20
48.608002
30
15.020000
70
192
0
VERTEX
8
OBJECT__0
10
-46.294998
20
38.298000
30
15.020000
70
192
0
VERTEX
8
OBJECT__0
10
-54.365002
20
25.582001
30
15.020000
70
192
0
VERTEX
8
OBJECT__0
10
-59.019001
20
11.258000
30
15.020000
70
192
0
VERTEX
8
OBJECT__0
10
-59.964001
20
-3.773000
30
15.020000
70
192
0
VERTEX
8
OBJECT__0
10
-57.141998
20
-18.566999
30
15.020000
70
192
0
VERTEX
8
OBJECT__0
10
-50.730000
20
-32.194000
30
15.020000
70
192
0
VERTEX
8
OBJECT__0
10
-41.130001
20
-43.799000
30
15.020000
70
192
0
VERTEX
8
OBJECT__0
10
-28.945000
20
-52.651001
30
15.020000
70
192
0
VERTEX
8
OBJECT__0
10
-14.942000
20
-58.195000
30
15.020000
70
192
0
VERTEX
8
OBJECT__0
10
0
20
0
30
0
70
128
71
1
72
2
73
3
0
VERTEX
8
OBJECT__0
10
0
20
0
30
0
70
128
71
3
72
4
73
1
0
VERTEX
8
OBJECT__0
10
0
20
0
30
0
70
128
71
1
72
5
73
2
0
VERTEX
8
OBJECT__0
10
0
20
0
30
0
70
128
71
1
72
6
73
7
0
VERTEX
8
OBJECT__0
10
0
20
0
30
0
70
128
71
6
72
8
73
7
0
VERTEX
8
OBJECT__0
10
0
20
0
30
0
70
128
71
9
72
10
73
11
0
VERTEX
8
OBJECT__0
10
0
20
0
30
0
70
128
71
11
72
6
73
9
0
VERTEX
8
OBJECT__0
10
0
20
0
30
0
70
128
71
9
72
12
73
10
0
VERTEX
8
OBJECT__0
10
0
20
0
30
0
70
128
71
9
72
13
73
14
0
VERTEX
8
OBJECT__0
10
0
20
0
30
0
70
128
71
13
72
15
73
14
0
VERTEX
8
OBJECT__0
10
0
20
0
30
0
70
128
71
16
72
17
73
18
0
VERTEX
8
OBJECT__0
10
0
20
0
30
0
70
128
71
18
72
13
73
16
0
VERTEX
8
OBJECT__0
10
0
20
0
30
0
70
128
71
16
72
19
73
17
0
VERTEX
8
OBJECT__0
10
0
20
0
30
0
70
128
71
16
72
20
73
21
0
VERTEX
8
OBJECT__0
10
0
20
0
30
0
70
128
71
20
72
22
73
21
0
VERTEX
8
OBJECT__0
10
0
20
0
30
0
70
128
71
23
72
24
73
25
0
VERTEX
8
OBJECT__0
10
0
20
0
30
0
70
128
71
25
72
20
73
23
0
VERTEX
8
OBJECT__0
10
0
20
0
30
0
70
128
71
25
72
26
73
20
0
VERTEX
8
OBJECT__0
10
0
20
0
30
0
70
128
71
23
72
27
73
28
0
VERTEX
8
OBJECT__0
10
0
20
0
30
0
70
128
71
28
72
29
73
23
0
VERTEX
8
OBJECT__0
10
0
20
0
30
0
70
128
71
27
72
30
73
28
0
VERTEX
8
OBJECT__0
10
0
20
0
30
0
70
128
71
27
72
31
73
32
0
VERTEX
8
OBJECT__0
10
0
20
0
30
0
70
128
71
32
72
33
73
27
0
VERTEX
8
OBJECT__0
10
0
20
0
30
0
70
128
71
31
72
34
73
32
0
VERTEX
8
OBJECT__0
10
0
20
0
30
0
70
128
71
35
72
36
73
37
0
VERTEX
8
OBJECT__0
10
0
20
0
30
0
70
128
71
37
72
31
73
35
0
VERTEX
8
OBJECT__0
10
0
20
0
30
0
70
128
71
35
72
38
73
39
0
VERTEX
8
OBJECT__0
10
0
20
0
30
0
70
128
71
38
72
40
73
39
0
VERTEX
8
OBJECT__0
10
0
20
0
30
0
70
128
71
39
72
41
73
35
0
VERTEX
8
OBJECT__0
10
0
20
0
30
0
70
128
71
42
72
43
73
44
0
VERTEX
8
OBJECT__0
10
0
20
0
30
0
70
128
71
42
72
45
73
43
0
VERTEX
8
OBJECT__0
10
0
20
0
30
0
70
128
71
44
72
38
73
42
0
VERTEX
8
OBJECT__0
10
0
20
0
30
0
70
128
71
42
72
46
73
47
0
VERTEX
8
OBJECT__0
10
0
20
0
30
0
70
128
71
46
72
48
73
47
0
VERTEX
8
OBJECT__0
10
0
20
0
30
0
70
128
71
46
72
49
73
50
0
VERTEX
8
OBJECT__0
10
0
20
0
30
0
70
128
71
50
72
51
73
46
0
VERTEX
8
OBJECT__0
10
0
20
0
30
0
70
128
71
49
72
52
73
50
0
VERTEX
8
OBJECT__0
10
0
20
0
30
0
70
128
71
53
72
54
73
55
0
VERTEX
8
OBJECT__0
10
0
20
0
30
0
70
128
71
53
72
56
73
54
0
VERTEX
8
OBJECT__0
10
0
20
0
30
0
70
128
71
55
72
49
73
53
0
VERTEX
8
OBJECT__0
10
0
20
0
30
0
70
128
71
57
72
58
73
59
0
VERTEX
8
OBJECT__0
10
0
20
0
30
0
70
128
71
59
72
53
73
57
0
VERTEX
8
OBJECT__0
10
0
20
0
30
0
70
128
71
57
72
60
73
61
0
VERTEX
8
OBJECT__0
10
0
20
0
30
0
70
128
71
61
72
62
73
57
0
VERTEX
8
OBJECT__0
10
0
20
0
30
0
70
128
71
60
72
63
73
61
0
VERTEX
8
OBJECT__0
10
0
20
0
30
0
70
128
71
64
72
65
73
66
0
VERTEX
8
OBJECT__0
10
0
20
0
30
0
70
128
71
66
72
60
73
64
0
VERTEX
8
OBJECT__0
10
0
20
0
30
0
70
128
71
64
72
67
73
65
0
VERTEX
8
OBJECT__0
10
0
20
0
30
0
70
128
71
64
72
68
73
69
0
VERTEX
8
OBJECT__0
10
0
20
0
30
0
70
128
71
68
72
70
73
69
0
VERTEX
8
OBJECT__0
10
0
20
0
30
0
70
128
71
68
72
71
73
72
0
VERTEX
8
OBJECT__0
10
0
20
0
30
0
70
128
71
72
72
73
73
68
0
VERTEX
8
OBJECT__0
10
0
20
0
30
0
70
128
71
71
72
74
73
72
0
VERTEX
8
OBJECT__0
10
0
20
0
30
0
70
128
71
75
72
76
73
77
0
VERTEX
8
OBJECT__0
10
0
20
0
30
0
70
128
71
75
72
78
73
76
0
VERTEX
8
OBJECT__0
10
0
20
0
30
0
70
128
71
77
72
71
73
75
0
VERTEX
8
OBJECT__0
10
0
20
0
30
0
70
128
71
79
72
80
73
81
0
VERTEX
8
OBJECT__0
10
0
20
0
30
0
70
128
71
81
72
75
73
79
0
VERTEX
8
OBJECT__0
10
0
20
0
30
0
70
128
71
79
72
82
73
83
0
VERTEX
8
OBJECT__0
10
0
20
0
30
0
70
128
71
83
72
84
73
79
0
VERTEX
8
OBJECT__0
10
0
20
0
30
0
70
128
71
82
72
85
73
83
0
VERTEX
8
OBJECT__0
10
0
20
0
30
0
70
128
71
86
72
87
73
88
0
VERTEX
8
OBJECT__0
10
0
20
0
30
0
70
128
71
88
72
82
73
86
0
VERTEX
8
OBJECT__0
10
0
20
0
30
0
70
128
71
86
72
89
73
87
0
VERTEX
8
OBJECT__0
10
0
20
0
30
0
70
128
71
86
72
4
73
90
0
VERTEX
8
OBJECT__0
10
0
20
0
30
0
70
128
71
4
72
91
73
90
0
VERTEX
8
OBJECT__0
10
0
20
0
30
0
70
128
71
92
72
93
73
1
0
VERTEX
8
OBJECT__0
10
0
20
0
30
0
70
128
71
93
72
94
73
6
0
VERTEX
8
OBJECT__0
10
0
20
0
30
0
70
128
71
94
72
95
73
9
0
VERTEX
8
OBJECT__0
10
0
20
0
30
0
70
128
71
95
72
96
73
13
0
VERTEX
8
OBJECT__0
10
0
20
0
30
0
70
128
71
96
72
97
73
16
0
VERTEX
8
OBJECT__0
10
0
20
0
30
0
70
128
71
97
72
98
73
20
0
VERTEX
8
OBJECT__0
10
0
20
0
30
0
70
128
71
23
72
20
73
99
0
VERTEX
8
OBJECT__0
10
0
20
0
30
0
70
128
71
20
72
98
73
99
0
VERTEX
8
OBJECT__0
10
0
20
0
30
0
70
128
71
100
72
101
73
27
0
VERTEX
8
OBJECT__0
10
0
20
0
30
0
70
128
71
101
72
102
73
31
0
VERTEX
8
OBJECT__0
10
0
20
0
30
0
70
128
71
102
72
103
73
35
0
VERTEX
8
OBJECT__0
10
0
20
0
30
0
70
128
71
103
72
104
73
38
0
VERTEX
8
OBJECT__0
10
0
20
0
30
0
70
128
71
104
72
105
73
42
0
VERTEX
8
OBJECT__0
10
0
20
0
30
0
70
128
71
105
72
106
73
46
0
VERTEX
8
OBJECT__0
10
0
20
0
30
0
70
128
71
106
72
107
73
49
0
VERTEX
8
OBJECT__0
10
0
20
0
30
0
70
128
71
107
72
108
73
53
0
VERTEX
8
OBJECT__0
10
0
20
0
30
0
70
128
71
108
72
109
73
57
0
VERTEX
8
OBJECT__0
10
0
20
0
30
0
70
128
71
109
72
110
73
60
0
VERTEX
8
OBJECT__0
10
0
20
0
30
0
70
128
71
110
72
111
73
64
0
VERTEX
8
OBJECT__0
10
0
20
0
30
0
70
128
71
111
72
112
73
68
0
VERTEX
8
OBJECT__0
10
0
20
0
30
0
70
128
71
112
72
113
73
71
0
VERTEX
8
OBJECT__0
10
0
20
0
30
0
70
128
71
113
72
114
73
75
0
VERTEX
8
OBJECT__0
10
0
20
0
30
0
70
128
71
114
72
115
73
79
0
VERTEX
8
OBJECT__0
10
0
20
0
30
0
70
128
71
115
72
116
73
82
0
VERTEX
8
OBJECT__0
10
0
20
0
30
0
70
128
71
116
72
117
73
86
0
VERTEX
8
OBJECT__0
10
0
20
0
30
0
70
128
71
117
72
92
73
4
0
VERTEX
8
OBJECT__0
10
0
20
0
30
0
70
128
71
4
72
86
73
117
0
VERTEX
8
OBJECT__0
10
0
20
0
30
0
70
128
71
86
72
82
73
116
0
VERTEX
8
OBJECT__0
10
0
20
0
30
0
70
128
71
82
72
79
73
115
0
VERTEX
8
OBJECT__0
10
0
20
0
30
0
70
128
71
79
72
75
73
114
0
VERTEX
8
OBJECT__0
10
0
20
0
30
0
70
128
71
75
72
71
73
113
0
VERTEX
8
OBJECT__0
10
0
20
0
30
0
70
128
71
71
72
68
73
112
0
VERTEX
8
OBJECT__0
10
0
20
0
30
0
70
128
71
68
72
64
73
111
0
VERTEX
8
OBJECT__0
10
0
20
0
30
0
70
128
71
64
72
60
73
110
0
VERTEX
8
OBJECT__0
10
0
20
0
30
0
70
128
71
60
72
57
73
109
0
VERTEX
8
OBJECT__0
10
0
20
0
30
0
70
128
71
57
72
53
73
108
0
VERTEX
8
OBJECT__0
10
0
20
0
30
0
70
128
71
53
72
49
73
107
0
VERTEX
8
OBJECT__0
10
0
20
0
30
0
70
128
71
49
72
46
73
106
0
VERTEX
8
OBJECT__0
10
0
20
0
30
0
70
128
71
46
72
42
73
105
0
VERTEX
8
OBJECT__0
10
0
20
0
30
0
70
128
71
42
72
38
73
104
0
VERTEX
8
OBJECT__0
10
0
20
0
30
0
70
128
71
38
72
35
73
103
0
VERTEX
8
OBJECT__0
10
0
20
0
30
0
70
128
71
35
72
31
73
102
0
VERTEX
8
OBJECT__0
10
0
20
0
30
0
70
128
71
31
72
27
73
101
0
VERTEX
8
OBJECT__0
10
0
20
0
30
0
70
128
71
27
72
23
73
100
0
VERTEX
8
OBJECT__0
10
0
20
0
30
0
70
128
71
99
72
100
73
23
0
VERTEX
8
OBJECT__0
10
0
20
0
30
0
70
128
71
20
72
16
73
97
0
VERTEX
8
OBJECT__0
10
0
20
0
30
0
70
128
71
16
72
13
73
96
0
VERTEX
8
OBJECT__0
10
0
20
0
30
0
70
128
71
13
72
9
73
95
0
VERTEX
8
OBJECT__0
10
0
20
0
30
0
70
128
71
9
72
6
73
94
0
VERTEX
8
OBJECT__0
10
0
20
0
30
0
70
128
71
6
72
1
73
93
0
VERTEX
8
OBJECT__0
10
0
20
0
30
0
70
128
71
1
72
4
73
92
0
VERTEX
8
OBJECT__0
10
0
20
0
30
0
70
128
71
90
72
89
73
86
0
VERTEX
8
OBJECT__0
10
0
20
0
30
0
70
128
71
88
72
85
73
82
0
VERTEX
8
OBJECT__0
10
0
20
0
30
0
70
128
71
84
72
80
73
79
0
VERTEX
8
OBJECT__0
10
0
20
0
30
0
70
128
71
81
72
78
73
75
0
VERTEX
8
OBJECT__0
10
0
20
0
30
0
70
128
71
77
72
74
73
71
0
VERTEX
8
OBJECT__0
10
0
20
0
30
0
70
128
71
73
72
70
73
68
0
VERTEX
8
OBJECT__0
10
0
20
0
30
0
70
128
71
69
72
67
73
64
0
VERTEX
8
OBJECT__0
10
0
20
0
30
0
70
128
71
66
72
63
73
60
0
VERTEX
8
OBJECT__0
10
0
20
0
30
0
70
128
71
62
72
58
73
57
0
VERTEX
8
OBJECT__0
10
0
20
0
30
0
70
128
71
59
72
56
73
53
0
VERTEX
8
OBJECT__0
10
0
20
0
30
0
70
128
71
55
72
52
73
49
0
VERTEX
8
OBJECT__0
10
0
20
0
30
0
70
128
71
51
72
48
73
46
0
VERTEX
8
OBJECT__0
10
0
20
0
30
0
70
128
71
47
72
45
73
42
0
VERTEX
8
OBJECT__0
10
0
20
0
30
0
70
128
71
44
72
40
73
38
0
VERTEX
8
OBJECT__0
10
0
20
0
30
0
70
128
71
41
72
36
73
35
0
VERTEX
8
OBJECT__0
10
0
20
0
30
0
70
128
71
37
72
34
73
31
0
VERTEX
8
OBJECT__0
10
0
20
0
30
0
70
128
71
33
72
30
73
27
0
VERTEX
8
OBJECT__0
10
0
20
0
30
0
70
128
71
29
72
24
73
23
0
VERTEX
8
OBJECT__0
10
0
20
0
30
0
70
128
71
26
72
22
73
20
0
VERTEX
8
OBJECT__0
10
0
20
0
30
0
70
128
71
21
72
19
73
16
0
VERTEX
8
OBJECT__0
10
0
20
0
30
0
70
128
71
18
72
15
73
13
0
VERTEX
8
OBJECT__0
10
0
20
0
30
0
70
128
71
14
72
12
73
9
0
VERTEX
8
OBJECT__0
10
0
20
0
30
0
70
128
71
11
72
8
73
6
0
VERTEX
8
OBJECT__0
10
0
20
0
30
0
70
128
71
7
72
5
73
1
0
VERTEX
8
OBJECT__0
10
0
20
0
30
0
70
128
71
3
72
91
73
4
0
SEQEND
8
OBJECT__0
0
POLYLINE
8
OBJECT__1
66
1
70
64
71
79
72
77
62
253
0
VERTEX
8
OBJECT__1
10
-55.903000
20
12.693000
30
25.712999
70
192
0
VERTEX
8
OBJECT__1
10
-56.995998
20
12.921000
30
24.212000
70
192
0
VERTEX
8
OBJECT__1
10
-57.622002
20
10.992000
30
24.212000
70
192
0
VERTEX
8
OBJECT__1
10
-58.115002
20
3.167000
30
24.212000
70
192
0
VERTEX
8
OBJECT__1
10
-57.240002
20
3.123000
30
25.712999
70
192
0
VERTEX
8
OBJECT__1
10
-56.449001
20
8.784000
30
25.712999
70
192
0
VERTEX
8
OBJECT__1
10
-53.726002
20
19.545000
30
25.712999
70
192
0
VERTEX
8
OBJECT__1
10
-53.943001
20
22.316000
30
24.212000
70
192
0
VERTEX
8
OBJECT__1
10
-48.778000
20
30.042999
30
25.712999
70
192
0
VERTEX
8
OBJECT__1
10
-49.300999
20
30.929001
30
24.212000
70
192
0
VERTEX
8
OBJECT__1
10
-53.078999
20
24.976999
30
24.212000
70
192
0
VERTEX
8
OBJECT__1
10
-52.980000
20
21.893999
30
25.712999
70
192
0
VERTEX
8
OBJECT__1
10
-48.558998
20
30.466000
30
25.712999
70
192
0
VERTEX
8
OBJECT__1
10
-44.643002
20
35.962002
30
25.712999
70
192
0
VERTEX
8
OBJECT__1
10
-38.554001
20
43.632000
30
24.212000
70
192
0
VERTEX
8
OBJECT__1
10
-45.199001
20
37.391998
30
24.212000
70
192
0
VERTEX
8
OBJECT__1
10
-41.397999
20
39.358002
30
25.712999
70
192
0
VERTEX
8
OBJECT__1
10
-45.605999
20
36.750999
30
24.212000
70
192
0
VERTEX
8
OBJECT__1
10
-30.743000
20
49.513000
30
24.212000
70
192
0
VERTEX
8
OBJECT__1
10
-34.480000
20
47.458000
30
24.212000
70
192
0
VERTEX
8
OBJECT__1
10
-32.363998
20
47.118999
30
25.712999
70
192
0
VERTEX
8
OBJECT__1
10
-37.967999
20
42.949001
30
25.712999
70
192
0
VERTEX
8
OBJECT__1
10
-27.943001
20
51.051998
30
24.212000
70
192
0
VERTEX
8
OBJECT__1
10
-30.223000
20
48.712002
30
25.712999
70
192
0
VERTEX
8
OBJECT__1
10
-18.687000
20
54.194000
30
25.712999
70
192
0
VERTEX
8
OBJECT__1
10
-19.055000
20
55.194000
30
24.212000
70
192
0
VERTEX
8
OBJECT__1
10
-21.594999
20
54.542000
30
24.212000
70
192
0
VERTEX
8
OBJECT__1
10
-27.524000
20
50.285999
30
25.712999
70
192
0
VERTEX
8
OBJECT__1
10
-22.096001
20
52.686001
30
25.712999
70
192
0
VERTEX
8
OBJECT__1
10
-11.372000
20
56.044998
30
25.712999
70
192
0
VERTEX
8
OBJECT__1
10
-9.486000
20
57.651001
30
24.212000
70
192
0
VERTEX
8
OBJECT__1
10
-0.821000
20
57.257999
30
25.712999
70
192
0
VERTEX
8
OBJECT__1
10
0.000000
20
58.199001
30
24.212000
70
192
0
VERTEX
8
OBJECT__1
10
-7.352000
20
58.199001
30
24.212000
70
192
0
VERTEX
8
OBJECT__1
10
-9.328000
20
56.562000
30
25.712999
70
192
0
VERTEX
8
OBJECT__1
10
0.000000
20
57.326000
30
25.712999
70
192
0
VERTEX
8
OBJECT__1
10
9.611000
20
56.514000
30
25.712999
70
192
0
VERTEX
8
OBJECT__1
10
7.352000
20
58.199001
30
24.212000
70
192
0
VERTEX
8
OBJECT__1
10
9.770000
20
57.577999
30
24.212000
70
192
0
VERTEX
8
OBJECT__1
10
16.457001
20
55.861000
30
24.212000
70
192
0
VERTEX
8
OBJECT__1
10
25.193001
20
51.493000
30
25.712999
70
192
0
VERTEX
8
OBJECT__1
10
25.589001
20
52.346001
30
24.212000
70
192
0
VERTEX
8
OBJECT__1
10
21.594999
20
54.542000
30
24.212000
70
192
0
VERTEX
8
OBJECT__1
10
16.186001
20
54.993000
30
25.712999
70
192
0
VERTEX
8
OBJECT__1
10
20.382000
20
53.362999
30
25.712999
70
192
0
VERTEX
8
OBJECT__1
10
30.775999
20
48.151001
30
25.712999
70
192
0
VERTEX
8
OBJECT__1
10
34.240002
20
47.590000
30
24.212000
70
192
0
VERTEX
8
OBJECT__1
10
34.480000
20
47.458000
30
24.212000
70
192
0
VERTEX
8
OBJECT__1
10
33.476002
20
46.535000
30
25.712999
70
192
0
VERTEX
8
OBJECT__1
10
40.173000
20
40.852001
30
25.712999
70
192
0
VERTEX
8
OBJECT__1
10
41.112000
20
41.230000
30
24.212000
70
192
0
VERTEX
8
OBJECT__1
10
40.467999
20
40.602001
30
25.712999
70
192
0
VERTEX
8
OBJECT__1
10
46.702999
20
33.243000
30
25.712999
70
192
0
VERTEX
8
OBJECT__1
10
45.199001
20
37.391998
30
24.212000
70
192
0
VERTEX
8
OBJECT__1
10
47.470001
20
33.813999
30
24.212000
70
192
0
VERTEX
8
OBJECT__1
10
51.169998
20
27.983000
30
24.212000
70
192
0
VERTEX
8
OBJECT__1
10
47.716000
20
31.625000
30
25.712999
70
192
0
VERTEX
8
OBJECT__1
10
55.021000
20
19.000000
30
24.212000
70
192
0
VERTEX
8
OBJECT__1
10
53.078999
20
24.976999
30
24.212000
70
192
0
VERTEX
8
OBJECT__1
10
53.062000
20
21.249001
30
25.712999
70
192
0
VERTEX
8
OBJECT__1
10
50.285999
20
27.524000
30
25.712999
70
192
0
VERTEX
8
OBJECT__1
10
54.188000
20
18.704000
30
25.712999
70
192
0
VERTEX
8
OBJECT__1
10
56.011002
20
12.206000
30
25.712999
70
192
0
VERTEX
8
OBJECT__1
10
58.408001
20
2.686000
30
24.212000
70
192
0
VERTEX
8
OBJECT__1
10
57.622002
20
10.992000
30
24.212000
70
192
0
VERTEX
8
OBJECT__1
10
56.230999
20
10.524000
30
25.712999
70
192
0
VERTEX
8
OBJECT__1
10
57.153000
20
12.437000
30
24.212000
70
192
0
VERTEX
8
OBJECT__1
10
57.326000
20
0.000000
30
25.712999
70
192
0
VERTEX
8
OBJECT__1
10
58.661999
20
0.000000
30
24.212000
70
192
0
VERTEX
8
OBJECT__1
10
-58.542000
20
-3.710000
30
24.212000
70
192
0
VERTEX
8
OBJECT__1
10
-57.092999
20
-13.473000
30
24.212000
70
192
0
VERTEX
8
OBJECT__1
10
-57.141998
20
-13.076000
30
24.268000
70
192
0
VERTEX
8
OBJECT__1
10
-57.769001
20
-7.967000
30
24.993999
70
192
0
VERTEX
8
OBJECT__1
10
-58.546001
20
-3.683000
30
24.212000
70
192
0
VERTEX
8
OBJECT__1
10
-57.466999
20
-1.018000
30
25.657000
70
192
0
VERTEX
8
OBJECT__1
10
-57.326000
20
0.000000
30
25.712999
70
192
0
VERTEX
8
OBJECT__1
10
-57.582001
20
-3.659000
30
25.405001
70
192
0
VERTEX
8
OBJECT__1
10
-57.563999
20
-3.244000
30
25.444000
70
192
0
VERTEX
8
OBJECT__1
10
57.264999
20
2.643000
30
25.712999
70
192
0
VERTEX
8
OBJECT__1
10
0
20
0
30
0
70
128
71
1
72
2
73
3
0
VERTEX
8
OBJECT__1
10
0
20
0
30
0
70
128
71
4
72
5
73
6
0
VERTEX
8
OBJECT__1
10
0
20
0
30
0
70
128
71
6
72
3
73
4
0
VERTEX
8
OBJECT__1
10
0
20
0
30
0
70
128
71
2
72
1
73
7
0
VERTEX
8
OBJECT__1
10
0
20
0
30
0
70
128
71
7
72
8
73
2
0
VERTEX
8
OBJECT__1
10
0
20
0
30
0
70
128
71
9
72
10
73
11
0
VERTEX
8
OBJECT__1
10
0
20
0
30
0
70
128
71
11
72
12
73
9
0
VERTEX
8
OBJECT__1
10
0
20
0
30
0
70
128
71
11
72
8
73
12
0
VERTEX
8
OBJECT__1
10
0
20
0
30
0
70
128
71
10
72
13
73
14
0
VERTEX
8
OBJECT__1
10
0
20
0
30
0
70
128
71
15
72
16
73
17
0
VERTEX
8
OBJECT__1
10
0
20
0
30
0
70
128
71
14
72
17
73
16
0
VERTEX
8
OBJECT__1
10
0
20
0
30
0
70
128
71
16
72
18
73
14
0
VERTEX
8
OBJECT__1
10
0
20
0
30
0
70
128
71
19
72
20
73
21
0
VERTEX
8
OBJECT__1
10
0
20
0
30
0
70
128
71
22
72
21
73
20
0
VERTEX
8
OBJECT__1
10
0
20
0
30
0
70
128
71
20
72
15
73
22
0
VERTEX
8
OBJECT__1
10
0
20
0
30
0
70
128
71
23
72
19
73
24
0
VERTEX
8
OBJECT__1
10
0
20
0
30
0
70
128
71
25
72
26
73
27
0
VERTEX
8
OBJECT__1
10
0
20
0
30
0
70
128
71
23
72
28
73
29
0
VERTEX
8
OBJECT__1
10
0
20
0
30
0
70
128
71
29
72
27
73
23
0
VERTEX
8
OBJECT__1
10
0
20
0
30
0
70
128
71
26
72
25
73
30
0
VERTEX
8
OBJECT__1
10
0
20
0
30
0
70
128
71
30
72
31
73
26
0
VERTEX
8
OBJECT__1
10
0
20
0
30
0
70
128
71
32
72
33
73
34
0
VERTEX
8
OBJECT__1
10
0
20
0
30
0
70
128
71
34
72
35
73
32
0
VERTEX
8
OBJECT__1
10
0
20
0
30
0
70
128
71
34
72
31
73
35
0
VERTEX
8
OBJECT__1
10
0
20
0
30
0
70
128
71
36
72
37
73
38
0
VERTEX
8
OBJECT__1
10
0
20
0
30
0
70
128
71
37
72
39
73
38
0
VERTEX
8
OBJECT__1
10
0
20
0
30
0
70
128
71
40
72
39
73
37
0
VERTEX
8
OBJECT__1
10
0
20
0
30
0
70
128
71
41
72
42
73
43
0
VERTEX
8
OBJECT__1
10
0
20
0
30
0
70
128
71
40
72
44
73
45
0
VERTEX
8
OBJECT__1
10
0
20
0
30
0
70
128
71
45
72
43
73
40
0
VERTEX
8
OBJECT__1
10
0
20
0
30
0
70
128
71
42
72
41
73
46
0
VERTEX
8
OBJECT__1
10
0
20
0
30
0
70
128
71
46
72
47
73
42
0
VERTEX
8
OBJECT__1
10
0
20
0
30
0
70
128
71
48
72
49
73
50
0
VERTEX
8
OBJECT__1
10
0
20
0
30
0
70
128
71
50
72
51
73
48
0
VERTEX
8
OBJECT__1
10
0
20
0
30
0
70
128
71
48
72
47
73
49
0
VERTEX
8
OBJECT__1
10
0
20
0
30
0
70
128
71
52
72
53
73
54
0
VERTEX
8
OBJECT__1
10
0
20
0
30
0
70
128
71
53
72
55
73
54
0
VERTEX
8
OBJECT__1
10
0
20
0
30
0
70
128
71
56
72
55
73
57
0
VERTEX
8
OBJECT__1
10
0
20
0
30
0
70
128
71
55
72
53
73
57
0
VERTEX
8
OBJECT__1
10
0
20
0
30
0
70
128
71
58
72
59
73
60
0
VERTEX
8
OBJECT__1
10
0
20
0
30
0
70
128
71
61
72
60
73
59
0
VERTEX
8
OBJECT__1
10
0
20
0
30
0
70
128
71
59
72
56
73
61
0
VERTEX
8
OBJECT__1
10
0
20
0
30
0
70
128
71
58
72
62
73
63
0
VERTEX
8
OBJECT__1
10
0
20
0
30
0
70
128
71
64
72
65
73
66
0
VERTEX
8
OBJECT__1
10
0
20
0
30
0
70
128
71
66
72
65
73
67
0
VERTEX
8
OBJECT__1
10
0
20
0
30
0
70
128
71
67
72
63
73
66
0
VERTEX
8
OBJECT__1
10
0
20
0
30
0
70
128
71
68
72
69
73
64
0
VERTEX
8
OBJECT__1
10
0
20
0
30
0
70
128
71
70
72
71
73
72
0
VERTEX
8
OBJECT__1
10
0
20
0
30
0
70
128
71
72
72
73
73
70
0
VERTEX
8
OBJECT__1
10
0
20
0
30
0
70
128
71
4
72
74
73
75
0
VERTEX
8
OBJECT__1
10
0
20
0
30
0
70
128
71
75
72
76
73
4
0
VERTEX
8
OBJECT__1
10
0
20
0
30
0
70
128
71
77
72
78
73
74
0
VERTEX
8
OBJECT__1
10
0
20
0
30
0
70
128
71
74
72
70
73
77
0
VERTEX
8
OBJECT__1
10
0
20
0
30
0
70
128
71
78
72
75
73
74
0
VERTEX
8
OBJECT__1
10
0
20
0
30
0
70
128
71
76
72
5
73
4
0
VERTEX
8
OBJECT__1
10
0
20
0
30
0
70
128
71
73
72
77
73
70
0
VERTEX
8
OBJECT__1
10
0
20
0
30
0
70
128
71
64
72
79
73
68
0
VERTEX
8
OBJECT__1
10
0
20
0
30
0
70
128
71
66
72
79
73
64
0
VERTEX
8
OBJECT__1
10
0
20
0
30
0
70
128
71
63
72
67
73
58
0
VERTEX
8
OBJECT__1
10
0
20
0
30
0
70
128
71
60
72
62
73
58
0
VERTEX
8
OBJECT__1
10
0
20
0
30
0
70
128
71
57
72
61
73
56
0
VERTEX
8
OBJECT__1
10
0
20
0
30
0
70
128
71
54
72
51
73
52
0
VERTEX
8
OBJECT__1
10
0
20
0
30
0
70
128
71
50
72
52
73
51
0
VERTEX
8
OBJECT__1
10
0
20
0
30
0
70
128
71
46
72
49
73
47
0
VERTEX
8
OBJECT__1
10
0
20
0
30
0
70
128
71
43
72
45
73
41
0
VERTEX
8
OBJECT__1
10
0
20
0
30
0
70
128
71
37
72
44
73
40
0
VERTEX
8
OBJECT__1
10
0
20
0
30
0
70
128
71
38
72
33
73
36
0
VERTEX
8
OBJECT__1
10
0
20
0
30
0
70
128
71
32
72
36
73
33
0
VERTEX
8
OBJECT__1
10
0
20
0
30
0
70
128
71
30
72
35
73
31
0
VERTEX
8
OBJECT__1
10
0
20
0
30
0
70
128
71
27
72
29
73
25
0
VERTEX
8
OBJECT__1
10
0
20
0
30
0
70
128
71
24
72
28
73
23
0
VERTEX
8
OBJECT__1
10
0
20
0
30
0
70
128
71
21
72
24
73
19
0
VERTEX
8
OBJECT__1
10
0
20
0
30
0
70
128
71
17
72
22
73
15
0
VERTEX
8
OBJECT__1
10
0
20
0
30
0
70
128
71
14
72
18
73
10
0
VERTEX
8
OBJECT__1
10
0
20
0
30
0
70
128
71
9
72
13
73
10
0
VERTEX
8
OBJECT__1
10
0
20
0
30
0
70
128
71
7
72
12
73
8
0
VERTEX
8
OBJECT__1
10
0
20
0
30
0
70
128
71
3
72
6
73
1
0
SEQEND
8
OBJECT__1
0
POLYLINE
8
OBJECT__3
66
1
70
64
71
71
72
69
62
253
0
VERTEX
8
OBJECT__3
10
-53.816002
20
-22.323000
30
24.212000
70
192
0
VERTEX
8
OBJECT__3
10
-49.616001
20
-31.247999
30
24.212000
70
192
0
VERTEX
8
OBJECT__3
10
-48.508999
20
-30.547001
30
25.712999
70
192
0
VERTEX
8
OBJECT__3
10
-49.529999
20
-31.431999
30
24.212000
70
192
0
VERTEX
8
OBJECT__3
10
-45.269001
20
-36.583000
30
24.212000
70
192
0
VERTEX
8
OBJECT__3
10
-44.583000
20
-36.035999
30
25.712999
70
192
0
VERTEX
8
OBJECT__3
10
-47.941002
20
-31.340000
30
25.712999
70
192
0
VERTEX
8
OBJECT__3
10
-40.157001
20
-42.762001
30
24.212000
70
192
0
VERTEX
8
OBJECT__3
10
-40.396999
20
-40.403000
30
25.712999
70
192
0
VERTEX
8
OBJECT__3
10
-37.896999
20
-43.012001
30
25.712999
70
192
0
VERTEX
8
OBJECT__3
10
-38.660000
20
-43.849998
30
24.212000
70
192
0
VERTEX
8
OBJECT__3
10
-30.667999
20
-49.655998
30
24.212000
70
192
0
VERTEX
8
OBJECT__3
10
-31.306999
20
-47.897999
30
25.712999
70
192
0
VERTEX
8
OBJECT__3
10
-30.142000
20
-48.762001
30
25.712999
70
192
0
VERTEX
8
OBJECT__3
10
-21.540001
20
-53.125000
30
25.712999
70
192
0
VERTEX
8
OBJECT__3
10
-28.260000
20
-51.404999
30
24.212000
70
192
0
VERTEX
8
OBJECT__3
10
-15.460000
20
-56.473999
30
24.212000
70
192
0
VERTEX
8
OBJECT__3
10
-15.148000
20
-55.287998
30
25.712999
70
192
0
VERTEX
8
OBJECT__3
10
-21.093000
20
-53.276001
30
25.712999
70
192
0
VERTEX
8
OBJECT__3
10
-21.872000
20
-53.935001
30
24.212000
70
192
0
VERTEX
8
OBJECT__3
10
-14.589000
20
-56.819000
30
24.212000
70
192
0
VERTEX
8
OBJECT__3
10
-5.722000
20
-57.938999
30
24.212000
70
192
0
VERTEX
8
OBJECT__3
10
-5.646000
20
-57.047001
30
25.712999
70
192
0
VERTEX
8
OBJECT__3
10
-10.394000
20
-56.167999
30
25.712999
70
192
0
VERTEX
8
OBJECT__3
10
0.000000
20
-58.661999
30
24.212000
70
192
0
VERTEX
8
OBJECT__3
10
0.003000
20
-57.127998
30
25.712999
70
192
0
VERTEX
8
OBJECT__3
10
4.054000
20
-58.148998
30
24.212000
70
192
0
VERTEX
8
OBJECT__3
10
4.007000
20
-57.185001
30
25.712999
70
192
0
VERTEX
8
OBJECT__3
10
13.860000
20
-56.910999
30
24.212000
70
192
0
VERTEX
8
OBJECT__3
10
10.403000
20
-56.189999
30
25.712999
70
192
0
VERTEX
8
OBJECT__3
10
13.555000
20
-55.700001
30
25.712999
70
192
0
VERTEX
8
OBJECT__3
10
14.589000
20
-56.819000
30
24.212000
70
192
0
VERTEX
8
OBJECT__3
10
23.079000
20
-53.457001
30
24.212000
70
192
0
VERTEX
8
OBJECT__3
10
21.063000
20
-53.187000
30
25.712999
70
192
0
VERTEX
8
OBJECT__3
10
22.709999
20
-52.634998
30
25.712999
70
192
0
VERTEX
8
OBJECT__3
10
28.260000
20
-51.404999
30
24.212000
70
192
0
VERTEX
8
OBJECT__3
10
31.228001
20
-48.073002
30
25.712999
70
192
0
VERTEX
8
OBJECT__3
10
31.731001
20
-48.883999
30
24.212000
70
192
0
VERTEX
8
OBJECT__3
10
39.719002
20
-43.080002
30
24.212000
70
192
0
VERTEX
8
OBJECT__3
10
38.852001
20
-42.151001
30
25.712999
70
192
0
VERTEX
8
OBJECT__3
10
40.157001
20
-42.762001
30
24.212000
70
192
0
VERTEX
8
OBJECT__3
10
46.106998
20
-35.569000
30
24.212000
70
192
0
VERTEX
8
OBJECT__3
10
45.380001
20
-35.027000
30
25.712999
70
192
0
VERTEX
8
OBJECT__3
10
40.424999
20
-40.433998
30
25.712999
70
192
0
VERTEX
8
OBJECT__3
10
49.529999
20
-31.431999
30
24.212000
70
192
0
VERTEX
8
OBJECT__3
10
47.811001
20
-31.259001
30
25.712999
70
192
0
VERTEX
8
OBJECT__3
10
50.613998
20
-26.915001
30
25.712999
70
192
0
VERTEX
8
OBJECT__3
10
51.438999
20
-27.375000
30
24.212000
70
192
0
VERTEX
8
OBJECT__3
10
55.646000
20
-18.433001
30
24.212000
70
192
0
VERTEX
8
OBJECT__3
10
53.132999
20
-21.028999
30
25.712999
70
192
0
VERTEX
8
OBJECT__3
10
54.416000
20
-18.031000
30
25.712999
70
192
0
VERTEX
8
OBJECT__3
10
55.790001
20
-18.127001
30
24.212000
70
192
0
VERTEX
8
OBJECT__3
10
57.576000
20
-8.766000
30
24.212000
70
192
0
VERTEX
8
OBJECT__3
10
56.248001
20
-10.402000
30
25.712999
70
192
0
VERTEX
8
OBJECT__3
10
56.669998
20
-8.644000
30
25.712999
70
192
0
VERTEX
8
OBJECT__3
10
58.546001
20
-3.683000
30
24.212000
70
192
0
VERTEX
8
OBJECT__3
10
57.326000
20
0.000000
30
25.712999
70
192
0
VERTEX
8
OBJECT__3
10
-57.235001
20
-3.218000
30
25.712999
70
192
0
VERTEX
8
OBJECT__3
10
-57.326000
20
0.000000
30
25.712999
70
192
0
VERTEX
8
OBJECT__3
10
-57.466999
20
-1.018000
30
25.657000
70
192
0
VERTEX
8
OBJECT__3
10
-57.582001
20
-3.659000
30
25.405001
70
192
0
VERTEX
8
OBJECT__3
10
-57.769001
20
-7.967000
30
24.993999
70
192
0
VERTEX
8
OBJECT__3
10
-56.217999
20
-10.410000
30
25.712999
70
192
0
VERTEX
8
OBJECT__3
10
-57.563999
20
-3.244000
30
25.444000
70
192
0
VERTEX
8
OBJECT__3
10
-57.141998
20
-13.076000
30
24.268000
70
192
0
VERTEX
8
OBJECT__3
10
-55.882000
20
-12.785000
30
25.712999
70
192
0
VERTEX
8
OBJECT__3
10
-57.092999
20
-13.473000
30
24.212000
70
192
0
VERTEX
8
OBJECT__3
10
-55.790001
20
-18.127001
30
24.212000
70
192
0
VERTEX
8
OBJECT__3
10
-53.231998
20
-21.079000
30
25.712999
70
192
0
VERTEX
8
OBJECT__3
10
-52.944000
20
-21.981001
30
25.712999
70
192
0
VERTEX
8
OBJECT__3
10
58.661999
20
0.000000
30
24.212000
70
192
0
VERTEX
8
OBJECT__3
10
0
20
0
30
0
70
128
71
1
72
2
73
3
0
VERTEX
8
OBJECT__3
10
0
20
0
30
0
70
128
71
3
72
2
73
4
0
VERTEX
8
OBJECT__3
10
0
20
0
30
0
70
128
71
5
72
6
73
7
0
VERTEX
8
OBJECT__3
10
0
20
0
30
0
70
128
71
7
72
4
73
5
0
VERTEX
8
OBJECT__3
10
0
20
0
30
0
70
128
71
5
72
8
73
9
0
VERTEX
8
OBJECT__3
10
0
20
0
30
0
70
128
71
10
72
9
73
8
0
VERTEX
8
OBJECT__3
10
0
20
0
30
0
70
128
71
8
72
11
73
10
0
VERTEX
8
OBJECT__3
10
0
20
0
30
0
70
128
71
11
72
12
73
13
0
VERTEX
8
OBJECT__3
10
0
20
0
30
0
70
128
71
12
72
14
73
13
0
VERTEX
8
OBJECT__3
10
0
20
0
30
0
70
128
71
15
72
14
73
16
0
VERTEX
8
OBJECT__3
10
0
20
0
30
0
70
128
71
14
72
12
73
16
0
VERTEX
8
OBJECT__3
10
0
20
0
30
0
70
128
71
17
72
18
73
19
0
VERTEX
8
OBJECT__3
10
0
20
0
30
0
70
128
71
19
72
20
73
17
0
VERTEX
8
OBJECT__3
10
0
20
0
30
0
70
128
71
18
72
17
73
21
0
VERTEX
8
OBJECT__3
10
0
20
0
30
0
70
128
71
22
72
23
73
24
0
VERTEX
8
OBJECT__3
10
0
20
0
30
0
70
128
71
24
72
21
73
22
0
VERTEX
8
OBJECT__3
10
0
20
0
30
0
70
128
71
25
72
26
73
23
0
VERTEX
8
OBJECT__3
10
0
20
0
30
0
70
128
71
26
72
25
73
27
0
VERTEX
8
OBJECT__3
10
0
20
0
30
0
70
128
71
27
72
28
73
26
0
VERTEX
8
OBJECT__3
10
0
20
0
30
0
70
128
71
27
72
29
73
30
0
VERTEX
8
OBJECT__3
10
0
20
0
30
0
70
128
71
29
72
31
73
30
0
VERTEX
8
OBJECT__3
10
0
20
0
30
0
70
128
71
32
72
33
73
34
0
VERTEX
8
OBJECT__3
10
0
20
0
30
0
70
128
71
31
72
29
73
32
0
VERTEX
8
OBJECT__3
10
0
20
0
30
0
70
128
71
33
72
35
73
34
0
VERTEX
8
OBJECT__3
10
0
20
0
30
0
70
128
71
35
72
33
73
36
0
VERTEX
8
OBJECT__3
10
0
20
0
30
0
70
128
71
36
72
37
73
35
0
VERTEX
8
OBJECT__3
10
0
20
0
30
0
70
128
71
38
72
39
73
40
0
VERTEX
8
OBJECT__3
10
0
20
0
30
0
70
128
71
40
72
39
73
41
0
VERTEX
8
OBJECT__3
10
0
20
0
30
0
70
128
71
42
72
43
73
44
0
VERTEX
8
OBJECT__3
10
0
20
0
30
0
70
128
71
44
72
41
73
42
0
VERTEX
8
OBJECT__3
10
0
20
0
30
0
70
128
71
42
72
45
73
46
0
VERTEX
8
OBJECT__3
10
0
20
0
30
0
70
128
71
47
72
46
73
45
0
VERTEX
8
OBJECT__3
10
0
20
0
30
0
70
128
71
45
72
48
73
47
0
VERTEX
8
OBJECT__3
10
0
20
0
30
0
70
128
71
48
72
49
73
50
0
VERTEX
8
OBJECT__3
10
0
20
0
30
0
70
128
71
49
72
51
73
50
0
VERTEX
8
OBJECT__3
10
0
20
0
30
0
70
128
71
52
72
53
73
54
0
VERTEX
8
OBJECT__3
10
0
20
0
30
0
70
128
71
51
72
49
73
52
0
VERTEX
8
OBJECT__3
10
0
20
0
30
0
70
128
71
53
72
55
73
54
0
VERTEX
8
OBJECT__3
10
0
20
0
30
0
70
128
71
55
72
53
73
56
0
VERTEX
8
OBJECT__3
10
0
20
0
30
0
70
128
71
56
72
57
73
55
0
VERTEX
8
OBJECT__3
10
0
20
0
30
0
70
128
71
58
72
59
73
60
0
VERTEX
8
OBJECT__3
10
0
20
0
30
0
70
128
71
58
72
61
73
62
0
VERTEX
8
OBJECT__3
10
0
20
0
30
0
70
128
71
62
72
63
73
58
0
VERTEX
8
OBJECT__3
10
0
20
0
30
0
70
128
71
58
72
64
73
61
0
VERTEX
8
OBJECT__3
10
0
20
0
30
0
70
128
71
65
72
66
73
63
0
VERTEX
8
OBJECT__3
10
0
20
0
30
0
70
128
71
66
72
67
73
68
0
VERTEX
8
OBJECT__3
10
0
20
0
30
0
70
128
71
66
72
65
73
67
0
VERTEX
8
OBJECT__3
10
0
20
0
30
0
70
128
71
68
72
69
73
66
0
VERTEX
8
OBJECT__3
10
0
20
0
30
0
70
128
71
1
72
70
73
69
0
VERTEX
8
OBJECT__3
10
0
20
0
30
0
70
128
71
68
72
1
73
69
0
VERTEX
8
OBJECT__3
10
0
20
0
30
0
70
128
71
62
72
65
73
63
0
VERTEX
8
OBJECT__3
10
0
20
0
30
0
70
128
71
60
72
64
73
58
0
VERTEX
8
OBJECT__3
10
0
20
0
30
0
70
128
71
56
72
71
73
57
0
VERTEX
8
OBJECT__3
10
0
20
0
30
0
70
128
71
54
72
51
73
52
0
VERTEX
8
OBJECT__3
10
0
20
0
30
0
70
128
71
50
72
47
73
48
0
VERTEX
8
OBJECT__3
10
0
20
0
30
0
70
128
71
46
72
43
73
42
0
VERTEX
8
OBJECT__3
10
0
20
0
30
0
70
128
71
41
72
44
73
40
0
VERTEX
8
OBJECT__3
10
0
20
0
30
0
70
128
71
40
72
37
73
38
0
VERTEX
8
OBJECT__3
10
0
20
0
30
0
70
128
71
36
72
38
73
37
0
VERTEX
8
OBJECT__3
10
0
20
0
30
0
70
128
71
34
72
31
73
32
0
VERTEX
8
OBJECT__3
10
0
20
0
30
0
70
128
71
30
72
28
73
27
0
VERTEX
8
OBJECT__3
10
0
20
0
30
0
70
128
71
23
72
22
73
25
0
VERTEX
8
OBJECT__3
10
0
20
0
30
0
70
128
71
21
72
24
73
18
0
VERTEX
8
OBJECT__3
10
0
20
0
30
0
70
128
71
19
72
15
73
20
0
VERTEX
8
OBJECT__3
10
0
20
0
30
0
70
128
71
16
72
20
73
15
0
VERTEX
8
OBJECT__3
10
0
20
0
30
0
70
128
71
13
72
10
73
11
0
VERTEX
8
OBJECT__3
10
0
20
0
30
0
70
128
71
9
72
6
73
5
0
VERTEX
8
OBJECT__3
10
0
20
0
30
0
70
128
71
4
72
7
73
3
0
VERTEX
8
OBJECT__3
10
0
20
0
30
0
70
128
71
3
72
70
73
1
0
SEQEND
8
OBJECT__3
0
POLYLINE
8
OBJECT__4
66
1
70
64
71
143
72
197
62
253
0
VERTEX
8
OBJECT__4
10
5.583000
20
32.606998
30
37.513000
70
192
0
VERTEX
8
OBJECT__4
10
-0.477000
20
33.077999
30
37.513000
70
192
0
VERTEX
8
OBJECT__4
10
-0.366000
20
25.389000
30
44.925999
70
192
0
VERTEX
8
OBJECT__4
10
0.000000
20
57.326000
30
25.712999
70
192
0
VERTEX
8
OBJECT__4
10
-0.612000
20
42.460999
30
31.681999
70
192
0
VERTEX
8
OBJECT__4
10
7.167000
20
41.855999
30
31.681999
70
192
0
VERTEX
8
OBJECT__4
10
9.611000
20
56.514000
30
25.712999
70
192
0
VERTEX
8
OBJECT__4
10
8.027000
20
21.014999
30
50.073002
70
192
0
VERTEX
8
OBJECT__4
10
9.060000
20
23.719999
30
44.925999
70
192
0
VERTEX
8
OBJECT__4
10
4.285000
20
25.027000
30
44.925999
70
192
0
VERTEX
8
OBJECT__4
10
-0.324000
20
22.493999
30
50.073002
70
192
0
VERTEX
8
OBJECT__4
10
23.194000
20
23.587999
30
37.513000
70
192
0
VERTEX
8
OBJECT__4
10
17.802999
20
18.105000
30
44.925999
70
192
0
VERTEX
8
OBJECT__4
10
21.165001
20
14.027000
30
44.925999
70
192
0
VERTEX
8
OBJECT__4
10
17.813000
20
27.875999
30
37.513000
70
192
0
VERTEX
8
OBJECT__4
10
11.804000
20
30.903999
30
37.513000
70
192
0
VERTEX
8
OBJECT__4
10
13.673000
20
21.396000
30
44.925999
70
192
0
VERTEX
8
OBJECT__4
10
30.709000
20
12.301000
30
37.513000
70
192
0
VERTEX
8
OBJECT__4
10
23.570999
20
9.442000
30
44.925999
70
192
0
VERTEX
8
OBJECT__4
10
24.959000
20
4.668000
30
44.925999
70
192
0
VERTEX
8
OBJECT__4
10
27.575001
20
18.275000
30
37.513000
70
192
0
VERTEX
8
OBJECT__4
10
25.825001
20
0.000000
30
44.342999
70
192
0
VERTEX
8
OBJECT__4
10
29.424999
20
0.000000
30
40.459000
70
192
0
VERTEX
8
OBJECT__4
10
32.516998
20
6.082000
30
37.513000
70
192
0
VERTEX
8
OBJECT__4
10
25.445999
20
0.000000
30
44.959000
70
192
0
VERTEX
8
OBJECT__4
10
15.773000
20
16.040001
30
50.073002
70
192
0
VERTEX
8
OBJECT__4
10
18.752001
20
12.428000
30
50.073002
70
192
0
VERTEX
8
OBJECT__4
10
2.390000
20
20.384001
30
56.659000
70
192
0
VERTEX
8
OBJECT__4
10
4.505000
20
20.023001
30
56.659000
70
192
0
VERTEX
8
OBJECT__4
10
-0.296000
20
20.385000
30
56.659000
70
192
0
VERTEX
8
OBJECT__4
10
12.114000
20
18.955999
30
50.073002
70
192
0
VERTEX
8
OBJECT__4
10
10.879000
20
17.403000
30
56.659000
70
192
0
VERTEX
8
OBJECT__4
10
14.369000
20
14.609000
30
56.659000
70
192
0
VERTEX
8
OBJECT__4
10
9.003000
20
18.443001
30
56.659000
70
192
0
VERTEX
8
OBJECT__4
10
7.280000
20
19.048000
30
56.659000
70
192
0
VERTEX
8
OBJECT__4
10
18.551001
20
8.778000
30
56.659000
70
192
0
VERTEX
8
OBJECT__4
10
20.882999
20
8.365000
30
50.073002
70
192
0
VERTEX
8
OBJECT__4
10
14.600000
20
14.424000
30
56.659000
70
192
0
VERTEX
8
OBJECT__4
10
16.025999
20
12.821000
30
56.659000
70
192
0
VERTEX
8
OBJECT__4
10
23.056000
20
0.000000
30
48.841000
70
192
0
VERTEX
8
OBJECT__4
10
22.598000
20
0.000000
30
50.110001
70
192
0
VERTEX
8
OBJECT__4
10
20.410999
20
2.143000
30
56.659000
70
192
0
VERTEX
8
OBJECT__4
10
20.523001
20
0.000000
30
56.659000
70
192
0
VERTEX
8
OBJECT__4
10
20.750000
20
0.000000
30
55.576000
70
192
0
VERTEX
8
OBJECT__4
10
21.000000
20
0.000000
30
54.530998
70
192
0
VERTEX
8
OBJECT__4
10
19.365999
20
6.793000
30
56.659000
70
192
0
VERTEX
8
OBJECT__4
10
19.025999
20
7.621000
30
56.659000
70
192
0
VERTEX
8
OBJECT__4
10
-23.975000
20
22.794001
30
37.513000
70
192
0
VERTEX
8
OBJECT__4
10
-18.402000
20
17.496000
30
44.925999
70
192
0
VERTEX
8
OBJECT__4
10
-14.378000
20
20.929001
30
44.925999
70
192
0
VERTEX
8
OBJECT__4
10
-28.167999
20
17.347000
30
37.513000
70
192
0
VERTEX
8
OBJECT__4
10
-31.089001
20
11.306000
30
37.513000
70
192
0
VERTEX
8
OBJECT__4
10
-23.863001
20
8.678000
30
44.925999
70
192
0
VERTEX
8
OBJECT__4
10
-32.688000
20
5.085000
30
37.513000
70
192
0
VERTEX
8
OBJECT__4
10
-25.090000
20
3.903000
30
44.925999
70
192
0
VERTEX
8
OBJECT__4
10
-21.620001
20
13.315000
30
44.925999
70
192
0
VERTEX
8
OBJECT__4
10
-21.142000
20
7.688000
30
50.073002
70
192
0
VERTEX
8
OBJECT__4
10
-19.155001
20
11.797000
30
50.073002
70
192
0
VERTEX
8
OBJECT__4
10
-18.545000
20
8.791000
30
56.659000
70
192
0
VERTEX
8
OBJECT__4
10
-16.017000
20
12.832000
30
56.659000
70
192
0
VERTEX
8
OBJECT__4
10
-16.304001
20
15.500000
30
50.073002
70
192
0
VERTEX
8
OBJECT__4
10
-19.278000
20
7.010000
30
56.659000
70
192
0
VERTEX
8
OBJECT__4
10
-12.739000
20
18.542000
30
50.073002
70
192
0
VERTEX
8
OBJECT__4
10
-12.796000
20
30.506001
30
37.513000
70
192
0
VERTEX
8
OBJECT__4
10
-9.822000
20
23.415001
30
44.925999
70
192
0
VERTEX
8
OBJECT__4
10
-5.052000
20
24.884001
30
44.925999
70
192
0
VERTEX
8
OBJECT__4
10
-18.733000
20
27.267000
30
37.513000
70
192
0
VERTEX
8
OBJECT__4
10
-6.582000
20
32.419998
30
37.513000
70
192
0
VERTEX
8
OBJECT__4
10
-8.702000
20
20.745001
30
50.073002
70
192
0
VERTEX
8
OBJECT__4
10
-10.867000
20
17.410000
30
56.659000
70
192
0
VERTEX
8
OBJECT__4
10
-8.990000
20
18.450001
30
56.659000
70
192
0
VERTEX
8
OBJECT__4
10
-14.590000
20
14.434000
30
56.659000
70
192
0
VERTEX
8
OBJECT__4
10
-14.861000
20
14.130000
30
56.659000
70
192
0
VERTEX
8
OBJECT__4
10
-4.491000
20
20.025999
30
56.659000
70
192
0
VERTEX
8
OBJECT__4
10
-7.905000
20
18.830000
30
56.659000
70
192
0
VERTEX
8
OBJECT__4
10
-2.376000
20
20.385000
30
56.659000
70
192
0
VERTEX
8
OBJECT__4
10
-24.046000
20
35.000999
30
31.681999
70
192
0
VERTEX
8
OBJECT__4
10
-32.363998
20
47.118999
30
25.712999
70
192
0
VERTEX
8
OBJECT__4
10
-37.967999
20
42.949001
30
25.712999
70
192
0
VERTEX
8
OBJECT__4
10
-30.775999
20
29.260000
30
31.681999
70
192
0
VERTEX
8
OBJECT__4
10
-52.980000
20
21.893999
30
25.712999
70
192
0
VERTEX
8
OBJECT__4
10
-39.908001
20
14.513000
30
31.681999
70
192
0
VERTEX
8
OBJECT__4
10
-36.158001
20
22.268000
30
31.681999
70
192
0
VERTEX
8
OBJECT__4
10
-48.778000
20
30.042999
30
25.712999
70
192
0
VERTEX
8
OBJECT__4
10
-53.726002
20
19.545000
30
25.712999
70
192
0
VERTEX
8
OBJECT__4
10
-55.903000
20
12.693000
30
25.712999
70
192
0
VERTEX
8
OBJECT__4
10
-41.960999
20
6.527000
30
31.681999
70
192
0
VERTEX
8
OBJECT__4
10
-44.643002
20
35.962002
30
25.712999
70
192
0
VERTEX
8
OBJECT__4
10
-41.397999
20
39.358002
30
25.712999
70
192
0
VERTEX
8
OBJECT__4
10
-48.558998
20
30.466000
30
25.712999
70
192
0
VERTEX
8
OBJECT__4
10
-8.449000
20
41.616001
30
31.681999
70
192
0
VERTEX
8
OBJECT__4
10
-11.372000
20
56.044998
30
25.712999
70
192
0
VERTEX
8
OBJECT__4
10
-18.687000
20
54.194000
30
25.712999
70
192
0
VERTEX
8
OBJECT__4
10
-16.426001
20
39.160000
30
31.681999
70
192
0
VERTEX
8
OBJECT__4
10
-22.096001
20
52.686001
30
25.712999
70
192
0
VERTEX
8
OBJECT__4
10
-27.524000
20
50.285999
30
25.712999
70
192
0
VERTEX
8
OBJECT__4
10
-30.223000
20
48.712002
30
25.712999
70
192
0
VERTEX
8
OBJECT__4
10
-9.328000
20
56.562000
30
25.712999
70
192
0
VERTEX
8
OBJECT__4
10
-0.821000
20
57.257999
30
25.712999
70
192
0
VERTEX
8
OBJECT__4
10
46.702999
20
33.243000
30
25.712999
70
192
0
VERTEX
8
OBJECT__4
10
40.467999
20
40.602001
30
25.712999
70
192
0
VERTEX
8
OBJECT__4
10
29.774000
20
30.278999
30
31.681999
70
192
0
VERTEX
8
OBJECT__4
10
35.396999
20
23.459000
30
31.681999
70
192
0
VERTEX
8
OBJECT__4
10
47.716000
20
31.625000
30
25.712999
70
192
0
VERTEX
8
OBJECT__4
10
22.865999
20
35.783001
30
31.681999
70
192
0
VERTEX
8
OBJECT__4
10
30.775999
20
48.151001
30
25.712999
70
192
0
VERTEX
8
OBJECT__4
10
25.193001
20
51.493000
30
25.712999
70
192
0
VERTEX
8
OBJECT__4
10
15.153000
20
39.669998
30
31.681999
70
192
0
VERTEX
8
OBJECT__4
10
16.186001
20
54.993000
30
25.712999
70
192
0
VERTEX
8
OBJECT__4
10
20.382000
20
53.362999
30
25.712999
70
192
0
VERTEX
8
OBJECT__4
10
33.476002
20
46.535000
30
25.712999
70
192
0
VERTEX
8
OBJECT__4
10
40.173000
20
40.852001
30
25.712999
70
192
0
VERTEX
8
OBJECT__4
10
41.741001
20
7.807000
30
31.681999
70
192
0
VERTEX
8
OBJECT__4
10
56.011002
20
12.206000
30
25.712999
70
192
0
VERTEX
8
OBJECT__4
10
54.188000
20
18.704000
30
25.712999
70
192
0
VERTEX
8
OBJECT__4
10
56.230999
20
10.524000
30
25.712999
70
192
0
VERTEX
8
OBJECT__4
10
39.419998
20
15.791000
30
31.681999
70
192
0
VERTEX
8
OBJECT__4
10
53.062000
20
21.249001
30
25.712999
70
192
0
VERTEX
8
OBJECT__4
10
50.285999
20
27.524000
30
25.712999
70
192
0
VERTEX
8
OBJECT__4
10
51.813000
20
0.000000
30
27.634001
70
192
0
VERTEX
8
OBJECT__4
10
57.326000
20
0.000000
30
25.712999
70
192
0
VERTEX
8
OBJECT__4
10
57.264999
20
2.643000
30
25.712999
70
192
0
VERTEX
8
OBJECT__4
10
42.792999
20
0.000000
30
31.514999
70
192
0
VERTEX
8
OBJECT__4
10
42.477001
20
0.000000
30
31.702000
70
192
0
VERTEX
8
OBJECT__4
10
35.375000
20
0.000000
30
35.908001
70
192
0
VERTEX
8
OBJECT__4
10
33.153000
20
0.000000
30
37.606998
70
192
0
VERTEX
8
OBJECT__4
10
-56.449001
20
8.784000
30
25.712999
70
192
0
VERTEX
8
OBJECT__4
10
-57.240002
20
3.123000
30
25.712999
70
192
0
VERTEX
8
OBJECT__4
10
-45.909000
20
0.000000
30
30.034000
70
192
0
VERTEX
8
OBJECT__4
10
-57.326000
20
0.000000
30
25.712999
70
192
0
VERTEX
8
OBJECT__4
10
-38.250000
20
0.000000
30
34.049999
70
192
0
VERTEX
8
OBJECT__4
10
-42.529999
20
0.000000
30
31.806000
70
192
0
VERTEX
8
OBJECT__4
10
-30.599001
20
0.000000
30
39.438999
70
192
0
VERTEX
8
OBJECT__4
10
-33.165001
20
0.000000
30
37.632000
70
192
0
VERTEX
8
OBJECT__4
10
-26.474001
20
0.000000
30
43.528000
70
192
0
VERTEX
8
OBJECT__4
10
-23.302000
20
0.000000
30
48.346001
70
192
0
VERTEX
8
OBJECT__4
10
-25.504999
20
0.000000
30
45.000000
70
192
0
VERTEX
8
OBJECT__4
10
-21.000000
20
0.000000
30
54.530998
70
192
0
VERTEX
8
OBJECT__4
10
-20.410000
20
2.157000
30
56.659000
70
192
0
VERTEX
8
OBJECT__4
10
-19.362000
20
6.807000
30
56.659000
70
192
0
VERTEX
8
OBJECT__4
10
-20.521999
20
-0.241000
30
56.659000
70
192
0
VERTEX
8
OBJECT__4
10
-22.622999
20
0.000000
30
50.122002
70
192
0
VERTEX
8
OBJECT__4
10
-21.141001
20
0.000000
30
53.997002
70
192
0
VERTEX
8
OBJECT__4
10
0
20
0
30
0
70
128
71
1
72
2
73
3
0
VERTEX
8
OBJECT__4
10
0
20
0
30
0
70
128
71
4
72
5
73
6
0
VERTEX
8
OBJECT__4
10
0
20
0
30
0
70
128
71
6
72
7
73
4
0
VERTEX
8
OBJECT__4
10
0
20
0
30
0
70
128
71
8
72
9
73
10
0
VERTEX
8
OBJECT__4
10
0
20
0
30
0
70
128
71
10
72
11
73
8
0
VERTEX
8
OBJECT__4
10
0
20
0
30
0
70
128
71
12
72
13
73
14
0
VERTEX
8
OBJECT__4
10
0
20
0
30
0
70
128
71
15
72
16
73
9
0
VERTEX
8
OBJECT__4
10
0
20
0
30
0
70
128
71
16
72
1
73
10
0
VERTEX
8
OBJECT__4
10
0
20
0
30
0
70
128
71
12
72
15
73
17
0
VERTEX
8
OBJECT__4
10
0
20
0
30
0
70
128
71
18
72
19
73
20
0
VERTEX
8
OBJECT__4
10
0
20
0
30
0
70
128
71
21
72
14
73
19
0
VERTEX
8
OBJECT__4
10
0
20
0
30
0
70
128
71
20
72
22
73
23
0
VERTEX
8
OBJECT__4
10
0
20
0
30
0
70
128
71
23
72
24
73
20
0
VERTEX
8
OBJECT__4
10
0
20
0
30
0
70
128
71
20
72
25
73
22
0
VERTEX
8
OBJECT__4
10
0
20
0
30
0
70
128
71
13
72
26
73
27
0
VERTEX
8
OBJECT__4
10
0
20
0
30
0
70
128
71
11
72
28
73
29
0
VERTEX
8
OBJECT__4
10
0
20
0
30
0
70
128
71
29
72
8
73
11
0
VERTEX
8
OBJECT__4
10
0
20
0
30
0
70
128
71
11
72
30
73
28
0
VERTEX
8
OBJECT__4
10
0
20
0
30
0
70
128
71
17
72
9
73
8
0
VERTEX
8
OBJECT__4
10
0
20
0
30
0
70
128
71
13
72
17
73
31
0
VERTEX
8
OBJECT__4
10
0
20
0
30
0
70
128
71
31
72
32
73
33
0
VERTEX
8
OBJECT__4
10
0
20
0
30
0
70
128
71
31
72
8
73
34
0
VERTEX
8
OBJECT__4
10
0
20
0
30
0
70
128
71
34
72
32
73
31
0
VERTEX
8
OBJECT__4
10
0
20
0
30
0
70
128
71
8
72
35
73
34
0
VERTEX
8
OBJECT__4
10
0
20
0
30
0
70
128
71
36
72
37
73
27
0
VERTEX
8
OBJECT__4
10
0
20
0
30
0
70
128
71
26
72
38
73
39
0
VERTEX
8
OBJECT__4
10
0
20
0
30
0
70
128
71
39
72
27
73
26
0
VERTEX
8
OBJECT__4
10
0
20
0
30
0
70
128
71
27
72
39
73
36
0
VERTEX
8
OBJECT__4
10
0
20
0
30
0
70
128
71
26
72
33
73
38
0
VERTEX
8
OBJECT__4
10
0
20
0
30
0
70
128
71
40
72
25
73
20
0
VERTEX
8
OBJECT__4
10
0
20
0
30
0
70
128
71
20
72
37
73
40
0
VERTEX
8
OBJECT__4
10
0
20
0
30
0
70
128
71
37
72
41
73
40
0
VERTEX
8
OBJECT__4
10
0
20
0
30
0
70
128
71
14
72
27
73
37
0
VERTEX
8
OBJECT__4
10
0
20
0
30
0
70
128
71
42
72
43
73
44
0
VERTEX
8
OBJECT__4
10
0
20
0
30
0
70
128
71
44
72
45
73
42
0
VERTEX
8
OBJECT__4
10
0
20
0
30
0
70
128
71
37
72
46
73
42
0
VERTEX
8
OBJECT__4
10
0
20
0
30
0
70
128
71
42
72
41
73
37
0
VERTEX
8
OBJECT__4
10
0
20
0
30
0
70
128
71
37
72
47
73
46
0
VERTEX
8
OBJECT__4
10
0
20
0
30
0
70
128
71
48
72
49
73
50
0
VERTEX
8
OBJECT__4
10
0
20
0
30
0
70
128
71
51
72
52
73
53
0
VERTEX
8
OBJECT__4
10
0
20
0
30
0
70
128
71
52
72
54
73
55
0
VERTEX
8
OBJECT__4
10
0
20
0
30
0
70
128
71
48
72
51
73
56
0
VERTEX
8
OBJECT__4
10
0
20
0
30
0
70
128
71
56
72
53
73
57
0
VERTEX
8
OBJECT__4
10
0
20
0
30
0
70
128
71
58
72
59
73
60
0
VERTEX
8
OBJECT__4
10
0
20
0
30
0
70
128
71
60
72
61
73
58
0
VERTEX
8
OBJECT__4
10
0
20
0
30
0
70
128
71
57
72
62
73
59
0
VERTEX
8
OBJECT__4
10
0
20
0
30
0
70
128
71
58
72
57
73
59
0
VERTEX
8
OBJECT__4
10
0
20
0
30
0
70
128
71
49
72
56
73
58
0
VERTEX
8
OBJECT__4
10
0
20
0
30
0
70
128
71
49
72
61
73
63
0
VERTEX
8
OBJECT__4
10
0
20
0
30
0
70
128
71
64
72
65
73
66
0
VERTEX
8
OBJECT__4
10
0
20
0
30
0
70
128
71
67
72
50
73
65
0
VERTEX
8
OBJECT__4
10
0
20
0
30
0
70
128
71
68
72
66
73
3
0
VERTEX
8
OBJECT__4
10
0
20
0
30
0
70
128
71
69
72
11
73
66
0
VERTEX
8
OBJECT__4
10
0
20
0
30
0
70
128
71
11
72
3
73
66
0
VERTEX
8
OBJECT__4
10
0
20
0
30
0
70
128
71
63
72
70
73
71
0
VERTEX
8
OBJECT__4
10
0
20
0
30
0
70
128
71
72
72
70
73
63
0
VERTEX
8
OBJECT__4
10
0
20
0
30
0
70
128
71
63
72
61
73
72
0
VERTEX
8
OBJECT__4
10
0
20
0
30
0
70
128
71
61
72
73
73
72
0
VERTEX
8
OBJECT__4
10
0
20
0
30
0
70
128
71
71
72
69
73
63
0
VERTEX
8
OBJECT__4
10
0
20
0
30
0
70
128
71
50
72
63
73
69
0
VERTEX
8
OBJECT__4
10
0
20
0
30
0
70
128
71
11
72
69
73
74
0
VERTEX
8
OBJECT__4
10
0
20
0
30
0
70
128
71
69
72
75
73
74
0
VERTEX
8
OBJECT__4
10
0
20
0
30
0
70
128
71
74
72
76
73
11
0
VERTEX
8
OBJECT__4
10
0
20
0
30
0
70
128
71
77
72
78
73
79
0
VERTEX
8
OBJECT__4
10
0
20
0
30
0
70
128
71
79
72
80
73
77
0
VERTEX
8
OBJECT__4
10
0
20
0
30
0
70
128
71
81
72
82
73
83
0
VERTEX
8
OBJECT__4
10
0
20
0
30
0
70
128
71
83
72
84
73
81
0
VERTEX
8
OBJECT__4
10
0
20
0
30
0
70
128
71
82
72
85
73
86
0
VERTEX
8
OBJECT__4
10
0
20
0
30
0
70
128
71
86
72
87
73
82
0
VERTEX
8
OBJECT__4
10
0
20
0
30
0
70
128
71
83
72
80
73
88
0
VERTEX
8
OBJECT__4
10
0
20
0
30
0
70
128
71
80
72
89
73
88
0
VERTEX
8
OBJECT__4
10
0
20
0
30
0
70
128
71
88
72
90
73
83
0
VERTEX
8
OBJECT__4
10
0
20
0
30
0
70
128
71
91
72
92
73
93
0
VERTEX
8
OBJECT__4
10
0
20
0
30
0
70
128
71
93
72
94
73
91
0
VERTEX
8
OBJECT__4
10
0
20
0
30
0
70
128
71
94
72
95
73
96
0
VERTEX
8
OBJECT__4
10
0
20
0
30
0
70
128
71
96
72
77
73
94
0
VERTEX
8
OBJECT__4
10
0
20
0
30
0
70
128
71
96
72
97
73
77
0
VERTEX
8
OBJECT__4
10
0
20
0
30
0
70
128
71
98
72
91
73
5
0
VERTEX
8
OBJECT__4
10
0
20
0
30
0
70
128
71
5
72
99
73
98
0
VERTEX
8
OBJECT__4
10
0
20
0
30
0
70
128
71
80
72
48
73
67
0
VERTEX
8
OBJECT__4
10
0
20
0
30
0
70
128
71
83
72
82
73
52
0
VERTEX
8
OBJECT__4
10
0
20
0
30
0
70
128
71
82
72
87
73
54
0
VERTEX
8
OBJECT__4
10
0
20
0
30
0
70
128
71
80
72
83
73
51
0
VERTEX
8
OBJECT__4
10
0
20
0
30
0
70
128
71
94
72
64
73
68
0
VERTEX
8
OBJECT__4
10
0
20
0
30
0
70
128
71
77
72
67
73
64
0
VERTEX
8
OBJECT__4
10
0
20
0
30
0
70
128
71
91
72
68
73
2
0
VERTEX
8
OBJECT__4
10
0
20
0
30
0
70
128
71
100
72
101
73
102
0
VERTEX
8
OBJECT__4
10
0
20
0
30
0
70
128
71
102
72
103
73
100
0
VERTEX
8
OBJECT__4
10
0
20
0
30
0
70
128
71
103
72
104
73
100
0
VERTEX
8
OBJECT__4
10
0
20
0
30
0
70
128
71
6
72
5
73
2
0
VERTEX
8
OBJECT__4
10
0
20
0
30
0
70
128
71
105
72
106
73
107
0
VERTEX
8
OBJECT__4
10
0
20
0
30
0
70
128
71
107
72
108
73
105
0
VERTEX
8
OBJECT__4
10
0
20
0
30
0
70
128
71
6
72
108
73
109
0
VERTEX
8
OBJECT__4
10
0
20
0
30
0
70
128
71
108
72
110
73
109
0
VERTEX
8
OBJECT__4
10
0
20
0
30
0
70
128
71
111
72
105
73
102
0
VERTEX
8
OBJECT__4
10
0
20
0
30
0
70
128
71
102
72
112
73
111
0
VERTEX
8
OBJECT__4
10
0
20
0
30
0
70
128
71
105
72
108
73
16
0
VERTEX
8
OBJECT__4
10
0
20
0
30
0
70
128
71
108
72
6
73
1
0
VERTEX
8
OBJECT__4
10
0
20
0
30
0
70
128
71
102
72
105
73
15
0
VERTEX
8
OBJECT__4
10
0
20
0
30
0
70
128
71
102
72
12
73
21
0
VERTEX
8
OBJECT__4
10
0
20
0
30
0
70
128
71
113
72
114
73
115
0
VERTEX
8
OBJECT__4
10
0
20
0
30
0
70
128
71
113
72
116
73
114
0
VERTEX
8
OBJECT__4
10
0
20
0
30
0
70
128
71
115
72
117
73
113
0
VERTEX
8
OBJECT__4
10
0
20
0
30
0
70
128
71
117
72
118
73
119
0
VERTEX
8
OBJECT__4
10
0
20
0
30
0
70
128
71
119
72
103
73
117
0
VERTEX
8
OBJECT__4
10
0
20
0
30
0
70
128
71
120
72
121
73
122
0
VERTEX
8
OBJECT__4
10
0
20
0
30
0
70
128
71
113
72
123
73
120
0
VERTEX
8
OBJECT__4
10
0
20
0
30
0
70
128
71
120
72
116
73
113
0
VERTEX
8
OBJECT__4
10
0
20
0
30
0
70
128
71
113
72
124
73
123
0
VERTEX
8
OBJECT__4
10
0
20
0
30
0
70
128
71
117
72
18
73
24
0
VERTEX
8
OBJECT__4
10
0
20
0
30
0
70
128
71
103
72
21
73
18
0
VERTEX
8
OBJECT__4
10
0
20
0
30
0
70
128
71
113
72
24
73
125
0
VERTEX
8
OBJECT__4
10
0
20
0
30
0
70
128
71
24
72
126
73
125
0
VERTEX
8
OBJECT__4
10
0
20
0
30
0
70
128
71
127
72
128
73
129
0
VERTEX
8
OBJECT__4
10
0
20
0
30
0
70
128
71
129
72
87
73
127
0
VERTEX
8
OBJECT__4
10
0
20
0
30
0
70
128
71
128
72
130
73
129
0
VERTEX
8
OBJECT__4
10
0
20
0
30
0
70
128
71
54
72
87
73
131
0
VERTEX
8
OBJECT__4
10
0
20
0
30
0
70
128
71
87
72
132
73
131
0
VERTEX
8
OBJECT__4
10
0
20
0
30
0
70
128
71
55
72
54
73
133
0
VERTEX
8
OBJECT__4
10
0
20
0
30
0
70
128
71
54
72
134
73
133
0
VERTEX
8
OBJECT__4
10
0
20
0
30
0
70
128
71
133
72
135
73
55
0
VERTEX
8
OBJECT__4
10
0
20
0
30
0
70
128
71
136
72
57
73
55
0
VERTEX
8
OBJECT__4
10
0
20
0
30
0
70
128
71
57
72
53
73
55
0
VERTEX
8
OBJECT__4
10
0
20
0
30
0
70
128
71
55
72
137
73
136
0
VERTEX
8
OBJECT__4
10
0
20
0
30
0
70
128
71
138
72
139
73
140
0
VERTEX
8
OBJECT__4
10
0
20
0
30
0
70
128
71
138
72
141
73
139
0
VERTEX
8
OBJECT__4
10
0
20
0
30
0
70
128
71
57
72
142
73
143
0
VERTEX
8
OBJECT__4
10
0
20
0
30
0
70
128
71
143
72
62
73
57
0
VERTEX
8
OBJECT__4
10
0
20
0
30
0
70
128
71
143
72
138
73
62
0
VERTEX
8
OBJECT__4
10
0
20
0
30
0
70
128
71
140
72
62
73
138
0
VERTEX
8
OBJECT__4
10
0
20
0
30
0
70
128
71
136
72
142
73
57
0
VERTEX
8
OBJECT__4
10
0
20
0
30
0
70
128
71
135
72
137
73
55
0
VERTEX
8
OBJECT__4
10
0
20
0
30
0
70
128
71
131
72
134
73
54
0
VERTEX
8
OBJECT__4
10
0
20
0
30
0
70
128
71
129
72
132
73
87
0
VERTEX
8
OBJECT__4
10
0
20
0
30
0
70
128
71
125
72
124
73
113
0
VERTEX
8
OBJECT__4
10
0
20
0
30
0
70
128
71
18
72
117
73
103
0
VERTEX
8
OBJECT__4
10
0
20
0
30
0
70
128
71
24
72
113
73
117
0
VERTEX
8
OBJECT__4
10
0
20
0
30
0
70
128
71
122
72
116
73
120
0
VERTEX
8
OBJECT__4
10
0
20
0
30
0
70
128
71
119
72
104
73
103
0
VERTEX
8
OBJECT__4
10
0
20
0
30
0
70
128
71
115
72
118
73
117
0
VERTEX
8
OBJECT__4
10
0
20
0
30
0
70
128
71
21
72
103
73
102
0
VERTEX
8
OBJECT__4
10
0
20
0
30
0
70
128
71
15
72
12
73
102
0
VERTEX
8
OBJECT__4
10
0
20
0
30
0
70
128
71
1
72
16
73
108
0
VERTEX
8
OBJECT__4
10
0
20
0
30
0
70
128
71
16
72
15
73
105
0
VERTEX
8
OBJECT__4
10
0
20
0
30
0
70
128
71
111
72
106
73
105
0
VERTEX
8
OBJECT__4
10
0
20
0
30
0
70
128
71
109
72
7
73
6
0
VERTEX
8
OBJECT__4
10
0
20
0
30
0
70
128
71
107
72
110
73
108
0
VERTEX
8
OBJECT__4
10
0
20
0
30
0
70
128
71
2
72
1
73
6
0
VERTEX
8
OBJECT__4
10
0
20
0
30
0
70
128
71
101
72
112
73
102
0
VERTEX
8
OBJECT__4
10
0
20
0
30
0
70
128
71
2
72
5
73
91
0
VERTEX
8
OBJECT__4
10
0
20
0
30
0
70
128
71
64
72
94
73
77
0
VERTEX
8
OBJECT__4
10
0
20
0
30
0
70
128
71
68
72
91
73
94
0
VERTEX
8
OBJECT__4
10
0
20
0
30
0
70
128
71
51
72
48
73
80
0
VERTEX
8
OBJECT__4
10
0
20
0
30
0
70
128
71
54
72
52
73
82
0
VERTEX
8
OBJECT__4
10
0
20
0
30
0
70
128
71
52
72
51
73
83
0
VERTEX
8
OBJECT__4
10
0
20
0
30
0
70
128
71
67
72
77
73
80
0
VERTEX
8
OBJECT__4
10
0
20
0
30
0
70
128
71
98
72
92
73
91
0
VERTEX
8
OBJECT__4
10
0
20
0
30
0
70
128
71
97
72
78
73
77
0
VERTEX
8
OBJECT__4
10
0
20
0
30
0
70
128
71
93
72
95
73
94
0
VERTEX
8
OBJECT__4
10
0
20
0
30
0
70
128
71
90
72
84
73
83
0
VERTEX
8
OBJECT__4
10
0
20
0
30
0
70
128
71
86
72
127
73
87
0
VERTEX
8
OBJECT__4
10
0
20
0
30
0
70
128
71
81
72
85
73
82
0
VERTEX
8
OBJECT__4
10
0
20
0
30
0
70
128
71
79
72
89
73
80
0
VERTEX
8
OBJECT__4
10
0
20
0
30
0
70
128
71
76
72
30
73
11
0
VERTEX
8
OBJECT__4
10
0
20
0
30
0
70
128
71
69
72
65
73
50
0
VERTEX
8
OBJECT__4
10
0
20
0
30
0
70
128
71
71
72
75
73
69
0
VERTEX
8
OBJECT__4
10
0
20
0
30
0
70
128
71
66
72
65
73
69
0
VERTEX
8
OBJECT__4
10
0
20
0
30
0
70
128
71
3
72
2
73
68
0
VERTEX
8
OBJECT__4
10
0
20
0
30
0
70
128
71
65
72
64
73
67
0
VERTEX
8
OBJECT__4
10
0
20
0
30
0
70
128
71
66
72
68
73
64
0
VERTEX
8
OBJECT__4
10
0
20
0
30
0
70
128
71
63
72
50
73
49
0
VERTEX
8
OBJECT__4
10
0
20
0
30
0
70
128
71
58
72
61
73
49
0
VERTEX
8
OBJECT__4
10
0
20
0
30
0
70
128
71
60
72
73
73
61
0
VERTEX
8
OBJECT__4
10
0
20
0
30
0
70
128
71
57
72
58
73
56
0
VERTEX
8
OBJECT__4
10
0
20
0
30
0
70
128
71
56
72
49
73
48
0
VERTEX
8
OBJECT__4
10
0
20
0
30
0
70
128
71
55
72
53
73
52
0
VERTEX
8
OBJECT__4
10
0
20
0
30
0
70
128
71
53
72
56
73
51
0
VERTEX
8
OBJECT__4
10
0
20
0
30
0
70
128
71
50
72
67
73
48
0
VERTEX
8
OBJECT__4
10
0
20
0
30
0
70
128
71
45
72
41
73
42
0
VERTEX
8
OBJECT__4
10
0
20
0
30
0
70
128
71
37
72
19
73
14
0
VERTEX
8
OBJECT__4
10
0
20
0
30
0
70
128
71
20
72
19
73
37
0
VERTEX
8
OBJECT__4
10
0
20
0
30
0
70
128
71
36
72
47
73
37
0
VERTEX
8
OBJECT__4
10
0
20
0
30
0
70
128
71
33
72
26
73
31
0
VERTEX
8
OBJECT__4
10
0
20
0
30
0
70
128
71
31
72
26
73
13
0
VERTEX
8
OBJECT__4
10
0
20
0
30
0
70
128
71
8
72
31
73
17
0
VERTEX
8
OBJECT__4
10
0
20
0
30
0
70
128
71
29
72
35
73
8
0
VERTEX
8
OBJECT__4
10
0
20
0
30
0
70
128
71
27
72
14
73
13
0
VERTEX
8
OBJECT__4
10
0
20
0
30
0
70
128
71
23
72
126
73
24
0
VERTEX
8
OBJECT__4
10
0
20
0
30
0
70
128
71
19
72
18
73
21
0
VERTEX
8
OBJECT__4
10
0
20
0
30
0
70
128
71
20
72
24
73
18
0
VERTEX
8
OBJECT__4
10
0
20
0
30
0
70
128
71
17
72
13
73
12
0
VERTEX
8
OBJECT__4
10
0
20
0
30
0
70
128
71
10
72
9
73
16
0
VERTEX
8
OBJECT__4
10
0
20
0
30
0
70
128
71
9
72
17
73
15
0
VERTEX
8
OBJECT__4
10
0
20
0
30
0
70
128
71
14
72
21
73
12
0
VERTEX
8
OBJECT__4
10
0
20
0
30
0
70
128
71
10
72
3
73
11
0
VERTEX
8
OBJECT__4
10
0
20
0
30
0
70
128
71
4
72
99
73
5
0
VERTEX
8
OBJECT__4
10
0
20
0
30
0
70
128
71
3
72
10
73
1
0
SEQEND
8
OBJECT__4
0
POLYLINE
8
OBJECT__5
66
1
70
64
71
140
72
194
62
253
0
VERTEX
8
OBJECT__5
10
-6.020000
20
-32.528999
30
37.513000
70
192
0
VERTEX
8
OBJECT__5
10
0.000000
20
-33.081001
30
37.513000
70
192
0
VERTEX
8
OBJECT__5
10
0.000000
20
-25.392000
30
44.925999
70
192
0
VERTEX
8
OBJECT__5
10
24.968000
20
-4.620000
30
44.925999
70
192
0
VERTEX
8
OBJECT__5
10
32.528999
20
-6.020000
30
37.513000
70
192
0
VERTEX
8
OBJECT__5
10
29.424999
20
0.000000
30
40.459000
70
192
0
VERTEX
8
OBJECT__5
10
33.153000
20
0.000000
30
37.606998
70
192
0
VERTEX
8
OBJECT__5
10
25.825001
20
0.000000
30
44.342999
70
192
0
VERTEX
8
OBJECT__5
10
0.000000
20
-42.465000
30
31.681999
70
192
0
VERTEX
8
OBJECT__5
10
-7.727000
20
-41.756001
30
31.681999
70
192
0
VERTEX
8
OBJECT__5
10
-5.646000
20
-57.047001
30
25.712999
70
192
0
VERTEX
8
OBJECT__5
10
-10.394000
20
-56.167999
30
25.712999
70
192
0
VERTEX
8
OBJECT__5
10
41.756001
20
-7.727000
30
31.681999
70
192
0
VERTEX
8
OBJECT__5
10
56.248001
20
-10.402000
30
25.712999
70
192
0
VERTEX
8
OBJECT__5
10
51.813000
20
0.000000
30
27.634001
70
192
0
VERTEX
8
OBJECT__5
10
56.669998
20
-8.644000
30
25.712999
70
192
0
VERTEX
8
OBJECT__5
10
57.326000
20
0.000000
30
25.712999
70
192
0
VERTEX
8
OBJECT__5
10
42.792999
20
0.000000
30
31.514999
70
192
0
VERTEX
8
OBJECT__5
10
-8.281000
20
-20.917000
30
50.073002
70
192
0
VERTEX
8
OBJECT__5
10
-9.347000
20
-23.608999
30
44.925999
70
192
0
VERTEX
8
OBJECT__5
10
-4.620000
20
-24.968000
30
44.925999
70
192
0
VERTEX
8
OBJECT__5
10
0.000000
20
-22.496000
30
50.073002
70
192
0
VERTEX
8
OBJECT__5
10
-23.392000
20
-23.392000
30
37.513000
70
192
0
VERTEX
8
OBJECT__5
10
-17.955000
20
-17.955000
30
44.925999
70
192
0
VERTEX
8
OBJECT__5
10
-21.253000
20
-13.895000
30
44.925999
70
192
0
VERTEX
8
OBJECT__5
10
-18.101999
20
-27.688999
30
37.513000
70
192
0
VERTEX
8
OBJECT__5
10
-12.177000
20
-30.759001
30
37.513000
70
192
0
VERTEX
8
OBJECT__5
10
-13.895000
20
-21.253000
30
44.925999
70
192
0
VERTEX
8
OBJECT__5
10
-30.759001
20
-12.177000
30
37.513000
70
192
0
VERTEX
8
OBJECT__5
10
-23.608999
20
-9.347000
30
44.925999
70
192
0
VERTEX
8
OBJECT__5
10
-24.968000
20
-4.620000
30
44.925999
70
192
0
VERTEX
8
OBJECT__5
10
-27.688999
20
-18.101999
30
37.513000
70
192
0
VERTEX
8
OBJECT__5
10
-26.474001
20
0.000000
30
43.528000
70
192
0
VERTEX
8
OBJECT__5
10
-30.599001
20
0.000000
30
39.438999
70
192
0
VERTEX
8
OBJECT__5
10
-32.528999
20
-6.020000
30
37.513000
70
192
0
VERTEX
8
OBJECT__5
10
-25.504999
20
0.000000
30
45.000000
70
192
0
VERTEX
8
OBJECT__5
10
-15.907000
20
-15.907000
30
50.073002
70
192
0
VERTEX
8
OBJECT__5
10
-18.829000
20
-12.310000
30
50.073002
70
192
0
VERTEX
8
OBJECT__5
10
-2.376000
20
-20.385000
30
56.659000
70
192
0
VERTEX
8
OBJECT__5
10
-0.235000
20
-20.521999
30
56.659000
70
192
0
VERTEX
8
OBJECT__5
10
-7.015000
20
-19.287001
30
56.659000
70
192
0
VERTEX
8
OBJECT__5
10
-12.310000
20
-18.829000
30
50.073002
70
192
0
VERTEX
8
OBJECT__5
10
-8.990000
20
-18.450001
30
56.659000
70
192
0
VERTEX
8
OBJECT__5
10
-13.004000
20
-15.878000
30
56.659000
70
192
0
VERTEX
8
OBJECT__5
10
-7.546000
20
-19.062000
30
56.659000
70
192
0
VERTEX
8
OBJECT__5
10
-17.525999
20
-10.679000
30
56.659000
70
192
0
VERTEX
8
OBJECT__5
10
-18.545000
20
-8.791000
30
56.659000
70
192
0
VERTEX
8
OBJECT__5
10
-14.590000
20
-14.434000
30
56.659000
70
192
0
VERTEX
8
OBJECT__5
10
-14.509000
20
-14.508000
30
56.659000
70
192
0
VERTEX
8
OBJECT__5
10
-20.917000
20
-8.281000
30
50.073002
70
192
0
VERTEX
8
OBJECT__5
10
-23.302000
20
0.000000
30
48.346001
70
192
0
VERTEX
8
OBJECT__5
10
-22.622999
20
0.000000
30
50.122002
70
192
0
VERTEX
8
OBJECT__5
10
23.392000
20
-23.392000
30
37.513000
70
192
0
VERTEX
8
OBJECT__5
10
17.955000
20
-17.955000
30
44.925999
70
192
0
VERTEX
8
OBJECT__5
10
13.895000
20
-21.253000
30
44.925999
70
192
0
VERTEX
8
OBJECT__5
10
23.056000
20
0.000000
30
48.841000
70
192
0
VERTEX
8
OBJECT__5
10
20.917000
20
-8.281000
30
50.073002
70
192
0
VERTEX
8
OBJECT__5
10
23.608999
20
-9.347000
30
44.925999
70
192
0
VERTEX
8
OBJECT__5
10
25.445999
20
0.000000
30
44.959000
70
192
0
VERTEX
8
OBJECT__5
10
27.688999
20
-18.101999
30
37.513000
70
192
0
VERTEX
8
OBJECT__5
10
30.759001
20
-12.177000
30
37.513000
70
192
0
VERTEX
8
OBJECT__5
10
21.253000
20
-13.895000
30
44.925999
70
192
0
VERTEX
8
OBJECT__5
10
19.969999
20
-4.734000
30
56.659000
70
192
0
VERTEX
8
OBJECT__5
10
21.000000
20
0.000000
30
54.530998
70
192
0
VERTEX
8
OBJECT__5
10
20.750000
20
0.000000
30
55.576000
70
192
0
VERTEX
8
OBJECT__5
10
22.598000
20
0.000000
30
50.110001
70
192
0
VERTEX
8
OBJECT__5
10
20.523001
20
0.000000
30
56.659000
70
192
0
VERTEX
8
OBJECT__5
10
19.365999
20
-6.793000
30
56.659000
70
192
0
VERTEX
8
OBJECT__5
10
15.907000
20
-15.907000
30
50.073002
70
192
0
VERTEX
8
OBJECT__5
10
18.829000
20
-12.310000
30
50.073002
70
192
0
VERTEX
8
OBJECT__5
10
16.025999
20
-12.821000
30
56.659000
70
192
0
VERTEX
8
OBJECT__5
10
19.011999
20
-7.520000
30
56.659000
70
192
0
VERTEX
8
OBJECT__5
10
17.277000
20
-11.078000
30
56.659000
70
192
0
VERTEX
8
OBJECT__5
10
12.310000
20
-18.829000
30
50.073002
70
192
0
VERTEX
8
OBJECT__5
10
12.177000
20
-30.759001
30
37.513000
70
192
0
VERTEX
8
OBJECT__5
10
9.347000
20
-23.608999
30
44.925999
70
192
0
VERTEX
8
OBJECT__5
10
4.620000
20
-24.968000
30
44.925999
70
192
0
VERTEX
8
OBJECT__5
10
18.101999
20
-27.688999
30
37.513000
70
192
0
VERTEX
8
OBJECT__5
10
6.020000
20
-32.528999
30
37.513000
70
192
0
VERTEX
8
OBJECT__5
10
8.281000
20
-20.917000
30
50.073002
70
192
0
VERTEX
8
OBJECT__5
10
10.879000
20
-17.403000
30
56.659000
70
192
0
VERTEX
8
OBJECT__5
10
12.636000
20
-16.172001
30
56.659000
70
192
0
VERTEX
8
OBJECT__5
10
14.415000
20
-14.414000
30
56.659000
70
192
0
VERTEX
8
OBJECT__5
10
4.505000
20
-20.023001
30
56.659000
70
192
0
VERTEX
8
OBJECT__5
10
6.571000
20
-19.443001
30
56.659000
70
192
0
VERTEX
8
OBJECT__5
10
7.514000
20
-18.996000
30
56.659000
70
192
0
VERTEX
8
OBJECT__5
10
42.477001
20
0.000000
30
31.702000
70
192
0
VERTEX
8
OBJECT__5
10
35.375000
20
0.000000
30
35.908001
70
192
0
VERTEX
8
OBJECT__5
10
38.852001
20
-42.151001
30
25.712999
70
192
0
VERTEX
8
OBJECT__5
10
30.027000
20
-30.027000
30
31.681999
70
192
0
VERTEX
8
OBJECT__5
10
23.237000
20
-35.542999
30
31.681999
70
192
0
VERTEX
8
OBJECT__5
10
31.228001
20
-48.073002
30
25.712999
70
192
0
VERTEX
8
OBJECT__5
10
39.484001
20
-15.631000
30
31.681999
70
192
0
VERTEX
8
OBJECT__5
10
35.542999
20
-23.237000
30
31.681999
70
192
0
VERTEX
8
OBJECT__5
10
50.613998
20
-26.915001
30
25.712999
70
192
0
VERTEX
8
OBJECT__5
10
47.811001
20
-31.259001
30
25.712999
70
192
0
VERTEX
8
OBJECT__5
10
54.416000
20
-18.031000
30
25.712999
70
192
0
VERTEX
8
OBJECT__5
10
53.132999
20
-21.028999
30
25.712999
70
192
0
VERTEX
8
OBJECT__5
10
40.424999
20
-40.433998
30
25.712999
70
192
0
VERTEX
8
OBJECT__5
10
45.380001
20
-35.027000
30
25.712999
70
192
0
VERTEX
8
OBJECT__5
10
13.555000
20
-55.700001
30
25.712999
70
192
0
VERTEX
8
OBJECT__5
10
21.063000
20
-53.187000
30
25.712999
70
192
0
VERTEX
8
OBJECT__5
10
15.631000
20
-39.484001
30
31.681999
70
192
0
VERTEX
8
OBJECT__5
10
7.727000
20
-41.756001
30
31.681999
70
192
0
VERTEX
8
OBJECT__5
10
10.403000
20
-56.189999
30
25.712999
70
192
0
VERTEX
8
OBJECT__5
10
22.709999
20
-52.634998
30
25.712999
70
192
0
VERTEX
8
OBJECT__5
10
4.007000
20
-57.185001
30
25.712999
70
192
0
VERTEX
8
OBJECT__5
10
0.003000
20
-57.127998
30
25.712999
70
192
0
VERTEX
8
OBJECT__5
10
-30.027000
20
-30.027000
30
31.681999
70
192
0
VERTEX
8
OBJECT__5
10
-35.542999
20
-23.237000
30
31.681999
70
192
0
VERTEX
8
OBJECT__5
10
-44.583000
20
-36.035999
30
25.712999
70
192
0
VERTEX
8
OBJECT__5
10
-47.941002
20
-31.340000
30
25.712999
70
192
0
VERTEX
8
OBJECT__5
10
-30.142000
20
-48.762001
30
25.712999
70
192
0
VERTEX
8
OBJECT__5
10
-21.540001
20
-53.125000
30
25.712999
70
192
0
VERTEX
8
OBJECT__5
10
-15.631000
20
-39.484001
30
31.681999
70
192
0
VERTEX
8
OBJECT__5
10
-23.237000
20
-35.542999
30
31.681999
70
192
0
VERTEX
8
OBJECT__5
10
-31.306999
20
-47.897999
30
25.712999
70
192
0
VERTEX
8
OBJECT__5
10
-21.093000
20
-53.276001
30
25.712999
70
192
0
VERTEX
8
OBJECT__5
10
-15.148000
20
-55.287998
30
25.712999
70
192
0
VERTEX
8
OBJECT__5
10
-37.896999
20
-43.012001
30
25.712999
70
192
0
VERTEX
8
OBJECT__5
10
-40.396999
20
-40.403000
30
25.712999
70
192
0
VERTEX
8
OBJECT__5
10
-55.882000
20
-12.785000
30
25.712999
70
192
0
VERTEX
8
OBJECT__5
10
-53.231998
20
-21.079000
30
25.712999
70
192
0
VERTEX
8
OBJECT__5
10
-39.484001
20
-15.631000
30
31.681999
70
192
0
VERTEX
8
OBJECT__5
10
-41.756001
20
-7.727000
30
31.681999
70
192
0
VERTEX
8
OBJECT__5
10
-56.217999
20
-10.410000
30
25.712999
70
192
0
VERTEX
8
OBJECT__5
10
-48.508999
20
-30.547001
30
25.712999
70
192
0
VERTEX
8
OBJECT__5
10
-52.944000
20
-21.981001
30
25.712999
70
192
0
VERTEX
8
OBJECT__5
10
-45.909000
20
0.000000
30
30.034000
70
192
0
VERTEX
8
OBJECT__5
10
-57.326000
20
0.000000
30
25.712999
70
192
0
VERTEX
8
OBJECT__5
10
-57.235001
20
-3.218000
30
25.712999
70
192
0
VERTEX
8
OBJECT__5
10
-42.529999
20
0.000000
30
31.806000
70
192
0
VERTEX
8
OBJECT__5
10
-33.165001
20
0.000000
30
37.632000
70
192
0
VERTEX
8
OBJECT__5
10
-38.250000
20
0.000000
30
34.049999
70
192
0
VERTEX
8
OBJECT__5
10
-20.410000
20
-2.157000
30
56.659000
70
192
0
VERTEX
8
OBJECT__5
10
-20.521999
20
-0.241000
30
56.659000
70
192
0
VERTEX
8
OBJECT__5
10
-21.000000
20
0.000000
30
54.530998
70
192
0
VERTEX
8
OBJECT__5
10
-21.141001
20
0.000000
30
53.997002
70
192
0
VERTEX
8
OBJECT__5
10
-20.073000
20
-4.275000
30
56.659000
70
192
0
VERTEX
8
OBJECT__5
10
-18.976000
20
-7.518000
30
56.659000
70
192
0
VERTEX
8
OBJECT__5
10
0
20
0
30
0
70
128
71
1
72
2
73
3
0
VERTEX
8
OBJECT__5
10
0
20
0
30
0
70
128
71
4
72
5
73
6
0
VERTEX
8
OBJECT__5
10
0
20
0
30
0
70
128
71
5
72
7
73
6
0
VERTEX
8
OBJECT__5
10
0
20
0
30
0
70
128
71
6
72
8
73
4
0
VERTEX
8
OBJECT__5
10
0
20
0
30
0
70
128
71
9
72
10
73
11
0
VERTEX
8
OBJECT__5
10
0
20
0
30
0
70
128
71
10
72
12
73
11
0
VERTEX
8
OBJECT__5
10
0
20
0
30
0
70
128
71
13
72
14
73
15
0
VERTEX
8
OBJECT__5
10
0
20
0
30
0
70
128
71
15
72
14
73
16
0
VERTEX
8
OBJECT__5
10
0
20
0
30
0
70
128
71
16
72
17
73
15
0
VERTEX
8
OBJECT__5
10
0
20
0
30
0
70
128
71
15
72
18
73
13
0
VERTEX
8
OBJECT__5
10
0
20
0
30
0
70
128
71
19
72
20
73
21
0
VERTEX
8
OBJECT__5
10
0
20
0
30
0
70
128
71
21
72
22
73
19
0
VERTEX
8
OBJECT__5
10
0
20
0
30
0
70
128
71
23
72
24
73
25
0
VERTEX
8
OBJECT__5
10
0
20
0
30
0
70
128
71
26
72
27
73
20
0
VERTEX
8
OBJECT__5
10
0
20
0
30
0
70
128
71
27
72
1
73
21
0
VERTEX
8
OBJECT__5
10
0
20
0
30
0
70
128
71
23
72
26
73
28
0
VERTEX
8
OBJECT__5
10
0
20
0
30
0
70
128
71
29
72
30
73
31
0
VERTEX
8
OBJECT__5
10
0
20
0
30
0
70
128
71
32
72
25
73
30
0
VERTEX
8
OBJECT__5
10
0
20
0
30
0
70
128
71
31
72
33
73
34
0
VERTEX
8
OBJECT__5
10
0
20
0
30
0
70
128
71
34
72
35
73
31
0
VERTEX
8
OBJECT__5
10
0
20
0
30
0
70
128
71
31
72
36
73
33
0
VERTEX
8
OBJECT__5
10
0
20
0
30
0
70
128
71
24
72
37
73
38
0
VERTEX
8
OBJECT__5
10
0
20
0
30
0
70
128
71
19
72
22
73
39
0
VERTEX
8
OBJECT__5
10
0
20
0
30
0
70
128
71
22
72
40
73
39
0
VERTEX
8
OBJECT__5
10
0
20
0
30
0
70
128
71
39
72
41
73
19
0
VERTEX
8
OBJECT__5
10
0
20
0
30
0
70
128
71
28
72
20
73
19
0
VERTEX
8
OBJECT__5
10
0
20
0
30
0
70
128
71
24
72
28
73
42
0
VERTEX
8
OBJECT__5
10
0
20
0
30
0
70
128
71
42
72
19
73
43
0
VERTEX
8
OBJECT__5
10
0
20
0
30
0
70
128
71
44
72
37
73
42
0
VERTEX
8
OBJECT__5
10
0
20
0
30
0
70
128
71
43
72
44
73
42
0
VERTEX
8
OBJECT__5
10
0
20
0
30
0
70
128
71
19
72
45
73
43
0
VERTEX
8
OBJECT__5
10
0
20
0
30
0
70
128
71
38
72
46
73
47
0
VERTEX
8
OBJECT__5
10
0
20
0
30
0
70
128
71
48
72
46
73
38
0
VERTEX
8
OBJECT__5
10
0
20
0
30
0
70
128
71
38
72
37
73
48
0
VERTEX
8
OBJECT__5
10
0
20
0
30
0
70
128
71
37
72
49
73
48
0
VERTEX
8
OBJECT__5
10
0
20
0
30
0
70
128
71
47
72
50
73
38
0
VERTEX
8
OBJECT__5
10
0
20
0
30
0
70
128
71
51
72
36
73
31
0
VERTEX
8
OBJECT__5
10
0
20
0
30
0
70
128
71
31
72
50
73
51
0
VERTEX
8
OBJECT__5
10
0
20
0
30
0
70
128
71
50
72
52
73
51
0
VERTEX
8
OBJECT__5
10
0
20
0
30
0
70
128
71
25
72
38
73
50
0
VERTEX
8
OBJECT__5
10
0
20
0
30
0
70
128
71
53
72
54
73
55
0
VERTEX
8
OBJECT__5
10
0
20
0
30
0
70
128
71
56
72
57
73
4
0
VERTEX
8
OBJECT__5
10
0
20
0
30
0
70
128
71
57
72
58
73
4
0
VERTEX
8
OBJECT__5
10
0
20
0
30
0
70
128
71
4
72
59
73
56
0
VERTEX
8
OBJECT__5
10
0
20
0
30
0
70
128
71
60
72
61
73
58
0
VERTEX
8
OBJECT__5
10
0
20
0
30
0
70
128
71
61
72
5
73
4
0
VERTEX
8
OBJECT__5
10
0
20
0
30
0
70
128
71
53
72
60
73
62
0
VERTEX
8
OBJECT__5
10
0
20
0
30
0
70
128
71
62
72
58
73
57
0
VERTEX
8
OBJECT__5
10
0
20
0
30
0
70
128
71
63
72
64
73
65
0
VERTEX
8
OBJECT__5
10
0
20
0
30
0
70
128
71
57
72
66
73
64
0
VERTEX
8
OBJECT__5
10
0
20
0
30
0
70
128
71
64
72
63
73
57
0
VERTEX
8
OBJECT__5
10
0
20
0
30
0
70
128
71
65
72
67
73
63
0
VERTEX
8
OBJECT__5
10
0
20
0
30
0
70
128
71
63
72
68
73
57
0
VERTEX
8
OBJECT__5
10
0
20
0
30
0
70
128
71
69
72
70
73
71
0
VERTEX
8
OBJECT__5
10
0
20
0
30
0
70
128
71
57
72
72
73
73
0
VERTEX
8
OBJECT__5
10
0
20
0
30
0
70
128
71
73
72
70
73
57
0
VERTEX
8
OBJECT__5
10
0
20
0
30
0
70
128
71
73
72
71
73
70
0
VERTEX
8
OBJECT__5
10
0
20
0
30
0
70
128
71
54
72
62
73
70
0
VERTEX
8
OBJECT__5
10
0
20
0
30
0
70
128
71
54
72
69
73
74
0
VERTEX
8
OBJECT__5
10
0
20
0
30
0
70
128
71
75
72
76
73
77
0
VERTEX
8
OBJECT__5
10
0
20
0
30
0
70
128
71
78
72
55
73
76
0
VERTEX
8
OBJECT__5
10
0
20
0
30
0
70
128
71
79
72
77
73
3
0
VERTEX
8
OBJECT__5
10
0
20
0
30
0
70
128
71
80
72
22
73
77
0
VERTEX
8
OBJECT__5
10
0
20
0
30
0
70
128
71
22
72
3
73
77
0
VERTEX
8
OBJECT__5
10
0
20
0
30
0
70
128
71
80
72
74
73
81
0
VERTEX
8
OBJECT__5
10
0
20
0
30
0
70
128
71
74
72
82
73
81
0
VERTEX
8
OBJECT__5
10
0
20
0
30
0
70
128
71
69
72
83
73
82
0
VERTEX
8
OBJECT__5
10
0
20
0
30
0
70
128
71
82
72
74
73
69
0
VERTEX
8
OBJECT__5
10
0
20
0
30
0
70
128
71
55
72
74
73
80
0
VERTEX
8
OBJECT__5
10
0
20
0
30
0
70
128
71
22
72
80
73
84
0
VERTEX
8
OBJECT__5
10
0
20
0
30
0
70
128
71
80
72
85
73
84
0
VERTEX
8
OBJECT__5
10
0
20
0
30
0
70
128
71
80
72
86
73
85
0
VERTEX
8
OBJECT__5
10
0
20
0
30
0
70
128
71
13
72
87
73
88
0
VERTEX
8
OBJECT__5
10
0
20
0
30
0
70
128
71
88
72
5
73
13
0
VERTEX
8
OBJECT__5
10
0
20
0
30
0
70
128
71
89
72
90
73
91
0
VERTEX
8
OBJECT__5
10
0
20
0
30
0
70
128
71
91
72
92
73
89
0
VERTEX
8
OBJECT__5
10
0
20
0
30
0
70
128
71
93
72
94
73
95
0
VERTEX
8
OBJECT__5
10
0
20
0
30
0
70
128
71
94
72
96
73
95
0
VERTEX
8
OBJECT__5
10
0
20
0
30
0
70
128
71
97
72
14
73
13
0
VERTEX
8
OBJECT__5
10
0
20
0
30
0
70
128
71
93
72
98
73
97
0
VERTEX
8
OBJECT__5
10
0
20
0
30
0
70
128
71
90
72
99
73
100
0
VERTEX
8
OBJECT__5
10
0
20
0
30
0
70
128
71
100
72
94
73
90
0
VERTEX
8
OBJECT__5
10
0
20
0
30
0
70
128
71
101
72
102
73
103
0
VERTEX
8
OBJECT__5
10
0
20
0
30
0
70
128
71
104
72
105
73
101
0
VERTEX
8
OBJECT__5
10
0
20
0
30
0
70
128
71
106
72
92
73
91
0
VERTEX
8
OBJECT__5
10
0
20
0
30
0
70
128
71
103
72
102
73
106
0
VERTEX
8
OBJECT__5
10
0
20
0
30
0
70
128
71
104
72
9
73
107
0
VERTEX
8
OBJECT__5
10
0
20
0
30
0
70
128
71
9
72
108
73
107
0
VERTEX
8
OBJECT__5
10
0
20
0
30
0
70
128
71
90
72
53
73
78
0
VERTEX
8
OBJECT__5
10
0
20
0
30
0
70
128
71
94
72
93
73
61
0
VERTEX
8
OBJECT__5
10
0
20
0
30
0
70
128
71
93
72
13
73
5
0
VERTEX
8
OBJECT__5
10
0
20
0
30
0
70
128
71
90
72
94
73
60
0
VERTEX
8
OBJECT__5
10
0
20
0
30
0
70
128
71
103
72
75
73
79
0
VERTEX
8
OBJECT__5
10
0
20
0
30
0
70
128
71
91
72
78
73
75
0
VERTEX
8
OBJECT__5
10
0
20
0
30
0
70
128
71
104
72
79
73
2
0
VERTEX
8
OBJECT__5
10
0
20
0
30
0
70
128
71
109
72
110
73
111
0
VERTEX
8
OBJECT__5
10
0
20
0
30
0
70
128
71
110
72
112
73
111
0
VERTEX
8
OBJECT__5
10
0
20
0
30
0
70
128
71
10
72
9
73
2
0
VERTEX
8
OBJECT__5
10
0
20
0
30
0
70
128
71
113
72
114
73
115
0
VERTEX
8
OBJECT__5
10
0
20
0
30
0
70
128
71
116
72
117
73
113
0
VERTEX
8
OBJECT__5
10
0
20
0
30
0
70
128
71
115
72
116
73
113
0
VERTEX
8
OBJECT__5
10
0
20
0
30
0
70
128
71
115
72
118
73
119
0
VERTEX
8
OBJECT__5
10
0
20
0
30
0
70
128
71
119
72
10
73
115
0
VERTEX
8
OBJECT__5
10
0
20
0
30
0
70
128
71
120
72
117
73
116
0
VERTEX
8
OBJECT__5
10
0
20
0
30
0
70
128
71
109
72
121
73
120
0
VERTEX
8
OBJECT__5
10
0
20
0
30
0
70
128
71
116
72
115
73
27
0
VERTEX
8
OBJECT__5
10
0
20
0
30
0
70
128
71
115
72
10
73
1
0
VERTEX
8
OBJECT__5
10
0
20
0
30
0
70
128
71
109
72
116
73
26
0
VERTEX
8
OBJECT__5
10
0
20
0
30
0
70
128
71
109
72
23
73
32
0
VERTEX
8
OBJECT__5
10
0
20
0
30
0
70
128
71
122
72
123
73
124
0
VERTEX
8
OBJECT__5
10
0
20
0
30
0
70
128
71
125
72
126
73
122
0
VERTEX
8
OBJECT__5
10
0
20
0
30
0
70
128
71
127
72
110
73
124
0
VERTEX
8
OBJECT__5
10
0
20
0
30
0
70
128
71
124
72
123
73
128
0
VERTEX
8
OBJECT__5
10
0
20
0
30
0
70
128
71
124
72
128
73
127
0
VERTEX
8
OBJECT__5
10
0
20
0
30
0
70
128
71
126
72
125
73
129
0
VERTEX
8
OBJECT__5
10
0
20
0
30
0
70
128
71
129
72
130
73
131
0
VERTEX
8
OBJECT__5
10
0
20
0
30
0
70
128
71
125
72
132
73
129
0
VERTEX
8
OBJECT__5
10
0
20
0
30
0
70
128
71
124
72
29
73
35
0
VERTEX
8
OBJECT__5
10
0
20
0
30
0
70
128
71
110
72
32
73
29
0
VERTEX
8
OBJECT__5
10
0
20
0
30
0
70
128
71
35
72
133
73
134
0
VERTEX
8
OBJECT__5
10
0
20
0
30
0
70
128
71
134
72
125
73
35
0
VERTEX
8
OBJECT__5
10
0
20
0
30
0
70
128
71
135
72
136
73
137
0
VERTEX
8
OBJECT__5
10
0
20
0
30
0
70
128
71
137
72
138
73
135
0
VERTEX
8
OBJECT__5
10
0
20
0
30
0
70
128
71
52
72
50
73
139
0
VERTEX
8
OBJECT__5
10
0
20
0
30
0
70
128
71
139
72
135
73
52
0
VERTEX
8
OBJECT__5
10
0
20
0
30
0
70
128
71
50
72
140
73
139
0
VERTEX
8
OBJECT__5
10
0
20
0
30
0
70
128
71
138
72
52
73
135
0
VERTEX
8
OBJECT__5
10
0
20
0
30
0
70
128
71
134
72
132
73
125
0
VERTEX
8
OBJECT__5
10
0
20
0
30
0
70
128
71
29
72
124
73
110
0
VERTEX
8
OBJECT__5
10
0
20
0
30
0
70
128
71
35
72
125
73
124
0
VERTEX
8
OBJECT__5
10
0
20
0
30
0
70
128
71
129
72
131
73
126
0
VERTEX
8
OBJECT__5
10
0
20
0
30
0
70
128
71
127
72
112
73
110
0
VERTEX
8
OBJECT__5
10
0
20
0
30
0
70
128
71
124
72
125
73
122
0
VERTEX
8
OBJECT__5
10
0
20
0
30
0
70
128
71
32
72
110
73
109
0
VERTEX
8
OBJECT__5
10
0
20
0
30
0
70
128
71
26
72
23
73
109
0
VERTEX
8
OBJECT__5
10
0
20
0
30
0
70
128
71
1
72
27
73
115
0
VERTEX
8
OBJECT__5
10
0
20
0
30
0
70
128
71
27
72
26
73
116
0
VERTEX
8
OBJECT__5
10
0
20
0
30
0
70
128
71
116
72
109
73
120
0
VERTEX
8
OBJECT__5
10
0
20
0
30
0
70
128
71
119
72
12
73
10
0
VERTEX
8
OBJECT__5
10
0
20
0
30
0
70
128
71
114
72
118
73
115
0
VERTEX
8
OBJECT__5
10
0
20
0
30
0
70
128
71
2
72
1
73
10
0
VERTEX
8
OBJECT__5
10
0
20
0
30
0
70
128
71
111
72
121
73
109
0
VERTEX
8
OBJECT__5
10
0
20
0
30
0
70
128
71
2
72
9
73
104
0
VERTEX
8
OBJECT__5
10
0
20
0
30
0
70
128
71
75
72
103
73
91
0
VERTEX
8
OBJECT__5
10
0
20
0
30
0
70
128
71
79
72
104
73
103
0
VERTEX
8
OBJECT__5
10
0
20
0
30
0
70
128
71
60
72
53
73
90
0
VERTEX
8
OBJECT__5
10
0
20
0
30
0
70
128
71
5
72
61
73
93
0
VERTEX
8
OBJECT__5
10
0
20
0
30
0
70
128
71
61
72
60
73
94
0
VERTEX
8
OBJECT__5
10
0
20
0
30
0
70
128
71
78
72
91
73
90
0
VERTEX
8
OBJECT__5
10
0
20
0
30
0
70
128
71
107
72
105
73
104
0
VERTEX
8
OBJECT__5
10
0
20
0
30
0
70
128
71
91
72
103
73
106
0
VERTEX
8
OBJECT__5
10
0
20
0
30
0
70
128
71
103
72
104
73
101
0
VERTEX
8
OBJECT__5
10
0
20
0
30
0
70
128
71
100
72
96
73
94
0
VERTEX
8
OBJECT__5
10
0
20
0
30
0
70
128
71
13
72
93
73
97
0
VERTEX
8
OBJECT__5
10
0
20
0
30
0
70
128
71
95
72
98
73
93
0
VERTEX
8
OBJECT__5
10
0
20
0
30
0
70
128
71
89
72
99
73
90
0
VERTEX
8
OBJECT__5
10
0
20
0
30
0
70
128
71
88
72
7
73
5
0
VERTEX
8
OBJECT__5
10
0
20
0
30
0
70
128
71
84
72
40
73
22
0
VERTEX
8
OBJECT__5
10
0
20
0
30
0
70
128
71
80
72
76
73
55
0
VERTEX
8
OBJECT__5
10
0
20
0
30
0
70
128
71
81
72
86
73
80
0
VERTEX
8
OBJECT__5
10
0
20
0
30
0
70
128
71
77
72
76
73
80
0
VERTEX
8
OBJECT__5
10
0
20
0
30
0
70
128
71
3
72
2
73
79
0
VERTEX
8
OBJECT__5
10
0
20
0
30
0
70
128
71
76
72
75
73
78
0
VERTEX
8
OBJECT__5
10
0
20
0
30
0
70
128
71
77
72
79
73
75
0
VERTEX
8
OBJECT__5
10
0
20
0
30
0
70
128
71
74
72
55
73
54
0
VERTEX
8
OBJECT__5
10
0
20
0
30
0
70
128
71
70
72
69
73
54
0
VERTEX
8
OBJECT__5
10
0
20
0
30
0
70
128
71
71
72
83
73
69
0
VERTEX
8
OBJECT__5
10
0
20
0
30
0
70
128
71
68
72
72
73
57
0
VERTEX
8
OBJECT__5
10
0
20
0
30
0
70
128
71
57
72
70
73
62
0
VERTEX
8
OBJECT__5
10
0
20
0
30
0
70
128
71
62
72
54
73
53
0
VERTEX
8
OBJECT__5
10
0
20
0
30
0
70
128
71
4
72
58
73
61
0
VERTEX
8
OBJECT__5
10
0
20
0
30
0
70
128
71
58
72
62
73
60
0
VERTEX
8
OBJECT__5
10
0
20
0
30
0
70
128
71
56
72
66
73
57
0
VERTEX
8
OBJECT__5
10
0
20
0
30
0
70
128
71
55
72
78
73
53
0
VERTEX
8
OBJECT__5
10
0
20
0
30
0
70
128
71
50
72
30
73
25
0
VERTEX
8
OBJECT__5
10
0
20
0
30
0
70
128
71
31
72
30
73
50
0
VERTEX
8
OBJECT__5
10
0
20
0
30
0
70
128
71
47
72
140
73
50
0
VERTEX
8
OBJECT__5
10
0
20
0
30
0
70
128
71
44
72
49
73
37
0
VERTEX
8
OBJECT__5
10
0
20
0
30
0
70
128
71
42
72
37
73
24
0
VERTEX
8
OBJECT__5
10
0
20
0
30
0
70
128
71
19
72
42
73
28
0
VERTEX
8
OBJECT__5
10
0
20
0
30
0
70
128
71
41
72
45
73
19
0
VERTEX
8
OBJECT__5
10
0
20
0
30
0
70
128
71
38
72
25
73
24
0
VERTEX
8
OBJECT__5
10
0
20
0
30
0
70
128
71
34
72
133
73
35
0
VERTEX
8
OBJECT__5
10
0
20
0
30
0
70
128
71
30
72
29
73
32
0
VERTEX
8
OBJECT__5
10
0
20
0
30
0
70
128
71
31
72
35
73
29
0
VERTEX
8
OBJECT__5
10
0
20
0
30
0
70
128
71
28
72
24
73
23
0
VERTEX
8
OBJECT__5
10
0
20
0
30
0
70
128
71
21
72
20
73
27
0
VERTEX
8
OBJECT__5
10
0
20
0
30
0
70
128
71
20
72
28
73
26
0
VERTEX
8
OBJECT__5
10
0
20
0
30
0
70
128
71
25
72
32
73
23
0
VERTEX
8
OBJECT__5
10
0
20
0
30
0
70
128
71
21
72
3
73
22
0
VERTEX
8
OBJECT__5
10
0
20
0
30
0
70
128
71
18
72
87
73
13
0
VERTEX
8
OBJECT__5
10
0
20
0
30
0
70
128
71
11
72
108
73
9
0
VERTEX
8
OBJECT__5
10
0
20
0
30
0
70
128
71
8
72
59
73
4
0
VERTEX
8
OBJECT__5
10
0
20
0
30
0
70
128
71
3
72
21
73
1
0
SEQEND
8
OBJECT__5
0
POLYLINE
8
OBJECT__6
66
1
70
64
71
51
72
49
62
253
0
VERTEX
8
OBJECT__6
10
19.011999
20
-7.520000
30
56.659000
70
192
0
VERTEX
8
OBJECT__6
10
16.025999
20
12.821000
30
56.659000
70
192
0
VERTEX
8
OBJECT__6
10
14.600000
20
14.424000
30
56.659000
70
192
0
VERTEX
8
OBJECT__6
10
20.410999
20
2.143000
30
56.659000
70
192
0
VERTEX
8
OBJECT__6
10
19.365999
20
-6.793000
30
56.659000
70
192
0
VERTEX
8
OBJECT__6
10
-0.296000
20
20.385000
30
56.659000
70
192
0
VERTEX
8
OBJECT__6
10
-19.362000
20
6.807000
30
56.659000
70
192
0
VERTEX
8
OBJECT__6
10
-20.410000
20
2.157000
30
56.659000
70
192
0
VERTEX
8
OBJECT__6
10
-14.861000
20
14.130000
30
56.659000
70
192
0
VERTEX
8
OBJECT__6
10
-8.990000
20
18.450001
30
56.659000
70
192
0
VERTEX
8
OBJECT__6
10
-10.867000
20
17.410000
30
56.659000
70
192
0
VERTEX
8
OBJECT__6
10
-2.376000
20
20.385000
30
56.659000
70
192
0
VERTEX
8
OBJECT__6
10
18.551001
20
8.778000
30
56.659000
70
192
0
VERTEX
8
OBJECT__6
10
19.365999
20
6.793000
30
56.659000
70
192
0
VERTEX
8
OBJECT__6
10
19.969999
20
-4.734000
30
56.659000
70
192
0
VERTEX
8
OBJECT__6
10
14.369000
20
14.609000
30
56.659000
70
192
0
VERTEX
8
OBJECT__6
10
-0.235000
20
-20.521999
30
56.659000
70
192
0
VERTEX
8
OBJECT__6
10
4.505000
20
-20.023001
30
56.659000
70
192
0
VERTEX
8
OBJECT__6
10
-7.015000
20
-19.287001
30
56.659000
70
192
0
VERTEX
8
OBJECT__6
10
-2.376000
20
-20.385000
30
56.659000
70
192
0
VERTEX
8
OBJECT__6
10
-19.278000
20
7.010000
30
56.659000
70
192
0
VERTEX
8
OBJECT__6
10
-16.017000
20
12.832000
30
56.659000
70
192
0
VERTEX
8
OBJECT__6
10
-18.545000
20
8.791000
30
56.659000
70
192
0
VERTEX
8
OBJECT__6
10
-7.905000
20
18.830000
30
56.659000
70
192
0
VERTEX
8
OBJECT__6
10
-4.491000
20
20.025999
30
56.659000
70
192
0
VERTEX
8
OBJECT__6
10
19.025999
20
7.621000
30
56.659000
70
192
0
VERTEX
8
OBJECT__6
10
20.523001
20
0.000000
30
56.659000
70
192
0
VERTEX
8
OBJECT__6
10
16.025999
20
-12.821000
30
56.659000
70
192
0
VERTEX
8
OBJECT__6
10
17.277000
20
-11.078000
30
56.659000
70
192
0
VERTEX
8
OBJECT__6
10
-20.410000
20
-2.157000
30
56.659000
70
192
0
VERTEX
8
OBJECT__6
10
-20.073000
20
-4.275000
30
56.659000
70
192
0
VERTEX
8
OBJECT__6
10
-20.521999
20
-0.241000
30
56.659000
70
192
0
VERTEX
8
OBJECT__6
10
14.415000
20
-14.414000
30
56.659000
70
192
0
VERTEX
8
OBJECT__6
10
7.514000
20
-18.996000
30
56.659000
70
192
0
VERTEX
8
OBJECT__6
10
10.879000
20
-17.403000
30
56.659000
70
192
0
VERTEX
8
OBJECT__6
10
6.571000
20
-19.443001
30
56.659000
70
192
0
VERTEX
8
OBJECT__6
10
-14.509000
20
-14.508000
30
56.659000
70
192
0
VERTEX
8
OBJECT__6
10
-13.004000
20
-15.878000
30
56.659000
70
192
0
VERTEX
8
OBJECT__6
10
-17.525999
20
-10.679000
30
56.659000
70
192
0
VERTEX
8
OBJECT__6
10
-14.590000
20
-14.434000
30
56.659000
70
192
0
VERTEX
8
OBJECT__6
10
-18.976000
20
-7.518000
30
56.659000
70
192
0
VERTEX
8
OBJECT__6
10
-18.545000
20
-8.791000
30
56.659000
70
192
0
VERTEX
8
OBJECT__6
10
-14.590000
20
14.434000
30
56.659000
70
192
0
VERTEX
8
OBJECT__6
10
4.505000
20
20.023001
30
56.659000
70
192
0
VERTEX
8
OBJECT__6
10
2.390000
20
20.384001
30
56.659000
70
192
0
VERTEX
8
OBJECT__6
10
10.879000
20
17.403000
30
56.659000
70
192
0
VERTEX
8
OBJECT__6
10
9.003000
20
18.443001
30
56.659000
70
192
0
VERTEX
8
OBJECT__6
10
12.636000
20
-16.172001
30
56.659000
70
192
0
VERTEX
8
OBJECT__6
10
-7.546000
20
-19.062000
30
56.659000
70
192
0
VERTEX
8
OBJECT__6
10
-8.990000
20
-18.450001
30
56.659000
70
192
0
VERTEX
8
OBJECT__6
10
7.280000
20
19.048000
30
56.659000
70
192
0
VERTEX
8
OBJECT__6
10
0
20
0
30
0
70
128
71
1
72
2
73
3
0
VERTEX
8
OBJECT__6
10
0
20
0
30
0
70
128
71
4
72
1
73
5
0
VERTEX
8
OBJECT__6
10
0
20
0
30
0
70
128
71
6
72
7
73
8
0
VERTEX
8
OBJECT__6
10
0
20
0
30
0
70
128
71
9
72
10
73
11
0
VERTEX
8
OBJECT__6
10
0
20
0
30
0
70
128
71
9
72
6
73
12
0
VERTEX
8
OBJECT__6
10
0
20
0
30
0
70
128
71
1
72
13
73
2
0
VERTEX
8
OBJECT__6
10
0
20
0
30
0
70
128
71
1
72
4
73
14
0
VERTEX
8
OBJECT__6
10
0
20
0
30
0
70
128
71
5
72
15
73
4
0
VERTEX
8
OBJECT__6
10
0
20
0
30
0
70
128
71
16
72
17
73
18
0
VERTEX
8
OBJECT__6
10
0
20
0
30
0
70
128
71
16
72
19
73
20
0
VERTEX
8
OBJECT__6
10
0
20
0
30
0
70
128
71
6
72
21
73
7
0
VERTEX
8
OBJECT__6
10
0
20
0
30
0
70
128
71
6
72
22
73
23
0
VERTEX
8
OBJECT__6
10
0
20
0
30
0
70
128
71
9
72
24
73
10
0
VERTEX
8
OBJECT__6
10
0
20
0
30
0
70
128
71
12
72
25
73
9
0
VERTEX
8
OBJECT__6
10
0
20
0
30
0
70
128
71
1
72
26
73
13
0
VERTEX
8
OBJECT__6
10
0
20
0
30
0
70
128
71
15
72
27
73
4
0
VERTEX
8
OBJECT__6
10
0
20
0
30
0
70
128
71
16
72
28
73
29
0
VERTEX
8
OBJECT__6
10
0
20
0
30
0
70
128
71
20
72
17
73
16
0
VERTEX
8
OBJECT__6
10
0
20
0
30
0
70
128
71
6
72
30
73
31
0
VERTEX
8
OBJECT__6
10
0
20
0
30
0
70
128
71
8
72
32
73
6
0
VERTEX
8
OBJECT__6
10
0
20
0
30
0
70
128
71
6
72
9
73
22
0
VERTEX
8
OBJECT__6
10
0
20
0
30
0
70
128
71
25
72
24
73
9
0
VERTEX
8
OBJECT__6
10
0
20
0
30
0
70
128
71
14
72
26
73
1
0
VERTEX
8
OBJECT__6
10
0
20
0
30
0
70
128
71
16
72
33
73
28
0
VERTEX
8
OBJECT__6
10
0
20
0
30
0
70
128
71
16
72
34
73
35
0
VERTEX
8
OBJECT__6
10
0
20
0
30
0
70
128
71
18
72
36
73
16
0
VERTEX
8
OBJECT__6
10
0
20
0
30
0
70
128
71
16
72
37
73
38
0
VERTEX
8
OBJECT__6
10
0
20
0
30
0
70
128
71
6
72
39
73
40
0
VERTEX
8
OBJECT__6
10
0
20
0
30
0
70
128
71
6
72
41
73
42
0
VERTEX
8
OBJECT__6
10
0
20
0
30
0
70
128
71
32
72
30
73
6
0
VERTEX
8
OBJECT__6
10
0
20
0
30
0
70
128
71
11
72
43
73
9
0
VERTEX
8
OBJECT__6
10
0
20
0
30
0
70
128
71
37
72
44
73
45
0
VERTEX
8
OBJECT__6
10
0
20
0
30
0
70
128
71
37
72
46
73
47
0
VERTEX
8
OBJECT__6
10
0
20
0
30
0
70
128
71
29
72
1
73
16
0
VERTEX
8
OBJECT__6
10
0
20
0
30
0
70
128
71
35
72
48
73
16
0
VERTEX
8
OBJECT__6
10
0
20
0
30
0
70
128
71
16
72
49
73
19
0
VERTEX
8
OBJECT__6
10
0
20
0
30
0
70
128
71
38
72
50
73
16
0
VERTEX
8
OBJECT__6
10
0
20
0
30
0
70
128
71
42
72
39
73
6
0
VERTEX
8
OBJECT__6
10
0
20
0
30
0
70
128
71
23
72
21
73
6
0
VERTEX
8
OBJECT__6
10
0
20
0
30
0
70
128
71
37
72
51
73
44
0
VERTEX
8
OBJECT__6
10
0
20
0
30
0
70
128
71
37
72
16
73
46
0
VERTEX
8
OBJECT__6
10
0
20
0
30
0
70
128
71
48
72
33
73
16
0
VERTEX
8
OBJECT__6
10
0
20
0
30
0
70
128
71
50
72
49
73
16
0
VERTEX
8
OBJECT__6
10
0
20
0
30
0
70
128
71
31
72
41
73
6
0
VERTEX
8
OBJECT__6
10
0
20
0
30
0
70
128
71
47
72
51
73
37
0
VERTEX
8
OBJECT__6
10
0
20
0
30
0
70
128
71
36
72
34
73
16
0
VERTEX
8
OBJECT__6
10
0
20
0
30
0
70
128
71
45
72
6
73
37
0
VERTEX
8
OBJECT__6
10
0
20
0
30
0
70
128
71
40
72
37
73
6
0
VERTEX
8
OBJECT__6
10
0
20
0
30
0
70
128
71
3
72
16
73
1
0
SEQEND
8
OBJECT__6
0
POLYLINE
8
OBJECT__7
66
1
70
64
71
34
72
34
62
253
0
VERTEX
8
OBJECT__7
10
0.000000
20
-11.231000
30
55.512001
70
192
0
VERTEX
8
OBJECT__7
10
0.000000
20
-9.250000
30
57.493000
70
192
0
VERTEX
8
OBJECT__7
10
-4.625000
20
-8.011000
30
57.493000
70
192
0
VERTEX
8
OBJECT__7
10
-9.727000
20
-5.616000
30
55.512001
70
192
0
VERTEX
8
OBJECT__7
10
-5.616000
20
-9.727000
30
55.512001
70
192
0
VERTEX
8
OBJECT__7
10
-4.928000
20
-7.708000
30
57.493000
70
192
0
VERTEX
8
OBJECT__7
10
-11.231000
20
0.000000
30
55.512001
70
192
0
VERTEX
8
OBJECT__7
10
-8.233000
20
-3.794000
30
57.493000
70
192
0
VERTEX
8
OBJECT__7
10
-8.011000
20
-4.625000
30
57.493000
70
192
0
VERTEX
8
OBJECT__7
10
-9.727000
20
5.616000
30
55.512001
70
192
0
VERTEX
8
OBJECT__7
10
-8.915000
20
1.252000
30
57.493000
70
192
0
VERTEX
8
OBJECT__7
10
-9.250000
20
0.000000
30
57.493000
70
192
0
VERTEX
8
OBJECT__7
10
-5.616000
20
9.727000
30
55.512001
70
192
0
VERTEX
8
OBJECT__7
10
-6.784000
20
5.851000
30
57.493000
70
192
0
VERTEX
8
OBJECT__7
10
-8.011000
20
4.625000
30
57.493000
70
192
0
VERTEX
8
OBJECT__7
10
0.000000
20
11.231000
30
55.512001
70
192
0
VERTEX
8
OBJECT__7
10
-2.525000
20
8.573000
30
57.493000
70
192
0
VERTEX
8
OBJECT__7
10
-4.625000
20
8.011000
30
57.493000
70
192
0
VERTEX
8
OBJECT__7
10
0.000000
20
9.250000
30
57.493000
70
192
0
VERTEX
8
OBJECT__7
10
2.525000
20
8.573000
30
57.493000
70
192
0
VERTEX
8
OBJECT__7
10
5.616000
20
9.727000
30
55.512001
70
192
0
VERTEX
8
OBJECT__7
10
4.625000
20
8.011000
30
57.493000
70
192
0
VERTEX
8
OBJECT__7
10
6.784000
20
5.851000
30
57.493000
70
192
0
VERTEX
8
OBJECT__7
10
9.727000
20
5.616000
30
55.512001
70
192
0
VERTEX
8
OBJECT__7
10
8.011000
20
4.625000
30
57.493000
70
192
0
VERTEX
8
OBJECT__7
10
8.915000
20
1.252000
30
57.493000
70
192
0
VERTEX
8
OBJECT__7
10
11.231000
20
0.000000
30
55.512001
70
192
0
VERTEX
8
OBJECT__7
10
9.250000
20
0.000000
30
57.493000
70
192
0
VERTEX
8
OBJECT__7
10
8.233000
20
-3.794000
30
57.493000
70
192
0
VERTEX
8
OBJECT__7
10
9.727000
20
-5.616000
30
55.512001
70
192
0
VERTEX
8
OBJECT__7
10
8.011000
20
-4.625000
30
57.493000
70
192
0
VERTEX
8
OBJECT__7
10
4.928000
20
-7.708000
30
57.493000
70
192
0
VERTEX
8
OBJECT__7
10
5.616000
20
-9.727000
30
55.512001
70
192
0
VERTEX
8
OBJECT__7
10
4.625000
20
-8.011000
30
57.493000
70
192
0
VERTEX
8
OBJECT__7
10
0
20
0
30
0
70
128
71
1
72
2
73
3
0
VERTEX
8
OBJECT__7
10
0
20
0
30
0
70
128
71
4
72
5
73
6
0
VERTEX
8
OBJECT__7
10
0
20
0
30
0
70
128
71
5
72
3
73
6
0
VERTEX
8
OBJECT__7
10
0
20
0
30
0
70
128
71
7
72
4
73
8
0
VERTEX
8
OBJECT__7
10
0
20
0
30
0
70
128
71
4
72
9
73
8
0
VERTEX
8
OBJECT__7
10
0
20
0
30
0
70
128
71
10
72
7
73
11
0
VERTEX
8
OBJECT__7
10
0
20
0
30
0
70
128
71
7
72
12
73
11
0
VERTEX
8
OBJECT__7
10
0
20
0
30
0
70
128
71
13
72
10
73
14
0
VERTEX
8
OBJECT__7
10
0
20
0
30
0
70
128
71
10
72
15
73
14
0
VERTEX
8
OBJECT__7
10
0
20
0
30
0
70
128
71
16
72
13
73
17
0
VERTEX
8
OBJECT__7
10
0
20
0
30
0
70
128
71
13
72
18
73
17
0
VERTEX
8
OBJECT__7
10
0
20
0
30
0
70
128
71
16
72
19
73
20
0
VERTEX
8
OBJECT__7
10
0
20
0
30
0
70
128
71
20
72
21
73
16
0
VERTEX
8
OBJECT__7
10
0
20
0
30
0
70
128
71
21
72
22
73
23
0
VERTEX
8
OBJECT__7
10
0
20
0
30
0
70
128
71
23
72
24
73
21
0
VERTEX
8
OBJECT__7
10
0
20
0
30
0
70
128
71
24
72
25
73
26
0
VERTEX
8
OBJECT__7
10
0
20
0
30
0
70
128
71
26
72
27
73
24
0
VERTEX
8
OBJECT__7
10
0
20
0
30
0
70
128
71
27
72
28
73
29
0
VERTEX
8
OBJECT__7
10
0
20
0
30
0
70
128
71
29
72
30
73
27
0
VERTEX
8
OBJECT__7
10
0
20
0
30
0
70
128
71
30
72
31
73
32
0
VERTEX
8
OBJECT__7
10
0
20
0
30
0
70
128
71
32
72
33
73
30
0
VERTEX
8
OBJECT__7
10
0
20
0
30
0
70
128
71
1
72
33
73
34
0
VERTEX
8
OBJECT__7
10
0
20
0
30
0
70
128
71
34
72
2
73
1
0
VERTEX
8
OBJECT__7
10
0
20
0
30
0
70
128
71
32
72
34
73
33
0
VERTEX
8
OBJECT__7
10
0
20
0
30
0
70
128
71
29
72
31
73
30
0
VERTEX
8
OBJECT__7
10
0
20
0
30
0
70
128
71
26
72
28
73
27
0
VERTEX
8
OBJECT__7
10
0
20
0
30
0
70
128
71
23
72
25
73
24
0
VERTEX
8
OBJECT__7
10
0
20
0
30
0
70
128
71
20
72
22
73
21
0
VERTEX
8
OBJECT__7
10
0
20
0
30
0
70
128
71
17
72
19
73
16
0
VERTEX
8
OBJECT__7
10
0
20
0
30
0
70
128
71
14
72
18
73
13
0
VERTEX
8
OBJECT__7
10
0
20
0
30
0
70
128
71
11
72
15
73
10
0
VERTEX
8
OBJECT__7
10
0
20
0
30
0
70
128
71
8
72
12
73
7
0
VERTEX
8
OBJECT__7
10
0
20
0
30
0
70
128
71
6
72
9
73
4
0
VERTEX
8
OBJECT__7
10
0
20
0
30
0
70
128
71
3
72
5
73
1
0
SEQEND
8
OBJECT__7
0
POLYLINE
8
OBJECT__8
66
1
70
64
71
46
72
46
62
253
0
VERTEX
8
OBJECT__8
10
-4.886000
20
-7.638000
30
60.202999
70
192
0
VERTEX
8
OBJECT__8
10
-4.928000
20
-7.708000
30
57.493000
70
192
0
VERTEX
8
OBJECT__8
10
-4.625000
20
-8.011000
30
57.493000
70
192
0
VERTEX
8
OBJECT__8
10
0.000000
20
-9.250000
30
57.493000
70
192
0
VERTEX
8
OBJECT__8
10
0.000000
20
-9.250000
30
60.202999
70
192
0
VERTEX
8
OBJECT__8
10
-4.013000
20
-8.334000
30
60.202999
70
192
0
VERTEX
8
OBJECT__8
10
-8.207000
20
-3.743000
30
60.202999
70
192
0
VERTEX
8
OBJECT__8
10
-8.233000
20
-3.794000
30
57.493000
70
192
0
VERTEX
8
OBJECT__8
10
-8.011000
20
-4.625000
30
57.493000
70
192
0
VERTEX
8
OBJECT__8
10
-7.232000
20
-5.767000
30
60.202999
70
192
0
VERTEX
8
OBJECT__8
10
-9.250000
20
0.000000
30
57.493000
70
192
0
VERTEX
8
OBJECT__8
10
-9.018000
20
-2.058000
30
60.202999
70
192
0
VERTEX
8
OBJECT__8
10
-9.018000
20
1.316000
30
60.202999
70
192
0
VERTEX
8
OBJECT__8
10
-8.915000
20
1.252000
30
57.493000
70
192
0
VERTEX
8
OBJECT__8
10
-9.018000
20
2.058000
30
60.202999
70
192
0
VERTEX
8
OBJECT__8
10
-7.232000
20
5.767000
30
60.202999
70
192
0
VERTEX
8
OBJECT__8
10
-8.011000
20
4.625000
30
57.493000
70
192
0
VERTEX
8
OBJECT__8
10
-6.784000
20
5.851000
30
57.493000
70
192
0
VERTEX
8
OBJECT__8
10
-6.943000
20
5.998000
30
60.202999
70
192
0
VERTEX
8
OBJECT__8
10
-4.013000
20
8.334000
30
60.202999
70
192
0
VERTEX
8
OBJECT__8
10
-4.625000
20
8.011000
30
57.493000
70
192
0
VERTEX
8
OBJECT__8
10
-2.525000
20
8.573000
30
57.493000
70
192
0
VERTEX
8
OBJECT__8
10
-2.558000
20
8.666000
30
60.202999
70
192
0
VERTEX
8
OBJECT__8
10
0.000000
20
9.250000
30
60.202999
70
192
0
VERTEX
8
OBJECT__8
10
2.558000
20
8.666000
30
60.202999
70
192
0
VERTEX
8
OBJECT__8
10
2.525000
20
8.573000
30
57.493000
70
192
0
VERTEX
8
OBJECT__8
10
0.000000
20
9.250000
30
57.493000
70
192
0
VERTEX
8
OBJECT__8
10
6.943000
20
5.998000
30
60.202999
70
192
0
VERTEX
8
OBJECT__8
10
6.784000
20
5.851000
30
57.493000
70
192
0
VERTEX
8
OBJECT__8
10
4.625000
20
8.011000
30
57.493000
70
192
0
VERTEX
8
OBJECT__8
10
4.013000
20
8.334000
30
60.202999
70
192
0
VERTEX
8
OBJECT__8
10
9.018000
20
2.058000
30
60.202999
70
192
0
VERTEX
8
OBJECT__8
10
8.915000
20
1.252000
30
57.493000
70
192
0
VERTEX
8
OBJECT__8
10
8.011000
20
4.625000
30
57.493000
70
192
0
VERTEX
8
OBJECT__8
10
7.232000
20
5.767000
30
60.202999
70
192
0
VERTEX
8
OBJECT__8
10
9.250000
20
0.000000
30
57.493000
70
192
0
VERTEX
8
OBJECT__8
10
9.018000
20
1.316000
30
60.202999
70
192
0
VERTEX
8
OBJECT__8
10
9.018000
20
-2.058000
30
60.202999
70
192
0
VERTEX
8
OBJECT__8
10
8.233000
20
-3.794000
30
57.493000
70
192
0
VERTEX
8
OBJECT__8
10
4.928000
20
-7.708000
30
57.493000
70
192
0
VERTEX
8
OBJECT__8
10
8.011000
20
-4.625000
30
57.493000
70
192
0
VERTEX
8
OBJECT__8
10
7.232000
20
-5.767000
30
60.202999
70
192
0
VERTEX
8
OBJECT__8
10
8.207000
20
-3.743000
30
60.202999
70
192
0
VERTEX
8
OBJECT__8
10
4.886000
20
-7.638000
30
60.202999
70
192
0
VERTEX
8
OBJECT__8
10
4.625000
20
-8.011000
30
57.493000
70
192
0
VERTEX
8
OBJECT__8
10
4.013000
20
-8.334000
30
60.202999
70
192
0
VERTEX
8
OBJECT__8
10
0
20
0
30
0
70
128
71
1
72
2
73
3
0
VERTEX
8
OBJECT__8
10
0
20
0
30
0
70
128
71
4
72
5
73
6
0
VERTEX
8
OBJECT__8
10
0
20
0
30
0
70
128
71
6
72
3
73
4
0
VERTEX
8
OBJECT__8
10
0
20
0
30
0
70
128
71
7
72
8
73
9
0
VERTEX
8
OBJECT__8
10
0
20
0
30
0
70
128
71
2
72
1
73
10
0
VERTEX
8
OBJECT__8
10
0
20
0
30
0
70
128
71
10
72
9
73
2
0
VERTEX
8
OBJECT__8
10
0
20
0
30
0
70
128
71
11
72
8
73
12
0
VERTEX
8
OBJECT__8
10
0
20
0
30
0
70
128
71
13
72
14
73
11
0
VERTEX
8
OBJECT__8
10
0
20
0
30
0
70
128
71
8
72
7
73
12
0
VERTEX
8
OBJECT__8
10
0
20
0
30
0
70
128
71
15
72
16
73
17
0
VERTEX
8
OBJECT__8
10
0
20
0
30
0
70
128
71
16
72
18
73
17
0
VERTEX
8
OBJECT__8
10
0
20
0
30
0
70
128
71
17
72
14
73
15
0
VERTEX
8
OBJECT__8
10
0
20
0
30
0
70
128
71
14
72
13
73
15
0
VERTEX
8
OBJECT__8
10
0
20
0
30
0
70
128
71
19
72
20
73
21
0
VERTEX
8
OBJECT__8
10
0
20
0
30
0
70
128
71
22
72
21
73
20
0
VERTEX
8
OBJECT__8
10
0
20
0
30
0
70
128
71
20
72
23
73
22
0
VERTEX
8
OBJECT__8
10
0
20
0
30
0
70
128
71
24
72
25
73
26
0
VERTEX
8
OBJECT__8
10
0
20
0
30
0
70
128
71
24
72
27
73
22
0
VERTEX
8
OBJECT__8
10
0
20
0
30
0
70
128
71
22
72
23
73
24
0
VERTEX
8
OBJECT__8
10
0
20
0
30
0
70
128
71
28
72
29
73
30
0
VERTEX
8
OBJECT__8
10
0
20
0
30
0
70
128
71
26
72
25
73
31
0
VERTEX
8
OBJECT__8
10
0
20
0
30
0
70
128
71
31
72
30
73
26
0
VERTEX
8
OBJECT__8
10
0
20
0
30
0
70
128
71
32
72
33
73
34
0
VERTEX
8
OBJECT__8
10
0
20
0
30
0
70
128
71
34
72
35
73
32
0
VERTEX
8
OBJECT__8
10
0
20
0
30
0
70
128
71
34
72
29
73
35
0
VERTEX
8
OBJECT__8
10
0
20
0
30
0
70
128
71
29
72
28
73
35
0
VERTEX
8
OBJECT__8
10
0
20
0
30
0
70
128
71
36
72
37
73
38
0
VERTEX
8
OBJECT__8
10
0
20
0
30
0
70
128
71
38
72
39
73
36
0
VERTEX
8
OBJECT__8
10
0
20
0
30
0
70
128
71
36
72
33
73
37
0
VERTEX
8
OBJECT__8
10
0
20
0
30
0
70
128
71
40
72
41
73
42
0
VERTEX
8
OBJECT__8
10
0
20
0
30
0
70
128
71
41
72
43
73
42
0
VERTEX
8
OBJECT__8
10
0
20
0
30
0
70
128
71
42
72
44
73
40
0
VERTEX
8
OBJECT__8
10
0
20
0
30
0
70
128
71
4
72
45
73
46
0
VERTEX
8
OBJECT__8
10
0
20
0
30
0
70
128
71
44
72
46
73
45
0
VERTEX
8
OBJECT__8
10
0
20
0
30
0
70
128
71
45
72
40
73
44
0
VERTEX
8
OBJECT__8
10
0
20
0
30
0
70
128
71
46
72
5
73
4
0
VERTEX
8
OBJECT__8
10
0
20
0
30
0
70
128
71
41
72
39
73
43
0
VERTEX
8
OBJECT__8
10
0
20
0
30
0
70
128
71
38
72
43
73
39
0
VERTEX
8
OBJECT__8
10
0
20
0
30
0
70
128
71
32
72
37
73
33
0
VERTEX
8
OBJECT__8
10
0
20
0
30
0
70
128
71
30
72
31
73
28
0
VERTEX
8
OBJECT__8
10
0
20
0
30
0
70
128
71
26
72
27
73
24
0
VERTEX
8
OBJECT__8
10
0
20
0
30
0
70
128
71
21
72
18
73
19
0
VERTEX
8
OBJECT__8
10
0
20
0
30
0
70
128
71
16
72
19
73
18
0
VERTEX
8
OBJECT__8
10
0
20
0
30
0
70
128
71
12
72
13
73
11
0
VERTEX
8
OBJECT__8
10
0
20
0
30
0
70
128
71
9
72
10
73
7
0
VERTEX
8
OBJECT__8
10
0
20
0
30
0
70
128
71
3
72
6
73
1
0
SEQEND
8
OBJECT__8
0
POLYLINE
8
OBJECT__10
66
1
70
64
71
56
72
56
62
253
0
VERTEX
8
OBJECT__10
10
-10.648000
20
8.224000
30
61.750000
70
192
0
VERTEX
8
OBJECT__10
10
-7.232000
20
5.767000
30
60.202999
70
192
0
VERTEX
8
OBJECT__10
10
-9.018000
20
2.058000
30
60.202999
70
192
0
VERTEX
8
OBJECT__10
10
-13.162000
20
3.004000
30
61.750000
70
192
0
VERTEX
8
OBJECT__10
10
-13.162000
20
-2.933000
30
61.750000
70
192
0
VERTEX
8
OBJECT__10
10
-13.162000
20
2.933000
30
61.750000
70
192
0
VERTEX
8
OBJECT__10
10
-9.018000
20
1.316000
30
60.202999
70
192
0
VERTEX
8
OBJECT__10
10
-9.018000
20
-2.058000
30
60.202999
70
192
0
VERTEX
8
OBJECT__10
10
-13.162000
20
-3.004000
30
61.750000
70
192
0
VERTEX
8
OBJECT__10
10
-10.648000
20
-8.224000
30
61.750000
70
192
0
VERTEX
8
OBJECT__10
10
-8.207000
20
-3.743000
30
60.202999
70
192
0
VERTEX
8
OBJECT__10
10
-7.232000
20
-5.767000
30
60.202999
70
192
0
VERTEX
8
OBJECT__10
10
-10.555000
20
-8.417000
30
61.750000
70
192
0
VERTEX
8
OBJECT__10
10
10.648000
20
-8.224000
30
61.750000
70
192
0
VERTEX
8
OBJECT__10
10
7.232000
20
-5.767000
30
60.202999
70
192
0
VERTEX
8
OBJECT__10
10
8.207000
20
-3.743000
30
60.202999
70
192
0
VERTEX
8
OBJECT__10
10
13.162000
20
-3.004000
30
61.750000
70
192
0
VERTEX
8
OBJECT__10
10
9.018000
20
-2.058000
30
60.202999
70
192
0
VERTEX
8
OBJECT__10
10
13.162000
20
-2.933000
30
61.750000
70
192
0
VERTEX
8
OBJECT__10
10
9.018000
20
1.316000
30
60.202999
70
192
0
VERTEX
8
OBJECT__10
10
13.162000
20
2.933000
30
61.750000
70
192
0
VERTEX
8
OBJECT__10
10
9.018000
20
2.058000
30
60.202999
70
192
0
VERTEX
8
OBJECT__10
10
13.162000
20
3.004000
30
61.750000
70
192
0
VERTEX
8
OBJECT__10
10
10.648000
20
8.224000
30
61.750000
70
192
0
VERTEX
8
OBJECT__10
10
7.232000
20
5.767000
30
60.202999
70
192
0
VERTEX
8
OBJECT__10
10
10.555000
20
8.417000
30
61.750000
70
192
0
VERTEX
8
OBJECT__10
10
10.555000
20
-8.417000
30
61.750000
70
192
0
VERTEX
8
OBJECT__10
10
6.185000
20
-12.000000
30
61.750000
70
192
0
VERTEX
8
OBJECT__10
10
4.886000
20
-7.638000
30
60.202999
70
192
0
VERTEX
8
OBJECT__10
10
5.785000
20
-12.000000
30
61.688999
70
192
0
VERTEX
8
OBJECT__10
10
4.013000
20
-8.334000
30
60.202999
70
192
0
VERTEX
8
OBJECT__10
10
4.979000
20
-12.000000
30
61.564999
70
192
0
VERTEX
8
OBJECT__10
10
1.467000
20
-12.000000
30
61.237000
70
192
0
VERTEX
8
OBJECT__10
10
0.000000
20
-9.250000
30
60.202999
70
192
0
VERTEX
8
OBJECT__10
10
0.000000
20
-12.000000
30
61.255001
70
192
0
VERTEX
8
OBJECT__10
10
-2.305000
20
-12.000000
30
61.284000
70
192
0
VERTEX
8
OBJECT__10
10
-4.013000
20
-8.334000
30
60.202999
70
192
0
VERTEX
8
OBJECT__10
10
-4.886000
20
-7.638000
30
60.202999
70
192
0
VERTEX
8
OBJECT__10
10
-5.805000
20
-12.000000
30
61.705002
70
192
0
VERTEX
8
OBJECT__10
10
-6.185000
20
-12.000000
30
61.750000
70
192
0
VERTEX
8
OBJECT__10
10
-6.185000
20
12.000000
30
61.750000
70
192
0
VERTEX
8
OBJECT__10
10
-4.013000
20
8.334000
30
60.202999
70
192
0
VERTEX
8
OBJECT__10
10
-6.943000
20
5.998000
30
60.202999
70
192
0
VERTEX
8
OBJECT__10
10
-10.555000
20
8.417000
30
61.750000
70
192
0
VERTEX
8
OBJECT__10
10
-5.802000
20
12.000000
30
61.702000
70
192
0
VERTEX
8
OBJECT__10
10
-2.728000
20
12.000000
30
61.316002
70
192
0
VERTEX
8
OBJECT__10
10
0.000000
20
12.000000
30
61.249001
70
192
0
VERTEX
8
OBJECT__10
10
0.000000
20
9.250000
30
60.202999
70
192
0
VERTEX
8
OBJECT__10
10
-2.558000
20
8.666000
30
60.202999
70
192
0
VERTEX
8
OBJECT__10
10
1.079000
20
12.000000
30
61.222000
70
192
0
VERTEX
8
OBJECT__10
10
4.979000
20
12.000000
30
61.564999
70
192
0
VERTEX
8
OBJECT__10
10
2.558000
20
8.666000
30
60.202999
70
192
0
VERTEX
8
OBJECT__10
10
4.013000
20
8.334000
30
60.202999
70
192
0
VERTEX
8
OBJECT__10
10
6.185000
20
12.000000
30
61.750000
70
192
0
VERTEX
8
OBJECT__10
10
6.943000
20
5.998000
30
60.202999
70
192
0
VERTEX
8
OBJECT__10
10
5.785000
20
12.000000
30
61.688999
70
192
0
VERTEX
8
OBJECT__10
10
0
20
0
30
0
70
128
71
1
72
2
73
3
0
VERTEX
8
OBJECT__10
10
0
20
0
30
0
70
128
71
3
72
4
73
1
0
VERTEX
8
OBJECT__10
10
0
20
0
30
0
70
128
71
5
72
6
73
7
0
VERTEX
8
OBJECT__10
10
0
20
0
30
0
70
128
71
6
72
3
73
7
0
VERTEX
8
OBJECT__10
10
0
20
0
30
0
70
128
71
7
72
8
73
5
0
VERTEX
8
OBJECT__10
10
0
20
0
30
0
70
128
71
8
72
9
73
5
0
VERTEX
8
OBJECT__10
10
0
20
0
30
0
70
128
71
10
72
9
73
11
0
VERTEX
8
OBJECT__10
10
0
20
0
30
0
70
128
71
9
72
8
73
11
0
VERTEX
8
OBJECT__10
10
0
20
0
30
0
70
128
71
12
72
13
73
10
0
VERTEX
8
OBJECT__10
10
0
20
0
30
0
70
128
71
14
72
15
73
16
0
VERTEX
8
OBJECT__10
10
0
20
0
30
0
70
128
71
16
72
17
73
14
0
VERTEX
8
OBJECT__10
10
0
20
0
30
0
70
128
71
16
72
18
73
17
0
VERTEX
8
OBJECT__10
10
0
20
0
30
0
70
128
71
19
72
18
73
20
0
VERTEX
8
OBJECT__10
10
0
20
0
30
0
70
128
71
20
72
21
73
19
0
VERTEX
8
OBJECT__10
10
0
20
0
30
0
70
128
71
20
72
22
73
21
0
VERTEX
8
OBJECT__10
10
0
20
0
30
0
70
128
71
22
72
23
73
21
0
VERTEX
8
OBJECT__10
10
0
20
0
30
0
70
128
71
24
72
23
73
22
0
VERTEX
8
OBJECT__10
10
0
20
0
30
0
70
128
71
25
72
26
73
24
0
VERTEX
8
OBJECT__10
10
0
20
0
30
0
70
128
71
27
72
28
73
29
0
VERTEX
8
OBJECT__10
10
0
20
0
30
0
70
128
71
29
72
28
73
30
0
VERTEX
8
OBJECT__10
10
0
20
0
30
0
70
128
71
30
72
31
73
29
0
VERTEX
8
OBJECT__10
10
0
20
0
30
0
70
128
71
31
72
32
73
33
0
VERTEX
8
OBJECT__10
10
0
20
0
30
0
70
128
71
31
72
30
73
32
0
VERTEX
8
OBJECT__10
10
0
20
0
30
0
70
128
71
33
72
34
73
31
0
VERTEX
8
OBJECT__10
10
0
20
0
30
0
70
128
71
34
72
35
73
36
0
VERTEX
8
OBJECT__10
10
0
20
0
30
0
70
128
71
36
72
37
73
34
0
VERTEX
8
OBJECT__10
10
0
20
0
30
0
70
128
71
38
72
37
73
39
0
VERTEX
8
OBJECT__10
10
0
20
0
30
0
70
128
71
13
72
12
73
38
0
VERTEX
8
OBJECT__10
10
0
20
0
30
0
70
128
71
38
72
40
73
13
0
VERTEX
8
OBJECT__10
10
0
20
0
30
0
70
128
71
41
72
42
73
43
0
VERTEX
8
OBJECT__10
10
0
20
0
30
0
70
128
71
43
72
44
73
41
0
VERTEX
8
OBJECT__10
10
0
20
0
30
0
70
128
71
41
72
45
73
42
0
VERTEX
8
OBJECT__10
10
0
20
0
30
0
70
128
71
46
72
47
73
48
0
VERTEX
8
OBJECT__10
10
0
20
0
30
0
70
128
71
46
72
49
73
42
0
VERTEX
8
OBJECT__10
10
0
20
0
30
0
70
128
71
42
72
45
73
46
0
VERTEX
8
OBJECT__10
10
0
20
0
30
0
70
128
71
50
72
51
73
52
0
VERTEX
8
OBJECT__10
10
0
20
0
30
0
70
128
71
51
72
53
73
52
0
VERTEX
8
OBJECT__10
10
0
20
0
30
0
70
128
71
52
72
48
73
50
0
VERTEX
8
OBJECT__10
10
0
20
0
30
0
70
128
71
48
72
47
73
50
0
VERTEX
8
OBJECT__10
10
0
20
0
30
0
70
128
71
54
72
26
73
55
0
VERTEX
8
OBJECT__10
10
0
20
0
30
0
70
128
71
53
72
56
73
54
0
VERTEX
8
OBJECT__10
10
0
20
0
30
0
70
128
71
26
72
25
73
55
0
VERTEX
8
OBJECT__10
10
0
20
0
30
0
70
128
71
55
72
53
73
54
0
VERTEX
8
OBJECT__10
10
0
20
0
30
0
70
128
71
51
72
56
73
53
0
VERTEX
8
OBJECT__10
10
0
20
0
30
0
70
128
71
48
72
49
73
46
0
VERTEX
8
OBJECT__10
10
0
20
0
30
0
70
128
71
43
72
2
73
44
0
VERTEX
8
OBJECT__10
10
0
20
0
30
0
70
128
71
39
72
40
73
38
0
VERTEX
8
OBJECT__10
10
0
20
0
30
0
70
128
71
36
72
39
73
37
0
VERTEX
8
OBJECT__10
10
0
20
0
30
0
70
128
71
33
72
35
73
34
0
VERTEX
8
OBJECT__10
10
0
20
0
30
0
70
128
71
29
72
15
73
27
0
VERTEX
8
OBJECT__10
10
0
20
0
30
0
70
128
71
22
72
25
73
24
0
VERTEX
8
OBJECT__10
10
0
20
0
30
0
70
128
71
19
72
17
73
18
0
VERTEX
8
OBJECT__10
10
0
20
0
30
0
70
128
71
14
72
27
73
15
0
VERTEX
8
OBJECT__10
10
0
20
0
30
0
70
128
71
11
72
12
73
10
0
VERTEX
8
OBJECT__10
10
0
20
0
30
0
70
128
71
6
72
4
73
3
0
VERTEX
8
OBJECT__10
10
0
20
0
30
0
70
128
71
1
72
44
73
2
0
SEQEND
8
OBJECT__10
0
POLYLINE
8
OBJECT__11
66
1
70
64
71
10
72
8
62
253
0
VERTEX
8
OBJECT__11
10
6.185000
20
-12.000000
30
76.203003
70
192
0
VERTEX
8
OBJECT__11
10
0.000000
20
-12.000000
30
61.255001
70
192
0
VERTEX
8
OBJECT__11
10
1.467000
20
-12.000000
30
61.237000
70
192
0
VERTEX
8
OBJECT__11
10
-6.185000
20
-12.000000
30
76.203003
70
192
0
VERTEX
8
OBJECT__11
10
-2.305000
20
-12.000000
30
61.284000
70
192
0
VERTEX
8
OBJECT__11
10
4.979000
20
-12.000000
30
61.564999
70
192
0
VERTEX
8
OBJECT__11
10
-5.805000
20
-12.000000
30
61.705002
70
192
0
VERTEX
8
OBJECT__11
10
-6.185000
20
-12.000000
30
61.750000
70
192
0
VERTEX
8
OBJECT__11
10
5.785000
20
-12.000000
30
61.688999
70
192
0
VERTEX
8
OBJECT__11
10
6.185000
20
-12.000000
30
61.750000
70
192
0
VERTEX
8
OBJECT__11
10
0
20
0
30
0
70
128
71
1
72
2
73
3
0
VERTEX
8
OBJECT__11
10
0
20
0
30
0
70
128
71
4
72
5
73
2
0
VERTEX
8
OBJECT__11
10
0
20
0
30
0
70
128
71
3
72
6
73
1
0
VERTEX
8
OBJECT__11
10
0
20
0
30
0
70
128
71
4
72
7
73
5
0
VERTEX
8
OBJECT__11
10
0
20
0
30
0
70
128
71
2
72
1
73
4
0
VERTEX
8
OBJECT__11
10
0
20
0
30
0
70
128
71
4
72
8
73
7
0
VERTEX
8
OBJECT__11
10
0
20
0
30
0
70
128
71
6
72
9
73
1
0
VERTEX
8
OBJECT__11
10
0
20
0
30
0
70
128
71
9
72
10
73
1
0
SEQEND
8
OBJECT__11
0
POLYLINE
8
OBJECT__12
66
1
70
64
71
16
72
14
62
253
0
VERTEX
8
OBJECT__12
10
6.185000
20
12.000000
30
76.203003
70
192
0
VERTEX
8
OBJECT__12
10
10.690000
20
8.244000
30
76.203003
70
192
0
VERTEX
8
OBJECT__12
10
10.555000
20
8.417000
30
61.750000
70
192
0
VERTEX
8
OBJECT__12
10
10.648000
20
8.224000
30
61.750000
70
192
0
VERTEX
8
OBJECT__12
10
13.178000
20
2.933000
30
76.203003
70
192
0
VERTEX
8
OBJECT__12
10
13.162000
20
2.933000
30
61.750000
70
192
0
VERTEX
8
OBJECT__12
10
13.162000
20
3.004000
30
61.750000
70
192
0
VERTEX
8
OBJECT__12
10
13.178000
20
-2.933000
30
76.203003
70
192
0
VERTEX
8
OBJECT__12
10
13.162000
20
-2.933000
30
61.750000
70
192
0
VERTEX
8
OBJECT__12
10
10.690000
20
-8.244000
30
76.203003
70
192
0
VERTEX
8
OBJECT__12
10
10.648000
20
-8.224000
30
61.750000
70
192
0
VERTEX
8
OBJECT__12
10
13.162000
20
-3.004000
30
61.750000
70
192
0
VERTEX
8
OBJECT__12
10
6.185000
20
-12.000000
30
76.203003
70
192
0
VERTEX
8
OBJECT__12
10
6.185000
20
-12.000000
30
61.750000
70
192
0
VERTEX
8
OBJECT__12
10
10.555000
20
-8.417000
30
61.750000
70
192
0
VERTEX
8
OBJECT__12
10
6.185000
20
12.000000
30
61.750000
70
192
0
VERTEX
8
OBJECT__12
10
0
20
0
30
0
70
128
71
1
72
2
73
3
0
VERTEX
8
OBJECT__12
10
0
20
0
30
0
70
128
71
2
72
4
73
3
0
VERTEX
8
OBJECT__12
10
0
20
0
30
0
70
128
71
5
72
6
73
7
0
VERTEX
8
OBJECT__12
10
0
20
0
30
0
70
128
71
7
72
2
73
5
0
VERTEX
8
OBJECT__12
10
0
20
0
30
0
70
128
71
7
72
4
73
2
0
VERTEX
8
OBJECT__12
10
0
20
0
30
0
70
128
71
8
72
9
73
6
0
VERTEX
8
OBJECT__12
10
0
20
0
30
0
70
128
71
10
72
11
73
12
0
VERTEX
8
OBJECT__12
10
0
20
0
30
0
70
128
71
12
72
8
73
10
0
VERTEX
8
OBJECT__12
10
0
20
0
30
0
70
128
71
13
72
14
73
15
0
VERTEX
8
OBJECT__12
10
0
20
0
30
0
70
128
71
15
72
10
73
13
0
VERTEX
8
OBJECT__12
10
0
20
0
30
0
70
128
71
15
72
11
73
10
0
VERTEX
8
OBJECT__12
10
0
20
0
30
0
70
128
71
12
72
9
73
8
0
VERTEX
8
OBJECT__12
10
0
20
0
30
0
70
128
71
6
72
5
73
8
0
VERTEX
8
OBJECT__12
10
0
20
0
30
0
70
128
71
3
72
16
73
1
0
SEQEND
8
OBJECT__12
0
POLYLINE
8
OBJECT__13
66
1
70
64
71
10
72
8
62
253
0
VERTEX
8
OBJECT__13
10
-6.185000
20
12.000000
30
76.203003
70
192
0
VERTEX
8
OBJECT__13
10
6.185000
20
12.000000
30
76.203003
70
192
0
VERTEX
8
OBJECT__13
10
0.000000
20
12.000000
30
61.249001
70
192
0
VERTEX
8
OBJECT__13
10
-2.728000
20
12.000000
30
61.316002
70
192
0
VERTEX
8
OBJECT__13
10
4.979000
20
12.000000
30
61.564999
70
192
0
VERTEX
8
OBJECT__13
10
1.079000
20
12.000000
30
61.222000
70
192
0
VERTEX
8
OBJECT__13
10
-5.802000
20
12.000000
30
61.702000
70
192
0
VERTEX
8
OBJECT__13
10
5.785000
20
12.000000
30
61.688999
70
192
0
VERTEX
8
OBJECT__13
10
6.185000
20
12.000000
30
61.750000
70
192
0
VERTEX
8
OBJECT__13
10
-6.185000
20
12.000000
30
61.750000
70
192
0
VERTEX
8
OBJECT__13
10
0
20
0
30
0
70
128
71
1
72
2
73
3
0
VERTEX
8
OBJECT__13
10
0
20
0
30
0
70
128
71
3
72
4
73
1
0
VERTEX
8
OBJECT__13
10
0
20
0
30
0
70
128
71
2
72
5
73
6
0
VERTEX
8
OBJECT__13
10
0
20
0
30
0
70
128
71
4
72
7
73
1
0
VERTEX
8
OBJECT__13
10
0
20
0
30
0
70
128
71
2
72
8
73
5
0
VERTEX
8
OBJECT__13
10
0
20
0
30
0
70
128
71
6
72
3
73
2
0
VERTEX
8
OBJECT__13
10
0
20
0
30
0
70
128
71
2
72
9
73
8
0
VERTEX
8
OBJECT__13
10
0
20
0
30
0
70
128
71
7
72
10
73
1
0
SEQEND
8
OBJECT__13
0
POLYLINE
8
OBJECT__14
66
1
70
64
71
16
72
14
62
253
0
VERTEX
8
OBJECT__14
10
-6.185000
20
-12.000000
30
76.203003
70
192
0
VERTEX
8
OBJECT__14
10
-10.690000
20
-8.244000
30
76.203003
70
192
0
VERTEX
8
OBJECT__14
10
-10.555000
20
-8.417000
30
61.750000
70
192
0
VERTEX
8
OBJECT__14
10
-10.648000
20
-8.224000
30
61.750000
70
192
0
VERTEX
8
OBJECT__14
10
-13.178000
20
-2.933000
30
76.203003
70
192
0
VERTEX
8
OBJECT__14
10
-13.162000
20
-2.933000
30
61.750000
70
192
0
VERTEX
8
OBJECT__14
10
-13.162000
20
-3.004000
30
61.750000
70
192
0
VERTEX
8
OBJECT__14
10
-13.162000
20
2.933000
30
61.750000
70
192
0
VERTEX
8
OBJECT__14
10
-10.690000
20
8.244000
30
76.203003
70
192
0
VERTEX
8
OBJECT__14
10
-10.648000
20
8.224000
30
61.750000
70
192
0
VERTEX
8
OBJECT__14
10
-13.162000
20
3.004000
30
61.750000
70
192
0
VERTEX
8
OBJECT__14
10
-13.178000
20
2.933000
30
76.203003
70
192
0
VERTEX
8
OBJECT__14
10
-6.185000
20
12.000000
30
76.203003
70
192
0
VERTEX
8
OBJECT__14
10
-6.185000
20
12.000000
30
61.750000
70
192
0
VERTEX
8
OBJECT__14
10
-10.555000
20
8.417000
30
61.750000
70
192
0
VERTEX
8
OBJECT__14
10
-6.185000
20
-12.000000
30
61.750000
70
192
0
VERTEX
8
OBJECT__14
10
0
20
0
30
0
70
128
71
1
72
2
73
3
0
VERTEX
8
OBJECT__14
10
0
20
0
30
0
70
128
71
2
72
4
73
3
0
VERTEX
8
OBJECT__14
10
0
20
0
30
0
70
128
71
5
72
6
73
7
0
VERTEX
8
OBJECT__14
10
0
20
0
30
0
70
128
71
7
72
2
73
5
0
VERTEX
8
OBJECT__14
10
0
20
0
30
0
70
128
71
7
72
4
73
2
0
VERTEX
8
OBJECT__14
10
0
20
0
30
0
70
128
71
8
72
6
73
5
0
VERTEX
8
OBJECT__14
10
0
20
0
30
0
70
128
71
9
72
10
73
11
0
VERTEX
8
OBJECT__14
10
0
20
0
30
0
70
128
71
11
72
12
73
9
0
VERTEX
8
OBJECT__14
10
0
20
0
30
0
70
128
71
13
72
14
73
15
0
VERTEX
8
OBJECT__14
10
0
20
0
30
0
70
128
71
15
72
9
73
13
0
VERTEX
8
OBJECT__14
10
0
20
0
30
0
70
128
71
15
72
10
73
9
0
VERTEX
8
OBJECT__14
10
0
20
0
30
0
70
128
71
11
72
8
73
12
0
VERTEX
8
OBJECT__14
10
0
20
0
30
0
70
128
71
5
72
12
73
8
0
VERTEX
8
OBJECT__14
10
0
20
0
30
0
70
128
71
3
72
16
73
1
0
SEQEND
8
OBJECT__14
0
POLYLINE
8
OBJECT__15
66
1
70
64
71
12
72
10
62
253
0
VERTEX
8
OBJECT__15
10
-10.690000
20
-8.244000
30
76.203003
70
192
0
VERTEX
8
OBJECT__15
10
-6.185000
20
-12.000000
30
76.203003
70
192
0
VERTEX
8
OBJECT__15
10
6.185000
20
-12.000000
30
76.203003
70
192
0
VERTEX
8
OBJECT__15
10
-10.690000
20
8.244000
30
76.203003
70
192
0
VERTEX
8
OBJECT__15
10
10.690000
20
8.244000
30
76.203003
70
192
0
VERTEX
8
OBJECT__15
10
6.185000
20
12.000000
30
76.203003
70
192
0
VERTEX
8
OBJECT__15
10
10.690000
20
-8.244000
30
76.203003
70
192
0
VERTEX
8
OBJECT__15
10
-13.178000
20
-2.933000
30
76.203003
70
192
0
VERTEX
8
OBJECT__15
10
-13.178000
20
2.933000
30
76.203003
70
192
0
VERTEX
8
OBJECT__15
10
13.178000
20
2.933000
30
76.203003
70
192
0
VERTEX
8
OBJECT__15
10
13.178000
20
-2.933000
30
76.203003
70
192
0
VERTEX
8
OBJECT__15
10
-6.185000
20
12.000000
30
76.203003
70
192
0
VERTEX
8
OBJECT__15
10
0
20
0
30
0
70
128
71
1
72
2
73
3
0
VERTEX
8
OBJECT__15
10
0
20
0
30
0
70
128
71
4
72
5
73
6
0
VERTEX
8
OBJECT__15
10
0
20
0
30
0
70
128
71
7
72
8
73
1
0
VERTEX
8
OBJECT__15
10
0
20
0
30
0
70
128
71
7
72
4
73
9
0
VERTEX
8
OBJECT__15
10
0
20
0
30
0
70
128
71
4
72
10
73
5
0
VERTEX
8
OBJECT__15
10
0
20
0
30
0
70
128
71
4
72
7
73
11
0
VERTEX
8
OBJECT__15
10
0
20
0
30
0
70
128
71
9
72
8
73
7
0
VERTEX
8
OBJECT__15
10
0
20
0
30
0
70
128
71
11
72
10
73
4
0
VERTEX
8
OBJECT__15
10
0
20
0
30
0
70
128
71
6
72
12
73
4
0
VERTEX
8
OBJECT__15
10
0
20
0
30
0
70
128
71
3
72
7
73
1
0
SEQEND
8
OBJECT__15
0
POLYLINE
8
OBJECT__16
66
1
70
64
71
37
72
36
62
253
0
VERTEX
8
OBJECT__16
10
0.000000
20
0.000000
30
-8.225000
70
192
0
VERTEX
8
OBJECT__16
10
0.000000
20
11.955000
30
-7.716000
70
192
0
VERTEX
8
OBJECT__16
10
2.076000
20
11.774000
30
-7.716000
70
192
0
VERTEX
8
OBJECT__16
10
4.089000
20
11.234000
30
-7.716000
70
192
0
VERTEX
8
OBJECT__16
10
5.978000
20
10.354000
30
-7.716000
70
192
0
VERTEX
8
OBJECT__16
10
7.685000
20
9.158000
30
-7.716000
70
192
0
VERTEX
8
OBJECT__16
10
9.158000
20
7.685000
30
-7.716000
70
192
0
VERTEX
8
OBJECT__16
10
10.354000
20
5.978000
30
-7.716000
70
192
0
VERTEX
8
OBJECT__16
10
11.234000
20
4.089000
30
-7.716000
70
192
0
VERTEX
8
OBJECT__16
10
11.774000
20
2.076000
30
-7.716000
70
192
0
VERTEX
8
OBJECT__16
10
11.955000
20
0.000000
30
-7.716000
70
192
0
VERTEX
8
OBJECT__16
10
11.774000
20
-2.076000
30
-7.716000
70
192
0
VERTEX
8
OBJECT__16
10
11.234000
20
-4.089000
30
-7.716000
70
192
0
VERTEX
8
OBJECT__16
10
10.354000
20
-5.978000
30
-7.716000
70
192
0
VERTEX
8
OBJECT__16
10
9.158000
20
-7.685000
30
-7.716000
70
192
0
VERTEX
8
OBJECT__16
10
7.685000
20
-9.158000
30
-7.716000
70
192
0
VERTEX
8
OBJECT__16
10
5.978000
20
-10.354000
30
-7.716000
70
192
0
VERTEX
8
OBJECT__16
10
4.089000
20
-11.234000
30
-7.716000
70
192
0
VERTEX
8
OBJECT__16
10
2.076000
20
-11.774000
30
-7.716000
70
192
0
VERTEX
8
OBJECT__16
10
0.000000
20
-11.955000
30
-7.716000
70
192
0
VERTEX
8
OBJECT__16
10
-2.076000
20
-11.774000
30
-7.716000
70
192
0
VERTEX
8
OBJECT__16
10
-4.089000
20
-11.234000
30
-7.716000
70
192
0
VERTEX
8
OBJECT__16
10
-5.978000
20
-10.354000
30
-7.716000
70
192
0
VERTEX
8
OBJECT__16
10
-7.685000
20
-9.158000
30
-7.716000
70
192
0
VERTEX
8
OBJECT__16
10
-9.158000
20
-7.685000
30
-7.716000
70
192
0
VERTEX
8
OBJECT__16
10
-10.354000
20
-5.978000
30
-7.716000
70
192
0
VERTEX
8
OBJECT__16
10
-11.234000
20
-4.089000
30
-7.716000
70
192
0
VERTEX
8
OBJECT__16
10
-11.774000
20
-2.076000
30
-7.716000
70
192
0
VERTEX
8
OBJECT__16
10
-11.955000
20
0.000000
30
-7.716000
70
192
0
VERTEX
8
OBJECT__16
10
-11.774000
20
2.076000
30
-7.716000
70
192
0
VERTEX
8
OBJECT__16
10
-11.234000
20
4.089000
30
-7.716000
70
192
0
VERTEX
8
OBJECT__16
10
-10.354000
20
5.978000
30
-7.716000
70
192
0
VERTEX
8
OBJECT__16
10
-9.158000
20
7.685000
30
-7.716000
70
192
0
VERTEX
8
OBJECT__16
10
-7.685000
20
9.158000
30
-7.716000
70
192
0
VERTEX
8
OBJECT__16
10
-5.978000
20
10.354000
30
-7.716000
70
192
0
VERTEX
8
OBJECT__16
10
-4.089000
20
11.234000
30
-7.716000
70
192
0
VERTEX
8
OBJECT__16
10
-2.076000
20
11.774000
30
-7.716000
70
192
0
VERTEX
8
OBJECT__16
10
0
20
0
30
0
70
128
71
1
72
2
73
3
0
VERTEX
8
OBJECT__16
10
0
20
0
30
0
70
128
71
1
72
4
73
5
0
VERTEX
8
OBJECT__16
10
0
20
0
30
0
70
128
71
1
72
6
73
7
0
VERTEX
8
OBJECT__16
10
0
20
0
30
0
70
128
71
1
72
8
73
9
0
VERTEX
8
OBJECT__16
10
0
20
0
30
0
70
128
71
1
72
10
73
11
0
VERTEX
8
OBJECT__16
10
0
20
0
30
0
70
128
71
1
72
12
73
13
0
VERTEX
8
OBJECT__16
10
0
20
0
30
0
70
128
71
1
72
14
73
15
0
VERTEX
8
OBJECT__16
10
0
20
0
30
0
70
128
71
1
72
16
73
17
0
VERTEX
8
OBJECT__16
10
0
20
0
30
0
70
128
71
1
72
18
73
19
0
VERTEX
8
OBJECT__16
10
0
20
0
30
0
70
128
71
1
72
20
73
21
0
VERTEX
8
OBJECT__16
10
0
20
0
30
0
70
128
71
1
72
22
73
23
0
VERTEX
8
OBJECT__16
10
0
20
0
30
0
70
128
71
1
72
24
73
25
0
VERTEX
8
OBJECT__16
10
0
20
0
30
0
70
128
71
1
72
26
73
27
0
VERTEX
8
OBJECT__16
10
0
20
0
30
0
70
128
71
1
72
28
73
29
0
VERTEX
8
OBJECT__16
10
0
20
0
30
0
70
128
71
1
72
30
73
31
0
VERTEX
8
OBJECT__16
10
0
20
0
30
0
70
128
71
1
72
32
73
33
0
VERTEX
8
OBJECT__16
10
0
20
0
30
0
70
128
71
1
72
34
73
35
0
VERTEX
8
OBJECT__16
10
0
20
0
30
0
70
128
71
1
72
36
73
37
0
VERTEX
8
OBJECT__16
10
0
20
0
30
0
70
128
71
37
72
2
73
1
0
VERTEX
8
OBJECT__16
10
0
20
0
30
0
70
128
71
35
72
36
73
1
0
VERTEX
8
OBJECT__16
10
0
20
0
30
0
70
128
71
33
72
34
73
1
0
VERTEX
8
OBJECT__16
10
0
20
0
30
0
70
128
71
31
72
32
73
1
0
VERTEX
8
OBJECT__16
10
0
20
0
30
0
70
128
71
29
72
30
73
1
0
VERTEX
8
OBJECT__16
10
0
20
0
30
0
70
128
71
27
72
28
73
1
0
VERTEX
8
OBJECT__16
10
0
20
0
30
0
70
128
71
25
72
26
73
1
0
VERTEX
8
OBJECT__16
10
0
20
0
30
0
70
128
71
23
72
24
73
1
0
VERTEX
8
OBJECT__16
10
0
20
0
30
0
70
128
71
21
72
22
73
1
0
VERTEX
8
OBJECT__16
10
0
20
0
30
0
70
128
71
19
72
20
73
1
0
VERTEX
8
OBJECT__16
10
0
20
0
30
0
70
128
71
17
72
18
73
1
0
VERTEX
8
OBJECT__16
10
0
20
0
30
0
70
128
71
15
72
16
73
1
0
VERTEX
8
OBJECT__16
10
0
20
0
30
0
70
128
71
13
72
14
73
1
0
VERTEX
8
OBJECT__16
10
0
20
0
30
0
70
128
71
11
72
12
73
1
0
VERTEX
8
OBJECT__16
10
0
20
0
30
0
70
128
71
9
72
10
73
1
0
VERTEX
8
OBJECT__16
10
0
20
0
30
0
70
128
71
7
72
8
73
1
0
VERTEX
8
OBJECT__16
10
0
20
0
30
0
70
128
71
5
72
6
73
1
0
VERTEX
8
OBJECT__16
10
0
20
0
30
0
70
128
71
3
72
4
73
1
0
SEQEND
8
OBJECT__16
0
POLYLINE
8
OBJECT__17
66
1
70
64
71
204
72
312
62
253
0
VERTEX
8
OBJECT__17
10
0.000000
20
50.799999
30
4.650000
70
192
0
VERTEX
8
OBJECT__17
10
8.821000
20
50.028000
30
4.650000
70
192
0
VERTEX
8
OBJECT__17
10
7.240000
20
41.057999
30
-0.108000
70
192
0
VERTEX
8
OBJECT__17
10
14.259000
20
39.176998
30
-0.108000
70
192
0
VERTEX
8
OBJECT__17
10
12.110000
20
49.146999
30
4.650000
70
192
0
VERTEX
8
OBJECT__17
10
17.375000
20
47.736000
30
4.650000
70
192
0
VERTEX
8
OBJECT__17
10
23.549999
20
44.856998
30
4.650000
70
192
0
VERTEX
8
OBJECT__17
10
20.844999
20
36.105000
30
-0.108000
70
192
0
VERTEX
8
OBJECT__17
10
32.653999
20
38.915001
30
4.650000
70
192
0
VERTEX
8
OBJECT__17
10
26.798000
20
31.937000
30
-0.108000
70
192
0
VERTEX
8
OBJECT__17
10
33.615002
20
37.952999
30
4.650000
70
192
0
VERTEX
8
OBJECT__17
10
38.915001
20
32.653999
30
4.650000
70
192
0
VERTEX
8
OBJECT__17
10
31.937000
20
26.798000
30
-0.108000
70
192
0
VERTEX
8
OBJECT__17
10
41.650002
20
28.747000
30
4.650000
70
192
0
VERTEX
8
OBJECT__17
10
36.105000
20
20.844999
30
-0.108000
70
192
0
VERTEX
8
OBJECT__17
10
47.449001
20
17.990999
30
4.650000
70
192
0
VERTEX
8
OBJECT__17
10
39.176998
20
14.259000
30
-0.108000
70
192
0
VERTEX
8
OBJECT__17
10
43.993999
20
25.400000
30
4.650000
70
192
0
VERTEX
8
OBJECT__17
10
50.028000
20
8.821000
30
4.650000
70
192
0
VERTEX
8
OBJECT__17
10
41.057999
20
7.240000
30
-0.108000
70
192
0
VERTEX
8
OBJECT__17
10
41.691002
20
0.000000
30
-0.108000
70
192
0
VERTEX
8
OBJECT__17
10
50.265999
20
6.109000
30
4.650000
70
192
0
VERTEX
8
OBJECT__17
10
50.799999
20
0.000000
30
4.650000
70
192
0
VERTEX
8
OBJECT__17
10
50.265999
20
-6.109000
30
4.650000
70
192
0
VERTEX
8
OBJECT__17
10
41.057999
20
-7.240000
30
-0.108000
70
192
0
VERTEX
8
OBJECT__17
10
47.736000
20
-17.375000
30
4.650000
70
192
0
VERTEX
8
OBJECT__17
10
39.176998
20
-14.259000
30
-0.108000
70
192
0
VERTEX
8
OBJECT__17
10
47.449001
20
-17.990999
30
4.650000
70
192
0
VERTEX
8
OBJECT__17
10
43.993999
20
-25.400000
30
4.650000
70
192
0
VERTEX
8
OBJECT__17
10
36.105000
20
-20.844999
30
-0.108000
70
192
0
VERTEX
8
OBJECT__17
10
31.937000
20
-26.798000
30
-0.108000
70
192
0
VERTEX
8
OBJECT__17
10
41.650002
20
-28.747000
30
4.650000
70
192
0
VERTEX
8
OBJECT__17
10
33.615002
20
-37.952999
30
4.650000
70
192
0
VERTEX
8
OBJECT__17
10
26.798000
20
-31.937000
30
-0.108000
70
192
0
VERTEX
8
OBJECT__17
10
38.915001
20
-32.653999
30
4.650000
70
192
0
VERTEX
8
OBJECT__17
10
25.400000
20
-43.993999
30
4.650000
70
192
0
VERTEX
8
OBJECT__17
10
20.844999
20
-36.105000
30
-0.108000
70
192
0
VERTEX
8
OBJECT__17
10
14.259000
20
-39.176998
30
-0.108000
70
192
0
VERTEX
8
OBJECT__17
10
23.549999
20
-44.856998
30
4.650000
70
192
0
VERTEX
8
OBJECT__17
10
17.375000
20
-47.736000
30
4.650000
70
192
0
VERTEX
8
OBJECT__17
10
12.110000
20
-49.146999
30
4.650000
70
192
0
VERTEX
8
OBJECT__17
10
7.240000
20
-41.057999
30
-0.108000
70
192
0
VERTEX
8
OBJECT__17
10
8.821000
20
-50.028000
30
4.650000
70
192
0
VERTEX
8
OBJECT__17
10
0.000000
20
-50.799999
30
4.650000
70
192
0
VERTEX
8
OBJECT__17
10
0.000000
20
-41.691002
30
-0.108000
70
192
0
VERTEX
8
OBJECT__17
10
-8.821000
20
-50.028000
30
4.650000
70
192
0
VERTEX
8
OBJECT__17
10
-7.240000
20
-41.057999
30
-0.108000
70
192
0
VERTEX
8
OBJECT__17
10
-14.259000
20
-39.176998
30
-0.108000
70
192
0
VERTEX
8
OBJECT__17
10
-12.110000
20
-49.146999
30
4.650000
70
192
0
VERTEX
8
OBJECT__17
10
-17.375000
20
-47.736000
30
4.650000
70
192
0
VERTEX
8
OBJECT__17
10
-23.549999
20
-44.856998
30
4.650000
70
192
0
VERTEX
8
OBJECT__17
10
-20.844999
20
-36.105000
30
-0.108000
70
192
0
VERTEX
8
OBJECT__17
10
-32.653999
20
-38.915001
30
4.650000
70
192
0
VERTEX
8
OBJECT__17
10
-26.798000
20
-31.937000
30
-0.108000
70
192
0
VERTEX
8
OBJECT__17
10
-33.615002
20
-37.952999
30
4.650000
70
192
0
VERTEX
8
OBJECT__17
10
-38.915001
20
-32.653999
30
4.650000
70
192
0
VERTEX
8
OBJECT__17
10
-31.937000
20
-26.798000
30
-0.108000
70
192
0
VERTEX
8
OBJECT__17
10
-41.650002
20
-28.747000
30
4.650000
70
192
0
VERTEX
8
OBJECT__17
10
-36.105000
20
-20.844999
30
-0.108000
70
192
0
VERTEX
8
OBJECT__17
10
-47.449001
20
-17.990999
30
4.650000
70
192
0
VERTEX
8
OBJECT__17
10
-39.176998
20
-14.259000
30
-0.108000
70
192
0
VERTEX
8
OBJECT__17
10
-43.993999
20
-25.400000
30
4.650000
70
192
0
VERTEX
8
OBJECT__17
10
-50.028000
20
-8.821000
30
4.650000
70
192
0
VERTEX
8
OBJECT__17
10
-41.057999
20
-7.240000
30
-0.108000
70
192
0
VERTEX
8
OBJECT__17
10
-41.691002
20
0.000000
30
-0.108000
70
192
0
VERTEX
8
OBJECT__17
10
-50.265999
20
-6.109000
30
4.650000
70
192
0
VERTEX
8
OBJECT__17
10
-50.799999
20
0.000000
30
4.650000
70
192
0
VERTEX
8
OBJECT__17
10
-50.265999
20
6.109000
30
4.650000
70
192
0
VERTEX
8
OBJECT__17
10
-41.057999
20
7.240000
30
-0.108000
70
192
0
VERTEX
8
OBJECT__17
10
-47.736000
20
17.375000
30
4.650000
70
192
0
VERTEX
8
OBJECT__17
10
-39.176998
20
14.259000
30
-0.108000
70
192
0
VERTEX
8
OBJECT__17
10
-47.449001
20
17.990999
30
4.650000
70
192
0
VERTEX
8
OBJECT__17
10
-43.993999
20
25.400000
30
4.650000
70
192
0
VERTEX
8
OBJECT__17
10
-36.105000
20
20.844999
30
-0.108000
70
192
0
VERTEX
8
OBJECT__17
10
-31.937000
20
26.798000
30
-0.108000
70
192
0
VERTEX
8
OBJECT__17
10
-41.650002
20
28.747000
30
4.650000
70
192
0
VERTEX
8
OBJECT__17
10
-33.615002
20
37.952999
30
4.650000
70
192
0
VERTEX
8
OBJECT__17
10
-26.798000
20
31.937000
30
-0.108000
70
192
0
VERTEX
8
OBJECT__17
10
-38.915001
20
32.653999
30
4.650000
70
192
0
VERTEX
8
OBJECT__17
10
-32.653999
20
38.915001
30
4.650000
70
192
0
VERTEX
8
OBJECT__17
10
-25.400000
20
43.993999
30
4.650000
70
192
0
VERTEX
8
OBJECT__17
10
-20.844999
20
36.105000
30
-0.108000
70
192
0
VERTEX
8
OBJECT__17
10
-14.259000
20
39.176998
30
-0.108000
70
192
0
VERTEX
8
OBJECT__17
10
-23.549999
20
44.856998
30
4.650000
70
192
0
VERTEX
8
OBJECT__17
10
-17.375000
20
47.736000
30
4.650000
70
192
0
VERTEX
8
OBJECT__17
10
-12.110000
20
49.146999
30
4.650000
70
192
0
VERTEX
8
OBJECT__17
10
-7.240000
20
41.057999
30
-0.108000
70
192
0
VERTEX
8
OBJECT__17
10
-8.821000
20
50.028000
30
4.650000
70
192
0
VERTEX
8
OBJECT__17
10
0.000000
20
41.691002
30
-0.108000
70
192
0
VERTEX
8
OBJECT__17
10
5.573000
20
31.607000
30
-3.785000
70
192
0
VERTEX
8
OBJECT__17
10
10.977000
20
30.159000
30
-3.785000
70
192
0
VERTEX
8
OBJECT__17
10
16.047001
20
27.795000
30
-3.785000
70
192
0
VERTEX
8
OBJECT__17
10
20.629999
20
24.586000
30
-3.785000
70
192
0
VERTEX
8
OBJECT__17
10
24.586000
20
20.629999
30
-3.785000
70
192
0
VERTEX
8
OBJECT__17
10
27.795000
20
16.047001
30
-3.785000
70
192
0
VERTEX
8
OBJECT__17
10
30.159000
20
10.977000
30
-3.785000
70
192
0
VERTEX
8
OBJECT__17
10
31.607000
20
5.573000
30
-3.785000
70
192
0
VERTEX
8
OBJECT__17
10
32.095001
20
0.000000
30
-3.785000
70
192
0
VERTEX
8
OBJECT__17
10
31.607000
20
-5.573000
30
-3.785000
70
192
0
VERTEX
8
OBJECT__17
10
30.159000
20
-10.977000
30
-3.785000
70
192
0
VERTEX
8
OBJECT__17
10
27.795000
20
-16.047001
30
-3.785000
70
192
0
VERTEX
8
OBJECT__17
10
24.586000
20
-20.629999
30
-3.785000
70
192
0
VERTEX
8
OBJECT__17
10
20.629999
20
-24.586000
30
-3.785000
70
192
0
VERTEX
8
OBJECT__17
10
16.047001
20
-27.795000
30
-3.785000
70
192
0
VERTEX
8
OBJECT__17
10
10.977000
20
-30.159000
30
-3.785000
70
192
0
VERTEX
8
OBJECT__17
10
5.573000
20
-31.607000
30
-3.785000
70
192
0
VERTEX
8
OBJECT__17
10
0.000000
20
-32.095001
30
-3.785000
70
192
0
VERTEX
8
OBJECT__17
10
-5.573000
20
-31.607000
30
-3.785000
70
192
0
VERTEX
8
OBJECT__17
10
-10.977000
20
-30.159000
30
-3.785000
70
192
0
VERTEX
8
OBJECT__17
10
-16.047001
20
-27.795000
30
-3.785000
70
192
0
VERTEX
8
OBJECT__17
10
-20.629999
20
-24.586000
30
-3.785000
70
192
0
VERTEX
8
OBJECT__17
10
-24.586000
20
-20.629999
30
-3.785000
70
192
0
VERTEX
8
OBJECT__17
10
-27.795000
20
-16.047001
30
-3.785000
70
192
0
VERTEX
8
OBJECT__17
10
-30.159000
20
-10.977000
30
-3.785000
70
192
0
VERTEX
8
OBJECT__17
10
-31.607000
20
-5.573000
30
-3.785000
70
192
0
VERTEX
8
OBJECT__17
10
-32.095001
20
0.000000
30
-3.785000
70
192
0
VERTEX
8
OBJECT__17
10
-31.607000
20
5.573000
30
-3.785000
70
192
0
VERTEX
8
OBJECT__17
10
-30.159000
20
10.977000
30
-3.785000
70
192
0
VERTEX
8
OBJECT__17
10
-27.795000
20
16.047001
30
-3.785000
70
192
0
VERTEX
8
OBJECT__17
10
-24.586000
20
20.629999
30
-3.785000
70
192
0
VERTEX
8
OBJECT__17
10
-20.629999
20
24.586000
30
-3.785000
70
192
0
VERTEX
8
OBJECT__17
10
-16.047001
20
27.795000
30
-3.785000
70
192
0
VERTEX
8
OBJECT__17
10
-10.977000
20
30.159000
30
-3.785000
70
192
0
VERTEX
8
OBJECT__17
10
-5.573000
20
31.607000
30
-3.785000
70
192
0
VERTEX
8
OBJECT__17
10
0.000000
20
32.095001
30
-3.785000
70
192
0
VERTEX
8
OBJECT__17
10
3.844000
20
21.802000
30
-6.332000
70
192
0
VERTEX
8
OBJECT__17
10
7.572000
20
20.802999
30
-6.332000
70
192
0
VERTEX
8
OBJECT__17
10
11.069000
20
19.173000
30
-6.332000
70
192
0
VERTEX
8
OBJECT__17
10
14.230000
20
16.959000
30
-6.332000
70
192
0
VERTEX
8
OBJECT__17
10
16.959000
20
14.230000
30
-6.332000
70
192
0
VERTEX
8
OBJECT__17
10
19.173000
20
11.069000
30
-6.332000
70
192
0
VERTEX
8
OBJECT__17
10
20.802999
20
7.572000
30
-6.332000
70
192
0
VERTEX
8
OBJECT__17
10
21.802000
20
3.844000
30
-6.332000
70
192
0
VERTEX
8
OBJECT__17
10
22.139000
20
0.000000
30
-6.332000
70
192
0
VERTEX
8
OBJECT__17
10
21.802000
20
-3.844000
30
-6.332000
70
192
0
VERTEX
8
OBJECT__17
10
20.802999
20
-7.572000
30
-6.332000
70
192
0
VERTEX
8
OBJECT__17
10
19.173000
20
-11.069000
30
-6.332000
70
192
0
VERTEX
8
OBJECT__17
10
16.959000
20
-14.230000
30
-6.332000
70
192
0
VERTEX
8
OBJECT__17
10
14.230000
20
-16.959000
30
-6.332000
70
192
0
VERTEX
8
OBJECT__17
10
11.069000
20
-19.173000
30
-6.332000
70
192
0
VERTEX
8
OBJECT__17
10
7.572000
20
-20.802999
30
-6.332000
70
192
0
VERTEX
8
OBJECT__17
10
3.844000
20
-21.802000
30
-6.332000
70
192
0
VERTEX
8
OBJECT__17
10
0.000000
20
-22.139000
30
-6.332000
70
192
0
VERTEX
8
OBJECT__17
10
-3.844000
20
-21.802000
30
-6.332000
70
192
0
VERTEX
8
OBJECT__17
10
-7.572000
20
-20.802999
30
-6.332000
70
192
0
VERTEX
8
OBJECT__17
10
-11.069000
20
-19.173000
30
-6.332000
70
192
0
VERTEX
8
OBJECT__17
10
-14.230000
20
-16.959000
30
-6.332000
70
192
0
VERTEX
8
OBJECT__17
10
-16.959000
20
-14.230000
30
-6.332000
70
192
0
VERTEX
8
OBJECT__17
10
-19.173000
20
-11.069000
30
-6.332000
70
192
0
VERTEX
8
OBJECT__17
10
-20.802999
20
-7.572000
30
-6.332000
70
192
0
VERTEX
8
OBJECT__17
10
-21.802000
20
-3.844000
30
-6.332000
70
192
0
VERTEX
8
OBJECT__17
10
-22.139000
20
0.000000
30
-6.332000
70
192
0
VERTEX
8
OBJECT__17
10
-21.802000
20
3.844000
30
-6.332000
70
192
0
VERTEX
8
OBJECT__17
10
-20.802999
20
7.572000
30
-6.332000
70
192
0
VERTEX
8
OBJECT__17
10
-19.173000
20
11.069000
30
-6.332000
70
192
0
VERTEX
8
OBJECT__17
10
-16.959000
20
14.230000
30
-6.332000
70
192
0
VERTEX
8
OBJECT__17
10
-14.230000
20
16.959000
30
-6.332000
70
192
0
VERTEX
8
OBJECT__17
10
-11.069000
20
19.173000
30
-6.332000
70
192
0
VERTEX
8
OBJECT__17
10
-7.572000
20
20.802999
30
-6.332000
70
192
0
VERTEX
8
OBJECT__17
10
-3.844000
20
21.802000
30
-6.332000
70
192
0
VERTEX
8
OBJECT__17
10
0.000000
20
22.139000
30
-6.332000
70
192
0
VERTEX
8
OBJECT__17
10
2.076000
20
11.774000
30
-7.716000
70
192
0
VERTEX
8
OBJECT__17
10
4.089000
20
11.234000
30
-7.716000
70
192
0
VERTEX
8
OBJECT__17
10
5.978000
20
10.354000
30
-7.716000
70
192
0
VERTEX
8
OBJECT__17
10
7.685000
20
9.158000
30
-7.716000
70
192
0
VERTEX
8
OBJECT__17
10
9.158000
20
7.685000
30
-7.716000
70
192
0
VERTEX
8
OBJECT__17
10
10.354000
20
5.978000
30
-7.716000
70
192
0
VERTEX
8
OBJECT__17
10
11.234000
20
4.089000
30
-7.716000
70
192
0
VERTEX
8
OBJECT__17
10
11.774000
20
2.076000
30
-7.716000
70
192
0
VERTEX
8
OBJECT__17
10
11.955000
20
0.000000
30
-7.716000
70
192
0
VERTEX
8
OBJECT__17
10
11.774000
20
-2.076000
30
-7.716000
70
192
0
VERTEX
8
OBJECT__17
10
11.234000
20
-4.089000
30
-7.716000
70
192
0
VERTEX
8
OBJECT__17
10
10.354000
20
-5.978000
30
-7.716000
70
192
0
VERTEX
8
OBJECT__17
10
9.158000
20
-7.685000
30
-7.716000
70
192
0
VERTEX
8
OBJECT__17
10
7.685000
20
-9.158000
30
-7.716000
70
192
0
VERTEX
8
OBJECT__17
10
5.978000
20
-10.354000
30
-7.716000
70
192
0
VERTEX
8
OBJECT__17
10
4.089000
20
-11.234000
30
-7.716000
70
192
0
VERTEX
8
OBJECT__17
10
2.076000
20
-11.774000
30
-7.716000
70
192
0
VERTEX
8
OBJECT__17
10
0.000000
20
-11.955000
30
-7.716000
70
192
0
VERTEX
8
OBJECT__17
10
-2.076000
20
-11.774000
30
-7.716000
70
192
0
VERTEX
8
OBJECT__17
10
-4.089000
20
-11.234000
30
-7.716000
70
192
0
VERTEX
8
OBJECT__17
10
-5.978000
20
-10.354000
30
-7.716000
70
192
0
VERTEX
8
OBJECT__17
10
-7.685000
20
-9.158000
30
-7.716000
70
192
0
VERTEX
8
OBJECT__17
10
-9.158000
20
-7.685000
30
-7.716000
70
192
0
VERTEX
8
OBJECT__17
10
-10.354000
20
-5.978000
30
-7.716000
70
192
0
VERTEX
8
OBJECT__17
10
-11.234000
20
-4.089000
30
-7.716000
70
192
0
VERTEX
8
OBJECT__17
10
-11.774000
20
-2.076000
30
-7.716000
70
192
0
VERTEX
8
OBJECT__17
10
-11.955000
20
0.000000
30
-7.716000
70
192
0
VERTEX
8
OBJECT__17
10
-11.774000
20
2.076000
30
-7.716000
70
192
0
VERTEX
8
OBJECT__17
10
-11.234000
20
4.089000
30
-7.716000
70
192
0
VERTEX
8
OBJECT__17
10
-10.354000
20
5.978000
30
-7.716000
70
192
0
VERTEX
8
OBJECT__17
10
-9.158000
20
7.685000
30
-7.716000
70
192
0
VERTEX
8
OBJECT__17
10
-7.685000
20
9.158000
30
-7.716000
70
192
0
VERTEX
8
OBJECT__17
10
-5.978000
20
10.354000
30
-7.716000
70
192
0
VERTEX
8
OBJECT__17
10
-4.089000
20
11.234000
30
-7.716000
70
192
0
VERTEX
8
OBJECT__17
10
-2.076000
20
11.774000
30
-7.716000
70
192
0
VERTEX
8
OBJECT__17
10
0.000000
20
11.955000
30
-7.716000
70
192
0
VERTEX
8
OBJECT__17
10
-50.028000
20
8.821000
30
4.650000
70
192
0
VERTEX
8
OBJECT__17
10
-47.736000
20
-17.375000
30
4.650000
70
192
0
VERTEX
8
OBJECT__17
10
-25.400000
20
-43.993999
30
4.650000
70
192
0
VERTEX
8
OBJECT__17
10
32.653999
20
-38.915001
30
4.650000
70
192
0
VERTEX
8
OBJECT__17
10
50.028000
20
-8.821000
30
4.650000
70
192
0
VERTEX
8
OBJECT__17
10
47.736000
20
17.375000
30
4.650000
70
192
0
VERTEX
8
OBJECT__17
10
25.400000
20
43.993999
30
4.650000
70
192
0
VERTEX
8
OBJECT__17
10
0
20
0
30
0
70
128
71
1
72
2
73
3
0
VERTEX
8
OBJECT__17
10
0
20
0
30
0
70
128
71
4
72
3
73
5
0
VERTEX
8
OBJECT__17
10
0
20
0
30
0
70
128
71
3
72
2
73
5
0
VERTEX
8
OBJECT__17
10
0
20
0
30
0
70
128
71
4
72
6
73
7
0
VERTEX
8
OBJECT__17
10
0
20
0
30
0
70
128
71
7
72
8
73
4
0
VERTEX
8
OBJECT__17
10
0
20
0
30
0
70
128
71
9
72
10
73
8
0
VERTEX
8
OBJECT__17
10
0
20
0
30
0
70
128
71
11
72
12
73
13
0
VERTEX
8
OBJECT__17
10
0
20
0
30
0
70
128
71
10
72
9
73
11
0
VERTEX
8
OBJECT__17
10
0
20
0
30
0
70
128
71
13
72
12
73
14
0
VERTEX
8
OBJECT__17
10
0
20
0
30
0
70
128
71
14
72
15
73
13
0
VERTEX
8
OBJECT__17
10
0
20
0
30
0
70
128
71
16
72
17
73
15
0
VERTEX
8
OBJECT__17
10
0
20
0
30
0
70
128
71
15
72
18
73
16
0
VERTEX
8
OBJECT__17
10
0
20
0
30
0
70
128
71
19
72
20
73
17
0
VERTEX
8
OBJECT__17
10
0
20
0
30
0
70
128
71
21
72
20
73
22
0
VERTEX
8
OBJECT__17
10
0
20
0
30
0
70
128
71
20
72
19
73
22
0
VERTEX
8
OBJECT__17
10
0
20
0
30
0
70
128
71
21
72
23
73
24
0
VERTEX
8
OBJECT__17
10
0
20
0
30
0
70
128
71
24
72
25
73
21
0
VERTEX
8
OBJECT__17
10
0
20
0
30
0
70
128
71
26
72
27
73
25
0
VERTEX
8
OBJECT__17
10
0
20
0
30
0
70
128
71
28
72
29
73
30
0
VERTEX
8
OBJECT__17
10
0
20
0
30
0
70
128
71
27
72
26
73
28
0
VERTEX
8
OBJECT__17
10
0
20
0
30
0
70
128
71
31
72
30
73
32
0
VERTEX
8
OBJECT__17
10
0
20
0
30
0
70
128
71
30
72
29
73
32
0
VERTEX
8
OBJECT__17
10
0
20
0
30
0
70
128
71
33
72
34
73
31
0
VERTEX
8
OBJECT__17
10
0
20
0
30
0
70
128
71
31
72
35
73
33
0
VERTEX
8
OBJECT__17
10
0
20
0
30
0
70
128
71
36
72
37
73
34
0
VERTEX
8
OBJECT__17
10
0
20
0
30
0
70
128
71
38
72
37
73
39
0
VERTEX
8
OBJECT__17
10
0
20
0
30
0
70
128
71
37
72
36
73
39
0
VERTEX
8
OBJECT__17
10
0
20
0
30
0
70
128
71
38
72
40
73
41
0
VERTEX
8
OBJECT__17
10
0
20
0
30
0
70
128
71
41
72
42
73
38
0
VERTEX
8
OBJECT__17
10
0
20
0
30
0
70
128
71
43
72
44
73
45
0
VERTEX
8
OBJECT__17
10
0
20
0
30
0
70
128
71
46
72
47
73
45
0
VERTEX
8
OBJECT__17
10
0
20
0
30
0
70
128
71
48
72
47
73
49
0
VERTEX
8
OBJECT__17
10
0
20
0
30
0
70
128
71
47
72
46
73
49
0
VERTEX
8
OBJECT__17
10
0
20
0
30
0
70
128
71
48
72
50
73
51
0
VERTEX
8
OBJECT__17
10
0
20
0
30
0
70
128
71
51
72
52
73
48
0
VERTEX
8
OBJECT__17
10
0
20
0
30
0
70
128
71
53
72
54
73
52
0
VERTEX
8
OBJECT__17
10
0
20
0
30
0
70
128
71
55
72
56
73
57
0
VERTEX
8
OBJECT__17
10
0
20
0
30
0
70
128
71
54
72
53
73
55
0
VERTEX
8
OBJECT__17
10
0
20
0
30
0
70
128
71
57
72
56
73
58
0
VERTEX
8
OBJECT__17
10
0
20
0
30
0
70
128
71
58
72
59
73
57
0
VERTEX
8
OBJECT__17
10
0
20
0
30
0
70
128
71
60
72
61
73
59
0
VERTEX
8
OBJECT__17
10
0
20
0
30
0
70
128
71
59
72
62
73
60
0
VERTEX
8
OBJECT__17
10
0
20
0
30
0
70
128
71
63
72
64
73
61
0
VERTEX
8
OBJECT__17
10
0
20
0
30
0
70
128
71
65
72
64
73
66
0
VERTEX
8
OBJECT__17
10
0
20
0
30
0
70
128
71
64
72
63
73
66
0
VERTEX
8
OBJECT__17
10
0
20
0
30
0
70
128
71
65
72
67
73
68
0
VERTEX
8
OBJECT__17
10
0
20
0
30
0
70
128
71
68
72
69
73
65
0
VERTEX
8
OBJECT__17
10
0
20
0
30
0
70
128
71
70
72
71
73
69
0
VERTEX
8
OBJECT__17
10
0
20
0
30
0
70
128
71
72
72
73
73
74
0
VERTEX
8
OBJECT__17
10
0
20
0
30
0
70
128
71
71
72
70
73
72
0
VERTEX
8
OBJECT__17
10
0
20
0
30
0
70
128
71
75
72
74
73
76
0
VERTEX
8
OBJECT__17
10
0
20
0
30
0
70
128
71
74
72
73
73
76
0
VERTEX
8
OBJECT__17
10
0
20
0
30
0
70
128
71
77
72
78
73
75
0
VERTEX
8
OBJECT__17
10
0
20
0
30
0
70
128
71
75
72
79
73
77
0
VERTEX
8
OBJECT__17
10
0
20
0
30
0
70
128
71
80
72
81
73
82
0
VERTEX
8
OBJECT__17
10
0
20
0
30
0
70
128
71
83
72
82
73
84
0
VERTEX
8
OBJECT__17
10
0
20
0
30
0
70
128
71
82
72
81
73
84
0
VERTEX
8
OBJECT__17
10
0
20
0
30
0
70
128
71
83
72
85
73
86
0
VERTEX
8
OBJECT__17
10
0
20
0
30
0
70
128
71
86
72
87
73
83
0
VERTEX
8
OBJECT__17
10
0
20
0
30
0
70
128
71
88
72
1
73
89
0
VERTEX
8
OBJECT__17
10
0
20
0
30
0
70
128
71
89
72
3
73
90
0
VERTEX
8
OBJECT__17
10
0
20
0
30
0
70
128
71
3
72
4
73
91
0
VERTEX
8
OBJECT__17
10
0
20
0
30
0
70
128
71
4
72
8
73
92
0
VERTEX
8
OBJECT__17
10
0
20
0
30
0
70
128
71
8
72
10
73
93
0
VERTEX
8
OBJECT__17
10
0
20
0
30
0
70
128
71
10
72
13
73
94
0
VERTEX
8
OBJECT__17
10
0
20
0
30
0
70
128
71
13
72
15
73
95
0
VERTEX
8
OBJECT__17
10
0
20
0
30
0
70
128
71
15
72
17
73
96
0
VERTEX
8
OBJECT__17
10
0
20
0
30
0
70
128
71
17
72
20
73
97
0
VERTEX
8
OBJECT__17
10
0
20
0
30
0
70
128
71
20
72
21
73
98
0
VERTEX
8
OBJECT__17
10
0
20
0
30
0
70
128
71
21
72
25
73
99
0
VERTEX
8
OBJECT__17
10
0
20
0
30
0
70
128
71
25
72
27
73
100
0
VERTEX
8
OBJECT__17
10
0
20
0
30
0
70
128
71
27
72
30
73
101
0
VERTEX
8
OBJECT__17
10
0
20
0
30
0
70
128
71
30
72
31
73
102
0
VERTEX
8
OBJECT__17
10
0
20
0
30
0
70
128
71
31
72
34
73
103
0
VERTEX
8
OBJECT__17
10
0
20
0
30
0
70
128
71
34
72
37
73
104
0
VERTEX
8
OBJECT__17
10
0
20
0
30
0
70
128
71
37
72
38
73
105
0
VERTEX
8
OBJECT__17
10
0
20
0
30
0
70
128
71
38
72
42
73
106
0
VERTEX
8
OBJECT__17
10
0
20
0
30
0
70
128
71
42
72
45
73
107
0
VERTEX
8
OBJECT__17
10
0
20
0
30
0
70
128
71
45
72
47
73
108
0
VERTEX
8
OBJECT__17
10
0
20
0
30
0
70
128
71
47
72
48
73
109
0
VERTEX
8
OBJECT__17
10
0
20
0
30
0
70
128
71
48
72
52
73
110
0
VERTEX
8
OBJECT__17
10
0
20
0
30
0
70
128
71
52
72
54
73
111
0
VERTEX
8
OBJECT__17
10
0
20
0
30
0
70
128
71
54
72
57
73
112
0
VERTEX
8
OBJECT__17
10
0
20
0
30
0
70
128
71
57
72
59
73
113
0
VERTEX
8
OBJECT__17
10
0
20
0
30
0
70
128
71
59
72
61
73
114
0
VERTEX
8
OBJECT__17
10
0
20
0
30
0
70
128
71
61
72
64
73
115
0
VERTEX
8
OBJECT__17
10
0
20
0
30
0
70
128
71
64
72
65
73
116
0
VERTEX
8
OBJECT__17
10
0
20
0
30
0
70
128
71
65
72
69
73
117
0
VERTEX
8
OBJECT__17
10
0
20
0
30
0
70
128
71
69
72
71
73
118
0
VERTEX
8
OBJECT__17
10
0
20
0
30
0
70
128
71
71
72
74
73
119
0
VERTEX
8
OBJECT__17
10
0
20
0
30
0
70
128
71
74
72
75
73
120
0
VERTEX
8
OBJECT__17
10
0
20
0
30
0
70
128
71
75
72
78
73
121
0
VERTEX
8
OBJECT__17
10
0
20
0
30
0
70
128
71
78
72
82
73
122
0
VERTEX
8
OBJECT__17
10
0
20
0
30
0
70
128
71
82
72
83
73
123
0
VERTEX
8
OBJECT__17
10
0
20
0
30
0
70
128
71
83
72
87
73
124
0
VERTEX
8
OBJECT__17
10
0
20
0
30
0
70
128
71
87
72
89
73
125
0
VERTEX
8
OBJECT__17
10
0
20
0
30
0
70
128
71
125
72
90
73
126
0
VERTEX
8
OBJECT__17
10
0
20
0
30
0
70
128
71
90
72
91
73
127
0
VERTEX
8
OBJECT__17
10
0
20
0
30
0
70
128
71
91
72
92
73
128
0
VERTEX
8
OBJECT__17
10
0
20
0
30
0
70
128
71
92
72
93
73
129
0
VERTEX
8
OBJECT__17
10
0
20
0
30
0
70
128
71
93
72
94
73
130
0
VERTEX
8
OBJECT__17
10
0
20
0
30
0
70
128
71
94
72
95
73
131
0
VERTEX
8
OBJECT__17
10
0
20
0
30
0
70
128
71
95
72
96
73
132
0
VERTEX
8
OBJECT__17
10
0
20
0
30
0
70
128
71
96
72
97
73
133
0
VERTEX
8
OBJECT__17
10
0
20
0
30
0
70
128
71
97
72
98
73
134
0
VERTEX
8
OBJECT__17
10
0
20
0
30
0
70
128
71
98
72
99
73
135
0
VERTEX
8
OBJECT__17
10
0
20
0
30
0
70
128
71
99
72
100
73
136
0
VERTEX
8
OBJECT__17
10
0
20
0
30
0
70
128
71
100
72
101
73
137
0
VERTEX
8
OBJECT__17
10
0
20
0
30
0
70
128
71
101
72
102
73
138
0
VERTEX
8
OBJECT__17
10
0
20
0
30
0
70
128
71
102
72
103
73
139
0
VERTEX
8
OBJECT__17
10
0
20
0
30
0
70
128
71
103
72
104
73
140
0
VERTEX
8
OBJECT__17
10
0
20
0
30
0
70
128
71
104
72
105
73
141
0
VERTEX
8
OBJECT__17
10
0
20
0
30
0
70
128
71
105
72
106
73
142
0
VERTEX
8
OBJECT__17
10
0
20
0
30
0
70
128
71
106
72
107
73
143
0
VERTEX
8
OBJECT__17
10
0
20
0
30
0
70
128
71
107
72
108
73
144
0
VERTEX
8
OBJECT__17
10
0
20
0
30
0
70
128
71
108
72
109
73
145
0
VERTEX
8
OBJECT__17
10
0
20
0
30
0
70
128
71
109
72
110
73
146
0
VERTEX
8
OBJECT__17
10
0
20
0
30
0
70
128
71
110
72
111
73
147
0
VERTEX
8
OBJECT__17
10
0
20
0
30
0
70
128
71
111
72
112
73
148
0
VERTEX
8
OBJECT__17
10
0
20
0
30
0
70
128
71
112
72
113
73
149
0
VERTEX
8
OBJECT__17
10
0
20
0
30
0
70
128
71
113
72
114
73
150
0
VERTEX
8
OBJECT__17
10
0
20
0
30
0
70
128
71
114
72
115
73
151
0
VERTEX
8
OBJECT__17
10
0
20
0
30
0
70
128
71
115
72
116
73
152
0
VERTEX
8
OBJECT__17
10
0
20
0
30
0
70
128
71
116
72
117
73
153
0
VERTEX
8
OBJECT__17
10
0
20
0
30
0
70
128
71
117
72
118
73
154
0
VERTEX
8
OBJECT__17
10
0
20
0
30
0
70
128
71
118
72
119
73
155
0
VERTEX
8
OBJECT__17
10
0
20
0
30
0
70
128
71
119
72
120
73
156
0
VERTEX
8
OBJECT__17
10
0
20
0
30
0
70
128
71
120
72
121
73
157
0
VERTEX
8
OBJECT__17
10
0
20
0
30
0
70
128
71
121
72
122
73
158
0
VERTEX
8
OBJECT__17
10
0
20
0
30
0
70
128
71
122
72
123
73
159
0
VERTEX
8
OBJECT__17
10
0
20
0
30
0
70
128
71
123
72
124
73
160
0
VERTEX
8
OBJECT__17
10
0
20
0
30
0
70
128
71
124
72
125
73
161
0
VERTEX
8
OBJECT__17
10
0
20
0
30
0
70
128
71
161
72
126
73
162
0
VERTEX
8
OBJECT__17
10
0
20
0
30
0
70
128
71
127
72
163
73
162
0
VERTEX
8
OBJECT__17
10
0
20
0
30
0
70
128
71
127
72
128
73
164
0
VERTEX
8
OBJECT__17
10
0
20
0
30
0
70
128
71
129
72
165
73
164
0
VERTEX
8
OBJECT__17
10
0
20
0
30
0
70
128
71
129
72
130
73
166
0
VERTEX
8
OBJECT__17
10
0
20
0
30
0
70
128
71
130
72
131
73
167
0
VERTEX
8
OBJECT__17
10
0
20
0
30
0
70
128
71
131
72
132
73
168
0
VERTEX
8
OBJECT__17
10
0
20
0
30
0
70
128
71
133
72
169
73
168
0
VERTEX
8
OBJECT__17
10
0
20
0
30
0
70
128
71
133
72
134
73
170
0
VERTEX
8
OBJECT__17
10
0
20
0
30
0
70
128
71
135
72
171
73
170
0
VERTEX
8
OBJECT__17
10
0
20
0
30
0
70
128
71
136
72
172
73
171
0
VERTEX
8
OBJECT__17
10
0
20
0
30
0
70
128
71
136
72
137
73
173
0
VERTEX
8
OBJECT__17
10
0
20
0
30
0
70
128
71
138
72
174
73
173
0
VERTEX
8
OBJECT__17
10
0
20
0
30
0
70
128
71
138
72
139
73
175
0
VERTEX
8
OBJECT__17
10
0
20
0
30
0
70
128
71
140
72
176
73
175
0
VERTEX
8
OBJECT__17
10
0
20
0
30
0
70
128
71
140
72
141
73
177
0
VERTEX
8
OBJECT__17
10
0
20
0
30
0
70
128
71
142
72
178
73
177
0
VERTEX
8
OBJECT__17
10
0
20
0
30
0
70
128
71
142
72
143
73
179
0
VERTEX
8
OBJECT__17
10
0
20
0
30
0
70
128
71
143
72
144
73
180
0
VERTEX
8
OBJECT__17
10
0
20
0
30
0
70
128
71
145
72
181
73
180
0
VERTEX
8
OBJECT__17
10
0
20
0
30
0
70
128
71
146
72
182
73
181
0
VERTEX
8
OBJECT__17
10
0
20
0
30
0
70
128
71
147
72
183
73
182
0
VERTEX
8
OBJECT__17
10
0
20
0
30
0
70
128
71
148
72
184
73
183
0
VERTEX
8
OBJECT__17
10
0
20
0
30
0
70
128
71
149
72
185
73
184
0
VERTEX
8
OBJECT__17
10
0
20
0
30
0
70
128
71
150
72
186
73
185
0
VERTEX
8
OBJECT__17
10
0
20
0
30
0
70
128
71
150
72
151
73
187
0
VERTEX
8
OBJECT__17
10
0
20
0
30
0
70
128
71
152
72
188
73
187
0
VERTEX
8
OBJECT__17
10
0
20
0
30
0
70
128
71
152
72
153
73
189
0
VERTEX
8
OBJECT__17
10
0
20
0
30
0
70
128
71
154
72
190
73
189
0
VERTEX
8
OBJECT__17
10
0
20
0
30
0
70
128
71
155
72
191
73
190
0
VERTEX
8
OBJECT__17
10
0
20
0
30
0
70
128
71
156
72
192
73
191
0
VERTEX
8
OBJECT__17
10
0
20
0
30
0
70
128
71
157
72
193
73
192
0
VERTEX
8
OBJECT__17
10
0
20
0
30
0
70
128
71
158
72
194
73
193
0
VERTEX
8
OBJECT__17
10
0
20
0
30
0
70
128
71
158
72
159
73
195
0
VERTEX
8
OBJECT__17
10
0
20
0
30
0
70
128
71
160
72
196
73
195
0
VERTEX
8
OBJECT__17
10
0
20
0
30
0
70
128
71
160
72
161
73
197
0
VERTEX
8
OBJECT__17
10
0
20
0
30
0
70
128
71
197
72
196
73
160
0
VERTEX
8
OBJECT__17
10
0
20
0
30
0
70
128
71
195
72
159
73
160
0
VERTEX
8
OBJECT__17
10
0
20
0
30
0
70
128
71
195
72
194
73
158
0
VERTEX
8
OBJECT__17
10
0
20
0
30
0
70
128
71
193
72
157
73
158
0
VERTEX
8
OBJECT__17
10
0
20
0
30
0
70
128
71
192
72
156
73
157
0
VERTEX
8
OBJECT__17
10
0
20
0
30
0
70
128
71
191
72
155
73
156
0
VERTEX
8
OBJECT__17
10
0
20
0
30
0
70
128
71
190
72
154
73
155
0
VERTEX
8
OBJECT__17
10
0
20
0
30
0
70
128
71
189
72
153
73
154
0
VERTEX
8
OBJECT__17
10
0
20
0
30
0
70
128
71
189
72
188
73
152
0
VERTEX
8
OBJECT__17
10
0
20
0
30
0
70
128
71
187
72
151
73
152
0
VERTEX
8
OBJECT__17
10
0
20
0
30
0
70
128
71
187
72
186
73
150
0
VERTEX
8
OBJECT__17
10
0
20
0
30
0
70
128
71
185
72
149
73
150
0
VERTEX
8
OBJECT__17
10
0
20
0
30
0
70
128
71
184
72
148
73
149
0
VERTEX
8
OBJECT__17
10
0
20
0
30
0
70
128
71
183
72
147
73
148
0
VERTEX
8
OBJECT__17
10
0
20
0
30
0
70
128
71
182
72
146
73
147
0
VERTEX
8
OBJECT__17
10
0
20
0
30
0
70
128
71
181
72
145
73
146
0
VERTEX
8
OBJECT__17
10
0
20
0
30
0
70
128
71
180
72
144
73
145
0
VERTEX
8
OBJECT__17
10
0
20
0
30
0
70
128
71
180
72
179
73
143
0
VERTEX
8
OBJECT__17
10
0
20
0
30
0
70
128
71
179
72
178
73
142
0
VERTEX
8
OBJECT__17
10
0
20
0
30
0
70
128
71
177
72
141
73
142
0
VERTEX
8
OBJECT__17
10
0
20
0
30
0
70
128
71
177
72
176
73
140
0
VERTEX
8
OBJECT__17
10
0
20
0
30
0
70
128
71
175
72
139
73
140
0
VERTEX
8
OBJECT__17
10
0
20
0
30
0
70
128
71
175
72
174
73
138
0
VERTEX
8
OBJECT__17
10
0
20
0
30
0
70
128
71
173
72
137
73
138
0
VERTEX
8
OBJECT__17
10
0
20
0
30
0
70
128
71
173
72
172
73
136
0
VERTEX
8
OBJECT__17
10
0
20
0
30
0
70
128
71
171
72
135
73
136
0
VERTEX
8
OBJECT__17
10
0
20
0
30
0
70
128
71
170
72
134
73
135
0
VERTEX
8
OBJECT__17
10
0
20
0
30
0
70
128
71
170
72
169
73
133
0
VERTEX
8
OBJECT__17
10
0
20
0
30
0
70
128
71
168
72
132
73
133
0
VERTEX
8
OBJECT__17
10
0
20
0
30
0
70
128
71
168
72
167
73
131
0
VERTEX
8
OBJECT__17
10
0
20
0
30
0
70
128
71
167
72
166
73
130
0
VERTEX
8
OBJECT__17
10
0
20
0
30
0
70
128
71
166
72
165
73
129
0
VERTEX
8
OBJECT__17
10
0
20
0
30
0
70
128
71
164
72
128
73
129
0
VERTEX
8
OBJECT__17
10
0
20
0
30
0
70
128
71
164
72
163
73
127
0
VERTEX
8
OBJECT__17
10
0
20
0
30
0
70
128
71
162
72
126
73
127
0
VERTEX
8
OBJECT__17
10
0
20
0
30
0
70
128
71
162
72
197
73
161
0
VERTEX
8
OBJECT__17
10
0
20
0
30
0
70
128
71
161
72
160
73
124
0
VERTEX
8
OBJECT__17
10
0
20
0
30
0
70
128
71
160
72
159
73
123
0
VERTEX
8
OBJECT__17
10
0
20
0
30
0
70
128
71
159
72
158
73
122
0
VERTEX
8
OBJECT__17
10
0
20
0
30
0
70
128
71
158
72
157
73
121
0
VERTEX
8
OBJECT__17
10
0
20
0
30
0
70
128
71
157
72
156
73
120
0
VERTEX
8
OBJECT__17
10
0
20
0
30
0
70
128
71
156
72
155
73
119
0
VERTEX
8
OBJECT__17
10
0
20
0
30
0
70
128
71
155
72
154
73
118
0
VERTEX
8
OBJECT__17
10
0
20
0
30
0
70
128
71
154
72
153
73
117
0
VERTEX
8
OBJECT__17
10
0
20
0
30
0
70
128
71
153
72
152
73
116
0
VERTEX
8
OBJECT__17
10
0
20
0
30
0
70
128
71
152
72
151
73
115
0
VERTEX
8
OBJECT__17
10
0
20
0
30
0
70
128
71
151
72
150
73
114
0
VERTEX
8
OBJECT__17
10
0
20
0
30
0
70
128
71
150
72
149
73
113
0
VERTEX
8
OBJECT__17
10
0
20
0
30
0
70
128
71
149
72
148
73
112
0
VERTEX
8
OBJECT__17
10
0
20
0
30
0
70
128
71
148
72
147
73
111
0
VERTEX
8
OBJECT__17
10
0
20
0
30
0
70
128
71
147
72
146
73
110
0
VERTEX
8
OBJECT__17
10
0
20
0
30
0
70
128
71
146
72
145
73
109
0
VERTEX
8
OBJECT__17
10
0
20
0
30
0
70
128
71
145
72
144
73
108
0
VERTEX
8
OBJECT__17
10
0
20
0
30
0
70
128
71
144
72
143
73
107
0
VERTEX
8
OBJECT__17
10
0
20
0
30
0
70
128
71
143
72
142
73
106
0
VERTEX
8
OBJECT__17
10
0
20
0
30
0
70
128
71
142
72
141
73
105
0
VERTEX
8
OBJECT__17
10
0
20
0
30
0
70
128
71
141
72
140
73
104
0
VERTEX
8
OBJECT__17
10
0
20
0
30
0
70
128
71
140
72
139
73
103
0
VERTEX
8
OBJECT__17
10
0
20
0
30
0
70
128
71
139
72
138
73
102
0
VERTEX
8
OBJECT__17
10
0
20
0
30
0
70
128
71
138
72
137
73
101
0
VERTEX
8
OBJECT__17
10
0
20
0
30
0
70
128
71
137
72
136
73
100
0
VERTEX
8
OBJECT__17
10
0
20
0
30
0
70
128
71
136
72
135
73
99
0
VERTEX
8
OBJECT__17
10
0
20
0
30
0
70
128
71
135
72
134
73
98
0
VERTEX
8
OBJECT__17
10
0
20
0
30
0
70
128
71
134
72
133
73
97
0
VERTEX
8
OBJECT__17
10
0
20
0
30
0
70
128
71
133
72
132
73
96
0
VERTEX
8
OBJECT__17
10
0
20
0
30
0
70
128
71
132
72
131
73
95
0
VERTEX
8
OBJECT__17
10
0
20
0
30
0
70
128
71
131
72
130
73
94
0
VERTEX
8
OBJECT__17
10
0
20
0
30
0
70
128
71
130
72
129
73
93
0
VERTEX
8
OBJECT__17
10
0
20
0
30
0
70
128
71
129
72
128
73
92
0
VERTEX
8
OBJECT__17
10
0
20
0
30
0
70
128
71
128
72
127
73
91
0
VERTEX
8
OBJECT__17
10
0
20
0
30
0
70
128
71
127
72
126
73
90
0
VERTEX
8
OBJECT__17
10
0
20
0
30
0
70
128
71
126
72
161
73
125
0
VERTEX
8
OBJECT__17
10
0
20
0
30
0
70
128
71
125
72
124
73
87
0
VERTEX
8
OBJECT__17
10
0
20
0
30
0
70
128
71
124
72
123
73
83
0
VERTEX
8
OBJECT__17
10
0
20
0
30
0
70
128
71
123
72
122
73
82
0
VERTEX
8
OBJECT__17
10
0
20
0
30
0
70
128
71
122
72
121
73
78
0
VERTEX
8
OBJECT__17
10
0
20
0
30
0
70
128
71
121
72
120
73
75
0
VERTEX
8
OBJECT__17
10
0
20
0
30
0
70
128
71
120
72
119
73
74
0
VERTEX
8
OBJECT__17
10
0
20
0
30
0
70
128
71
119
72
118
73
71
0
VERTEX
8
OBJECT__17
10
0
20
0
30
0
70
128
71
118
72
117
73
69
0
VERTEX
8
OBJECT__17
10
0
20
0
30
0
70
128
71
117
72
116
73
65
0
VERTEX
8
OBJECT__17
10
0
20
0
30
0
70
128
71
116
72
115
73
64
0
VERTEX
8
OBJECT__17
10
0
20
0
30
0
70
128
71
115
72
114
73
61
0
VERTEX
8
OBJECT__17
10
0
20
0
30
0
70
128
71
114
72
113
73
59
0
VERTEX
8
OBJECT__17
10
0
20
0
30
0
70
128
71
113
72
112
73
57
0
VERTEX
8
OBJECT__17
10
0
20
0
30
0
70
128
71
112
72
111
73
54
0
VERTEX
8
OBJECT__17
10
0
20
0
30
0
70
128
71
111
72
110
73
52
0
VERTEX
8
OBJECT__17
10
0
20
0
30
0
70
128
71
110
72
109
73
48
0
VERTEX
8
OBJECT__17
10
0
20
0
30
0
70
128
71
109
72
108
73
47
0
VERTEX
8
OBJECT__17
10
0
20
0
30
0
70
128
71
108
72
107
73
45
0
VERTEX
8
OBJECT__17
10
0
20
0
30
0
70
128
71
107
72
106
73
42
0
VERTEX
8
OBJECT__17
10
0
20
0
30
0
70
128
71
106
72
105
73
38
0
VERTEX
8
OBJECT__17
10
0
20
0
30
0
70
128
71
105
72
104
73
37
0
VERTEX
8
OBJECT__17
10
0
20
0
30
0
70
128
71
104
72
103
73
34
0
VERTEX
8
OBJECT__17
10
0
20
0
30
0
70
128
71
103
72
102
73
31
0
VERTEX
8
OBJECT__17
10
0
20
0
30
0
70
128
71
102
72
101
73
30
0
VERTEX
8
OBJECT__17
10
0
20
0
30
0
70
128
71
101
72
100
73
27
0
VERTEX
8
OBJECT__17
10
0
20
0
30
0
70
128
71
100
72
99
73
25
0
VERTEX
8
OBJECT__17
10
0
20
0
30
0
70
128
71
99
72
98
73
21
0
VERTEX
8
OBJECT__17
10
0
20
0
30
0
70
128
71
98
72
97
73
20
0
VERTEX
8
OBJECT__17
10
0
20
0
30
0
70
128
71
97
72
96
73
17
0
VERTEX
8
OBJECT__17
10
0
20
0
30
0
70
128
71
96
72
95
73
15
0
VERTEX
8
OBJECT__17
10
0
20
0
30
0
70
128
71
95
72
94
73
13
0
VERTEX
8
OBJECT__17
10
0
20
0
30
0
70
128
71
94
72
93
73
10
0
VERTEX
8
OBJECT__17
10
0
20
0
30
0
70
128
71
93
72
92
73
8
0
VERTEX
8
OBJECT__17
10
0
20
0
30
0
70
128
71
92
72
91
73
4
0
VERTEX
8
OBJECT__17
10
0
20
0
30
0
70
128
71
91
72
90
73
3
0
VERTEX
8
OBJECT__17
10
0
20
0
30
0
70
128
71
90
72
125
73
89
0
VERTEX
8
OBJECT__17
10
0
20
0
30
0
70
128
71
89
72
87
73
88
0
VERTEX
8
OBJECT__17
10
0
20
0
30
0
70
128
71
86
72
88
73
87
0
VERTEX
8
OBJECT__17
10
0
20
0
30
0
70
128
71
84
72
85
73
83
0
VERTEX
8
OBJECT__17
10
0
20
0
30
0
70
128
71
82
72
78
73
80
0
VERTEX
8
OBJECT__17
10
0
20
0
30
0
70
128
71
77
72
80
73
78
0
VERTEX
8
OBJECT__17
10
0
20
0
30
0
70
128
71
76
72
79
73
75
0
VERTEX
8
OBJECT__17
10
0
20
0
30
0
70
128
71
74
72
71
73
72
0
VERTEX
8
OBJECT__17
10
0
20
0
30
0
70
128
71
69
72
198
73
70
0
VERTEX
8
OBJECT__17
10
0
20
0
30
0
70
128
71
68
72
198
73
69
0
VERTEX
8
OBJECT__17
10
0
20
0
30
0
70
128
71
66
72
67
73
65
0
VERTEX
8
OBJECT__17
10
0
20
0
30
0
70
128
71
61
72
199
73
63
0
VERTEX
8
OBJECT__17
10
0
20
0
30
0
70
128
71
60
72
199
73
61
0
VERTEX
8
OBJECT__17
10
0
20
0
30
0
70
128
71
58
72
62
73
59
0
VERTEX
8
OBJECT__17
10
0
20
0
30
0
70
128
71
57
72
54
73
55
0
VERTEX
8
OBJECT__17
10
0
20
0
30
0
70
128
71
52
72
200
73
53
0
VERTEX
8
OBJECT__17
10
0
20
0
30
0
70
128
71
51
72
200
73
52
0
VERTEX
8
OBJECT__17
10
0
20
0
30
0
70
128
71
49
72
50
73
48
0
VERTEX
8
OBJECT__17
10
0
20
0
30
0
70
128
71
45
72
44
73
46
0
VERTEX
8
OBJECT__17
10
0
20
0
30
0
70
128
71
45
72
42
73
43
0
VERTEX
8
OBJECT__17
10
0
20
0
30
0
70
128
71
41
72
43
73
42
0
VERTEX
8
OBJECT__17
10
0
20
0
30
0
70
128
71
39
72
40
73
38
0
VERTEX
8
OBJECT__17
10
0
20
0
30
0
70
128
71
34
72
201
73
36
0
VERTEX
8
OBJECT__17
10
0
20
0
30
0
70
128
71
33
72
201
73
34
0
VERTEX
8
OBJECT__17
10
0
20
0
30
0
70
128
71
32
72
35
73
31
0
VERTEX
8
OBJECT__17
10
0
20
0
30
0
70
128
71
30
72
27
73
28
0
VERTEX
8
OBJECT__17
10
0
20
0
30
0
70
128
71
25
72
202
73
26
0
VERTEX
8
OBJECT__17
10
0
20
0
30
0
70
128
71
24
72
202
73
25
0
VERTEX
8
OBJECT__17
10
0
20
0
30
0
70
128
71
22
72
23
73
21
0
VERTEX
8
OBJECT__17
10
0
20
0
30
0
70
128
71
17
72
203
73
19
0
VERTEX
8
OBJECT__17
10
0
20
0
30
0
70
128
71
16
72
203
73
17
0
VERTEX
8
OBJECT__17
10
0
20
0
30
0
70
128
71
14
72
18
73
15
0
VERTEX
8
OBJECT__17
10
0
20
0
30
0
70
128
71
13
72
10
73
11
0
VERTEX
8
OBJECT__17
10
0
20
0
30
0
70
128
71
8
72
204
73
9
0
VERTEX
8
OBJECT__17
10
0
20
0
30
0
70
128
71
7
72
204
73
8
0
VERTEX
8
OBJECT__17
10
0
20
0
30
0
70
128
71
5
72
6
73
4
0
VERTEX
8
OBJECT__17
10
0
20
0
30
0
70
128
71
3
72
89
73
1
0
SEQEND
8
OBJECT__17
0
POLYLINE
8
OBJECT__19
66
1
70
64
71
86
72
86
62
253
0
VERTEX
8
OBJECT__19
10
0.000000
20
50.799999
30
6.803000
70
192
0
VERTEX
8
OBJECT__19
10
12.157000
20
49.324001
30
6.803000
70
192
0
VERTEX
8
OBJECT__19
10
8.821000
20
50.028000
30
4.650000
70
192
0
VERTEX
8
OBJECT__19
10
12.110000
20
49.146999
30
4.650000
70
192
0
VERTEX
8
OBJECT__19
10
23.608000
20
44.980999
30
6.803000
70
192
0
VERTEX
8
OBJECT__19
10
23.549999
20
44.856998
30
4.650000
70
192
0
VERTEX
8
OBJECT__19
10
17.375000
20
47.736000
30
4.650000
70
192
0
VERTEX
8
OBJECT__19
10
33.687000
20
38.023998
30
6.803000
70
192
0
VERTEX
8
OBJECT__19
10
32.653999
20
38.915001
30
4.650000
70
192
0
VERTEX
8
OBJECT__19
10
25.400000
20
43.993999
30
4.650000
70
192
0
VERTEX
8
OBJECT__19
10
33.615002
20
37.952999
30
4.650000
70
192
0
VERTEX
8
OBJECT__19
10
41.807999
20
28.858000
30
6.803000
70
192
0
VERTEX
8
OBJECT__19
10
38.915001
20
32.653999
30
4.650000
70
192
0
VERTEX
8
OBJECT__19
10
41.650002
20
28.747000
30
4.650000
70
192
0
VERTEX
8
OBJECT__19
10
47.499001
20
18.014000
30
6.803000
70
192
0
VERTEX
8
OBJECT__19
10
47.449001
20
17.990999
30
4.650000
70
192
0
VERTEX
8
OBJECT__19
10
43.993999
20
25.400000
30
4.650000
70
192
0
VERTEX
8
OBJECT__19
10
50.430000
20
6.123000
30
6.803000
70
192
0
VERTEX
8
OBJECT__19
10
50.028000
20
8.821000
30
4.650000
70
192
0
VERTEX
8
OBJECT__19
10
47.736000
20
17.375000
30
4.650000
70
192
0
VERTEX
8
OBJECT__19
10
50.265999
20
6.109000
30
4.650000
70
192
0
VERTEX
8
OBJECT__19
10
50.430000
20
-6.123000
30
6.803000
70
192
0
VERTEX
8
OBJECT__19
10
50.799999
20
0.000000
30
4.650000
70
192
0
VERTEX
8
OBJECT__19
10
50.265999
20
-6.109000
30
4.650000
70
192
0
VERTEX
8
OBJECT__19
10
47.499001
20
-18.014000
30
6.803000
70
192
0
VERTEX
8
OBJECT__19
10
47.736000
20
-17.375000
30
4.650000
70
192
0
VERTEX
8
OBJECT__19
10
50.028000
20
-8.821000
30
4.650000
70
192
0
VERTEX
8
OBJECT__19
10
47.449001
20
-17.990999
30
4.650000
70
192
0
VERTEX
8
OBJECT__19
10
41.807999
20
-28.858000
30
6.803000
70
192
0
VERTEX
8
OBJECT__19
10
43.993999
20
-25.400000
30
4.650000
70
192
0
VERTEX
8
OBJECT__19
10
41.650002
20
-28.747000
30
4.650000
70
192
0
VERTEX
8
OBJECT__19
10
33.687000
20
-38.023998
30
6.803000
70
192
0
VERTEX
8
OBJECT__19
10
33.615002
20
-37.952999
30
4.650000
70
192
0
VERTEX
8
OBJECT__19
10
38.915001
20
-32.653999
30
4.650000
70
192
0
VERTEX
8
OBJECT__19
10
23.608000
20
-44.980999
30
6.803000
70
192
0
VERTEX
8
OBJECT__19
10
25.400000
20
-43.993999
30
4.650000
70
192
0
VERTEX
8
OBJECT__19
10
32.653999
20
-38.915001
30
4.650000
70
192
0
VERTEX
8
OBJECT__19
10
23.549999
20
-44.856998
30
4.650000
70
192
0
VERTEX
8
OBJECT__19
10
12.157000
20
-49.324001
30
6.803000
70
192
0
VERTEX
8
OBJECT__19
10
17.375000
20
-47.736000
30
4.650000
70
192
0
VERTEX
8
OBJECT__19
10
12.110000
20
-49.146999
30
4.650000
70
192
0
VERTEX
8
OBJECT__19
10
0.000000
20
-50.799999
30
6.803000
70
192
0
VERTEX
8
OBJECT__19
10
0.000000
20
-50.799999
30
4.650000
70
192
0
VERTEX
8
OBJECT__19
10
8.821000
20
-50.028000
30
4.650000
70
192
0
VERTEX
8
OBJECT__19
10
-12.157000
20
-49.324001
30
6.803000
70
192
0
VERTEX
8
OBJECT__19
10
-8.821000
20
-50.028000
30
4.650000
70
192
0
VERTEX
8
OBJECT__19
10
-12.110000
20
-49.146999
30
4.650000
70
192
0
VERTEX
8
OBJECT__19
10
-23.608000
20
-44.980999
30
6.803000
70
192
0
VERTEX
8
OBJECT__19
10
-23.549999
20
-44.856998
30
4.650000
70
192
0
VERTEX
8
OBJECT__19
10
-17.375000
20
-47.736000
30
4.650000
70
192
0
VERTEX
8
OBJECT__19
10
-33.687000
20
-38.023998
30
6.803000
70
192
0
VERTEX
8
OBJECT__19
10
-32.653999
20
-38.915001
30
4.650000
70
192
0
VERTEX
8
OBJECT__19
10
-25.400000
20
-43.993999
30
4.650000
70
192
0
VERTEX
8
OBJECT__19
10
-33.615002
20
-37.952999
30
4.650000
70
192
0
VERTEX
8
OBJECT__19
10
-41.807999
20
-28.858000
30
6.803000
70
192
0
VERTEX
8
OBJECT__19
10
-38.915001
20
-32.653999
30
4.650000
70
192
0
VERTEX
8
OBJECT__19
10
-41.650002
20
-28.747000
30
4.650000
70
192
0
VERTEX
8
OBJECT__19
10
-47.499001
20
-18.014000
30
6.803000
70
192
0
VERTEX
8
OBJECT__19
10
-47.449001
20
-17.990999
30
4.650000
70
192
0
VERTEX
8
OBJECT__19
10
-43.993999
20
-25.400000
30
4.650000
70
192
0
VERTEX
8
OBJECT__19
10
-50.430000
20
-6.123000
30
6.803000
70
192
0
VERTEX
8
OBJECT__19
10
-50.028000
20
-8.821000
30
4.650000
70
192
0
VERTEX
8
OBJECT__19
10
-47.736000
20
-17.375000
30
4.650000
70
192
0
VERTEX
8
OBJECT__19
10
-50.265999
20
-6.109000
30
4.650000
70
192
0
VERTEX
8
OBJECT__19
10
-50.430000
20
6.123000
30
6.803000
70
192
0
VERTEX
8
OBJECT__19
10
-50.265999
20
6.109000
30
4.650000
70
192
0
VERTEX
8
OBJECT__19
10
-50.799999
20
0.000000
30
4.650000
70
192
0
VERTEX
8
OBJECT__19
10
-47.499001
20
18.014000
30
6.803000
70
192
0
VERTEX
8
OBJECT__19
10
-47.736000
20
17.375000
30
4.650000
70
192
0
VERTEX
8
OBJECT__19
10
-50.028000
20
8.821000
30
4.650000
70
192
0
VERTEX
8
OBJECT__19
10
-47.449001
20
17.990999
30
4.650000
70
192
0
VERTEX
8
OBJECT__19
10
-41.807999
20
28.858000
30
6.803000
70
192
0
VERTEX
8
OBJECT__19
10
-43.993999
20
25.400000
30
4.650000
70
192
0
VERTEX
8
OBJECT__19
10
-41.650002
20
28.747000
30
4.650000
70
192
0
VERTEX
8
OBJECT__19
10
-33.687000
20
38.023998
30
6.803000
70
192
0
VERTEX
8
OBJECT__19
10
-33.615002
20
37.952999
30
4.650000
70
192
0
VERTEX
8
OBJECT__19
10
-38.915001
20
32.653999
30
4.650000
70
192
0
VERTEX
8
OBJECT__19
10
-23.608000
20
44.980999
30
6.803000
70
192
0
VERTEX
8
OBJECT__19
10
-25.400000
20
43.993999
30
4.650000
70
192
0
VERTEX
8
OBJECT__19
10
-32.653999
20
38.915001
30
4.650000
70
192
0
VERTEX
8
OBJECT__19
10
-23.549999
20
44.856998
30
4.650000
70
192
0
VERTEX
8
OBJECT__19
10
-12.157000
20
49.324001
30
6.803000
70
192
0
VERTEX
8
OBJECT__19
10
-17.375000
20
47.736000
30
4.650000
70
192
0
VERTEX
8
OBJECT__19
10
-12.110000
20
49.146999
30
4.650000
70
192
0
VERTEX
8
OBJECT__19
10
0.000000
20
50.799999
30
4.650000
70
192
0
VERTEX
8
OBJECT__19
10
-8.821000
20
50.028000
30
4.650000
70
192
0
VERTEX
8
OBJECT__19
10
0
20
0
30
0
70
128
71
1
72
2
73
3
0
VERTEX
8
OBJECT__19
10
0
20
0
30
0
70
128
71
2
72
4
73
3
0
VERTEX
8
OBJECT__19
10
0
20
0
30
0
70
128
71
5
72
6
73
7
0
VERTEX
8
OBJECT__19
10
0
20
0
30
0
70
128
71
7
72
2
73
5
0
VERTEX
8
OBJECT__19
10
0
20
0
30
0
70
128
71
8
72
9
73
10
0
VERTEX
8
OBJECT__19
10
0
20
0
30
0
70
128
71
10
72
5
73
8
0
VERTEX
8
OBJECT__19
10
0
20
0
30
0
70
128
71
8
72
11
73
9
0
VERTEX
8
OBJECT__19
10
0
20
0
30
0
70
128
71
8
72
12
73
13
0
VERTEX
8
OBJECT__19
10
0
20
0
30
0
70
128
71
12
72
14
73
13
0
VERTEX
8
OBJECT__19
10
0
20
0
30
0
70
128
71
15
72
16
73
17
0
VERTEX
8
OBJECT__19
10
0
20
0
30
0
70
128
71
17
72
12
73
15
0
VERTEX
8
OBJECT__19
10
0
20
0
30
0
70
128
71
15
72
18
73
19
0
VERTEX
8
OBJECT__19
10
0
20
0
30
0
70
128
71
19
72
20
73
15
0
VERTEX
8
OBJECT__19
10
0
20
0
30
0
70
128
71
18
72
21
73
19
0
VERTEX
8
OBJECT__19
10
0
20
0
30
0
70
128
71
18
72
22
73
23
0
VERTEX
8
OBJECT__19
10
0
20
0
30
0
70
128
71
22
72
24
73
23
0
VERTEX
8
OBJECT__19
10
0
20
0
30
0
70
128
71
25
72
26
73
27
0
VERTEX
8
OBJECT__19
10
0
20
0
30
0
70
128
71
27
72
22
73
25
0
VERTEX
8
OBJECT__19
10
0
20
0
30
0
70
128
71
25
72
28
73
26
0
VERTEX
8
OBJECT__19
10
0
20
0
30
0
70
128
71
25
72
29
73
30
0
VERTEX
8
OBJECT__19
10
0
20
0
30
0
70
128
71
29
72
31
73
30
0
VERTEX
8
OBJECT__19
10
0
20
0
30
0
70
128
71
32
72
33
73
34
0
VERTEX
8
OBJECT__19
10
0
20
0
30
0
70
128
71
34
72
29
73
32
0
VERTEX
8
OBJECT__19
10
0
20
0
30
0
70
128
71
32
72
35
73
36
0
VERTEX
8
OBJECT__19
10
0
20
0
30
0
70
128
71
36
72
37
73
32
0
VERTEX
8
OBJECT__19
10
0
20
0
30
0
70
128
71
35
72
38
73
36
0
VERTEX
8
OBJECT__19
10
0
20
0
30
0
70
128
71
35
72
39
73
40
0
VERTEX
8
OBJECT__19
10
0
20
0
30
0
70
128
71
39
72
41
73
40
0
VERTEX
8
OBJECT__19
10
0
20
0
30
0
70
128
71
42
72
43
73
44
0
VERTEX
8
OBJECT__19
10
0
20
0
30
0
70
128
71
44
72
39
73
42
0
VERTEX
8
OBJECT__19
10
0
20
0
30
0
70
128
71
42
72
45
73
46
0
VERTEX
8
OBJECT__19
10
0
20
0
30
0
70
128
71
45
72
47
73
46
0
VERTEX
8
OBJECT__19
10
0
20
0
30
0
70
128
71
48
72
49
73
50
0
VERTEX
8
OBJECT__19
10
0
20
0
30
0
70
128
71
50
72
45
73
48
0
VERTEX
8
OBJECT__19
10
0
20
0
30
0
70
128
71
51
72
52
73
53
0
VERTEX
8
OBJECT__19
10
0
20
0
30
0
70
128
71
53
72
48
73
51
0
VERTEX
8
OBJECT__19
10
0
20
0
30
0
70
128
71
51
72
54
73
52
0
VERTEX
8
OBJECT__19
10
0
20
0
30
0
70
128
71
51
72
55
73
56
0
VERTEX
8
OBJECT__19
10
0
20
0
30
0
70
128
71
55
72
57
73
56
0
VERTEX
8
OBJECT__19
10
0
20
0
30
0
70
128
71
58
72
59
73
60
0
VERTEX
8
OBJECT__19
10
0
20
0
30
0
70
128
71
60
72
55
73
58
0
VERTEX
8
OBJECT__19
10
0
20
0
30
0
70
128
71
58
72
61
73
62
0
VERTEX
8
OBJECT__19
10
0
20
0
30
0
70
128
71
62
72
63
73
58
0
VERTEX
8
OBJECT__19
10
0
20
0
30
0
70
128
71
61
72
64
73
62
0
VERTEX
8
OBJECT__19
10
0
20
0
30
0
70
128
71
65
72
66
73
67
0
VERTEX
8
OBJECT__19
10
0
20
0
30
0
70
128
71
67
72
61
73
65
0
VERTEX
8
OBJECT__19
10
0
20
0
30
0
70
128
71
68
72
69
73
70
0
VERTEX
8
OBJECT__19
10
0
20
0
30
0
70
128
71
70
72
65
73
68
0
VERTEX
8
OBJECT__19
10
0
20
0
30
0
70
128
71
68
72
71
73
69
0
VERTEX
8
OBJECT__19
10
0
20
0
30
0
70
128
71
68
72
72
73
73
0
VERTEX
8
OBJECT__19
10
0
20
0
30
0
70
128
71
72
72
74
73
73
0
VERTEX
8
OBJECT__19
10
0
20
0
30
0
70
128
71
75
72
76
73
77
0
VERTEX
8
OBJECT__19
10
0
20
0
30
0
70
128
71
77
72
72
73
75
0
VERTEX
8
OBJECT__19
10
0
20
0
30
0
70
128
71
75
72
78
73
79
0
VERTEX
8
OBJECT__19
10
0
20
0
30
0
70
128
71
79
72
80
73
75
0
VERTEX
8
OBJECT__19
10
0
20
0
30
0
70
128
71
78
72
81
73
79
0
VERTEX
8
OBJECT__19
10
0
20
0
30
0
70
128
71
78
72
82
73
83
0
VERTEX
8
OBJECT__19
10
0
20
0
30
0
70
128
71
82
72
84
73
83
0
VERTEX
8
OBJECT__19
10
0
20
0
30
0
70
128
71
1
72
85
73
86
0
VERTEX
8
OBJECT__19
10
0
20
0
30
0
70
128
71
86
72
82
73
1
0
VERTEX
8
OBJECT__19
10
0
20
0
30
0
70
128
71
86
72
84
73
82
0
VERTEX
8
OBJECT__19
10
0
20
0
30
0
70
128
71
83
72
81
73
78
0
VERTEX
8
OBJECT__19
10
0
20
0
30
0
70
128
71
80
72
76
73
75
0
VERTEX
8
OBJECT__19
10
0
20
0
30
0
70
128
71
77
72
74
73
72
0
VERTEX
8
OBJECT__19
10
0
20
0
30
0
70
128
71
73
72
71
73
68
0
VERTEX
8
OBJECT__19
10
0
20
0
30
0
70
128
71
70
72
66
73
65
0
VERTEX
8
OBJECT__19
10
0
20
0
30
0
70
128
71
67
72
64
73
61
0
VERTEX
8
OBJECT__19
10
0
20
0
30
0
70
128
71
63
72
59
73
58
0
VERTEX
8
OBJECT__19
10
0
20
0
30
0
70
128
71
60
72
57
73
55
0
VERTEX
8
OBJECT__19
10
0
20
0
30
0
70
128
71
56
72
54
73
51
0
VERTEX
8
OBJECT__19
10
0
20
0
30
0
70
128
71
53
72
49
73
48
0
VERTEX
8
OBJECT__19
10
0
20
0
30
0
70
128
71
50
72
47
73
45
0
VERTEX
8
OBJECT__19
10
0
20
0
30
0
70
128
71
46
72
43
73
42
0
VERTEX
8
OBJECT__19
10
0
20
0
30
0
70
128
71
44
72
41
73
39
0
VERTEX
8
OBJECT__19
10
0
20
0
30
0
70
128
71
40
72
38
73
35
0
VERTEX
8
OBJECT__19
10
0
20
0
30
0
70
128
71
37
72
33
73
32
0
VERTEX
8
OBJECT__19
10
0
20
0
30
0
70
128
71
34
72
31
73
29
0
VERTEX
8
OBJECT__19
10
0
20
0
30
0
70
128
71
30
72
28
73
25
0
VERTEX
8
OBJECT__19
10
0
20
0
30
0
70
128
71
27
72
24
73
22
0
VERTEX
8
OBJECT__19
10
0
20
0
30
0
70
128
71
23
72
21
73
18
0
VERTEX
8
OBJECT__19
10
0
20
0
30
0
70
128
71
20
72
16
73
15
0
VERTEX
8
OBJECT__19
10
0
20
0
30
0
70
128
71
17
72
14
73
12
0
VERTEX
8
OBJECT__19
10
0
20
0
30
0
70
128
71
13
72
11
73
8
0
VERTEX
8
OBJECT__19
10
0
20
0
30
0
70
128
71
10
72
6
73
5
0
VERTEX
8
OBJECT__19
10
0
20
0
30
0
70
128
71
7
72
4
73
2
0
VERTEX
8
OBJECT__19
10
0
20
0
30
0
70
128
71
3
72
85
73
1
0
SEQEND
8
OBJECT__19
0
POLYLINE
8
OBJECT__20
66
1
70
64
71
40
72
38
62
253
0
VERTEX
8
OBJECT__20
10
53.993999
20
-27.511999
30
15.020000
70
192
0
VERTEX
8
OBJECT__20
10
0.000000
20
-60.598999
30
15.020000
70
192
0
VERTEX
8
OBJECT__20
10
9.480000
20
-59.853001
30
15.020000
70
192
0
VERTEX
8
OBJECT__20
10
9.480000
20
59.853001
30
15.020000
70
192
0
VERTEX
8
OBJECT__20
10
-60.598999
20
0.000000
30
15.020000
70
192
0
VERTEX
8
OBJECT__20
10
-59.853001
20
-9.480000
30
15.020000
70
192
0
VERTEX
8
OBJECT__20
10
-53.993999
20
27.511999
30
15.020000
70
192
0
VERTEX
8
OBJECT__20
10
-35.618999
20
49.026001
30
15.020000
70
192
0
VERTEX
8
OBJECT__20
10
-42.849998
20
42.849998
30
15.020000
70
192
0
VERTEX
8
OBJECT__20
10
-27.511999
20
-53.993999
30
15.020000
70
192
0
VERTEX
8
OBJECT__20
10
60.598999
20
0.000000
30
15.020000
70
192
0
VERTEX
8
OBJECT__20
10
59.853001
20
9.480000
30
15.020000
70
192
0
VERTEX
8
OBJECT__20
10
35.618999
20
-49.026001
30
15.020000
70
192
0
VERTEX
8
OBJECT__20
10
42.849998
20
-42.849998
30
15.020000
70
192
0
VERTEX
8
OBJECT__20
10
18.726000
20
-57.632999
30
15.020000
70
192
0
VERTEX
8
OBJECT__20
10
-57.632999
20
-18.726000
30
15.020000
70
192
0
VERTEX
8
OBJECT__20
10
-49.026001
20
35.618999
30
15.020000
70
192
0
VERTEX
8
OBJECT__20
10
-59.853001
20
9.480000
30
15.020000
70
192
0
VERTEX
8
OBJECT__20
10
-18.726000
20
57.632999
30
15.020000
70
192
0
VERTEX
8
OBJECT__20
10
-27.511999
20
53.993999
30
15.020000
70
192
0
VERTEX
8
OBJECT__20
10
59.853001
20
-9.480000
30
15.020000
70
192
0
VERTEX
8
OBJECT__20
10
57.632999
20
-18.726000
30
15.020000
70
192
0
VERTEX
8
OBJECT__20
10
27.511999
20
-53.993999
30
15.020000
70
192
0
VERTEX
8
OBJECT__20
10
-9.480000
20
-59.853001
30
15.020000
70
192
0
VERTEX
8
OBJECT__20
10
-42.849998
20
-42.849998
30
15.020000
70
192
0
VERTEX
8
OBJECT__20
10
-35.618999
20
-49.026001
30
15.020000
70
192
0
VERTEX
8
OBJECT__20
10
-57.632999
20
18.726000
30
15.020000
70
192
0
VERTEX
8
OBJECT__20
10
-9.480000
20
59.853001
30
15.020000
70
192
0
VERTEX
8
OBJECT__20
10
57.632999
20
18.726000
30
15.020000
70
192
0
VERTEX
8
OBJECT__20
10
53.993999
20
27.511999
30
15.020000
70
192
0
VERTEX
8
OBJECT__20
10
-18.726000
20
-57.632999
30
15.020000
70
192
0
VERTEX
8
OBJECT__20
10
-49.026001
20
-35.618999
30
15.020000
70
192
0
VERTEX
8
OBJECT__20
10
-53.993999
20
-27.511999
30
15.020000
70
192
0
VERTEX
8
OBJECT__20
10
0.000000
20
60.598999
30
15.020000
70
192
0
VERTEX
8
OBJECT__20
10
49.026001
20
35.618999
30
15.020000
70
192
0
VERTEX
8
OBJECT__20
10
42.849998
20
42.849998
30
15.020000
70
192
0
VERTEX
8
OBJECT__20
10
35.618999
20
49.026001
30
15.020000
70
192
0
VERTEX
8
OBJECT__20
10
49.026001
20
-35.618999
30
15.020000
70
192
0
VERTEX
8
OBJECT__20
10
27.511999
20
53.993999
30
15.020000
70
192
0
VERTEX
8
OBJECT__20
10
18.726000
20
57.632999
30
15.020000
70
192
0
VERTEX
8
OBJECT__20
10
0
20
0
30
0
70
128
71
1
72
2
73
3
0
VERTEX
8
OBJECT__20
10
0
20
0
30
0
70
128
71
4
72
5
73
6
0
VERTEX
8
OBJECT__20
10
0
20
0
30
0
70
128
71
7
72
8
73
9
0
VERTEX
8
OBJECT__20
10
0
20
0
30
0
70
128
71
10
72
11
73
12
0
VERTEX
8
OBJECT__20
10
0
20
0
30
0
70
128
71
1
72
13
73
14
0
VERTEX
8
OBJECT__20
10
0
20
0
30
0
70
128
71
3
72
15
73
1
0
VERTEX
8
OBJECT__20
10
0
20
0
30
0
70
128
71
6
72
16
73
4
0
VERTEX
8
OBJECT__20
10
0
20
0
30
0
70
128
71
9
72
17
73
7
0
VERTEX
8
OBJECT__20
10
0
20
0
30
0
70
128
71
18
72
19
73
20
0
VERTEX
8
OBJECT__20
10
0
20
0
30
0
70
128
71
10
72
21
73
11
0
VERTEX
8
OBJECT__20
10
0
20
0
30
0
70
128
71
10
72
1
73
22
0
VERTEX
8
OBJECT__20
10
0
20
0
30
0
70
128
71
1
72
23
73
13
0
VERTEX
8
OBJECT__20
10
0
20
0
30
0
70
128
71
1
72
24
73
2
0
VERTEX
8
OBJECT__20
10
0
20
0
30
0
70
128
71
4
72
25
73
26
0
VERTEX
8
OBJECT__20
10
0
20
0
30
0
70
128
71
4
72
18
73
5
0
VERTEX
8
OBJECT__20
10
0
20
0
30
0
70
128
71
7
72
27
73
8
0
VERTEX
8
OBJECT__20
10
0
20
0
30
0
70
128
71
18
72
28
73
19
0
VERTEX
8
OBJECT__20
10
0
20
0
30
0
70
128
71
10
72
29
73
30
0
VERTEX
8
OBJECT__20
10
0
20
0
30
0
70
128
71
22
72
21
73
10
0
VERTEX
8
OBJECT__20
10
0
20
0
30
0
70
128
71
15
72
23
73
1
0
VERTEX
8
OBJECT__20
10
0
20
0
30
0
70
128
71
1
72
10
73
31
0
VERTEX
8
OBJECT__20
10
0
20
0
30
0
70
128
71
4
72
32
73
25
0
VERTEX
8
OBJECT__20
10
0
20
0
30
0
70
128
71
16
72
33
73
4
0
VERTEX
8
OBJECT__20
10
0
20
0
30
0
70
128
71
20
72
8
73
18
0
VERTEX
8
OBJECT__20
10
0
20
0
30
0
70
128
71
18
72
4
73
34
0
VERTEX
8
OBJECT__20
10
0
20
0
30
0
70
128
71
10
72
35
73
36
0
VERTEX
8
OBJECT__20
10
0
20
0
30
0
70
128
71
12
72
29
73
10
0
VERTEX
8
OBJECT__20
10
0
20
0
30
0
70
128
71
31
72
24
73
1
0
VERTEX
8
OBJECT__20
10
0
20
0
30
0
70
128
71
33
72
32
73
4
0
VERTEX
8
OBJECT__20
10
0
20
0
30
0
70
128
71
34
72
28
73
18
0
VERTEX
8
OBJECT__20
10
0
20
0
30
0
70
128
71
36
72
37
73
10
0
VERTEX
8
OBJECT__20
10
0
20
0
30
0
70
128
71
14
72
38
73
1
0
VERTEX
8
OBJECT__20
10
0
20
0
30
0
70
128
71
27
72
18
73
8
0
VERTEX
8
OBJECT__20
10
0
20
0
30
0
70
128
71
10
72
39
73
40
0
VERTEX
8
OBJECT__20
10
0
20
0
30
0
70
128
71
30
72
35
73
10
0
VERTEX
8
OBJECT__20
10
0
20
0
30
0
70
128
71
40
72
4
73
10
0
VERTEX
8
OBJECT__20
10
0
20
0
30
0
70
128
71
26
72
10
73
4
0
VERTEX
8
OBJECT__20
10
0
20
0
30
0
70
128
71
37
72
39
73
10
0
SEQEND
8
OBJECT__20
0
POLYLINE
8
OBJECT__21
66
1
70
64
71
200
72
280
62
253
0
VERTEX
8
OBJECT__21
10
-9.497000
20
59.964001
30
14.970000
70
192
0
VERTEX
8
OBJECT__21
10
-9.480000
20
59.853001
30
15.020000
70
192
0
VERTEX
8
OBJECT__21
10
0.000000
20
60.598999
30
15.020000
70
192
0
VERTEX
8
OBJECT__21
10
-18.761000
20
57.740002
30
14.970000
70
192
0
VERTEX
8
OBJECT__21
10
-18.726000
20
57.632999
30
15.020000
70
192
0
VERTEX
8
OBJECT__21
10
-27.562000
20
54.094002
30
14.970000
70
192
0
VERTEX
8
OBJECT__21
10
-27.511999
20
53.993999
30
15.020000
70
192
0
VERTEX
8
OBJECT__21
10
-35.685001
20
49.116001
30
14.970000
70
192
0
VERTEX
8
OBJECT__21
10
-35.618999
20
49.026001
30
15.020000
70
192
0
VERTEX
8
OBJECT__21
10
-42.929001
20
42.929001
30
14.970000
70
192
0
VERTEX
8
OBJECT__21
10
-42.849998
20
42.849998
30
15.020000
70
192
0
VERTEX
8
OBJECT__21
10
-49.116001
20
35.685001
30
14.970000
70
192
0
VERTEX
8
OBJECT__21
10
-49.026001
20
35.618999
30
15.020000
70
192
0
VERTEX
8
OBJECT__21
10
-54.094002
20
27.562000
30
14.970000
70
192
0
VERTEX
8
OBJECT__21
10
-53.993999
20
27.511999
30
15.020000
70
192
0
VERTEX
8
OBJECT__21
10
-57.740002
20
18.761000
30
14.970000
70
192
0
VERTEX
8
OBJECT__21
10
-57.632999
20
18.726000
30
15.020000
70
192
0
VERTEX
8
OBJECT__21
10
-59.964001
20
9.497000
30
14.970000
70
192
0
VERTEX
8
OBJECT__21
10
-59.853001
20
9.480000
30
15.020000
70
192
0
VERTEX
8
OBJECT__21
10
-60.710999
20
0.000000
30
14.970000
70
192
0
VERTEX
8
OBJECT__21
10
-60.598999
20
0.000000
30
15.020000
70
192
0
VERTEX
8
OBJECT__21
10
-59.964001
20
-9.497000
30
14.970000
70
192
0
VERTEX
8
OBJECT__21
10
-59.853001
20
-9.480000
30
15.020000
70
192
0
VERTEX
8
OBJECT__21
10
-57.740002
20
-18.761000
30
14.970000
70
192
0
VERTEX
8
OBJECT__21
10
-57.632999
20
-18.726000
30
15.020000
70
192
0
VERTEX
8
OBJECT__21
10
-54.094002
20
-27.562000
30
14.970000
70
192
0
VERTEX
8
OBJECT__21
10
-53.993999
20
-27.511999
30
15.020000
70
192
0
VERTEX
8
OBJECT__21
10
-49.116001
20
-35.685001
30
14.970000
70
192
0
VERTEX
8
OBJECT__21
10
-49.026001
20
-35.618999
30
15.020000
70
192
0
VERTEX
8
OBJECT__21
10
-42.929001
20
-42.929001
30
14.970000
70
192
0
VERTEX
8
OBJECT__21
10
-42.849998
20
-42.849998
30
15.020000
70
192
0
VERTEX
8
OBJECT__21
10
-35.685001
20
-49.116001
30
14.970000
70
192
0
VERTEX
8
OBJECT__21
10
-35.618999
20
-49.026001
30
15.020000
70
192
0
VERTEX
8
OBJECT__21
10
-27.562000
20
-54.094002
30
14.970000
70
192
0
VERTEX
8
OBJECT__21
10
-27.511999
20
-53.993999
30
15.020000
70
192
0
VERTEX
8
OBJECT__21
10
-18.761000
20
-57.740002
30
14.970000
70
192
0
VERTEX
8
OBJECT__21
10
-18.726000
20
-57.632999
30
15.020000
70
192
0
VERTEX
8
OBJECT__21
10
-9.497000
20
-59.964001
30
14.970000
70
192
0
VERTEX
8
OBJECT__21
10
-9.480000
20
-59.853001
30
15.020000
70
192
0
VERTEX
8
OBJECT__21
10
0.000000
20
-60.710999
30
14.970000
70
192
0
VERTEX
8
OBJECT__21
10
0.000000
20
-60.598999
30
15.020000
70
192
0
VERTEX
8
OBJECT__21
10
9.497000
20
-59.964001
30
14.970000
70
192
0
VERTEX
8
OBJECT__21
10
9.480000
20
-59.853001
30
15.020000
70
192
0
VERTEX
8
OBJECT__21
10
18.761000
20
-57.740002
30
14.970000
70
192
0
VERTEX
8
OBJECT__21
10
18.726000
20
-57.632999
30
15.020000
70
192
0
VERTEX
8
OBJECT__21
10
27.562000
20
-54.094002
30
14.970000
70
192
0
VERTEX
8
OBJECT__21
10
27.511999
20
-53.993999
30
15.020000
70
192
0
VERTEX
8
OBJECT__21
10
35.685001
20
-49.116001
30
14.970000
70
192
0
VERTEX
8
OBJECT__21
10
35.618999
20
-49.026001
30
15.020000
70
192
0
VERTEX
8
OBJECT__21
10
42.929001
20
-42.929001
30
14.970000
70
192
0
VERTEX
8
OBJECT__21
10
42.849998
20
-42.849998
30
15.020000
70
192
0
VERTEX
8
OBJECT__21
10
49.116001
20
-35.685001
30
14.970000
70
192
0
VERTEX
8
OBJECT__21
10
49.026001
20
-35.618999
30
15.020000
70
192
0
VERTEX
8
OBJECT__21
10
54.094002
20
-27.562000
30
14.970000
70
192
0
VERTEX
8
OBJECT__21
10
53.993999
20
-27.511999
30
15.020000
70
192
0
VERTEX
8
OBJECT__21
10
57.740002
20
-18.761000
30
14.970000
70
192
0
VERTEX
8
OBJECT__21
10
57.632999
20
-18.726000
30
15.020000
70
192
0
VERTEX
8
OBJECT__21
10
59.964001
20
-9.497000
30
14.970000
70
192
0
VERTEX
8
OBJECT__21
10
59.853001
20
-9.480000
30
15.020000
70
192
0
VERTEX
8
OBJECT__21
10
60.710999
20
0.000000
30
14.970000
70
192
0
VERTEX
8
OBJECT__21
10
60.598999
20
0.000000
30
15.020000
70
192
0
VERTEX
8
OBJECT__21
10
59.964001
20
9.497000
30
14.970000
70
192
0
VERTEX
8
OBJECT__21
10
59.853001
20
9.480000
30
15.020000
70
192
0
VERTEX
8
OBJECT__21
10
57.740002
20
18.761000
30
14.970000
70
192
0
VERTEX
8
OBJECT__21
10
57.632999
20
18.726000
30
15.020000
70
192
0
VERTEX
8
OBJECT__21
10
54.094002
20
27.562000
30
14.970000
70
192
0
VERTEX
8
OBJECT__21
10
53.993999
20
27.511999
30
15.020000
70
192
0
VERTEX
8
OBJECT__21
10
49.116001
20
35.685001
30
14.970000
70
192
0
VERTEX
8
OBJECT__21
10
49.026001
20
35.618999
30
15.020000
70
192
0
VERTEX
8
OBJECT__21
10
42.929001
20
42.929001
30
14.970000
70
192
0
VERTEX
8
OBJECT__21
10
42.849998
20
42.849998
30
15.020000
70
192
0
VERTEX
8
OBJECT__21
10
35.685001
20
49.116001
30
14.970000
70
192
0
VERTEX
8
OBJECT__21
10
35.618999
20
49.026001
30
15.020000
70
192
0
VERTEX
8
OBJECT__21
10
27.562000
20
54.094002
30
14.970000
70
192
0
VERTEX
8
OBJECT__21
10
27.511999
20
53.993999
30
15.020000
70
192
0
VERTEX
8
OBJECT__21
10
18.761000
20
57.740002
30
14.970000
70
192
0
VERTEX
8
OBJECT__21
10
18.726000
20
57.632999
30
15.020000
70
192
0
VERTEX
8
OBJECT__21
10
9.497000
20
59.964001
30
14.970000
70
192
0
VERTEX
8
OBJECT__21
10
9.480000
20
59.853001
30
15.020000
70
192
0
VERTEX
8
OBJECT__21
10
0.000000
20
60.710999
30
14.970000
70
192
0
VERTEX
8
OBJECT__21
10
0.000000
20
61.807999
30
14.066000
70
192
0
VERTEX
8
OBJECT__21
10
-9.669000
20
61.047001
30
14.066000
70
192
0
VERTEX
8
OBJECT__21
10
-19.100000
20
58.783001
30
14.066000
70
192
0
VERTEX
8
OBJECT__21
10
-28.059999
20
55.070999
30
14.066000
70
192
0
VERTEX
8
OBJECT__21
10
-36.330002
20
50.004002
30
14.066000
70
192
0
VERTEX
8
OBJECT__21
10
-43.705002
20
43.705002
30
14.066000
70
192
0
VERTEX
8
OBJECT__21
10
-50.004002
20
36.330002
30
14.066000
70
192
0
VERTEX
8
OBJECT__21
10
-55.070999
20
28.059999
30
14.066000
70
192
0
VERTEX
8
OBJECT__21
10
-58.783001
20
19.100000
30
14.066000
70
192
0
VERTEX
8
OBJECT__21
10
-61.047001
20
9.669000
30
14.066000
70
192
0
VERTEX
8
OBJECT__21
10
-61.807999
20
0.000000
30
14.066000
70
192
0
VERTEX
8
OBJECT__21
10
-61.047001
20
-9.669000
30
14.066000
70
192
0
VERTEX
8
OBJECT__21
10
-58.783001
20
-19.100000
30
14.066000
70
192
0
VERTEX
8
OBJECT__21
10
-55.070999
20
-28.059999
30
14.066000
70
192
0
VERTEX
8
OBJECT__21
10
-50.004002
20
-36.330002
30
14.066000
70
192
0
VERTEX
8
OBJECT__21
10
-43.705002
20
-43.705002
30
14.066000
70
192
0
VERTEX
8
OBJECT__21
10
-36.330002
20
-50.004002
30
14.066000
70
192
0
VERTEX
8
OBJECT__21
10
-28.059999
20
-55.070999
30
14.066000
70
192
0
VERTEX
8
OBJECT__21
10
-19.100000
20
-58.783001
30
14.066000
70
192
0
VERTEX
8
OBJECT__21
10
-9.669000
20
-61.047001
30
14.066000
70
192
0
VERTEX
8
OBJECT__21
10
0.000000
20
-61.807999
30
14.066000
70
192
0
VERTEX
8
OBJECT__21
10
9.669000
20
-61.047001
30
14.066000
70
192
0
VERTEX
8
OBJECT__21
10
19.100000
20
-58.783001
30
14.066000
70
192
0
VERTEX
8
OBJECT__21
10
28.059999
20
-55.070999
30
14.066000
70
192
0
VERTEX
8
OBJECT__21
10
36.330002
20
-50.004002
30
14.066000
70
192
0
VERTEX
8
OBJECT__21
10
43.705002
20
-43.705002
30
14.066000
70
192
0
VERTEX
8
OBJECT__21
10
50.004002
20
-36.330002
30
14.066000
70
192
0
VERTEX
8
OBJECT__21
10
55.070999
20
-28.059999
30
14.066000
70
192
0
VERTEX
8
OBJECT__21
10
58.783001
20
-19.100000
30
14.066000
70
192
0
VERTEX
8
OBJECT__21
10
61.047001
20
-9.669000
30
14.066000
70
192
0
VERTEX
8
OBJECT__21
10
61.807999
20
0.000000
30
14.066000
70
192
0
VERTEX
8
OBJECT__21
10
61.047001
20
9.669000
30
14.066000
70
192
0
VERTEX
8
OBJECT__21
10
58.783001
20
19.100000
30
14.066000
70
192
0
VERTEX
8
OBJECT__21
10
55.070999
20
28.059999
30
14.066000
70
192
0
VERTEX
8
OBJECT__21
10
50.004002
20
36.330002
30
14.066000
70
192
0
VERTEX
8
OBJECT__21
10
43.705002
20
43.705002
30
14.066000
70
192
0
VERTEX
8
OBJECT__21
10
36.330002
20
50.004002
30
14.066000
70
192
0
VERTEX
8
OBJECT__21
10
28.059999
20
55.070999
30
14.066000
70
192
0
VERTEX
8
OBJECT__21
10
19.100000
20
58.783001
30
14.066000
70
192
0
VERTEX
8
OBJECT__21
10
9.669000
20
61.047001
30
14.066000
70
192
0
VERTEX
8
OBJECT__21
10
0.000000
20
62.445000
30
12.175000
70
192
0
VERTEX
8
OBJECT__21
10
-9.531000
20
61.695000
30
12.175000
70
192
0
VERTEX
8
OBJECT__21
10
-9.769000
20
61.675999
30
12.175000
70
192
0
VERTEX
8
OBJECT__21
10
-18.833000
20
59.500000
30
12.175000
70
192
0
VERTEX
8
OBJECT__21
10
-19.296000
20
59.388000
30
12.175000
70
192
0
VERTEX
8
OBJECT__21
10
-27.688000
20
55.912998
30
12.175000
70
192
0
VERTEX
8
OBJECT__21
10
-28.349001
20
55.639000
30
12.175000
70
192
0
VERTEX
8
OBJECT__21
10
-35.889999
20
51.018002
30
12.175000
70
192
0
VERTEX
8
OBJECT__21
10
-36.703999
20
50.519001
30
12.175000
70
192
0
VERTEX
8
OBJECT__21
10
-43.248001
20
44.930000
30
12.175000
70
192
0
VERTEX
8
OBJECT__21
10
-44.154999
20
44.154999
30
12.175000
70
192
0
VERTEX
8
OBJECT__21
10
-49.589001
20
37.792999
30
12.175000
70
192
0
VERTEX
8
OBJECT__21
10
-50.519001
20
36.703999
30
12.175000
70
192
0
VERTEX
8
OBJECT__21
10
-54.765999
20
29.774000
30
12.175000
70
192
0
VERTEX
8
OBJECT__21
10
-55.639000
20
28.349001
30
12.175000
70
192
0
VERTEX
8
OBJECT__21
10
-58.658001
20
21.061001
30
12.175000
70
192
0
VERTEX
8
OBJECT__21
10
-59.388000
20
19.296000
30
12.175000
70
192
0
VERTEX
8
OBJECT__21
10
-61.174000
20
11.858000
30
12.175000
70
192
0
VERTEX
8
OBJECT__21
10
-61.675999
20
9.769000
30
12.175000
70
192
0
VERTEX
8
OBJECT__21
10
-62.257000
20
2.381000
30
12.175000
70
192
0
VERTEX
8
OBJECT__21
10
-62.445000
20
0.000000
30
12.175000
70
192
0
VERTEX
8
OBJECT__21
10
-61.882000
20
-7.150000
30
12.175000
70
192
0
VERTEX
8
OBJECT__21
10
-61.675999
20
-9.769000
30
12.175000
70
192
0
VERTEX
8
OBJECT__21
10
-60.057999
20
-16.509001
30
12.175000
70
192
0
VERTEX
8
OBJECT__21
10
-59.388000
20
-19.296000
30
12.175000
70
192
0
VERTEX
8
OBJECT__21
10
-56.827000
20
-25.480000
30
12.175000
70
192
0
VERTEX
8
OBJECT__21
10
-55.639000
20
-28.349001
30
12.175000
70
192
0
VERTEX
8
OBJECT__21
10
-52.265999
20
-33.852001
30
12.175000
70
192
0
VERTEX
8
OBJECT__21
10
-50.519001
20
-36.703999
30
12.175000
70
192
0
VERTEX
8
OBJECT__21
10
-46.483002
20
-41.430000
30
12.175000
70
192
0
VERTEX
8
OBJECT__21
10
-44.154999
20
-44.154999
30
12.175000
70
192
0
VERTEX
8
OBJECT__21
10
-39.611000
20
-48.035999
30
12.175000
70
192
0
VERTEX
8
OBJECT__21
10
-36.703999
20
-50.519001
30
12.175000
70
192
0
VERTEX
8
OBJECT__21
10
-31.813000
20
-53.515999
30
12.175000
70
192
0
VERTEX
8
OBJECT__21
10
-28.349001
20
-55.639000
30
12.175000
70
192
0
VERTEX
8
OBJECT__21
10
-23.270000
20
-57.742001
30
12.175000
70
192
0
VERTEX
8
OBJECT__21
10
-19.296000
20
-59.388000
30
12.175000
70
192
0
VERTEX
8
OBJECT__21
10
-14.184000
20
-60.616001
30
12.175000
70
192
0
VERTEX
8
OBJECT__21
10
-9.769000
20
-61.675999
30
12.175000
70
192
0
VERTEX
8
OBJECT__21
10
-4.765000
20
-62.070000
30
12.175000
70
192
0
VERTEX
8
OBJECT__21
10
4.765000
20
-62.070000
30
12.175000
70
192
0
VERTEX
8
OBJECT__21
10
0.000000
20
-62.445000
30
12.175000
70
192
0
VERTEX
8
OBJECT__21
10
14.184000
20
-60.616001
30
12.175000
70
192
0
VERTEX
8
OBJECT__21
10
9.769000
20
-61.675999
30
12.175000
70
192
0
VERTEX
8
OBJECT__21
10
23.270000
20
-57.742001
30
12.175000
70
192
0
VERTEX
8
OBJECT__21
10
19.296000
20
-59.388000
30
12.175000
70
192
0
VERTEX
8
OBJECT__21
10
31.813000
20
-53.515999
30
12.175000
70
192
0
VERTEX
8
OBJECT__21
10
28.349001
20
-55.639000
30
12.175000
70
192
0
VERTEX
8
OBJECT__21
10
39.611000
20
-48.035999
30
12.175000
70
192
0
VERTEX
8
OBJECT__21
10
36.703999
20
-50.519001
30
12.175000
70
192
0
VERTEX
8
OBJECT__21
10
46.483002
20
-41.430000
30
12.175000
70
192
0
VERTEX
8
OBJECT__21
10
44.154999
20
-44.154999
30
12.175000
70
192
0
VERTEX
8
OBJECT__21
10
52.265999
20
-33.852001
30
12.175000
70
192
0
VERTEX
8
OBJECT__21
10
50.519001
20
-36.703999
30
12.175000
70
192
0
VERTEX
8
OBJECT__21
10
56.827000
20
-25.480000
30
12.175000
70
192
0
VERTEX
8
OBJECT__21
10
55.639000
20
-28.349001
30
12.175000
70
192
0
VERTEX
8
OBJECT__21
10
60.057999
20
-16.509001
30
12.175000
70
192
0
VERTEX
8
OBJECT__21
10
59.388000
20
-19.296000
30
12.175000
70
192
0
VERTEX
8
OBJECT__21
10
61.882000
20
-7.150000
30
12.175000
70
192
0
VERTEX
8
OBJECT__21
10
61.675999
20
-9.769000
30
12.175000
70
192
0
VERTEX
8
OBJECT__21
10
62.257000
20
2.381000
30
12.175000
70
192
0
VERTEX
8
OBJECT__21
10
62.445000
20
0.000000
30
12.175000
70
192
0
VERTEX
8
OBJECT__21
10
61.174000
20
11.858000
30
12.175000
70
192
0
VERTEX
8
OBJECT__21
10
61.675999
20
9.769000
30
12.175000
70
192
0
VERTEX
8
OBJECT__21
10
58.658001
20
21.061001
30
12.175000
70
192
0
VERTEX
8
OBJECT__21
10
59.388000
20
19.296000
30
12.175000
70
192
0
VERTEX
8
OBJECT__21
10
54.765999
20
29.774000
30
12.175000
70
192
0
VERTEX
8
OBJECT__21
10
55.639000
20
28.349001
30
12.175000
70
192
0
VERTEX
8
OBJECT__21
10
49.589001
20
37.792999
30
12.175000
70
192
0
VERTEX
8
OBJECT__21
10
50.519001
20
36.703999
30
12.175000
70
192
0
VERTEX
8
OBJECT__21
10
43.248001
20
44.930000
30
12.175000
70
192
0
VERTEX
8
OBJECT__21
10
44.154999
20
44.154999
30
12.175000
70
192
0
VERTEX
8
OBJECT__21
10
35.889999
20
51.018002
30
12.175000
70
192
0
VERTEX
8
OBJECT__21
10
36.703999
20
50.519001
30
12.175000
70
192
0
VERTEX
8
OBJECT__21
10
27.688000
20
55.912998
30
12.175000
70
192
0
VERTEX
8
OBJECT__21
10
28.349001
20
55.639000
30
12.175000
70
192
0
VERTEX
8
OBJECT__21
10
18.833000
20
59.500000
30
12.175000
70
192
0
VERTEX
8
OBJECT__21
10
19.296000
20
59.388000
30
12.175000
70
192
0
VERTEX
8
OBJECT__21
10
9.531000
20
61.695000
30
12.175000
70
192
0
VERTEX
8
OBJECT__21
10
9.769000
20
61.675999
30
12.175000
70
192
0
VERTEX
8
OBJECT__21
10
0
20
0
30
0
70
128
71
1
72
2
73
3
0
VERTEX
8
OBJECT__21
10
0
20
0
30
0
70
128
71
4
72
5
73
2
0
VERTEX
8
OBJECT__21
10
0
20
0
30
0
70
128
71
6
72
7
73
5
0
VERTEX
8
OBJECT__21
10
0
20
0
30
0
70
128
71
8
72
9
73
7
0
VERTEX
8
OBJECT__21
10
0
20
0
30
0
70
128
71
10
72
11
73
9
0
VERTEX
8
OBJECT__21
10
0
20
0
30
0
70
128
71
12
72
13
73
11
0
VERTEX
8
OBJECT__21
10
0
20
0
30
0
70
128
71
14
72
15
73
13
0
VERTEX
8
OBJECT__21
10
0
20
0
30
0
70
128
71
14
72
16
73
17
0
VERTEX
8
OBJECT__21
10
0
20
0
30
0
70
128
71
16
72
18
73
19
0
VERTEX
8
OBJECT__21
10
0
20
0
30
0
70
128
71
20
72
21
73
19
0
VERTEX
8
OBJECT__21
10
0
20
0
30
0
70
128
71
22
72
23
73
21
0
VERTEX
8
OBJECT__21
10
0
20
0
30
0
70
128
71
24
72
25
73
23
0
VERTEX
8
OBJECT__21
10
0
20
0
30
0
70
128
71
26
72
27
73
25
0
VERTEX
8
OBJECT__21
10
0
20
0
30
0
70
128
71
28
72
29
73
27
0
VERTEX
8
OBJECT__21
10
0
20
0
30
0
70
128
71
30
72
31
73
29
0
VERTEX
8
OBJECT__21
10
0
20
0
30
0
70
128
71
32
72
33
73
31
0
VERTEX
8
OBJECT__21
10
0
20
0
30
0
70
128
71
34
72
35
73
33
0
VERTEX
8
OBJECT__21
10
0
20
0
30
0
70
128
71
34
72
36
73
37
0
VERTEX
8
OBJECT__21
10
0
20
0
30
0
70
128
71
36
72
38
73
39
0
VERTEX
8
OBJECT__21
10
0
20
0
30
0
70
128
71
40
72
41
73
39
0
VERTEX
8
OBJECT__21
10
0
20
0
30
0
70
128
71
42
72
43
73
41
0
VERTEX
8
OBJECT__21
10
0
20
0
30
0
70
128
71
44
72
45
73
43
0
VERTEX
8
OBJECT__21
10
0
20
0
30
0
70
128
71
46
72
47
73
45
0
VERTEX
8
OBJECT__21
10
0
20
0
30
0
70
128
71
48
72
49
73
47
0
VERTEX
8
OBJECT__21
10
0
20
0
30
0
70
128
71
50
72
51
73
49
0
VERTEX
8
OBJECT__21
10
0
20
0
30
0
70
128
71
52
72
53
73
51
0
VERTEX
8
OBJECT__21
10
0
20
0
30
0
70
128
71
54
72
55
73
53
0
VERTEX
8
OBJECT__21
10
0
20
0
30
0
70
128
71
54
72
56
73
57
0
VERTEX
8
OBJECT__21
10
0
20
0
30
0
70
128
71
56
72
58
73
59
0
VERTEX
8
OBJECT__21
10
0
20
0
30
0
70
128
71
60
72
61
73
59
0
VERTEX
8
OBJECT__21
10
0
20
0
30
0
70
128
71
62
72
63
73
61
0
VERTEX
8
OBJECT__21
10
0
20
0
30
0
70
128
71
64
72
65
73
63
0
VERTEX
8
OBJECT__21
10
0
20
0
30
0
70
128
71
66
72
67
73
65
0
VERTEX
8
OBJECT__21
10
0
20
0
30
0
70
128
71
68
72
69
73
67
0
VERTEX
8
OBJECT__21
10
0
20
0
30
0
70
128
71
70
72
71
73
69
0
VERTEX
8
OBJECT__21
10
0
20
0
30
0
70
128
71
72
72
73
73
71
0
VERTEX
8
OBJECT__21
10
0
20
0
30
0
70
128
71
74
72
75
73
73
0
VERTEX
8
OBJECT__21
10
0
20
0
30
0
70
128
71
74
72
76
73
77
0
VERTEX
8
OBJECT__21
10
0
20
0
30
0
70
128
71
76
72
78
73
79
0
VERTEX
8
OBJECT__21
10
0
20
0
30
0
70
128
71
80
72
3
73
79
0
VERTEX
8
OBJECT__21
10
0
20
0
30
0
70
128
71
81
72
82
73
1
0
VERTEX
8
OBJECT__21
10
0
20
0
30
0
70
128
71
82
72
83
73
4
0
VERTEX
8
OBJECT__21
10
0
20
0
30
0
70
128
71
83
72
84
73
6
0
VERTEX
8
OBJECT__21
10
0
20
0
30
0
70
128
71
84
72
85
73
8
0
VERTEX
8
OBJECT__21
10
0
20
0
30
0
70
128
71
85
72
86
73
10
0
VERTEX
8
OBJECT__21
10
0
20
0
30
0
70
128
71
86
72
87
73
12
0
VERTEX
8
OBJECT__21
10
0
20
0
30
0
70
128
71
87
72
88
73
14
0
VERTEX
8
OBJECT__21
10
0
20
0
30
0
70
128
71
88
72
89
73
16
0
VERTEX
8
OBJECT__21
10
0
20
0
30
0
70
128
71
89
72
90
73
18
0
VERTEX
8
OBJECT__21
10
0
20
0
30
0
70
128
71
90
72
91
73
20
0
VERTEX
8
OBJECT__21
10
0
20
0
30
0
70
128
71
91
72
92
73
22
0
VERTEX
8
OBJECT__21
10
0
20
0
30
0
70
128
71
92
72
93
73
24
0
VERTEX
8
OBJECT__21
10
0
20
0
30
0
70
128
71
93
72
94
73
26
0
VERTEX
8
OBJECT__21
10
0
20
0
30
0
70
128
71
94
72
95
73
28
0
VERTEX
8
OBJECT__21
10
0
20
0
30
0
70
128
71
95
72
96
73
30
0
VERTEX
8
OBJECT__21
10
0
20
0
30
0
70
128
71
96
72
97
73
32
0
VERTEX
8
OBJECT__21
10
0
20
0
30
0
70
128
71
97
72
98
73
34
0
VERTEX
8
OBJECT__21
10
0
20
0
30
0
70
128
71
98
72
99
73
36
0
VERTEX
8
OBJECT__21
10
0
20
0
30
0
70
128
71
99
72
100
73
38
0
VERTEX
8
OBJECT__21
10
0
20
0
30
0
70
128
71
100
72
101
73
40
0
VERTEX
8
OBJECT__21
10
0
20
0
30
0
70
128
71
101
72
102
73
42
0
VERTEX
8
OBJECT__21
10
0
20
0
30
0
70
128
71
102
72
103
73
44
0
VERTEX
8
OBJECT__21
10
0
20
0
30
0
70
128
71
103
72
104
73
46
0
VERTEX
8
OBJECT__21
10
0
20
0
30
0
70
128
71
104
72
105
73
48
0
VERTEX
8
OBJECT__21
10
0
20
0
30
0
70
128
71
105
72
106
73
50
0
VERTEX
8
OBJECT__21
10
0
20
0
30
0
70
128
71
106
72
107
73
52
0
VERTEX
8
OBJECT__21
10
0
20
0
30
0
70
128
71
107
72
108
73
54
0
VERTEX
8
OBJECT__21
10
0
20
0
30
0
70
128
71
108
72
109
73
56
0
VERTEX
8
OBJECT__21
10
0
20
0
30
0
70
128
71
109
72
110
73
58
0
VERTEX
8
OBJECT__21
10
0
20
0
30
0
70
128
71
110
72
111
73
60
0
VERTEX
8
OBJECT__21
10
0
20
0
30
0
70
128
71
111
72
112
73
62
0
VERTEX
8
OBJECT__21
10
0
20
0
30
0
70
128
71
112
72
113
73
64
0
VERTEX
8
OBJECT__21
10
0
20
0
30
0
70
128
71
113
72
114
73
66
0
VERTEX
8
OBJECT__21
10
0
20
0
30
0
70
128
71
114
72
115
73
68
0
VERTEX
8
OBJECT__21
10
0
20
0
30
0
70
128
71
115
72
116
73
70
0
VERTEX
8
OBJECT__21
10
0
20
0
30
0
70
128
71
116
72
117
73
72
0
VERTEX
8
OBJECT__21
10
0
20
0
30
0
70
128
71
117
72
118
73
74
0
VERTEX
8
OBJECT__21
10
0
20
0
30
0
70
128
71
118
72
119
73
76
0
VERTEX
8
OBJECT__21
10
0
20
0
30
0
70
128
71
119
72
120
73
78
0
VERTEX
8
OBJECT__21
10
0
20
0
30
0
70
128
71
120
72
81
73
80
0
VERTEX
8
OBJECT__21
10
0
20
0
30
0
70
128
71
81
72
121
73
122
0
VERTEX
8
OBJECT__21
10
0
20
0
30
0
70
128
71
122
72
82
73
81
0
VERTEX
8
OBJECT__21
10
0
20
0
30
0
70
128
71
82
72
123
73
124
0
VERTEX
8
OBJECT__21
10
0
20
0
30
0
70
128
71
124
72
83
73
82
0
VERTEX
8
OBJECT__21
10
0
20
0
30
0
70
128
71
83
72
125
73
126
0
VERTEX
8
OBJECT__21
10
0
20
0
30
0
70
128
71
126
72
84
73
83
0
VERTEX
8
OBJECT__21
10
0
20
0
30
0
70
128
71
84
72
127
73
128
0
VERTEX
8
OBJECT__21
10
0
20
0
30
0
70
128
71
128
72
85
73
84
0
VERTEX
8
OBJECT__21
10
0
20
0
30
0
70
128
71
85
72
129
73
130
0
VERTEX
8
OBJECT__21
10
0
20
0
30
0
70
128
71
130
72
86
73
85
0
VERTEX
8
OBJECT__21
10
0
20
0
30
0
70
128
71
86
72
131
73
132
0
VERTEX
8
OBJECT__21
10
0
20
0
30
0
70
128
71
132
72
87
73
86
0
VERTEX
8
OBJECT__21
10
0
20
0
30
0
70
128
71
87
72
133
73
134
0
VERTEX
8
OBJECT__21
10
0
20
0
30
0
70
128
71
134
72
88
73
87
0
VERTEX
8
OBJECT__21
10
0
20
0
30
0
70
128
71
88
72
135
73
136
0
VERTEX
8
OBJECT__21
10
0
20
0
30
0
70
128
71
136
72
89
73
88
0
VERTEX
8
OBJECT__21
10
0
20
0
30
0
70
128
71
89
72
137
73
138
0
VERTEX
8
OBJECT__21
10
0
20
0
30
0
70
128
71
138
72
90
73
89
0
VERTEX
8
OBJECT__21
10
0
20
0
30
0
70
128
71
90
72
139
73
140
0
VERTEX
8
OBJECT__21
10
0
20
0
30
0
70
128
71
140
72
91
73
90
0
VERTEX
8
OBJECT__21
10
0
20
0
30
0
70
128
71
91
72
141
73
142
0
VERTEX
8
OBJECT__21
10
0
20
0
30
0
70
128
71
142
72
92
73
91
0
VERTEX
8
OBJECT__21
10
0
20
0
30
0
70
128
71
92
72
143
73
144
0
VERTEX
8
OBJECT__21
10
0
20
0
30
0
70
128
71
144
72
93
73
92
0
VERTEX
8
OBJECT__21
10
0
20
0
30
0
70
128
71
93
72
145
73
146
0
VERTEX
8
OBJECT__21
10
0
20
0
30
0
70
128
71
146
72
94
73
93
0
VERTEX
8
OBJECT__21
10
0
20
0
30
0
70
128
71
94
72
147
73
148
0
VERTEX
8
OBJECT__21
10
0
20
0
30
0
70
128
71
148
72
95
73
94
0
VERTEX
8
OBJECT__21
10
0
20
0
30
0
70
128
71
95
72
149
73
150
0
VERTEX
8
OBJECT__21
10
0
20
0
30
0
70
128
71
150
72
96
73
95
0
VERTEX
8
OBJECT__21
10
0
20
0
30
0
70
128
71
96
72
151
73
152
0
VERTEX
8
OBJECT__21
10
0
20
0
30
0
70
128
71
152
72
97
73
96
0
VERTEX
8
OBJECT__21
10
0
20
0
30
0
70
128
71
97
72
153
73
154
0
VERTEX
8
OBJECT__21
10
0
20
0
30
0
70
128
71
154
72
98
73
97
0
VERTEX
8
OBJECT__21
10
0
20
0
30
0
70
128
71
98
72
155
73
156
0
VERTEX
8
OBJECT__21
10
0
20
0
30
0
70
128
71
156
72
99
73
98
0
VERTEX
8
OBJECT__21
10
0
20
0
30
0
70
128
71
99
72
157
73
158
0
VERTEX
8
OBJECT__21
10
0
20
0
30
0
70
128
71
158
72
100
73
99
0
VERTEX
8
OBJECT__21
10
0
20
0
30
0
70
128
71
100
72
159
73
160
0
VERTEX
8
OBJECT__21
10
0
20
0
30
0
70
128
71
160
72
101
73
100
0
VERTEX
8
OBJECT__21
10
0
20
0
30
0
70
128
71
102
72
101
73
161
0
VERTEX
8
OBJECT__21
10
0
20
0
30
0
70
128
71
101
72
162
73
161
0
VERTEX
8
OBJECT__21
10
0
20
0
30
0
70
128
71
103
72
102
73
163
0
VERTEX
8
OBJECT__21
10
0
20
0
30
0
70
128
71
102
72
164
73
163
0
VERTEX
8
OBJECT__21
10
0
20
0
30
0
70
128
71
104
72
103
73
165
0
VERTEX
8
OBJECT__21
10
0
20
0
30
0
70
128
71
103
72
166
73
165
0
VERTEX
8
OBJECT__21
10
0
20
0
30
0
70
128
71
105
72
104
73
167
0
VERTEX
8
OBJECT__21
10
0
20
0
30
0
70
128
71
104
72
168
73
167
0
VERTEX
8
OBJECT__21
10
0
20
0
30
0
70
128
71
106
72
105
73
169
0
VERTEX
8
OBJECT__21
10
0
20
0
30
0
70
128
71
105
72
170
73
169
0
VERTEX
8
OBJECT__21
10
0
20
0
30
0
70
128
71
107
72
106
73
171
0
VERTEX
8
OBJECT__21
10
0
20
0
30
0
70
128
71
106
72
172
73
171
0
VERTEX
8
OBJECT__21
10
0
20
0
30
0
70
128
71
108
72
107
73
173
0
VERTEX
8
OBJECT__21
10
0
20
0
30
0
70
128
71
107
72
174
73
173
0
VERTEX
8
OBJECT__21
10
0
20
0
30
0
70
128
71
109
72
108
73
175
0
VERTEX
8
OBJECT__21
10
0
20
0
30
0
70
128
71
108
72
176
73
175
0
VERTEX
8
OBJECT__21
10
0
20
0
30
0
70
128
71
110
72
109
73
177
0
VERTEX
8
OBJECT__21
10
0
20
0
30
0
70
128
71
109
72
178
73
177
0
VERTEX
8
OBJECT__21
10
0
20
0
30
0
70
128
71
111
72
110
73
179
0
VERTEX
8
OBJECT__21
10
0
20
0
30
0
70
128
71
110
72
180
73
179
0
VERTEX
8
OBJECT__21
10
0
20
0
30
0
70
128
71
112
72
111
73
181
0
VERTEX
8
OBJECT__21
10
0
20
0
30
0
70
128
71
111
72
182
73
181
0
VERTEX
8
OBJECT__21
10
0
20
0
30
0
70
128
71
113
72
112
73
183
0
VERTEX
8
OBJECT__21
10
0
20
0
30
0
70
128
71
112
72
184
73
183
0
VERTEX
8
OBJECT__21
10
0
20
0
30
0
70
128
71
114
72
113
73
185
0
VERTEX
8
OBJECT__21
10
0
20
0
30
0
70
128
71
113
72
186
73
185
0
VERTEX
8
OBJECT__21
10
0
20
0
30
0
70
128
71
115
72
114
73
187
0
VERTEX
8
OBJECT__21
10
0
20
0
30
0
70
128
71
114
72
188
73
187
0
VERTEX
8
OBJECT__21
10
0
20
0
30
0
70
128
71
116
72
115
73
189
0
VERTEX
8
OBJECT__21
10
0
20
0
30
0
70
128
71
115
72
190
73
189
0
VERTEX
8
OBJECT__21
10
0
20
0
30
0
70
128
71
117
72
116
73
191
0
VERTEX
8
OBJECT__21
10
0
20
0
30
0
70
128
71
116
72
192
73
191
0
VERTEX
8
OBJECT__21
10
0
20
0
30
0
70
128
71
118
72
117
73
193
0
VERTEX
8
OBJECT__21
10
0
20
0
30
0
70
128
71
117
72
194
73
193
0
VERTEX
8
OBJECT__21
10
0
20
0
30
0
70
128
71
119
72
118
73
195
0
VERTEX
8
OBJECT__21
10
0
20
0
30
0
70
128
71
118
72
196
73
195
0
VERTEX
8
OBJECT__21
10
0
20
0
30
0
70
128
71
120
72
119
73
197
0
VERTEX
8
OBJECT__21
10
0
20
0
30
0
70
128
71
119
72
198
73
197
0
VERTEX
8
OBJECT__21
10
0
20
0
30
0
70
128
71
81
72
120
73
199
0
VERTEX
8
OBJECT__21
10
0
20
0
30
0
70
128
71
120
72
200
73
199
0
VERTEX
8
OBJECT__21
10
0
20
0
30
0
70
128
71
199
72
121
73
81
0
VERTEX
8
OBJECT__21
10
0
20
0
30
0
70
128
71
197
72
200
73
120
0
VERTEX
8
OBJECT__21
10
0
20
0
30
0
70
128
71
195
72
198
73
119
0
VERTEX
8
OBJECT__21
10
0
20
0
30
0
70
128
71
193
72
196
73
118
0
VERTEX
8
OBJECT__21
10
0
20
0
30
0
70
128
71
191
72
194
73
117
0
VERTEX
8
OBJECT__21
10
0
20
0
30
0
70
128
71
189
72
192
73
116
0
VERTEX
8
OBJECT__21
10
0
20
0
30
0
70
128
71
187
72
190
73
115
0
VERTEX
8
OBJECT__21
10
0
20
0
30
0
70
128
71
185
72
188
73
114
0
VERTEX
8
OBJECT__21
10
0
20
0
30
0
70
128
71
183
72
186
73
113
0
VERTEX
8
OBJECT__21
10
0
20
0
30
0
70
128
71
181
72
184
73
112
0
VERTEX
8
OBJECT__21
10
0
20
0
30
0
70
128
71
179
72
182
73
111
0
VERTEX
8
OBJECT__21
10
0
20
0
30
0
70
128
71
177
72
180
73
110
0
VERTEX
8
OBJECT__21
10
0
20
0
30
0
70
128
71
175
72
178
73
109
0
VERTEX
8
OBJECT__21
10
0
20
0
30
0
70
128
71
173
72
176
73
108
0
VERTEX
8
OBJECT__21
10
0
20
0
30
0
70
128
71
171
72
174
73
107
0
VERTEX
8
OBJECT__21
10
0
20
0
30
0
70
128
71
169
72
172
73
106
0
VERTEX
8
OBJECT__21
10
0
20
0
30
0
70
128
71
167
72
170
73
105
0
VERTEX
8
OBJECT__21
10
0
20
0
30
0
70
128
71
165
72
168
73
104
0
VERTEX
8
OBJECT__21
10
0
20
0
30
0
70
128
71
163
72
166
73
103
0
VERTEX
8
OBJECT__21
10
0
20
0
30
0
70
128
71
161
72
164
73
102
0
VERTEX
8
OBJECT__21
10
0
20
0
30
0
70
128
71
160
72
162
73
101
0
VERTEX
8
OBJECT__21
10
0
20
0
30
0
70
128
71
158
72
159
73
100
0
VERTEX
8
OBJECT__21
10
0
20
0
30
0
70
128
71
156
72
157
73
99
0
VERTEX
8
OBJECT__21
10
0
20
0
30
0
70
128
71
154
72
155
73
98
0
VERTEX
8
OBJECT__21
10
0
20
0
30
0
70
128
71
152
72
153
73
97
0
VERTEX
8
OBJECT__21
10
0
20
0
30
0
70
128
71
150
72
151
73
96
0
VERTEX
8
OBJECT__21
10
0
20
0
30
0
70
128
71
148
72
149
73
95
0
VERTEX
8
OBJECT__21
10
0
20
0
30
0
70
128
71
146
72
147
73
94
0
VERTEX
8
OBJECT__21
10
0
20
0
30
0
70
128
71
144
72
145
73
93
0
VERTEX
8
OBJECT__21
10
0
20
0
30
0
70
128
71
142
72
143
73
92
0
VERTEX
8
OBJECT__21
10
0
20
0
30
0
70
128
71
140
72
141
73
91
0
VERTEX
8
OBJECT__21
10
0
20
0
30
0
70
128
71
138
72
139
73
90
0
VERTEX
8
OBJECT__21
10
0
20
0
30
0
70
128
71
136
72
137
73
89
0
VERTEX
8
OBJECT__21
10
0
20
0
30
0
70
128
71
134
72
135
73
88
0
VERTEX
8
OBJECT__21
10
0
20
0
30
0
70
128
71
132
72
133
73
87
0
VERTEX
8
OBJECT__21
10
0
20
0
30
0
70
128
71
130
72
131
73
86
0
VERTEX
8
OBJECT__21
10
0
20
0
30
0
70
128
71
128
72
129
73
85
0
VERTEX
8
OBJECT__21
10
0
20
0
30
0
70
128
71
126
72
127
73
84
0
VERTEX
8
OBJECT__21
10
0
20
0
30
0
70
128
71
124
72
125
73
83
0
VERTEX
8
OBJECT__21
10
0
20
0
30
0
70
128
71
122
72
123
73
82
0
VERTEX
8
OBJECT__21
10
0
20
0
30
0
70
128
71
80
72
78
73
120
0
VERTEX
8
OBJECT__21
10
0
20
0
30
0
70
128
71
78
72
76
73
119
0
VERTEX
8
OBJECT__21
10
0
20
0
30
0
70
128
71
76
72
74
73
118
0
VERTEX
8
OBJECT__21
10
0
20
0
30
0
70
128
71
74
72
72
73
117
0
VERTEX
8
OBJECT__21
10
0
20
0
30
0
70
128
71
72
72
70
73
116
0
VERTEX
8
OBJECT__21
10
0
20
0
30
0
70
128
71
70
72
68
73
115
0
VERTEX
8
OBJECT__21
10
0
20
0
30
0
70
128
71
68
72
66
73
114
0
VERTEX
8
OBJECT__21
10
0
20
0
30
0
70
128
71
66
72
64
73
113
0
VERTEX
8
OBJECT__21
10
0
20
0
30
0
70
128
71
64
72
62
73
112
0
VERTEX
8
OBJECT__21
10
0
20
0
30
0
70
128
71
62
72
60
73
111
0
VERTEX
8
OBJECT__21
10
0
20
0
30
0
70
128
71
60
72
58
73
110
0
VERTEX
8
OBJECT__21
10
0
20
0
30
0
70
128
71
58
72
56
73
109
0
VERTEX
8
OBJECT__21
10
0
20
0
30
0
70
128
71
56
72
54
73
108
0
VERTEX
8
OBJECT__21
10
0
20
0
30
0
70
128
71
54
72
52
73
107
0
VERTEX
8
OBJECT__21
10
0
20
0
30
0
70
128
71
52
72
50
73
106
0
VERTEX
8
OBJECT__21
10
0
20
0
30
0
70
128
71
50
72
48
73
105
0
VERTEX
8
OBJECT__21
10
0
20
0
30
0
70
128
71
48
72
46
73
104
0
VERTEX
8
OBJECT__21
10
0
20
0
30
0
70
128
71
46
72
44
73
103
0
VERTEX
8
OBJECT__21
10
0
20
0
30
0
70
128
71
44
72
42
73
102
0
VERTEX
8
OBJECT__21
10
0
20
0
30
0
70
128
71
42
72
40
73
101
0
VERTEX
8
OBJECT__21
10
0
20
0
30
0
70
128
71
40
72
38
73
100
0
VERTEX
8
OBJECT__21
10
0
20
0
30
0
70
128
71
38
72
36
73
99
0
VERTEX
8
OBJECT__21
10
0
20
0
30
0
70
128
71
36
72
34
73
98
0
VERTEX
8
OBJECT__21
10
0
20
0
30
0
70
128
71
34
72
32
73
97
0
VERTEX
8
OBJECT__21
10
0
20
0
30
0
70
128
71
32
72
30
73
96
0
VERTEX
8
OBJECT__21
10
0
20
0
30
0
70
128
71
30
72
28
73
95
0
VERTEX
8
OBJECT__21
10
0
20
0
30
0
70
128
71
28
72
26
73
94
0
VERTEX
8
OBJECT__21
10
0
20
0
30
0
70
128
71
26
72
24
73
93
0
VERTEX
8
OBJECT__21
10
0
20
0
30
0
70
128
71
24
72
22
73
92
0
VERTEX
8
OBJECT__21
10
0
20
0
30
0
70
128
71
22
72
20
73
91
0
VERTEX
8
OBJECT__21
10
0
20
0
30
0
70
128
71
20
72
18
73
90
0
VERTEX
8
OBJECT__21
10
0
20
0
30
0
70
128
71
18
72
16
73
89
0
VERTEX
8
OBJECT__21
10
0
20
0
30
0
70
128
71
16
72
14
73
88
0
VERTEX
8
OBJECT__21
10
0
20
0
30
0
70
128
71
14
72
12
73
87
0
VERTEX
8
OBJECT__21
10
0
20
0
30
0
70
128
71
12
72
10
73
86
0
VERTEX
8
OBJECT__21
10
0
20
0
30
0
70
128
71
10
72
8
73
85
0
VERTEX
8
OBJECT__21
10
0
20
0
30
0
70
128
71
8
72
6
73
84
0
VERTEX
8
OBJECT__21
10
0
20
0
30
0
70
128
71
6
72
4
73
83
0
VERTEX
8
OBJECT__21
10
0
20
0
30
0
70
128
71
4
72
1
73
82
0
VERTEX
8
OBJECT__21
10
0
20
0
30
0
70
128
71
1
72
80
73
81
0
VERTEX
8
OBJECT__21
10
0
20
0
30
0
70
128
71
79
72
78
73
80
0
VERTEX
8
OBJECT__21
10
0
20
0
30
0
70
128
71
79
72
77
73
76
0
VERTEX
8
OBJECT__21
10
0
20
0
30
0
70
128
71
77
72
75
73
74
0
VERTEX
8
OBJECT__21
10
0
20
0
30
0
70
128
71
73
72
72
73
74
0
VERTEX
8
OBJECT__21
10
0
20
0
30
0
70
128
71
71
72
70
73
72
0
VERTEX
8
OBJECT__21
10
0
20
0
30
0
70
128
71
69
72
68
73
70
0
VERTEX
8
OBJECT__21
10
0
20
0
30
0
70
128
71
67
72
66
73
68
0
VERTEX
8
OBJECT__21
10
0
20
0
30
0
70
128
71
65
72
64
73
66
0
VERTEX
8
OBJECT__21
10
0
20
0
30
0
70
128
71
63
72
62
73
64
0
VERTEX
8
OBJECT__21
10
0
20
0
30
0
70
128
71
61
72
60
73
62
0
VERTEX
8
OBJECT__21
10
0
20
0
30
0
70
128
71
59
72
58
73
60
0
VERTEX
8
OBJECT__21
10
0
20
0
30
0
70
128
71
59
72
57
73
56
0
VERTEX
8
OBJECT__21
10
0
20
0
30
0
70
128
71
57
72
55
73
54
0
VERTEX
8
OBJECT__21
10
0
20
0
30
0
70
128
71
53
72
52
73
54
0
VERTEX
8
OBJECT__21
10
0
20
0
30
0
70
128
71
51
72
50
73
52
0
VERTEX
8
OBJECT__21
10
0
20
0
30
0
70
128
71
49
72
48
73
50
0
VERTEX
8
OBJECT__21
10
0
20
0
30
0
70
128
71
47
72
46
73
48
0
VERTEX
8
OBJECT__21
10
0
20
0
30
0
70
128
71
45
72
44
73
46
0
VERTEX
8
OBJECT__21
10
0
20
0
30
0
70
128
71
43
72
42
73
44
0
VERTEX
8
OBJECT__21
10
0
20
0
30
0
70
128
71
41
72
40
73
42
0
VERTEX
8
OBJECT__21
10
0
20
0
30
0
70
128
71
39
72
38
73
40
0
VERTEX
8
OBJECT__21
10
0
20
0
30
0
70
128
71
39
72
37
73
36
0
VERTEX
8
OBJECT__21
10
0
20
0
30
0
70
128
71
37
72
35
73
34
0
VERTEX
8
OBJECT__21
10
0
20
0
30
0
70
128
71
33
72
32
73
34
0
VERTEX
8
OBJECT__21
10
0
20
0
30
0
70
128
71
31
72
30
73
32
0
VERTEX
8
OBJECT__21
10
0
20
0
30
0
70
128
71
29
72
28
73
30
0
VERTEX
8
OBJECT__21
10
0
20
0
30
0
70
128
71
27
72
26
73
28
0
VERTEX
8
OBJECT__21
10
0
20
0
30
0
70
128
71
25
72
24
73
26
0
VERTEX
8
OBJECT__21
10
0
20
0
30
0
70
128
71
23
72
22
73
24
0
VERTEX
8
OBJECT__21
10
0
20
0
30
0
70
128
71
21
72
20
73
22
0
VERTEX
8
OBJECT__21
10
0
20
0
30
0
70
128
71
19
72
18
73
20
0
VERTEX
8
OBJECT__21
10
0
20
0
30
0
70
128
71
19
72
17
73
16
0
VERTEX
8
OBJECT__21
10
0
20
0
30
0
70
128
71
17
72
15
73
14
0
VERTEX
8
OBJECT__21
10
0
20
0
30
0
70
128
71
13
72
12
73
14
0
VERTEX
8
OBJECT__21
10
0
20
0
30
0
70
128
71
11
72
10
73
12
0
VERTEX
8
OBJECT__21
10
0
20
0
30
0
70
128
71
9
72
8
73
10
0
VERTEX
8
OBJECT__21
10
0
20
0
30
0
70
128
71
7
72
6
73
8
0
VERTEX
8
OBJECT__21
10
0
20
0
30
0
70
128
71
5
72
4
73
6
0
VERTEX
8
OBJECT__21
10
0
20
0
30
0
70
128
71
2
72
1
73
4
0
VERTEX
8
OBJECT__21
10
0
20
0
30
0
70
128
71
3
72
80
73
1
0
SEQEND
8
OBJECT__21
0
POLYLINE
8
OBJECT__23
66
1
70
64
71
122
72
122
62
253
0
VERTEX
8
OBJECT__23
10
9.612000
20
62.227001
30
11.413000
70
192
0
VERTEX
8
OBJECT__23
10
0.000000
20
62.965000
30
11.413000
70
192
0
VERTEX
8
OBJECT__23
10
0.000000
20
62.445000
30
12.175000
70
192
0
VERTEX
8
OBJECT__23
10
18.997999
20
60.029999
30
11.413000
70
192
0
VERTEX
8
OBJECT__23
10
9.769000
20
61.675999
30
12.175000
70
192
0
VERTEX
8
OBJECT__23
10
9.531000
20
61.695000
30
12.175000
70
192
0
VERTEX
8
OBJECT__23
10
27.938999
20
56.426998
30
11.413000
70
192
0
VERTEX
8
OBJECT__23
10
19.296000
20
59.388000
30
12.175000
70
192
0
VERTEX
8
OBJECT__23
10
18.833000
20
59.500000
30
12.175000
70
192
0
VERTEX
8
OBJECT__23
10
36.224998
20
51.500999
30
11.413000
70
192
0
VERTEX
8
OBJECT__23
10
28.349001
20
55.639000
30
12.175000
70
192
0
VERTEX
8
OBJECT__23
10
27.688000
20
55.912998
30
12.175000
70
192
0
VERTEX
8
OBJECT__23
10
43.661999
20
45.367001
30
11.413000
70
192
0
VERTEX
8
OBJECT__23
10
36.703999
20
50.519001
30
12.175000
70
192
0
VERTEX
8
OBJECT__23
10
35.889999
20
51.018002
30
12.175000
70
192
0
VERTEX
8
OBJECT__23
10
50.075001
20
38.171001
30
11.413000
70
192
0
VERTEX
8
OBJECT__23
10
44.154999
20
44.154999
30
12.175000
70
192
0
VERTEX
8
OBJECT__23
10
43.248001
20
44.930000
30
12.175000
70
192
0
VERTEX
8
OBJECT__23
10
55.314999
20
30.079000
30
11.413000
70
192
0
VERTEX
8
OBJECT__23
10
50.519001
20
36.703999
30
12.175000
70
192
0
VERTEX
8
OBJECT__23
10
49.589001
20
37.792999
30
12.175000
70
192
0
VERTEX
8
OBJECT__23
10
59.258999
20
21.283001
30
11.413000
70
192
0
VERTEX
8
OBJECT__23
10
55.639000
20
28.349001
30
12.175000
70
192
0
VERTEX
8
OBJECT__23
10
54.765999
20
29.774000
30
12.175000
70
192
0
VERTEX
8
OBJECT__23
10
61.813000
20
11.988000
30
11.413000
70
192
0
VERTEX
8
OBJECT__23
10
59.388000
20
19.296000
30
12.175000
70
192
0
VERTEX
8
OBJECT__23
10
58.658001
20
21.061001
30
12.175000
70
192
0
VERTEX
8
OBJECT__23
10
62.917999
20
2.412000
30
11.413000
70
192
0
VERTEX
8
OBJECT__23
10
61.675999
20
9.769000
30
12.175000
70
192
0
VERTEX
8
OBJECT__23
10
61.174000
20
11.858000
30
12.175000
70
192
0
VERTEX
8
OBJECT__23
10
62.549000
20
-7.221000
30
11.413000
70
192
0
VERTEX
8
OBJECT__23
10
62.445000
20
0.000000
30
12.175000
70
192
0
VERTEX
8
OBJECT__23
10
62.257000
20
2.381000
30
12.175000
70
192
0
VERTEX
8
OBJECT__23
10
60.714001
20
-16.684000
30
11.413000
70
192
0
VERTEX
8
OBJECT__23
10
61.675999
20
-9.769000
30
12.175000
70
192
0
VERTEX
8
OBJECT__23
10
61.882000
20
-7.150000
30
12.175000
70
192
0
VERTEX
8
OBJECT__23
10
57.455002
20
-25.757000
30
11.413000
70
192
0
VERTEX
8
OBJECT__23
10
59.388000
20
-19.296000
30
12.175000
70
192
0
VERTEX
8
OBJECT__23
10
60.057999
20
-16.509001
30
12.175000
70
192
0
VERTEX
8
OBJECT__23
10
52.849998
20
-34.226002
30
11.413000
70
192
0
VERTEX
8
OBJECT__23
10
55.639000
20
-28.349001
30
12.175000
70
192
0
VERTEX
8
OBJECT__23
10
56.827000
20
-25.480000
30
12.175000
70
192
0
VERTEX
8
OBJECT__23
10
47.006001
20
-41.891998
30
11.413000
70
192
0
VERTEX
8
OBJECT__23
10
50.519001
20
-36.703999
30
12.175000
70
192
0
VERTEX
8
OBJECT__23
10
52.265999
20
-33.852001
30
12.175000
70
192
0
VERTEX
8
OBJECT__23
10
40.061001
20
-48.577000
30
11.413000
70
192
0
VERTEX
8
OBJECT__23
10
44.154999
20
-44.154999
30
12.175000
70
192
0
VERTEX
8
OBJECT__23
10
46.483002
20
-41.430000
30
12.175000
70
192
0
VERTEX
8
OBJECT__23
10
32.175999
20
-54.122002
30
11.413000
70
192
0
VERTEX
8
OBJECT__23
10
36.703999
20
-50.519001
30
12.175000
70
192
0
VERTEX
8
OBJECT__23
10
39.611000
20
-48.035999
30
12.175000
70
192
0
VERTEX
8
OBJECT__23
10
23.537001
20
-58.400002
30
11.413000
70
192
0
VERTEX
8
OBJECT__23
10
28.349001
20
-55.639000
30
12.175000
70
192
0
VERTEX
8
OBJECT__23
10
31.813000
20
-53.515999
30
12.175000
70
192
0
VERTEX
8
OBJECT__23
10
14.347000
20
-61.307999
30
11.413000
70
192
0
VERTEX
8
OBJECT__23
10
19.296000
20
-59.388000
30
12.175000
70
192
0
VERTEX
8
OBJECT__23
10
23.270000
20
-57.742001
30
12.175000
70
192
0
VERTEX
8
OBJECT__23
10
4.820000
20
-62.779999
30
11.413000
70
192
0
VERTEX
8
OBJECT__23
10
9.769000
20
-61.675999
30
12.175000
70
192
0
VERTEX
8
OBJECT__23
10
14.184000
20
-60.616001
30
12.175000
70
192
0
VERTEX
8
OBJECT__23
10
-4.820000
20
-62.779999
30
11.413000
70
192
0
VERTEX
8
OBJECT__23
10
0.000000
20
-62.445000
30
12.175000
70
192
0
VERTEX
8
OBJECT__23
10
4.765000
20
-62.070000
30
12.175000
70
192
0
VERTEX
8
OBJECT__23
10
-4.765000
20
-62.070000
30
12.175000
70
192
0
VERTEX
8
OBJECT__23
10
-9.769000
20
-61.675999
30
12.175000
70
192
0
VERTEX
8
OBJECT__23
10
-14.347000
20
-61.307999
30
11.413000
70
192
0
VERTEX
8
OBJECT__23
10
-14.184000
20
-60.616001
30
12.175000
70
192
0
VERTEX
8
OBJECT__23
10
-19.296000
20
-59.388000
30
12.175000
70
192
0
VERTEX
8
OBJECT__23
10
-23.537001
20
-58.400002
30
11.413000
70
192
0
VERTEX
8
OBJECT__23
10
-23.270000
20
-57.742001
30
12.175000
70
192
0
VERTEX
8
OBJECT__23
10
-28.349001
20
-55.639000
30
12.175000
70
192
0
VERTEX
8
OBJECT__23
10
-32.175999
20
-54.122002
30
11.413000
70
192
0
VERTEX
8
OBJECT__23
10
-31.813000
20
-53.515999
30
12.175000
70
192
0
VERTEX
8
OBJECT__23
10
-36.703999
20
-50.519001
30
12.175000
70
192
0
VERTEX
8
OBJECT__23
10
-40.061001
20
-48.577000
30
11.413000
70
192
0
VERTEX
8
OBJECT__23
10
-39.611000
20
-48.035999
30
12.175000
70
192
0
VERTEX
8
OBJECT__23
10
-44.154999
20
-44.154999
30
12.175000
70
192
0
VERTEX
8
OBJECT__23
10
-47.006001
20
-41.891998
30
11.413000
70
192
0
VERTEX
8
OBJECT__23
10
-46.483002
20
-41.430000
30
12.175000
70
192
0
VERTEX
8
OBJECT__23
10
-50.519001
20
-36.703999
30
12.175000
70
192
0
VERTEX
8
OBJECT__23
10
-52.849998
20
-34.226002
30
11.413000
70
192
0
VERTEX
8
OBJECT__23
10
-52.265999
20
-33.852001
30
12.175000
70
192
0
VERTEX
8
OBJECT__23
10
-55.639000
20
-28.349001
30
12.175000
70
192
0
VERTEX
8
OBJECT__23
10
-57.455002
20
-25.757000
30
11.413000
70
192
0
VERTEX
8
OBJECT__23
10
-56.827000
20
-25.480000
30
12.175000
70
192
0
VERTEX
8
OBJECT__23
10
-59.388000
20
-19.296000
30
12.175000
70
192
0
VERTEX
8
OBJECT__23
10
-60.714001
20
-16.684000
30
11.413000
70
192
0
VERTEX
8
OBJECT__23
10
-60.057999
20
-16.509001
30
12.175000
70
192
0
VERTEX
8
OBJECT__23
10
-61.675999
20
-9.769000
30
12.175000
70
192
0
VERTEX
8
OBJECT__23
10
-62.549000
20
-7.221000
30
11.413000
70
192
0
VERTEX
8
OBJECT__23
10
-62.917999
20
2.412000
30
11.413000
70
192
0
VERTEX
8
OBJECT__23
10
-62.965000
20
0.000000
30
11.413000
70
192
0
VERTEX
8
OBJECT__23
10
-62.445000
20
0.000000
30
12.175000
70
192
0
VERTEX
8
OBJECT__23
10
-61.882000
20
-7.150000
30
12.175000
70
192
0
VERTEX
8
OBJECT__23
10
-62.257000
20
2.381000
30
12.175000
70
192
0
VERTEX
8
OBJECT__23
10
-61.675999
20
9.769000
30
12.175000
70
192
0
VERTEX
8
OBJECT__23
10
-61.813000
20
11.988000
30
11.413000
70
192
0
VERTEX
8
OBJECT__23
10
-61.174000
20
11.858000
30
12.175000
70
192
0
VERTEX
8
OBJECT__23
10
-59.388000
20
19.296000
30
12.175000
70
192
0
VERTEX
8
OBJECT__23
10
-59.258999
20
21.283001
30
11.413000
70
192
0
VERTEX
8
OBJECT__23
10
-58.658001
20
21.061001
30
12.175000
70
192
0
VERTEX
8
OBJECT__23
10
-55.639000
20
28.349001
30
12.175000
70
192
0
VERTEX
8
OBJECT__23
10
-55.314999
20
30.079000
30
11.413000
70
192
0
VERTEX
8
OBJECT__23
10
-54.765999
20
29.774000
30
12.175000
70
192
0
VERTEX
8
OBJECT__23
10
-50.519001
20
36.703999
30
12.175000
70
192
0
VERTEX
8
OBJECT__23
10
-50.075001
20
38.171001
30
11.413000
70
192
0
VERTEX
8
OBJECT__23
10
-49.589001
20
37.792999
30
12.175000
70
192
0
VERTEX
8
OBJECT__23
10
-44.154999
20
44.154999
30
12.175000
70
192
0
VERTEX
8
OBJECT__23
10
-43.661999
20
45.367001
30
11.413000
70
192
0
VERTEX
8
OBJECT__23
10
-43.248001
20
44.930000
30
12.175000
70
192
0
VERTEX
8
OBJECT__23
10
-36.703999
20
50.519001
30
12.175000
70
192
0
VERTEX
8
OBJECT__23
10
-36.224998
20
51.500999
30
11.413000
70
192
0
VERTEX
8
OBJECT__23
10
-35.889999
20
51.018002
30
12.175000
70
192
0
VERTEX
8
OBJECT__23
10
-28.349001
20
55.639000
30
12.175000
70
192
0
VERTEX
8
OBJECT__23
10
-27.938999
20
56.426998
30
11.413000
70
192
0
VERTEX
8
OBJECT__23
10
-27.688000
20
55.912998
30
12.175000
70
192
0
VERTEX
8
OBJECT__23
10
-19.296000
20
59.388000
30
12.175000
70
192
0
VERTEX
8
OBJECT__23
10
-18.997999
20
60.029999
30
11.413000
70
192
0
VERTEX
8
OBJECT__23
10
-18.833000
20
59.500000
30
12.175000
70
192
0
VERTEX
8
OBJECT__23
10
-9.769000
20
61.675999
30
12.175000
70
192
0
VERTEX
8
OBJECT__23
10
-9.612000
20
62.227001
30
11.413000
70
192
0
VERTEX
8
OBJECT__23
10
-9.531000
20
61.695000
30
12.175000
70
192
0
VERTEX
8
OBJECT__23
10
0
20
0
30
0
70
128
71
1
72
2
73
3
0
VERTEX
8
OBJECT__23
10
0
20
0
30
0
70
128
71
4
72
1
73
5
0
VERTEX
8
OBJECT__23
10
0
20
0
30
0
70
128
71
1
72
6
73
5
0
VERTEX
8
OBJECT__23
10
0
20
0
30
0
70
128
71
7
72
4
73
8
0
VERTEX
8
OBJECT__23
10
0
20
0
30
0
70
128
71
4
72
9
73
8
0
VERTEX
8
OBJECT__23
10
0
20
0
30
0
70
128
71
10
72
7
73
11
0
VERTEX
8
OBJECT__23
10
0
20
0
30
0
70
128
71
7
72
12
73
11
0
VERTEX
8
OBJECT__23
10
0
20
0
30
0
70
128
71
13
72
10
73
14
0
VERTEX
8
OBJECT__23
10
0
20
0
30
0
70
128
71
10
72
15
73
14
0
VERTEX
8
OBJECT__23
10
0
20
0
30
0
70
128
71
16
72
13
73
17
0
VERTEX
8
OBJECT__23
10
0
20
0
30
0
70
128
71
13
72
18
73
17
0
VERTEX
8
OBJECT__23
10
0
20
0
30
0
70
128
71
19
72
16
73
20
0
VERTEX
8
OBJECT__23
10
0
20
0
30
0
70
128
71
16
72
21
73
20
0
VERTEX
8
OBJECT__23
10
0
20
0
30
0
70
128
71
22
72
19
73
23
0
VERTEX
8
OBJECT__23
10
0
20
0
30
0
70
128
71
19
72
24
73
23
0
VERTEX
8
OBJECT__23
10
0
20
0
30
0
70
128
71
25
72
22
73
26
0
VERTEX
8
OBJECT__23
10
0
20
0
30
0
70
128
71
22
72
27
73
26
0
VERTEX
8
OBJECT__23
10
0
20
0
30
0
70
128
71
28
72
25
73
29
0
VERTEX
8
OBJECT__23
10
0
20
0
30
0
70
128
71
25
72
30
73
29
0
VERTEX
8
OBJECT__23
10
0
20
0
30
0
70
128
71
31
72
28
73
32
0
VERTEX
8
OBJECT__23
10
0
20
0
30
0
70
128
71
28
72
33
73
32
0
VERTEX
8
OBJECT__23
10
0
20
0
30
0
70
128
71
34
72
31
73
35
0
VERTEX
8
OBJECT__23
10
0
20
0
30
0
70
128
71
31
72
36
73
35
0
VERTEX
8
OBJECT__23
10
0
20
0
30
0
70
128
71
37
72
34
73
38
0
VERTEX
8
OBJECT__23
10
0
20
0
30
0
70
128
71
34
72
39
73
38
0
VERTEX
8
OBJECT__23
10
0
20
0
30
0
70
128
71
40
72
37
73
41
0
VERTEX
8
OBJECT__23
10
0
20
0
30
0
70
128
71
37
72
42
73
41
0
VERTEX
8
OBJECT__23
10
0
20
0
30
0
70
128
71
43
72
40
73
44
0
VERTEX
8
OBJECT__23
10
0
20
0
30
0
70
128
71
40
72
45
73
44
0
VERTEX
8
OBJECT__23
10
0
20
0
30
0
70
128
71
46
72
43
73
47
0
VERTEX
8
OBJECT__23
10
0
20
0
30
0
70
128
71
43
72
48
73
47
0
VERTEX
8
OBJECT__23
10
0
20
0
30
0
70
128
71
49
72
46
73
50
0
VERTEX
8
OBJECT__23
10
0
20
0
30
0
70
128
71
46
72
51
73
50
0
VERTEX
8
OBJECT__23
10
0
20
0
30
0
70
128
71
52
72
49
73
53
0
VERTEX
8
OBJECT__23
10
0
20
0
30
0
70
128
71
49
72
54
73
53
0
VERTEX
8
OBJECT__23
10
0
20
0
30
0
70
128
71
55
72
52
73
56
0
VERTEX
8
OBJECT__23
10
0
20
0
30
0
70
128
71
52
72
57
73
56
0
VERTEX
8
OBJECT__23
10
0
20
0
30
0
70
128
71
58
72
55
73
59
0
VERTEX
8
OBJECT__23
10
0
20
0
30
0
70
128
71
55
72
60
73
59
0
VERTEX
8
OBJECT__23
10
0
20
0
30
0
70
128
71
61
72
58
73
62
0
VERTEX
8
OBJECT__23
10
0
20
0
30
0
70
128
71
58
72
63
73
62
0
VERTEX
8
OBJECT__23
10
0
20
0
30
0
70
128
71
61
72
64
73
65
0
VERTEX
8
OBJECT__23
10
0
20
0
30
0
70
128
71
65
72
66
73
61
0
VERTEX
8
OBJECT__23
10
0
20
0
30
0
70
128
71
66
72
67
73
68
0
VERTEX
8
OBJECT__23
10
0
20
0
30
0
70
128
71
68
72
69
73
66
0
VERTEX
8
OBJECT__23
10
0
20
0
30
0
70
128
71
69
72
70
73
71
0
VERTEX
8
OBJECT__23
10
0
20
0
30
0
70
128
71
71
72
72
73
69
0
VERTEX
8
OBJECT__23
10
0
20
0
30
0
70
128
71
72
72
73
73
74
0
VERTEX
8
OBJECT__23
10
0
20
0
30
0
70
128
71
74
72
75
73
72
0
VERTEX
8
OBJECT__23
10
0
20
0
30
0
70
128
71
75
72
76
73
77
0
VERTEX
8
OBJECT__23
10
0
20
0
30
0
70
128
71
77
72
78
73
75
0
VERTEX
8
OBJECT__23
10
0
20
0
30
0
70
128
71
78
72
79
73
80
0
VERTEX
8
OBJECT__23
10
0
20
0
30
0
70
128
71
80
72
81
73
78
0
VERTEX
8
OBJECT__23
10
0
20
0
30
0
70
128
71
81
72
82
73
83
0
VERTEX
8
OBJECT__23
10
0
20
0
30
0
70
128
71
83
72
84
73
81
0
VERTEX
8
OBJECT__23
10
0
20
0
30
0
70
128
71
84
72
85
73
86
0
VERTEX
8
OBJECT__23
10
0
20
0
30
0
70
128
71
86
72
87
73
84
0
VERTEX
8
OBJECT__23
10
0
20
0
30
0
70
128
71
87
72
88
73
89
0
VERTEX
8
OBJECT__23
10
0
20
0
30
0
70
128
71
89
72
90
73
87
0
VERTEX
8
OBJECT__23
10
0
20
0
30
0
70
128
71
91
72
92
73
93
0
VERTEX
8
OBJECT__23
10
0
20
0
30
0
70
128
71
90
72
94
73
93
0
VERTEX
8
OBJECT__23
10
0
20
0
30
0
70
128
71
93
72
92
73
90
0
VERTEX
8
OBJECT__23
10
0
20
0
30
0
70
128
71
91
72
95
73
96
0
VERTEX
8
OBJECT__23
10
0
20
0
30
0
70
128
71
96
72
97
73
91
0
VERTEX
8
OBJECT__23
10
0
20
0
30
0
70
128
71
97
72
98
73
99
0
VERTEX
8
OBJECT__23
10
0
20
0
30
0
70
128
71
99
72
100
73
97
0
VERTEX
8
OBJECT__23
10
0
20
0
30
0
70
128
71
100
72
101
73
102
0
VERTEX
8
OBJECT__23
10
0
20
0
30
0
70
128
71
102
72
103
73
100
0
VERTEX
8
OBJECT__23
10
0
20
0
30
0
70
128
71
103
72
104
73
105
0
VERTEX
8
OBJECT__23
10
0
20
0
30
0
70
128
71
105
72
106
73
103
0
VERTEX
8
OBJECT__23
10
0
20
0
30
0
70
128
71
106
72
107
73
108
0
VERTEX
8
OBJECT__23
10
0
20
0
30
0
70
128
71
108
72
109
73
106
0
VERTEX
8
OBJECT__23
10
0
20
0
30
0
70
128
71
109
72
110
73
111
0
VERTEX
8
OBJECT__23
10
0
20
0
30
0
70
128
71
111
72
112
73
109
0
VERTEX
8
OBJECT__23
10
0
20
0
30
0
70
128
71
112
72
113
73
114
0
VERTEX
8
OBJECT__23
10
0
20
0
30
0
70
128
71
114
72
115
73
112
0
VERTEX
8
OBJECT__23
10
0
20
0
30
0
70
128
71
115
72
116
73
117
0
VERTEX
8
OBJECT__23
10
0
20
0
30
0
70
128
71
117
72
118
73
115
0
VERTEX
8
OBJECT__23
10
0
20
0
30
0
70
128
71
118
72
119
73
120
0
VERTEX
8
OBJECT__23
10
0
20
0
30
0
70
128
71
120
72
121
73
118
0
VERTEX
8
OBJECT__23
10
0
20
0
30
0
70
128
71
121
72
122
73
3
0
VERTEX
8
OBJECT__23
10
0
20
0
30
0
70
128
71
3
72
2
73
121
0
VERTEX
8
OBJECT__23
10
0
20
0
30
0
70
128
71
120
72
122
73
121
0
VERTEX
8
OBJECT__23
10
0
20
0
30
0
70
128
71
117
72
119
73
118
0
VERTEX
8
OBJECT__23
10
0
20
0
30
0
70
128
71
114
72
116
73
115
0
VERTEX
8
OBJECT__23
10
0
20
0
30
0
70
128
71
111
72
113
73
112
0
VERTEX
8
OBJECT__23
10
0
20
0
30
0
70
128
71
108
72
110
73
109
0
VERTEX
8
OBJECT__23
10
0
20
0
30
0
70
128
71
105
72
107
73
106
0
VERTEX
8
OBJECT__23
10
0
20
0
30
0
70
128
71
102
72
104
73
103
0
VERTEX
8
OBJECT__23
10
0
20
0
30
0
70
128
71
99
72
101
73
100
0
VERTEX
8
OBJECT__23
10
0
20
0
30
0
70
128
71
96
72
98
73
97
0
VERTEX
8
OBJECT__23
10
0
20
0
30
0
70
128
71
93
72
95
73
91
0
VERTEX
8
OBJECT__23
10
0
20
0
30
0
70
128
71
89
72
94
73
90
0
VERTEX
8
OBJECT__23
10
0
20
0
30
0
70
128
71
86
72
88
73
87
0
VERTEX
8
OBJECT__23
10
0
20
0
30
0
70
128
71
83
72
85
73
84
0
VERTEX
8
OBJECT__23
10
0
20
0
30
0
70
128
71
80
72
82
73
81
0
VERTEX
8
OBJECT__23
10
0
20
0
30
0
70
128
71
77
72
79
73
78
0
VERTEX
8
OBJECT__23
10
0
20
0
30
0
70
128
71
74
72
76
73
75
0
VERTEX
8
OBJECT__23
10
0
20
0
30
0
70
128
71
71
72
73
73
72
0
VERTEX
8
OBJECT__23
10
0
20
0
30
0
70
128
71
68
72
70
73
69
0
VERTEX
8
OBJECT__23
10
0
20
0
30
0
70
128
71
65
72
67
73
66
0
VERTEX
8
OBJECT__23
10
0
20
0
30
0
70
128
71
62
72
64
73
61
0
VERTEX
8
OBJECT__23
10
0
20
0
30
0
70
128
71
59
72
63
73
58
0
VERTEX
8
OBJECT__23
10
0
20
0
30
0
70
128
71
56
72
60
73
55
0
VERTEX
8
OBJECT__23
10
0
20
0
30
0
70
128
71
53
72
57
73
52
0
VERTEX
8
OBJECT__23
10
0
20
0
30
0
70
128
71
50
72
54
73
49
0
VERTEX
8
OBJECT__23
10
0
20
0
30
0
70
128
71
47
72
51
73
46
0
VERTEX
8
OBJECT__23
10
0
20
0
30
0
70
128
71
44
72
48
73
43
0
VERTEX
8
OBJECT__23
10
0
20
0
30
0
70
128
71
41
72
45
73
40
0
VERTEX
8
OBJECT__23
10
0
20
0
30
0
70
128
71
38
72
42
73
37
0
VERTEX
8
OBJECT__23
10
0
20
0
30
0
70
128
71
35
72
39
73
34
0
VERTEX
8
OBJECT__23
10
0
20
0
30
0
70
128
71
32
72
36
73
31
0
VERTEX
8
OBJECT__23
10
0
20
0
30
0
70
128
71
29
72
33
73
28
0
VERTEX
8
OBJECT__23
10
0
20
0
30
0
70
128
71
26
72
30
73
25
0
VERTEX
8
OBJECT__23
10
0
20
0
30
0
70
128
71
23
72
27
73
22
0
VERTEX
8
OBJECT__23
10
0
20
0
30
0
70
128
71
20
72
24
73
19
0
VERTEX
8
OBJECT__23
10
0
20
0
30
0
70
128
71
17
72
21
73
16
0
VERTEX
8
OBJECT__23
10
0
20
0
30
0
70
128
71
14
72
18
73
13
0
VERTEX
8
OBJECT__23
10
0
20
0
30
0
70
128
71
11
72
15
73
10
0
VERTEX
8
OBJECT__23
10
0
20
0
30
0
70
128
71
8
72
12
73
7
0
VERTEX
8
OBJECT__23
10
0
20
0
30
0
70
128
71
5
72
9
73
4
0
VERTEX
8
OBJECT__23
10
0
20
0
30
0
70
128
71
3
72
6
73
1
0
SEQEND
8
OBJECT__23
0
POLYLINE
8
OBJECT__24
66
1
70
64
71
326
72
531
62
253
0
VERTEX
8
OBJECT__24
10
-9.759000
20
63.183998
30
10.491000
70
192
0
VERTEX
8
OBJECT__24
10
-9.612000
20
62.227001
30
11.413000
70
192
0
VERTEX
8
OBJECT__24
10
0.000000
20
62.965000
30
11.413000
70
192
0
VERTEX
8
OBJECT__24
10
-19.290001
20
60.953999
30
10.491000
70
192
0
VERTEX
8
OBJECT__24
10
-18.997999
20
60.029999
30
11.413000
70
192
0
VERTEX
8
OBJECT__24
10
-28.368999
20
57.294998
30
10.491000
70
192
0
VERTEX
8
OBJECT__24
10
-27.938999
20
56.426998
30
11.413000
70
192
0
VERTEX
8
OBJECT__24
10
-36.782001
20
52.292999
30
10.491000
70
192
0
VERTEX
8
OBJECT__24
10
-36.224998
20
51.500999
30
11.413000
70
192
0
VERTEX
8
OBJECT__24
10
-44.334000
20
46.066002
30
10.491000
70
192
0
VERTEX
8
OBJECT__24
10
-43.661999
20
45.367001
30
11.413000
70
192
0
VERTEX
8
OBJECT__24
10
-50.846001
20
38.757999
30
10.491000
70
192
0
VERTEX
8
OBJECT__24
10
-50.075001
20
38.171001
30
11.413000
70
192
0
VERTEX
8
OBJECT__24
10
-56.166000
20
30.542000
30
10.491000
70
192
0
VERTEX
8
OBJECT__24
10
-55.314999
20
30.079000
30
11.413000
70
192
0
VERTEX
8
OBJECT__24
10
-60.169998
20
21.611000
30
10.491000
70
192
0
VERTEX
8
OBJECT__24
10
-59.258999
20
21.283001
30
11.413000
70
192
0
VERTEX
8
OBJECT__24
10
-62.764000
20
12.172000
30
10.491000
70
192
0
VERTEX
8
OBJECT__24
10
-61.813000
20
11.988000
30
11.413000
70
192
0
VERTEX
8
OBJECT__24
10
-63.887001
20
2.449000
30
10.491000
70
192
0
VERTEX
8
OBJECT__24
10
-62.917999
20
2.412000
30
11.413000
70
192
0
VERTEX
8
OBJECT__24
10
-63.512001
20
-7.332000
30
10.491000
70
192
0
VERTEX
8
OBJECT__24
10
-62.549000
20
-7.221000
30
11.413000
70
192
0
VERTEX
8
OBJECT__24
10
-62.965000
20
0.000000
30
11.413000
70
192
0
VERTEX
8
OBJECT__24
10
-61.647999
20
-16.941000
30
10.491000
70
192
0
VERTEX
8
OBJECT__24
10
-60.714001
20
-16.684000
30
11.413000
70
192
0
VERTEX
8
OBJECT__24
10
-58.340000
20
-26.153000
30
10.491000
70
192
0
VERTEX
8
OBJECT__24
10
-57.455002
20
-25.757000
30
11.413000
70
192
0
VERTEX
8
OBJECT__24
10
-53.664001
20
-34.751999
30
10.491000
70
192
0
VERTEX
8
OBJECT__24
10
-52.849998
20
-34.226002
30
11.413000
70
192
0
VERTEX
8
OBJECT__24
10
-47.730000
20
-42.536999
30
10.491000
70
192
0
VERTEX
8
OBJECT__24
10
-47.006001
20
-41.891998
30
11.413000
70
192
0
VERTEX
8
OBJECT__24
10
-40.676998
20
-49.324001
30
10.491000
70
192
0
VERTEX
8
OBJECT__24
10
-40.061001
20
-48.577000
30
11.413000
70
192
0
VERTEX
8
OBJECT__24
10
-32.671001
20
-54.955002
30
10.491000
70
192
0
VERTEX
8
OBJECT__24
10
-32.175999
20
-54.122002
30
11.413000
70
192
0
VERTEX
8
OBJECT__24
10
-23.899000
20
-59.299000
30
10.491000
70
192
0
VERTEX
8
OBJECT__24
10
-23.537001
20
-58.400002
30
11.413000
70
192
0
VERTEX
8
OBJECT__24
10
-14.567000
20
-62.251999
30
10.491000
70
192
0
VERTEX
8
OBJECT__24
10
-14.347000
20
-61.307999
30
11.413000
70
192
0
VERTEX
8
OBJECT__24
10
-4.894000
20
-63.745998
30
10.491000
70
192
0
VERTEX
8
OBJECT__24
10
-4.820000
20
-62.779999
30
11.413000
70
192
0
VERTEX
8
OBJECT__24
10
4.894000
20
-63.745998
30
10.491000
70
192
0
VERTEX
8
OBJECT__24
10
4.820000
20
-62.779999
30
11.413000
70
192
0
VERTEX
8
OBJECT__24
10
14.567000
20
-62.251999
30
10.491000
70
192
0
VERTEX
8
OBJECT__24
10
14.347000
20
-61.307999
30
11.413000
70
192
0
VERTEX
8
OBJECT__24
10
23.899000
20
-59.299000
30
10.491000
70
192
0
VERTEX
8
OBJECT__24
10
23.537001
20
-58.400002
30
11.413000
70
192
0
VERTEX
8
OBJECT__24
10
32.671001
20
-54.955002
30
10.491000
70
192
0
VERTEX
8
OBJECT__24
10
32.175999
20
-54.122002
30
11.413000
70
192
0
VERTEX
8
OBJECT__24
10
40.676998
20
-49.324001
30
10.491000
70
192
0
VERTEX
8
OBJECT__24
10
40.061001
20
-48.577000
30
11.413000
70
192
0
VERTEX
8
OBJECT__24
10
47.730000
20
-42.536999
30
10.491000
70
192
0
VERTEX
8
OBJECT__24
10
47.006001
20
-41.891998
30
11.413000
70
192
0
VERTEX
8
OBJECT__24
10
53.664001
20
-34.751999
30
10.491000
70
192
0
VERTEX
8
OBJECT__24
10
52.849998
20
-34.226002
30
11.413000
70
192
0
VERTEX
8
OBJECT__24
10
58.340000
20
-26.153000
30
10.491000
70
192
0
VERTEX
8
OBJECT__24
10
57.455002
20
-25.757000
30
11.413000
70
192
0
VERTEX
8
OBJECT__24
10
61.647999
20
-16.941000
30
10.491000
70
192
0
VERTEX
8
OBJECT__24
10
60.714001
20
-16.684000
30
11.413000
70
192
0
VERTEX
8
OBJECT__24
10
63.512001
20
-7.332000
30
10.491000
70
192
0
VERTEX
8
OBJECT__24
10
62.549000
20
-7.221000
30
11.413000
70
192
0
VERTEX
8
OBJECT__24
10
63.887001
20
2.449000
30
10.491000
70
192
0
VERTEX
8
OBJECT__24
10
62.917999
20
2.412000
30
11.413000
70
192
0
VERTEX
8
OBJECT__24
10
62.764000
20
12.172000
30
10.491000
70
192
0
VERTEX
8
OBJECT__24
10
61.813000
20
11.988000
30
11.413000
70
192
0
VERTEX
8
OBJECT__24
10
60.169998
20
21.611000
30
10.491000
70
192
0
VERTEX
8
OBJECT__24
10
59.258999
20
21.283001
30
11.413000
70
192
0
VERTEX
8
OBJECT__24
10
56.166000
20
30.542000
30
10.491000
70
192
0
VERTEX
8
OBJECT__24
10
55.314999
20
30.079000
30
11.413000
70
192
0
VERTEX
8
OBJECT__24
10
50.846001
20
38.757999
30
10.491000
70
192
0
VERTEX
8
OBJECT__24
10
50.075001
20
38.171001
30
11.413000
70
192
0
VERTEX
8
OBJECT__24
10
44.334000
20
46.066002
30
10.491000
70
192
0
VERTEX
8
OBJECT__24
10
43.661999
20
45.367001
30
11.413000
70
192
0
VERTEX
8
OBJECT__24
10
36.782001
20
52.292999
30
10.491000
70
192
0
VERTEX
8
OBJECT__24
10
36.224998
20
51.500999
30
11.413000
70
192
0
VERTEX
8
OBJECT__24
10
28.368999
20
57.294998
30
10.491000
70
192
0
VERTEX
8
OBJECT__24
10
27.938999
20
56.426998
30
11.413000
70
192
0
VERTEX
8
OBJECT__24
10
19.290001
20
60.953999
30
10.491000
70
192
0
VERTEX
8
OBJECT__24
10
18.997999
20
60.029999
30
11.413000
70
192
0
VERTEX
8
OBJECT__24
10
9.759000
20
63.183998
30
10.491000
70
192
0
VERTEX
8
OBJECT__24
10
9.612000
20
62.227001
30
11.413000
70
192
0
VERTEX
8
OBJECT__24
10
0.000000
20
63.933998
30
10.491000
70
192
0
VERTEX
8
OBJECT__24
10
0.000000
20
64.306000
30
9.021000
70
192
0
VERTEX
8
OBJECT__24
10
-9.816000
20
63.553001
30
9.021000
70
192
0
VERTEX
8
OBJECT__24
10
-19.403000
20
61.308998
30
9.021000
70
192
0
VERTEX
8
OBJECT__24
10
-28.534000
20
57.629002
30
9.021000
70
192
0
VERTEX
8
OBJECT__24
10
-36.997002
20
52.598000
30
9.021000
70
192
0
VERTEX
8
OBJECT__24
10
-44.591999
20
46.334000
30
9.021000
70
192
0
VERTEX
8
OBJECT__24
10
-51.141998
20
38.984001
30
9.021000
70
192
0
VERTEX
8
OBJECT__24
10
-56.493999
20
30.719999
30
9.021000
70
192
0
VERTEX
8
OBJECT__24
10
-60.521000
20
21.737000
30
9.021000
70
192
0
VERTEX
8
OBJECT__24
10
-63.130001
20
12.243000
30
9.021000
70
192
0
VERTEX
8
OBJECT__24
10
-64.259003
20
2.463000
30
9.021000
70
192
0
VERTEX
8
OBJECT__24
10
-63.882000
20
-7.375000
30
9.021000
70
192
0
VERTEX
8
OBJECT__24
10
-62.007999
20
-17.040001
30
9.021000
70
192
0
VERTEX
8
OBJECT__24
10
-58.680000
20
-26.306000
30
9.021000
70
192
0
VERTEX
8
OBJECT__24
10
-53.976002
20
-34.955002
30
9.021000
70
192
0
VERTEX
8
OBJECT__24
10
-48.007999
20
-42.785000
30
9.021000
70
192
0
VERTEX
8
OBJECT__24
10
-40.914001
20
-49.612000
30
9.021000
70
192
0
VERTEX
8
OBJECT__24
10
-32.862000
20
-55.276001
30
9.021000
70
192
0
VERTEX
8
OBJECT__24
10
-24.039000
20
-59.644001
30
9.021000
70
192
0
VERTEX
8
OBJECT__24
10
-14.652000
20
-62.615002
30
9.021000
70
192
0
VERTEX
8
OBJECT__24
10
-4.923000
20
-64.117996
30
9.021000
70
192
0
VERTEX
8
OBJECT__24
10
4.923000
20
-64.117996
30
9.021000
70
192
0
VERTEX
8
OBJECT__24
10
14.652000
20
-62.615002
30
9.021000
70
192
0
VERTEX
8
OBJECT__24
10
24.039000
20
-59.644001
30
9.021000
70
192
0
VERTEX
8
OBJECT__24
10
32.862000
20
-55.276001
30
9.021000
70
192
0
VERTEX
8
OBJECT__24
10
40.914001
20
-49.612000
30
9.021000
70
192
0
VERTEX
8
OBJECT__24
10
48.007999
20
-42.785000
30
9.021000
70
192
0
VERTEX
8
OBJECT__24
10
53.976002
20
-34.955002
30
9.021000
70
192
0
VERTEX
8
OBJECT__24
10
58.680000
20
-26.306000
30
9.021000
70
192
0
VERTEX
8
OBJECT__24
10
62.007999
20
-17.040001
30
9.021000
70
192
0
VERTEX
8
OBJECT__24
10
63.882000
20
-7.375000
30
9.021000
70
192
0
VERTEX
8
OBJECT__24
10
64.259003
20
2.463000
30
9.021000
70
192
0
VERTEX
8
OBJECT__24
10
63.130001
20
12.243000
30
9.021000
70
192
0
VERTEX
8
OBJECT__24
10
60.521000
20
21.737000
30
9.021000
70
192
0
VERTEX
8
OBJECT__24
10
56.493999
20
30.719999
30
9.021000
70
192
0
VERTEX
8
OBJECT__24
10
51.141998
20
38.984001
30
9.021000
70
192
0
VERTEX
8
OBJECT__24
10
44.591999
20
46.334000
30
9.021000
70
192
0
VERTEX
8
OBJECT__24
10
36.997002
20
52.598000
30
9.021000
70
192
0
VERTEX
8
OBJECT__24
10
28.534000
20
57.629002
30
9.021000
70
192
0
VERTEX
8
OBJECT__24
10
19.403000
20
61.308998
30
9.021000
70
192
0
VERTEX
8
OBJECT__24
10
9.816000
20
63.553001
30
9.021000
70
192
0
VERTEX
8
OBJECT__24
10
0.000000
20
63.870998
30
7.400000
70
192
0
VERTEX
8
OBJECT__24
10
-9.750000
20
63.123001
30
7.400000
70
192
0
VERTEX
8
OBJECT__24
10
-19.271000
20
60.895000
30
7.400000
70
192
0
VERTEX
8
OBJECT__24
10
-28.341000
20
57.238998
30
7.400000
70
192
0
VERTEX
8
OBJECT__24
10
-36.745998
20
52.242001
30
7.400000
70
192
0
VERTEX
8
OBJECT__24
10
-44.290001
20
46.021000
30
7.400000
70
192
0
VERTEX
8
OBJECT__24
10
-50.796001
20
38.720001
30
7.400000
70
192
0
VERTEX
8
OBJECT__24
10
-56.112000
20
30.513000
30
7.400000
70
192
0
VERTEX
8
OBJECT__24
10
-60.112000
20
21.590000
30
7.400000
70
192
0
VERTEX
8
OBJECT__24
10
-62.702999
20
12.161000
30
7.400000
70
192
0
VERTEX
8
OBJECT__24
10
-63.824001
20
2.446000
30
7.400000
70
192
0
VERTEX
8
OBJECT__24
10
-63.450001
20
-7.325000
30
7.400000
70
192
0
VERTEX
8
OBJECT__24
10
-61.588001
20
-16.924999
30
7.400000
70
192
0
VERTEX
8
OBJECT__24
10
-58.283001
20
-26.128000
30
7.400000
70
192
0
VERTEX
8
OBJECT__24
10
-53.611000
20
-34.717999
30
7.400000
70
192
0
VERTEX
8
OBJECT__24
10
-47.682999
20
-42.494999
30
7.400000
70
192
0
VERTEX
8
OBJECT__24
10
-40.638000
20
-49.276001
30
7.400000
70
192
0
VERTEX
8
OBJECT__24
10
-32.639000
20
-54.902000
30
7.400000
70
192
0
VERTEX
8
OBJECT__24
10
-23.875999
20
-59.241001
30
7.400000
70
192
0
VERTEX
8
OBJECT__24
10
-14.553000
20
-62.191002
30
7.400000
70
192
0
VERTEX
8
OBJECT__24
10
-4.889000
20
-63.683998
30
7.400000
70
192
0
VERTEX
8
OBJECT__24
10
4.889000
20
-63.683998
30
7.400000
70
192
0
VERTEX
8
OBJECT__24
10
14.553000
20
-62.191002
30
7.400000
70
192
0
VERTEX
8
OBJECT__24
10
23.875999
20
-59.241001
30
7.400000
70
192
0
VERTEX
8
OBJECT__24
10
32.639000
20
-54.902000
30
7.400000
70
192
0
VERTEX
8
OBJECT__24
10
40.638000
20
-49.276001
30
7.400000
70
192
0
VERTEX
8
OBJECT__24
10
47.682999
20
-42.494999
30
7.400000
70
192
0
VERTEX
8
OBJECT__24
10
53.611000
20
-34.717999
30
7.400000
70
192
0
VERTEX
8
OBJECT__24
10
58.283001
20
-26.128000
30
7.400000
70
192
0
VERTEX
8
OBJECT__24
10
61.588001
20
-16.924999
30
7.400000
70
192
0
VERTEX
8
OBJECT__24
10
63.450001
20
-7.325000
30
7.400000
70
192
0
VERTEX
8
OBJECT__24
10
63.824001
20
2.446000
30
7.400000
70
192
0
VERTEX
8
OBJECT__24
10
62.702999
20
12.161000
30
7.400000
70
192
0
VERTEX
8
OBJECT__24
10
60.112000
20
21.590000
30
7.400000
70
192
0
VERTEX
8
OBJECT__24
10
56.112000
20
30.513000
30
7.400000
70
192
0
VERTEX
8
OBJECT__24
10
50.796001
20
38.720001
30
7.400000
70
192
0
VERTEX
8
OBJECT__24
10
44.290001
20
46.021000
30
7.400000
70
192
0
VERTEX
8
OBJECT__24
10
36.745998
20
52.242001
30
7.400000
70
192
0
VERTEX
8
OBJECT__24
10
28.341000
20
57.238998
30
7.400000
70
192
0
VERTEX
8
OBJECT__24
10
19.271000
20
60.895000
30
7.400000
70
192
0
VERTEX
8
OBJECT__24
10
9.750000
20
63.123001
30
7.400000
70
192
0
VERTEX
8
OBJECT__24
10
0.000000
20
62.638000
30
6.345000
70
192
0
VERTEX
8
OBJECT__24
10
-9.562000
20
61.903999
30
6.345000
70
192
0
VERTEX
8
OBJECT__24
10
-18.899000
20
59.719002
30
6.345000
70
192
0
VERTEX
8
OBJECT__24
10
-27.794001
20
56.133999
30
6.345000
70
192
0
VERTEX
8
OBJECT__24
10
-36.036999
20
51.234001
30
6.345000
70
192
0
VERTEX
8
OBJECT__24
10
-43.436001
20
45.132000
30
6.345000
70
192
0
VERTEX
8
OBJECT__24
10
-49.816002
20
37.973000
30
6.345000
70
192
0
VERTEX
8
OBJECT__24
10
-55.028999
20
29.924000
30
6.345000
70
192
0
VERTEX
8
OBJECT__24
10
-58.952000
20
21.173000
30
6.345000
70
192
0
VERTEX
8
OBJECT__24
10
-61.493000
20
11.926000
30
6.345000
70
192
0
VERTEX
8
OBJECT__24
10
-62.591999
20
2.399000
30
6.345000
70
192
0
VERTEX
8
OBJECT__24
10
-62.224998
20
-7.184000
30
6.345000
70
192
0
VERTEX
8
OBJECT__24
10
-60.398998
20
-16.598000
30
6.345000
70
192
0
VERTEX
8
OBJECT__24
10
-57.158001
20
-25.622999
30
6.345000
70
192
0
VERTEX
8
OBJECT__24
10
-52.577000
20
-34.048000
30
6.345000
70
192
0
VERTEX
8
OBJECT__24
10
-46.763000
20
-41.674999
30
6.345000
70
192
0
VERTEX
8
OBJECT__24
10
-39.853001
20
-48.325001
30
6.345000
70
192
0
VERTEX
8
OBJECT__24
10
-32.008999
20
-53.841999
30
6.345000
70
192
0
VERTEX
8
OBJECT__24
10
-23.415001
20
-58.097000
30
6.345000
70
192
0
VERTEX
8
OBJECT__24
10
-14.272000
20
-60.991001
30
6.345000
70
192
0
VERTEX
8
OBJECT__24
10
-4.795000
20
-62.455002
30
6.345000
70
192
0
VERTEX
8
OBJECT__24
10
4.795000
20
-62.455002
30
6.345000
70
192
0
VERTEX
8
OBJECT__24
10
14.272000
20
-60.991001
30
6.345000
70
192
0
VERTEX
8
OBJECT__24
10
23.415001
20
-58.097000
30
6.345000
70
192
0
VERTEX
8
OBJECT__24
10
32.008999
20
-53.841999
30
6.345000
70
192
0
VERTEX
8
OBJECT__24
10
39.853001
20
-48.325001
30
6.345000
70
192
0
VERTEX
8
OBJECT__24
10
46.763000
20
-41.674999
30
6.345000
70
192
0
VERTEX
8
OBJECT__24
10
52.577000
20
-34.048000
30
6.345000
70
192
0
VERTEX
8
OBJECT__24
10
57.158001
20
-25.622999
30
6.345000
70
192
0
VERTEX
8
OBJECT__24
10
60.398998
20
-16.598000
30
6.345000
70
192
0
VERTEX
8
OBJECT__24
10
62.224998
20
-7.184000
30
6.345000
70
192
0
VERTEX
8
OBJECT__24
10
62.591999
20
2.399000
30
6.345000
70
192
0
VERTEX
8
OBJECT__24
10
61.493000
20
11.926000
30
6.345000
70
192
0
VERTEX
8
OBJECT__24
10
58.952000
20
21.173000
30
6.345000
70
192
0
VERTEX
8
OBJECT__24
10
55.028999
20
29.924000
30
6.345000
70
192
0
VERTEX
8
OBJECT__24
10
49.816002
20
37.973000
30
6.345000
70
192
0
VERTEX
8
OBJECT__24
10
43.436001
20
45.132000
30
6.345000
70
192
0
VERTEX
8
OBJECT__24
10
36.036999
20
51.234001
30
6.345000
70
192
0
VERTEX
8
OBJECT__24
10
27.794001
20
56.133999
30
6.345000
70
192
0
VERTEX
8
OBJECT__24
10
18.899000
20
59.719002
30
6.345000
70
192
0
VERTEX
8
OBJECT__24
10
9.562000
20
61.903999
30
6.345000
70
192
0
VERTEX
8
OBJECT__24
10
0.000000
20
60.171001
30
5.788000
70
192
0
VERTEX
8
OBJECT__24
10
-9.185000
20
59.466000
30
5.788000
70
192
0
VERTEX
8
OBJECT__24
10
-18.155001
20
57.367001
30
5.788000
70
192
0
VERTEX
8
OBJECT__24
10
-26.698999
20
53.923000
30
5.788000
70
192
0
VERTEX
8
OBJECT__24
10
-34.617001
20
49.216000
30
5.788000
70
192
0
VERTEX
8
OBJECT__24
10
-41.723999
20
43.354000
30
5.788000
70
192
0
VERTEX
8
OBJECT__24
10
-47.853001
20
36.477001
30
5.788000
70
192
0
VERTEX
8
OBJECT__24
10
-52.861000
20
28.745001
30
5.788000
70
192
0
VERTEX
8
OBJECT__24
10
-56.629002
20
20.339001
30
5.788000
70
192
0
VERTEX
8
OBJECT__24
10
-59.070000
20
11.456000
30
5.788000
70
192
0
VERTEX
8
OBJECT__24
10
-60.126999
20
2.305000
30
5.788000
70
192
0
VERTEX
8
OBJECT__24
10
-59.773998
20
-6.901000
30
5.788000
70
192
0
VERTEX
8
OBJECT__24
10
-58.020000
20
-15.944000
30
5.788000
70
192
0
VERTEX
8
OBJECT__24
10
-54.905998
20
-24.614000
30
5.788000
70
192
0
VERTEX
8
OBJECT__24
10
-50.505001
20
-32.707001
30
5.788000
70
192
0
VERTEX
8
OBJECT__24
10
-44.921001
20
-40.033001
30
5.788000
70
192
0
VERTEX
8
OBJECT__24
10
-38.283001
20
-46.421001
30
5.788000
70
192
0
VERTEX
8
OBJECT__24
10
-30.747999
20
-51.721001
30
5.788000
70
192
0
VERTEX
8
OBJECT__24
10
-22.493000
20
-55.808998
30
5.788000
70
192
0
VERTEX
8
OBJECT__24
10
-13.710000
20
-58.588001
30
5.788000
70
192
0
VERTEX
8
OBJECT__24
10
-4.606000
20
-59.993999
30
5.788000
70
192
0
VERTEX
8
OBJECT__24
10
4.606000
20
-59.993999
30
5.788000
70
192
0
VERTEX
8
OBJECT__24
10
13.710000
20
-58.588001
30
5.788000
70
192
0
VERTEX
8
OBJECT__24
10
22.493000
20
-55.808998
30
5.788000
70
192
0
VERTEX
8
OBJECT__24
10
30.747999
20
-51.721001
30
5.788000
70
192
0
VERTEX
8
OBJECT__24
10
38.283001
20
-46.421001
30
5.788000
70
192
0
VERTEX
8
OBJECT__24
10
44.921001
20
-40.033001
30
5.788000
70
192
0
VERTEX
8
OBJECT__24
10
50.505001
20
-32.707001
30
5.788000
70
192
0
VERTEX
8
OBJECT__24
10
54.905998
20
-24.614000
30
5.788000
70
192
0
VERTEX
8
OBJECT__24
10
58.020000
20
-15.944000
30
5.788000
70
192
0
VERTEX
8
OBJECT__24
10
59.773998
20
-6.901000
30
5.788000
70
192
0
VERTEX
8
OBJECT__24
10
60.126999
20
2.305000
30
5.788000
70
192
0
VERTEX
8
OBJECT__24
10
59.070000
20
11.456000
30
5.788000
70
192
0
VERTEX
8
OBJECT__24
10
56.629002
20
20.339001
30
5.788000
70
192
0
VERTEX
8
OBJECT__24
10
52.861000
20
28.745001
30
5.788000
70
192
0
VERTEX
8
OBJECT__24
10
47.853001
20
36.477001
30
5.788000
70
192
0
VERTEX
8
OBJECT__24
10
41.723999
20
43.354000
30
5.788000
70
192
0
VERTEX
8
OBJECT__24
10
34.617001
20
49.216000
30
5.788000
70
192
0
VERTEX
8
OBJECT__24
10
26.698999
20
53.923000
30
5.788000
70
192
0
VERTEX
8
OBJECT__24
10
18.155001
20
57.367001
30
5.788000
70
192
0
VERTEX
8
OBJECT__24
10
9.185000
20
59.466000
30
5.788000
70
192
0
VERTEX
8
OBJECT__24
10
-7.847000
20
50.799999
30
5.597000
70
192
0
VERTEX
8
OBJECT__24
10
-18.174999
20
47.931999
30
5.597000
70
192
0
VERTEX
8
OBJECT__24
10
-15.509000
20
49.007000
30
5.597000
70
192
0
VERTEX
8
OBJECT__24
10
-22.808001
20
46.064999
30
5.597000
70
192
0
VERTEX
8
OBJECT__24
10
-29.183001
20
42.275002
30
5.597000
70
192
0
VERTEX
8
OBJECT__24
10
-29.573000
20
42.043999
30
5.597000
70
192
0
VERTEX
8
OBJECT__24
10
-33.785999
20
38.738998
30
5.597000
70
192
0
VERTEX
8
OBJECT__24
10
-38.474998
20
34.085999
30
5.597000
70
192
0
VERTEX
8
OBJECT__24
10
-38.738998
20
33.785999
30
5.597000
70
192
0
VERTEX
8
OBJECT__24
10
-35.573002
20
36.965000
30
5.597000
70
192
0
VERTEX
8
OBJECT__24
10
-40.880001
20
31.160999
30
5.597000
70
192
0
VERTEX
8
OBJECT__24
10
-45.466999
20
23.865999
30
5.597000
70
192
0
VERTEX
8
OBJECT__24
10
-45.158001
20
24.556000
30
5.597000
70
192
0
VERTEX
8
OBJECT__24
10
-48.376999
20
17.375000
30
5.597000
70
192
0
VERTEX
8
OBJECT__24
10
-49.780998
20
12.266000
30
5.597000
70
192
0
VERTEX
8
OBJECT__24
10
-51.063000
20
-5.895000
30
5.597000
70
192
0
VERTEX
8
OBJECT__24
10
-49.824001
20
-12.285000
30
5.597000
70
192
0
VERTEX
8
OBJECT__24
10
-49.564999
20
-13.621000
30
5.597000
70
192
0
VERTEX
8
OBJECT__24
10
-45.387001
20
-23.818001
30
5.597000
70
192
0
VERTEX
8
OBJECT__24
10
-46.904999
20
-21.027000
30
5.597000
70
192
0
VERTEX
8
OBJECT__24
10
-43.145000
20
-27.941000
30
5.597000
70
192
0
VERTEX
8
OBJECT__24
10
-38.466000
20
-34.078999
30
5.597000
70
192
0
VERTEX
8
OBJECT__24
10
-38.375000
20
-34.199001
30
5.597000
70
192
0
VERTEX
8
OBJECT__24
10
-32.703999
20
-39.655998
30
5.597000
70
192
0
VERTEX
8
OBJECT__24
10
-29.114000
20
-42.181999
30
5.597000
70
192
0
VERTEX
8
OBJECT__24
10
-26.268000
20
-44.183998
30
5.597000
70
192
0
VERTEX
8
OBJECT__24
10
-18.205999
20
-47.994999
30
5.597000
70
192
0
VERTEX
8
OBJECT__24
10
-19.215000
20
-47.675999
30
5.597000
70
192
0
VERTEX
8
OBJECT__24
10
-11.712000
20
-50.049999
30
5.597000
70
192
0
VERTEX
8
OBJECT__24
10
-6.177000
20
-50.904999
30
5.597000
70
192
0
VERTEX
8
OBJECT__24
10
-3.935000
20
-51.251999
30
5.597000
70
192
0
VERTEX
8
OBJECT__24
10
6.177000
20
-50.904999
30
5.597000
70
192
0
VERTEX
8
OBJECT__24
10
3.935000
20
-51.251999
30
5.597000
70
192
0
VERTEX
8
OBJECT__24
10
11.712000
20
-50.049999
30
5.597000
70
192
0
VERTEX
8
OBJECT__24
10
18.205999
20
-47.994999
30
5.597000
70
192
0
VERTEX
8
OBJECT__24
10
19.215000
20
-47.675999
30
5.597000
70
192
0
VERTEX
8
OBJECT__24
10
29.114000
20
-42.181999
30
5.597000
70
192
0
VERTEX
8
OBJECT__24
10
26.268000
20
-44.183998
30
5.597000
70
192
0
VERTEX
8
OBJECT__24
10
32.703999
20
-39.655998
30
5.597000
70
192
0
VERTEX
8
OBJECT__24
10
38.466000
20
-34.078999
30
5.597000
70
192
0
VERTEX
8
OBJECT__24
10
38.375000
20
-34.199001
30
5.597000
70
192
0
VERTEX
8
OBJECT__24
10
43.145000
20
-27.941000
30
5.597000
70
192
0
VERTEX
8
OBJECT__24
10
45.387001
20
-23.818001
30
5.597000
70
192
0
VERTEX
8
OBJECT__24
10
46.904999
20
-21.027000
30
5.597000
70
192
0
VERTEX
8
OBJECT__24
10
49.824001
20
-12.285000
30
5.597000
70
192
0
VERTEX
8
OBJECT__24
10
49.564999
20
-13.621000
30
5.597000
70
192
0
VERTEX
8
OBJECT__24
10
49.780998
20
12.266000
30
5.597000
70
192
0
VERTEX
8
OBJECT__24
10
50.462002
20
9.787000
30
5.597000
70
192
0
VERTEX
8
OBJECT__24
10
48.376999
20
17.375000
30
5.597000
70
192
0
VERTEX
8
OBJECT__24
10
45.466999
20
23.865999
30
5.597000
70
192
0
VERTEX
8
OBJECT__24
10
45.158001
20
24.556000
30
5.597000
70
192
0
VERTEX
8
OBJECT__24
10
38.738998
20
33.785999
30
5.597000
70
192
0
VERTEX
8
OBJECT__24
10
38.474998
20
34.085999
30
5.597000
70
192
0
VERTEX
8
OBJECT__24
10
40.880001
20
31.160999
30
5.597000
70
192
0
VERTEX
8
OBJECT__24
10
33.785999
20
38.738998
30
5.597000
70
192
0
VERTEX
8
OBJECT__24
10
35.573002
20
36.965000
30
5.597000
70
192
0
VERTEX
8
OBJECT__24
10
29.183001
20
42.275002
30
5.597000
70
192
0
VERTEX
8
OBJECT__24
10
29.573000
20
42.043999
30
5.597000
70
192
0
VERTEX
8
OBJECT__24
10
22.808001
20
46.064999
30
5.597000
70
192
0
VERTEX
8
OBJECT__24
10
18.174999
20
47.931999
30
5.597000
70
192
0
VERTEX
8
OBJECT__24
10
15.509000
20
49.007000
30
5.597000
70
192
0
VERTEX
8
OBJECT__24
10
51.376999
20
-1.757000
30
5.597000
70
192
0
VERTEX
8
OBJECT__24
10
51.376999
20
-1.751000
30
5.597000
70
192
0
VERTEX
8
OBJECT__24
10
51.283001
20
-3.502000
30
5.597000
70
192
0
VERTEX
8
OBJECT__24
10
51.063000
20
-5.895000
30
5.597000
70
192
0
VERTEX
8
OBJECT__24
10
51.404999
20
0.000000
30
5.598000
70
192
0
VERTEX
8
OBJECT__24
10
51.283001
20
3.502000
30
5.597000
70
192
0
VERTEX
8
OBJECT__24
10
51.337002
20
1.968000
30
5.597000
70
192
0
VERTEX
8
OBJECT__24
10
6.191000
20
50.984001
30
5.597000
70
192
0
VERTEX
8
OBJECT__24
10
3.502000
20
51.283001
30
5.597000
70
192
0
VERTEX
8
OBJECT__24
10
7.847000
20
50.799999
30
5.597000
70
192
0
VERTEX
8
OBJECT__24
10
-3.502000
20
51.283001
30
5.597000
70
192
0
VERTEX
8
OBJECT__24
10
-6.191000
20
50.984001
30
5.597000
70
192
0
VERTEX
8
OBJECT__24
10
0.000000
20
51.408001
30
5.598000
70
192
0
VERTEX
8
OBJECT__24
10
-50.462002
20
9.787000
30
5.597000
70
192
0
VERTEX
8
OBJECT__24
10
-51.283001
20
3.502000
30
5.597000
70
192
0
VERTEX
8
OBJECT__24
10
-51.404999
20
0.000000
30
5.598000
70
192
0
VERTEX
8
OBJECT__24
10
-51.283001
20
-3.502000
30
5.597000
70
192
0
VERTEX
8
OBJECT__24
10
-51.337002
20
1.968000
30
5.597000
70
192
0
VERTEX
8
OBJECT__24
10
0
20
0
30
0
70
128
71
1
72
2
73
3
0
VERTEX
8
OBJECT__24
10
0
20
0
30
0
70
128
71
4
72
5
73
2
0
VERTEX
8
OBJECT__24
10
0
20
0
30
0
70
128
71
6
72
7
73
5
0
VERTEX
8
OBJECT__24
10
0
20
0
30
0
70
128
71
8
72
9
73
7
0
VERTEX
8
OBJECT__24
10
0
20
0
30
0
70
128
71
10
72
11
73
9
0
VERTEX
8
OBJECT__24
10
0
20
0
30
0
70
128
71
12
72
13
73
11
0
VERTEX
8
OBJECT__24
10
0
20
0
30
0
70
128
71
14
72
15
73
13
0
VERTEX
8
OBJECT__24
10
0
20
0
30
0
70
128
71
16
72
17
73
15
0
VERTEX
8
OBJECT__24
10
0
20
0
30
0
70
128
71
18
72
19
73
17
0
VERTEX
8
OBJECT__24
10
0
20
0
30
0
70
128
71
20
72
21
73
19
0
VERTEX
8
OBJECT__24
10
0
20
0
30
0
70
128
71
22
72
23
73
24
0
VERTEX
8
OBJECT__24
10
0
20
0
30
0
70
128
71
24
72
20
73
22
0
VERTEX
8
OBJECT__24
10
0
20
0
30
0
70
128
71
25
72
26
73
23
0
VERTEX
8
OBJECT__24
10
0
20
0
30
0
70
128
71
27
72
28
73
26
0
VERTEX
8
OBJECT__24
10
0
20
0
30
0
70
128
71
29
72
30
73
28
0
VERTEX
8
OBJECT__24
10
0
20
0
30
0
70
128
71
31
72
32
73
30
0
VERTEX
8
OBJECT__24
10
0
20
0
30
0
70
128
71
33
72
34
73
32
0
VERTEX
8
OBJECT__24
10
0
20
0
30
0
70
128
71
35
72
36
73
34
0
VERTEX
8
OBJECT__24
10
0
20
0
30
0
70
128
71
37
72
38
73
36
0
VERTEX
8
OBJECT__24
10
0
20
0
30
0
70
128
71
39
72
40
73
38
0
VERTEX
8
OBJECT__24
10
0
20
0
30
0
70
128
71
41
72
42
73
40
0
VERTEX
8
OBJECT__24
10
0
20
0
30
0
70
128
71
43
72
44
73
42
0
VERTEX
8
OBJECT__24
10
0
20
0
30
0
70
128
71
45
72
46
73
44
0
VERTEX
8
OBJECT__24
10
0
20
0
30
0
70
128
71
47
72
48
73
46
0
VERTEX
8
OBJECT__24
10
0
20
0
30
0
70
128
71
49
72
50
73
48
0
VERTEX
8
OBJECT__24
10
0
20
0
30
0
70
128
71
51
72
52
73
50
0
VERTEX
8
OBJECT__24
10
0
20
0
30
0
70
128
71
53
72
54
73
52
0
VERTEX
8
OBJECT__24
10
0
20
0
30
0
70
128
71
55
72
56
73
54
0
VERTEX
8
OBJECT__24
10
0
20
0
30
0
70
128
71
57
72
58
73
56
0
VERTEX
8
OBJECT__24
10
0
20
0
30
0
70
128
71
59
72
60
73
58
0
VERTEX
8
OBJECT__24
10
0
20
0
30
0
70
128
71
61
72
62
73
60
0
VERTEX
8
OBJECT__24
10
0
20
0
30
0
70
128
71
63
72
64
73
62
0
VERTEX
8
OBJECT__24
10
0
20
0
30
0
70
128
71
65
72
66
73
64
0
VERTEX
8
OBJECT__24
10
0
20
0
30
0
70
128
71
67
72
68
73
66
0
VERTEX
8
OBJECT__24
10
0
20
0
30
0
70
128
71
69
72
70
73
68
0
VERTEX
8
OBJECT__24
10
0
20
0
30
0
70
128
71
71
72
72
73
70
0
VERTEX
8
OBJECT__24
10
0
20
0
30
0
70
128
71
73
72
74
73
72
0
VERTEX
8
OBJECT__24
10
0
20
0
30
0
70
128
71
75
72
76
73
74
0
VERTEX
8
OBJECT__24
10
0
20
0
30
0
70
128
71
77
72
78
73
76
0
VERTEX
8
OBJECT__24
10
0
20
0
30
0
70
128
71
79
72
80
73
78
0
VERTEX
8
OBJECT__24
10
0
20
0
30
0
70
128
71
81
72
82
73
80
0
VERTEX
8
OBJECT__24
10
0
20
0
30
0
70
128
71
83
72
3
73
82
0
VERTEX
8
OBJECT__24
10
0
20
0
30
0
70
128
71
84
72
85
73
1
0
VERTEX
8
OBJECT__24
10
0
20
0
30
0
70
128
71
85
72
86
73
4
0
VERTEX
8
OBJECT__24
10
0
20
0
30
0
70
128
71
86
72
87
73
6
0
VERTEX
8
OBJECT__24
10
0
20
0
30
0
70
128
71
87
72
88
73
8
0
VERTEX
8
OBJECT__24
10
0
20
0
30
0
70
128
71
88
72
89
73
10
0
VERTEX
8
OBJECT__24
10
0
20
0
30
0
70
128
71
89
72
90
73
12
0
VERTEX
8
OBJECT__24
10
0
20
0
30
0
70
128
71
90
72
91
73
14
0
VERTEX
8
OBJECT__24
10
0
20
0
30
0
70
128
71
91
72
92
73
16
0
VERTEX
8
OBJECT__24
10
0
20
0
30
0
70
128
71
92
72
93
73
18
0
VERTEX
8
OBJECT__24
10
0
20
0
30
0
70
128
71
93
72
94
73
20
0
VERTEX
8
OBJECT__24
10
0
20
0
30
0
70
128
71
94
72
95
73
22
0
VERTEX
8
OBJECT__24
10
0
20
0
30
0
70
128
71
95
72
96
73
25
0
VERTEX
8
OBJECT__24
10
0
20
0
30
0
70
128
71
96
72
97
73
27
0
VERTEX
8
OBJECT__24
10
0
20
0
30
0
70
128
71
97
72
98
73
29
0
VERTEX
8
OBJECT__24
10
0
20
0
30
0
70
128
71
98
72
99
73
31
0
VERTEX
8
OBJECT__24
10
0
20
0
30
0
70
128
71
99
72
100
73
33
0
VERTEX
8
OBJECT__24
10
0
20
0
30
0
70
128
71
100
72
101
73
35
0
VERTEX
8
OBJECT__24
10
0
20
0
30
0
70
128
71
101
72
102
73
37
0
VERTEX
8
OBJECT__24
10
0
20
0
30
0
70
128
71
102
72
103
73
39
0
VERTEX
8
OBJECT__24
10
0
20
0
30
0
70
128
71
103
72
104
73
41
0
VERTEX
8
OBJECT__24
10
0
20
0
30
0
70
128
71
104
72
105
73
43
0
VERTEX
8
OBJECT__24
10
0
20
0
30
0
70
128
71
105
72
106
73
45
0
VERTEX
8
OBJECT__24
10
0
20
0
30
0
70
128
71
106
72
107
73
47
0
VERTEX
8
OBJECT__24
10
0
20
0
30
0
70
128
71
107
72
108
73
49
0
VERTEX
8
OBJECT__24
10
0
20
0
30
0
70
128
71
108
72
109
73
51
0
VERTEX
8
OBJECT__24
10
0
20
0
30
0
70
128
71
109
72
110
73
53
0
VERTEX
8
OBJECT__24
10
0
20
0
30
0
70
128
71
110
72
111
73
55
0
VERTEX
8
OBJECT__24
10
0
20
0
30
0
70
128
71
111
72
112
73
57
0
VERTEX
8
OBJECT__24
10
0
20
0
30
0
70
128
71
112
72
113
73
59
0
VERTEX
8
OBJECT__24
10
0
20
0
30
0
70
128
71
113
72
114
73
61
0
VERTEX
8
OBJECT__24
10
0
20
0
30
0
70
128
71
114
72
115
73
63
0
VERTEX
8
OBJECT__24
10
0
20
0
30
0
70
128
71
115
72
116
73
65
0
VERTEX
8
OBJECT__24
10
0
20
0
30
0
70
128
71
116
72
117
73
67
0
VERTEX
8
OBJECT__24
10
0
20
0
30
0
70
128
71
117
72
118
73
69
0
VERTEX
8
OBJECT__24
10
0
20
0
30
0
70
128
71
118
72
119
73
71
0
VERTEX
8
OBJECT__24
10
0
20
0
30
0
70
128
71
119
72
120
73
73
0
VERTEX
8
OBJECT__24
10
0
20
0
30
0
70
128
71
120
72
121
73
75
0
VERTEX
8
OBJECT__24
10
0
20
0
30
0
70
128
71
121
72
122
73
77
0
VERTEX
8
OBJECT__24
10
0
20
0
30
0
70
128
71
122
72
123
73
79
0
VERTEX
8
OBJECT__24
10
0
20
0
30
0
70
128
71
123
72
124
73
81
0
VERTEX
8
OBJECT__24
10
0
20
0
30
0
70
128
71
124
72
84
73
83
0
VERTEX
8
OBJECT__24
10
0
20
0
30
0
70
128
71
125
72
126
73
85
0
VERTEX
8
OBJECT__24
10
0
20
0
30
0
70
128
71
126
72
127
73
86
0
VERTEX
8
OBJECT__24
10
0
20
0
30
0
70
128
71
127
72
128
73
87
0
VERTEX
8
OBJECT__24
10
0
20
0
30
0
70
128
71
128
72
129
73
88
0
VERTEX
8
OBJECT__24
10
0
20
0
30
0
70
128
71
129
72
130
73
89
0
VERTEX
8
OBJECT__24
10
0
20
0
30
0
70
128
71
130
72
131
73
90
0
VERTEX
8
OBJECT__24
10
0
20
0
30
0
70
128
71
131
72
132
73
91
0
VERTEX
8
OBJECT__24
10
0
20
0
30
0
70
128
71
132
72
133
73
92
0
VERTEX
8
OBJECT__24
10
0
20
0
30
0
70
128
71
133
72
134
73
93
0
VERTEX
8
OBJECT__24
10
0
20
0
30
0
70
128
71
134
72
135
73
94
0
VERTEX
8
OBJECT__24
10
0
20
0
30
0
70
128
71
135
72
136
73
95
0
VERTEX
8
OBJECT__24
10
0
20
0
30
0
70
128
71
136
72
137
73
96
0
VERTEX
8
OBJECT__24
10
0
20
0
30
0
70
128
71
137
72
138
73
97
0
VERTEX
8
OBJECT__24
10
0
20
0
30
0
70
128
71
138
72
139
73
98
0
VERTEX
8
OBJECT__24
10
0
20
0
30
0
70
128
71
139
72
140
73
99
0
VERTEX
8
OBJECT__24
10
0
20
0
30
0
70
128
71
140
72
141
73
100
0
VERTEX
8
OBJECT__24
10
0
20
0
30
0
70
128
71
141
72
142
73
101
0
VERTEX
8
OBJECT__24
10
0
20
0
30
0
70
128
71
142
72
143
73
102
0
VERTEX
8
OBJECT__24
10
0
20
0
30
0
70
128
71
143
72
144
73
103
0
VERTEX
8
OBJECT__24
10
0
20
0
30
0
70
128
71
144
72
145
73
104
0
VERTEX
8
OBJECT__24
10
0
20
0
30
0
70
128
71
145
72
146
73
105
0
VERTEX
8
OBJECT__24
10
0
20
0
30
0
70
128
71
146
72
147
73
106
0
VERTEX
8
OBJECT__24
10
0
20
0
30
0
70
128
71
147
72
148
73
107
0
VERTEX
8
OBJECT__24
10
0
20
0
30
0
70
128
71
148
72
149
73
108
0
VERTEX
8
OBJECT__24
10
0
20
0
30
0
70
128
71
149
72
150
73
109
0
VERTEX
8
OBJECT__24
10
0
20
0
30
0
70
128
71
150
72
151
73
110
0
VERTEX
8
OBJECT__24
10
0
20
0
30
0
70
128
71
151
72
152
73
111
0
VERTEX
8
OBJECT__24
10
0
20
0
30
0
70
128
71
152
72
153
73
112
0
VERTEX
8
OBJECT__24
10
0
20
0
30
0
70
128
71
153
72
154
73
113
0
VERTEX
8
OBJECT__24
10
0
20
0
30
0
70
128
71
154
72
155
73
114
0
VERTEX
8
OBJECT__24
10
0
20
0
30
0
70
128
71
155
72
156
73
115
0
VERTEX
8
OBJECT__24
10
0
20
0
30
0
70
128
71
156
72
157
73
116
0
VERTEX
8
OBJECT__24
10
0
20
0
30
0
70
128
71
157
72
158
73
117
0
VERTEX
8
OBJECT__24
10
0
20
0
30
0
70
128
71
158
72
159
73
118
0
VERTEX
8
OBJECT__24
10
0
20
0
30
0
70
128
71
159
72
160
73
119
0
VERTEX
8
OBJECT__24
10
0
20
0
30
0
70
128
71
160
72
161
73
120
0
VERTEX
8
OBJECT__24
10
0
20
0
30
0
70
128
71
161
72
162
73
121
0
VERTEX
8
OBJECT__24
10
0
20
0
30
0
70
128
71
162
72
163
73
122
0
VERTEX
8
OBJECT__24
10
0
20
0
30
0
70
128
71
163
72
164
73
123
0
VERTEX
8
OBJECT__24
10
0
20
0
30
0
70
128
71
164
72
165
73
124
0
VERTEX
8
OBJECT__24
10
0
20
0
30
0
70
128
71
165
72
125
73
84
0
VERTEX
8
OBJECT__24
10
0
20
0
30
0
70
128
71
166
72
167
73
126
0
VERTEX
8
OBJECT__24
10
0
20
0
30
0
70
128
71
167
72
168
73
127
0
VERTEX
8
OBJECT__24
10
0
20
0
30
0
70
128
71
168
72
169
73
128
0
VERTEX
8
OBJECT__24
10
0
20
0
30
0
70
128
71
169
72
170
73
129
0
VERTEX
8
OBJECT__24
10
0
20
0
30
0
70
128
71
170
72
171
73
130
0
VERTEX
8
OBJECT__24
10
0
20
0
30
0
70
128
71
171
72
172
73
131
0
VERTEX
8
OBJECT__24
10
0
20
0
30
0
70
128
71
172
72
173
73
132
0
VERTEX
8
OBJECT__24
10
0
20
0
30
0
70
128
71
173
72
174
73
133
0
VERTEX
8
OBJECT__24
10
0
20
0
30
0
70
128
71
174
72
175
73
134
0
VERTEX
8
OBJECT__24
10
0
20
0
30
0
70
128
71
175
72
176
73
135
0
VERTEX
8
OBJECT__24
10
0
20
0
30
0
70
128
71
176
72
177
73
136
0
VERTEX
8
OBJECT__24
10
0
20
0
30
0
70
128
71
177
72
178
73
137
0
VERTEX
8
OBJECT__24
10
0
20
0
30
0
70
128
71
178
72
179
73
138
0
VERTEX
8
OBJECT__24
10
0
20
0
30
0
70
128
71
179
72
180
73
139
0
VERTEX
8
OBJECT__24
10
0
20
0
30
0
70
128
71
180
72
181
73
140
0
VERTEX
8
OBJECT__24
10
0
20
0
30
0
70
128
71
181
72
182
73
141
0
VERTEX
8
OBJECT__24
10
0
20
0
30
0
70
128
71
182
72
183
73
142
0
VERTEX
8
OBJECT__24
10
0
20
0
30
0
70
128
71
183
72
184
73
143
0
VERTEX
8
OBJECT__24
10
0
20
0
30
0
70
128
71
184
72
185
73
144
0
VERTEX
8
OBJECT__24
10
0
20
0
30
0
70
128
71
185
72
186
73
145
0
VERTEX
8
OBJECT__24
10
0
20
0
30
0
70
128
71
186
72
187
73
146
0
VERTEX
8
OBJECT__24
10
0
20
0
30
0
70
128
71
187
72
188
73
147
0
VERTEX
8
OBJECT__24
10
0
20
0
30
0
70
128
71
188
72
189
73
148
0
VERTEX
8
OBJECT__24
10
0
20
0
30
0
70
128
71
189
72
190
73
149
0
VERTEX
8
OBJECT__24
10
0
20
0
30
0
70
128
71
190
72
191
73
150
0
VERTEX
8
OBJECT__24
10
0
20
0
30
0
70
128
71
191
72
192
73
151
0
VERTEX
8
OBJECT__24
10
0
20
0
30
0
70
128
71
192
72
193
73
152
0
VERTEX
8
OBJECT__24
10
0
20
0
30
0
70
128
71
193
72
194
73
153
0
VERTEX
8
OBJECT__24
10
0
20
0
30
0
70
128
71
194
72
195
73
154
0
VERTEX
8
OBJECT__24
10
0
20
0
30
0
70
128
71
195
72
196
73
155
0
VERTEX
8
OBJECT__24
10
0
20
0
30
0
70
128
71
196
72
197
73
156
0
VERTEX
8
OBJECT__24
10
0
20
0
30
0
70
128
71
197
72
198
73
157
0
VERTEX
8
OBJECT__24
10
0
20
0
30
0
70
128
71
198
72
199
73
158
0
VERTEX
8
OBJECT__24
10
0
20
0
30
0
70
128
71
199
72
200
73
159
0
VERTEX
8
OBJECT__24
10
0
20
0
30
0
70
128
71
200
72
201
73
160
0
VERTEX
8
OBJECT__24
10
0
20
0
30
0
70
128
71
201
72
202
73
161
0
VERTEX
8
OBJECT__24
10
0
20
0
30
0
70
128
71
202
72
203
73
162
0
VERTEX
8
OBJECT__24
10
0
20
0
30
0
70
128
71
203
72
204
73
163
0
VERTEX
8
OBJECT__24
10
0
20
0
30
0
70
128
71
204
72
205
73
164
0
VERTEX
8
OBJECT__24
10
0
20
0
30
0
70
128
71
205
72
206
73
165
0
VERTEX
8
OBJECT__24
10
0
20
0
30
0
70
128
71
206
72
166
73
125
0
VERTEX
8
OBJECT__24
10
0
20
0
30
0
70
128
71
207
72
208
73
167
0
VERTEX
8
OBJECT__24
10
0
20
0
30
0
70
128
71
208
72
209
73
168
0
VERTEX
8
OBJECT__24
10
0
20
0
30
0
70
128
71
209
72
210
73
169
0
VERTEX
8
OBJECT__24
10
0
20
0
30
0
70
128
71
210
72
211
73
170
0
VERTEX
8
OBJECT__24
10
0
20
0
30
0
70
128
71
211
72
212
73
171
0
VERTEX
8
OBJECT__24
10
0
20
0
30
0
70
128
71
212
72
213
73
172
0
VERTEX
8
OBJECT__24
10
0
20
0
30
0
70
128
71
213
72
214
73
173
0
VERTEX
8
OBJECT__24
10
0
20
0
30
0
70
128
71
214
72
215
73
174
0
VERTEX
8
OBJECT__24
10
0
20
0
30
0
70
128
71
215
72
216
73
175
0
VERTEX
8
OBJECT__24
10
0
20
0
30
0
70
128
71
216
72
217
73
176
0
VERTEX
8
OBJECT__24
10
0
20
0
30
0
70
128
71
217
72
218
73
177
0
VERTEX
8
OBJECT__24
10
0
20
0
30
0
70
128
71
218
72
219
73
178
0
VERTEX
8
OBJECT__24
10
0
20
0
30
0
70
128
71
219
72
220
73
179
0
VERTEX
8
OBJECT__24
10
0
20
0
30
0
70
128
71
220
72
221
73
180
0
VERTEX
8
OBJECT__24
10
0
20
0
30
0
70
128
71
221
72
222
73
181
0
VERTEX
8
OBJECT__24
10
0
20
0
30
0
70
128
71
222
72
223
73
182
0
VERTEX
8
OBJECT__24
10
0
20
0
30
0
70
128
71
223
72
224
73
183
0
VERTEX
8
OBJECT__24
10
0
20
0
30
0
70
128
71
224
72
225
73
184
0
VERTEX
8
OBJECT__24
10
0
20
0
30
0
70
128
71
225
72
226
73
185
0
VERTEX
8
OBJECT__24
10
0
20
0
30
0
70
128
71
226
72
227
73
186
0
VERTEX
8
OBJECT__24
10
0
20
0
30
0
70
128
71
227
72
228
73
187
0
VERTEX
8
OBJECT__24
10
0
20
0
30
0
70
128
71
228
72
229
73
188
0
VERTEX
8
OBJECT__24
10
0
20
0
30
0
70
128
71
229
72
230
73
189
0
VERTEX
8
OBJECT__24
10
0
20
0
30
0
70
128
71
230
72
231
73
190
0
VERTEX
8
OBJECT__24
10
0
20
0
30
0
70
128
71
231
72
232
73
191
0
VERTEX
8
OBJECT__24
10
0
20
0
30
0
70
128
71
232
72
233
73
192
0
VERTEX
8
OBJECT__24
10
0
20
0
30
0
70
128
71
233
72
234
73
193
0
VERTEX
8
OBJECT__24
10
0
20
0
30
0
70
128
71
234
72
235
73
194
0
VERTEX
8
OBJECT__24
10
0
20
0
30
0
70
128
71
235
72
236
73
195
0
VERTEX
8
OBJECT__24
10
0
20
0
30
0
70
128
71
236
72
237
73
196
0
VERTEX
8
OBJECT__24
10
0
20
0
30
0
70
128
71
237
72
238
73
197
0
VERTEX
8
OBJECT__24
10
0
20
0
30
0
70
128
71
238
72
239
73
198
0
VERTEX
8
OBJECT__24
10
0
20
0
30
0
70
128
71
239
72
240
73
199
0
VERTEX
8
OBJECT__24
10
0
20
0
30
0
70
128
71
240
72
241
73
200
0
VERTEX
8
OBJECT__24
10
0
20
0
30
0
70
128
71
241
72
242
73
201
0
VERTEX
8
OBJECT__24
10
0
20
0
30
0
70
128
71
242
72
243
73
202
0
VERTEX
8
OBJECT__24
10
0
20
0
30
0
70
128
71
243
72
244
73
203
0
VERTEX
8
OBJECT__24
10
0
20
0
30
0
70
128
71
244
72
245
73
204
0
VERTEX
8
OBJECT__24
10
0
20
0
30
0
70
128
71
245
72
246
73
205
0
VERTEX
8
OBJECT__24
10
0
20
0
30
0
70
128
71
246
72
247
73
206
0
VERTEX
8
OBJECT__24
10
0
20
0
30
0
70
128
71
247
72
207
73
166
0
VERTEX
8
OBJECT__24
10
0
20
0
30
0
70
128
71
209
72
208
73
248
0
VERTEX
8
OBJECT__24
10
0
20
0
30
0
70
128
71
210
72
209
73
249
0
VERTEX
8
OBJECT__24
10
0
20
0
30
0
70
128
71
209
72
250
73
249
0
VERTEX
8
OBJECT__24
10
0
20
0
30
0
70
128
71
210
72
251
73
252
0
VERTEX
8
OBJECT__24
10
0
20
0
30
0
70
128
71
252
72
211
73
210
0
VERTEX
8
OBJECT__24
10
0
20
0
30
0
70
128
71
211
72
253
73
254
0
VERTEX
8
OBJECT__24
10
0
20
0
30
0
70
128
71
254
72
212
73
211
0
VERTEX
8
OBJECT__24
10
0
20
0
30
0
70
128
71
213
72
212
73
255
0
VERTEX
8
OBJECT__24
10
0
20
0
30
0
70
128
71
255
72
256
73
213
0
VERTEX
8
OBJECT__24
10
0
20
0
30
0
70
128
71
212
72
257
73
255
0
VERTEX
8
OBJECT__24
10
0
20
0
30
0
70
128
71
214
72
213
73
258
0
VERTEX
8
OBJECT__24
10
0
20
0
30
0
70
128
71
215
72
214
73
259
0
VERTEX
8
OBJECT__24
10
0
20
0
30
0
70
128
71
214
72
260
73
259
0
VERTEX
8
OBJECT__24
10
0
20
0
30
0
70
128
71
215
72
261
73
262
0
VERTEX
8
OBJECT__24
10
0
20
0
30
0
70
128
71
262
72
216
73
215
0
VERTEX
8
OBJECT__24
10
0
20
0
30
0
70
128
71
218
72
263
73
264
0
VERTEX
8
OBJECT__24
10
0
20
0
30
0
70
128
71
264
72
219
73
218
0
VERTEX
8
OBJECT__24
10
0
20
0
30
0
70
128
71
220
72
219
73
265
0
VERTEX
8
OBJECT__24
10
0
20
0
30
0
70
128
71
221
72
220
73
266
0
VERTEX
8
OBJECT__24
10
0
20
0
30
0
70
128
71
220
72
267
73
266
0
VERTEX
8
OBJECT__24
10
0
20
0
30
0
70
128
71
221
72
268
73
269
0
VERTEX
8
OBJECT__24
10
0
20
0
30
0
70
128
71
269
72
222
73
221
0
VERTEX
8
OBJECT__24
10
0
20
0
30
0
70
128
71
223
72
222
73
270
0
VERTEX
8
OBJECT__24
10
0
20
0
30
0
70
128
71
223
72
271
73
272
0
VERTEX
8
OBJECT__24
10
0
20
0
30
0
70
128
71
272
72
224
73
223
0
VERTEX
8
OBJECT__24
10
0
20
0
30
0
70
128
71
225
72
224
73
273
0
VERTEX
8
OBJECT__24
10
0
20
0
30
0
70
128
71
226
72
225
73
274
0
VERTEX
8
OBJECT__24
10
0
20
0
30
0
70
128
71
225
72
275
73
274
0
VERTEX
8
OBJECT__24
10
0
20
0
30
0
70
128
71
226
72
276
73
277
0
VERTEX
8
OBJECT__24
10
0
20
0
30
0
70
128
71
277
72
227
73
226
0
VERTEX
8
OBJECT__24
10
0
20
0
30
0
70
128
71
228
72
227
73
278
0
VERTEX
8
OBJECT__24
10
0
20
0
30
0
70
128
71
229
72
228
73
279
0
VERTEX
8
OBJECT__24
10
0
20
0
30
0
70
128
71
228
72
280
73
279
0
VERTEX
8
OBJECT__24
10
0
20
0
30
0
70
128
71
229
72
281
73
282
0
VERTEX
8
OBJECT__24
10
0
20
0
30
0
70
128
71
282
72
230
73
229
0
VERTEX
8
OBJECT__24
10
0
20
0
30
0
70
128
71
231
72
230
73
283
0
VERTEX
8
OBJECT__24
10
0
20
0
30
0
70
128
71
232
72
231
73
284
0
VERTEX
8
OBJECT__24
10
0
20
0
30
0
70
128
71
231
72
285
73
284
0
VERTEX
8
OBJECT__24
10
0
20
0
30
0
70
128
71
233
72
232
73
286
0
VERTEX
8
OBJECT__24
10
0
20
0
30
0
70
128
71
234
72
233
73
287
0
VERTEX
8
OBJECT__24
10
0
20
0
30
0
70
128
71
233
72
288
73
287
0
VERTEX
8
OBJECT__24
10
0
20
0
30
0
70
128
71
234
72
289
73
290
0
VERTEX
8
OBJECT__24
10
0
20
0
30
0
70
128
71
290
72
235
73
234
0
VERTEX
8
OBJECT__24
10
0
20
0
30
0
70
128
71
236
72
235
73
291
0
VERTEX
8
OBJECT__24
10
0
20
0
30
0
70
128
71
237
72
236
73
292
0
VERTEX
8
OBJECT__24
10
0
20
0
30
0
70
128
71
236
72
293
73
292
0
VERTEX
8
OBJECT__24
10
0
20
0
30
0
70
128
71
240
72
239
73
294
0
VERTEX
8
OBJECT__24
10
0
20
0
30
0
70
128
71
239
72
295
73
294
0
VERTEX
8
OBJECT__24
10
0
20
0
30
0
70
128
71
240
72
296
73
297
0
VERTEX
8
OBJECT__24
10
0
20
0
30
0
70
128
71
297
72
241
73
240
0
VERTEX
8
OBJECT__24
10
0
20
0
30
0
70
128
71
242
72
241
73
298
0
VERTEX
8
OBJECT__24
10
0
20
0
30
0
70
128
71
242
72
299
73
300
0
VERTEX
8
OBJECT__24
10
0
20
0
30
0
70
128
71
242
72
301
73
299
0
VERTEX
8
OBJECT__24
10
0
20
0
30
0
70
128
71
300
72
243
73
242
0
VERTEX
8
OBJECT__24
10
0
20
0
30
0
70
128
71
244
72
243
73
302
0
VERTEX
8
OBJECT__24
10
0
20
0
30
0
70
128
71
243
72
303
73
302
0
VERTEX
8
OBJECT__24
10
0
20
0
30
0
70
128
71
245
72
244
73
304
0
VERTEX
8
OBJECT__24
10
0
20
0
30
0
70
128
71
244
72
305
73
304
0
VERTEX
8
OBJECT__24
10
0
20
0
30
0
70
128
71
245
72
306
73
307
0
VERTEX
8
OBJECT__24
10
0
20
0
30
0
70
128
71
307
72
246
73
245
0
VERTEX
8
OBJECT__24
10
0
20
0
30
0
70
128
71
247
72
246
73
308
0
VERTEX
8
OBJECT__24
10
0
20
0
30
0
70
128
71
238
72
309
73
310
0
VERTEX
8
OBJECT__24
10
0
20
0
30
0
70
128
71
237
72
311
73
309
0
VERTEX
8
OBJECT__24
10
0
20
0
30
0
70
128
71
309
72
238
73
237
0
VERTEX
8
OBJECT__24
10
0
20
0
30
0
70
128
71
237
72
312
73
311
0
VERTEX
8
OBJECT__24
10
0
20
0
30
0
70
128
71
310
72
313
73
238
0
VERTEX
8
OBJECT__24
10
0
20
0
30
0
70
128
71
239
72
238
73
314
0
VERTEX
8
OBJECT__24
10
0
20
0
30
0
70
128
71
238
72
315
73
314
0
VERTEX
8
OBJECT__24
10
0
20
0
30
0
70
128
71
247
72
316
73
317
0
VERTEX
8
OBJECT__24
10
0
20
0
30
0
70
128
71
247
72
318
73
316
0
VERTEX
8
OBJECT__24
10
0
20
0
30
0
70
128
71
317
72
207
73
247
0
VERTEX
8
OBJECT__24
10
0
20
0
30
0
70
128
71
208
72
207
73
319
0
VERTEX
8
OBJECT__24
10
0
20
0
30
0
70
128
71
319
72
320
73
208
0
VERTEX
8
OBJECT__24
10
0
20
0
30
0
70
128
71
207
72
321
73
319
0
VERTEX
8
OBJECT__24
10
0
20
0
30
0
70
128
71
216
72
322
73
323
0
VERTEX
8
OBJECT__24
10
0
20
0
30
0
70
128
71
323
72
217
73
216
0
VERTEX
8
OBJECT__24
10
0
20
0
30
0
70
128
71
217
72
324
73
325
0
VERTEX
8
OBJECT__24
10
0
20
0
30
0
70
128
71
325
72
218
73
217
0
VERTEX
8
OBJECT__24
10
0
20
0
30
0
70
128
71
217
72
326
73
324
0
VERTEX
8
OBJECT__24
10
0
20
0
30
0
70
128
71
325
72
263
73
218
0
VERTEX
8
OBJECT__24
10
0
20
0
30
0
70
128
71
323
72
326
73
217
0
VERTEX
8
OBJECT__24
10
0
20
0
30
0
70
128
71
320
72
248
73
208
0
VERTEX
8
OBJECT__24
10
0
20
0
30
0
70
128
71
317
72
321
73
207
0
VERTEX
8
OBJECT__24
10
0
20
0
30
0
70
128
71
314
72
295
73
239
0
VERTEX
8
OBJECT__24
10
0
20
0
30
0
70
128
71
313
72
315
73
238
0
VERTEX
8
OBJECT__24
10
0
20
0
30
0
70
128
71
308
72
318
73
247
0
VERTEX
8
OBJECT__24
10
0
20
0
30
0
70
128
71
307
72
308
73
246
0
VERTEX
8
OBJECT__24
10
0
20
0
30
0
70
128
71
304
72
306
73
245
0
VERTEX
8
OBJECT__24
10
0
20
0
30
0
70
128
71
302
72
305
73
244
0
VERTEX
8
OBJECT__24
10
0
20
0
30
0
70
128
71
300
72
303
73
243
0
VERTEX
8
OBJECT__24
10
0
20
0
30
0
70
128
71
298
72
301
73
242
0
VERTEX
8
OBJECT__24
10
0
20
0
30
0
70
128
71
297
72
298
73
241
0
VERTEX
8
OBJECT__24
10
0
20
0
30
0
70
128
71
294
72
296
73
240
0
VERTEX
8
OBJECT__24
10
0
20
0
30
0
70
128
71
292
72
312
73
237
0
VERTEX
8
OBJECT__24
10
0
20
0
30
0
70
128
71
291
72
293
73
236
0
VERTEX
8
OBJECT__24
10
0
20
0
30
0
70
128
71
290
72
291
73
235
0
VERTEX
8
OBJECT__24
10
0
20
0
30
0
70
128
71
287
72
289
73
234
0
VERTEX
8
OBJECT__24
10
0
20
0
30
0
70
128
71
286
72
288
73
233
0
VERTEX
8
OBJECT__24
10
0
20
0
30
0
70
128
71
284
72
286
73
232
0
VERTEX
8
OBJECT__24
10
0
20
0
30
0
70
128
71
283
72
285
73
231
0
VERTEX
8
OBJECT__24
10
0
20
0
30
0
70
128
71
282
72
283
73
230
0
VERTEX
8
OBJECT__24
10
0
20
0
30
0
70
128
71
279
72
281
73
229
0
VERTEX
8
OBJECT__24
10
0
20
0
30
0
70
128
71
278
72
280
73
228
0
VERTEX
8
OBJECT__24
10
0
20
0
30
0
70
128
71
277
72
278
73
227
0
VERTEX
8
OBJECT__24
10
0
20
0
30
0
70
128
71
274
72
276
73
226
0
VERTEX
8
OBJECT__24
10
0
20
0
30
0
70
128
71
273
72
275
73
225
0
VERTEX
8
OBJECT__24
10
0
20
0
30
0
70
128
71
272
72
273
73
224
0
VERTEX
8
OBJECT__24
10
0
20
0
30
0
70
128
71
270
72
271
73
223
0
VERTEX
8
OBJECT__24
10
0
20
0
30
0
70
128
71
269
72
270
73
222
0
VERTEX
8
OBJECT__24
10
0
20
0
30
0
70
128
71
266
72
268
73
221
0
VERTEX
8
OBJECT__24
10
0
20
0
30
0
70
128
71
265
72
267
73
220
0
VERTEX
8
OBJECT__24
10
0
20
0
30
0
70
128
71
264
72
265
73
219
0
VERTEX
8
OBJECT__24
10
0
20
0
30
0
70
128
71
262
72
322
73
216
0
VERTEX
8
OBJECT__24
10
0
20
0
30
0
70
128
71
259
72
261
73
215
0
VERTEX
8
OBJECT__24
10
0
20
0
30
0
70
128
71
258
72
260
73
214
0
VERTEX
8
OBJECT__24
10
0
20
0
30
0
70
128
71
256
72
258
73
213
0
VERTEX
8
OBJECT__24
10
0
20
0
30
0
70
128
71
254
72
257
73
212
0
VERTEX
8
OBJECT__24
10
0
20
0
30
0
70
128
71
252
72
253
73
211
0
VERTEX
8
OBJECT__24
10
0
20
0
30
0
70
128
71
249
72
251
73
210
0
VERTEX
8
OBJECT__24
10
0
20
0
30
0
70
128
71
248
72
250
73
209
0
VERTEX
8
OBJECT__24
10
0
20
0
30
0
70
128
71
166
72
206
73
247
0
VERTEX
8
OBJECT__24
10
0
20
0
30
0
70
128
71
206
72
205
73
246
0
VERTEX
8
OBJECT__24
10
0
20
0
30
0
70
128
71
205
72
204
73
245
0
VERTEX
8
OBJECT__24
10
0
20
0
30
0
70
128
71
204
72
203
73
244
0
VERTEX
8
OBJECT__24
10
0
20
0
30
0
70
128
71
203
72
202
73
243
0
VERTEX
8
OBJECT__24
10
0
20
0
30
0
70
128
71
202
72
201
73
242
0
VERTEX
8
OBJECT__24
10
0
20
0
30
0
70
128
71
201
72
200
73
241
0
VERTEX
8
OBJECT__24
10
0
20
0
30
0
70
128
71
200
72
199
73
240
0
VERTEX
8
OBJECT__24
10
0
20
0
30
0
70
128
71
199
72
198
73
239
0
VERTEX
8
OBJECT__24
10
0
20
0
30
0
70
128
71
198
72
197
73
238
0
VERTEX
8
OBJECT__24
10
0
20
0
30
0
70
128
71
197
72
196
73
237
0
VERTEX
8
OBJECT__24
10
0
20
0
30
0
70
128
71
196
72
195
73
236
0
VERTEX
8
OBJECT__24
10
0
20
0
30
0
70
128
71
195
72
194
73
235
0
VERTEX
8
OBJECT__24
10
0
20
0
30
0
70
128
71
194
72
193
73
234
0
VERTEX
8
OBJECT__24
10
0
20
0
30
0
70
128
71
193
72
192
73
233
0
VERTEX
8
OBJECT__24
10
0
20
0
30
0
70
128
71
192
72
191
73
232
0
VERTEX
8
OBJECT__24
10
0
20
0
30
0
70
128
71
191
72
190
73
231
0
VERTEX
8
OBJECT__24
10
0
20
0
30
0
70
128
71
190
72
189
73
230
0
VERTEX
8
OBJECT__24
10
0
20
0
30
0
70
128
71
189
72
188
73
229
0
VERTEX
8
OBJECT__24
10
0
20
0
30
0
70
128
71
188
72
187
73
228
0
VERTEX
8
OBJECT__24
10
0
20
0
30
0
70
128
71
187
72
186
73
227
0
VERTEX
8
OBJECT__24
10
0
20
0
30
0
70
128
71
186
72
185
73
226
0
VERTEX
8
OBJECT__24
10
0
20
0
30
0
70
128
71
185
72
184
73
225
0
VERTEX
8
OBJECT__24
10
0
20
0
30
0
70
128
71
184
72
183
73
224
0
VERTEX
8
OBJECT__24
10
0
20
0
30
0
70
128
71
183
72
182
73
223
0
VERTEX
8
OBJECT__24
10
0
20
0
30
0
70
128
71
182
72
181
73
222
0
VERTEX
8
OBJECT__24
10
0
20
0
30
0
70
128
71
181
72
180
73
221
0
VERTEX
8
OBJECT__24
10
0
20
0
30
0
70
128
71
180
72
179
73
220
0
VERTEX
8
OBJECT__24
10
0
20
0
30
0
70
128
71
179
72
178
73
219
0
VERTEX
8
OBJECT__24
10
0
20
0
30
0
70
128
71
178
72
177
73
218
0
VERTEX
8
OBJECT__24
10
0
20
0
30
0
70
128
71
177
72
176
73
217
0
VERTEX
8
OBJECT__24
10
0
20
0
30
0
70
128
71
176
72
175
73
216
0
VERTEX
8
OBJECT__24
10
0
20
0
30
0
70
128
71
175
72
174
73
215
0
VERTEX
8
OBJECT__24
10
0
20
0
30
0
70
128
71
174
72
173
73
214
0
VERTEX
8
OBJECT__24
10
0
20
0
30
0
70
128
71
173
72
172
73
213
0
VERTEX
8
OBJECT__24
10
0
20
0
30
0
70
128
71
172
72
171
73
212
0
VERTEX
8
OBJECT__24
10
0
20
0
30
0
70
128
71
171
72
170
73
211
0
VERTEX
8
OBJECT__24
10
0
20
0
30
0
70
128
71
170
72
169
73
210
0
VERTEX
8
OBJECT__24
10
0
20
0
30
0
70
128
71
169
72
168
73
209
0
VERTEX
8
OBJECT__24
10
0
20
0
30
0
70
128
71
168
72
167
73
208
0
VERTEX
8
OBJECT__24
10
0
20
0
30
0
70
128
71
167
72
166
73
207
0
VERTEX
8
OBJECT__24
10
0
20
0
30
0
70
128
71
125
72
165
73
206
0
VERTEX
8
OBJECT__24
10
0
20
0
30
0
70
128
71
165
72
164
73
205
0
VERTEX
8
OBJECT__24
10
0
20
0
30
0
70
128
71
164
72
163
73
204
0
VERTEX
8
OBJECT__24
10
0
20
0
30
0
70
128
71
163
72
162
73
203
0
VERTEX
8
OBJECT__24
10
0
20
0
30
0
70
128
71
162
72
161
73
202
0
VERTEX
8
OBJECT__24
10
0
20
0
30
0
70
128
71
161
72
160
73
201
0
VERTEX
8
OBJECT__24
10
0
20
0
30
0
70
128
71
160
72
159
73
200
0
VERTEX
8
OBJECT__24
10
0
20
0
30
0
70
128
71
159
72
158
73
199
0
VERTEX
8
OBJECT__24
10
0
20
0
30
0
70
128
71
158
72
157
73
198
0
VERTEX
8
OBJECT__24
10
0
20
0
30
0
70
128
71
157
72
156
73
197
0
VERTEX
8
OBJECT__24
10
0
20
0
30
0
70
128
71
156
72
155
73
196
0
VERTEX
8
OBJECT__24
10
0
20
0
30
0
70
128
71
155
72
154
73
195
0
VERTEX
8
OBJECT__24
10
0
20
0
30
0
70
128
71
154
72
153
73
194
0
VERTEX
8
OBJECT__24
10
0
20
0
30
0
70
128
71
153
72
152
73
193
0
VERTEX
8
OBJECT__24
10
0
20
0
30
0
70
128
71
152
72
151
73
192
0
VERTEX
8
OBJECT__24
10
0
20
0
30
0
70
128
71
151
72
150
73
191
0
VERTEX
8
OBJECT__24
10
0
20
0
30
0
70
128
71
150
72
149
73
190
0
VERTEX
8
OBJECT__24
10
0
20
0
30
0
70
128
71
149
72
148
73
189
0
VERTEX
8
OBJECT__24
10
0
20
0
30
0
70
128
71
148
72
147
73
188
0
VERTEX
8
OBJECT__24
10
0
20
0
30
0
70
128
71
147
72
146
73
187
0
VERTEX
8
OBJECT__24
10
0
20
0
30
0
70
128
71
146
72
145
73
186
0
VERTEX
8
OBJECT__24
10
0
20
0
30
0
70
128
71
145
72
144
73
185
0
VERTEX
8
OBJECT__24
10
0
20
0
30
0
70
128
71
144
72
143
73
184
0
VERTEX
8
OBJECT__24
10
0
20
0
30
0
70
128
71
143
72
142
73
183
0
VERTEX
8
OBJECT__24
10
0
20
0
30
0
70
128
71
142
72
141
73
182
0
VERTEX
8
OBJECT__24
10
0
20
0
30
0
70
128
71
141
72
140
73
181
0
VERTEX
8
OBJECT__24
10
0
20
0
30
0
70
128
71
140
72
139
73
180
0
VERTEX
8
OBJECT__24
10
0
20
0
30
0
70
128
71
139
72
138
73
179
0
VERTEX
8
OBJECT__24
10
0
20
0
30
0
70
128
71
138
72
137
73
178
0
VERTEX
8
OBJECT__24
10
0
20
0
30
0
70
128
71
137
72
136
73
177
0
VERTEX
8
OBJECT__24
10
0
20
0
30
0
70
128
71
136
72
135
73
176
0
VERTEX
8
OBJECT__24
10
0
20
0
30
0
70
128
71
135
72
134
73
175
0
VERTEX
8
OBJECT__24
10
0
20
0
30
0
70
128
71
134
72
133
73
174
0
VERTEX
8
OBJECT__24
10
0
20
0
30
0
70
128
71
133
72
132
73
173
0
VERTEX
8
OBJECT__24
10
0
20
0
30
0
70
128
71
132
72
131
73
172
0
VERTEX
8
OBJECT__24
10
0
20
0
30
0
70
128
71
131
72
130
73
171
0
VERTEX
8
OBJECT__24
10
0
20
0
30
0
70
128
71
130
72
129
73
170
0
VERTEX
8
OBJECT__24
10
0
20
0
30
0
70
128
71
129
72
128
73
169
0
VERTEX
8
OBJECT__24
10
0
20
0
30
0
70
128
71
128
72
127
73
168
0
VERTEX
8
OBJECT__24
10
0
20
0
30
0
70
128
71
127
72
126
73
167
0
VERTEX
8
OBJECT__24
10
0
20
0
30
0
70
128
71
126
72
125
73
166
0
VERTEX
8
OBJECT__24
10
0
20
0
30
0
70
128
71
84
72
124
73
165
0
VERTEX
8
OBJECT__24
10
0
20
0
30
0
70
128
71
124
72
123
73
164
0
VERTEX
8
OBJECT__24
10
0
20
0
30
0
70
128
71
123
72
122
73
163
0
VERTEX
8
OBJECT__24
10
0
20
0
30
0
70
128
71
122
72
121
73
162
0
VERTEX
8
OBJECT__24
10
0
20
0
30
0
70
128
71
121
72
120
73
161
0
VERTEX
8
OBJECT__24
10
0
20
0
30
0
70
128
71
120
72
119
73
160
0
VERTEX
8
OBJECT__24
10
0
20
0
30
0
70
128
71
119
72
118
73
159
0
VERTEX
8
OBJECT__24
10
0
20
0
30
0
70
128
71
118
72
117
73
158
0
VERTEX
8
OBJECT__24
10
0
20
0
30
0
70
128
71
117
72
116
73
157
0
VERTEX
8
OBJECT__24
10
0
20
0
30
0
70
128
71
116
72
115
73
156
0
VERTEX
8
OBJECT__24
10
0
20
0
30
0
70
128
71
115
72
114
73
155
0
VERTEX
8
OBJECT__24
10
0
20
0
30
0
70
128
71
114
72
113
73
154
0
VERTEX
8
OBJECT__24
10
0
20
0
30
0
70
128
71
113
72
112
73
153
0
VERTEX
8
OBJECT__24
10
0
20
0
30
0
70
128
71
112
72
111
73
152
0
VERTEX
8
OBJECT__24
10
0
20
0
30
0
70
128
71
111
72
110
73
151
0
VERTEX
8
OBJECT__24
10
0
20
0
30
0
70
128
71
110
72
109
73
150
0
VERTEX
8
OBJECT__24
10
0
20
0
30
0
70
128
71
109
72
108
73
149
0
VERTEX
8
OBJECT__24
10
0
20
0
30
0
70
128
71
108
72
107
73
148
0
VERTEX
8
OBJECT__24
10
0
20
0
30
0
70
128
71
107
72
106
73
147
0
VERTEX
8
OBJECT__24
10
0
20
0
30
0
70
128
71
106
72
105
73
146
0
VERTEX
8
OBJECT__24
10
0
20
0
30
0
70
128
71
105
72
104
73
145
0
VERTEX
8
OBJECT__24
10
0
20
0
30
0
70
128
71
104
72
103
73
144
0
VERTEX
8
OBJECT__24
10
0
20
0
30
0
70
128
71
103
72
102
73
143
0
VERTEX
8
OBJECT__24
10
0
20
0
30
0
70
128
71
102
72
101
73
142
0
VERTEX
8
OBJECT__24
10
0
20
0
30
0
70
128
71
101
72
100
73
141
0
VERTEX
8
OBJECT__24
10
0
20
0
30
0
70
128
71
100
72
99
73
140
0
VERTEX
8
OBJECT__24
10
0
20
0
30
0
70
128
71
99
72
98
73
139
0
VERTEX
8
OBJECT__24
10
0
20
0
30
0
70
128
71
98
72
97
73
138
0
VERTEX
8
OBJECT__24
10
0
20
0
30
0
70
128
71
97
72
96
73
137
0
VERTEX
8
OBJECT__24
10
0
20
0
30
0
70
128
71
96
72
95
73
136
0
VERTEX
8
OBJECT__24
10
0
20
0
30
0
70
128
71
95
72
94
73
135
0
VERTEX
8
OBJECT__24
10
0
20
0
30
0
70
128
71
94
72
93
73
134
0
VERTEX
8
OBJECT__24
10
0
20
0
30
0
70
128
71
93
72
92
73
133
0
VERTEX
8
OBJECT__24
10
0
20
0
30
0
70
128
71
92
72
91
73
132
0
VERTEX
8
OBJECT__24
10
0
20
0
30
0
70
128
71
91
72
90
73
131
0
VERTEX
8
OBJECT__24
10
0
20
0
30
0
70
128
71
90
72
89
73
130
0
VERTEX
8
OBJECT__24
10
0
20
0
30
0
70
128
71
89
72
88
73
129
0
VERTEX
8
OBJECT__24
10
0
20
0
30
0
70
128
71
88
72
87
73
128
0
VERTEX
8
OBJECT__24
10
0
20
0
30
0
70
128
71
87
72
86
73
127
0
VERTEX
8
OBJECT__24
10
0
20
0
30
0
70
128
71
86
72
85
73
126
0
VERTEX
8
OBJECT__24
10
0
20
0
30
0
70
128
71
85
72
84
73
125
0
VERTEX
8
OBJECT__24
10
0
20
0
30
0
70
128
71
83
72
81
73
124
0
VERTEX
8
OBJECT__24
10
0
20
0
30
0
70
128
71
81
72
79
73
123
0
VERTEX
8
OBJECT__24
10
0
20
0
30
0
70
128
71
79
72
77
73
122
0
VERTEX
8
OBJECT__24
10
0
20
0
30
0
70
128
71
77
72
75
73
121
0
VERTEX
8
OBJECT__24
10
0
20
0
30
0
70
128
71
75
72
73
73
120
0
VERTEX
8
OBJECT__24
10
0
20
0
30
0
70
128
71
73
72
71
73
119
0
VERTEX
8
OBJECT__24
10
0
20
0
30
0
70
128
71
71
72
69
73
118
0
VERTEX
8
OBJECT__24
10
0
20
0
30
0
70
128
71
69
72
67
73
117
0
VERTEX
8
OBJECT__24
10
0
20
0
30
0
70
128
71
67
72
65
73
116
0
VERTEX
8
OBJECT__24
10
0
20
0
30
0
70
128
71
65
72
63
73
115
0
VERTEX
8
OBJECT__24
10
0
20
0
30
0
70
128
71
63
72
61
73
114
0
VERTEX
8
OBJECT__24
10
0
20
0
30
0
70
128
71
61
72
59
73
113
0
VERTEX
8
OBJECT__24
10
0
20
0
30
0
70
128
71
59
72
57
73
112
0
VERTEX
8
OBJECT__24
10
0
20
0
30
0
70
128
71
57
72
55
73
111
0
VERTEX
8
OBJECT__24
10
0
20
0
30
0
70
128
71
55
72
53
73
110
0
VERTEX
8
OBJECT__24
10
0
20
0
30
0
70
128
71
53
72
51
73
109
0
VERTEX
8
OBJECT__24
10
0
20
0
30
0
70
128
71
51
72
49
73
108
0
VERTEX
8
OBJECT__24
10
0
20
0
30
0
70
128
71
49
72
47
73
107
0
VERTEX
8
OBJECT__24
10
0
20
0
30
0
70
128
71
47
72
45
73
106
0
VERTEX
8
OBJECT__24
10
0
20
0
30
0
70
128
71
45
72
43
73
105
0
VERTEX
8
OBJECT__24
10
0
20
0
30
0
70
128
71
43
72
41
73
104
0
VERTEX
8
OBJECT__24
10
0
20
0
30
0
70
128
71
41
72
39
73
103
0
VERTEX
8
OBJECT__24
10
0
20
0
30
0
70
128
71
39
72
37
73
102
0
VERTEX
8
OBJECT__24
10
0
20
0
30
0
70
128
71
37
72
35
73
101
0
VERTEX
8
OBJECT__24
10
0
20
0
30
0
70
128
71
35
72
33
73
100
0
VERTEX
8
OBJECT__24
10
0
20
0
30
0
70
128
71
33
72
31
73
99
0
VERTEX
8
OBJECT__24
10
0
20
0
30
0
70
128
71
31
72
29
73
98
0
VERTEX
8
OBJECT__24
10
0
20
0
30
0
70
128
71
29
72
27
73
97
0
VERTEX
8
OBJECT__24
10
0
20
0
30
0
70
128
71
27
72
25
73
96
0
VERTEX
8
OBJECT__24
10
0
20
0
30
0
70
128
71
25
72
22
73
95
0
VERTEX
8
OBJECT__24
10
0
20
0
30
0
70
128
71
22
72
20
73
94
0
VERTEX
8
OBJECT__24
10
0
20
0
30
0
70
128
71
20
72
18
73
93
0
VERTEX
8
OBJECT__24
10
0
20
0
30
0
70
128
71
18
72
16
73
92
0
VERTEX
8
OBJECT__24
10
0
20
0
30
0
70
128
71
16
72
14
73
91
0
VERTEX
8
OBJECT__24
10
0
20
0
30
0
70
128
71
14
72
12
73
90
0
VERTEX
8
OBJECT__24
10
0
20
0
30
0
70
128
71
12
72
10
73
89
0
VERTEX
8
OBJECT__24
10
0
20
0
30
0
70
128
71
10
72
8
73
88
0
VERTEX
8
OBJECT__24
10
0
20
0
30
0
70
128
71
8
72
6
73
87
0
VERTEX
8
OBJECT__24
10
0
20
0
30
0
70
128
71
6
72
4
73
86
0
VERTEX
8
OBJECT__24
10
0
20
0
30
0
70
128
71
4
72
1
73
85
0
VERTEX
8
OBJECT__24
10
0
20
0
30
0
70
128
71
1
72
83
73
84
0
VERTEX
8
OBJECT__24
10
0
20
0
30
0
70
128
71
82
72
81
73
83
0
VERTEX
8
OBJECT__24
10
0
20
0
30
0
70
128
71
80
72
79
73
81
0
VERTEX
8
OBJECT__24
10
0
20
0
30
0
70
128
71
78
72
77
73
79
0
VERTEX
8
OBJECT__24
10
0
20
0
30
0
70
128
71
76
72
75
73
77
0
VERTEX
8
OBJECT__24
10
0
20
0
30
0
70
128
71
74
72
73
73
75
0
VERTEX
8
OBJECT__24
10
0
20
0
30
0
70
128
71
72
72
71
73
73
0
VERTEX
8
OBJECT__24
10
0
20
0
30
0
70
128
71
70
72
69
73
71
0
VERTEX
8
OBJECT__24
10
0
20
0
30
0
70
128
71
68
72
67
73
69
0
VERTEX
8
OBJECT__24
10
0
20
0
30
0
70
128
71
66
72
65
73
67
0
VERTEX
8
OBJECT__24
10
0
20
0
30
0
70
128
71
64
72
63
73
65
0
VERTEX
8
OBJECT__24
10
0
20
0
30
0
70
128
71
62
72
61
73
63
0
VERTEX
8
OBJECT__24
10
0
20
0
30
0
70
128
71
60
72
59
73
61
0
VERTEX
8
OBJECT__24
10
0
20
0
30
0
70
128
71
58
72
57
73
59
0
VERTEX
8
OBJECT__24
10
0
20
0
30
0
70
128
71
56
72
55
73
57
0
VERTEX
8
OBJECT__24
10
0
20
0
30
0
70
128
71
54
72
53
73
55
0
VERTEX
8
OBJECT__24
10
0
20
0
30
0
70
128
71
52
72
51
73
53
0
VERTEX
8
OBJECT__24
10
0
20
0
30
0
70
128
71
50
72
49
73
51
0
VERTEX
8
OBJECT__24
10
0
20
0
30
0
70
128
71
48
72
47
73
49
0
VERTEX
8
OBJECT__24
10
0
20
0
30
0
70
128
71
46
72
45
73
47
0
VERTEX
8
OBJECT__24
10
0
20
0
30
0
70
128
71
44
72
43
73
45
0
VERTEX
8
OBJECT__24
10
0
20
0
30
0
70
128
71
42
72
41
73
43
0
VERTEX
8
OBJECT__24
10
0
20
0
30
0
70
128
71
40
72
39
73
41
0
VERTEX
8
OBJECT__24
10
0
20
0
30
0
70
128
71
38
72
37
73
39
0
VERTEX
8
OBJECT__24
10
0
20
0
30
0
70
128
71
36
72
35
73
37
0
VERTEX
8
OBJECT__24
10
0
20
0
30
0
70
128
71
34
72
33
73
35
0
VERTEX
8
OBJECT__24
10
0
20
0
30
0
70
128
71
32
72
31
73
33
0
VERTEX
8
OBJECT__24
10
0
20
0
30
0
70
128
71
30
72
29
73
31
0
VERTEX
8
OBJECT__24
10
0
20
0
30
0
70
128
71
28
72
27
73
29
0
VERTEX
8
OBJECT__24
10
0
20
0
30
0
70
128
71
26
72
25
73
27
0
VERTEX
8
OBJECT__24
10
0
20
0
30
0
70
128
71
23
72
22
73
25
0
VERTEX
8
OBJECT__24
10
0
20
0
30
0
70
128
71
24
72
21
73
20
0
VERTEX
8
OBJECT__24
10
0
20
0
30
0
70
128
71
19
72
18
73
20
0
VERTEX
8
OBJECT__24
10
0
20
0
30
0
70
128
71
17
72
16
73
18
0
VERTEX
8
OBJECT__24
10
0
20
0
30
0
70
128
71
15
72
14
73
16
0
VERTEX
8
OBJECT__24
10
0
20
0
30
0
70
128
71
13
72
12
73
14
0
VERTEX
8
OBJECT__24
10
0
20
0
30
0
70
128
71
11
72
10
73
12
0
VERTEX
8
OBJECT__24
10
0
20
0
30
0
70
128
71
9
72
8
73
10
0
VERTEX
8
OBJECT__24
10
0
20
0
30
0
70
128
71
7
72
6
73
8
0
VERTEX
8
OBJECT__24
10
0
20
0
30
0
70
128
71
5
72
4
73
6
0
VERTEX
8
OBJECT__24
10
0
20
0
30
0
70
128
71
2
72
1
73
4
0
VERTEX
8
OBJECT__24
10
0
20
0
30
0
70
128
71
3
72
83
73
1
0
SEQEND
8
OBJECT__24
0
POLYLINE
8
OBJECT__25
66
1
70
64
71
6
72
4
62
253
0
VERTEX
8
OBJECT__25
10
51.376999
20
-1.757000
30
5.597000
70
192
0
VERTEX
8
OBJECT__25
10
51.283001
20
-3.502000
30
5.597000
70
192
0
VERTEX
8
OBJECT__25
10
51.314999
20
-2.999000
30
5.597000
70
192
0
VERTEX
8
OBJECT__25
10
51.352001
20
-1.751000
30
5.597000
70
192
0
VERTEX
8
OBJECT__25
10
51.376999
20
-1.751000
30
5.597000
70
192
0
VERTEX
8
OBJECT__25
10
51.404999
20
0.000000
30
5.598000
70
192
0
VERTEX
8
OBJECT__25
10
0
20
0
30
0
70
128
71
1
72
2
73
3
0
VERTEX
8
OBJECT__25
10
0
20
0
30
0
70
128
71
3
72
4
73
1
0
VERTEX
8
OBJECT__25
10
0
20
0
30
0
70
128
71
5
72
4
73
6
0
VERTEX
8
OBJECT__25
10
0
20
0
30
0
70
128
71
4
72
5
73
1
0
SEQEND
8
OBJECT__25
0
POLYLINE
8
OBJECT__26
66
1
70
64
71
5
72
3
62
253
0
VERTEX
8
OBJECT__26
10
0.000000
20
51.408001
30
5.598000
70
192
0
VERTEX
8
OBJECT__26
10
-0.001000
20
51.384998
30
5.598000
70
192
0
VERTEX
8
OBJECT__26
10
-0.504000
20
51.400002
30
5.598000
70
192
0
VERTEX
8
OBJECT__26
10
-3.502000
20
51.283001
30
5.597000
70
192
0
VERTEX
8
OBJECT__26
10
3.502000
20
51.283001
30
5.597000
70
192
0
VERTEX
8
OBJECT__26
10
0
20
0
30
0
70
128
71
1
72
2
73
3
0
VERTEX
8
OBJECT__26
10
0
20
0
30
0
70
128
71
3
72
4
73
1
0
VERTEX
8
OBJECT__26
10
0
20
0
30
0
70
128
71
2
72
1
73
5
0
SEQEND
8
OBJECT__26
0
POLYLINE
8
OBJECT__27
66
1
70
64
71
106
72
106
62
253
0
VERTEX
8
OBJECT__27
10
-49.909000
20
12.301000
30
5.183000
70
192
0
VERTEX
8
OBJECT__27
10
-51.402000
20
0.000000
30
5.183000
70
192
0
VERTEX
8
OBJECT__27
10
-51.283001
20
3.502000
30
5.597000
70
192
0
VERTEX
8
OBJECT__27
10
-50.462002
20
9.787000
30
5.597000
70
192
0
VERTEX
8
OBJECT__27
10
-51.404999
20
0.000000
30
5.598000
70
192
0
VERTEX
8
OBJECT__27
10
-51.337002
20
1.968000
30
5.597000
70
192
0
VERTEX
8
OBJECT__27
10
-45.514999
20
23.888000
30
5.183000
70
192
0
VERTEX
8
OBJECT__27
10
-48.376999
20
17.375000
30
5.597000
70
192
0
VERTEX
8
OBJECT__27
10
-49.780998
20
12.266000
30
5.597000
70
192
0
VERTEX
8
OBJECT__27
10
-38.474998
20
34.085999
30
5.183000
70
192
0
VERTEX
8
OBJECT__27
10
-40.880001
20
31.160999
30
5.597000
70
192
0
VERTEX
8
OBJECT__27
10
-38.738998
20
33.785999
30
5.597000
70
192
0
VERTEX
8
OBJECT__27
10
-45.158001
20
24.556000
30
5.597000
70
192
0
VERTEX
8
OBJECT__27
10
-45.466999
20
23.865999
30
5.597000
70
192
0
VERTEX
8
OBJECT__27
10
-35.573002
20
36.965000
30
5.597000
70
192
0
VERTEX
8
OBJECT__27
10
-33.785999
20
38.738998
30
5.597000
70
192
0
VERTEX
8
OBJECT__27
10
-29.200001
20
42.303001
30
5.183000
70
192
0
VERTEX
8
OBJECT__27
10
-38.474998
20
34.085999
30
5.597000
70
192
0
VERTEX
8
OBJECT__27
10
-29.573000
20
42.043999
30
5.597000
70
192
0
VERTEX
8
OBJECT__27
10
-29.183001
20
42.275002
30
5.597000
70
192
0
VERTEX
8
OBJECT__27
10
-22.808001
20
46.064999
30
5.597000
70
192
0
VERTEX
8
OBJECT__27
10
-18.228001
20
48.062000
30
5.183000
70
192
0
VERTEX
8
OBJECT__27
10
-6.196000
20
51.028000
30
5.183000
70
192
0
VERTEX
8
OBJECT__27
10
-15.509000
20
49.007000
30
5.597000
70
192
0
VERTEX
8
OBJECT__27
10
-7.847000
20
50.799999
30
5.597000
70
192
0
VERTEX
8
OBJECT__27
10
-18.174999
20
47.931999
30
5.597000
70
192
0
VERTEX
8
OBJECT__27
10
6.196000
20
51.028000
30
5.183000
70
192
0
VERTEX
8
OBJECT__27
10
-0.001000
20
51.384998
30
5.598000
70
192
0
VERTEX
8
OBJECT__27
10
-3.502000
20
51.283001
30
5.597000
70
192
0
VERTEX
8
OBJECT__27
10
-0.504000
20
51.400002
30
5.598000
70
192
0
VERTEX
8
OBJECT__27
10
3.502000
20
51.283001
30
5.597000
70
192
0
VERTEX
8
OBJECT__27
10
-6.191000
20
50.984001
30
5.597000
70
192
0
VERTEX
8
OBJECT__27
10
7.847000
20
50.799999
30
5.597000
70
192
0
VERTEX
8
OBJECT__27
10
15.509000
20
49.007000
30
5.597000
70
192
0
VERTEX
8
OBJECT__27
10
6.191000
20
50.984001
30
5.597000
70
192
0
VERTEX
8
OBJECT__27
10
18.228001
20
48.062000
30
5.183000
70
192
0
VERTEX
8
OBJECT__27
10
29.200001
20
42.303001
30
5.183000
70
192
0
VERTEX
8
OBJECT__27
10
22.808001
20
46.064999
30
5.597000
70
192
0
VERTEX
8
OBJECT__27
10
18.174999
20
47.931999
30
5.597000
70
192
0
VERTEX
8
OBJECT__27
10
38.474998
20
34.085999
30
5.183000
70
192
0
VERTEX
8
OBJECT__27
10
33.785999
20
38.738998
30
5.597000
70
192
0
VERTEX
8
OBJECT__27
10
29.573000
20
42.043999
30
5.597000
70
192
0
VERTEX
8
OBJECT__27
10
35.573002
20
36.965000
30
5.597000
70
192
0
VERTEX
8
OBJECT__27
10
29.183001
20
42.275002
30
5.597000
70
192
0
VERTEX
8
OBJECT__27
10
45.514999
20
23.888000
30
5.183000
70
192
0
VERTEX
8
OBJECT__27
10
40.880001
20
31.160999
30
5.597000
70
192
0
VERTEX
8
OBJECT__27
10
45.158001
20
24.556000
30
5.597000
70
192
0
VERTEX
8
OBJECT__27
10
38.474998
20
34.085999
30
5.597000
70
192
0
VERTEX
8
OBJECT__27
10
38.738998
20
33.785999
30
5.597000
70
192
0
VERTEX
8
OBJECT__27
10
45.466999
20
23.865999
30
5.597000
70
192
0
VERTEX
8
OBJECT__27
10
48.376999
20
17.375000
30
5.597000
70
192
0
VERTEX
8
OBJECT__27
10
49.909000
20
12.301000
30
5.183000
70
192
0
VERTEX
8
OBJECT__27
10
51.402000
20
0.000000
30
5.183000
70
192
0
VERTEX
8
OBJECT__27
10
51.283001
20
3.502000
30
5.597000
70
192
0
VERTEX
8
OBJECT__27
10
51.337002
20
1.968000
30
5.597000
70
192
0
VERTEX
8
OBJECT__27
10
50.462002
20
9.787000
30
5.597000
70
192
0
VERTEX
8
OBJECT__27
10
49.780998
20
12.266000
30
5.597000
70
192
0
VERTEX
8
OBJECT__27
10
49.909000
20
-12.301000
30
5.183000
70
192
0
VERTEX
8
OBJECT__27
10
51.063000
20
-5.895000
30
5.597000
70
192
0
VERTEX
8
OBJECT__27
10
51.283001
20
-3.502000
30
5.597000
70
192
0
VERTEX
8
OBJECT__27
10
51.314999
20
-2.999000
30
5.597000
70
192
0
VERTEX
8
OBJECT__27
10
51.404999
20
0.000000
30
5.598000
70
192
0
VERTEX
8
OBJECT__27
10
51.352001
20
-1.751000
30
5.597000
70
192
0
VERTEX
8
OBJECT__27
10
49.564999
20
-13.621000
30
5.597000
70
192
0
VERTEX
8
OBJECT__27
10
46.904999
20
-21.027000
30
5.597000
70
192
0
VERTEX
8
OBJECT__27
10
45.514999
20
-23.888000
30
5.183000
70
192
0
VERTEX
8
OBJECT__27
10
49.824001
20
-12.285000
30
5.597000
70
192
0
VERTEX
8
OBJECT__27
10
38.474998
20
-34.085999
30
5.183000
70
192
0
VERTEX
8
OBJECT__27
10
43.145000
20
-27.941000
30
5.597000
70
192
0
VERTEX
8
OBJECT__27
10
45.387001
20
-23.818001
30
5.597000
70
192
0
VERTEX
8
OBJECT__27
10
38.375000
20
-34.199001
30
5.597000
70
192
0
VERTEX
8
OBJECT__27
10
32.703999
20
-39.655998
30
5.597000
70
192
0
VERTEX
8
OBJECT__27
10
29.200001
20
-42.303001
30
5.183000
70
192
0
VERTEX
8
OBJECT__27
10
38.466000
20
-34.078999
30
5.597000
70
192
0
VERTEX
8
OBJECT__27
10
18.228001
20
-48.062000
30
5.183000
70
192
0
VERTEX
8
OBJECT__27
10
26.268000
20
-44.183998
30
5.597000
70
192
0
VERTEX
8
OBJECT__27
10
19.215000
20
-47.675999
30
5.597000
70
192
0
VERTEX
8
OBJECT__27
10
29.114000
20
-42.181999
30
5.597000
70
192
0
VERTEX
8
OBJECT__27
10
18.205999
20
-47.994999
30
5.597000
70
192
0
VERTEX
8
OBJECT__27
10
11.712000
20
-50.049999
30
5.597000
70
192
0
VERTEX
8
OBJECT__27
10
6.196000
20
-51.028000
30
5.183000
70
192
0
VERTEX
8
OBJECT__27
10
3.935000
20
-51.251999
30
5.597000
70
192
0
VERTEX
8
OBJECT__27
10
-3.935000
20
-51.251999
30
5.597000
70
192
0
VERTEX
8
OBJECT__27
10
-6.196000
20
-51.028000
30
5.183000
70
192
0
VERTEX
8
OBJECT__27
10
6.177000
20
-50.904999
30
5.597000
70
192
0
VERTEX
8
OBJECT__27
10
-18.228001
20
-48.062000
30
5.183000
70
192
0
VERTEX
8
OBJECT__27
10
-11.712000
20
-50.049999
30
5.597000
70
192
0
VERTEX
8
OBJECT__27
10
-6.177000
20
-50.904999
30
5.597000
70
192
0
VERTEX
8
OBJECT__27
10
-19.215000
20
-47.675999
30
5.597000
70
192
0
VERTEX
8
OBJECT__27
10
-26.268000
20
-44.183998
30
5.597000
70
192
0
VERTEX
8
OBJECT__27
10
-29.200001
20
-42.303001
30
5.183000
70
192
0
VERTEX
8
OBJECT__27
10
-18.205999
20
-47.994999
30
5.597000
70
192
0
VERTEX
8
OBJECT__27
10
-38.474998
20
-34.085999
30
5.183000
70
192
0
VERTEX
8
OBJECT__27
10
-32.703999
20
-39.655998
30
5.597000
70
192
0
VERTEX
8
OBJECT__27
10
-38.375000
20
-34.199001
30
5.597000
70
192
0
VERTEX
8
OBJECT__27
10
-29.114000
20
-42.181999
30
5.597000
70
192
0
VERTEX
8
OBJECT__27
10
-38.466000
20
-34.078999
30
5.597000
70
192
0
VERTEX
8
OBJECT__27
10
-43.145000
20
-27.941000
30
5.597000
70
192
0
VERTEX
8
OBJECT__27
10
-45.514999
20
-23.888000
30
5.183000
70
192
0
VERTEX
8
OBJECT__27
10
-49.909000
20
-12.301000
30
5.183000
70
192
0
VERTEX
8
OBJECT__27
10
-46.904999
20
-21.027000
30
5.597000
70
192
0
VERTEX
8
OBJECT__27
10
-49.564999
20
-13.621000
30
5.597000
70
192
0
VERTEX
8
OBJECT__27
10
-45.387001
20
-23.818001
30
5.597000
70
192
0
VERTEX
8
OBJECT__27
10
-49.824001
20
-12.285000
30
5.597000
70
192
0
VERTEX
8
OBJECT__27
10
-51.063000
20
-5.895000
30
5.597000
70
192
0
VERTEX
8
OBJECT__27
10
-51.283001
20
-3.502000
30
5.597000
70
192
0
VERTEX
8
OBJECT__27
10
0
20
0
30
0
70
128
71
1
72
2
73
3
0
VERTEX
8
OBJECT__27
10
0
20
0
30
0
70
128
71
3
72
4
73
1
0
VERTEX
8
OBJECT__27
10
0
20
0
30
0
70
128
71
2
72
5
73
6
0
VERTEX
8
OBJECT__27
10
0
20
0
30
0
70
128
71
6
72
3
73
2
0
VERTEX
8
OBJECT__27
10
0
20
0
30
0
70
128
71
7
72
1
73
8
0
VERTEX
8
OBJECT__27
10
0
20
0
30
0
70
128
71
1
72
9
73
8
0
VERTEX
8
OBJECT__27
10
0
20
0
30
0
70
128
71
10
72
11
73
12
0
VERTEX
8
OBJECT__27
10
0
20
0
30
0
70
128
71
7
72
13
73
11
0
VERTEX
8
OBJECT__27
10
0
20
0
30
0
70
128
71
7
72
14
73
13
0
VERTEX
8
OBJECT__27
10
0
20
0
30
0
70
128
71
11
72
10
73
7
0
VERTEX
8
OBJECT__27
10
0
20
0
30
0
70
128
71
10
72
15
73
16
0
VERTEX
8
OBJECT__27
10
0
20
0
30
0
70
128
71
16
72
17
73
10
0
VERTEX
8
OBJECT__27
10
0
20
0
30
0
70
128
71
10
72
18
73
15
0
VERTEX
8
OBJECT__27
10
0
20
0
30
0
70
128
71
16
72
19
73
17
0
VERTEX
8
OBJECT__27
10
0
20
0
30
0
70
128
71
17
72
20
73
21
0
VERTEX
8
OBJECT__27
10
0
20
0
30
0
70
128
71
21
72
22
73
17
0
VERTEX
8
OBJECT__27
10
0
20
0
30
0
70
128
71
23
72
22
73
24
0
VERTEX
8
OBJECT__27
10
0
20
0
30
0
70
128
71
24
72
25
73
23
0
VERTEX
8
OBJECT__27
10
0
20
0
30
0
70
128
71
22
72
26
73
24
0
VERTEX
8
OBJECT__27
10
0
20
0
30
0
70
128
71
27
72
23
73
28
0
VERTEX
8
OBJECT__27
10
0
20
0
30
0
70
128
71
23
72
29
73
30
0
VERTEX
8
OBJECT__27
10
0
20
0
30
0
70
128
71
30
72
28
73
23
0
VERTEX
8
OBJECT__27
10
0
20
0
30
0
70
128
71
28
72
31
73
27
0
VERTEX
8
OBJECT__27
10
0
20
0
30
0
70
128
71
23
72
32
73
29
0
VERTEX
8
OBJECT__27
10
0
20
0
30
0
70
128
71
27
72
33
73
34
0
VERTEX
8
OBJECT__27
10
0
20
0
30
0
70
128
71
27
72
35
73
33
0
VERTEX
8
OBJECT__27
10
0
20
0
30
0
70
128
71
34
72
36
73
27
0
VERTEX
8
OBJECT__27
10
0
20
0
30
0
70
128
71
37
72
36
73
38
0
VERTEX
8
OBJECT__27
10
0
20
0
30
0
70
128
71
36
72
39
73
38
0
VERTEX
8
OBJECT__27
10
0
20
0
30
0
70
128
71
40
72
37
73
41
0
VERTEX
8
OBJECT__27
10
0
20
0
30
0
70
128
71
37
72
42
73
41
0
VERTEX
8
OBJECT__27
10
0
20
0
30
0
70
128
71
41
72
43
73
40
0
VERTEX
8
OBJECT__27
10
0
20
0
30
0
70
128
71
37
72
44
73
42
0
VERTEX
8
OBJECT__27
10
0
20
0
30
0
70
128
71
45
72
40
73
46
0
VERTEX
8
OBJECT__27
10
0
20
0
30
0
70
128
71
46
72
47
73
45
0
VERTEX
8
OBJECT__27
10
0
20
0
30
0
70
128
71
40
72
48
73
49
0
VERTEX
8
OBJECT__27
10
0
20
0
30
0
70
128
71
49
72
46
73
40
0
VERTEX
8
OBJECT__27
10
0
20
0
30
0
70
128
71
45
72
50
73
51
0
VERTEX
8
OBJECT__27
10
0
20
0
30
0
70
128
71
51
72
52
73
45
0
VERTEX
8
OBJECT__27
10
0
20
0
30
0
70
128
71
53
72
54
73
55
0
VERTEX
8
OBJECT__27
10
0
20
0
30
0
70
128
71
52
72
56
73
54
0
VERTEX
8
OBJECT__27
10
0
20
0
30
0
70
128
71
52
72
57
73
56
0
VERTEX
8
OBJECT__27
10
0
20
0
30
0
70
128
71
54
72
53
73
52
0
VERTEX
8
OBJECT__27
10
0
20
0
30
0
70
128
71
58
72
53
73
59
0
VERTEX
8
OBJECT__27
10
0
20
0
30
0
70
128
71
53
72
60
73
59
0
VERTEX
8
OBJECT__27
10
0
20
0
30
0
70
128
71
53
72
61
73
60
0
VERTEX
8
OBJECT__27
10
0
20
0
30
0
70
128
71
53
72
62
73
63
0
VERTEX
8
OBJECT__27
10
0
20
0
30
0
70
128
71
63
72
61
73
53
0
VERTEX
8
OBJECT__27
10
0
20
0
30
0
70
128
71
58
72
64
73
65
0
VERTEX
8
OBJECT__27
10
0
20
0
30
0
70
128
71
65
72
66
73
58
0
VERTEX
8
OBJECT__27
10
0
20
0
30
0
70
128
71
58
72
67
73
64
0
VERTEX
8
OBJECT__27
10
0
20
0
30
0
70
128
71
68
72
66
73
69
0
VERTEX
8
OBJECT__27
10
0
20
0
30
0
70
128
71
66
72
70
73
69
0
VERTEX
8
OBJECT__27
10
0
20
0
30
0
70
128
71
68
72
71
73
72
0
VERTEX
8
OBJECT__27
10
0
20
0
30
0
70
128
71
72
72
73
73
68
0
VERTEX
8
OBJECT__27
10
0
20
0
30
0
70
128
71
68
72
74
73
71
0
VERTEX
8
OBJECT__27
10
0
20
0
30
0
70
128
71
75
72
73
73
76
0
VERTEX
8
OBJECT__27
10
0
20
0
30
0
70
128
71
76
72
77
73
75
0
VERTEX
8
OBJECT__27
10
0
20
0
30
0
70
128
71
73
72
78
73
76
0
VERTEX
8
OBJECT__27
10
0
20
0
30
0
70
128
71
75
72
79
73
80
0
VERTEX
8
OBJECT__27
10
0
20
0
30
0
70
128
71
80
72
81
73
75
0
VERTEX
8
OBJECT__27
10
0
20
0
30
0
70
128
71
81
72
82
73
83
0
VERTEX
8
OBJECT__27
10
0
20
0
30
0
70
128
71
83
72
84
73
81
0
VERTEX
8
OBJECT__27
10
0
20
0
30
0
70
128
71
81
72
85
73
82
0
VERTEX
8
OBJECT__27
10
0
20
0
30
0
70
128
71
86
72
84
73
87
0
VERTEX
8
OBJECT__27
10
0
20
0
30
0
70
128
71
84
72
88
73
87
0
VERTEX
8
OBJECT__27
10
0
20
0
30
0
70
128
71
86
72
89
73
90
0
VERTEX
8
OBJECT__27
10
0
20
0
30
0
70
128
71
90
72
91
73
86
0
VERTEX
8
OBJECT__27
10
0
20
0
30
0
70
128
71
86
72
92
73
89
0
VERTEX
8
OBJECT__27
10
0
20
0
30
0
70
128
71
93
72
91
73
94
0
VERTEX
8
OBJECT__27
10
0
20
0
30
0
70
128
71
94
72
95
73
93
0
VERTEX
8
OBJECT__27
10
0
20
0
30
0
70
128
71
91
72
96
73
94
0
VERTEX
8
OBJECT__27
10
0
20
0
30
0
70
128
71
93
72
97
73
98
0
VERTEX
8
OBJECT__27
10
0
20
0
30
0
70
128
71
98
72
99
73
93
0
VERTEX
8
OBJECT__27
10
0
20
0
30
0
70
128
71
100
72
99
73
101
0
VERTEX
8
OBJECT__27
10
0
20
0
30
0
70
128
71
101
72
102
73
100
0
VERTEX
8
OBJECT__27
10
0
20
0
30
0
70
128
71
99
72
103
73
101
0
VERTEX
8
OBJECT__27
10
0
20
0
30
0
70
128
71
100
72
104
73
105
0
VERTEX
8
OBJECT__27
10
0
20
0
30
0
70
128
71
105
72
2
73
100
0
VERTEX
8
OBJECT__27
10
0
20
0
30
0
70
128
71
105
72
106
73
2
0
VERTEX
8
OBJECT__27
10
0
20
0
30
0
70
128
71
106
72
5
73
2
0
VERTEX
8
OBJECT__27
10
0
20
0
30
0
70
128
71
102
72
104
73
100
0
VERTEX
8
OBJECT__27
10
0
20
0
30
0
70
128
71
98
72
103
73
99
0
VERTEX
8
OBJECT__27
10
0
20
0
30
0
70
128
71
95
72
97
73
93
0
VERTEX
8
OBJECT__27
10
0
20
0
30
0
70
128
71
90
72
96
73
91
0
VERTEX
8
OBJECT__27
10
0
20
0
30
0
70
128
71
87
72
92
73
86
0
VERTEX
8
OBJECT__27
10
0
20
0
30
0
70
128
71
83
72
88
73
84
0
VERTEX
8
OBJECT__27
10
0
20
0
30
0
70
128
71
80
72
85
73
81
0
VERTEX
8
OBJECT__27
10
0
20
0
30
0
70
128
71
77
72
79
73
75
0
VERTEX
8
OBJECT__27
10
0
20
0
30
0
70
128
71
72
72
78
73
73
0
VERTEX
8
OBJECT__27
10
0
20
0
30
0
70
128
71
69
72
74
73
68
0
VERTEX
8
OBJECT__27
10
0
20
0
30
0
70
128
71
65
72
70
73
66
0
VERTEX
8
OBJECT__27
10
0
20
0
30
0
70
128
71
59
72
67
73
58
0
VERTEX
8
OBJECT__27
10
0
20
0
30
0
70
128
71
55
72
62
73
53
0
VERTEX
8
OBJECT__27
10
0
20
0
30
0
70
128
71
51
72
57
73
52
0
VERTEX
8
OBJECT__27
10
0
20
0
30
0
70
128
71
47
72
50
73
45
0
VERTEX
8
OBJECT__27
10
0
20
0
30
0
70
128
71
43
72
48
73
40
0
VERTEX
8
OBJECT__27
10
0
20
0
30
0
70
128
71
38
72
44
73
37
0
VERTEX
8
OBJECT__27
10
0
20
0
30
0
70
128
71
34
72
39
73
36
0
VERTEX
8
OBJECT__27
10
0
20
0
30
0
70
128
71
31
72
35
73
27
0
VERTEX
8
OBJECT__27
10
0
20
0
30
0
70
128
71
25
72
32
73
23
0
VERTEX
8
OBJECT__27
10
0
20
0
30
0
70
128
71
21
72
26
73
22
0
VERTEX
8
OBJECT__27
10
0
20
0
30
0
70
128
71
19
72
20
73
17
0
VERTEX
8
OBJECT__27
10
0
20
0
30
0
70
128
71
12
72
18
73
10
0
VERTEX
8
OBJECT__27
10
0
20
0
30
0
70
128
71
8
72
14
73
7
0
VERTEX
8
OBJECT__27
10
0
20
0
30
0
70
128
71
4
72
9
73
1
0
SEQEND
8
OBJECT__27
0
POLYLINE
8
OBJECT__28
66
1
70
64
71
26
72
24
62
253
0
VERTEX
8
OBJECT__28
10
29.200001
20
42.303001
30
5.183000
70
192
0
VERTEX
8
OBJECT__28
10
-6.196000
20
51.028000
30
5.183000
70
192
0
VERTEX
8
OBJECT__28
10
6.196000
20
51.028000
30
5.183000
70
192
0
VERTEX
8
OBJECT__28
10
-38.474998
20
-34.085999
30
5.183000
70
192
0
VERTEX
8
OBJECT__28
10
-6.196000
20
-51.028000
30
5.183000
70
192
0
VERTEX
8
OBJECT__28
10
-18.228001
20
-48.062000
30
5.183000
70
192
0
VERTEX
8
OBJECT__28
10
-18.228001
20
48.062000
30
5.183000
70
192
0
VERTEX
8
OBJECT__28
10
-38.474998
20
34.085999
30
5.183000
70
192
0
VERTEX
8
OBJECT__28
10
-29.200001
20
42.303001
30
5.183000
70
192
0
VERTEX
8
OBJECT__28
10
-29.200001
20
-42.303001
30
5.183000
70
192
0
VERTEX
8
OBJECT__28
10
-45.514999
20
-23.888000
30
5.183000
70
192
0
VERTEX
8
OBJECT__28
10
6.196000
20
-51.028000
30
5.183000
70
192
0
VERTEX
8
OBJECT__28
10
29.200001
20
-42.303001
30
5.183000
70
192
0
VERTEX
8
OBJECT__28
10
18.228001
20
-48.062000
30
5.183000
70
192
0
VERTEX
8
OBJECT__28
10
45.514999
20
-23.888000
30
5.183000
70
192
0
VERTEX
8
OBJECT__28
10
38.474998
20
-34.085999
30
5.183000
70
192
0
VERTEX
8
OBJECT__28
10
-45.514999
20
23.888000
30
5.183000
70
192
0
VERTEX
8
OBJECT__28
10
-49.909000
20
-12.301000
30
5.183000
70
192
0
VERTEX
8
OBJECT__28
10
-51.402000
20
0.000000
30
5.183000
70
192
0
VERTEX
8
OBJECT__28
10
49.909000
20
-12.301000
30
5.183000
70
192
0
VERTEX
8
OBJECT__28
10
49.909000
20
12.301000
30
5.183000
70
192
0
VERTEX
8
OBJECT__28
10
51.402000
20
0.000000
30
5.183000
70
192
0
VERTEX
8
OBJECT__28
10
-49.909000
20
12.301000
30
5.183000
70
192
0
VERTEX
8
OBJECT__28
10
45.514999
20
23.888000
30
5.183000
70
192
0
VERTEX
8
OBJECT__28
10
38.474998
20
34.085999
30
5.183000
70
192
0
VERTEX
8
OBJECT__28
10
18.228001
20
48.062000
30
5.183000
70
192
0
VERTEX
8
OBJECT__28
10
0
20
0
30
0
70
128
71
1
72
2
73
3
0
VERTEX
8
OBJECT__28
10
0
20
0
30
0
70
128
71
4
72
5
73
6
0
VERTEX
8
OBJECT__28
10
0
20
0
30
0
70
128
71
1
72
7
73
2
0
VERTEX
8
OBJECT__28
10
0
20
0
30
0
70
128
71
1
72
8
73
9
0
VERTEX
8
OBJECT__28
10
0
20
0
30
0
70
128
71
6
72
10
73
4
0
VERTEX
8
OBJECT__28
10
0
20
0
30
0
70
128
71
9
72
7
73
1
0
VERTEX
8
OBJECT__28
10
0
20
0
30
0
70
128
71
11
72
12
73
5
0
VERTEX
8
OBJECT__28
10
0
20
0
30
0
70
128
71
11
72
13
73
14
0
VERTEX
8
OBJECT__28
10
0
20
0
30
0
70
128
71
11
72
15
73
16
0
VERTEX
8
OBJECT__28
10
0
20
0
30
0
70
128
71
1
72
17
73
8
0
VERTEX
8
OBJECT__28
10
0
20
0
30
0
70
128
71
1
72
18
73
19
0
VERTEX
8
OBJECT__28
10
0
20
0
30
0
70
128
71
14
72
12
73
11
0
VERTEX
8
OBJECT__28
10
0
20
0
30
0
70
128
71
11
72
20
73
15
0
VERTEX
8
OBJECT__28
10
0
20
0
30
0
70
128
71
11
72
21
73
22
0
VERTEX
8
OBJECT__28
10
0
20
0
30
0
70
128
71
1
72
23
73
17
0
VERTEX
8
OBJECT__28
10
0
20
0
30
0
70
128
71
1
72
11
73
18
0
VERTEX
8
OBJECT__28
10
0
20
0
30
0
70
128
71
16
72
13
73
11
0
VERTEX
8
OBJECT__28
10
0
20
0
30
0
70
128
71
11
72
24
73
21
0
VERTEX
8
OBJECT__28
10
0
20
0
30
0
70
128
71
11
72
1
73
25
0
VERTEX
8
OBJECT__28
10
0
20
0
30
0
70
128
71
19
72
23
73
1
0
VERTEX
8
OBJECT__28
10
0
20
0
30
0
70
128
71
22
72
20
73
11
0
VERTEX
8
OBJECT__28
10
0
20
0
30
0
70
128
71
3
72
26
73
1
0
VERTEX
8
OBJECT__28
10
0
20
0
30
0
70
128
71
25
72
24
73
11
0
VERTEX
8
OBJECT__28
10
0
20
0
30
0
70
128
71
4
72
11
73
5
0
SEQEND
8
OBJECT__28
0
ENDSEC
0
EOF
