  0
SECTION
  2
HEADER
  9
$ACADVER
  1
AC1015
  9
$ACADMAINTVER
 70
     6
  9
$DWGCODEPAGE
  3
ANSI_1252
  9
$INSBASE
 10
0.0
 20
0.0
 30
0.0
  9
$EXTMIN
 10
0.0
 20
0.0
 30
0.0
  9
$EXTMAX
 10
1682.0
 20
2378.0
 30
0.0
  9
$LIMMIN
 10
0.0
 20
0.0
  9
$LIMMAX
 10
1682.0
 20
2378.0
  9
$ORTHOMODE
 70
     0
  9
$REGENMODE
 70
     1
  9
$FILLMODE
 70
     1
  9
$QTEXTMODE
 70
     0
  9
$MIRRTEXT
 70
     1
  9
$LTSCALE
 40
1.0
  9
$ATTMODE
 70
     1
  9
$TEXTSIZE
 40
2.5
  9
$TRACEWID
 40
1.0
  9
$TEXTSTYLE
  7
Standard
  9
$CLAYER
  8
0
  9
$CELTYPE
  6
ByLayer
  9
$CECOLOR
 62
   256
  9
$CELTSCALE
 40
1.0
  9
$DISPSILH
 70
     0
  9
$DIMSCALE
 40
1.0
  9
$DIMASZ
 40
2.5
  9
$DIMEXO
 40
0.625
  9
$DIMDLI
 40
3.75
  9
$DIMRND
 40
0.0
  9
$DIMDLE
 40
0.0
  9
$DIMEXE
 40
1.25
  9
$DIMTP
 40
0.0
  9
$DIMTM
 40
0.0
  9
$DIMTXT
 40
2.5
  9
$DIMCEN
 40
2.5
  9
$DIMTSZ
 40
0.0
  9
$DIMTOL
 70
     0
  9
$DIMLIM
 70
     0
  9
$DIMTIH
 70
     0
  9
$DIMTOH
 70
     0
  9
$DIMSE1
 70
     0
  9
$DIMSE2
 70
     0
  9
$DIMTAD
 70
     1
  9
$DIMZIN
 70
     8
  9
$DIMBLK
  1

  9
$DIMASO
 70
     1
  9
$DIMSHO
 70
     1
  9
$DIMPOST
  1

  9
$DIMAPOST
  1

  9
$DIMALT
 70
     0
  9
$DIMALTD
 70
     3
  9
$DIMALTF
 40
0.0393700787
  9
$DIMLFAC
 40
1.0
  9
$DIMTOFL
 70
     1
  9
$DIMTVP
 40
0.0
  9
$DIMTIX
 70
     0
  9
$DIMSOXD
 70
     0
  9
$DIMSAH
 70
     0
  9
$DIMBLK1
  1

  9
$DIMBLK2
  1

  9
$DIMSTYLE
  2
ISO-25
  9
$DIMCLRD
 70
     0
  9
$DIMCLRE
 70
     0
  9
$DIMCLRT
 70
     0
  9
$DIMTFAC
 40
1.0
  9
$DIMGAP
 40
0.625
  9
$DIMJUST
 70
     0
  9
$DIMSD1
 70
     0
  9
$DIMSD2
 70
     0
  9
$DIMTOLJ
 70
     0
  9
$DIMTZIN
 70
     8
  9
$DIMALTZ
 70
     0
  9
$DIMALTTZ
 70
     0
  9
$DIMUPT
 70
     0
  9
$DIMDEC
 70
     2
  9
$DIMTDEC
 70
     2
  9
$DIMALTU
 70
     2
  9
$DIMALTTD
 70
     3
  9
$DIMTXSTY
  7
Standard
  9
$DIMAUNIT
 70
     0
  9
$DIMADEC
 70
     0
  9
$DIMALTRND
 40
0.0
  9
$DIMAZIN
 70
     0
  9
$DIMDSEP
 70
    44
  9
$DIMATFIT
 70
     3
  9
$DIMFRAC
 70
     0
  9
$DIMLDRBLK
  1

  9
$DIMLUNIT
 70
     2
  9
$DIMLWD
 70
    -2
  9
$DIMLWE
 70
    -2
  9
$DIMTMOVE
 70
     0
  9
$LUNITS
 70
     2
  9
$LUPREC
 70
     4
  9
$SKETCHINC
 40
1.0
  9
$FILLETRAD
 40
10.0
  9
$AUNITS
 70
     0
  9
$AUPREC
 70
     0
  9
$MENU
  1
.
  9
$ELEVATION
 40
0.0
  9
$PELEVATION
 40
0.0
  9
$THICKNESS
 40
0.0
  9
$LIMCHECK
 70
     0
  9
$CHAMFERA
 40
10.0
  9
$CHAMFERB
 40
10.0
  9
$CHAMFERC
 40
20.0
  9
$CHAMFERD
 40
0.0
  9
$SKPOLY
 70
     0
  9
$TDCREATE
 40
2455499.565925972
  9
$TDUCREATE
 40
2455499.482592639
  9
$TDUPDATE
 40
2455499.565925984
  9
$TDUUPDATE
 40
2455499.482592651
  9
$TDINDWG
 40
0.0000000116
  9
$TDUSRTIMER
 40
0.0000000116
  9
$USRTIMER
 70
     1
  9
$ANGBASE
 50
0.0
  9
$ANGDIR
 70
     0
  9
$PDMODE
 70
     0
  9
$PDSIZE
 40
0.0
  9
$PLINEWID
 40
0.0
  9
$SPLFRAME
 70
     0
  9
$SPLINETYPE
 70
     6
  9
$SPLINESEGS
 70
     8
  9
$HANDSEED
  5
16F
  9
$SURFTAB1
 70
     6
  9
$SURFTAB2
 70
     6
  9
$SURFTYPE
 70
     6
  9
$SURFU
 70
     6
  9
$SURFV
 70
     6
  9
$UCSBASE
  2

  9
$UCSNAME
  2

  9
$UCSORG
 10
0.0
 20
0.0
 30
0.0
  9
$UCSXDIR
 10
1.0
 20
0.0
 30
0.0
  9
$UCSYDIR
 10
0.0
 20
1.0
 30
0.0
  9
$UCSORTHOREF
  2

  9
$UCSORTHOVIEW
 70
     0
  9
$UCSORGTOP
 10
0.0
 20
0.0
 30
0.0
  9
$UCSORGBOTTOM
 10
0.0
 20
0.0
 30
0.0
  9
$UCSORGLEFT
 10
0.0
 20
0.0
 30
0.0
  9
$UCSORGRIGHT
 10
0.0
 20
0.0
 30
0.0
  9
$UCSORGFRONT
 10
0.0
 20
0.0
 30
0.0
  9
$UCSORGBACK
 10
0.0
 20
0.0
 30
0.0
  9
$PUCSBASE
  2

  9
$PUCSNAME
  2

  9
$PUCSORG
 10
0.0
 20
0.0
 30
0.0
  9
$PUCSXDIR
 10
1.0
 20
0.0
 30
0.0
  9
$PUCSYDIR
 10
0.0
 20
1.0
 30
0.0
  9
$PUCSORTHOREF
  2

  9
$PUCSORTHOVIEW
 70
     0
  9
$PUCSORGTOP
 10
0.0
 20
0.0
 30
0.0
  9
$PUCSORGBOTTOM
 10
0.0
 20
0.0
 30
0.0
  9
$PUCSORGLEFT
 10
0.0
 20
0.0
 30
0.0
  9
$PUCSORGRIGHT
 10
0.0
 20
0.0
 30
0.0
  9
$PUCSORGFRONT
 10
0.0
 20
0.0
 30
0.0
  9
$PUCSORGBACK
 10
0.0
 20
0.0
 30
0.0
  9
$USERI1
 70
     0
  9
$USERI2
 70
     0
  9
$USERI3
 70
     0
  9
$USERI4
 70
     0
  9
$USERI5
 70
     0
  9
$USERR1
 40
0.0
  9
$USERR2
 40
0.0
  9
$USERR3
 40
0.0
  9
$USERR4
 40
0.0
  9
$USERR5
 40
0.0
  9
$WORLDVIEW
 70
     1
  9
$SHADEDGE
 70
     3
  9
$SHADEDIF
 70
    70
  9
$TILEMODE
 70
     1
  9
$MAXACTVP
 70
    64
  9
$PINSBASE
 10
0.0
 20
0.0
 30
0.0
  9
$PLIMCHECK
 70
     0
  9
$PEXTMIN
 10
0.0
 20
0.0
 30
0.0
  9
$PEXTMAX
 10
1682.0
 20
2378.0
 30
0.0
  9
$PLIMMIN
 10
0.0
 20
0.0
  9
$PLIMMAX
 10
1682.0
 20
2378.0
  9
$UNITMODE
 70
     0
  9
$VISRETAIN
 70
     1
  9
$PLINEGEN
 70
     0
  9
$PSLTSCALE
 70
     1
  9
$TREEDEPTH
 70
  3020
  9
$CMLSTYLE
  2
Standard
  9
$CMLJUST
 70
     0
  9
$CMLSCALE
 40
20.0
  9
$PROXYGRAPHICS
 70
     1
  9
$MEASUREMENT
 70
     1
  9
$CELWEIGHT
370
    -1
  9
$ENDCAPS
280
     0
  9
$JOINSTYLE
280
     0
  9
$LWDISPLAY
290
     0
  9
$INSUNITS
 70
     4
  9
$HYPERLINKBASE
  1

  9
$STYLESHEET
  1

  9
$XEDIT
290
     1
  9
$CEPSNTYPE
380
     0
  9
$PSTYLEMODE
290
     1
  9
$FINGERPRINTGUID
  2
{903A7324-4F4C-4A2F-B66D-37418EDB4404}
  9
$VERSIONGUID
  2
{FAEB1C32-E019-11D5-929B-00C0DF256EC4}
  9
$EXTNAMES
290
     1
  9
$PSVPSCALE
 40
0.0
  9
$OLESTARTUP
290
     0
  0
ENDSEC
  0
SECTION
  2
CLASSES
  0
CLASS
  1
ACDBDICTIONARYWDFLT
  2
AcDbDictionaryWithDefault
  3
ObjectDBX Classes
 90
        0
280
     0
281
     0
  0
CLASS
  1
VISUALSTYLE
  2
AcDbVisualStyle
  3
ObjectDBX Classes
 90
     4095
280
     0
281
     0
  0
CLASS
  1
SCALE
  2
AcDbScale
  3
ObjectDBX Classes
 90
     1153
280
     0
281
     0
  0
CLASS
  1
DICTIONARYVAR
  2
AcDbDictionaryVar
  3
ObjectDBX Classes
 90
        0
280
     0
281
     0
  0
CLASS
  1
ACDBPLACEHOLDER
  2
AcDbPlaceHolder
  3
ObjectDBX Classes
 90
        0
280
     0
281
     0
  0
CLASS
  1
LAYOUT
  2
AcDbLayout
  3
ObjectDBX Classes
 90
        0
280
     0
281
     0
  0
ENDSEC
  0
SECTION
  2
TABLES
  0
TABLE
  2
VPORT
  5
8
330
0
100
AcDbSymbolTable
 70
     1
  0
VPORT
  5
29
330
8
100
AcDbSymbolTableRecord
100
AcDbViewportTableRecord
  2
*Active
 70
     0
 10
0.0
 20
0.0
 11
1.0
 21
1.0
 12
344.1869158879
 22
148.5
 13
0.0
 23
0.0
 14
10.0
 24
10.0
 15
10.0
 25
10.0
 16
0.0
 26
0.0
 36
1.0
 17
0.0
 27
0.0
 37
0.0
 40
297.0
 41
1.9729729729
 42
50.0
 43
0.0
 44
0.0
 50
0.0
 51
0.0
 71
     0
 72
   100
 73
     1
 74
     3
 75
     0
 76
     0
 77
     0
 78
     0
281
     0
 65
     1
110
0.0
120
0.0
130
0.0
111
1.0
121
0.0
131
0.0
112
0.0
122
1.0
132
0.0
 79
     0
146
0.0
  0
ENDTAB
  0
TABLE
  2
LTYPE
  5
5
330
0
100
AcDbSymbolTable
 70
     2
  0
LTYPE
  5
14
330
5
100
AcDbSymbolTableRecord
100
AcDbLinetypeTableRecord
  2
ByBlock
 70
     0
  3

 72
    65
 73
     0
 40
0.0
  0
LTYPE
  5
15
330
5
100
AcDbSymbolTableRecord
100
AcDbLinetypeTableRecord
  2
ByLayer
 70
     0
  3

 72
    65
 73
     0
 40
0.0
  0
LTYPE
  5
16
330
5
100
AcDbSymbolTableRecord
100
AcDbLinetypeTableRecord
  2
Continuous
 70
     0
  3
Solid line
 72
    65
 73
     0
 40
0.0
  0
LTYPE
  5
61
330
5
100
AcDbSymbolTableRecord
100
AcDbLinetypeTableRecord
  2
CENTER2
 70
     0
  3
Center (.5x) ___ _ ___ _ ___ _ ___ _ ___ _ ___
 72
    65
 73
     4
 40
28.575
 49
19.05
 74
     4
 75
     0
340
0
 46
0.0
 50
0.0
 44
0.0
 45
0.0
 49
-3.175
 74
     4
 75
     0
340
0
 46
0.0
 50
0.0
 44
0.0
 45
0.0
 49
3.175
 74
     4
 75
     0
340
0
 46
0.0
 50
0.0
 44
0.0
 45
0.0
 49
-3.175
 74
     4
 75
     0
340
0
 46
0.0
 50
0.0
 44
0.0
 45
0.0
  0
ENDTAB
  0
TABLE
  2
LAYER
  5
2
330
0
100
AcDbSymbolTable
 70
     5
  0
LAYER
  5
10
330
2
100
AcDbSymbolTableRecord
100
AcDbLayerTableRecord
  2
0
 70
     0
 62
     7
  6
Continuous
370
    -3
390
F
  0
LAYER
  5
5D
330
2
100
AcDbSymbolTableRecord
100
AcDbLayerTableRecord
  2
Default
 70
     0
 62
     7
  6
Continuous
370
    -3
390
F
  0
LAYER
  5
60
330
2
100
AcDbSymbolTableRecord
100
AcDbLayerTableRecord
  2
DV1_Standard
 70
     0
 62
     7
  6
Continuous
370
    -3
390
F
  0
LAYER
  5
C0
330
2
100
AcDbSymbolTableRecord
100
AcDbLayerTableRecord
  2
DV2_Standard
 70
     0
 62
     7
  6
Continuous
370
    -3
390
F
  0
LAYER
  5
110
330
2
100
AcDbSymbolTableRecord
100
AcDbLayerTableRecord
  2
DV3_Standard
 70
     0
 62
     7
  6
Continuous
370
    -3
390
F
  0
ENDTAB
  0
TABLE
  2
STYLE
  5
3
330
0
100
AcDbSymbolTable
 70
     2
  0
STYLE
  5
11
330
3
100
AcDbSymbolTableRecord
100
AcDbTextStyleTableRecord
  2
Standard
 70
     0
 40
0.0
 41
1.0
 50
0.0
 71
     0
 42
2.5
  3
txt
  4

  0
STYLE
  5
15E
330
3
100
AcDbSymbolTableRecord
100
AcDbTextStyleTableRecord
  2
SEACAD_seiso_ttf
 70
     0
 40
0.0
 41
1.0
 50
0.0
 71
     0
 42
0.2
  3
seiso.ttf
  4

  0
ENDTAB
  0
TABLE
  2
VIEW
  5
6
330
0
100
AcDbSymbolTable
 70
     0
  0
ENDTAB
  0
TABLE
  2
UCS
  5
7
330
0
100
AcDbSymbolTable
 70
     0
  0
ENDTAB
  0
TABLE
  2
APPID
  5
9
330
0
100
AcDbSymbolTable
 70
     1
  0
APPID
  5
12
330
9
100
AcDbSymbolTableRecord
100
AcDbRegAppTableRecord
  2
ACAD
 70
     0
  0
ENDTAB
  0
TABLE
  2
DIMSTYLE
  5
A
330
0
100
AcDbSymbolTable
 70
     1
100
AcDbDimStyleTable
  0
DIMSTYLE
105
27
330
A
100
AcDbSymbolTableRecord
100
AcDbDimStyleTableRecord
  2
ISO-25
 70
     0
 41
2.5
 42
0.625
 43
3.75
 44
1.25
 73
     0
 74
     0
 77
     1
 78
     8
140
2.5
141
2.5
143
0.0393700787
147
0.625
171
     3
172
     1
271
     2
272
     2
274
     3
278
    44
283
     0
284
     8
340
11
  0
ENDTAB
  0
TABLE
  2
BLOCK_RECORD
  5
1
330
0
100
AcDbSymbolTable
 70
     4
  0
BLOCK_RECORD
  5
1F
330
1
100
AcDbSymbolTableRecord
100
AcDbBlockTableRecord
  2
*Model_Space
340
22
  0
BLOCK_RECORD
  5
1B
330
1
100
AcDbSymbolTableRecord
100
AcDbBlockTableRecord
  2
*Paper_Space
340
1E
  0
BLOCK_RECORD
  5
5E
330
1
100
AcDbSymbolTableRecord
100
AcDbBlockTableRecord
  2
SE
340
0
102
{BLKREFS
331
5F
102
}
  0
BLOCK_RECORD
  5
BE
330
1
100
AcDbSymbolTableRecord
100
AcDbBlockTableRecord
  2
SE1
340
0
102
{BLKREFS
331
BF
102
}
  0
BLOCK_RECORD
  5
10E
330
1
100
AcDbSymbolTableRecord
100
AcDbBlockTableRecord
  2
SE2
340
0
102
{BLKREFS
331
10F
102
}
  0
ENDTAB
  0
ENDSEC
  0
SECTION
  2
BLOCKS
  0
BLOCK
  5
20
330
1F
100
AcDbEntity
  8
0
100
AcDbBlockBegin
  2
*Model_Space
 70
     0
 10
0.0
 20
0.0
 30
0.0
  3
*Model_Space
  1

  0
ENDBLK
  5
21
330
1F
100
AcDbEntity
  8
0
100
AcDbBlockEnd
  0
BLOCK
  5
1C
330
1B
100
AcDbEntity
 67
     1
  8
0
100
AcDbBlockBegin
  2
*Paper_Space
 70
     0
 10
0.0
 20
0.0
 30
0.0
  3
*Paper_Space
  1

  0
ENDBLK
  5
1D
330
1B
100
AcDbEntity
 67
     1
  8
0
100
AcDbBlockEnd
  0
BLOCK
  5
BC
330
5E
100
AcDbEntity
  8
0
100
AcDbBlockBegin
  2
SE
 70
     0
 10
0.0
 20
0.0
 30
0.0
  3
SE
  1

  0
LINE
  5
62
330
5E
100
AcDbEntity
  8
DV1_Standard
  6
CENTER2
 62
     7
100
AcDbLine
 10
111.67069425
 20
463.2516784585
 30
0.0
 11
71.6706951441
 21
463.2516784585
 31
0.0
  0
LINE
  5
63
330
5E
100
AcDbEntity
  8
DV1_Standard
  6
CENTER2
 62
     7
100
AcDbLine
 10
91.670694697
 20
483.2516780114
 30
0.0
 11
91.670694697
 21
443.2516789055
 31
0.0
  0
ARC
  5
64
330
5E
100
AcDbEntity
  8
DV1_Standard
  6
Continuous
 62
     7
100
AcDbCircle
 10
91.670694697
 20
564.8516784585
 30
0.0
 40
20.0
100
AcDbArc
 50
151.148323803
 51
155.1654125103
  0
ARC
  5
65
330
5E
100
AcDbEntity
  8
DV1_Standard
  6
Continuous
 62
     7
100
AcDbCircle
 10
91.670694697
 20
564.8516784585
 30
0.0
 40
20.0
100
AcDbArc
 50
24.8345874897
 51
28.851676197
  0
LINE
  5
66
330
5E
100
AcDbEntity
  8
DV1_Standard
  6
Continuous
 62
     7
100
AcDbLine
 10
71.670694697
 20
573.2516784585
 30
0.0
 11
111.670694697
 21
573.2516784585
 31
0.0
  0
LINE
  5
67
330
5E
100
AcDbEntity
  8
DV1_Standard
  6
Continuous
 62
     7
100
AcDbLine
 10
108.420694697
 20
523.8124352014
 30
0.0
 11
74.920694697
 21
523.8124352014
 31
0.0
  0
LINE
  5
68
330
5E
100
AcDbEntity
  8
DV1_Standard
  6
Continuous
 62
     7
100
AcDbLine
 10
74.920694697
 20
555.3124352014
 30
0.0
 11
108.420694697
 21
555.3124352014
 31
0.0
  0
LINE
  5
69
330
5E
100
AcDbEntity
  8
DV1_Standard
  6
Continuous
 62
     7
100
AcDbLine
 10
74.920694697
 20
523.8124352014
 30
0.0
 11
74.920694697
 21
555.3124352014
 31
0.0
  0
LINE
  5
6A
330
5E
100
AcDbEntity
  8
DV1_Standard
  6
Continuous
 62
     7
100
AcDbLine
 10
108.420694697
 20
555.3124352014
 30
0.0
 11
108.420694697
 21
523.8124352014
 31
0.0
  0
SPLINE
  5
6B
330
5E
100
AcDbEntity
  8
DV1_Standard
  6
Continuous
 62
     7
100
AcDbSpline
210
0.0
220
0.0
230
1.0
 70
     8
 71
     3
 72
     8
 73
     4
 74
     0
 42
0.0000005182510768
 43
0.0000000001
 40
0.0
 40
0.0
 40
0.0
 40
0.0
 40
1.0
 40
1.0
 40
1.0
 40
1.0
 10
105.0362733555887
 20
553.8124352014338
 30
0.0
 10
105.0426940946507
 20
553.8124352014338
 30
0.0
 10
105.0491257299498
 20
553.81248236684
 30
0.0
 10
105.0555681690823
 20
553.812575985867
 30
0.0
  0
SPLINE
  5
6C
330
5E
100
AcDbEntity
  8
DV1_Standard
  6
Continuous
 62
     7
100
AcDbSpline
210
0.0
220
0.0
230
1.0
 70
     8
 71
     3
 72
    14
 73
    10
 74
     0
 42
0.0000000026914823
 43
0.0000000001
 40
0.0
 40
0.0
 40
0.0
 40
0.0
 40
0.245015919372084
 40
0.245015919372084
 40
0.4966772795813892
 40
0.4966772795813892
 40
0.7483386397906946
 40
0.7483386397906946
 40
0.9999999999999999
 40
0.9999999999999999
 40
0.9999999999999999
 40
0.9999999999999999
 10
105.0555681690823
 20
553.812575985867
 30
0.0
 10
105.2930994609446
 20
553.8160276984848
 30
0.0
 10
105.5453172726453
 20
553.8826275540043
 30
0.0
 10
106.0769768960371
 20
554.0733255851218
 30
0.0
 10
106.3574327594421
 20
554.2013053991565
 30
0.0
 10
106.9299544157616
 20
554.4866473664832
 30
0.0
 10
107.2218896550046
 20
554.6443106525412
 30
0.0
 10
107.8146030526331
 20
554.9720121555373
 30
0.0
 10
108.1165661770549
 20
555.1429146606106
 30
0.0
 10
108.4206946970371
 20
555.3124352014337
 30
0.0
  0
SPLINE
  5
6D
330
5E
100
AcDbEntity
  8
DV1_Standard
  6
Continuous
 62
     7
100
AcDbSpline
210
0.0
220
0.0
230
1.0
 70
     8
 71
     3
 72
    14
 73
    10
 74
     0
 42
0.0000000026772418
 43
0.0000000001
 40
0.0
 40
0.0
 40
0.0
 40
0.0
 40
0.2499999999999999
 40
0.2499999999999999
 40
0.5000000000000001
 40
0.5000000000000001
 40
0.7500000000000004
 40
0.7500000000000004
 40
1.0
 40
1.0
 40
1.0
 40
1.0
 10
74.92069469703709
 20
555.3124352014337
 30
0.0
 10
75.22482321701779
 20
555.1429146606015
 30
0.0
 10
75.52678634144115
 20
554.9720121555373
 30
0.0
 10
76.11949973906962
 20
554.6443106525412
 30
0.0
 10
76.41143497831258
 20
554.4866473664831
 30
0.0
 10
76.98395663463208
 20
554.2013053991564
 30
0.0
 10
77.2644124980372
 20
554.0733255851218
 30
0.0
 10
77.80318561890118
 20
553.8800760531894
 30
0.0
 10
78.06196408431461
 20
553.8124352014338
 30
0.0
 10
78.30511603848561
 20
553.8124352014338
 30
0.0
  0
LINE
  5
6E
330
5E
100
AcDbEntity
  8
DV1_Standard
  6
Continuous
 62
     7
100
AcDbLine
 10
78.3051160385
 20
553.8124352014
 30
0.0
 11
78.920694697
 21
553.8124352014
 31
0.0
  0
LINE
  5
6F
330
5E
100
AcDbEntity
  8
DV1_Standard
  6
Continuous
 62
     7
100
AcDbLine
 10
78.920694697
 20
553.8124352014
 30
0.0
 11
86.170694697
 21
553.8124352014
 31
0.0
  0
LINE
  5
70
330
5E
100
AcDbEntity
  8
DV1_Standard
  6
Continuous
 62
     7
100
AcDbLine
 10
86.170694697
 20
553.8124352014
 30
0.0
 11
97.170694697
 21
553.8124352014
 31
0.0
  0
LINE
  5
71
330
5E
100
AcDbEntity
  8
DV1_Standard
  6
Continuous
 62
     7
100
AcDbLine
 10
97.170694697
 20
553.8124352014
 30
0.0
 11
104.420694697
 21
553.8124352014
 31
0.0
  0
LINE
  5
72
330
5E
100
AcDbEntity
  8
DV1_Standard
  6
Continuous
 62
     7
100
AcDbLine
 10
104.420694697
 20
553.8124352014
 30
0.0
 11
105.0362733556
 21
553.8124352014
 31
0.0
  0
LINE
  5
73
330
5E
100
AcDbEntity
  8
DV1_Standard
  6
Continuous
 62
     7
100
AcDbLine
 10
105.170694697
 20
553.0624352014
 30
0.0
 11
105.170694697
 21
532.5624352014
 31
0.0
  0
ARC
  5
74
330
5E
100
AcDbEntity
  8
DV1_Standard
  6
Continuous
 62
     7
100
AcDbCircle
 10
104.420694697
 20
553.0624352014
 30
0.0
 40
0.7500000000000007
100
AcDbArc
 50
0.0
 51
90.0
  0
ARC
  5
75
330
5E
100
AcDbEntity
  8
DV1_Standard
  6
Continuous
 62
     7
100
AcDbCircle
 10
78.920694697
 20
553.0624352014
 30
0.0
 40
0.7500000000000007
100
AcDbArc
 50
90.0
 51
180.0
  0
ARC
  5
76
330
5E
100
AcDbEntity
  8
DV1_Standard
  6
Continuous
 62
     7
100
AcDbCircle
 10
131.0108301984
 20
537.4286503122
 30
0.0
 40
26.37642007384328
100
AcDbArc
 50
191.5735329787
 51
211.0794917697
  0
ARC
  5
77
330
5E
100
AcDbEntity
  8
DV1_Standard
  6
Continuous
 62
     7
100
AcDbCircle
 10
52.3305591957
 20
537.4286503122
 30
0.0
 40
26.37642007384514
100
AcDbArc
 50
328.9205082303
 51
348.4264670213
  0
LINE
  5
78
330
5E
100
AcDbEntity
  8
DV1_Standard
  6
Continuous
 62
     7
100
AcDbLine
 10
78.170694697
 20
532.5624352014
 30
0.0
 11
78.170694697
 21
553.0624352014
 31
0.0
  0
LINE
  5
79
330
5E
100
AcDbEntity
  8
DV1_Standard
  6
Continuous
 62
     7
100
AcDbLine
 10
78.170694697
 20
532.1368705375
 30
0.0
 11
78.170694697
 21
532.5624352014
 31
0.0
  0
LINE
  5
7A
330
5E
100
AcDbEntity
  8
DV1_Standard
  6
Continuous
 62
     7
100
AcDbLine
 10
104.420694697
 20
531.8124352014
 30
0.0
 11
97.170694697
 21
531.8124352014
 31
0.0
  0
LINE
  5
7B
330
5E
100
AcDbEntity
  8
DV1_Standard
  6
Continuous
 62
     7
100
AcDbLine
 10
97.170694697
 20
531.8124352014
 30
0.0
 11
86.170694697
 21
531.8124352014
 31
0.0
  0
LINE
  5
7C
330
5E
100
AcDbEntity
  8
DV1_Standard
  6
Continuous
 62
     7
100
AcDbLine
 10
86.170694697
 20
531.8124352014
 30
0.0
 11
78.920694697
 21
531.8124352014
 31
0.0
  0
LINE
  5
7D
330
5E
100
AcDbEntity
  8
DV1_Standard
  6
Continuous
 62
     7
100
AcDbLine
 10
105.170694697
 20
532.5624352014
 30
0.0
 11
105.170694697
 21
532.1368705375
 31
0.0
  0
ARC
  5
7E
330
5E
100
AcDbEntity
  8
DV1_Standard
  6
Continuous
 62
     7
100
AcDbCircle
 10
78.920694697
 20
532.5624352014
 30
0.0
 40
0.7500000000000007
100
AcDbArc
 50
180.0
 51
270.0
  0
ARC
  5
7F
330
5E
100
AcDbEntity
  8
DV1_Standard
  6
Continuous
 62
     7
100
AcDbCircle
 10
104.420694697
 20
532.5624352014
 30
0.0
 40
0.7500000000000007
100
AcDbArc
 50
270.0
 51
0.0
  0
ARC
  5
80
330
5E
100
AcDbEntity
  8
DV1_Standard
  6
Continuous
 62
     7
100
AcDbCircle
 10
78.9206946964
 20
532.562422273
 30
0.0
 40
0.749999999390541
100
AcDbArc
 50
179.8491051019
 51
180.0019745358
  0
ARC
  5
81
330
5E
100
AcDbEntity
  8
DV1_Standard
  6
Continuous
 62
     7
100
AcDbCircle
 10
104.4206946992
 20
532.562422273
 30
0.0
 40
0.7499991175641008
100
AcDbArc
 50
359.9980254639
 51
0.1508948981
  0
LINE
  5
82
330
5E
100
AcDbEntity
  8
DV1_Standard
  6
Continuous
 62
     7
100
AcDbLine
 10
111.670694697
 20
471.2516784585
 30
0.0
 11
111.670694697
 21
573.2516784585
 31
0.0
  0
LINE
  5
83
330
5E
100
AcDbEntity
  8
DV1_Standard
  6
Continuous
 62
     7
100
AcDbLine
 10
71.670694697
 20
573.2516784585
 30
0.0
 11
71.670694697
 21
471.2516784585
 31
0.0
  0
ELLIPSE
  5
84
330
5E
100
AcDbEntity
  8
DV1_Standard
  6
Continuous
 62
     7
100
AcDbEllipse
 10
91.670694697
 20
574.7479703787
 30
0.0
 11
19.67933407243251
 21
0.0
 31
0.0
210
0.0
220
0.0
230
1.0
 40
0.0273672564
 41
3.370762223169722
 42
6.059594619682171
  0
SPLINE
  5
85
330
5E
100
AcDbEntity
  8
DV1_Standard
  6
Continuous
 62
     7
100
AcDbSpline
210
0.0
220
0.0
230
1.0
 70
     8
 71
     3
 72
     8
 73
     4
 74
     0
 42
0.0000000156833937
 43
0.0000000001
 40
0.0
 40
0.0
 40
0.0
 40
0.0
 40
1.0
 40
1.0
 40
1.0
 40
1.0
 10
111.5752422993871
 20
575.5986013309715
 30
0.0
 10
111.5877659242309
 20
575.8116784352318
 30
0.0
 10
111.5872651269572
 20
576.0239506290354
 30
0.0
 10
111.5737268959175
 20
576.2354171962576
 30
0.0
  0
SPLINE
  5
86
330
5E
100
AcDbEntity
  8
DV1_Standard
  6
Continuous
 62
     7
100
AcDbSpline
210
0.0
220
0.0
230
1.0
 70
     8
 71
     3
 72
     8
 73
     4
 74
     0
 42
0.0000000152890227
 43
0.0000000001
 40
0.0
 40
0.0
 40
0.0
 40
0.0
 40
1.0
 40
1.0
 40
1.0
 40
1.0
 10
71.77036501214987
 20
576.2352715511058
 30
0.0
 10
71.75568620167398
 20
576.0177713628391
 30
0.0
 10
71.754764731854
 20
575.7999237744193
 30
0.0
 10
71.76770232781982
 20
575.5820880754527
 30
0.0
  0
ELLIPSE
  5
87
330
5E
100
AcDbEntity
  8
DV1_Standard
  6
Continuous
 62
     7
100
AcDbEllipse
 10
81.6718389012
 20
596.5441260448
 30
0.0
 11
7.3
 21
0.0
 31
0.0
210
0.0
220
0.0
230
1.0
 40
0.0273672564
 41
3.646934116061649
 42
4.71238898038469
  0
LINE
  5
88
330
5E
100
AcDbEntity
  8
DV1_Standard
  6
Continuous
 62
     7
100
AcDbLine
 10
73.6718389012
 20
597.2438638573
 30
0.0
 11
73.6718389012
 21
601.4676212715
 31
0.0
  0
LINE
  5
89
330
5E
100
AcDbEntity
  8
DV1_Standard
  6
Continuous
 62
     7
100
AcDbLine
 10
109.6695504929
 20
597.2438638573
 30
0.0
 11
109.6695504929
 21
601.4676212715
 31
0.0
  0
ELLIPSE
  5
8A
330
5E
100
AcDbEntity
  8
DV1_Standard
  6
Continuous
 62
     7
100
AcDbEllipse
 10
101.6695504929
 20
596.5441260448
 30
0.0
 11
-7.300000000000001
 21
0.0
 31
0.0
210
0.0
220
0.0
230
1.0
 40
0.0273672564
 41
1.570796326794897
 42
2.639586770670499
  0
ELLIPSE
  5
8B
330
5E
100
AcDbEntity
  8
DV1_Standard
  6
Continuous
 62
     7
100
AcDbEllipse
 10
111.2369576434
 20
575.1661075573
 30
0.0
 11
-0.2973399632403978
 21
0.03986158878166446
 31
0.0
210
0.0
220
0.0
230
1.0
 40
0.8842007191
 41
3.13932010748844
 42
3.364018062583228
  0
LINE
  5
8C
330
5E
100
AcDbEntity
  8
DV1_Standard
  6
Continuous
 62
     7
100
AcDbLine
 10
73.6718389012
 20
601.4676212715
 30
0.0
 11
73.6718389012
 21
603.6165756028
 31
0.0
  0
ELLIPSE
  5
8D
330
5E
100
AcDbEntity
  8
DV1_Standard
  6
Continuous
 62
     7
100
AcDbEllipse
 10
91.670694697
 20
603.7059209348
 30
0.0
 11
-18.06874660519644
 21
8.326672684688674E-14
 31
0.0
210
0.0
220
0.0
230
1.0
 40
0.0273672564
 41
6.281360138782287
 42
6.283185307179586
  0
ELLIPSE
  5
8E
330
5E
100
AcDbEntity
  8
DV1_Standard
  6
Continuous
 62
     7
100
AcDbEllipse
 10
91.670694697
 20
603.7059209348
 30
0.0
 11
-18.06874660519644
 21
8.326672684688674E-14
 31
0.0
210
0.0
220
0.0
230
1.0
 40
0.0273672564
 41
3.141592653589042
 42
3.143417821986605
  0
LINE
  5
8F
330
5E
100
AcDbEntity
  8
DV1_Standard
  6
Continuous
 62
     7
100
AcDbLine
 10
109.6695504929
 20
603.6165755964
 30
0.0
 11
109.6695504929
 21
601.4676212715
 31
0.0
  0
ARC
  5
90
330
5E
100
AcDbEntity
  8
DV1_Standard
  6
Continuous
 62
     7
100
AcDbCircle
 10
77.5621885549
 20
665.8054268043
 30
0.0
 40
63.72016796430216
100
AcDbArc
 50
267.1028215375
 51
273.6820899941
  0
ARC
  5
91
330
5E
100
AcDbEntity
  8
DV1_Standard
  6
Continuous
 62
     7
100
AcDbCircle
 10
91.670694697
 20
201.9422204574
 30
0.0
 40
400.3998773091876
100
AcDbArc
 50
88.566543513
 51
91.433456487
  0
ARC
  5
92
330
5E
100
AcDbEntity
  8
DV1_Standard
  6
Continuous
 62
     7
100
AcDbCircle
 10
105.981252106
 20
695.3030282867
 30
0.0
 40
93.18522993898354
100
AcDbArc
 50
267.3587468957
 51
271.8563415726
  0
ELLIPSE
  5
93
330
5E
100
AcDbEntity
  8
DV1_Standard
  6
Continuous
 62
     7
100
AcDbEllipse
 10
91.670694697
 20
604.3584512996
 30
0.0
 11
17.40072925072541
 21
0.0
 31
0.0
210
0.0
220
0.0
230
1.0
 40
0.0273672564
 41
0.2823999931993718
 42
0.6804458343769145
  0
ELLIPSE
  5
94
330
5E
100
AcDbEntity
  8
DV1_Standard
  6
Continuous
 62
     7
100
AcDbEllipse
 10
91.670694697
 20
604.3584512996
 30
0.0
 11
17.40072925072541
 21
0.0
 31
0.0
210
0.0
220
0.0
230
1.0
 40
0.0273672564
 41
-3.822038487966706
 42
-3.433486942151159
  0
ARC
  5
95
330
5E
100
AcDbEntity
  8
DV1_Standard
  6
Continuous
 62
     7
100
AcDbCircle
 10
91.670694697
 20
195.8569378973
 30
0.0
 40
406.8179047118996
100
AcDbArc
 50
89.2443511133
 51
90.7556488867
  0
ARC
  5
96
330
5E
100
AcDbEntity
  8
DV1_Standard
  6
Continuous
 62
     7
100
AcDbCircle
 10
84.421167971
 20
647.7439079224
 30
0.0
 40
45.14378947270185
100
AcDbArc
 50
267.1488076598
 51
272.3922687203
  0
ARC
  5
97
330
5E
100
AcDbEntity
  8
DV1_Standard
  6
Continuous
 62
     7
100
AcDbCircle
 10
98.9209435446
 20
647.6620313753
 30
0.0
 40
45.06201461546173
100
AcDbArc
 50
267.6024684822
 51
272.9755210274
  0
LINE
  5
98
330
5E
100
AcDbEntity
  8
DV1_Standard
  6
Continuous
 62
     7
100
AcDbLine
 10
101.5998157273
 20
603.8889409609
 30
0.0
 11
101.5998157273
 21
602.6797147939
 31
0.0
  0
ARC
  5
99
330
5E
100
AcDbEntity
  8
DV1_Standard
  6
Continuous
 62
     7
100
AcDbCircle
 10
98.6216756685
 20
577.853248849
 30
0.0
 40
26.20546855059727
100
AcDbArc
 50
84.4463682894
 51
90.9694268613
  0
ARC
  5
9A
330
5E
100
AcDbEntity
  8
DV1_Standard
  6
Continuous
 62
     7
100
AcDbCircle
 10
98.6216756685
 20
577.853248849
 30
0.0
 40
26.20546855059727
100
AcDbArc
 50
83.4744800014
 51
84.4463682894
  0
ARC
  5
9B
330
5E
100
AcDbEntity
  8
DV1_Standard
  6
Continuous
 62
     7
100
AcDbCircle
 10
91.670694697
 20
209.9267795487
 30
0.0
 40
394.181908234072
100
AcDbArc
 50
89.0540516151
 51
90.9459483849
  0
ARC
  5
9C
330
5E
100
AcDbEntity
  8
DV1_Standard
  6
Continuous
 62
     7
100
AcDbCircle
 10
84.7167791786
 20
577.9137249328
 30
0.0
 40
26.14505107177236
100
AcDbArc
 50
89.0219008499
 51
96.5341922874
  0
LINE
  5
9D
330
5E
100
AcDbEntity
  8
DV1_Standard
  6
Continuous
 62
     7
100
AcDbLine
 10
81.7415736668
 20
602.6797147939
 30
0.0
 11
81.7415736668
 21
603.8889409609
 31
0.0
  0
LINE
  5
9E
330
5E
100
AcDbEntity
  8
DV1_Standard
  6
Continuous
 62
     7
100
AcDbLine
 10
100.976232836
 20
603.5392873978
 30
0.0
 11
100.4548814163
 21
602.6223505167
 31
0.0
  0
LINE
  5
9F
330
5E
100
AcDbEntity
  8
DV1_Standard
  6
Continuous
 62
     7
100
AcDbLine
 10
82.365156558
 20
603.5392873978
 30
0.0
 11
82.8866511469
 21
602.6220987153
 31
0.0
  0
ARC
  5
A0
330
5E
100
AcDbEntity
  8
DV1_Standard
  6
Continuous
 62
     7
100
AcDbCircle
 10
81.7589821762
 20
603.1891026198
 30
0.0
 40
0.7000548263655266
100
AcDbArc
 50
30.0148730568
 51
91.4249411765
  0
ARC
  5
A1
330
5E
100
AcDbEntity
  8
DV1_Standard
  6
Continuous
 62
     7
100
AcDbCircle
 10
101.5824072178
 20
603.1891026198
 30
0.0
 40
0.7000548263677732
100
AcDbArc
 50
88.5750588237
 51
149.985126944
  0
LINE
  5
A2
330
5E
100
AcDbEntity
  8
DV1_Standard
  6
Continuous
 62
     7
100
AcDbLine
 10
81.6718389012
 20
596.3440828855
 30
0.0
 11
101.6695504929
 21
596.3440828855
 31
0.0
  0
SPLINE
  5
A3
330
5E
100
AcDbEntity
  8
DV1_Standard
  6
Continuous
 62
     7
100
AcDbSpline
210
0.0
220
0.0
230
1.0
 70
     8
 71
     3
 72
    23
 73
    19
 74
     0
 42
0.0000000050188364
 43
0.0000000001
 40
0.0
 40
0.0
 40
0.0
 40
0.0
 40
0.0381770024070993
 40
0.0745226101735635
 40
0.1082710979828559
 40
0.1400115046035836
 40
0.1701398219539965
 40
0.1995230632441979
 40
0.2301430446952695
 40
0.2644463947770568
 40
0.306730832719058
 40
0.3638114107996466
 40
0.4505302491212151
 40
0.5919013814994565
 40
0.7184197377106142
 40
0.852787717503652
 40
0.9814053376135292
 40
1.0
 40
1.0
 40
1.0
 40
1.0
 10
73.67183890119074
 20
597.2438638573192
 30
0.0
 10
73.67508204003198
 20
597.1864389610325
 30
0.0
 10
73.68184809533015
 20
597.0916348671977
 30
0.0
 10
73.73140117328047
 20
596.9486515759113
 30
0.0
 10
73.79999446430341
 20
596.8314165954419
 30
0.0
 10
73.88081075407635
 20
596.7377915089158
 30
0.0
 10
73.96470656988558
 20
596.6677960371755
 30
0.0
 10
74.04452852651966
 20
596.6181989789851
 30
0.0
 10
74.1161812434036
 20
596.5843259519498
 30
0.0
 10
74.18103002686964
 20
596.5606000051068
 30
0.0
 10
74.24435496783506
 20
596.5425854688912
 30
0.0
 10
74.31631700911078
 20
596.5268275652254
 30
0.0
 10
74.41648983868484
 20
596.5104503036733
 30
0.0
 10
74.55182231466142
 20
596.4947127281525
 30
0.0
 10
74.73787001021279
 20
596.4785173179832
 30
0.0
 10
74.9523788201184
 20
596.4640376037571
 30
0.0
 10
75.13322209958339
 20
596.453523877024
 30
0.0
 10
75.23544523642124
 20
596.4487998987184
 30
0.0
 10
75.25050086461735
 20
596.4481055501984
 30
0.0
  0
SPLINE
  5
A4
330
5E
100
AcDbEntity
  8
DV1_Standard
  6
Continuous
 62
     7
100
AcDbSpline
210
0.0
220
0.0
230
1.0
 70
     8
 71
     3
 72
    22
 73
    18
 74
     0
 42
0.0000000050444201
 43
0.0000000001
 40
0.0
 40
0.0
 40
0.0
 40
0.0
 40
0.0814824579920109
 40
0.2079998181864999
 40
0.3362676639602847
 40
0.4682324167783454
 40
0.6103220915114773
 40
0.6898440373175286
 40
0.7390692126601034
 40
0.7748182481508294
 40
0.8079255517406823
 40
0.8406271123728228
 40
0.8745484243138375
 40
0.9103313829382763
 40
0.9473110383697095
 40
0.9848021163672692
 40
1.0
 40
1.0
 40
1.0
 40
1.0
 10
108.1012097420312
 20
596.4487305503368
 30
0.0
 10
108.1635860021528
 20
596.4518162727014
 30
0.0
 10
108.2977943251372
 20
596.4585165478402
 30
0.0
 10
108.4992622350791
 20
596.4711175717767
 30
0.0
 10
108.6938969098638
 20
596.4858649130377
 30
0.0
 10
108.8638766728707
 20
596.5026678485959
 30
0.0
 10
108.9878917873845
 20
596.5196284677166
 30
0.0
 10
109.0871348955748
 20
596.5397337476738
 30
0.0
 10
109.16476909709
 20
596.5617609286315
 30
0.0
 10
109.2385953026415
 20
596.5897956936234
 30
0.0
 10
109.3190472152638
 20
596.6301564777993
 30
0.0
 10
109.4095732762646
 20
596.6919766302121
 30
0.0
 10
109.5013852316747
 20
596.7798702745622
 30
0.0
 10
109.5827982342327
 20
596.8946869488115
 30
0.0
 10
109.642199422196
 20
597.0302451742256
 30
0.0
 10
109.66700341956
 20
597.1539651740461
 30
0.0
 10
109.6690472458343
 20
597.2211204504791
 30
0.0
 10
109.6695504928833
 20
597.2438638573192
 30
0.0
  0
SPLINE
  5
A5
330
5E
100
AcDbEntity
  8
DV1_Standard
  6
Continuous
 62
     7
100
AcDbSpline
210
0.0
220
0.0
230
1.0
 70
     8
 71
     3
 72
    13
 73
     9
 74
     0
 42
0.0000000158987215
 43
0.0000000001
 40
0.0
 40
0.0
 40
0.0
 40
0.0
 40
0.3100197283074089
 40
0.4877345027527605
 40
0.6281334071379169
 40
0.7624636813650304
 40
0.8937326297415343
 40
1.0
 40
1.0
 40
1.0
 40
1.0
 10
71.80723723369778
 20
575.1263113543856
 30
0.0
 10
71.8158240828828
 20
575.0681627545922
 30
0.0
 10
71.82950461296288
 20
574.9905297346412
 30
0.0
 10
71.86644653479584
 20
574.8888246628447
 30
0.0
 10
71.91328808427568
 20
574.8090317249658
 30
0.0
 10
71.98024565541684
 20
574.7398954953502
 30
0.0
 10
72.06826984176601
 20
574.6883790258738
 30
0.0
 10
72.12813463756531
 20
574.6801400265073
 30
0.0
 10
72.15986135834889
 20
574.6761613775693
 30
0.0
  0
ARC
  5
A6
330
5E
100
AcDbEntity
  8
DV1_Standard
  6
Continuous
 62
     7
100
AcDbCircle
 10
110.4272343343
 20
578.880470176
 30
0.0
 40
4.275401741761589
100
AcDbArc
 50
276.272601959
 51
280.6201386584
  0
ARC
  5
A7
330
5E
100
AcDbEntity
  8
DV1_Standard
  6
Continuous
 62
     7
100
AcDbCircle
 10
72.922219107
 20
578.9398364563
 30
0.0
 40
4.335238342078452
100
AcDbArc
 50
259.419709814
 51
264.0848775926
  0
ARC
  5
A8
330
5E
100
AcDbEntity
  8
DV1_Standard
  6
Continuous
 62
     7
100
AcDbCircle
 10
75.2062926846
 20
575.6503870656
 30
0.0
 40
3.437792014026758
100
AcDbArc
 50
181.7482193455
 51
188.757965628
  0
ARC
  5
A9
330
5E
100
AcDbEntity
  8
DV1_Standard
  6
Continuous
 62
     7
100
AcDbCircle
 10
108.4100104473
 20
575.6403571252
 30
0.0
 40
3.162572583457312
100
AcDbArc
 50
350.6440173443
 51
358.5902935698
  0
SPLINE
  5
AA
330
5E
100
AcDbEntity
  8
DV1_Standard
  6
Continuous
 62
     7
100
AcDbSpline
210
0.0
220
0.0
230
1.0
 70
     8
 71
     3
 72
    14
 73
    10
 74
     0
 42
0.0000000167379935
 43
0.0000000001
 40
0.0
 40
0.0
 40
0.0
 40
0.0
 40
0.0426475279619445
 40
0.1792638394840186
 40
0.3070806477754612
 40
0.4402919830758865
 40
0.5937688442967274
 40
0.7941667361076471
 40
1.0
 40
1.0
 40
1.0
 40
1.0
 10
111.2144388957519
 20
574.6818936877746
 30
0.0
 10
111.2266505850046
 20
574.6830659459845
 30
0.0
 10
111.2704653973357
 20
574.6874650650346
 30
0.0
 10
111.3435746739345
 20
574.7282865651042
 30
0.0
 10
111.412083831713
 20
574.7898199261666
 30
0.0
 10
111.4597469917465
 20
574.8599021076706
 30
0.0
 10
111.4939707138139
 20
574.9371143368809
 30
0.0
 10
111.519005221812
 20
575.0247269027622
 30
0.0
 10
111.5279610044641
 20
575.0898172402052
 30
0.0
 10
111.5328159240161
 20
575.128802357989
 30
0.0
  0
ARC
  5
AB
330
5E
100
AcDbEntity
  8
DV1_Standard
  6
Continuous
 62
     7
100
AcDbCircle
 10
91.670694697
 20
204.6366488146
 30
0.0
 40
400.2500000000001
100
AcDbArc
 50
88.0634629975
 51
91.9365370025
  0
SPLINE
  5
AC
330
5E
100
AcDbEntity
  8
DV1_Standard
  6
Continuous
 62
     7
100
AcDbSpline
210
0.0
220
0.0
230
1.0
 70
     8
 71
     3
 72
    19
 73
    15
 74
     0
 42
0.0000000064316439
 43
0.0000000001
 40
0.0
 40
0.0
 40
0.0
 40
0.0
 40
0.0995110942079194
 40
0.2640002147672191
 40
0.4341599242799631
 40
0.61932331124361
 40
0.721199829729943
 40
0.7824885631548076
 40
0.830942508514103
 40
0.8725294473738751
 40
0.9101400893566803
 40
0.9462076749628427
 40
0.9821022697085541
 40
1.0
 40
1.0
 40
1.0
 40
1.0
 10
74.97538867124727
 20
604.4931593090628
 30
0.0
 10
74.91857648966943
 20
604.4880550381304
 30
0.0
 10
74.79144642835153
 20
604.4765172429213
 30
0.0
 10
74.60091410599803
 20
604.4547310624268
 30
0.0
 10
74.40909549897867
 20
604.4274600150928
 30
0.0
 10
74.2639332331451
 20
604.3994880376873
 30
0.0
 10
74.14765644502127
 20
604.3672497063528
 30
0.0
 10
74.06159728452225
 20
604.3350920620899
 30
0.0
 10
73.98522065351365
 20
604.298483060473
 30
0.0
 10
73.90584795988664
 20
604.2494839117464
 30
0.0
 10
73.8223764245302
 20
604.1816835060572
 30
0.0
 10
73.73908621791858
 20
604.0891643988302
 30
0.0
 10
73.67911247692449
 20
603.9909604932739
 30
0.0
 10
73.64993541792134
 20
603.9225230799934
 30
0.0
 10
73.64151798922833
 20
603.8992343532259
 30
0.0
  0
SPLINE
  5
AD
330
5E
100
AcDbEntity
  8
DV1_Standard
  6
Continuous
 62
     7
100
AcDbSpline
210
0.0
220
0.0
230
1.0
 70
     8
 71
     3
 72
    20
 73
    16
 74
     0
 42
0.0000000066378198
 43
0.0000000001
 40
0.0
 40
0.0
 40
0.0
 40
0.0
 40
0.0151727333544715
 40
0.0508849799133065
 40
0.0861329822469547
 40
0.122147073175134
 40
0.1608461391172151
 40
0.2050809973830306
 40
0.2589081017855558
 40
0.3286624411090682
 40
0.4264394871306743
 40
0.5852173456796396
 40
0.7605545284735763
 40
0.92627518466014
 40
1.0
 40
1.0
 40
1.0
 40
1.0
 10
109.700110075718
 20
603.8987273856893
 30
0.0
 10
109.6931312310896
 20
603.9179082150758
 30
0.0
 10
109.6668841399212
 20
603.9809404776184
 30
0.0
 10
109.612897452166
 20
604.074184465168
 30
0.0
 10
109.5347987647137
 20
604.1659148425389
 30
0.0
 10
109.4562666767712
 20
604.2340504355335
 30
0.0
 10
109.3809928745151
 20
604.284256448098
 30
0.0
 10
109.3089297482762
 20
604.3220118541443
 30
0.0
 10
109.2368603638909
 20
604.3519067838237
 30
0.0
 10
109.1580240678364
 20
604.3776997686776
 30
0.0
 10
109.0554006136704
 20
604.4037315901
 30
0.0
 10
108.9202663836679
 20
604.4292390827286
 30
0.0
 10
108.7414742872353
 20
604.454501846903
 30
0.0
 10
108.5666767759894
 20
604.474772636639
 30
0.0
 10
108.4549707055624
 20
604.4849404441034
 30
0.0
 10
108.4144021154122
 20
604.4886068646339
 30
0.0
  0
SPLINE
  5
AE
330
5E
100
AcDbEntity
  8
DV1_Standard
  6
Continuous
 62
     7
100
AcDbSpline
210
0.0
220
0.0
230
1.0
 70
     8
 71
     3
 72
    11
 73
     7
 74
     0
 42
0.0000000344874711
 43
0.0000000001
 40
0.0
 40
0.0
 40
0.0
 40
0.0
 40
0.2823115945148634
 40
0.58052474034391
 40
0.8181472557923497
 40
1.0
 40
1.0
 40
1.0
 40
1.0
 10
82.21770367260831
 20
602.6361926018656
 30
0.0
 10
82.1675262069552
 20
602.6382481639347
 30
0.0
 10
82.08208606477612
 20
602.6417908919818
 30
0.0
 10
81.98982660851412
 20
602.6479296429357
 30
0.0
 10
81.93988425755286
 20
602.6527049609576
 30
0.0
 10
81.92841502346543
 20
602.6543700531205
 30
0.0
 10
81.92841921927811
 20
602.6543699164679
 30
0.0
  0
SPLINE
  5
AF
330
5E
100
AcDbEntity
  8
DV1_Standard
  6
Continuous
 62
     7
100
AcDbSpline
210
0.0
220
0.0
230
1.0
 70
     8
 71
     3
 72
    12
 73
     8
 74
     0
 42
0.0000000511673778
 43
0.0000000001
 40
0.0
 40
0.0
 40
0.0
 40
0.0
 40
0.0377666869064368
 40
0.2947063183460766
 40
0.5900668097123353
 40
0.9128010627452503
 40
1.0
 40
1.0
 40
1.0
 40
1.0
 10
101.4099943728892
 20
602.6526163700913
 30
0.0
 10
101.4099921409379
 20
602.6526153903246
 30
0.0
 10
101.4090853041594
 20
602.6524705384702
 30
0.0
 10
101.3941003653897
 20
602.6504543682321
 30
0.0
 10
101.3417392525744
 20
602.6460672296307
 30
0.0
 10
101.2752398982337
 20
602.6420075008451
 30
0.0
 10
101.227112943723
 20
602.6400877321577
 30
0.0
 10
101.2150591368794
 20
602.6396088246034
 30
0.0
  0
LINE
  5
B0
330
5E
100
AcDbEntity
  8
DV1_Standard
  6
Continuous
 62
     7
100
AcDbLine
 10
111.5714853636
 20
576.236050013
 30
0.0
 11
109.7394112066
 21
603.7068234655
 31
0.0
  0
LINE
  5
B1
330
5E
100
AcDbEntity
  8
DV1_Standard
  6
Continuous
 62
     7
100
AcDbLine
 10
73.6019781875
 20
603.7068234655
 30
0.0
 11
71.7698582462
 21
576.235363508
 31
0.0
  0
LINE
  5
B2
330
5E
100
AcDbEntity
  8
DV1_Standard
  6
Continuous
 62
     7
100
AcDbLine
 10
116.070694697
 20
471.2516784585
 30
0.0
 11
117.170694697
 21
471.2516784585
 31
0.0
  0
LINE
  5
B3
330
5E
100
AcDbEntity
  8
DV1_Standard
  6
Continuous
 62
     7
100
AcDbLine
 10
66.170694697
 20
471.2516784585
 30
0.0
 11
67.270694697
 21
471.2516784585
 31
0.0
  0
LINE
  5
B4
330
5E
100
AcDbEntity
  8
DV1_Standard
  6
Continuous
 62
     7
100
AcDbLine
 10
67.270694697
 20
471.2516784585
 30
0.0
 11
116.070694697
 21
471.2516784585
 31
0.0
  0
LINE
  5
B5
330
5E
100
AcDbEntity
  8
DV1_Standard
  6
Continuous
 62
     7
100
AcDbLine
 10
65.670694697
 20
470.7516784585
 30
0.0
 11
65.670694697
 21
463.2516784585
 31
0.0
  0
LINE
  5
B6
330
5E
100
AcDbEntity
  8
DV1_Standard
  6
Continuous
 62
     7
100
AcDbLine
 10
117.670694697
 20
470.7516784585
 30
0.0
 11
117.670694697
 21
463.2516784585
 31
0.0
  0
ARC
  5
B7
330
5E
100
AcDbEntity
  8
DV1_Standard
  6
Continuous
 62
     7
100
AcDbCircle
 10
66.170694697
 20
470.7516784585
 30
0.0
 40
0.5000000000000004
100
AcDbArc
 50
90.0
 51
180.0
  0
ARC
  5
B8
330
5E
100
AcDbEntity
  8
DV1_Standard
  6
Continuous
 62
     7
100
AcDbCircle
 10
117.170694697
 20
470.7516784585
 30
0.0
 40
0.499999999999997
100
AcDbArc
 50
0.0
 51
90.0
  0
LINE
  5
B9
330
5E
100
AcDbEntity
  8
DV1_Standard
  6
Continuous
 62
     7
100
AcDbLine
 10
67.270694697
 20
463.2516784585
 30
0.0
 11
65.670694697
 21
463.2516784585
 31
0.0
  0
LINE
  5
BA
330
5E
100
AcDbEntity
  8
DV1_Standard
  6
Continuous
 62
     7
100
AcDbLine
 10
117.670694697
 20
463.2516784585
 30
0.0
 11
116.070694697
 21
463.2516784585
 31
0.0
  0
LINE
  5
BB
330
5E
100
AcDbEntity
  8
DV1_Standard
  6
Continuous
 62
     7
100
AcDbLine
 10
116.070694697
 20
463.2516784585
 30
0.0
 11
67.270694697
 21
463.2516784585
 31
0.0
  0
ENDBLK
  5
BD
330
5E
100
AcDbEntity
  8
0
100
AcDbBlockEnd
  0
BLOCK
  5
10C
330
BE
100
AcDbEntity
  8
0
100
AcDbBlockBegin
  2
SE1
 70
     0
 10
0.0
 20
0.0
 30
0.0
  3
SE1
  1

  0
LINE
  5
C1
330
BE
100
AcDbEntity
  8
DV2_Standard
  6
CENTER2
 62
     7
100
AcDbLine
 10
331.591769463
 20
463.2516784585
 30
0.0
 11
291.5917703571
 21
463.2516784585
 31
0.0
  0
LINE
  5
C2
330
BE
100
AcDbEntity
  8
DV2_Standard
  6
CENTER2
 62
     7
100
AcDbLine
 10
311.5917699101
 20
483.2516780114
 30
0.0
 11
311.5917699101
 21
443.2516789055
 31
0.0
  0
LINE
  5
C3
330
BE
100
AcDbEntity
  8
DV2_Standard
  6
Continuous
 62
     7
100
AcDbLine
 10
299.6417699101
 20
580.8890566731
 30
0.0
 11
302.2447405912
 21
580.8890566731
 31
0.0
  0
ARC
  5
C4
330
BE
100
AcDbEntity
  8
DV2_Standard
  6
Continuous
 62
     7
100
AcDbCircle
 10
311.5917699101
 20
564.8516784585
 30
0.0
 40
20.0
100
AcDbArc
 50
24.8345874897
 51
28.1015262488
  0
ARC
  5
C5
330
BE
100
AcDbEntity
  8
DV2_Standard
  6
Continuous
 62
     7
100
AcDbCircle
 10
311.5917699101
 20
564.8516784585
 30
0.0
 40
20.00000000000001
100
AcDbArc
 50
126.691057378
 51
155.1654125103
  0
LINE
  5
C6
330
BE
100
AcDbEntity
  8
DV2_Standard
  6
Continuous
 62
     7
100
AcDbLine
 10
269.6437659079
 20
514.7659048166
 30
0.0
 11
269.6437659079
 21
510.7659048166
 31
0.0
  0
LINE
  5
C7
330
BE
100
AcDbEntity
  8
DV2_Standard
  6
Continuous
 62
     7
100
AcDbLine
 10
283.1110532679
 20
514.7659048166
 30
0.0
 11
269.6437659079
 21
514.7659048166
 31
0.0
  0
LINE
  5
C8
330
BE
100
AcDbEntity
  8
DV2_Standard
  6
Continuous
 62
     7
100
AcDbLine
 10
269.6437659079
 20
510.7659048166
 30
0.0
 11
283.1110532679
 21
510.7659048166
 31
0.0
  0
ARC
  5
C9
330
BE
100
AcDbEntity
  8
DV2_Standard
  6
Continuous
 62
     7
100
AcDbCircle
 10
283.1110532679
 20
509.7659048166
 30
0.0
 40
0.9999999999999454
100
AcDbArc
 50
18.0
 51
90.0
  0
ARC
  5
CA
330
BE
100
AcDbEntity
  8
DV2_Standard
  6
Continuous
 62
     7
100
AcDbCircle
 10
283.1110532679
 20
509.7659048166
 30
0.0
 40
4.999999999999967
100
AcDbArc
 50
18.0
 51
90.0
  0
LINE
  5
CB
330
BE
100
AcDbEntity
  8
DV2_Standard
  6
Continuous
 62
     7
100
AcDbLine
 10
291.6606078241
 20
499.6334213962
 30
0.0
 11
287.8663358493
 21
511.3109897884
 31
0.0
  0
LINE
  5
CC
330
BE
100
AcDbEntity
  8
DV2_Standard
  6
Continuous
 62
     7
100
AcDbLine
 10
284.0621097842
 20
510.0749218109
 30
0.0
 11
291.6606144525
 21
486.689129086
 31
0.0
  0
LINE
  5
CD
330
BE
100
AcDbEntity
  8
DV2_Standard
  6
Continuous
 62
     7
100
AcDbLine
 10
291.5917699101
 20
573.2516784585
 30
0.0
 11
331.5917699101
 21
573.2516784585
 31
0.0
  0
LINE
  5
CE
330
BE
100
AcDbEntity
  8
DV2_Standard
  6
Continuous
 62
     7
100
AcDbLine
 10
322.5205164073
 20
523.8124352014
 30
0.0
 11
331.5917699101
 21
523.8124352014
 31
0.0
  0
LINE
  5
CF
330
BE
100
AcDbEntity
  8
DV2_Standard
  6
Continuous
 62
     7
100
AcDbLine
 10
331.5917699101
 20
555.3124352014
 30
0.0
 11
322.5205164073
 21
555.3124352014
 31
0.0
  0
LINE
  5
D0
330
BE
100
AcDbEntity
  8
DV2_Standard
  6
Continuous
 62
     7
100
AcDbLine
 10
322.5205164073
 20
523.8124352014
 30
0.0
 11
322.5205164073
 21
555.3124352014
 31
0.0
  0
ARC
  5
D1
330
BE
100
AcDbEntity
  8
DV2_Standard
  6
Continuous
 62
     7
100
AcDbCircle
 10
329.9362327491
 20
572.1396806791
 30
0.0
 40
18.38882919673083
100
AcDbArc
 50
246.2170571023
 51
265.3095466052
  0
LINE
  5
D2
330
BE
100
AcDbEntity
  8
DV2_Standard
  6
Continuous
 62
     7
100
AcDbLine
 10
333.4492629045
 20
553.8124352014
 30
0.0
 11
419.5917699101
 21
553.8124352014
 31
0.0
  0
LINE
  5
D3
330
BE
100
AcDbEntity
  8
DV2_Standard
  6
Continuous
 62
     7
100
AcDbLine
 10
328.4325331684
 20
553.8124352014
 30
0.0
 11
333.4492629045
 21
553.8124352014
 31
0.0
  0
LINE
  5
D4
330
BE
100
AcDbEntity
  8
DV2_Standard
  6
Continuous
 62
     7
100
AcDbLine
 10
419.5917699101
 20
553.8124352014
 30
0.0
 11
426.8417699101
 21
553.8124352014
 31
0.0
  0
LINE
  5
D5
330
BE
100
AcDbEntity
  8
DV2_Standard
  6
Continuous
 62
     7
100
AcDbLine
 10
427.5917699101
 20
553.0624352014
 30
0.0
 11
427.5917699101
 21
532.5624352014
 31
0.0
  0
ARC
  5
D6
330
BE
100
AcDbEntity
  8
DV2_Standard
  6
Continuous
 62
     7
100
AcDbCircle
 10
426.8417699101
 20
553.0624352014
 30
0.0
 40
0.7500000000000007
100
AcDbArc
 50
0.0
 51
90.0
  0
ARC
  5
D7
330
BE
100
AcDbEntity
  8
DV2_Standard
  6
Continuous
 62
     7
100
AcDbCircle
 10
336.5382526944
 20
520.8897440787
 30
0.0
 40
10.92270568289678
100
AcDbArc
 50
90.0935526541
 51
105.3391798368
  0
SPLINE
  5
D8
330
BE
100
AcDbEntity
  8
DV2_Standard
  6
Continuous
 62
     7
100
AcDbSpline
210
0.0
220
0.0
230
1.0
 70
     8
 71
     3
 72
    20
 73
    16
 74
     0
 42
0.0000000007336731
 43
0.0000000001
 40
0.0
 40
0.0
 40
0.0
 40
0.0
 40
0.1250000000000002
 40
0.1250000000000002
 40
0.2500000000000003
 40
0.2500000000000003
 40
0.3750000000000005
 40
0.3750000000000005
 40
0.5000000000000007
 40
0.5000000000000007
 40
0.7500000000000006
 40
0.7500000000000006
 40
0.8750000000000002
 40
0.8750000000000002
 40
1.0
 40
1.0
 40
1.0
 40
1.0
 10
333.6488412983115
 20
531.4233475086673
 30
0.0
 10
333.0693204588296
 20
531.2654102052386
 30
0.0
 10
332.5105996707705
 20
531.0683352127575
 30
0.0
 10
331.4250257025007
 20
530.6150906933178
 30
0.0
 10
330.8982542814363
 20
530.3587539741249
 30
0.0
 10
329.8702951026971
 20
529.7993102885761
 30
0.0
 10
329.3704486825648
 20
529.4966061446512
 30
0.0
 10
328.4086559041581
 20
528.8665037926623
 30
0.0
 10
327.9440000205339
 20
528.5376043702541
 30
0.0
 10
326.5875245716398
 20
527.5204776759606
 30
0.0
 10
325.7326424901066
 20
526.8022209350063
 30
0.0
 10
324.4957431398632
 20
525.6954984608852
 30
0.0
 10
324.0908209860361
 20
525.3212172003081
 30
0.0
 10
323.2955349119389
 20
524.5688450066147
 30
0.0
 10
322.9037820108151
 20
524.1894055196287
 30
0.0
 10
322.5205164072706
 20
523.8124352014337
 30
0.0
  0
LINE
  5
D9
330
BE
100
AcDbEntity
  8
DV2_Standard
  6
Continuous
 62
     7
100
AcDbLine
 10
426.8417699101
 20
531.8124352014
 30
0.0
 11
419.5917699101
 21
531.8124352014
 31
0.0
  0
LINE
  5
DA
330
BE
100
AcDbEntity
  8
DV2_Standard
  6
Continuous
 62
     7
100
AcDbLine
 10
419.5917699101
 20
531.8124352014
 30
0.0
 11
336.5204180884
 21
531.8124352014
 31
0.0
  0
ARC
  5
DB
330
BE
100
AcDbEntity
  8
DV2_Standard
  6
Continuous
 62
     7
100
AcDbCircle
 10
426.8417699101
 20
532.5624352014
 30
0.0
 40
0.7499999999999868
100
AcDbArc
 50
270.0
 51
0.0
  0
ARC
  5
DC
330
BE
100
AcDbEntity
  8
DV2_Standard
  6
Continuous
 62
     7
100
AcDbCircle
 10
83.1594756796
 20
493.3731466591
 30
0.0
 40
208.602044370604
100
AcDbArc
 50
357.6883989883
 51
2.3115995156
  0
ARC
  5
DD
330
BE
100
AcDbEntity
  8
DV2_Standard
  6
Continuous
 62
     7
100
AcDbCircle
 10
339.5917699101
 20
523.8124352014
 30
0.0
 40
8.0
100
AcDbArc
 50
90.0
 51
180.0
  0
ARC
  5
DE
330
BE
100
AcDbEntity
  8
DV2_Standard
  6
Continuous
 62
     7
100
AcDbCircle
 10
333.0917699101
 20
555.3124352014
 30
0.0
 40
1.500000000000001
100
AcDbArc
 50
180.0
 51
270.0
  0
LINE
  5
DF
330
BE
100
AcDbEntity
  8
DV2_Standard
  6
Continuous
 62
     7
100
AcDbLine
 10
331.5917699101
 20
555.3124352014
 30
0.0
 11
331.5917699101
 21
573.2516784585
 31
0.0
  0
LINE
  5
E0
330
BE
100
AcDbEntity
  8
DV2_Standard
  6
Continuous
 62
     7
100
AcDbLine
 10
331.5917699101
 20
471.2516784585
 30
0.0
 11
331.5917699101
 21
523.8124352014
 31
0.0
  0
LINE
  5
E1
330
BE
100
AcDbEntity
  8
DV2_Standard
  6
Continuous
 62
     7
100
AcDbLine
 10
291.5917699101
 20
484.9593700144
 30
0.0
 11
291.5917699101
 21
471.2516784585
 31
0.0
  0
LINE
  5
E2
330
BE
100
AcDbEntity
  8
DV2_Standard
  6
Continuous
 62
     7
100
AcDbLine
 10
291.5917699101
 20
573.2516784585
 30
0.0
 11
291.5917699101
 21
501.7839503189
 31
0.0
  0
LINE
  5
E3
330
BE
100
AcDbEntity
  8
DV2_Standard
  6
Continuous
 62
     7
100
AcDbLine
 10
293.6500628352
 20
594.6141683333
 30
0.0
 11
294.3262756747
 21
600.9750356952
 31
0.0
  0
LINE
  5
E4
330
BE
100
AcDbEntity
  8
DV2_Standard
  6
Continuous
 62
     7
100
AcDbLine
 10
293.6500628352
 20
594.6141683333
 30
0.0
 11
293.6899450571
 21
594.6099285231
 31
0.0
  0
LINE
  5
E5
330
BE
100
AcDbEntity
  8
DV2_Standard
  6
Continuous
 62
     7
100
AcDbLine
 10
314.6046994121
 20
574.6729014177
 30
0.0
 11
331.5346688574
 21
574.2094009972
 31
0.0
  0
ARC
  5
E6
330
BE
100
AcDbEntity
  8
DV2_Standard
  6
Continuous
 62
     7
100
AcDbCircle
 10
300.2204740092
 20
595.510474163
 30
0.0
 40
16.17525082195443
100
AcDbArc
 50
13.2279348748
 51
30.2804720737
  0
LINE
  5
E7
330
BE
100
AcDbEntity
  8
DV2_Standard
  6
Continuous
 62
     7
100
AcDbLine
 10
322.4519707656
 20
596.3332180566
 30
0.0
 11
330.9964019917
 21
596.0992927988
 31
0.0
  0
SPLINE
  5
E8
330
BE
100
AcDbEntity
  8
DV2_Standard
  6
Continuous
 62
     7
100
AcDbSpline
210
0.0
220
0.0
230
1.0
 70
     8
 71
     3
 72
    22
 73
    18
 74
     0
 42
0.000000001368484
 43
0.0000000001
 40
0.0
 40
0.0
 40
0.0
 40
0.0
 40
0.2500000000000003
 40
0.2500000000000003
 40
0.3750000000000004
 40
0.3750000000000004
 40
0.5000000000000004
 40
0.5000000000000004
 40
0.6250000000000004
 40
0.6250000000000004
 40
0.7500000000000006
 40
0.7500000000000006
 40
0.8750000000000006
 40
0.8750000000000006
 40
0.9375000000000003
 40
0.9375000000000003
 40
1.0
 40
1.0
 40
1.0
 40
1.0
 10
322.4519707655891
 20
596.3332180565512
 30
0.0
 10
321.9010911448189
 20
596.3482997692918
 30
0.0
 10
321.3454183311484
 20
596.4443055611187
 30
0.0
 10
320.5001921365753
 20
596.6591480066847
 30
0.0
 10
320.2165586842338
 20
596.7432136590977
 30
0.0
 10
319.6452620375657
 20
596.9331335633243
 30
0.0
 10
319.3580571111975
 20
597.0389182464749
 30
0.0
 10
318.7890539969333
 20
597.2674124823417
 30
0.0
 10
318.5060340554913
 20
597.3904538730802
 30
0.0
 10
317.9439159399122
 20
597.655564450306
 30
0.0
 10
317.6647001402983
 20
597.7973728910154
 30
0.0
 10
317.1140757065616
 20
598.1082520522002
 30
0.0
 10
316.8396133159212
 20
598.277101223287
 30
0.0
 10
316.4554215327801
 20
598.5728237946915
 30
0.0
 10
316.3312817552005
 20
598.6790492317925
 30
0.0
 10
316.1118042409784
 20
598.9184966383903
 30
0.0
 10
316.0129992434346
 20
599.0532157569834
 30
0.0
 10
315.9665542354604
 20
599.2117842907284
 30
0.0
  0
LINE
  5
E9
330
BE
100
AcDbEntity
  8
DV2_Standard
  6
Continuous
 62
     7
100
AcDbLine
 10
399.9867861142
 20
596.344345073
 30
0.0
 11
392.6895203548
 21
596.5441260448
 31
0.0
  0
LINE
  5
EA
330
BE
100
AcDbEntity
  8
DV2_Standard
  6
Continuous
 62
     7
100
AcDbLine
 10
392.6895203548
 20
596.5441260448
 30
0.0
 11
323.5855903957
 21
598.4360196302
 31
0.0
  0
ARC
  5
EB
330
BE
100
AcDbEntity
  8
DV2_Standard
  6
Continuous
 62
     7
100
AcDbCircle
 10
400.0059431937
 20
597.0440828855
 30
0.0
 40
0.700000000000022
100
AcDbArc
 50
268.4317759114
 51
358.4317759114
  0
ARC
  5
EC
330
BE
100
AcDbEntity
  8
DV2_Standard
  6
Continuous
 62
     7
100
AcDbCircle
 10
324.3244048207
 20
634.0282764573
 30
0.0
 40
35.59992405610787
100
AcDbArc
 50
257.0445307334
 51
268.8108405074
  0
LINE
  5
ED
330
BE
100
AcDbEntity
  8
DV2_Standard
  6
Continuous
 62
     7
100
AcDbLine
 10
313.7317145419
 20
574.9003349538
 30
0.0
 11
293.0409043142
 21
585.7339943166
 31
0.0
  0
ARC
  5
EE
330
BE
100
AcDbEntity
  8
DV2_Standard
  6
Continuous
 62
     7
100
AcDbCircle
 10
314.6594339249
 20
576.6721523107
 30
0.0
 40
1.999999999999868
100
AcDbArc
 50
242.3635518228
 51
268.4317759114
  0
LINE
  5
EF
330
BE
100
AcDbEntity
  8
DV2_Standard
  6
Continuous
 62
     7
100
AcDbLine
 10
400.8281458733
 20
601.4981179863
 30
0.0
 11
400.7056810063
 21
597.024925806
 31
0.0
  0
LINE
  5
F0
330
BE
100
AcDbEntity
  8
DV2_Standard
  6
Continuous
 62
     7
100
AcDbLine
 10
400.8281458733
 20
601.4981179863
 30
0.0
 11
400.8315703858
 21
601.6232028599
 31
0.0
  0
ARC
  5
F1
330
BE
100
AcDbEntity
  8
DV2_Standard
  6
Continuous
 62
     7
100
AcDbCircle
 10
386.3273136566
 20
681.3966007204
 30
0.0
 40
78.77437913030904
100
AcDbArc
 50
267.8108283844
 51
271.1964948328
  0
ARC
  5
F2
330
BE
100
AcDbEntity
  8
DV2_Standard
  6
Continuous
 62
     7
100
AcDbCircle
 10
339.6460851456
 20
651.2493508672
 30
0.0
 40
47.36301198133218
100
AcDbArc
 50
265.1815288348
 51
269.3994075522
  0
LINE
  5
F3
330
BE
100
AcDbEntity
  8
DV2_Standard
  6
Continuous
 62
     7
100
AcDbLine
 10
383.3182145556
 20
602.6797147939
 30
0.0
 11
339.1496201945
 21
603.8889409609
 31
0.0
  0
ARC
  5
F4
330
BE
100
AcDbEntity
  8
DV2_Standard
  6
Continuous
 62
     7
100
AcDbCircle
 10
275.8453934831
 20
599.6562317881
 30
0.0
 40
18.52665457287647
100
AcDbArc
 50
344.5144026496
 51
4.7208252968
  0
ARC
  5
F5
330
BE
100
AcDbEntity
  8
DV2_Standard
  6
Continuous
 62
     7
100
AcDbCircle
 10
332.9948657451
 20
596.1776677055
 30
0.0
 40
2.000000000000016
100
AcDbArc
 50
88.4317759114
 51
182.2458507457
  0
ARC
  5
F6
330
BE
100
AcDbEntity
  8
DV2_Standard
  6
Continuous
 62
     7
100
AcDbCircle
 10
331.5428790343
 20
574.5092886312
 30
0.0
 40
0.2999999999999876
100
AcDbArc
 50
268.4317759114
 51
2.2458507457
  0
ARC
  5
F7
330
BE
100
AcDbEntity
  8
DV2_Standard
  6
Continuous
 62
     7
100
AcDbCircle
 10
293.1800579671
 20
585.9997691427
 30
0.0
 40
0.2999999954930093
100
AcDbArc
 50
175.5117682198
 51
242.3650501995
  0
ARC
  5
F8
330
BE
100
AcDbEntity
  8
DV2_Standard
  6
Continuous
 62
     7
100
AcDbCircle
 10
301.7299790631
 20
204.6366488146
 30
0.0
 40
400.25
100
AcDbArc
 50
88.4317759114
 51
90.9234752813
  0
LINE
  5
F9
330
BE
100
AcDbEntity
  8
DV2_Standard
  6
Continuous
 62
     7
100
AcDbLine
 10
335.623934689
 20
604.108687893
 30
0.0
 11
312.6837234408
 21
604.7367337731
 31
0.0
  0
LINE
  5
FA
330
BE
100
AcDbEntity
  8
DV2_Standard
  6
Continuous
 62
     7
100
AcDbLine
 10
400.1509896527
 20
602.3420977519
 30
0.0
 11
387.9970429569
 21
602.6748425583
 31
0.0
  0
ARC
  5
FB
330
BE
100
AcDbEntity
  8
DV2_Standard
  6
Continuous
 62
     7
100
AcDbCircle
 10
295.2904371522
 20
604.1347524397
 30
0.0
 40
0.7000000000000591
100
AcDbArc
 50
90.9234752812
 51
174.6177010771
  0
ARC
  5
FC
330
BE
100
AcDbEntity
  8
DV2_Standard
  6
Continuous
 62
     7
100
AcDbCircle
 10
400.1318325732
 20
601.6423599394
 30
0.0
 40
0.6999999999999943
100
AcDbArc
 50
358.4317759114
 51
88.4317759114
  0
ARC
  5
FD
330
BE
100
AcDbEntity
  8
DV2_Standard
  6
Continuous
 62
     7
100
AcDbCircle
 10
387.9778858774
 20
601.9751047457
 30
0.0
 40
0.6999999999999968
100
AcDbArc
 50
90.2560469258
 51
109.2553171389
  0
ARC
  5
FE
330
BE
100
AcDbEntity
  8
DV2_Standard
  6
Continuous
 62
     7
100
AcDbCircle
 10
335.6047776095
 20
603.4089500804
 30
0.0
 40
0.7000000000000018
100
AcDbArc
 50
63.4026315169
 51
85.4882032643
  0
LINE
  5
FF
330
BE
100
AcDbEntity
  8
DV2_Standard
  6
Continuous
 62
     7
100
AcDbLine
 10
331.8426485973
 20
574.5210448672
 30
0.0
 11
330.9964019917
 21
596.0992927988
 31
0.0
  0
LINE
  5
100
330
BE
100
AcDbEntity
  8
DV2_Standard
  6
Continuous
 62
     7
100
AcDbLine
 10
293.6899450571
 20
594.6099285231
 30
0.0
 11
292.881065194
 21
586.0245642394
 31
0.0
  0
LINE
  5
101
330
BE
100
AcDbEntity
  8
DV2_Standard
  6
Continuous
 62
     7
100
AcDbLine
 10
294.5935234584
 20
604.2004129561
 30
0.0
 11
294.3047983939
 21
601.1359160261
 31
0.0
  0
LINE
  5
102
330
BE
100
AcDbEntity
  8
DV2_Standard
  6
Continuous
 62
     7
100
AcDbLine
 10
286.0917699101
 20
471.2516784585
 30
0.0
 11
287.1917699101
 21
471.2516784585
 31
0.0
  0
LINE
  5
103
330
BE
100
AcDbEntity
  8
DV2_Standard
  6
Continuous
 62
     7
100
AcDbLine
 10
287.1917699101
 20
471.2516784585
 30
0.0
 11
335.9917699101
 21
471.2516784585
 31
0.0
  0
LINE
  5
104
330
BE
100
AcDbEntity
  8
DV2_Standard
  6
Continuous
 62
     7
100
AcDbLine
 10
335.9917699101
 20
471.2516784585
 30
0.0
 11
337.0917699101
 21
471.2516784585
 31
0.0
  0
LINE
  5
105
330
BE
100
AcDbEntity
  8
DV2_Standard
  6
Continuous
 62
     7
100
AcDbLine
 10
337.5917699101
 20
470.7516784585
 30
0.0
 11
337.5917699101
 21
463.2516784585
 31
0.0
  0
LINE
  5
106
330
BE
100
AcDbEntity
  8
DV2_Standard
  6
Continuous
 62
     7
100
AcDbLine
 10
285.5917699101
 20
470.7516784585
 30
0.0
 11
285.5917699101
 21
463.2516784585
 31
0.0
  0
ARC
  5
107
330
BE
100
AcDbEntity
  8
DV2_Standard
  6
Continuous
 62
     7
100
AcDbCircle
 10
286.0917699101
 20
470.7516784585
 30
0.0
 40
0.5000000000000004
100
AcDbArc
 50
90.0
 51
180.0
  0
ARC
  5
108
330
BE
100
AcDbEntity
  8
DV2_Standard
  6
Continuous
 62
     7
100
AcDbCircle
 10
337.0917699101
 20
470.7516784585
 30
0.0
 40
0.5000000000000004
100
AcDbArc
 50
0.0
 51
90.0
  0
LINE
  5
109
330
BE
100
AcDbEntity
  8
DV2_Standard
  6
Continuous
 62
     7
100
AcDbLine
 10
337.5917699101
 20
463.2516784585
 30
0.0
 11
335.9917699101
 21
463.2516784585
 31
0.0
  0
LINE
  5
10A
330
BE
100
AcDbEntity
  8
DV2_Standard
  6
Continuous
 62
     7
100
AcDbLine
 10
335.9917699101
 20
463.2516784585
 30
0.0
 11
287.1917699101
 21
463.2516784585
 31
0.0
  0
LINE
  5
10B
330
BE
100
AcDbEntity
  8
DV2_Standard
  6
Continuous
 62
     7
100
AcDbLine
 10
287.1917699101
 20
463.2516784585
 30
0.0
 11
285.5917699101
 21
463.2516784585
 31
0.0
  0
ENDBLK
  5
10D
330
BE
100
AcDbEntity
  8
0
100
AcDbBlockEnd
  0
BLOCK
  5
15C
330
10E
100
AcDbEntity
  8
0
100
AcDbBlockBegin
  2
SE2
 70
     0
 10
0.0
 20
0.0
 30
0.0
  3
SE2
  1

  0
LINE
  5
111
330
10E
100
AcDbEntity
  8
DV3_Standard
  6
CENTER2
 62
     7
100
AcDbLine
 10
111.67069425
 20
222.35
 30
0.0
 11
71.6706951441
 21
222.35
 31
0.0
  0
LINE
  5
112
330
10E
100
AcDbEntity
  8
DV3_Standard
  6
CENTER2
 62
     7
100
AcDbLine
 10
91.670694697
 20
242.349999553
 30
0.0
 11
91.670694697
 21
202.350000447
 31
0.0
  0
LINE
  5
113
330
10E
100
AcDbEntity
  8
DV3_Standard
  6
CENTER2
 62
     7
100
AcDbLine
 10
116.6706941382
 20
222.35
 30
0.0
 11
115.170694697
 21
222.35
 31
0.0
  0
LINE
  5
114
330
10E
100
AcDbEntity
  8
DV3_Standard
  6
CENTER2
 62
     7
100
AcDbLine
 10
91.670694697
 20
247.3499994412
 30
0.0
 11
91.670694697
 21
245.85
 31
0.0
  0
LINE
  5
115
330
10E
100
AcDbEntity
  8
DV3_Standard
  6
CENTER2
 62
     7
100
AcDbLine
 10
66.6706952558
 20
222.35
 30
0.0
 11
68.170694697
 21
222.35
 31
0.0
  0
LINE
  5
116
330
10E
100
AcDbEntity
  8
DV3_Standard
  6
CENTER2
 62
     7
100
AcDbLine
 10
91.670694697
 20
197.3500005588
 30
0.0
 11
91.670694697
 21
198.85
 31
0.0
  0
LINE
  5
117
330
10E
100
AcDbEntity
  8
DV3_Standard
  6
Continuous
 62
     7
100
AcDbLine
 10
89.670694697
 20
264.2980040022
 30
0.0
 11
93.670694697
 21
264.2980040022
 31
0.0
  0
LINE
  5
118
330
10E
100
AcDbEntity
  8
DV3_Standard
  6
Continuous
 62
     7
100
AcDbLine
 10
93.670694697
 20
250.8307166422
 30
0.0
 11
93.670694697
 21
264.2980040022
 31
0.0
  0
LINE
  5
119
330
10E
100
AcDbEntity
  8
DV3_Standard
  6
Continuous
 62
     7
100
AcDbLine
 10
89.670694697
 20
264.2980040022
 30
0.0
 11
89.670694697
 21
250.8307166422
 31
0.0
  0
LINE
  5
11A
330
10E
100
AcDbEntity
  8
DV3_Standard
  6
Continuous
 62
     7
100
AcDbLine
 10
89.670694697
 20
250.8307166422
 30
0.0
 11
89.670694697
 21
247.9775470933
 31
0.0
  0
LINE
  5
11B
330
10E
100
AcDbEntity
  8
DV3_Standard
  6
Continuous
 62
     7
100
AcDbLine
 10
93.670694697
 20
247.9775470933
 30
0.0
 11
93.670694697
 21
250.8307166422
 31
0.0
  0
LINE
  5
11C
330
10E
100
AcDbEntity
  8
DV3_Standard
  6
Continuous
 62
     7
100
AcDbLine
 10
93.670694697
 20
242.2497487421
 30
0.0
 11
93.670694697
 21
247.9775470933
 31
0.0
  0
LINE
  5
11D
330
10E
100
AcDbEntity
  8
DV3_Standard
  6
Continuous
 62
     7
100
AcDbLine
 10
89.670694697
 20
247.9775470933
 30
0.0
 11
89.670694697
 21
242.2497487421
 31
0.0
  0
ARC
  5
11E
330
10E
100
AcDbEntity
  8
DV3_Standard
  6
Continuous
 62
     7
100
AcDbCircle
 10
91.670694697
 20
222.35
 30
0.0
 40
20.0
100
AcDbArc
 50
0.0
 51
187.0093927989
  0
ARC
  5
11F
330
10E
100
AcDbEntity
  8
DV3_Standard
  6
Continuous
 62
     7
100
AcDbCircle
 10
91.670694697
 20
222.35
 30
0.0
 40
20.0
100
AcDbArc
 50
353.87474489
 51
0.0
  0
LINE
  5
120
330
10E
100
AcDbEntity
  8
DV3_Standard
  6
Continuous
 62
     7
100
AcDbLine
 10
105.170694697
 20
133.9288283957
 30
0.0
 11
105.170694697
 21
114.35
 31
0.0
  0
ARC
  5
121
330
10E
100
AcDbEntity
  8
DV3_Standard
  6
Continuous
 62
     7
100
AcDbCircle
 10
97.170694697
 20
114.35
 30
0.0
 40
8.0
100
AcDbArc
 50
270.0
 51
0.0
  0
LINE
  5
122
330
10E
100
AcDbEntity
  8
DV3_Standard
  6
Continuous
 62
     7
100
AcDbLine
 10
97.170694697
 20
106.35
 30
0.0
 11
86.170694697
 21
106.35
 31
0.0
  0
ARC
  5
123
330
10E
100
AcDbEntity
  8
DV3_Standard
  6
Continuous
 62
     7
100
AcDbCircle
 10
86.170694697
 20
114.35
 30
0.0
 40
7.999999999999993
100
AcDbArc
 50
180.0
 51
270.0
  0
LINE
  5
124
330
10E
100
AcDbEntity
  8
DV3_Standard
  6
Continuous
 62
     7
100
AcDbLine
 10
78.170694697
 20
114.35
 30
0.0
 11
78.170694697
 21
133.9300455706
 31
0.0
  0
ELLIPSE
  5
125
330
10E
100
AcDbEntity
  8
DV3_Standard
  6
Continuous
 62
     7
100
AcDbEllipse
 10
91.670694697
 20
239.9375698619
 30
0.0
 11
3.350000000000001
 21
0.0
 31
0.0
210
0.0
220
0.0
230
1.0
 40
0.1057126009
 41
0.0
 42
4.318041294003823
  0
ELLIPSE
  5
126
330
10E
100
AcDbEntity
  8
DV3_Standard
  6
Continuous
 62
     7
100
AcDbEllipse
 10
91.670694697
 20
239.9375698619
 30
0.0
 11
3.350000000000001
 21
0.0
 31
0.0
210
0.0
220
0.0
230
1.0
 40
0.1057126009
 41
5.108432721512461
 42
6.283185307179586
  0
LINE
  5
127
330
10E
100
AcDbEntity
  8
DV3_Standard
  6
Continuous
 62
     7
100
AcDbLine
 10
88.320694697
 20
239.9375698619
 30
0.0
 11
88.320694697
 21
239.4403714996
 31
0.0
  0
LINE
  5
128
330
10E
100
AcDbEntity
  8
DV3_Standard
  6
Continuous
 62
     7
100
AcDbLine
 10
95.020694697
 20
239.4403714996
 30
0.0
 11
95.020694697
 21
239.9375698619
 31
0.0
  0
ARC
  5
129
330
10E
100
AcDbEntity
  8
DV3_Standard
  6
Continuous
 62
     7
100
AcDbCircle
 10
82.785572401
 20
220.8308484527
 30
0.0
 40
11.00737871267928
100
AcDbArc
 50
184.1201654703
 51
188.0647150275
  0
ELLIPSE
  5
12A
330
10E
100
AcDbEntity
  8
DV3_Standard
  6
Continuous
 62
     7
100
AcDbEllipse
 10
91.670694697
 20
222.0703078518
 30
0.0
 11
-19.97866961979116
 21
-6.079147601978362E-10
 31
0.0
210
0.0
220
0.0
230
1.0
 40
0.9996254465
 41
0.1398412019325997
 42
0.4489493066317706
  0
ELLIPSE
  5
12B
330
10E
100
AcDbEntity
  8
DV3_Standard
  6
Continuous
 62
     7
100
AcDbEllipse
 10
91.670694697
 20
222.0703078518
 30
0.0
 11
-19.97866961979116
 21
-6.079147601978362E-10
 31
0.0
210
0.0
220
0.0
230
1.0
 40
0.9996254465
 41
2.692643346897191
 42
3.001751451596468
  0
ARC
  5
12C
330
10E
100
AcDbEntity
  8
DV3_Standard
  6
Continuous
 62
     7
100
AcDbCircle
 10
100.5536039092
 20
220.8310846678
 30
0.0
 40
11.00960304894113
100
AcDbArc
 50
351.9356836004
 51
355.8794359017
  0
ARC
  5
12D
330
10E
100
AcDbEntity
  8
DV3_Standard
  6
Continuous
 62
     7
100
AcDbCircle
 10
91.670694697
 20
221.1690466794
 30
0.0
 40
19.89611481937838
100
AcDbArc
 50
356.7468398944
 51
183.2531601056
  0
ARC
  5
12E
330
10E
100
AcDbEntity
  8
DV3_Standard
  6
Continuous
 62
     7
100
AcDbCircle
 10
-10.0368273029
 20
220.5175179309
 30
0.0
 40
83.7076689725189
100
AcDbArc
 50
358.2595908578
 51
359.4766144676
  0
LINE
  5
12F
330
10E
100
AcDbEntity
  8
DV3_Standard
  6
Continuous
 62
     7
100
AcDbLine
 10
87.5399735264
 20
195.4398909677
 30
0.0
 11
95.8014158677
 21
195.4398909677
 31
0.0
  0
LINE
  5
130
330
10E
100
AcDbEntity
  8
DV3_Standard
  6
Continuous
 62
     7
100
AcDbLine
 10
94.6512207057
 20
149.0689765142
 30
0.0
 11
88.6901686884
 21
149.0689765142
 31
0.0
  0
LINE
  5
131
330
10E
100
AcDbEntity
  8
DV3_Standard
  6
Continuous
 62
     7
100
AcDbLine
 10
84.6901686884
 20
153.0674783002
 30
0.0
 11
84.6901686884
 21
192.5877900835
 31
0.0
  0
ARC
  5
132
330
10E
100
AcDbEntity
  8
DV3_Standard
  6
Continuous
 62
     7
100
AcDbCircle
 10
87.2217549992
 20
192.908047555
 30
0.0
 40
2.551762939086924
100
AcDbArc
 50
82.8362587285
 51
187.2098850541
  0
ARC
  5
133
330
10E
100
AcDbEntity
  8
DV3_Standard
  6
Continuous
 62
     7
100
AcDbCircle
 10
88.4409335059
 20
152.8196482256
 30
0.0
 40
3.758943530067563
100
AcDbArc
 50
176.2197025083
 51
273.8017618466
  0
ARC
  5
134
330
10E
100
AcDbEntity
  8
DV3_Standard
  6
Continuous
 62
     7
100
AcDbCircle
 10
94.9004558882
 20
152.8196482256
 30
0.0
 40
3.758943530067562
100
AcDbArc
 50
266.1982381534
 51
3.7802974917
  0
LINE
  5
135
330
10E
100
AcDbEntity
  8
DV3_Standard
  6
Continuous
 62
     7
100
AcDbLine
 10
98.6512207057
 20
153.0674783002
 30
0.0
 11
98.6512207057
 21
192.5877900835
 31
0.0
  0
ARC
  5
136
330
10E
100
AcDbEntity
  8
DV3_Standard
  6
Continuous
 62
     7
100
AcDbCircle
 10
96.1196343948
 20
192.908047555
 30
0.0
 40
2.551762939086923
100
AcDbArc
 50
352.7901149459
 51
97.1637412715
  0
LINE
  5
137
330
10E
100
AcDbEntity
  8
DV3_Standard
  6
Continuous
 62
     7
100
AcDbLine
 10
109.6695504929
 20
217.5986437245
 30
0.0
 11
109.709163015
 21
217.9752156746
 31
0.0
  0
ARC
  5
138
330
10E
100
AcDbEntity
  8
DV3_Standard
  6
Continuous
 62
     7
100
AcDbCircle
 10
190.3291605363
 20
220.4572742946
 30
0.0
 40
80.65819620681891
100
AcDbArc
 50
180.5003690488
 51
181.7634157992
  0
LINE
  5
139
330
10E
100
AcDbEntity
  8
DV3_Standard
  6
Continuous
 62
     7
100
AcDbLine
 10
73.6718389012
 20
141.1174565117
 30
0.0
 11
73.6718389012
 21
219.610872176
 31
0.0
  0
LINE
  5
13A
330
10E
100
AcDbEntity
  8
DV3_Standard
  6
Continuous
 62
     7
100
AcDbLine
 10
109.7394413023
 20
221.2862675589
 30
0.0
 11
109.6740377486
 21
219.7529281904
 31
0.0
  0
ELLIPSE
  5
13B
330
10E
100
AcDbEntity
  8
DV3_Standard
  6
Continuous
 62
     7
100
AcDbEllipse
 10
91.670694697
 20
221.2862675589
 30
0.0
 11
-18.06874660519248
 21
-1.595576969160017E-11
 31
0.0
210
0.0
220
0.0
230
1.0
 40
0.9996254465
 41
3.141592653589793
 42
6.283185307179586
  0
LINE
  5
13C
330
10E
100
AcDbEntity
  8
DV3_Standard
  6
Continuous
 62
     7
100
AcDbLine
 10
73.6673516454
 20
219.7529281904
 30
0.0
 11
73.6019480918
 21
221.2862675589
 31
0.0
  0
LINE
  5
13D
330
10E
100
AcDbEntity
  8
DV3_Standard
  6
Continuous
 62
     7
100
AcDbLine
 10
109.6695504929
 20
219.6108719434
 30
0.0
 11
109.6695504929
 21
141.1174565117
 31
0.0
  0
ARC
  5
13E
330
10E
100
AcDbEntity
  8
DV3_Standard
  6
Continuous
 62
     7
100
AcDbCircle
 10
101.6636467939
 20
141.1195258265
 30
0.0
 40
8.00590396645147
100
AcDbArc
 50
270.0422509525
 51
359.9851905538
  0
ARC
  5
13F
330
10E
100
AcDbEntity
  8
DV3_Standard
  6
Continuous
 62
     7
100
AcDbCircle
 10
91.670694697
 20
14728.1048898002
 30
0.0
 40
14594.99469081187
100
AcDbArc
 50
269.9607473456
 51
270.0392526544
  0
ARC
  5
140
330
10E
100
AcDbEntity
  8
DV3_Standard
  6
Continuous
 62
     7
100
AcDbCircle
 10
81.6778803927
 20
141.119663553
 30
0.0
 40
8.006041795718664
100
AcDbArc
 50
180.0157948404
 51
269.9567636534
  0
ARC
  5
141
330
10E
100
AcDbEntity
  8
DV3_Standard
  6
Continuous
 62
     7
100
AcDbCircle
 10
91.670694697
 20
809.1302988025
 30
0.0
 40
663.1855724692385
100
AcDbArc
 50
269.5364707088
 51
270.4635292912
  0
ARC
  5
142
330
10E
100
AcDbEntity
  8
DV3_Standard
  6
Continuous
 62
     7
100
AcDbCircle
 10
86.3504457804
 20
150.5753342266
 30
0.0
 40
4.609124367679804
100
AcDbArc
 50
179.4005547925
 51
269.4413652554
  0
ARC
  5
143
330
10E
100
AcDbEntity
  8
DV3_Standard
  6
Continuous
 62
     7
100
AcDbCircle
 10
96.9908926584
 20
150.5753841622
 30
0.0
 40
4.6091747979943
100
AcDbArc
 50
270.5592620776
 51
0.5988178748
  0
LINE
  5
144
330
10E
100
AcDbEntity
  8
DV3_Standard
  6
Continuous
 62
     7
100
AcDbLine
 10
101.5998157273
 20
194.7921497156
 30
0.0
 11
101.5998157273
 21
150.6235553545
 31
0.0
  0
ARC
  5
145
330
10E
100
AcDbEntity
  8
DV3_Standard
  6
Continuous
 62
     7
100
AcDbCircle
 10
98.2815082093
 20
194.9674694582
 30
0.0
 40
3.322935719494266
100
AcDbArc
 50
356.9756419085
 51
91.7797106957
  0
ARC
  5
146
330
10E
100
AcDbEntity
  8
DV3_Standard
  6
Continuous
 62
     7
100
AcDbCircle
 10
91.670694697
 20
-530.9899019498
 30
0.0
 40
729.3077385120214
100
AcDbArc
 50
89.4887429155
 51
90.5112570845
  0
ARC
  5
147
330
10E
100
AcDbEntity
  8
DV3_Standard
  6
Continuous
 62
     7
100
AcDbCircle
 10
85.0599102648
 20
194.967441003
 30
0.0
 40
3.322963257925756
100
AcDbArc
 50
88.2208057101
 51
183.0238416862
  0
LINE
  5
148
330
10E
100
AcDbEntity
  8
DV3_Standard
  6
Continuous
 62
     7
100
AcDbLine
 10
81.7415736668
 20
150.6235553544
 30
0.0
 11
81.7415736668
 21
194.7921497155
 31
0.0
  0
SPLINE
  5
149
330
10E
100
AcDbEntity
  8
DV3_Standard
  6
Continuous
 62
     7
100
AcDbSpline
210
0.0
220
0.0
230
1.0
 70
     8
 71
     3
 72
    10
 73
     6
 74
     0
 42
0.0000000038814199
 43
0.0000000001
 40
0.0
 40
0.0
 40
0.0
 40
0.0
 40
0.5759831541428672
 40
0.5759831541428672
 40
1.0
 40
1.0
 40
1.0
 40
1.0
 10
92.96192603730024
 20
239.6111687227522
 30
0.0
 10
92.49452228711928
 20
239.6244669106252
 30
0.0
 10
91.97965224229674
 20
239.634755773838
 30
0.0
 10
91.09820078604936
 20
239.630307420688
 30
0.0
 10
90.7297564812157
 20
239.6217767730533
 30
0.0
 10
90.38610312451648
 20
239.6115574293169
 30
0.0
  0
LINE
  5
14A
330
10E
100
AcDbEntity
  8
DV3_Standard
  6
Continuous
 62
     7
100
AcDbLine
 10
94.6537207057
 20
149.2169591115
 30
0.0
 11
88.6876686884
 21
149.2169591115
 31
0.0
  0
LINE
  5
14B
330
10E
100
AcDbEntity
  8
DV3_Standard
  6
Continuous
 62
     7
100
AcDbLine
 10
87.5374735264
 20
195.3192756268
 30
0.0
 11
95.8039158677
 21
195.3192756268
 31
0.0
  0
ARC
  5
14C
330
10E
100
AcDbEntity
  8
DV3_Standard
  6
Continuous
 62
     7
100
AcDbCircle
 10
88.6559206201
 20
153.048836454
 30
0.0
 40
3.833841398573453
100
AcDbArc
 50
179.5173258497
 51
270.5124456019
  0
LINE
  5
14D
330
10E
100
AcDbEntity
  8
DV3_Standard
  6
Continuous
 62
     7
100
AcDbLine
 10
84.8241432846
 20
153.0786628648
 30
0.0
 11
84.8241432846
 21
192.6039727753
 31
0.0
  0
SPLINE
  5
14E
330
10E
100
AcDbEntity
  8
DV3_Standard
  6
Continuous
 62
     7
100
AcDbSpline
210
0.0
220
0.0
230
1.0
 70
     8
 71
     3
 72
    21
 73
    17
 74
     0
 42
0.0000000023074267
 43
0.0000000001
 40
0.0
 40
0.0
 40
0.0
 40
0.0
 40
0.0671842823390771
 40
0.1412184226017524
 40
0.2173498470826676
 40
0.2929516673995883
 40
0.3659378129777277
 40
0.4358370911658588
 40
0.5027549120444746
 40
0.5689528709732351
 40
0.6371591655997574
 40
0.7084227848357095
 40
0.782397796759899
 40
0.8583506586970067
 40
0.9371313754166143
 40
1.0
 40
1.0
 40
1.0
 40
1.0
 10
84.81798310731007
 20
192.601791063024
 30
0.0
 10
84.82256613192823
 20
192.7082268230115
 30
0.0
 10
84.83225004502552
 20
192.8969567807081
 30
0.0
 10
84.8718973200509
 20
193.2146537392495
 30
0.0
 10
84.94962176322879
 20
193.5295555037006
 30
0.0
 10
85.06168107542769
 20
193.8346748116428
 30
0.0
 10
85.20492784076161
 20
194.1158711579647
 30
0.0
 10
85.37467265908995
 20
194.3671523747214
 30
0.0
 10
85.56914710467922
 20
194.5870144232579
 30
0.0
 10
85.78977332308791
 20
194.7768699774851
 30
0.0
 10
86.03743639310923
 20
194.9412959976038
 30
0.0
 10
86.31262397660561
 20
195.0804561204388
 30
0.0
 10
86.6129128083627
 20
195.1912330770944
 30
0.0
 10
86.93174119662392
 20
195.2712390181633
 30
0.0
 10
87.2504903036679
 20
195.3112171618324
 30
0.0
 10
87.4401605522328
 20
195.3210799053453
 30
0.0
 10
87.53979872213411
 20
195.3254565905675
 30
0.0
  0
ARC
  5
14F
330
10E
100
AcDbEntity
  8
DV3_Standard
  6
Continuous
 62
     7
100
AcDbCircle
 10
94.6835261142
 20
153.0513570272
 30
0.0
 40
3.836915158554468
100
AcDbArc
 50
269.5170297873
 51
0.4449405918
  0
LINE
  5
150
330
10E
100
AcDbEntity
  8
DV3_Standard
  6
Continuous
 62
     7
100
AcDbLine
 10
98.5172461095
 20
192.6039727753
 30
0.0
 11
98.5172461095
 21
153.0786628648
 31
0.0
  0
ARC
  5
151
330
10E
100
AcDbEntity
  8
DV3_Standard
  6
Continuous
 62
     7
100
AcDbCircle
 10
95.9562995214
 20
192.7557785288
 30
0.0
 40
2.573482017074149
100
AcDbArc
 50
356.5741663439
 51
93.448402812
  0
LINE
  5
152
330
10E
100
AcDbEntity
  8
DV3_Standard
  6
Continuous
 62
     7
100
AcDbLine
 10
116.070694697
 20
196.35
 30
0.0
 11
109.6695504929
 21
196.35
 31
0.0
  0
LINE
  5
153
330
10E
100
AcDbEntity
  8
DV3_Standard
  6
Continuous
 62
     7
100
AcDbLine
 10
73.6718389012
 20
196.35
 30
0.0
 11
67.270694697
 21
196.35
 31
0.0
  0
ARC
  5
154
330
10E
100
AcDbEntity
  8
DV3_Standard
  6
Continuous
 62
     7
100
AcDbCircle
 10
67.270694697
 20
197.95
 30
0.0
 40
1.599999999999997
100
AcDbArc
 50
180.0
 51
270.0
  0
ARC
  5
155
330
10E
100
AcDbEntity
  8
DV3_Standard
  6
Continuous
 62
     7
100
AcDbCircle
 10
116.070694697
 20
197.95
 30
0.0
 40
1.600000000000001
100
AcDbArc
 50
270.0
 51
0.0
  0
LINE
  5
156
330
10E
100
AcDbEntity
  8
DV3_Standard
  6
Continuous
 62
     7
100
AcDbLine
 10
65.670694697
 20
197.95
 30
0.0
 11
65.670694697
 21
246.75
 31
0.0
  0
LINE
  5
157
330
10E
100
AcDbEntity
  8
DV3_Standard
  6
Continuous
 62
     7
100
AcDbLine
 10
117.670694697
 20
246.75
 30
0.0
 11
117.670694697
 21
197.95
 31
0.0
  0
ARC
  5
158
330
10E
100
AcDbEntity
  8
DV3_Standard
  6
Continuous
 62
     7
100
AcDbCircle
 10
67.270694697
 20
246.75
 30
0.0
 40
1.599999999999997
100
AcDbArc
 50
90.0
 51
180.0
  0
ARC
  5
159
330
10E
100
AcDbEntity
  8
DV3_Standard
  6
Continuous
 62
     7
100
AcDbCircle
 10
116.070694697
 20
246.75
 30
0.0
 40
1.600000000000004
100
AcDbArc
 50
0.0
 51
90.0
  0
LINE
  5
15A
330
10E
100
AcDbEntity
  8
DV3_Standard
  6
Continuous
 62
     7
100
AcDbLine
 10
67.270694697
 20
248.35
 30
0.0
 11
89.670694697
 21
248.35
 31
0.0
  0
LINE
  5
15B
330
10E
100
AcDbEntity
  8
DV3_Standard
  6
Continuous
 62
     7
100
AcDbLine
 10
93.670694697
 20
248.35
 30
0.0
 11
116.070694697
 21
248.35
 31
0.0
  0
ENDBLK
  5
15D
330
10E
100
AcDbEntity
  8
0
100
AcDbBlockEnd
  0
ENDSEC
  0
SECTION
  2
ENTITIES
  0
INSERT
  5
5F
330
1F
100
AcDbEntity
  8
Default
100
AcDbBlockReference
  2
SE
 10
0.0
 20
0.0
 30
0.0
  0
INSERT
  5
BF
330
1F
100
AcDbEntity
  8
Default
100
AcDbBlockReference
  2
SE1
 10
0.0
 20
0.0
 30
0.0
  0
INSERT
  5
10F
330
1F
100
AcDbEntity
  8
Default
100
AcDbBlockReference
  2
SE2
 10
0.0
 20
0.0
 30
0.0
  0
TEXT
  5
15F
330
1F
100
AcDbEntity
  8
Default
  6
Continuous
 62
     7
100
AcDbText
 10
5.9362635081
 20
53.4225120485
 30
0.0
 40
10.0
  1
Grohe AG^J
  7
SEACAD_seiso_ttf
 11
5.9362635081
 21
63.4225120485
 31
0.0
100
AcDbText
 73
     3
  0
TEXT
  5
160
330
1F
100
AcDbEntity
  8
Default
  6
Continuous
 62
     7
100
AcDbText
 10
5.9362635081
 20
37.0588756849
 30
0.0
 40
10.0
  1
 
  7
SEACAD_seiso_ttf
 11
5.9362635081
 21
47.0588756849
 31
0.0
100
AcDbText
 73
     3
  0
TEXT
  5
161
330
1F
100
AcDbEntity
  8
Default
  6
Continuous
 62
     7
100
AcDbText
 10
5.9362635081
 20
20.6952393213
 30
0.0
 40
10.0
  1
ecn: 
  7
SEACAD_seiso_ttf
 11
5.9362635081
 21
30.6952393213
 31
0.0
100
AcDbText
 73
     3
  0
TEXT
  5
162
330
1F
100
AcDbEntity
  8
Default
  6
Continuous
 62
     7
100
AcDbText
 10
5.9362635081
 20
4.3316029576
 30
0.0
 40
10.0
  1
unit: mm
  7
SEACAD_seiso_ttf
 11
5.9362635081
 21
14.3316029576
 31
0.0
100
AcDbText
 73
     3
  0
LINE
  5
163
330
1F
100
AcDbEntity
  8
Default
  6
Continuous
 62
     7
100
AcDbLine
 10
0.0
 20
0.0
 30
0.0
 11
100.0
 21
0.0
 31
0.0
  0
LINE
  5
164
330
1F
100
AcDbEntity
  8
Default
  6
Continuous
 62
     7
100
AcDbLine
 10
0.0
 20
0.0
 30
0.0
 11
0.0
 21
100.0
 31
0.0
  0
TEXT
  5
165
330
1F
100
AcDbEntity
  8
Default
  6
Continuous
 62
     7
100
AcDbText
 10
24.3923665681
 20
-18.2375342018
 30
0.0
 40
10.0
  1
100 mm
  7
SEACAD_seiso_ttf
 11
24.3923665681
 21
-8.2375342018
 31
0.0
100
AcDbText
 73
     3
  0
TEXT
  5
166
330
1F
100
AcDbEntity
  8
Default
  6
Continuous
 62
     7
100
AcDbText
 10
-7.6150308803
 20
24.6231930421
 30
0.0
 40
10.0
  1
100 mm
 50
90.0
  7
SEACAD_seiso_ttf
 11
-17.6150308803
 21
24.6231930421
 31
0.0
100
AcDbText
 73
     3
  0
TEXT
  5
167
330
1F
100
AcDbEntity
  8
Default
  6
Continuous
 62
     7
100
AcDbText
 10
28.4878128572
 20
20.0907663715
 30
0.0
 40
10.0
  1
212065
  7
SEACAD_seiso_ttf
 11
28.4878128572
 21
30.0907663715
 31
0.0
100
AcDbText
 73
     3
  0
TEXT
  5
168
330
1F
100
AcDbEntity
  8
Default
  6
Continuous
 62
     7
100
AcDbText
 10
5.9012241913
 20
36.7242780188
 30
0.0
 40
10.0
  1
32632000
  7
SEACAD_seiso_ttf
 11
5.9012241913
 21
46.7242780188
 31
0.0
100
AcDbText
 73
     3
  0
ENDSEC
  0
SECTION
  2
OBJECTS
  0
DICTIONARY
  5
C
330
0
100
AcDbDictionary
281
     1
  3
ACAD_GROUP
350
D
  3
ACAD_LAYOUT
350
1A
  3
ACAD_MLEADERSTYLE
350
16C
  3
ACAD_MLINESTYLE
350
17
  3
ACAD_PLOTSETTINGS
350
19
  3
ACAD_PLOTSTYLENAME
350
E
  3
ACAD_SCALELIST
350
3B
  3
ACAD_TABLESTYLE
350
16B
  3
ACAD_VISUALSTYLE
350
2A
  3
AcDbVariableDictionary
350
169
  0
DICTIONARY
  5
D
102
{ACAD_REACTORS
330
C
102
}
330
C
100
AcDbDictionary
281
     1
  0
DICTIONARY
  5
1A
102
{ACAD_REACTORS
330
C
102
}
330
C
100
AcDbDictionary
281
     1
  3
Layout1
350
1E
  3
Model
350
22
  0
DICTIONARY
  5
16C
102
{ACAD_REACTORS
330
C
102
}
330
C
100
AcDbDictionary
281
     1
  0
DICTIONARY
  5
17
102
{ACAD_REACTORS
330
C
102
}
330
C
100
AcDbDictionary
281
     1
  3
Standard
350
18
  0
DICTIONARY
  5
19
102
{ACAD_REACTORS
330
C
102
}
330
C
100
AcDbDictionary
281
     1
  0
ACDBDICTIONARYWDFLT
  5
E
102
{ACAD_REACTORS
330
C
102
}
330
C
100
AcDbDictionary
281
     1
  3
Normal
350
F
100
AcDbDictionaryWithDefault
340
F
  0
DICTIONARY
  5
3B
102
{ACAD_REACTORS
330
C
102
}
330
C
100
AcDbDictionary
281
     1
  3
A0
350
3C
  3
A1
350
3D
  3
A2
350
3E
  3
A3
350
3F
  3
A4
350
40
  3
A5
350
41
  3
A6
350
42
  3
A7
350
43
  3
A8
350
44
  3
A9
350
45
  3
B0
350
46
  3
B1
350
47
  3
B2
350
48
  3
B3
350
49
  3
B4
350
4A
  3
B5
350
4B
  3
B6
350
4C
  3
B7
350
4D
  3
B8
350
4E
  3
B9
350
4F
  3
C0
350
50
  3
C1
350
51
  3
C2
350
52
  3
C3
350
53
  3
C4
350
54
  3
C5
350
55
  3
C6
350
56
  3
C7
350
57
  3
C8
350
58
  3
C9
350
59
  3
D0
350
5A
  3
D1
350
5B
  3
D2
350
5C
  0
DICTIONARY
  5
16B
102
{ACAD_REACTORS
330
C
102
}
330
C
100
AcDbDictionary
281
     1
  0
DICTIONARY
  5
2A
102
{ACAD_REACTORS
330
C
102
}
330
C
100
AcDbDictionary
281
     1
  3
2dWireframe
350
2F
  3
3D Hidden
350
31
  3
3dWireframe
350
30
  3
Basic
350
32
  3
Brighten
350
36
  3
ColorChange
350
3A
  3
Conceptual
350
34
  3
Dim
350
35
  3
Facepattern
350
39
  3
Flat
350
2B
  3
FlatWithEdges
350
2C
  3
Gouraud
350
2D
  3
GouraudWithEdges
350
2E
  3
Linepattern
350
38
  3
Realistic
350
33
  3
Thicken
350
37
  0
DICTIONARY
  5
169
102
{ACAD_REACTORS
330
C
102
}
330
C
100
AcDbDictionary
281
     1
  3
CANNOSCALE
350
16A
  3
PSOLHEIGHT
350
16E
  3
PSOLWIDTH
350
16D
  0
LAYOUT
  5
1E
102
{ACAD_REACTORS
330
1A
102
}
330
1A
100
AcDbPlotSettings
  1

  2
none_device
  4

  6

 40
0.0
 41
0.0
 42
0.0
 43
0.0
 44
0.0
 45
0.0
 46
0.0
 47
0.0
 48
0.0
 49
0.0
140
0.0
141
0.0
142
1.0
143
1.0
 70
   688
 72
     0
 73
     0
 74
     5
  7

 75
    16
147
1.0
148
0.0
149
0.0
100
AcDbLayout
  1
Layout1
 70
     1
 71
     1
 10
0.0
 20
0.0
 11
1682.0
 21
2378.0
 12
0.0
 22
0.0
 32
0.0
 14
0.0
 24
0.0
 34
0.0
 15
1682.0
 25
2378.0
 35
0.0
146
0.0
 13
0.0
 23
0.0
 33
0.0
 16
1.0
 26
0.0
 36
0.0
 17
0.0
 27
1.0
 37
0.0
 76
     0
330
1B
  0
LAYOUT
  5
22
102
{ACAD_REACTORS
330
1A
102
}
330
1A
100
AcDbPlotSettings
  1

  2
none_device
  4

  6

 40
0.0
 41
0.0
 42
0.0
 43
0.0
 44
0.0
 45
0.0
 46
0.0
 47
0.0
 48
0.0
 49
0.0
140
0.0
141
0.0
142
1.0
143
1.0
 70
  1712
 72
     0
 73
     0
 74
     0
  7

 75
     0
147
1.0
148
0.0
149
0.0
100
AcDbLayout
  1
Model
 70
     1
 71
     0
 10
0.0
 20
0.0
 11
1682.0
 21
2378.0
 12
0.0
 22
0.0
 32
0.0
 14
0.0
 24
0.0
 34
0.0
 15
1682.0
 25
2378.0
 35
0.0
146
0.0
 13
0.0
 23
0.0
 33
0.0
 16
1.0
 26
0.0
 36
0.0
 17
0.0
 27
1.0
 37
0.0
 76
     0
330
1F
331
29
  0
MLINESTYLE
  5
18
102
{ACAD_REACTORS
330
17
102
}
330
17
100
AcDbMlineStyle
  2
Standard
 70
     0
  3

 62
   256
 51
90.0
 52
90.0
 71
     2
 49
0.5
 62
   256
  6
BYLAYER
 49
-0.5
 62
   256
  6
BYLAYER
  0
ACDBPLACEHOLDER
  5
F
102
{ACAD_REACTORS
330
E
102
}
330
E
  0
SCALE
  5
3C
102
{ACAD_REACTORS
330
3B
102
}
330
3B
100
AcDbScale
 70
     0
300
1:1
140
1.0
141
1.0
290
     1
  0
SCALE
  5
3D
102
{ACAD_REACTORS
330
3B
102
}
330
3B
100
AcDbScale
 70
     0
300
1:2
140
1.0
141
2.0
290
     0
  0
SCALE
  5
3E
102
{ACAD_REACTORS
330
3B
102
}
330
3B
100
AcDbScale
 70
     0
300
1:4
140
1.0
141
4.0
290
     0
  0
SCALE
  5
3F
102
{ACAD_REACTORS
330
3B
102
}
330
3B
100
AcDbScale
 70
     0
300
1:5
140
1.0
141
5.0
290
     0
  0
SCALE
  5
40
102
{ACAD_REACTORS
330
3B
102
}
330
3B
100
AcDbScale
 70
     0
300
1:8
140
1.0
141
8.0
290
     0
  0
SCALE
  5
41
102
{ACAD_REACTORS
330
3B
102
}
330
3B
100
AcDbScale
 70
     0
300
1:10
140
1.0
141
10.0
290
     0
  0
SCALE
  5
42
102
{ACAD_REACTORS
330
3B
102
}
330
3B
100
AcDbScale
 70
     0
300
1:16
140
1.0
141
16.0
290
     0
  0
SCALE
  5
43
102
{ACAD_REACTORS
330
3B
102
}
330
3B
100
AcDbScale
 70
     0
300
1:20
140
1.0
141
20.0
290
     0
  0
SCALE
  5
44
102
{ACAD_REACTORS
330
3B
102
}
330
3B
100
AcDbScale
 70
     0
300
1:30
140
1.0
141
30.0
290
     0
  0
SCALE
  5
45
102
{ACAD_REACTORS
330
3B
102
}
330
3B
100
AcDbScale
 70
     0
300
1:40
140
1.0
141
40.0
290
     0
  0
SCALE
  5
46
102
{ACAD_REACTORS
330
3B
102
}
330
3B
100
AcDbScale
 70
     0
300
1:50
140
1.0
141
50.0
290
     0
  0
SCALE
  5
47
102
{ACAD_REACTORS
330
3B
102
}
330
3B
100
AcDbScale
 70
     0
300
1:100
140
1.0
141
100.0
290
     0
  0
SCALE
  5
48
102
{ACAD_REACTORS
330
3B
102
}
330
3B
100
AcDbScale
 70
     0
300
2:1
140
2.0
141
1.0
290
     0
  0
SCALE
  5
49
102
{ACAD_REACTORS
330
3B
102
}
330
3B
100
AcDbScale
 70
     0
300
4:1
140
4.0
141
1.0
290
     0
  0
SCALE
  5
4A
102
{ACAD_REACTORS
330
3B
102
}
330
3B
100
AcDbScale
 70
     0
300
8:1
140
8.0
141
1.0
290
     0
  0
SCALE
  5
4B
102
{ACAD_REACTORS
330
3B
102
}
330
3B
100
AcDbScale
 70
     0
300
10:1
140
10.0
141
1.0
290
     0
  0
SCALE
  5
4C
102
{ACAD_REACTORS
330
3B
102
}
330
3B
100
AcDbScale
 70
     0
300
100:1
140
100.0
141
1.0
290
     0
  0
SCALE
  5
4D
102
{ACAD_REACTORS
330
3B
102
}
330
3B
100
AcDbScale
 70
     0
300
1/128" = 1'-0"
140
0.0078125
141
12.0
290
     0
  0
SCALE
  5
4E
102
{ACAD_REACTORS
330
3B
102
}
330
3B
100
AcDbScale
 70
     0
300
1/64" = 1'-0"
140
0.015625
141
12.0
290
     0
  0
SCALE
  5
4F
102
{ACAD_REACTORS
330
3B
102
}
330
3B
100
AcDbScale
 70
     0
300
1/32" = 1'-0"
140
0.03125
141
12.0
290
     0
  0
SCALE
  5
50
102
{ACAD_REACTORS
330
3B
102
}
330
3B
100
AcDbScale
 70
     0
300
1/16" = 1'-0"
140
0.0625
141
12.0
290
     0
  0
SCALE
  5
51
102
{ACAD_REACTORS
330
3B
102
}
330
3B
100
AcDbScale
 70
     0
300
3/32" = 1'-0"
140
0.09375
141
12.0
290
     0
  0
SCALE
  5
52
102
{ACAD_REACTORS
330
3B
102
}
330
3B
100
AcDbScale
 70
     0
300
1/8" = 1'-0"
140
0.125
141
12.0
290
     0
  0
SCALE
  5
53
102
{ACAD_REACTORS
330
3B
102
}
330
3B
100
AcDbScale
 70
     0
300
3/16" = 1'-0"
140
0.1875
141
12.0
290
     0
  0
SCALE
  5
54
102
{ACAD_REACTORS
330
3B
102
}
330
3B
100
AcDbScale
 70
     0
300
1/4" = 1'-0"
140
0.25
141
12.0
290
     0
  0
SCALE
  5
55
102
{ACAD_REACTORS
330
3B
102
}
330
3B
100
AcDbScale
 70
     0
300
3/8" = 1'-0"
140
0.375
141
12.0
290
     0
  0
SCALE
  5
56
102
{ACAD_REACTORS
330
3B
102
}
330
3B
100
AcDbScale
 70
     0
300
1/2" = 1'-0"
140
0.5
141
12.0
290
     0
  0
SCALE
  5
57
102
{ACAD_REACTORS
330
3B
102
}
330
3B
100
AcDbScale
 70
     0
300
3/4" = 1'-0"
140
0.75
141
12.0
290
     0
  0
SCALE
  5
58
102
{ACAD_REACTORS
330
3B
102
}
330
3B
100
AcDbScale
 70
     0
300
1" = 1'-0"
140
1.0
141
12.0
290
     0
  0
SCALE
  5
59
102
{ACAD_REACTORS
330
3B
102
}
330
3B
100
AcDbScale
 70
     0
300
1-1/2" = 1'-0"
140
1.5
141
12.0
290
     0
  0
SCALE
  5
5A
102
{ACAD_REACTORS
330
3B
102
}
330
3B
100
AcDbScale
 70
     0
300
3" = 1'-0"
140
3.0
141
12.0
290
     0
  0
SCALE
  5
5B
102
{ACAD_REACTORS
330
3B
102
}
330
3B
100
AcDbScale
 70
     0
300
6" = 1'-0"
140
6.0
141
12.0
290
     0
  0
SCALE
  5
5C
102
{ACAD_REACTORS
330
3B
102
}
330
3B
100
AcDbScale
 70
     0
300
1'-0" = 1'-0"
140
12.0
141
12.0
290
     0
  0
VISUALSTYLE
  5
2F
102
{ACAD_REACTORS
330
2A
102
}
330
2A
100
AcDbVisualStyle
  2
2dWireframe
 70
     4
 71
     0
 72
     2
 73
     0
 90
        0
 40
-0.6
 41
-30.0
 62
     5
 63
     7
 74
     1
 91
        4
 64
     7
 65
   257
 75
     1
175
     1
 42
1.0
 92
        0
 66
   257
 43
1.0
 76
     1
 77
     6
 78
     2
 67
     7
 79
     5
170
     0
171
     0
290
     0
174
     0
 93
        1
 44
0.0
173
     0
291
     0
 45
0.0
1001
ACAD
1000
AcDbSavedByObjectVersion
1070
     0
  0
VISUALSTYLE
  5
31
102
{ACAD_REACTORS
330
2A
102
}
330
2A
100
AcDbVisualStyle
  2
3D Hidden
 70
     6
 71
     1
 72
     2
 73
     2
 90
        0
 40
-0.6
 41
-30.0
 62
     5
 63
     7
 74
     2
 91
        2
 64
     7
 65
   257
 75
     2
175
     1
 42
40.0
 92
        0
 66
   257
 43
1.0
 76
     1
 77
     6
 78
     2
 67
     7
 79
     3
170
     0
171
     0
290
     0
174
     0
 93
        1
 44
0.0
173
     0
291
     0
 45
0.0
1001
ACAD
1000
AcDbSavedByObjectVersion
1070
     0
  0
VISUALSTYLE
  5
30
102
{ACAD_REACTORS
330
2A
102
}
330
2A
100
AcDbVisualStyle
  2
3dWireframe
 70
     5
 71
     0
 72
     2
 73
     0
 90
        0
 40
-0.6
 41
-30.0
 62
     5
 63
     7
 74
     1
 91
        4
 64
     7
 65
   257
 75
     1
175
     1
 42
1.0
 92
        0
 66
   257
 43
1.0
 76
     1
 77
     6
 78
     2
 67
     7
 79
     5
170
     0
171
     0
290
     0
174
     0
 93
        1
 44
0.0
173
     0
291
     0
 45
0.0
1001
ACAD
1000
AcDbSavedByObjectVersion
1070
     0
  0
VISUALSTYLE
  5
32
102
{ACAD_REACTORS
330
2A
102
}
330
2A
100
AcDbVisualStyle
  2
Basic
 70
     7
 71
     1
 72
     0
 73
     1
 90
        0
 40
-0.6
 41
-30.0
 62
     5
 63
     7
 74
     0
 91
        4
 64
     7
 65
   257
 75
     1
175
     1
 42
1.0
 92
        8
 66
     7
 43
1.0
 76
     1
 77
     6
 78
     2
 67
     7
 79
     5
170
     0
171
     0
290
     0
174
     0
 93
        1
 44
0.0
173
     0
291
     1
 45
0.0
1001
ACAD
1000
AcDbSavedByObjectVersion
1070
     0
  0
VISUALSTYLE
  5
36
102
{ACAD_REACTORS
330
2A
102
}
330
2A
100
AcDbVisualStyle
  2
Brighten
 70
    12
 71
     2
 72
     2
 73
     0
 90
        0
 40
-0.6
 41
-30.0
 62
     5
 63
     7
 74
     1
 91
        4
 64
     7
 65
   257
 75
     1
175
     1
 42
1.0
 92
        8
 66
     7
 43
1.0
 76
     1
 77
     6
 78
     2
 67
     7
 79
     5
170
     0
171
     0
290
     0
174
     0
 93
        1
 44
50.0
173
     0
291
     1
 45
0.0
1001
ACAD
1000
AcDbSavedByObjectVersion
1070
     0
  0
VISUALSTYLE
  5
3A
102
{ACAD_REACTORS
330
2A
102
}
330
2A
100
AcDbVisualStyle
  2
ColorChange
 70
    16
 71
     2
 72
     2
 73
     3
 90
        0
 40
-0.6
 41
-30.0
 62
     5
 63
     8
 74
     1
 91
        4
 64
     7
 65
   257
 75
     1
175
     1
 42
1.0
 92
        8
 66
     8
 43
1.0
 76
     1
 77
     6
 78
     2
 67
     7
 79
     5
170
     0
171
     0
290
     0
174
     0
 93
        1
 44
0.0
173
     0
291
     1
 45
0.0
1001
ACAD
1000
AcDbSavedByObjectVersion
1070
     0
  0
VISUALSTYLE
  5
34
102
{ACAD_REACTORS
330
2A
102
}
330
2A
100
AcDbVisualStyle
  2
Conceptual
 70
     9
 71
     3
 72
     2
 73
     0
 90
        0
 40
-0.6
 41
-30.0
 62
     5
 63
     7
 74
     2
 91
        2
 64
     7
 65
   257
 75
     1
175
     1
 42
40.0
 92
        8
 66
     7
 43
1.0
 76
     1
 77
     6
 78
     2
 67
     7
 79
     3
170
     0
171
     0
290
     0
174
     0
 93
        1
 44
0.0
173
     0
291
     0
 45
0.0
1001
ACAD
1000
AcDbSavedByObjectVersion
1070
     0
  0
VISUALSTYLE
  5
35
102
{ACAD_REACTORS
330
2A
102
}
330
2A
100
AcDbVisualStyle
  2
Dim
 70
    11
 71
     2
 72
     2
 73
     0
 90
        0
 40
-0.6
 41
-30.0
 62
     5
 63
     7
 74
     1
 91
        4
 64
     7
 65
   257
 75
     1
175
     1
 42
1.0
 92
        8
 66
     7
 43
1.0
 76
     1
 77
     6
 78
     2
 67
     7
 79
     5
170
     0
171
     0
290
     0
174
     0
 93
        1
 44
-50.0
173
     0
291
     1
 45
0.0
1001
ACAD
1000
AcDbSavedByObjectVersion
1070
     0
  0
VISUALSTYLE
  5
39
102
{ACAD_REACTORS
330
2A
102
}
330
2A
100
AcDbVisualStyle
  2
Facepattern
 70
    15
 71
     2
 72
     2
 73
     0
 90
        0
 40
-0.6
 41
-30.0
 62
     5
 63
     7
 74
     1
 91
        4
 64
     7
 65
   257
 75
     1
175
     1
 42
1.0
 92
        8
 66
     7
 43
1.0
 76
     1
 77
     6
 78
     2
 67
     7
 79
     5
170
     0
171
     0
290
     0
174
     0
 93
        1
 44
0.0
173
     0
291
     1
 45
0.0
1001
ACAD
1000
AcDbSavedByObjectVersion
1070
     0
  0
VISUALSTYLE
  5
2B
102
{ACAD_REACTORS
330
2A
102
}
330
2A
100
AcDbVisualStyle
  2
Flat
 70
     0
 71
     2
 72
     1
 73
     1
 90
        2
 40
-0.6
 41
30.0
 62
     5
 63
     7
 74
     0
 91
        4
 64
     7
 65
   257
 75
     1
175
     1
 42
1.0
 92
        8
 66
     7
 43
1.0
 76
     1
 77
     6
 78
     2
 67
     7
 79
     5
170
     0
171
     0
290
     0
174
     0
 93
       13
 44
0.0
173
     0
291
     1
 45
0.0
1001
ACAD
1000
AcDbSavedByObjectVersion
1070
     0
  0
VISUALSTYLE
  5
2C
102
{ACAD_REACTORS
330
2A
102
}
330
2A
100
AcDbVisualStyle
  2
FlatWithEdges
 70
     1
 71
     2
 72
     1
 73
     1
 90
        2
 40
-0.6
 41
30.0
 62
     5
 63
     7
 74
     1
 91
        4
 64
     7
 65
   257
 75
     1
175
     1
 42
1.0
 92
        0
 66
   257
 43
1.0
 76
     1
 77
     6
 78
     2
 67
     7
 79
     5
170
     0
171
     0
290
     0
174
     0
 93
       13
 44
0.0
173
     0
291
     1
 45
0.0
1001
ACAD
1000
AcDbSavedByObjectVersion
1070
     0
  0
VISUALSTYLE
  5
2D
102
{ACAD_REACTORS
330
2A
102
}
330
2A
100
AcDbVisualStyle
  2
Gouraud
 70
     2
 71
     2
 72
     2
 73
     1
 90
        2
 40
-0.6
 41
30.0
 62
     5
 63
     7
 74
     0
 91
        4
 64
     7
 65
   257
 75
     1
175
     1
 42
1.0
 92
        0
 66
     7
 43
1.0
 76
     1
 77
     6
 78
     2
 67
     7
 79
     5
170
     0
171
     0
290
     0
174
     0
 93
       13
 44
0.0
173
     0
291
     1
 45
0.0
1001
ACAD
1000
AcDbSavedByObjectVersion
1070
     0
  0
VISUALSTYLE
  5
2E
102
{ACAD_REACTORS
330
2A
102
}
330
2A
100
AcDbVisualStyle
  2
GouraudWithEdges
 70
     3
 71
     2
 72
     2
 73
     1
 90
        2
 40
-0.6
 41
30.0
 62
     5
 63
     7
 74
     1
 91
        4
 64
     7
 65
   257
 75
     1
175
     1
 42
1.0
 92
        0
 66
   257
 43
1.0
 76
     1
 77
     6
 78
     2
 67
     7
 79
     5
170
     0
171
     0
290
     0
174
     0
 93
       13
 44
0.0
173
     0
291
     1
 45
0.0
1001
ACAD
1000
AcDbSavedByObjectVersion
1070
     0
  0
VISUALSTYLE
  5
38
102
{ACAD_REACTORS
330
2A
102
}
330
2A
100
AcDbVisualStyle
  2
Linepattern
 70
    14
 71
     2
 72
     2
 73
     0
 90
        0
 40
-0.6
 41
-30.0
 62
     5
 63
     7
 74
     1
 91
        4
 64
     7
 65
   257
 75
     7
175
     7
 42
1.0
 92
        8
 66
     7
 43
1.0
 76
     1
 77
     6
 78
     2
 67
     7
 79
     5
170
     0
171
     0
290
     0
174
     0
 93
        1
 44
0.0
173
     0
291
     1
 45
0.0
1001
ACAD
1000
AcDbSavedByObjectVersion
1070
     0
  0
VISUALSTYLE
  5
33
102
{ACAD_REACTORS
330
2A
102
}
330
2A
100
AcDbVisualStyle
  2
Realistic
 70
     8
 71
     2
 72
     2
 73
     0
 90
        0
 40
-0.6
 41
-30.0
 62
     5
 63
     7
 74
     1
 91
        0
 64
     7
 65
   257
 75
     1
175
     1
 42
1.0
 92
        8
 66
     8
 43
1.0
 76
     1
 77
     6
 78
     2
 67
     7
 79
     5
170
     0
171
     0
290
     0
174
     0
 93
       13
 44
0.0
173
     0
291
     0
 45
0.0
1001
ACAD
1000
AcDbSavedByObjectVersion
1070
     0
  0
VISUALSTYLE
  5
37
102
{ACAD_REACTORS
330
2A
102
}
330
2A
100
AcDbVisualStyle
  2
Thicken
 70
    13
 71
     2
 72
     2
 73
     0
 90
        0
 40
-0.6
 41
-30.0
 62
     5
 63
     7
 74
     1
 91
        4
 64
     7
 65
   257
 75
     1
175
     1
 42
1.0
 92
       12
 66
     7
 43
1.0
 76
     1
 77
     6
 78
     2
 67
     7
 79
     5
170
     0
171
     0
290
     0
174
     0
 93
        1
 44
0.0
173
     0
291
     1
 45
0.0
1001
ACAD
1000
AcDbSavedByObjectVersion
1070
     0
  0
DICTIONARYVAR
  5
16A
102
{ACAD_REACTORS
330
169
102
}
330
169
100
DictionaryVariables
280
     0
  1
1:1
  0
DICTIONARYVAR
  5
16E
102
{ACAD_REACTORS
330
169
102
}
330
169
100
DictionaryVariables
280
     0
  1
80.000000
  0
DICTIONARYVAR
  5
16D
102
{ACAD_REACTORS
330
169
102
}
330
169
100
DictionaryVariables
280
     0
  1
5.000000
  0
ENDSEC
  0
EOF
