  0
SECTION
  2
HEADER
  9
$ACADVER
  1
AC1015
  9
$ACADMAINTVER
 70
     6
  9
$DWGCODEPAGE
  3
ANSI_1252
  9
$INSBASE
 10
0.0
 20
0.0
 30
0.0
  9
$EXTMIN
 10
0.0
 20
0.0
 30
0.0
  9
$EXTMAX
 10
1682.0
 20
2378.0
 30
0.0
  9
$LIMMIN
 10
0.0
 20
0.0
  9
$LIMMAX
 10
1682.0
 20
2378.0
  9
$ORTHOMODE
 70
     0
  9
$REGENMODE
 70
     1
  9
$FILLMODE
 70
     1
  9
$QTEXTMODE
 70
     0
  9
$MIRRTEXT
 70
     1
  9
$LTSCALE
 40
1.0
  9
$ATTMODE
 70
     1
  9
$TEXTSIZE
 40
2.5
  9
$TRACEWID
 40
1.0
  9
$TEXTSTYLE
  7
Standard
  9
$CLAYER
  8
0
  9
$CELTYPE
  6
ByLayer
  9
$CECOLOR
 62
   256
  9
$CELTSCALE
 40
1.0
  9
$DISPSILH
 70
     0
  9
$DIMSCALE
 40
1.0
  9
$DIMASZ
 40
2.5
  9
$DIMEXO
 40
0.625
  9
$DIMDLI
 40
3.75
  9
$DIMRND
 40
0.0
  9
$DIMDLE
 40
0.0
  9
$DIMEXE
 40
1.25
  9
$DIMTP
 40
0.0
  9
$DIMTM
 40
0.0
  9
$DIMTXT
 40
2.5
  9
$DIMCEN
 40
2.5
  9
$DIMTSZ
 40
0.0
  9
$DIMTOL
 70
     0
  9
$DIMLIM
 70
     0
  9
$DIMTIH
 70
     0
  9
$DIMTOH
 70
     0
  9
$DIMSE1
 70
     0
  9
$DIMSE2
 70
     0
  9
$DIMTAD
 70
     1
  9
$DIMZIN
 70
     8
  9
$DIMBLK
  1

  9
$DIMASO
 70
     1
  9
$DIMSHO
 70
     1
  9
$DIMPOST
  1

  9
$DIMAPOST
  1

  9
$DIMALT
 70
     0
  9
$DIMALTD
 70
     3
  9
$DIMALTF
 40
0.0393700787
  9
$DIMLFAC
 40
1.0
  9
$DIMTOFL
 70
     1
  9
$DIMTVP
 40
0.0
  9
$DIMTIX
 70
     0
  9
$DIMSOXD
 70
     0
  9
$DIMSAH
 70
     0
  9
$DIMBLK1
  1

  9
$DIMBLK2
  1

  9
$DIMSTYLE
  2
ISO-25
  9
$DIMCLRD
 70
     0
  9
$DIMCLRE
 70
     0
  9
$DIMCLRT
 70
     0
  9
$DIMTFAC
 40
1.0
  9
$DIMGAP
 40
0.625
  9
$DIMJUST
 70
     0
  9
$DIMSD1
 70
     0
  9
$DIMSD2
 70
     0
  9
$DIMTOLJ
 70
     0
  9
$DIMTZIN
 70
     8
  9
$DIMALTZ
 70
     0
  9
$DIMALTTZ
 70
     0
  9
$DIMUPT
 70
     0
  9
$DIMDEC
 70
     2
  9
$DIMTDEC
 70
     2
  9
$DIMALTU
 70
     2
  9
$DIMALTTD
 70
     3
  9
$DIMTXSTY
  7
Standard
  9
$DIMAUNIT
 70
     0
  9
$DIMADEC
 70
     0
  9
$DIMALTRND
 40
0.0
  9
$DIMAZIN
 70
     0
  9
$DIMDSEP
 70
    44
  9
$DIMATFIT
 70
     3
  9
$DIMFRAC
 70
     0
  9
$DIMLDRBLK
  1

  9
$DIMLUNIT
 70
     2
  9
$DIMLWD
 70
    -2
  9
$DIMLWE
 70
    -2
  9
$DIMTMOVE
 70
     0
  9
$LUNITS
 70
     2
  9
$LUPREC
 70
     4
  9
$SKETCHINC
 40
1.0
  9
$FILLETRAD
 40
10.0
  9
$AUNITS
 70
     0
  9
$AUPREC
 70
     0
  9
$MENU
  1
.
  9
$ELEVATION
 40
0.0
  9
$PELEVATION
 40
0.0
  9
$THICKNESS
 40
0.0
  9
$LIMCHECK
 70
     0
  9
$CHAMFERA
 40
10.0
  9
$CHAMFERB
 40
10.0
  9
$CHAMFERC
 40
20.0
  9
$CHAMFERD
 40
0.0
  9
$SKPOLY
 70
     0
  9
$TDCREATE
 40
2455210.505449445
  9
$TDUCREATE
 40
2455210.463782778
  9
$TDUPDATE
 40
2455210.505449456
  9
$TDUUPDATE
 40
2455210.463782789
  9
$TDINDWG
 40
0.0000000116
  9
$TDUSRTIMER
 40
0.0000000116
  9
$USRTIMER
 70
     1
  9
$ANGBASE
 50
0.0
  9
$ANGDIR
 70
     0
  9
$PDMODE
 70
     0
  9
$PDSIZE
 40
0.0
  9
$PLINEWID
 40
0.0
  9
$SPLFRAME
 70
     0
  9
$SPLINETYPE
 70
     6
  9
$SPLINESEGS
 70
     8
  9
$HANDSEED
  5
F8
  9
$SURFTAB1
 70
     6
  9
$SURFTAB2
 70
     6
  9
$SURFTYPE
 70
     6
  9
$SURFU
 70
     6
  9
$SURFV
 70
     6
  9
$UCSBASE
  2

  9
$UCSNAME
  2

  9
$UCSORG
 10
0.0
 20
0.0
 30
0.0
  9
$UCSXDIR
 10
1.0
 20
0.0
 30
0.0
  9
$UCSYDIR
 10
0.0
 20
1.0
 30
0.0
  9
$UCSORTHOREF
  2

  9
$UCSORTHOVIEW
 70
     0
  9
$UCSORGTOP
 10
0.0
 20
0.0
 30
0.0
  9
$UCSORGBOTTOM
 10
0.0
 20
0.0
 30
0.0
  9
$UCSORGLEFT
 10
0.0
 20
0.0
 30
0.0
  9
$UCSORGRIGHT
 10
0.0
 20
0.0
 30
0.0
  9
$UCSORGFRONT
 10
0.0
 20
0.0
 30
0.0
  9
$UCSORGBACK
 10
0.0
 20
0.0
 30
0.0
  9
$PUCSBASE
  2

  9
$PUCSNAME
  2

  9
$PUCSORG
 10
0.0
 20
0.0
 30
0.0
  9
$PUCSXDIR
 10
1.0
 20
0.0
 30
0.0
  9
$PUCSYDIR
 10
0.0
 20
1.0
 30
0.0
  9
$PUCSORTHOREF
  2

  9
$PUCSORTHOVIEW
 70
     0
  9
$PUCSORGTOP
 10
0.0
 20
0.0
 30
0.0
  9
$PUCSORGBOTTOM
 10
0.0
 20
0.0
 30
0.0
  9
$PUCSORGLEFT
 10
0.0
 20
0.0
 30
0.0
  9
$PUCSORGRIGHT
 10
0.0
 20
0.0
 30
0.0
  9
$PUCSORGFRONT
 10
0.0
 20
0.0
 30
0.0
  9
$PUCSORGBACK
 10
0.0
 20
0.0
 30
0.0
  9
$USERI1
 70
     0
  9
$USERI2
 70
     0
  9
$USERI3
 70
     0
  9
$USERI4
 70
     0
  9
$USERI5
 70
     0
  9
$USERR1
 40
0.0
  9
$USERR2
 40
0.0
  9
$USERR3
 40
0.0
  9
$USERR4
 40
0.0
  9
$USERR5
 40
0.0
  9
$WORLDVIEW
 70
     1
  9
$SHADEDGE
 70
     3
  9
$SHADEDIF
 70
    70
  9
$TILEMODE
 70
     1
  9
$MAXACTVP
 70
    64
  9
$PINSBASE
 10
0.0
 20
0.0
 30
0.0
  9
$PLIMCHECK
 70
     0
  9
$PEXTMIN
 10
0.0
 20
0.0
 30
0.0
  9
$PEXTMAX
 10
1682.0
 20
2378.0
 30
0.0
  9
$PLIMMIN
 10
0.0
 20
0.0
  9
$PLIMMAX
 10
1682.0
 20
2378.0
  9
$UNITMODE
 70
     0
  9
$VISRETAIN
 70
     1
  9
$PLINEGEN
 70
     0
  9
$PSLTSCALE
 70
     1
  9
$TREEDEPTH
 70
  3020
  9
$CMLSTYLE
  2
Standard
  9
$CMLJUST
 70
     0
  9
$CMLSCALE
 40
20.0
  9
$PROXYGRAPHICS
 70
     1
  9
$MEASUREMENT
 70
     1
  9
$CELWEIGHT
370
    -1
  9
$ENDCAPS
280
     0
  9
$JOINSTYLE
280
     0
  9
$LWDISPLAY
290
     0
  9
$INSUNITS
 70
     4
  9
$HYPERLINKBASE
  1

  9
$STYLESHEET
  1

  9
$XEDIT
290
     1
  9
$CEPSNTYPE
380
     0
  9
$PSTYLEMODE
290
     1
  9
$FINGERPRINTGUID
  2
{DF485A33-5887-4C37-B7F7-403F24DD252A}
  9
$VERSIONGUID
  2
{FAEB1C32-E019-11D5-929B-00C0DF256EC4}
  9
$EXTNAMES
290
     1
  9
$PSVPSCALE
 40
0.0
  9
$OLESTARTUP
290
     0
  0
ENDSEC
  0
SECTION
  2
CLASSES
  0
CLASS
  1
ACDBDICTIONARYWDFLT
  2
AcDbDictionaryWithDefault
  3
ObjectDBX Classes
 90
        0
280
     0
281
     0
  0
CLASS
  1
VISUALSTYLE
  2
AcDbVisualStyle
  3
ObjectDBX Classes
 90
     4095
280
     0
281
     0
  0
CLASS
  1
SCALE
  2
AcDbScale
  3
ObjectDBX Classes
 90
     1153
280
     0
281
     0
  0
CLASS
  1
DICTIONARYVAR
  2
AcDbDictionaryVar
  3
ObjectDBX Classes
 90
        0
280
     0
281
     0
  0
CLASS
  1
ACDBPLACEHOLDER
  2
AcDbPlaceHolder
  3
ObjectDBX Classes
 90
        0
280
     0
281
     0
  0
CLASS
  1
LAYOUT
  2
AcDbLayout
  3
ObjectDBX Classes
 90
        0
280
     0
281
     0
  0
ENDSEC
  0
SECTION
  2
TABLES
  0
TABLE
  2
VPORT
  5
8
330
0
100
AcDbSymbolTable
 70
     1
  0
VPORT
  5
29
330
8
100
AcDbSymbolTableRecord
100
AcDbViewportTableRecord
  2
*Active
 70
     0
 10
0.0
 20
0.0
 11
1.0
 21
1.0
 12
344.1869158879
 22
148.5
 13
0.0
 23
0.0
 14
10.0
 24
10.0
 15
10.0
 25
10.0
 16
0.0
 26
0.0
 36
1.0
 17
0.0
 27
0.0
 37
0.0
 40
297.0
 41
1.9729729729
 42
50.0
 43
0.0
 44
0.0
 50
0.0
 51
0.0
 71
     0
 72
   100
 73
     1
 74
     3
 75
     0
 76
     0
 77
     0
 78
     0
281
     0
 65
     1
110
0.0
120
0.0
130
0.0
111
1.0
121
0.0
131
0.0
112
0.0
122
1.0
132
0.0
 79
     0
146
0.0
  0
ENDTAB
  0
TABLE
  2
LTYPE
  5
5
330
0
100
AcDbSymbolTable
 70
     2
  0
LTYPE
  5
14
330
5
100
AcDbSymbolTableRecord
100
AcDbLinetypeTableRecord
  2
ByBlock
 70
     0
  3

 72
    65
 73
     0
 40
0.0
  0
LTYPE
  5
15
330
5
100
AcDbSymbolTableRecord
100
AcDbLinetypeTableRecord
  2
ByLayer
 70
     0
  3

 72
    65
 73
     0
 40
0.0
  0
LTYPE
  5
16
330
5
100
AcDbSymbolTableRecord
100
AcDbLinetypeTableRecord
  2
Continuous
 70
     0
  3
Solid line
 72
    65
 73
     0
 40
0.0
  0
LTYPE
  5
60
330
5
100
AcDbSymbolTableRecord
100
AcDbLinetypeTableRecord
  2
CENTER2
 70
     0
  3
Center (.5x) ___ _ ___ _ ___ _ ___ _ ___ _ ___
 72
    65
 73
     4
 40
28.575
 49
19.05
 74
     4
 75
     0
340
0
 46
0.0
 50
0.0
 44
0.0
 45
0.0
 49
-3.175
 74
     4
 75
     0
340
0
 46
0.0
 50
0.0
 44
0.0
 45
0.0
 49
3.175
 74
     4
 75
     0
340
0
 46
0.0
 50
0.0
 44
0.0
 45
0.0
 49
-3.175
 74
     4
 75
     0
340
0
 46
0.0
 50
0.0
 44
0.0
 45
0.0
  0
ENDTAB
  0
TABLE
  2
LAYER
  5
2
330
0
100
AcDbSymbolTable
 70
     6
  0
LAYER
  5
10
330
2
100
AcDbSymbolTableRecord
100
AcDbLayerTableRecord
  2
0
 70
     0
 62
     7
  6
Continuous
370
    -3
390
F
  0
LAYER
  5
5D
330
2
100
AcDbSymbolTableRecord
100
AcDbLayerTableRecord
  2
Default
 70
     0
 62
     7
  6
Continuous
370
    -3
390
F
  0
LAYER
  5
75
330
2
100
AcDbSymbolTableRecord
100
AcDbLayerTableRecord
  2
$DDT_AUDIT_GENERATED_(75)
 70
     0
 62
     7
  6
Continuous
370
    -3
390
F
  0
LAYER
  5
9A
330
2
100
AcDbSymbolTableRecord
100
AcDbLayerTableRecord
  2
$DDT_AUDIT_GENERATED_(9A)
 70
     0
 62
     7
  6
Continuous
370
    -3
390
F
  0
LAYER
  5
A3
330
2
100
AcDbSymbolTableRecord
100
AcDbLayerTableRecord
  2
$DDT_AUDIT_GENERATED_(A3)
 70
     0
 62
     7
  6
Continuous
370
    -3
390
F
  0
LAYER
  5
C2
330
2
100
AcDbSymbolTableRecord
100
AcDbLayerTableRecord
  2
DV2_Standard
 70
     0
 62
     7
  6
Continuous
370
    -3
390
F
  0
ENDTAB
  0
TABLE
  2
STYLE
  5
3
330
0
100
AcDbSymbolTable
 70
     2
  0
STYLE
  5
11
330
3
100
AcDbSymbolTableRecord
100
AcDbTextStyleTableRecord
  2
Standard
 70
     0
 40
0.0
 41
1.0
 50
0.0
 71
     0
 42
2.5
  3
txt
  4

  0
STYLE
  5
E7
330
3
100
AcDbSymbolTableRecord
100
AcDbTextStyleTableRecord
  2
SEACAD_seiso_ttf
 70
     0
 40
0.0
 41
1.0
 50
0.0
 71
     0
 42
0.2
  3
seiso.ttf
  4

  0
ENDTAB
  0
TABLE
  2
VIEW
  5
6
330
0
100
AcDbSymbolTable
 70
     0
  0
ENDTAB
  0
TABLE
  2
UCS
  5
7
330
0
100
AcDbSymbolTable
 70
     0
  0
ENDTAB
  0
TABLE
  2
APPID
  5
9
330
0
100
AcDbSymbolTable
 70
     1
  0
APPID
  5
12
330
9
100
AcDbSymbolTableRecord
100
AcDbRegAppTableRecord
  2
ACAD
 70
     0
  0
ENDTAB
  0
TABLE
  2
DIMSTYLE
  5
A
330
0
100
AcDbSymbolTable
 70
     1
100
AcDbDimStyleTable
  0
DIMSTYLE
105
27
330
A
100
AcDbSymbolTableRecord
100
AcDbDimStyleTableRecord
  2
ISO-25
 70
     0
 41
2.5
 42
0.625
 43
3.75
 44
1.25
 73
     0
 74
     0
 77
     1
 78
     8
140
2.5
141
2.5
143
0.0393700787
147
0.625
171
     3
172
     1
271
     2
272
     2
274
     3
278
    44
283
     0
284
     8
340
11
  0
ENDTAB
  0
TABLE
  2
BLOCK_RECORD
  5
1
330
0
100
AcDbSymbolTable
 70
     8
  0
BLOCK_RECORD
  5
1F
330
1
100
AcDbSymbolTableRecord
100
AcDbBlockTableRecord
  2
*Model_Space
340
22
  0
BLOCK_RECORD
  5
1B
330
1
100
AcDbSymbolTableRecord
100
AcDbBlockTableRecord
  2
*Paper_Space
340
1E
  0
BLOCK_RECORD
  5
5E
330
1
100
AcDbSymbolTableRecord
100
AcDbBlockTableRecord
  2
SEANNOT_GROUP
340
0
102
{BLKREFS
331
5F
102
}
  0
BLOCK_RECORD
  5
64
330
1
100
AcDbSymbolTableRecord
100
AcDbBlockTableRecord
  2
SEANNOT_GROUP1
340
0
102
{BLKREFS
331
65
102
}
  0
BLOCK_RECORD
  5
69
330
1
100
AcDbSymbolTableRecord
100
AcDbBlockTableRecord
  2
SEANNOT_GROUP2
340
0
102
{BLKREFS
331
6A
102
}
  0
BLOCK_RECORD
  5
6E
330
1
100
AcDbSymbolTableRecord
100
AcDbBlockTableRecord
  2
SEANNOT_GROUP3
340
0
102
{BLKREFS
331
6F
102
}
  0
BLOCK_RECORD
  5
73
330
1
100
AcDbSymbolTableRecord
100
AcDbBlockTableRecord
  2
SE
340
0
102
{BLKREFS
331
74
102
}
  0
BLOCK_RECORD
  5
AE
330
1
100
AcDbSymbolTableRecord
100
AcDbBlockTableRecord
  2
SE1
340
0
102
{BLKREFS
331
AF
102
}
  0
BLOCK_RECORD
  5
C6
330
1
100
AcDbSymbolTableRecord
100
AcDbBlockTableRecord
  2
SE2
340
0
102
{BLKREFS
331
C7
102
}
  0
ENDTAB
  0
ENDSEC
  0
SECTION
  2
BLOCKS
  0
BLOCK
  5
20
330
1F
100
AcDbEntity
  8
0
100
AcDbBlockBegin
  2
*Model_Space
 70
     0
 10
0.0
 20
0.0
 30
0.0
  3
*Model_Space
  1

  0
ENDBLK
  5
21
330
1F
100
AcDbEntity
  8
0
100
AcDbBlockEnd
  0
BLOCK
  5
1C
330
1B
100
AcDbEntity
 67
     1
  8
0
100
AcDbBlockBegin
  2
*Paper_Space
 70
     0
 10
0.0
 20
0.0
 30
0.0
  3
*Paper_Space
  1

  0
ENDBLK
  5
1D
330
1B
100
AcDbEntity
 67
     1
  8
0
100
AcDbBlockEnd
  0
BLOCK
  5
62
330
5E
100
AcDbEntity
  8
0
100
AcDbBlockBegin
  2
SEANNOT_GROUP
 70
     0
 10
0.0
 20
0.0
 30
0.0
  3
SEANNOT_GROUP
  1

  0
LINE
  5
61
330
5E
100
AcDbEntity
  8
Default
  6
CENTER2
 62
     7
100
AcDbLine
 10
104.85
 20
255.8929930252
 30
0.0
 11
104.85
 21
418.8929930252
 31
0.0
  0
ENDBLK
  5
63
330
5E
100
AcDbEntity
  8
0
100
AcDbBlockEnd
  0
BLOCK
  5
67
330
64
100
AcDbEntity
  8
0
100
AcDbBlockBegin
  2
SEANNOT_GROUP1
 70
     0
 10
0.0
 20
0.0
 30
0.0
  3
SEANNOT_GROUP1
  1

  0
LINE
  5
66
330
64
100
AcDbEntity
  8
Default
  6
CENTER2
 62
     7
100
AcDbLine
 10
2.85
 20
337.3929930252
 30
0.0
 11
206.85
 21
337.3929930252
 31
0.0
  0
ENDBLK
  5
68
330
64
100
AcDbEntity
  8
0
100
AcDbBlockEnd
  0
BLOCK
  5
6C
330
69
100
AcDbEntity
  8
0
100
AcDbBlockBegin
  2
SEANNOT_GROUP2
 70
     0
 10
0.0
 20
0.0
 30
0.0
  3
SEANNOT_GROUP2
  1

  0
LINE
  5
6B
330
69
100
AcDbEntity
  8
Default
  6
CENTER2
 62
     7
100
AcDbLine
 10
276.0296903649
 20
337.3930204955
 30
0.0
 11
294.7088137373
 21
337.3928738892
 31
0.0
  0
ENDBLK
  5
6D
330
69
100
AcDbEntity
  8
0
100
AcDbBlockEnd
  0
BLOCK
  5
71
330
6E
100
AcDbEntity
  8
0
100
AcDbBlockBegin
  2
SEANNOT_GROUP3
 70
     0
 10
0.0
 20
0.0
 30
0.0
  3
SEANNOT_GROUP3
  1

  0
LINE
  5
70
330
6E
100
AcDbEntity
  8
Default
  6
CENTER2
 62
     7
100
AcDbLine
 10
104.8532169097
 20
179.9343653161
 30
0.0
 11
104.83604243
 21
161.2485270802
 31
0.0
  0
ENDBLK
  5
72
330
6E
100
AcDbEntity
  8
0
100
AcDbBlockEnd
  0
BLOCK
  5
AC
330
73
100
AcDbEntity
  8
0
100
AcDbBlockBegin
  2
SE
 70
     0
 10
0.0
 20
0.0
 30
0.0
  3
SE
  1

  0
LINE
  5
76
330
73
100
AcDbEntity
  8
$DDT_AUDIT_GENERATED_(75)
  6
Continuous
 62
     7
100
AcDbLine
 10
199.3506092194
 20
415.3929930252
 30
0.0
 11
10.3493907806
 21
415.3929930252
 31
0.0
  0
ELLIPSE
  5
77
330
73
100
AcDbEntity
  8
$DDT_AUDIT_GENERATED_(75)
  6
Continuous
 62
     7
100
AcDbEllipse
 10
199.3493906878
 20
411.392383713
 30
0.0
 11
-2.829288756678322
 21
-2.829288756678325
 31
0.0
210
0.0
220
0.0
230
1.0
 40
0.9996954599
 41
2.35634678343991
 42
3.926838523739668
  0
LINE
  5
78
330
73
100
AcDbEntity
  8
$DDT_AUDIT_GENERATED_(75)
  6
Continuous
 62
     7
100
AcDbLine
 10
10.3493907806
 20
259.3929930252
 30
0.0
 11
199.3506092194
 21
259.3929930252
 31
0.0
  0
ELLIPSE
  5
79
330
73
100
AcDbEntity
  8
$DDT_AUDIT_GENERATED_(75)
  6
Continuous
 62
     7
100
AcDbEllipse
 10
10.3506093122
 20
263.3936023373
 30
0.0
 11
2.829288756678325
 21
2.829288756678321
 31
0.0
210
0.0
220
0.0
230
1.0
 40
0.9996954599
 41
2.356346783439916
 42
3.926838523739646
  0
LINE
  5
7A
330
73
100
AcDbEntity
  8
$DDT_AUDIT_GENERATED_(75)
  6
Continuous
 62
     7
100
AcDbLine
 10
6.35
 20
411.3936022445
 30
0.0
 11
6.35
 21
263.3923838058
 31
0.0
  0
ELLIPSE
  5
7B
330
73
100
AcDbEntity
  8
$DDT_AUDIT_GENERATED_(75)
  6
Continuous
 62
     7
100
AcDbEllipse
 10
10.3506093122
 20
411.392383713
 30
0.0
 11
2.829288756678323
 21
-2.829288756678324
 31
0.0
210
0.0
220
0.0
230
1.0
 40
0.9996954599
 41
2.356346783439919
 42
3.926838523739657
  0
LINE
  5
7C
330
73
100
AcDbEntity
  8
$DDT_AUDIT_GENERATED_(75)
  6
Continuous
 62
     7
100
AcDbLine
 10
203.35
 20
263.3923838058
 30
0.0
 11
203.35
 21
411.3936022445
 31
0.0
  0
ELLIPSE
  5
7D
330
73
100
AcDbEntity
  8
$DDT_AUDIT_GENERATED_(75)
  6
Continuous
 62
     7
100
AcDbEllipse
 10
199.3493906878
 20
263.3936023373
 30
0.0
 11
-2.829288756678323
 21
2.829288756678324
 31
0.0
210
0.0
220
0.0
230
1.0
 40
0.9996954599
 41
2.356346783439932
 42
3.926838523739654
  0
LINE
  5
7E
330
73
100
AcDbEntity
  8
$DDT_AUDIT_GENERATED_(75)
  6
Continuous
 62
     7
100
AcDbLine
 10
130.35
 20
365.3929930252
 30
0.0
 11
79.35
 21
365.3929930252
 31
0.0
  0
ARC
  5
7F
330
73
100
AcDbEntity
  8
$DDT_AUDIT_GENERATED_(75)
  6
Continuous
 62
     7
100
AcDbCircle
 10
79.35
 20
337.3929930252
 30
0.0
 40
28.0
100
AcDbArc
 50
90.0
 51
121.375781151
  0
LINE
  5
80
330
73
100
AcDbEntity
  8
$DDT_AUDIT_GENERATED_(75)
  6
Continuous
 62
     7
100
AcDbLine
 10
79.35
 20
309.3929930252
 30
0.0
 11
130.35
 21
309.3929930252
 31
0.0
  0
ARC
  5
81
330
73
100
AcDbEntity
  8
$DDT_AUDIT_GENERATED_(75)
  6
Continuous
 62
     7
100
AcDbCircle
 10
130.35
 20
337.3929930252
 30
0.0
 40
27.99999999999999
100
AcDbArc
 50
270.0
 51
290.1225839069
  0
ARC
  5
82
330
73
100
AcDbEntity
  8
$DDT_AUDIT_GENERATED_(75)
  6
Continuous
 62
     7
100
AcDbCircle
 10
79.35
 20
337.3929930252
 30
0.0
 40
27.97992896835374
100
AcDbArc
 50
122.6163796177
 51
147.3836203823
  0
ARC
  5
83
330
73
100
AcDbEntity
  8
$DDT_AUDIT_GENERATED_(75)
  6
Continuous
 62
     7
100
AcDbCircle
 10
83.1671733235
 20
340.1109422556
 30
0.0
 40
28.14003695458822
100
AcDbArc
 50
131.9951019672
 51
132.1902091184
  0
ARC
  5
84
330
73
100
AcDbEntity
  8
$DDT_AUDIT_GENERATED_(75)
  6
Continuous
 62
     7
100
AcDbCircle
 10
76.6320507688
 20
333.5758197024
 30
0.0
 40
28.14003695349908
100
AcDbArc
 50
137.8097908816
 51
138.0048980328
  0
ARC
  5
85
330
73
100
AcDbEntity
  8
$DDT_AUDIT_GENERATED_(75)
  6
Continuous
 62
     7
100
AcDbCircle
 10
130.35
 20
337.3929930252
 30
0.0
 40
27.97992896835374
100
AcDbArc
 50
35.3851989335
 51
68.6148010665
  0
ARC
  5
86
330
73
100
AcDbEntity
  8
$DDT_AUDIT_GENERATED_(75)
  6
Continuous
 62
     7
100
AcDbCircle
 10
79.35
 20
337.3929930252
 30
0.0
 40
28.0
100
AcDbArc
 50
148.624218849
 51
211.375781151
  0
ARC
  5
87
330
73
100
AcDbEntity
  8
$DDT_AUDIT_GENERATED_(75)
  6
Continuous
 62
     7
100
AcDbCircle
 10
70.222122091
 20
352.2198189069
 30
0.0
 40
10.58912359337092
100
AcDbArc
 50
120.977823172
 51
123.746870694
  0
ARC
  5
88
330
73
100
AcDbEntity
  8
$DDT_AUDIT_GENERATED_(75)
  6
Continuous
 62
     7
100
AcDbCircle
 10
64.5278236347
 20
346.5179245457
 30
0.0
 40
10.59462645888251
100
AcDbArc
 50
146.2538485697
 51
149.0214575643
  0
ARC
  5
89
330
73
100
AcDbEntity
  8
$DDT_AUDIT_GENERATED_(75)
  6
Continuous
 62
     7
100
AcDbCircle
 10
133.4845699794
 20
333.9895432516
 30
0.0
 40
27.77706489458401
100
AcDbArc
 50
44.6974257578
 51
44.8963983334
  0
ARC
  5
8A
330
73
100
AcDbEntity
  8
$DDT_AUDIT_GENERATED_(75)
  6
Continuous
 62
     7
100
AcDbCircle
 10
130.35
 20
337.3929930252
 30
0.0
 40
28.0
100
AcDbArc
 50
69.8774160931
 51
90.0
  0
ARC
  5
8B
330
73
100
AcDbEntity
  8
$DDT_AUDIT_GENERATED_(75)
  6
Continuous
 62
     7
100
AcDbCircle
 10
126.2893261189
 20
339.6110838592
 30
0.0
 40
27.77706489444012
100
AcDbArc
 50
59.1036016666
 51
59.3025742422
  0
ARC
  5
8C
330
73
100
AcDbEntity
  8
$DDT_AUDIT_GENERATED_(75)
  6
Continuous
 62
     7
100
AcDbCircle
 10
144.4831748189
 20
347.0586212747
 30
0.0
 40
10.87816758058836
100
AcDbArc
 50
33.7361614576
 51
36.484887046
  0
ARC
  5
8D
330
73
100
AcDbEntity
  8
$DDT_AUDIT_GENERATED_(75)
  6
Continuous
 62
     7
100
AcDbCircle
 10
136.3072353893
 20
353.439089858
 30
0.0
 40
10.88415736450535
100
AcDbArc
 50
67.5158694402
 51
70.2630820563
  0
ARC
  5
8E
330
73
100
AcDbEntity
  8
$DDT_AUDIT_GENERATED_(75)
  6
Continuous
 62
     7
100
AcDbCircle
 10
79.35
 20
337.3929930252
 30
0.0
 40
27.97992896835374
100
AcDbArc
 50
212.6163796177
 51
237.3836203823
  0
ARC
  5
8F
330
73
100
AcDbEntity
  8
$DDT_AUDIT_GENERATED_(75)
  6
Continuous
 62
     7
100
AcDbCircle
 10
130.35
 20
337.3929930252
 30
0.0
 40
27.97992896835374
100
AcDbArc
 50
291.3851989335
 51
324.6148010665
  0
ARC
  5
90
330
73
100
AcDbEntity
  8
$DDT_AUDIT_GENERATED_(75)
  6
Continuous
 62
     7
100
AcDbCircle
 10
126.2893261192
 20
335.1749021905
 30
0.0
 40
27.77706489267696
100
AcDbArc
 50
300.6974257578
 51
300.8963983334
  0
ARC
  5
91
330
73
100
AcDbEntity
  8
$DDT_AUDIT_GENERATED_(75)
  6
Continuous
 62
     7
100
AcDbCircle
 10
133.4845699797
 20
340.7964427985
 30
0.0
 40
27.77706489321663
100
AcDbArc
 50
315.1036016666
 51
315.3025742422
  0
ARC
  5
92
330
73
100
AcDbEntity
  8
$DDT_AUDIT_GENERATED_(75)
  6
Continuous
 62
     7
100
AcDbCircle
 10
79.35
 20
337.3929930252
 30
0.0
 40
28.0
100
AcDbArc
 50
238.624218849
 51
270.0
  0
ARC
  5
93
330
73
100
AcDbEntity
  8
$DDT_AUDIT_GENERATED_(75)
  6
Continuous
 62
     7
100
AcDbCircle
 10
83.167173323
 20
334.6750437942
 30
0.0
 40
28.14003695422386
100
AcDbArc
 50
227.8097908816
 51
228.0048980328
  0
ARC
  5
94
330
73
100
AcDbEntity
  8
$DDT_AUDIT_GENERATED_(75)
  6
Continuous
 62
     7
100
AcDbCircle
 10
76.632050768
 20
341.2101663472
 30
0.0
 40
28.14003695286579
100
AcDbArc
 50
221.9951019672
 51
222.1902091184
  0
ARC
  5
95
330
73
100
AcDbEntity
  8
$DDT_AUDIT_GENERATED_(75)
  6
Continuous
 62
     7
100
AcDbCircle
 10
70.2250684795
 20
322.5708166598
 30
0.0
 40
10.59462645886765
100
AcDbArc
 50
236.2538485697
 51
239.0214575643
  0
ARC
  5
96
330
73
100
AcDbEntity
  8
$DDT_AUDIT_GENERATED_(75)
  6
Continuous
 62
     7
100
AcDbCircle
 10
64.5231741183
 20
328.2651151161
 30
0.0
 40
10.58912359339432
100
AcDbArc
 50
210.977823172
 51
213.746870694
  0
ARC
  5
97
330
73
100
AcDbEntity
  8
$DDT_AUDIT_GENERATED_(75)
  6
Continuous
 62
     7
100
AcDbCircle
 10
130.35
 20
337.3929930252
 30
0.0
 40
28.0
100
AcDbArc
 50
325.877416093
 51
34.1225839069
  0
ARC
  5
98
330
73
100
AcDbEntity
  8
$DDT_AUDIT_GENERATED_(75)
  6
Continuous
 62
     7
100
AcDbCircle
 10
144.4782735024
 20
327.7308108237
 30
0.0
 40
10.88415736452014
100
AcDbArc
 50
323.5158694402
 51
326.2630820563
  0
ARC
  5
99
330
73
100
AcDbEntity
  8
$DDT_AUDIT_GENERATED_(75)
  6
Continuous
 62
     7
100
AcDbCircle
 10
136.3093933393
 20
321.3413067913
 30
0.0
 40
10.87816758056822
100
AcDbArc
 50
289.7361614576
 51
292.484887046
  0
LINE
  5
9B
330
73
100
AcDbEntity
  8
$DDT_AUDIT_GENERATED_(9A)
  6
Continuous
 62
     7
100
AcDbLine
 10
79.35
 20
310.0929930252
 30
0.0
 11
124.4500456915
 21
310.0929930252
 31
0.0
  0
ARC
  5
9C
330
73
100
AcDbEntity
  8
$DDT_AUDIT_GENERATED_(9A)
  6
Continuous
 62
     7
100
AcDbCircle
 10
79.35
 20
337.3929930252
 30
0.0
 40
27.3
100
AcDbArc
 50
90.0
 51
175.8208884468
  0
LINE
  5
9D
330
73
100
AcDbEntity
  8
$DDT_AUDIT_GENERATED_(9A)
  6
Continuous
 62
     7
100
AcDbLine
 10
124.75
 20
310.3929473337
 30
0.0
 11
124.75
 21
364.3930387166
 31
0.0
  0
LINE
  5
9E
330
73
100
AcDbEntity
  8
$DDT_AUDIT_GENERATED_(9A)
  6
Continuous
 62
     7
100
AcDbLine
 10
124.4500456915
 20
364.6929930252
 30
0.0
 11
79.35
 21
364.6929930252
 31
0.0
  0
ELLIPSE
  5
9F
330
73
100
AcDbEntity
  8
$DDT_AUDIT_GENERATED_(9A)
  6
Continuous
 62
     7
100
AcDbEllipse
 10
124.4499543016
 20
364.3929473267
 30
0.0
 11
-0.2121966567508742
 21
-0.2121966567508742
 31
0.0
210
0.0
220
0.0
230
0.9999999999999998
 40
0.9996954599
 41
2.356346783439785
 42
3.926838523739659
  0
ELLIPSE
  5
A0
330
73
100
AcDbEntity
  8
$DDT_AUDIT_GENERATED_(9A)
  6
Continuous
 62
     7
100
AcDbEllipse
 10
124.4499543016
 20
310.3930387236
 30
0.0
 11
-0.2121966567508743
 21
0.2121966567508742
 31
0.0
210
0.0
220
0.0
230
1.0
 40
0.9996954599
 41
2.356346783440117
 42
3.926838523739611
  0
ARC
  5
A1
330
73
100
AcDbEntity
  8
$DDT_AUDIT_GENERATED_(9A)
  6
Continuous
 62
     7
100
AcDbCircle
 10
79.35
 20
337.3929930252
 30
0.0
 40
27.29999999999999
100
AcDbArc
 50
175.8208884468
 51
184.1791115532
  0
ARC
  5
A2
330
73
100
AcDbEntity
  8
$DDT_AUDIT_GENERATED_(9A)
  6
Continuous
 62
     7
100
AcDbCircle
 10
79.35
 20
337.3929930252
 30
0.0
 40
27.29999999999999
100
AcDbArc
 50
184.1791115532
 51
270.0
  0
ARC
  5
A4
330
73
100
AcDbEntity
  8
$DDT_AUDIT_GENERATED_(A3)
  6
Continuous
 62
     7
100
AcDbCircle
 10
130.35
 20
337.3929930252
 30
0.0
 40
27.30000000000001
100
AcDbArc
 50
270.0
 51
355.8208884468
  0
LINE
  5
A5
330
73
100
AcDbEntity
  8
$DDT_AUDIT_GENERATED_(A3)
  6
Continuous
 62
     7
100
AcDbLine
 10
130.35
 20
364.6929930252
 30
0.0
 11
125.7499543085
 21
364.6929930252
 31
0.0
  0
LINE
  5
A6
330
73
100
AcDbEntity
  8
$DDT_AUDIT_GENERATED_(A3)
  6
Continuous
 62
     7
100
AcDbLine
 10
125.45
 20
364.3930387166
 30
0.0
 11
125.45
 21
310.3929473337
 31
0.0
  0
LINE
  5
A7
330
73
100
AcDbEntity
  8
$DDT_AUDIT_GENERATED_(A3)
  6
Continuous
 62
     7
100
AcDbLine
 10
125.7499543085
 20
310.0929930252
 30
0.0
 11
130.35
 21
310.0929930252
 31
0.0
  0
ELLIPSE
  5
A8
330
73
100
AcDbEntity
  8
$DDT_AUDIT_GENERATED_(A3)
  6
Continuous
 62
     7
100
AcDbEllipse
 10
125.7500456984
 20
310.3930387236
 30
0.0
 11
0.2121966567508744
 21
0.212196656750874
 31
0.0
210
0.0
220
0.0
230
1.0
 40
0.9996954599
 41
2.356346783440117
 42
3.926838523739423
  0
ELLIPSE
  5
A9
330
73
100
AcDbEntity
  8
$DDT_AUDIT_GENERATED_(A3)
  6
Continuous
 62
     7
100
AcDbEllipse
 10
125.7500456984
 20
364.3929473267
 30
0.0
 11
0.2121966567508743
 21
-0.2121966567508741
 31
0.0
210
0.0
220
0.0
230
1.0
 40
0.9996954599
 41
2.3563467834395
 42
3.926838523739658
  0
ARC
  5
AA
330
73
100
AcDbEntity
  8
$DDT_AUDIT_GENERATED_(A3)
  6
Continuous
 62
     7
100
AcDbCircle
 10
130.35
 20
337.3929930252
 30
0.0
 40
27.30000000000001
100
AcDbArc
 50
355.8208884468
 51
4.1791115532
  0
ARC
  5
AB
330
73
100
AcDbEntity
  8
$DDT_AUDIT_GENERATED_(A3)
  6
Continuous
 62
     7
100
AcDbCircle
 10
130.35
 20
337.3929930252
 30
0.0
 40
27.30000000000001
100
AcDbArc
 50
4.1791115532
 51
90.0
  0
ENDBLK
  5
AD
330
73
100
AcDbEntity
  8
0
100
AcDbBlockEnd
  0
BLOCK
  5
C4
330
AE
100
AcDbEntity
  8
0
100
AcDbBlockBegin
  2
SE1
 70
     0
 10
0.0
 20
0.0
 30
0.0
  3
SE1
  1

  0
LINE
  5
B0
330
AE
100
AcDbEntity
  8
$DDT_AUDIT_GENERATED_(75)
  6
Continuous
 62
     7
100
AcDbLine
 10
279.5296903648
 20
259.3929930252
 30
0.0
 11
279.5296903648
 21
263.3923838058
 31
0.0
  0
LINE
  5
B1
330
AE
100
AcDbEntity
  8
$DDT_AUDIT_GENERATED_(75)
  6
Continuous
 62
     7
100
AcDbLine
 10
279.5296903648
 20
411.3936022445
 30
0.0
 11
279.5296903648
 21
263.3923838058
 31
0.0
  0
LINE
  5
B2
330
AE
100
AcDbEntity
  8
$DDT_AUDIT_GENERATED_(75)
  6
Continuous
 62
     7
100
AcDbLine
 10
279.5296903648
 20
411.3936022445
 30
0.0
 11
279.5296903648
 21
415.3929930252
 31
0.0
  0
LINE
  5
B3
330
AE
100
AcDbEntity
  8
$DDT_AUDIT_GENERATED_(75)
  6
Continuous
 62
     7
100
AcDbLine
 10
279.5296903648
 20
415.3929930252
 30
0.0
 11
287.1207128702
 21
415.2604912345
 31
0.0
  0
LINE
  5
B4
330
AE
100
AcDbEntity
  8
$DDT_AUDIT_GENERATED_(75)
  6
Continuous
 62
     7
100
AcDbLine
 10
287.1207128702
 20
259.5254948159
 30
0.0
 11
279.5296903648
 21
259.3929930252
 31
0.0
  0
LINE
  5
B5
330
AE
100
AcDbEntity
  8
$DDT_AUDIT_GENERATED_(75)
  6
Continuous
 62
     7
100
AcDbLine
 10
287.9735009929
 20
259.5403802879
 30
0.0
 11
287.1207128702
 21
259.5254948159
 31
0.0
  0
LINE
  5
B6
330
AE
100
AcDbEntity
  8
$DDT_AUDIT_GENERATED_(75)
  6
Continuous
 62
     7
100
AcDbLine
 10
287.1207128702
 20
415.2604912345
 30
0.0
 11
287.9735009929
 21
415.2456057624
 31
0.0
  0
ARC
  5
B7
330
AE
100
AcDbEntity
  8
$DDT_AUDIT_GENERATED_(75)
  6
Continuous
 62
     7
100
AcDbCircle
 10
-4883.7785431374
 20
337.9438055735
 30
0.0
 40
5174.071153859037
100
AcDbArc
 50
0.3502927507
 51
0.8364082091
  0
ARC
  5
B8
330
AE
100
AcDbEntity
  8
$DDT_AUDIT_GENERATED_(75)
  6
Continuous
 62
     7
100
AcDbCircle
 10
-4906.8142097711
 20
337.0978546997
 30
0.0
 40
5197.108199717463
100
AcDbArc
 50
359.1644805466
 51
359.6484412336
  0
ARC
  5
B9
330
AE
100
AcDbEntity
  8
$DDT_AUDIT_GENERATED_(75)
  6
Continuous
 62
     7
100
AcDbCircle
 10
287.9420170562
 20
261.3401049242
 30
0.0
 40
1.799999999999999
100
AcDbArc
 50
271.0
 51
359.0429865059
  0
ARC
  5
BA
330
AE
100
AcDbEntity
  8
$DDT_AUDIT_GENERATED_(75)
  6
Continuous
 62
     7
100
AcDbCircle
 10
287.9420170562
 20
413.4458811261
 30
0.0
 40
1.8
100
AcDbArc
 50
0.8992633355
 51
89.0
  0
LINE
  5
BB
330
AE
100
AcDbEntity
  8
$DDT_AUDIT_GENERATED_(9A)
  6
Continuous
 62
     7
100
AcDbLine
 10
290.3984667604
 20
310.1985748099
 30
0.0
 11
290.0308926363
 21
310.1921587797
 31
0.0
  0
LINE
  5
BC
330
AE
100
AcDbEntity
  8
$DDT_AUDIT_GENERATED_(9A)
  6
Continuous
 62
     7
100
AcDbLine
 10
290.3984667604
 20
364.5874112404
 30
0.0
 11
290.0305832389
 21
364.5938326712
 31
0.0
  0
LINE
  5
BD
330
AE
100
AcDbEntity
  8
$DDT_AUDIT_GENERATED_(9A)
  6
Continuous
 62
     7
100
AcDbLine
 10
290.3984667604
 20
364.5874112404
 30
0.0
 11
290.4606089693
 21
364.5863265441
 31
0.0
  0
LINE
  5
BE
330
AE
100
AcDbEntity
  8
$DDT_AUDIT_GENERATED_(9A)
  6
Continuous
 62
     7
100
AcDbLine
 10
290.4606089693
 20
310.1996595062
 30
0.0
 11
290.3984667604
 21
310.1985748099
 31
0.0
  0
ARC
  5
BF
330
AE
100
AcDbEntity
  8
$DDT_AUDIT_GENERATED_(9A)
  6
Continuous
 62
     7
100
AcDbCircle
 10
-4900.4629629722
 20
337.3776710881
 30
0.0
 40
5191.671776731946
100
AcDbArc
 50
359.707740677
 51
0.2925954884
  0
ARC
  5
C0
330
AE
100
AcDbEntity
  8
$DDT_AUDIT_GENERATED_(9A)
  6
Continuous
 62
     7
100
AcDbCircle
 10
290.4483916588
 20
363.8864331685
 30
0.0
 40
0.6999999999999978
100
AcDbArc
 50
0.4264468133
 51
88.9992864514
  0
ARC
  5
C1
330
AE
100
AcDbEntity
  8
$DDT_AUDIT_GENERATED_(9A)
  6
Continuous
 62
     7
100
AcDbCircle
 10
290.4483916588
 20
310.8995528819
 30
0.0
 40
0.6999999999999343
100
AcDbArc
 50
271.0007135486
 51
359.7983213634
  0
LINE
  5
C3
330
AE
100
AcDbEntity
  8
DV2_Standard
  6
Continuous
 62
     7
100
AcDbLine
 10
290.1961579312
 20
305.2093369346
 30
0.0
 11
290.19591259
 21
369.5766473184
 31
0.0
  0
ENDBLK
  5
C5
330
AE
100
AcDbEntity
  8
0
100
AcDbBlockEnd
  0
BLOCK
  5
E5
330
C6
100
AcDbEntity
  8
0
100
AcDbBlockBegin
  2
SE2
 70
     0
 10
0.0
 20
0.0
 30
0.0
  3
SE2
  1

  0
SPLINE
  5
C8
330
C6
100
AcDbEntity
  8
$DDT_AUDIT_GENERATED_(75)
  6
Continuous
 62
     7
100
AcDbSpline
210
0.0
220
0.0
230
1.0
 70
     8
 71
     3
 72
    25
 73
    21
 74
     0
 42
0.0000000001553028
 43
0.0000000001
 40
0.50000389376534
 40
0.50000389376534
 40
0.50000389376534
 40
0.50000389376534
 40
0.5000081888652121
 40
0.5312647275107565
 40
0.5625184518195776
 40
0.5937662685936378
 40
0.6250079467648522
 40
0.6562501478855626
 40
0.6874940286899256
 40
0.718737663882393
 40
0.7499873499852504
 40
0.781244463348748
 40
0.8125008179475857
 40
0.8437520053957648
 40
0.8750011624573082
 40
0.9062495708992111
 40
0.921879083367094
 40
0.9375046280800527
 40
0.9687604647789639
 40
1.0
 40
1.0
 40
1.0
 40
1.0
 10
47.13905780678579
 20
165.9872429345131
 30
0.0
 10
47.13905778422799
 20
165.9872429347624
 30
0.0
 10
47.13890080587461
 20
165.9872447138146
 30
0.0
 10
47.24342716701829
 20
165.9867282518746
 30
0.0
 10
47.71109422389603
 20
165.9844236614962
 30
0.0
 10
48.48498768139173
 20
165.980611637426
 30
0.0
 10
49.55415220642553
 20
165.9753674279077
 30
0.0
 10
50.90762852922448
 20
165.9687500222353
 30
0.0
 10
52.53076699384279
 20
165.960844793758
 30
0.0
 10
54.40987424678501
 20
165.9517085725181
 30
0.0
 10
56.53059627109653
 20
165.9413858848631
 30
0.0
 10
58.87730520733791
 20
165.9299072286959
 30
0.0
 10
61.42136109432847
 20
165.9174570190098
 30
0.0
 10
64.135255686683
 20
165.9042030577687
 30
0.0
 10
66.99497747535044
 20
165.8902416771969
 30
0.0
 10
69.47857942681668
 20
165.8780998818998
 30
0.0
 10
71.50927370309148
 20
165.868176121301
 30
0.0
 10
73.56536381981834
 20
165.8581258529951
 30
0.0
 10
76.17370133548019
 20
165.8453842334443
 30
0.0
 10
78.28026787458398
 20
165.8350903865752
 30
0.0
 10
79.33327635658972
 20
165.8299353830232
 30
0.0
  0
SPLINE
  5
C9
330
C6
100
AcDbEntity
  8
$DDT_AUDIT_GENERATED_(75)
  6
Continuous
 62
     7
100
AcDbSpline
210
0.0
220
0.0
230
1.0
 70
    12
 71
     3
 72
     8
 73
     4
 74
     0
 42
0.0000000001959474
 43
0.0000000001
 40
0.0
 40
0.0
 40
0.0
 40
0.0
 40
1.0
 40
1.0
 40
1.0
 40
1.0
 10
79.33327635658972
 20
165.8299353830232
 30
0.0
 41
1.0
 10
96.34443812359105
 20
165.7468643214468
 30
0.0
 41
0.9999920559151476
 10
113.3558027209203
 20
165.7468301627282
 30
0.0
 41
0.9999920559151476
 10
130.3669648272201
 20
165.8298317147556
 30
0.0
 41
1.0
  0
SPLINE
  5
CA
330
C6
100
AcDbEntity
  8
$DDT_AUDIT_GENERATED_(75)
  6
Continuous
 62
     7
100
AcDbSpline
210
0.0
220
0.0
230
1.0
 70
     8
 71
     3
 72
    24
 73
    20
 74
     0
 42
0.0000000001553059
 43
0.0000000001
 40
0.0
 40
0.0
 40
0.0
 40
0.0
 40
0.0156196022006659
 40
0.0312570828815499
 40
0.0625027989445974
 40
0.0937475782555203
 40
0.1249947420564354
 40
0.1562482525170206
 40
0.1875040026706628
 40
0.2187590926973247
 40
0.250014996066603
 40
0.2812683114828873
 40
0.3125159073700466
 40
0.3437581619949799
 40
0.3749969861501365
 40
0.4062383535284666
 40
0.4374857692727225
 40
0.4687399491374404
 40
0.4999953488202625
 40
0.4999953488202625
 40
0.4999953488202625
 40
0.4999953488202625
 10
130.3669648272201
 20
165.8298317147556
 30
0.0
 10
130.8933060877724
 20
165.832410922691
 30
0.0
 10
131.946591172265
 20
165.837551046969
 30
0.0
 10
134.0475200632168
 20
165.8478026269965
 30
0.0
 10
136.6560456464238
 20
165.8605359695667
 30
0.0
 10
139.7252449156425
 20
165.8755317915698
 30
0.0
 10
142.7048897930982
 20
165.8900855656207
 30
0.0
 10
145.5647621972478
 20
165.904034997047
 30
0.0
 10
148.2795289059324
 20
165.9172911188878
 30
0.0
 10
150.8230536476531
 20
165.9297225165945
 30
0.0
 10
153.1689703748295
 20
165.9411813199538
 30
0.0
 10
155.2905418707842
 20
165.951506205795
 30
0.0
 10
157.1700281028304
 20
165.9606390638696
 30
0.0
 10
158.7916989002288
 20
165.9685207527413
 30
0.0
 10
160.1440635919317
 20
165.9751209020431
 30
0.0
 10
161.2139267407671
 20
165.9803695340822
 30
0.0
 10
161.9880933404032
 20
165.9841818371382
 30
0.0
 10
162.4554794573811
 20
165.9864818431465
 30
0.0
 10
162.5606312561795
 20
165.9870050644844
 30
0.0
 10
162.5608025127281
 20
165.9870069560989
 30
0.0
  0
LINE
  5
CB
330
C6
100
AcDbEntity
  8
$DDT_AUDIT_GENERATED_(75)
  6
Continuous
 62
     7
100
AcDbLine
 10
199.3506092194
 20
176.4343667944
 30
0.0
 11
10.3493907806
 21
176.4343667944
 31
0.0
  0
LINE
  5
CC
330
C6
100
AcDbEntity
  8
$DDT_AUDIT_GENERATED_(75)
  6
Continuous
 62
     7
100
AcDbLine
 10
199.3506092194
 20
176.4343667944
 30
0.0
 11
203.35
 21
176.4343667944
 31
0.0
  0
LINE
  5
CD
330
C6
100
AcDbEntity
  8
$DDT_AUDIT_GENERATED_(75)
  6
Continuous
 62
     7
100
AcDbLine
 10
203.35
 20
176.4343667944
 30
0.0
 11
203.2176421833
 21
168.8515925553
 31
0.0
  0
LINE
  5
CE
330
C6
100
AcDbEntity
  8
$DDT_AUDIT_GENERATED_(75)
  6
Continuous
 62
     7
100
AcDbLine
 10
6.35
 20
176.4343667944
 30
0.0
 11
10.3493907806
 21
176.4343667944
 31
0.0
  0
LINE
  5
CF
330
C6
100
AcDbEntity
  8
$DDT_AUDIT_GENERATED_(75)
  6
Continuous
 62
     7
100
AcDbLine
 10
203.2085227205
 20
168.3291388826
 30
0.0
 11
203.2176421833
 21
168.8515925553
 31
0.0
  0
LINE
  5
D0
330
C6
100
AcDbEntity
  8
$DDT_AUDIT_GENERATED_(75)
  6
Continuous
 62
     7
100
AcDbLine
 10
6.4823509616
 20
168.8519852797
 30
0.0
 11
6.35
 21
176.4343667944
 31
0.0
  0
LINE
  5
D1
330
C6
100
AcDbEntity
  8
$DDT_AUDIT_GENERATED_(75)
  6
Continuous
 62
     7
100
AcDbLine
 10
6.4823509616
 20
168.8519852797
 30
0.0
 11
6.4914704275
 21
168.3295314337
 31
0.0
  0
SPLINE
  5
D2
330
C6
100
AcDbEntity
  8
$DDT_AUDIT_GENERATED_(75)
  6
Continuous
 62
     7
100
AcDbSpline
210
0.0
220
0.0
230
1.0
 70
     8
 71
     3
 72
    13
 73
     9
 74
     0
 42
0.0000000002571636
 43
0.0000000001
 40
0.0
 40
0.0
 40
0.0
 40
0.0
 40
0.1320093955060381
 40
0.3023227196624647
 40
0.4754894089964334
 40
0.6544976672168769
 40
0.8393474942396371
 40
1.0
 40
1.0
 40
1.0
 40
1.0
 10
162.560788400038
 20
165.9876225880471
 30
0.0
 10
164.4428754296756
 20
166.0085869587151
 30
0.0
 10
168.0872061947344
 20
166.0494556647057
 30
0.0
 10
174.3820704967027
 20
166.1295315427783
 30
0.0
 10
181.1238674868853
 20
166.2233887544444
 30
0.0
 10
188.0566118830023
 20
166.3291458118026
 30
0.0
 10
194.9939003991227
 20
166.4438257220822
 30
0.0
 10
199.151985045953
 20
166.5196320617326
 30
0.0
 10
201.4422010308249
 20
166.5615874620633
 30
0.0
  0
SPLINE
  5
D3
330
C6
100
AcDbEntity
  8
$DDT_AUDIT_GENERATED_(75)
  6
Continuous
 62
     7
100
AcDbSpline
210
0.0
220
0.0
230
1.0
 70
     8
 71
     3
 72
    14
 73
    10
 74
     0
 42
0.0000000002571644
 43
0.0000000001
 40
0.0
 40
0.0
 40
0.0
 40
0.0
 40
0.1485813770538795
 40
0.3209350505469181
 40
0.4865045829019409
 40
0.6452899740139922
 40
0.7972912237819582
 40
0.9425083321086851
 40
1.0
 40
1.0
 40
1.0
 40
1.0
 10
8.257783916764433
 20
166.5619388292463
 30
0.0
 10
10.37591011152664
 20
166.5230750439986
 30
0.0
 10
14.23792519654043
 20
166.4525276153426
 30
0.0
 10
20.67699819659619
 20
166.3451733066276
 30
0.0
 10
27.07526710668942
 20
166.2460634201353
 30
0.0
 10
33.27062776267942
 20
166.1576060325045
 30
0.0
 10
39.13468107552064
 20
166.0808553152368
 30
0.0
 10
43.85694715847969
 20
166.0235158622276
 30
0.0
 10
46.31940998763433
 20
165.9967364000489
 30
0.0
 10
47.13908168500165
 20
165.9878515308766
 30
0.0
  0
ARC
  5
D4
330
C6
100
AcDbEntity
  8
$DDT_AUDIT_GENERATED_(75)
  6
Continuous
 62
     7
100
AcDbCircle
 10
8.2911958224
 20
168.3609719059
 30
0.0
 40
1.799999999999987
100
AcDbArc
 50
181.0
 51
268.9114402376
  0
ARC
  5
D5
330
C6
100
AcDbEntity
  8
$DDT_AUDIT_GENERATED_(75)
  6
Continuous
 62
     7
100
AcDbCircle
 10
201.4087973255
 20
168.3605793549
 30
0.0
 40
1.8
100
AcDbArc
 50
271.0538209566
 51
358.9999999999
  0
LINE
  5
D6
330
C6
100
AcDbEntity
  8
$DDT_AUDIT_GENERATED_(9A)
  6
Continuous
 62
     7
100
AcDbLine
 10
124.6487873139
 20
165.8158958924
 30
0.0
 11
124.6439686666
 21
165.5398357718
 31
0.0
  0
LINE
  5
D7
330
C6
100
AcDbEntity
  8
$DDT_AUDIT_GENERATED_(9A)
  6
Continuous
 62
     7
100
AcDbLine
 10
124.6439686666
 20
165.5398357718
 30
0.0
 11
124.6371080882
 21
165.1467934971
 31
0.0
  0
LINE
  5
D8
330
C6
100
AcDbEntity
  8
$DDT_AUDIT_GENERATED_(9A)
  6
Continuous
 62
     7
100
AcDbLine
 10
124.6371080882
 20
165.1467934971
 30
0.0
 11
124.6359359225
 21
165.0796401716
 31
0.0
  0
SPLINE
  5
D9
330
C6
100
AcDbEntity
  8
$DDT_AUDIT_GENERATED_(9A)
  6
Continuous
 62
     7
100
AcDbSpline
210
0.0
220
0.0
230
1.0
 70
     8
 71
     3
 72
    33
 73
    29
 74
     0
 42
0.0000000001399232
 43
0.0000000001
 40
0.0
 40
0.0
 40
0.0
 40
0.0
 40
0.0460996034883416
 40
0.0976574995710092
 40
0.1460093144182979
 40
0.1911548335212417
 40
0.2330938639955245
 40
0.2718262330590486
 40
0.3073517866176863
 40
0.3330149527618694
 40
0.3566982571836896
 40
0.3784016464689143
 40
0.3981250727343757
 40
0.4158684933491064
 40
0.4323268685363549
 40
0.4504426063175301
 40
0.4763740045925698
 40
0.5055254823900084
 40
0.5378971262246814
 40
0.5734890286662925
 40
0.6123012872403076
 40
0.654334003219657
 40
0.6995872803072902
 40
0.7530857579370417
 40
0.8104813796497753
 40
0.8717742805034048
 40
0.9369645892635363
 40
1.0
 40
1.0
 40
1.0
 40
1.0
 10
52.87039212109257
 20
165.0069920083479
 30
0.0
 10
54.07836683760617
 20
164.9950864580306
 30
0.0
 10
56.23748807377399
 20
164.9739052691823
 30
0.0
 10
59.78811264477186
 20
164.9422256572603
 30
0.0
 10
63.22491084101907
 20
164.9137686848749
 30
0.0
 10
66.4557775962116
 20
164.8891017602134
 30
0.0
 10
69.45190551395045
 20
164.868008992835
 30
0.0
 10
72.22021846154185
 20
164.8500460954623
 30
0.0
 10
74.60049704487051
 20
164.8358093984434
 30
0.0
 10
76.62234845119208
 20
164.8245619711734
 30
0.0
 10
78.31491505071598
 20
164.8157171993908
 30
0.0
 10
79.86598887938284
 20
164.8080929556096
 30
0.0
 10
81.27556219766029
 20
164.8015633480568
 30
0.0
 10
82.56018864463844
 20
164.7959414824115
 30
0.0
 10
83.8065173517524
 20
164.7907785445986
 30
0.0
 10
85.24790463233678
 20
164.7851481596717
 30
0.0
 10
86.99167428728693
 20
164.7788615281987
 30
0.0
 10
89.07505686226351
 20
164.7721348092074
 30
0.0
 10
91.38858053619718
 20
164.7656377648053
 30
0.0
 10
93.93224663481402
 20
164.7596758503715
 30
0.0
 10
96.70608647880594
 20
164.7545849401824
 30
0.0
 10
99.71000499522482
 20
164.7507312247527
 30
0.0
 10
103.064144206764
 20
164.7484295184892
 30
0.0
 10
106.7826612885763
 20
164.7483858853948
 30
0.0
 10
110.8901621256256
 20
164.7514511906598
 30
0.0
 10
115.2477461964948
 20
164.75825791356
 30
0.0
 10
119.8533220154242
 20
164.7692543224493
 30
0.0
 10
122.6854506322034
 20
164.7791765071514
 30
0.0
 10
124.3372738777934
 20
164.78506540007
 30
0.0
  0
LINE
  5
DA
330
C6
100
AcDbEntity
  8
$DDT_AUDIT_GENERATED_(9A)
  6
Continuous
 62
     7
100
AcDbLine
 10
52.1486504409
 20
165.9626868199
 30
0.0
 11
52.1533355553
 21
165.6942767978
 31
0.0
  0
ARC
  5
DB
330
C6
100
AcDbEntity
  8
$DDT_AUDIT_GENERATED_(9A)
  6
Continuous
 62
     7
100
AcDbCircle
 10
52.8532200639
 20
165.7070022013
 30
0.0
 40
0.6999999999974266
100
AcDbArc
 50
181.2901298642
 51
269.7206378574
  0
ARC
  5
DC
330
C6
100
AcDbEntity
  8
$DDT_AUDIT_GENERATED_(9A)
  6
Continuous
 62
     7
100
AcDbCircle
 10
124.3359816215
 20
165.084876325
 30
0.0
 40
0.3000000000000029
100
AcDbArc
 50
270.4576073583
 51
359.000082419
  0
LINE
  5
DD
330
C6
100
AcDbEntity
  8
$DDT_AUDIT_GENERATED_(A3)
  6
Continuous
 62
     7
100
AcDbLine
 10
130.3534156808
 20
164.8779291888
 30
0.0
 11
156.8537474145
 21
165.0072505509
 31
0.0
  0
LINE
  5
DE
330
C6
100
AcDbEntity
  8
$DDT_AUDIT_GENERATED_(A3)
  6
Continuous
 62
     7
100
AcDbLine
 10
125.5639607293
 20
165.0855609833
 30
0.0
 11
125.5627887118
 21
165.1527058239
 31
0.0
  0
LINE
  5
DF
330
C6
100
AcDbEntity
  8
$DDT_AUDIT_GENERATED_(A3)
  6
Continuous
 62
     7
100
AcDbLine
 10
125.5627887118
 20
165.1527058239
 30
0.0
 11
125.5559290537
 21
165.545695375
 31
0.0
  0
LINE
  5
E0
330
C6
100
AcDbEntity
  8
$DDT_AUDIT_GENERATED_(A3)
  6
Continuous
 62
     7
100
AcDbLine
 10
125.5559290537
 20
165.545695375
 30
0.0
 11
125.5511742711
 21
165.8180966847
 31
0.0
  0
SPLINE
  5
E1
330
C6
100
AcDbEntity
  8
$DDT_AUDIT_GENERATED_(A3)
  6
Continuous
 62
     7
100
AcDbSpline
210
0.0
220
0.0
230
1.0
 70
     8
 71
     3
 72
     8
 73
     4
 74
     0
 42
0.0000000003229406
 43
0.0000000001
 40
0.0
 40
0.0
 40
0.0
 40
0.0
 40
1.0
 40
1.0
 40
1.0
 40
1.0
 10
125.8650183317777
 20
164.791050805413
 30
0.0
 10
135.2509097846673
 20
164.8257645548314
 30
0.0
 10
145.572441026057
 20
164.8979536726757
 30
0.0
 10
156.8296120559467
 20
165.0076181589458
 30
0.0
  0
LINE
  5
E2
330
C6
100
AcDbEntity
  8
$DDT_AUDIT_GENERATED_(A3)
  6
Continuous
 62
     7
100
AcDbLine
 10
157.5466681734
 20
165.6944904161
 30
0.0
 11
157.551345575
 21
165.9624585712
 31
0.0
  0
ARC
  5
E3
330
C6
100
AcDbEntity
  8
$DDT_AUDIT_GENERATED_(A3)
  6
Continuous
 62
     7
100
AcDbCircle
 10
156.8467836664
 20
165.707215911
 30
0.0
 40
0.699999999953089
100
AcDbArc
 50
270.2795976874
 51
359.3100656395
  0
ARC
  5
E4
330
C6
100
AcDbEntity
  8
$DDT_AUDIT_GENERATED_(A3)
  6
Continuous
 62
     7
100
AcDbCircle
 10
125.8639150304
 20
165.0907971366
 30
0.0
 40
0.299999999999998
100
AcDbArc
 50
180.9999176129
 51
270.4880661173
  0
ENDBLK
  5
E6
330
C6
100
AcDbEntity
  8
0
100
AcDbBlockEnd
  0
ENDSEC
  0
SECTION
  2
ENTITIES
  0
INSERT
  5
5F
330
1F
100
AcDbEntity
  8
Default
100
AcDbBlockReference
  2
SEANNOT_GROUP
 10
0.0
 20
0.0
 30
0.0
  0
INSERT
  5
65
330
1F
100
AcDbEntity
  8
Default
100
AcDbBlockReference
  2
SEANNOT_GROUP1
 10
0.0
 20
0.0
 30
0.0
  0
INSERT
  5
6A
330
1F
100
AcDbEntity
  8
Default
100
AcDbBlockReference
  2
SEANNOT_GROUP2
 10
0.0
 20
0.0
 30
0.0
  0
INSERT
  5
6F
330
1F
100
AcDbEntity
  8
Default
100
AcDbBlockReference
  2
SEANNOT_GROUP3
 10
0.0
 20
0.0
 30
0.0
  0
INSERT
  5
74
330
1F
100
AcDbEntity
  8
Default
100
AcDbBlockReference
  2
SE
 10
0.0
 20
0.0
 30
0.0
  0
INSERT
  5
AF
330
1F
100
AcDbEntity
  8
Default
100
AcDbBlockReference
  2
SE1
 10
0.0
 20
0.0
 30
0.0
  0
INSERT
  5
C7
330
1F
100
AcDbEntity
  8
Default
100
AcDbBlockReference
  2
SE2
 10
0.0
 20
0.0
 30
0.0
  0
TEXT
  5
E8
330
1F
100
AcDbEntity
  8
Default
  6
Continuous
 62
     7
100
AcDbText
 10
5.9362635081
 20
53.4225120485
 30
0.0
 40
10.0
  1
Grohe AG^J
  7
SEACAD_seiso_ttf
 11
5.9362635081
 21
63.4225120485
 31
0.0
100
AcDbText
 73
     3
  0
TEXT
  5
E9
330
1F
100
AcDbEntity
  8
Default
  6
Continuous
 62
     7
100
AcDbText
 10
5.9362635081
 20
37.0588756849
 30
0.0
 40
10.0
  1
 
  7
SEACAD_seiso_ttf
 11
5.9362635081
 21
47.0588756849
 31
0.0
100
AcDbText
 73
     3
  0
TEXT
  5
EA
330
1F
100
AcDbEntity
  8
Default
  6
Continuous
 62
     7
100
AcDbText
 10
5.9362635081
 20
20.6952393213
 30
0.0
 40
10.0
  1
ecn: 
  7
SEACAD_seiso_ttf
 11
5.9362635081
 21
30.6952393213
 31
0.0
100
AcDbText
 73
     3
  0
TEXT
  5
EB
330
1F
100
AcDbEntity
  8
Default
  6
Continuous
 62
     7
100
AcDbText
 10
5.9362635081
 20
4.3316029576
 30
0.0
 40
10.0
  1
unit: mm
  7
SEACAD_seiso_ttf
 11
5.9362635081
 21
14.3316029576
 31
0.0
100
AcDbText
 73
     3
  0
LINE
  5
EC
330
1F
100
AcDbEntity
  8
Default
  6
Continuous
 62
     7
100
AcDbLine
 10
0.0
 20
0.0
 30
0.0
 11
100.0
 21
0.0
 31
0.0
  0
LINE
  5
ED
330
1F
100
AcDbEntity
  8
Default
  6
Continuous
 62
     7
100
AcDbLine
 10
0.0
 20
0.0
 30
0.0
 11
0.0
 21
100.0
 31
0.0
  0
TEXT
  5
EE
330
1F
100
AcDbEntity
  8
Default
  6
Continuous
 62
     7
100
AcDbText
 10
24.3923665681
 20
-18.2375342018
 30
0.0
 40
10.0
  1
100 mm
  7
SEACAD_seiso_ttf
 11
24.3923665681
 21
-8.2375342018
 31
0.0
100
AcDbText
 73
     3
  0
TEXT
  5
EF
330
1F
100
AcDbEntity
  8
Default
  6
Continuous
 62
     7
100
AcDbText
 10
-7.6150308803
 20
24.6231930421
 30
0.0
 40
10.0
  1
100 mm
 50
90.0
  7
SEACAD_seiso_ttf
 11
-17.6150308803
 21
24.6231930421
 31
0.0
100
AcDbText
 73
     3
  0
TEXT
  5
F0
330
1F
100
AcDbEntity
  8
Default
  6
Continuous
 62
     7
100
AcDbText
 10
28.4878128572
 20
20.0907663715
 30
0.0
 40
10.0
  1
216598
  7
SEACAD_seiso_ttf
 11
28.4878128572
 21
30.0907663715
 31
0.0
100
AcDbText
 73
     3
  0
TEXT
  5
F1
330
1F
100
AcDbEntity
  8
Default
  6
Continuous
 62
     7
100
AcDbText
 10
5.9012241913
 20
36.7242780188
 30
0.0
 40
10.0
  1
38858XXX
  7
SEACAD_seiso_ttf
 11
5.9012241913
 21
46.7242780188
 31
0.0
100
AcDbText
 73
     3
  0
ENDSEC
  0
SECTION
  2
OBJECTS
  0
DICTIONARY
  5
C
330
0
100
AcDbDictionary
281
     1
  3
ACAD_GROUP
350
D
  3
ACAD_LAYOUT
350
1A
  3
ACAD_MLEADERSTYLE
350
F5
  3
ACAD_MLINESTYLE
350
17
  3
ACAD_PLOTSETTINGS
350
19
  3
ACAD_PLOTSTYLENAME
350
E
  3
ACAD_SCALELIST
350
3B
  3
ACAD_TABLESTYLE
350
F4
  3
ACAD_VISUALSTYLE
350
2A
  3
AcDbVariableDictionary
350
F2
  0
DICTIONARY
  5
D
102
{ACAD_REACTORS
330
C
102
}
330
C
100
AcDbDictionary
281
     1
  0
DICTIONARY
  5
1A
102
{ACAD_REACTORS
330
C
102
}
330
C
100
AcDbDictionary
281
     1
  3
Layout1
350
1E
  3
Model
350
22
  0
DICTIONARY
  5
F5
102
{ACAD_REACTORS
330
C
102
}
330
C
100
AcDbDictionary
281
     1
  0
DICTIONARY
  5
17
102
{ACAD_REACTORS
330
C
102
}
330
C
100
AcDbDictionary
281
     1
  3
Standard
350
18
  0
DICTIONARY
  5
19
102
{ACAD_REACTORS
330
C
102
}
330
C
100
AcDbDictionary
281
     1
  0
ACDBDICTIONARYWDFLT
  5
E
102
{ACAD_REACTORS
330
C
102
}
330
C
100
AcDbDictionary
281
     1
  3
Normal
350
F
100
AcDbDictionaryWithDefault
340
F
  0
DICTIONARY
  5
3B
102
{ACAD_REACTORS
330
C
102
}
330
C
100
AcDbDictionary
281
     1
  3
A0
350
3C
  3
A1
350
3D
  3
A2
350
3E
  3
A3
350
3F
  3
A4
350
40
  3
A5
350
41
  3
A6
350
42
  3
A7
350
43
  3
A8
350
44
  3
A9
350
45
  3
B0
350
46
  3
B1
350
47
  3
B2
350
48
  3
B3
350
49
  3
B4
350
4A
  3
B5
350
4B
  3
B6
350
4C
  3
B7
350
4D
  3
B8
350
4E
  3
B9
350
4F
  3
C0
350
50
  3
C1
350
51
  3
C2
350
52
  3
C3
350
53
  3
C4
350
54
  3
C5
350
55
  3
C6
350
56
  3
C7
350
57
  3
C8
350
58
  3
C9
350
59
  3
D0
350
5A
  3
D1
350
5B
  3
D2
350
5C
  0
DICTIONARY
  5
F4
102
{ACAD_REACTORS
330
C
102
}
330
C
100
AcDbDictionary
281
     1
  0
DICTIONARY
  5
2A
102
{ACAD_REACTORS
330
C
102
}
330
C
100
AcDbDictionary
281
     1
  3
2dWireframe
350
2F
  3
3D Hidden
350
31
  3
3dWireframe
350
30
  3
Basic
350
32
  3
Brighten
350
36
  3
ColorChange
350
3A
  3
Conceptual
350
34
  3
Dim
350
35
  3
Facepattern
350
39
  3
Flat
350
2B
  3
FlatWithEdges
350
2C
  3
Gouraud
350
2D
  3
GouraudWithEdges
350
2E
  3
Linepattern
350
38
  3
Realistic
350
33
  3
Thicken
350
37
  0
DICTIONARY
  5
F2
102
{ACAD_REACTORS
330
C
102
}
330
C
100
AcDbDictionary
281
     1
  3
CANNOSCALE
350
F3
  3
PSOLHEIGHT
350
F7
  3
PSOLWIDTH
350
F6
  0
LAYOUT
  5
1E
102
{ACAD_REACTORS
330
1A
102
}
330
1A
100
AcDbPlotSettings
  1

  2
none_device
  4

  6

 40
0.0
 41
0.0
 42
0.0
 43
0.0
 44
0.0
 45
0.0
 46
0.0
 47
0.0
 48
0.0
 49
0.0
140
0.0
141
0.0
142
1.0
143
1.0
 70
   688
 72
     0
 73
     0
 74
     5
  7

 75
    16
147
1.0
148
0.0
149
0.0
100
AcDbLayout
  1
Layout1
 70
     1
 71
     1
 10
0.0
 20
0.0
 11
1682.0
 21
2378.0
 12
0.0
 22
0.0
 32
0.0
 14
0.0
 24
0.0
 34
0.0
 15
1682.0
 25
2378.0
 35
0.0
146
0.0
 13
0.0
 23
0.0
 33
0.0
 16
1.0
 26
0.0
 36
0.0
 17
0.0
 27
1.0
 37
0.0
 76
     0
330
1B
  0
LAYOUT
  5
22
102
{ACAD_REACTORS
330
1A
102
}
330
1A
100
AcDbPlotSettings
  1

  2
none_device
  4

  6

 40
0.0
 41
0.0
 42
0.0
 43
0.0
 44
0.0
 45
0.0
 46
0.0
 47
0.0
 48
0.0
 49
0.0
140
0.0
141
0.0
142
1.0
143
1.0
 70
  1712
 72
     0
 73
     0
 74
     0
  7

 75
     0
147
1.0
148
0.0
149
0.0
100
AcDbLayout
  1
Model
 70
     1
 71
     0
 10
0.0
 20
0.0
 11
1682.0
 21
2378.0
 12
0.0
 22
0.0
 32
0.0
 14
0.0
 24
0.0
 34
0.0
 15
1682.0
 25
2378.0
 35
0.0
146
0.0
 13
0.0
 23
0.0
 33
0.0
 16
1.0
 26
0.0
 36
0.0
 17
0.0
 27
1.0
 37
0.0
 76
     0
330
1F
331
29
  0
MLINESTYLE
  5
18
102
{ACAD_REACTORS
330
17
102
}
330
17
100
AcDbMlineStyle
  2
Standard
 70
     0
  3

 62
   256
 51
90.0
 52
90.0
 71
     2
 49
0.5
 62
   256
  6
BYLAYER
 49
-0.5
 62
   256
  6
BYLAYER
  0
ACDBPLACEHOLDER
  5
F
102
{ACAD_REACTORS
330
E
102
}
330
E
  0
SCALE
  5
3C
102
{ACAD_REACTORS
330
3B
102
}
330
3B
100
AcDbScale
 70
     0
300
1:1
140
1.0
141
1.0
290
     1
  0
SCALE
  5
3D
102
{ACAD_REACTORS
330
3B
102
}
330
3B
100
AcDbScale
 70
     0
300
1:2
140
1.0
141
2.0
290
     0
  0
SCALE
  5
3E
102
{ACAD_REACTORS
330
3B
102
}
330
3B
100
AcDbScale
 70
     0
300
1:4
140
1.0
141
4.0
290
     0
  0
SCALE
  5
3F
102
{ACAD_REACTORS
330
3B
102
}
330
3B
100
AcDbScale
 70
     0
300
1:5
140
1.0
141
5.0
290
     0
  0
SCALE
  5
40
102
{ACAD_REACTORS
330
3B
102
}
330
3B
100
AcDbScale
 70
     0
300
1:8
140
1.0
141
8.0
290
     0
  0
SCALE
  5
41
102
{ACAD_REACTORS
330
3B
102
}
330
3B
100
AcDbScale
 70
     0
300
1:10
140
1.0
141
10.0
290
     0
  0
SCALE
  5
42
102
{ACAD_REACTORS
330
3B
102
}
330
3B
100
AcDbScale
 70
     0
300
1:16
140
1.0
141
16.0
290
     0
  0
SCALE
  5
43
102
{ACAD_REACTORS
330
3B
102
}
330
3B
100
AcDbScale
 70
     0
300
1:20
140
1.0
141
20.0
290
     0
  0
SCALE
  5
44
102
{ACAD_REACTORS
330
3B
102
}
330
3B
100
AcDbScale
 70
     0
300
1:30
140
1.0
141
30.0
290
     0
  0
SCALE
  5
45
102
{ACAD_REACTORS
330
3B
102
}
330
3B
100
AcDbScale
 70
     0
300
1:40
140
1.0
141
40.0
290
     0
  0
SCALE
  5
46
102
{ACAD_REACTORS
330
3B
102
}
330
3B
100
AcDbScale
 70
     0
300
1:50
140
1.0
141
50.0
290
     0
  0
SCALE
  5
47
102
{ACAD_REACTORS
330
3B
102
}
330
3B
100
AcDbScale
 70
     0
300
1:100
140
1.0
141
100.0
290
     0
  0
SCALE
  5
48
102
{ACAD_REACTORS
330
3B
102
}
330
3B
100
AcDbScale
 70
     0
300
2:1
140
2.0
141
1.0
290
     0
  0
SCALE
  5
49
102
{ACAD_REACTORS
330
3B
102
}
330
3B
100
AcDbScale
 70
     0
300
4:1
140
4.0
141
1.0
290
     0
  0
SCALE
  5
4A
102
{ACAD_REACTORS
330
3B
102
}
330
3B
100
AcDbScale
 70
     0
300
8:1
140
8.0
141
1.0
290
     0
  0
SCALE
  5
4B
102
{ACAD_REACTORS
330
3B
102
}
330
3B
100
AcDbScale
 70
     0
300
10:1
140
10.0
141
1.0
290
     0
  0
SCALE
  5
4C
102
{ACAD_REACTORS
330
3B
102
}
330
3B
100
AcDbScale
 70
     0
300
100:1
140
100.0
141
1.0
290
     0
  0
SCALE
  5
4D
102
{ACAD_REACTORS
330
3B
102
}
330
3B
100
AcDbScale
 70
     0
300
1/128" = 1'-0"
140
0.0078125
141
12.0
290
     0
  0
SCALE
  5
4E
102
{ACAD_REACTORS
330
3B
102
}
330
3B
100
AcDbScale
 70
     0
300
1/64" = 1'-0"
140
0.015625
141
12.0
290
     0
  0
SCALE
  5
4F
102
{ACAD_REACTORS
330
3B
102
}
330
3B
100
AcDbScale
 70
     0
300
1/32" = 1'-0"
140
0.03125
141
12.0
290
     0
  0
SCALE
  5
50
102
{ACAD_REACTORS
330
3B
102
}
330
3B
100
AcDbScale
 70
     0
300
1/16" = 1'-0"
140
0.0625
141
12.0
290
     0
  0
SCALE
  5
51
102
{ACAD_REACTORS
330
3B
102
}
330
3B
100
AcDbScale
 70
     0
300
3/32" = 1'-0"
140
0.09375
141
12.0
290
     0
  0
SCALE
  5
52
102
{ACAD_REACTORS
330
3B
102
}
330
3B
100
AcDbScale
 70
     0
300
1/8" = 1'-0"
140
0.125
141
12.0
290
     0
  0
SCALE
  5
53
102
{ACAD_REACTORS
330
3B
102
}
330
3B
100
AcDbScale
 70
     0
300
3/16" = 1'-0"
140
0.1875
141
12.0
290
     0
  0
SCALE
  5
54
102
{ACAD_REACTORS
330
3B
102
}
330
3B
100
AcDbScale
 70
     0
300
1/4" = 1'-0"
140
0.25
141
12.0
290
     0
  0
SCALE
  5
55
102
{ACAD_REACTORS
330
3B
102
}
330
3B
100
AcDbScale
 70
     0
300
3/8" = 1'-0"
140
0.375
141
12.0
290
     0
  0
SCALE
  5
56
102
{ACAD_REACTORS
330
3B
102
}
330
3B
100
AcDbScale
 70
     0
300
1/2" = 1'-0"
140
0.5
141
12.0
290
     0
  0
SCALE
  5
57
102
{ACAD_REACTORS
330
3B
102
}
330
3B
100
AcDbScale
 70
     0
300
3/4" = 1'-0"
140
0.75
141
12.0
290
     0
  0
SCALE
  5
58
102
{ACAD_REACTORS
330
3B
102
}
330
3B
100
AcDbScale
 70
     0
300
1" = 1'-0"
140
1.0
141
12.0
290
     0
  0
SCALE
  5
59
102
{ACAD_REACTORS
330
3B
102
}
330
3B
100
AcDbScale
 70
     0
300
1-1/2" = 1'-0"
140
1.5
141
12.0
290
     0
  0
SCALE
  5
5A
102
{ACAD_REACTORS
330
3B
102
}
330
3B
100
AcDbScale
 70
     0
300
3" = 1'-0"
140
3.0
141
12.0
290
     0
  0
SCALE
  5
5B
102
{ACAD_REACTORS
330
3B
102
}
330
3B
100
AcDbScale
 70
     0
300
6" = 1'-0"
140
6.0
141
12.0
290
     0
  0
SCALE
  5
5C
102
{ACAD_REACTORS
330
3B
102
}
330
3B
100
AcDbScale
 70
     0
300
1'-0" = 1'-0"
140
12.0
141
12.0
290
     0
  0
VISUALSTYLE
  5
2F
102
{ACAD_REACTORS
330
2A
102
}
330
2A
100
AcDbVisualStyle
  2
2dWireframe
 70
     4
 71
     0
 72
     2
 73
     0
 90
        0
 40
-0.6
 41
-30.0
 62
     5
 63
     7
 74
     1
 91
        4
 64
     7
 65
   257
 75
     1
175
     1
 42
1.0
 92
        0
 66
   257
 43
1.0
 76
     1
 77
     6
 78
     2
 67
     7
 79
     5
170
     0
171
     0
290
     0
174
     0
 93
        1
 44
0.0
173
     0
291
     0
 45
0.0
1001
ACAD
1000
AcDbSavedByObjectVersion
1070
     0
  0
VISUALSTYLE
  5
31
102
{ACAD_REACTORS
330
2A
102
}
330
2A
100
AcDbVisualStyle
  2
3D Hidden
 70
     6
 71
     1
 72
     2
 73
     2
 90
        0
 40
-0.6
 41
-30.0
 62
     5
 63
     7
 74
     2
 91
        2
 64
     7
 65
   257
 75
     2
175
     1
 42
40.0
 92
        0
 66
   257
 43
1.0
 76
     1
 77
     6
 78
     2
 67
     7
 79
     3
170
     0
171
     0
290
     0
174
     0
 93
        1
 44
0.0
173
     0
291
     0
 45
0.0
1001
ACAD
1000
AcDbSavedByObjectVersion
1070
     0
  0
VISUALSTYLE
  5
30
102
{ACAD_REACTORS
330
2A
102
}
330
2A
100
AcDbVisualStyle
  2
3dWireframe
 70
     5
 71
     0
 72
     2
 73
     0
 90
        0
 40
-0.6
 41
-30.0
 62
     5
 63
     7
 74
     1
 91
        4
 64
     7
 65
   257
 75
     1
175
     1
 42
1.0
 92
        0
 66
   257
 43
1.0
 76
     1
 77
     6
 78
     2
 67
     7
 79
     5
170
     0
171
     0
290
     0
174
     0
 93
        1
 44
0.0
173
     0
291
     0
 45
0.0
1001
ACAD
1000
AcDbSavedByObjectVersion
1070
     0
  0
VISUALSTYLE
  5
32
102
{ACAD_REACTORS
330
2A
102
}
330
2A
100
AcDbVisualStyle
  2
Basic
 70
     7
 71
     1
 72
     0
 73
     1
 90
        0
 40
-0.6
 41
-30.0
 62
     5
 63
     7
 74
     0
 91
        4
 64
     7
 65
   257
 75
     1
175
     1
 42
1.0
 92
        8
 66
     7
 43
1.0
 76
     1
 77
     6
 78
     2
 67
     7
 79
     5
170
     0
171
     0
290
     0
174
     0
 93
        1
 44
0.0
173
     0
291
     1
 45
0.0
1001
ACAD
1000
AcDbSavedByObjectVersion
1070
     0
  0
VISUALSTYLE
  5
36
102
{ACAD_REACTORS
330
2A
102
}
330
2A
100
AcDbVisualStyle
  2
Brighten
 70
    12
 71
     2
 72
     2
 73
     0
 90
        0
 40
-0.6
 41
-30.0
 62
     5
 63
     7
 74
     1
 91
        4
 64
     7
 65
   257
 75
     1
175
     1
 42
1.0
 92
        8
 66
     7
 43
1.0
 76
     1
 77
     6
 78
     2
 67
     7
 79
     5
170
     0
171
     0
290
     0
174
     0
 93
        1
 44
50.0
173
     0
291
     1
 45
0.0
1001
ACAD
1000
AcDbSavedByObjectVersion
1070
     0
  0
VISUALSTYLE
  5
3A
102
{ACAD_REACTORS
330
2A
102
}
330
2A
100
AcDbVisualStyle
  2
ColorChange
 70
    16
 71
     2
 72
     2
 73
     3
 90
        0
 40
-0.6
 41
-30.0
 62
     5
 63
     8
 74
     1
 91
        4
 64
     7
 65
   257
 75
     1
175
     1
 42
1.0
 92
        8
 66
     8
 43
1.0
 76
     1
 77
     6
 78
     2
 67
     7
 79
     5
170
     0
171
     0
290
     0
174
     0
 93
        1
 44
0.0
173
     0
291
     1
 45
0.0
1001
ACAD
1000
AcDbSavedByObjectVersion
1070
     0
  0
VISUALSTYLE
  5
34
102
{ACAD_REACTORS
330
2A
102
}
330
2A
100
AcDbVisualStyle
  2
Conceptual
 70
     9
 71
     3
 72
     2
 73
     0
 90
        0
 40
-0.6
 41
-30.0
 62
     5
 63
     7
 74
     2
 91
        2
 64
     7
 65
   257
 75
     1
175
     1
 42
40.0
 92
        8
 66
     7
 43
1.0
 76
     1
 77
     6
 78
     2
 67
     7
 79
     3
170
     0
171
     0
290
     0
174
     0
 93
        1
 44
0.0
173
     0
291
     0
 45
0.0
1001
ACAD
1000
AcDbSavedByObjectVersion
1070
     0
  0
VISUALSTYLE
  5
35
102
{ACAD_REACTORS
330
2A
102
}
330
2A
100
AcDbVisualStyle
  2
Dim
 70
    11
 71
     2
 72
     2
 73
     0
 90
        0
 40
-0.6
 41
-30.0
 62
     5
 63
     7
 74
     1
 91
        4
 64
     7
 65
   257
 75
     1
175
     1
 42
1.0
 92
        8
 66
     7
 43
1.0
 76
     1
 77
     6
 78
     2
 67
     7
 79
     5
170
     0
171
     0
290
     0
174
     0
 93
        1
 44
-50.0
173
     0
291
     1
 45
0.0
1001
ACAD
1000
AcDbSavedByObjectVersion
1070
     0
  0
VISUALSTYLE
  5
39
102
{ACAD_REACTORS
330
2A
102
}
330
2A
100
AcDbVisualStyle
  2
Facepattern
 70
    15
 71
     2
 72
     2
 73
     0
 90
        0
 40
-0.6
 41
-30.0
 62
     5
 63
     7
 74
     1
 91
        4
 64
     7
 65
   257
 75
     1
175
     1
 42
1.0
 92
        8
 66
     7
 43
1.0
 76
     1
 77
     6
 78
     2
 67
     7
 79
     5
170
     0
171
     0
290
     0
174
     0
 93
        1
 44
0.0
173
     0
291
     1
 45
0.0
1001
ACAD
1000
AcDbSavedByObjectVersion
1070
     0
  0
VISUALSTYLE
  5
2B
102
{ACAD_REACTORS
330
2A
102
}
330
2A
100
AcDbVisualStyle
  2
Flat
 70
     0
 71
     2
 72
     1
 73
     1
 90
        2
 40
-0.6
 41
30.0
 62
     5
 63
     7
 74
     0
 91
        4
 64
     7
 65
   257
 75
     1
175
     1
 42
1.0
 92
        8
 66
     7
 43
1.0
 76
     1
 77
     6
 78
     2
 67
     7
 79
     5
170
     0
171
     0
290
     0
174
     0
 93
       13
 44
0.0
173
     0
291
     1
 45
0.0
1001
ACAD
1000
AcDbSavedByObjectVersion
1070
     0
  0
VISUALSTYLE
  5
2C
102
{ACAD_REACTORS
330
2A
102
}
330
2A
100
AcDbVisualStyle
  2
FlatWithEdges
 70
     1
 71
     2
 72
     1
 73
     1
 90
        2
 40
-0.6
 41
30.0
 62
     5
 63
     7
 74
     1
 91
        4
 64
     7
 65
   257
 75
     1
175
     1
 42
1.0
 92
        0
 66
   257
 43
1.0
 76
     1
 77
     6
 78
     2
 67
     7
 79
     5
170
     0
171
     0
290
     0
174
     0
 93
       13
 44
0.0
173
     0
291
     1
 45
0.0
1001
ACAD
1000
AcDbSavedByObjectVersion
1070
     0
  0
VISUALSTYLE
  5
2D
102
{ACAD_REACTORS
330
2A
102
}
330
2A
100
AcDbVisualStyle
  2
Gouraud
 70
     2
 71
     2
 72
     2
 73
     1
 90
        2
 40
-0.6
 41
30.0
 62
     5
 63
     7
 74
     0
 91
        4
 64
     7
 65
   257
 75
     1
175
     1
 42
1.0
 92
        0
 66
     7
 43
1.0
 76
     1
 77
     6
 78
     2
 67
     7
 79
     5
170
     0
171
     0
290
     0
174
     0
 93
       13
 44
0.0
173
     0
291
     1
 45
0.0
1001
ACAD
1000
AcDbSavedByObjectVersion
1070
     0
  0
VISUALSTYLE
  5
2E
102
{ACAD_REACTORS
330
2A
102
}
330
2A
100
AcDbVisualStyle
  2
GouraudWithEdges
 70
     3
 71
     2
 72
     2
 73
     1
 90
        2
 40
-0.6
 41
30.0
 62
     5
 63
     7
 74
     1
 91
        4
 64
     7
 65
   257
 75
     1
175
     1
 42
1.0
 92
        0
 66
   257
 43
1.0
 76
     1
 77
     6
 78
     2
 67
     7
 79
     5
170
     0
171
     0
290
     0
174
     0
 93
       13
 44
0.0
173
     0
291
     1
 45
0.0
1001
ACAD
1000
AcDbSavedByObjectVersion
1070
     0
  0
VISUALSTYLE
  5
38
102
{ACAD_REACTORS
330
2A
102
}
330
2A
100
AcDbVisualStyle
  2
Linepattern
 70
    14
 71
     2
 72
     2
 73
     0
 90
        0
 40
-0.6
 41
-30.0
 62
     5
 63
     7
 74
     1
 91
        4
 64
     7
 65
   257
 75
     7
175
     7
 42
1.0
 92
        8
 66
     7
 43
1.0
 76
     1
 77
     6
 78
     2
 67
     7
 79
     5
170
     0
171
     0
290
     0
174
     0
 93
        1
 44
0.0
173
     0
291
     1
 45
0.0
1001
ACAD
1000
AcDbSavedByObjectVersion
1070
     0
  0
VISUALSTYLE
  5
33
102
{ACAD_REACTORS
330
2A
102
}
330
2A
100
AcDbVisualStyle
  2
Realistic
 70
     8
 71
     2
 72
     2
 73
     0
 90
        0
 40
-0.6
 41
-30.0
 62
     5
 63
     7
 74
     1
 91
        0
 64
     7
 65
   257
 75
     1
175
     1
 42
1.0
 92
        8
 66
     8
 43
1.0
 76
     1
 77
     6
 78
     2
 67
     7
 79
     5
170
     0
171
     0
290
     0
174
     0
 93
       13
 44
0.0
173
     0
291
     0
 45
0.0
1001
ACAD
1000
AcDbSavedByObjectVersion
1070
     0
  0
VISUALSTYLE
  5
37
102
{ACAD_REACTORS
330
2A
102
}
330
2A
100
AcDbVisualStyle
  2
Thicken
 70
    13
 71
     2
 72
     2
 73
     0
 90
        0
 40
-0.6
 41
-30.0
 62
     5
 63
     7
 74
     1
 91
        4
 64
     7
 65
   257
 75
     1
175
     1
 42
1.0
 92
       12
 66
     7
 43
1.0
 76
     1
 77
     6
 78
     2
 67
     7
 79
     5
170
     0
171
     0
290
     0
174
     0
 93
        1
 44
0.0
173
     0
291
     1
 45
0.0
1001
ACAD
1000
AcDbSavedByObjectVersion
1070
     0
  0
DICTIONARYVAR
  5
F3
102
{ACAD_REACTORS
330
F2
102
}
330
F2
100
DictionaryVariables
280
     0
  1
1:1
  0
DICTIONARYVAR
  5
F7
102
{ACAD_REACTORS
330
F2
102
}
330
F2
100
DictionaryVariables
280
     0
  1
80.000000
  0
DICTIONARYVAR
  5
F6
102
{ACAD_REACTORS
330
F2
102
}
330
F2
100
DictionaryVariables
280
     0
  1
5.000000
  0
ENDSEC
  0
EOF
