999
Converted by 3D Exploration 
999
XDimension Software, LLC
999
http://www.xdsoft.com/explorer/
0
SECTION
2
HEADER
9
$ACADVER
1
AC1008
9
$UCSORG
10
0.0
20
0.0
30
0.0
9
$UCSXDIR
10
1.0
20
0.0
30
0.0
9
$TILEMODE
70
1
9
$UCSYDIR
10
0.0
20
1.0
30
0.0
9
$EXTMIN
10
-11.500000
20
-11.000000
30
-11.000000
9
$EXTMAX
10
11.800000
20
11.000000
30
1749.500000
0
ENDSEC
0
SECTION
2
TABLES
0
TABLE
2
LTYPE
70
1
0
LTYPE
2
CONTINUOUS
70
64
3
Solid line
72
65
73
0
40
0.0
0
ENDTAB
0
TABLE
2
LAYER
70
56
0
LAYER
2
OBJECT__0
70
0
62
253
6
CONTINUOUS
0
LAYER
2
OBJECT__1
70
0
62
253
6
CONTINUOUS
0
LAYER
2
OBJECT__3
70
0
62
253
6
CONTINUOUS
0
LAYER
2
OBJECT__4
70
0
62
253
6
CONTINUOUS
0
LAYER
2
OBJECT__5
70
0
62
253
6
CONTINUOUS
0
LAYER
2
OBJECT__6
70
0
62
253
6
CONTINUOUS
0
LAYER
2
OBJECT__7
70
0
62
253
6
CONTINUOUS
0
LAYER
2
OBJECT__8
70
0
62
253
6
CONTINUOUS
0
LAYER
2
OBJECT__9
70
0
62
253
6
CONTINUOUS
0
LAYER
2
OBJECT__10
70
0
62
253
6
CONTINUOUS
0
LAYER
2
OBJECT__11
70
0
62
253
6
CONTINUOUS
0
LAYER
2
OBJECT__12
70
0
62
253
6
CONTINUOUS
0
LAYER
2
OBJECT__13
70
0
62
253
6
CONTINUOUS
0
LAYER
2
OBJECT__14
70
0
62
253
6
CONTINUOUS
0
LAYER
2
OBJECT__15
70
0
62
253
6
CONTINUOUS
0
LAYER
2
OBJECT__16
70
0
62
253
6
CONTINUOUS
0
LAYER
2
OBJECT__18
70
0
62
253
6
CONTINUOUS
0
LAYER
2
OBJECT__19
70
0
62
253
6
CONTINUOUS
0
LAYER
2
OBJECT__20
70
0
62
253
6
CONTINUOUS
0
LAYER
2
OBJECT__21
70
0
62
253
6
CONTINUOUS
0
LAYER
2
OBJECT__22
70
0
62
253
6
CONTINUOUS
0
LAYER
2
OBJECT__23
70
0
62
253
6
CONTINUOUS
0
LAYER
2
OBJECT__24
70
0
62
253
6
CONTINUOUS
0
LAYER
2
OBJECT__25
70
0
62
253
6
CONTINUOUS
0
LAYER
2
OBJECT__26
70
0
62
253
6
CONTINUOUS
0
LAYER
2
OBJECT__27
70
0
62
253
6
CONTINUOUS
0
LAYER
2
OBJECT__29
70
0
62
253
6
CONTINUOUS
0
LAYER
2
OBJECT__30
70
0
62
253
6
CONTINUOUS
0
LAYER
2
OBJECT__31
70
0
62
253
6
CONTINUOUS
0
LAYER
2
OBJECT__32
70
0
62
253
6
CONTINUOUS
0
LAYER
2
OBJECT__34
70
0
62
253
6
CONTINUOUS
0
LAYER
2
OBJECT__35
70
0
62
253
6
CONTINUOUS
0
LAYER
2
OBJECT__36
70
0
62
253
6
CONTINUOUS
0
LAYER
2
OBJECT__38
70
0
62
253
6
CONTINUOUS
0
LAYER
2
OBJECT__40
70
0
62
253
6
CONTINUOUS
0
LAYER
2
OBJECT__41
70
0
62
253
6
CONTINUOUS
0
LAYER
2
OBJECT__43
70
0
62
253
6
CONTINUOUS
0
LAYER
2
OBJECT__44
70
0
62
253
6
CONTINUOUS
0
LAYER
2
OBJECT__45
70
0
62
253
6
CONTINUOUS
0
LAYER
2
OBJECT__47
70
0
62
253
6
CONTINUOUS
0
LAYER
2
OBJECT__49
70
0
62
253
6
CONTINUOUS
0
LAYER
2
OBJECT__50
70
0
62
253
6
CONTINUOUS
0
LAYER
2
OBJECT__52
70
0
62
253
6
CONTINUOUS
0
LAYER
2
OBJECT__53
70
0
62
253
6
CONTINUOUS
0
LAYER
2
OBJECT__54
70
0
62
253
6
CONTINUOUS
0
ENDTAB
0
TABLE
2
STYLE
70
1
0
STYLE
2
STANDARD
70
0
40
0.0
41
1.0
50
0.0
71
0
42
0.2
3
txt
4
1
0
ENDTAB
0
TABLE
2
UCS
70
0
0
ENDTAB
0
ENDSEC
0
SECTION
2
ENTITIES
0
POLYLINE
8
OBJECT__0
66
1
70
64
71
10
72
10
62
253
0
VERTEX
8
OBJECT__0
10
9.315000
20
0.000000
30
1743.000000
70
192
0
VERTEX
8
OBJECT__0
10
0.000000
20
-9.315000
30
1743.000000
70
192
0
VERTEX
8
OBJECT__0
10
-1.705000
20
-6.362000
30
1747.165039
70
192
0
VERTEX
8
OBJECT__0
10
9.315000
20
0.000000
30
1747.165039
70
192
0
VERTEX
8
OBJECT__0
10
-1.705000
20
6.362000
30
1747.165039
70
192
0
VERTEX
8
OBJECT__0
10
-9.315000
20
0.000000
30
1743.000000
70
192
0
VERTEX
8
OBJECT__0
10
0.000000
20
9.315000
30
1743.000000
70
192
0
VERTEX
8
OBJECT__0
10
-4.657000
20
8.067000
30
1747.165039
70
192
0
VERTEX
8
OBJECT__0
10
-4.657000
20
0.000000
30
1747.165039
70
192
0
VERTEX
8
OBJECT__0
10
-4.657000
20
-8.067000
30
1747.165039
70
192
0
VERTEX
8
OBJECT__0
10
0
20
0
30
0
70
128
71
1
72
2
73
3
0
VERTEX
8
OBJECT__0
10
0
20
0
30
0
70
128
71
1
72
4
73
5
0
VERTEX
8
OBJECT__0
10
0
20
0
30
0
70
128
71
6
72
7
73
8
0
VERTEX
8
OBJECT__0
10
0
20
0
30
0
70
128
71
7
72
5
73
8
0
VERTEX
8
OBJECT__0
10
0
20
0
30
0
70
128
71
6
72
9
73
10
0
VERTEX
8
OBJECT__0
10
0
20
0
30
0
70
128
71
10
72
2
73
6
0
VERTEX
8
OBJECT__0
10
0
20
0
30
0
70
128
71
10
72
3
73
2
0
VERTEX
8
OBJECT__0
10
0
20
0
30
0
70
128
71
8
72
9
73
6
0
VERTEX
8
OBJECT__0
10
0
20
0
30
0
70
128
71
5
72
7
73
1
0
VERTEX
8
OBJECT__0
10
0
20
0
30
0
70
128
71
3
72
4
73
1
0
SEQEND
8
OBJECT__0
0
POLYLINE
8
OBJECT__1
66
1
70
64
71
12
72
12
62
253
0
VERTEX
8
OBJECT__1
10
-1.949000
20
7.274000
30
1748.500000
70
192
0
VERTEX
8
OBJECT__1
10
-1.705000
20
6.362000
30
1747.165039
70
192
0
VERTEX
8
OBJECT__1
10
9.315000
20
0.000000
30
1747.165039
70
192
0
VERTEX
8
OBJECT__1
10
-5.325000
20
9.223000
30
1748.500000
70
192
0
VERTEX
8
OBJECT__1
10
-4.657000
20
8.067000
30
1747.165039
70
192
0
VERTEX
8
OBJECT__1
10
-5.325000
20
0.000000
30
1748.500000
70
192
0
VERTEX
8
OBJECT__1
10
-4.657000
20
0.000000
30
1747.165039
70
192
0
VERTEX
8
OBJECT__1
10
-5.325000
20
-9.223000
30
1748.500000
70
192
0
VERTEX
8
OBJECT__1
10
-4.657000
20
-8.067000
30
1747.165039
70
192
0
VERTEX
8
OBJECT__1
10
0.000000
20
-10.650000
30
1748.500000
70
192
0
VERTEX
8
OBJECT__1
10
-1.705000
20
-6.362000
30
1747.165039
70
192
0
VERTEX
8
OBJECT__1
10
10.650000
20
0.000000
30
1748.500000
70
192
0
VERTEX
8
OBJECT__1
10
0
20
0
30
0
70
128
71
1
72
2
73
3
0
VERTEX
8
OBJECT__1
10
0
20
0
30
0
70
128
71
1
72
4
73
5
0
VERTEX
8
OBJECT__1
10
0
20
0
30
0
70
128
71
5
72
2
73
1
0
VERTEX
8
OBJECT__1
10
0
20
0
30
0
70
128
71
6
72
7
73
5
0
VERTEX
8
OBJECT__1
10
0
20
0
30
0
70
128
71
6
72
8
73
9
0
VERTEX
8
OBJECT__1
10
0
20
0
30
0
70
128
71
9
72
7
73
6
0
VERTEX
8
OBJECT__1
10
0
20
0
30
0
70
128
71
10
72
11
73
9
0
VERTEX
8
OBJECT__1
10
0
20
0
30
0
70
128
71
10
72
12
73
3
0
VERTEX
8
OBJECT__1
10
0
20
0
30
0
70
128
71
3
72
11
73
10
0
VERTEX
8
OBJECT__1
10
0
20
0
30
0
70
128
71
9
72
8
73
10
0
VERTEX
8
OBJECT__1
10
0
20
0
30
0
70
128
71
5
72
4
73
6
0
VERTEX
8
OBJECT__1
10
0
20
0
30
0
70
128
71
3
72
12
73
1
0
SEQEND
8
OBJECT__1
0
POLYLINE
8
OBJECT__3
66
1
70
64
71
21
72
21
62
253
0
VERTEX
8
OBJECT__3
10
10.650000
20
0.000000
30
1749.500000
70
192
0
VERTEX
8
OBJECT__3
10
10.650000
20
0.000000
30
1748.500000
70
192
0
VERTEX
8
OBJECT__3
10
0.000000
20
-10.650000
30
1748.500000
70
192
0
VERTEX
8
OBJECT__3
10
-1.949000
20
7.274000
30
1748.500000
70
192
0
VERTEX
8
OBJECT__3
10
7.531000
20
7.531000
30
1749.500000
70
192
0
VERTEX
8
OBJECT__3
10
4.076000
20
9.839000
30
1749.500000
70
192
0
VERTEX
8
OBJECT__3
10
-5.325000
20
0.000000
30
1748.500000
70
192
0
VERTEX
8
OBJECT__3
10
-9.839000
20
4.076000
30
1749.500000
70
192
0
VERTEX
8
OBJECT__3
10
-10.445000
20
2.078000
30
1749.500000
70
192
0
VERTEX
8
OBJECT__3
10
-8.855000
20
5.917000
30
1749.500000
70
192
0
VERTEX
8
OBJECT__3
10
-5.325000
20
9.223000
30
1748.500000
70
192
0
VERTEX
8
OBJECT__3
10
-7.531000
20
7.531000
30
1749.500000
70
192
0
VERTEX
8
OBJECT__3
10
-4.076000
20
9.839000
30
1749.500000
70
192
0
VERTEX
8
OBJECT__3
10
0.000000
20
10.650000
30
1749.500000
70
192
0
VERTEX
8
OBJECT__3
10
-5.325000
20
-9.223000
30
1748.500000
70
192
0
VERTEX
8
OBJECT__3
10
-4.076000
20
-9.839000
30
1749.500000
70
192
0
VERTEX
8
OBJECT__3
10
-2.078000
20
-10.445000
30
1749.500000
70
192
0
VERTEX
8
OBJECT__3
10
-5.917000
20
-8.855000
30
1749.500000
70
192
0
VERTEX
8
OBJECT__3
10
-7.531000
20
-7.531000
30
1749.500000
70
192
0
VERTEX
8
OBJECT__3
10
-10.650000
20
0.000000
30
1749.500000
70
192
0
VERTEX
8
OBJECT__3
10
0.000000
20
-10.650000
30
1749.500000
70
192
0
VERTEX
8
OBJECT__3
10
0
20
0
30
0
70
128
71
1
72
2
73
3
0
VERTEX
8
OBJECT__3
10
0
20
0
30
0
70
128
71
4
72
5
73
6
0
VERTEX
8
OBJECT__3
10
0
20
0
30
0
70
128
71
2
72
1
73
5
0
VERTEX
8
OBJECT__3
10
0
20
0
30
0
70
128
71
5
72
4
73
2
0
VERTEX
8
OBJECT__3
10
0
20
0
30
0
70
128
71
7
72
8
73
9
0
VERTEX
8
OBJECT__3
10
0
20
0
30
0
70
128
71
7
72
10
73
8
0
VERTEX
8
OBJECT__3
10
0
20
0
30
0
70
128
71
11
72
12
73
10
0
VERTEX
8
OBJECT__3
10
0
20
0
30
0
70
128
71
10
72
7
73
11
0
VERTEX
8
OBJECT__3
10
0
20
0
30
0
70
128
71
13
72
12
73
11
0
VERTEX
8
OBJECT__3
10
0
20
0
30
0
70
128
71
11
72
4
73
13
0
VERTEX
8
OBJECT__3
10
0
20
0
30
0
70
128
71
4
72
14
73
13
0
VERTEX
8
OBJECT__3
10
0
20
0
30
0
70
128
71
15
72
16
73
17
0
VERTEX
8
OBJECT__3
10
0
20
0
30
0
70
128
71
17
72
3
73
15
0
VERTEX
8
OBJECT__3
10
0
20
0
30
0
70
128
71
15
72
18
73
16
0
VERTEX
8
OBJECT__3
10
0
20
0
30
0
70
128
71
15
72
7
73
19
0
VERTEX
8
OBJECT__3
10
0
20
0
30
0
70
128
71
19
72
18
73
15
0
VERTEX
8
OBJECT__3
10
0
20
0
30
0
70
128
71
7
72
20
73
19
0
VERTEX
8
OBJECT__3
10
0
20
0
30
0
70
128
71
17
72
21
73
3
0
VERTEX
8
OBJECT__3
10
0
20
0
30
0
70
128
71
9
72
20
73
7
0
VERTEX
8
OBJECT__3
10
0
20
0
30
0
70
128
71
6
72
14
73
4
0
VERTEX
8
OBJECT__3
10
0
20
0
30
0
70
128
71
3
72
21
73
1
0
SEQEND
8
OBJECT__3
0
POLYLINE
8
OBJECT__4
66
1
70
64
71
31
72
31
62
253
0
VERTEX
8
OBJECT__4
10
-8.899000
20
6.466000
30
1749.500000
70
192
0
VERTEX
8
OBJECT__4
10
-10.462000
20
3.399000
30
1749.500000
70
192
0
VERTEX
8
OBJECT__4
10
-9.839000
20
4.076000
30
1749.500000
70
192
0
VERTEX
8
OBJECT__4
10
-8.855000
20
5.917000
30
1749.500000
70
192
0
VERTEX
8
OBJECT__4
10
-7.531000
20
7.531000
30
1749.500000
70
192
0
VERTEX
8
OBJECT__4
10
-10.445000
20
2.078000
30
1749.500000
70
192
0
VERTEX
8
OBJECT__4
10
6.466000
20
8.899000
30
1749.500000
70
192
0
VERTEX
8
OBJECT__4
10
3.399000
20
10.462000
30
1749.500000
70
192
0
VERTEX
8
OBJECT__4
10
4.076000
20
9.839000
30
1749.500000
70
192
0
VERTEX
8
OBJECT__4
10
0.000000
20
10.650000
30
1749.500000
70
192
0
VERTEX
8
OBJECT__4
10
0.000000
20
11.000000
30
1749.500000
70
192
0
VERTEX
8
OBJECT__4
10
-3.399000
20
10.462000
30
1749.500000
70
192
0
VERTEX
8
OBJECT__4
10
-11.000000
20
0.000000
30
1749.500000
70
192
0
VERTEX
8
OBJECT__4
10
-10.650000
20
0.000000
30
1749.500000
70
192
0
VERTEX
8
OBJECT__4
10
7.531000
20
7.531000
30
1749.500000
70
192
0
VERTEX
8
OBJECT__4
10
-4.076000
20
9.839000
30
1749.500000
70
192
0
VERTEX
8
OBJECT__4
10
-6.466000
20
8.899000
30
1749.500000
70
192
0
VERTEX
8
OBJECT__4
10
-6.466000
20
-8.899000
30
1749.500000
70
192
0
VERTEX
8
OBJECT__4
10
-5.917000
20
-8.855000
30
1749.500000
70
192
0
VERTEX
8
OBJECT__4
10
-7.531000
20
-7.531000
30
1749.500000
70
192
0
VERTEX
8
OBJECT__4
10
-3.399000
20
-10.462000
30
1749.500000
70
192
0
VERTEX
8
OBJECT__4
10
-4.076000
20
-9.839000
30
1749.500000
70
192
0
VERTEX
8
OBJECT__4
10
0.000000
20
-11.000000
30
1749.500000
70
192
0
VERTEX
8
OBJECT__4
10
0.000000
20
-10.650000
30
1749.500000
70
192
0
VERTEX
8
OBJECT__4
10
-2.078000
20
-10.445000
30
1749.500000
70
192
0
VERTEX
8
OBJECT__4
10
-8.899000
20
-6.466000
30
1749.500000
70
192
0
VERTEX
8
OBJECT__4
10
10.650000
20
0.000000
30
1749.500000
70
192
0
VERTEX
8
OBJECT__4
10
3.399000
20
-10.462000
30
1749.500000
70
192
0
VERTEX
8
OBJECT__4
10
8.899000
20
-6.466000
30
1749.500000
70
192
0
VERTEX
8
OBJECT__4
10
8.899000
20
6.466000
30
1749.500000
70
192
0
VERTEX
8
OBJECT__4
10
11.000000
20
0.000000
30
1749.500000
70
192
0
VERTEX
8
OBJECT__4
10
0
20
0
30
0
70
128
71
1
72
2
73
3
0
VERTEX
8
OBJECT__4
10
0
20
0
30
0
70
128
71
1
72
4
73
5
0
VERTEX
8
OBJECT__4
10
0
20
0
30
0
70
128
71
2
72
6
73
3
0
VERTEX
8
OBJECT__4
10
0
20
0
30
0
70
128
71
7
72
8
73
9
0
VERTEX
8
OBJECT__4
10
0
20
0
30
0
70
128
71
10
72
9
73
8
0
VERTEX
8
OBJECT__4
10
0
20
0
30
0
70
128
71
10
72
11
73
12
0
VERTEX
8
OBJECT__4
10
0
20
0
30
0
70
128
71
3
72
4
73
1
0
VERTEX
8
OBJECT__4
10
0
20
0
30
0
70
128
71
13
72
14
73
6
0
VERTEX
8
OBJECT__4
10
0
20
0
30
0
70
128
71
9
72
15
73
7
0
VERTEX
8
OBJECT__4
10
0
20
0
30
0
70
128
71
12
72
16
73
10
0
VERTEX
8
OBJECT__4
10
0
20
0
30
0
70
128
71
17
72
5
73
16
0
VERTEX
8
OBJECT__4
10
0
20
0
30
0
70
128
71
6
72
2
73
13
0
VERTEX
8
OBJECT__4
10
0
20
0
30
0
70
128
71
8
72
11
73
10
0
VERTEX
8
OBJECT__4
10
0
20
0
30
0
70
128
71
5
72
17
73
1
0
VERTEX
8
OBJECT__4
10
0
20
0
30
0
70
128
71
18
72
19
73
20
0
VERTEX
8
OBJECT__4
10
0
20
0
30
0
70
128
71
18
72
21
73
22
0
VERTEX
8
OBJECT__4
10
0
20
0
30
0
70
128
71
23
72
24
73
25
0
VERTEX
8
OBJECT__4
10
0
20
0
30
0
70
128
71
16
72
12
73
17
0
VERTEX
8
OBJECT__4
10
0
20
0
30
0
70
128
71
14
72
13
73
26
0
VERTEX
8
OBJECT__4
10
0
20
0
30
0
70
128
71
22
72
19
73
18
0
VERTEX
8
OBJECT__4
10
0
20
0
30
0
70
128
71
25
72
21
73
23
0
VERTEX
8
OBJECT__4
10
0
20
0
30
0
70
128
71
26
72
20
73
14
0
VERTEX
8
OBJECT__4
10
0
20
0
30
0
70
128
71
25
72
22
73
21
0
VERTEX
8
OBJECT__4
10
0
20
0
30
0
70
128
71
20
72
26
73
18
0
VERTEX
8
OBJECT__4
10
0
20
0
30
0
70
128
71
27
72
28
73
29
0
VERTEX
8
OBJECT__4
10
0
20
0
30
0
70
128
71
28
72
27
73
24
0
VERTEX
8
OBJECT__4
10
0
20
0
30
0
70
128
71
15
72
30
73
7
0
VERTEX
8
OBJECT__4
10
0
20
0
30
0
70
128
71
24
72
23
73
28
0
VERTEX
8
OBJECT__4
10
0
20
0
30
0
70
128
71
29
72
31
73
27
0
VERTEX
8
OBJECT__4
10
0
20
0
30
0
70
128
71
15
72
27
73
30
0
VERTEX
8
OBJECT__4
10
0
20
0
30
0
70
128
71
27
72
31
73
30
0
SEQEND
8
OBJECT__4
0
POLYLINE
8
OBJECT__5
66
1
70
64
71
24
72
24
62
253
0
VERTEX
8
OBJECT__5
10
-3.554000
20
10.937000
30
1749.000000
70
192
0
VERTEX
8
OBJECT__5
10
-11.500000
20
0.000000
30
1749.000000
70
192
0
VERTEX
8
OBJECT__5
10
-6.466000
20
8.899000
30
1749.500000
70
192
0
VERTEX
8
OBJECT__5
10
-3.399000
20
10.462000
30
1749.500000
70
192
0
VERTEX
8
OBJECT__5
10
-11.000000
20
0.000000
30
1749.500000
70
192
0
VERTEX
8
OBJECT__5
10
-10.462000
20
3.399000
30
1749.500000
70
192
0
VERTEX
8
OBJECT__5
10
-8.899000
20
6.466000
30
1749.500000
70
192
0
VERTEX
8
OBJECT__5
10
9.304000
20
6.760000
30
1749.000000
70
192
0
VERTEX
8
OBJECT__5
10
3.399000
20
10.462000
30
1749.500000
70
192
0
VERTEX
8
OBJECT__5
10
6.466000
20
8.899000
30
1749.500000
70
192
0
VERTEX
8
OBJECT__5
10
8.899000
20
6.466000
30
1749.500000
70
192
0
VERTEX
8
OBJECT__5
10
0.000000
20
11.000000
30
1749.500000
70
192
0
VERTEX
8
OBJECT__5
10
-0.532000
20
10.487000
30
1749.000000
70
192
0
VERTEX
8
OBJECT__5
10
11.000000
20
0.000000
30
1749.500000
70
192
0
VERTEX
8
OBJECT__5
10
9.304000
20
-6.760000
30
1749.000000
70
192
0
VERTEX
8
OBJECT__5
10
10.500000
20
0.000000
30
1749.000000
70
192
0
VERTEX
8
OBJECT__5
10
-3.554000
20
-10.937000
30
1749.000000
70
192
0
VERTEX
8
OBJECT__5
10
3.399000
20
-10.462000
30
1749.500000
70
192
0
VERTEX
8
OBJECT__5
10
0.000000
20
-11.000000
30
1749.500000
70
192
0
VERTEX
8
OBJECT__5
10
-3.399000
20
-10.462000
30
1749.500000
70
192
0
VERTEX
8
OBJECT__5
10
-0.532000
20
-10.487000
30
1749.000000
70
192
0
VERTEX
8
OBJECT__5
10
8.899000
20
-6.466000
30
1749.500000
70
192
0
VERTEX
8
OBJECT__5
10
-8.899000
20
-6.466000
30
1749.500000
70
192
0
VERTEX
8
OBJECT__5
10
-6.466000
20
-8.899000
30
1749.500000
70
192
0
VERTEX
8
OBJECT__5
10
0
20
0
30
0
70
128
71
1
72
2
73
3
0
VERTEX
8
OBJECT__5
10
0
20
0
30
0
70
128
71
3
72
4
73
1
0
VERTEX
8
OBJECT__5
10
0
20
0
30
0
70
128
71
2
72
5
73
6
0
VERTEX
8
OBJECT__5
10
0
20
0
30
0
70
128
71
6
72
7
73
2
0
VERTEX
8
OBJECT__5
10
0
20
0
30
0
70
128
71
7
72
3
73
2
0
VERTEX
8
OBJECT__5
10
0
20
0
30
0
70
128
71
8
72
9
73
10
0
VERTEX
8
OBJECT__5
10
0
20
0
30
0
70
128
71
10
72
11
73
8
0
VERTEX
8
OBJECT__5
10
0
20
0
30
0
70
128
71
8
72
12
73
9
0
VERTEX
8
OBJECT__5
10
0
20
0
30
0
70
128
71
1
72
12
73
8
0
VERTEX
8
OBJECT__5
10
0
20
0
30
0
70
128
71
8
72
13
73
1
0
VERTEX
8
OBJECT__5
10
0
20
0
30
0
70
128
71
1
72
4
73
12
0
VERTEX
8
OBJECT__5
10
0
20
0
30
0
70
128
71
8
72
14
73
15
0
VERTEX
8
OBJECT__5
10
0
20
0
30
0
70
128
71
15
72
16
73
8
0
VERTEX
8
OBJECT__5
10
0
20
0
30
0
70
128
71
8
72
11
73
14
0
VERTEX
8
OBJECT__5
10
0
20
0
30
0
70
128
71
17
72
18
73
19
0
VERTEX
8
OBJECT__5
10
0
20
0
30
0
70
128
71
19
72
20
73
17
0
VERTEX
8
OBJECT__5
10
0
20
0
30
0
70
128
71
15
72
18
73
17
0
VERTEX
8
OBJECT__5
10
0
20
0
30
0
70
128
71
17
72
21
73
15
0
VERTEX
8
OBJECT__5
10
0
20
0
30
0
70
128
71
15
72
22
73
18
0
VERTEX
8
OBJECT__5
10
0
20
0
30
0
70
128
71
2
72
17
73
23
0
VERTEX
8
OBJECT__5
10
0
20
0
30
0
70
128
71
23
72
5
73
2
0
VERTEX
8
OBJECT__5
10
0
20
0
30
0
70
128
71
17
72
20
73
24
0
VERTEX
8
OBJECT__5
10
0
20
0
30
0
70
128
71
24
72
23
73
17
0
VERTEX
8
OBJECT__5
10
0
20
0
30
0
70
128
71
14
72
22
73
15
0
SEQEND
8
OBJECT__5
0
POLYLINE
8
OBJECT__6
66
1
70
64
71
14
72
14
62
253
0
VERTEX
8
OBJECT__6
10
9.304000
20
6.760000
30
1749.000000
70
192
0
VERTEX
8
OBJECT__6
10
5.750000
20
9.959000
30
1746.300049
70
192
0
VERTEX
8
OBJECT__6
10
2.105000
20
7.855000
30
1746.300049
70
192
0
VERTEX
8
OBJECT__6
10
-0.505000
20
9.946000
30
1749.000000
70
192
0
VERTEX
8
OBJECT__6
10
11.500000
20
0.000000
30
1746.300049
70
192
0
VERTEX
8
OBJECT__6
10
9.304000
20
0.000000
30
1749.000000
70
192
0
VERTEX
8
OBJECT__6
10
-11.500000
20
0.000000
30
1746.300049
70
192
0
VERTEX
8
OBJECT__6
10
-11.500000
20
0.000000
30
1749.000000
70
192
0
VERTEX
8
OBJECT__6
10
-3.554000
20
10.937000
30
1749.000000
70
192
0
VERTEX
8
OBJECT__6
10
2.105000
20
-7.855000
30
1746.300049
70
192
0
VERTEX
8
OBJECT__6
10
-3.554000
20
-10.937000
30
1749.000000
70
192
0
VERTEX
8
OBJECT__6
10
-0.505000
20
-9.946000
30
1749.000000
70
192
0
VERTEX
8
OBJECT__6
10
9.304000
20
-6.760000
30
1749.000000
70
192
0
VERTEX
8
OBJECT__6
10
5.750000
20
-9.959000
30
1746.300049
70
192
0
VERTEX
8
OBJECT__6
10
0
20
0
30
0
70
128
71
1
72
2
73
3
0
VERTEX
8
OBJECT__6
10
0
20
0
30
0
70
128
71
3
72
4
73
1
0
VERTEX
8
OBJECT__6
10
0
20
0
30
0
70
128
71
5
72
2
73
1
0
VERTEX
8
OBJECT__6
10
0
20
0
30
0
70
128
71
1
72
6
73
5
0
VERTEX
8
OBJECT__6
10
0
20
0
30
0
70
128
71
7
72
8
73
9
0
VERTEX
8
OBJECT__6
10
0
20
0
30
0
70
128
71
9
72
3
73
7
0
VERTEX
8
OBJECT__6
10
0
20
0
30
0
70
128
71
7
72
10
73
11
0
VERTEX
8
OBJECT__6
10
0
20
0
30
0
70
128
71
10
72
12
73
11
0
VERTEX
8
OBJECT__6
10
0
20
0
30
0
70
128
71
13
72
10
73
14
0
VERTEX
8
OBJECT__6
10
0
20
0
30
0
70
128
71
14
72
6
73
13
0
VERTEX
8
OBJECT__6
10
0
20
0
30
0
70
128
71
13
72
12
73
10
0
VERTEX
8
OBJECT__6
10
0
20
0
30
0
70
128
71
14
72
5
73
6
0
VERTEX
8
OBJECT__6
10
0
20
0
30
0
70
128
71
11
72
8
73
7
0
VERTEX
8
OBJECT__6
10
0
20
0
30
0
70
128
71
9
72
4
73
3
0
SEQEND
8
OBJECT__6
0
POLYLINE
8
OBJECT__7
66
1
70
64
71
12
72
12
62
253
0
VERTEX
8
OBJECT__7
10
-5.900000
20
0.000000
30
1746.000000
70
192
0
VERTEX
8
OBJECT__7
10
-11.500000
20
0.000000
30
1746.300049
70
192
0
VERTEX
8
OBJECT__7
10
5.750000
20
9.959000
30
1746.300049
70
192
0
VERTEX
8
OBJECT__7
10
2.950000
20
5.110000
30
1746.000000
70
192
0
VERTEX
8
OBJECT__7
10
2.541000
20
9.481000
30
1747.984009
70
192
0
VERTEX
8
OBJECT__7
10
-5.900000
20
10.219000
30
1746.000000
70
192
0
VERTEX
8
OBJECT__7
10
11.500000
20
0.000000
30
1746.300049
70
192
0
VERTEX
8
OBJECT__7
10
5.750000
20
-9.959000
30
1746.300049
70
192
0
VERTEX
8
OBJECT__7
10
2.950000
20
-5.110000
30
1746.000000
70
192
0
VERTEX
8
OBJECT__7
10
11.800000
20
0.000000
30
1746.000000
70
192
0
VERTEX
8
OBJECT__7
10
2.541000
20
-9.481000
30
1747.984009
70
192
0
VERTEX
8
OBJECT__7
10
-5.900000
20
-10.219000
30
1746.000000
70
192
0
VERTEX
8
OBJECT__7
10
0
20
0
30
0
70
128
71
1
72
2
73
3
0
VERTEX
8
OBJECT__7
10
0
20
0
30
0
70
128
71
3
72
4
73
1
0
VERTEX
8
OBJECT__7
10
0
20
0
30
0
70
128
71
2
72
5
73
3
0
VERTEX
8
OBJECT__7
10
0
20
0
30
0
70
128
71
4
72
6
73
1
0
VERTEX
8
OBJECT__7
10
0
20
0
30
0
70
128
71
7
72
8
73
9
0
VERTEX
8
OBJECT__7
10
0
20
0
30
0
70
128
71
9
72
10
73
7
0
VERTEX
8
OBJECT__7
10
0
20
0
30
0
70
128
71
7
72
10
73
4
0
VERTEX
8
OBJECT__7
10
0
20
0
30
0
70
128
71
4
72
3
73
7
0
VERTEX
8
OBJECT__7
10
0
20
0
30
0
70
128
71
8
72
11
73
2
0
VERTEX
8
OBJECT__7
10
0
20
0
30
0
70
128
71
2
72
9
73
8
0
VERTEX
8
OBJECT__7
10
0
20
0
30
0
70
128
71
2
72
1
73
9
0
VERTEX
8
OBJECT__7
10
0
20
0
30
0
70
128
71
1
72
12
73
9
0
SEQEND
8
OBJECT__7
0
POLYLINE
8
OBJECT__8
66
1
70
64
71
9
72
9
62
253
0
VERTEX
8
OBJECT__8
10
10.321000
20
0.000000
30
1717.770996
70
192
0
VERTEX
8
OBJECT__8
10
-5.160000
20
8.938000
30
1717.770996
70
192
0
VERTEX
8
OBJECT__8
10
2.950000
20
5.110000
30
1746.000000
70
192
0
VERTEX
8
OBJECT__8
10
-5.900000
20
10.219000
30
1746.000000
70
192
0
VERTEX
8
OBJECT__8
10
-5.160000
20
-8.938000
30
1717.770996
70
192
0
VERTEX
8
OBJECT__8
10
-5.900000
20
0.000000
30
1746.000000
70
192
0
VERTEX
8
OBJECT__8
10
-5.900000
20
-10.219000
30
1746.000000
70
192
0
VERTEX
8
OBJECT__8
10
2.950000
20
-5.110000
30
1746.000000
70
192
0
VERTEX
8
OBJECT__8
10
11.800000
20
0.000000
30
1746.000000
70
192
0
VERTEX
8
OBJECT__8
10
0
20
0
30
0
70
128
71
1
72
2
73
3
0
VERTEX
8
OBJECT__8
10
0
20
0
30
0
70
128
71
2
72
4
73
3
0
VERTEX
8
OBJECT__8
10
0
20
0
30
0
70
128
71
2
72
5
73
6
0
VERTEX
8
OBJECT__8
10
0
20
0
30
0
70
128
71
5
72
7
73
6
0
VERTEX
8
OBJECT__8
10
0
20
0
30
0
70
128
71
5
72
1
73
8
0
VERTEX
8
OBJECT__8
10
0
20
0
30
0
70
128
71
1
72
9
73
8
0
VERTEX
8
OBJECT__8
10
0
20
0
30
0
70
128
71
8
72
7
73
5
0
VERTEX
8
OBJECT__8
10
0
20
0
30
0
70
128
71
6
72
4
73
2
0
VERTEX
8
OBJECT__8
10
0
20
0
30
0
70
128
71
3
72
9
73
1
0
SEQEND
8
OBJECT__8
0
POLYLINE
8
OBJECT__9
66
1
70
64
71
9
72
9
62
253
0
VERTEX
8
OBJECT__9
10
10.321000
20
0.000000
30
1717.770996
70
192
0
VERTEX
8
OBJECT__9
10
9.950000
20
0.000000
30
1717.400024
70
192
0
VERTEX
8
OBJECT__9
10
-1.821000
20
6.796000
30
1717.400024
70
192
0
VERTEX
8
OBJECT__9
10
-5.160000
20
8.938000
30
1717.770996
70
192
0
VERTEX
8
OBJECT__9
10
-5.160000
20
-8.938000
30
1717.770996
70
192
0
VERTEX
8
OBJECT__9
10
-4.975000
20
0.000000
30
1717.400024
70
192
0
VERTEX
8
OBJECT__9
10
-4.975000
20
8.617000
30
1717.400024
70
192
0
VERTEX
8
OBJECT__9
10
-1.821000
20
-6.796000
30
1717.400024
70
192
0
VERTEX
8
OBJECT__9
10
-4.975000
20
-8.617000
30
1717.400024
70
192
0
VERTEX
8
OBJECT__9
10
0
20
0
30
0
70
128
71
1
72
2
73
3
0
VERTEX
8
OBJECT__9
10
0
20
0
30
0
70
128
71
3
72
4
73
1
0
VERTEX
8
OBJECT__9
10
0
20
0
30
0
70
128
71
5
72
4
73
6
0
VERTEX
8
OBJECT__9
10
0
20
0
30
0
70
128
71
4
72
7
73
6
0
VERTEX
8
OBJECT__9
10
0
20
0
30
0
70
128
71
1
72
5
73
8
0
VERTEX
8
OBJECT__9
10
0
20
0
30
0
70
128
71
5
72
9
73
8
0
VERTEX
8
OBJECT__9
10
0
20
0
30
0
70
128
71
8
72
2
73
1
0
VERTEX
8
OBJECT__9
10
0
20
0
30
0
70
128
71
6
72
9
73
5
0
VERTEX
8
OBJECT__9
10
0
20
0
30
0
70
128
71
3
72
7
73
4
0
SEQEND
8
OBJECT__9
0
POLYLINE
8
OBJECT__10
66
1
70
64
71
10
72
10
62
253
0
VERTEX
8
OBJECT__10
10
9.950000
20
0.000000
30
1715.199951
70
192
0
VERTEX
8
OBJECT__10
10
0.000000
20
9.950000
30
1715.199951
70
192
0
VERTEX
8
OBJECT__10
10
-1.821000
20
6.796000
30
1717.400024
70
192
0
VERTEX
8
OBJECT__10
10
-9.950000
20
0.000000
30
1715.199951
70
192
0
VERTEX
8
OBJECT__10
10
-4.975000
20
0.000000
30
1717.400024
70
192
0
VERTEX
8
OBJECT__10
10
-4.975000
20
8.617000
30
1717.400024
70
192
0
VERTEX
8
OBJECT__10
10
0.000000
20
-9.950000
30
1715.199951
70
192
0
VERTEX
8
OBJECT__10
10
-4.975000
20
-8.617000
30
1717.400024
70
192
0
VERTEX
8
OBJECT__10
10
-1.821000
20
-6.796000
30
1717.400024
70
192
0
VERTEX
8
OBJECT__10
10
9.950000
20
0.000000
30
1717.400024
70
192
0
VERTEX
8
OBJECT__10
10
0
20
0
30
0
70
128
71
1
72
2
73
3
0
VERTEX
8
OBJECT__10
10
0
20
0
30
0
70
128
71
4
72
5
73
6
0
VERTEX
8
OBJECT__10
10
0
20
0
30
0
70
128
71
6
72
2
73
4
0
VERTEX
8
OBJECT__10
10
0
20
0
30
0
70
128
71
4
72
7
73
8
0
VERTEX
8
OBJECT__10
10
0
20
0
30
0
70
128
71
8
72
5
73
4
0
VERTEX
8
OBJECT__10
10
0
20
0
30
0
70
128
71
7
72
9
73
8
0
VERTEX
8
OBJECT__10
10
0
20
0
30
0
70
128
71
1
72
10
73
9
0
VERTEX
8
OBJECT__10
10
0
20
0
30
0
70
128
71
9
72
7
73
1
0
VERTEX
8
OBJECT__10
10
0
20
0
30
0
70
128
71
6
72
3
73
2
0
VERTEX
8
OBJECT__10
10
0
20
0
30
0
70
128
71
3
72
10
73
1
0
SEQEND
8
OBJECT__10
0
POLYLINE
8
OBJECT__11
66
1
70
64
71
8
72
8
62
253
0
VERTEX
8
OBJECT__11
10
9.950000
20
0.000000
30
1715.199951
70
192
0
VERTEX
8
OBJECT__11
10
8.950000
20
0.000000
30
1714.199951
70
192
0
VERTEX
8
OBJECT__11
10
0.000000
20
8.950000
30
1714.199951
70
192
0
VERTEX
8
OBJECT__11
10
-9.950000
20
0.000000
30
1715.199951
70
192
0
VERTEX
8
OBJECT__11
10
0.000000
20
9.950000
30
1715.199951
70
192
0
VERTEX
8
OBJECT__11
10
0.000000
20
-9.950000
30
1715.199951
70
192
0
VERTEX
8
OBJECT__11
10
-8.950000
20
0.000000
30
1714.199951
70
192
0
VERTEX
8
OBJECT__11
10
0.000000
20
-8.950000
30
1714.199951
70
192
0
VERTEX
8
OBJECT__11
10
0
20
0
30
0
70
128
71
1
72
2
73
3
0
VERTEX
8
OBJECT__11
10
0
20
0
30
0
70
128
71
4
72
5
73
3
0
VERTEX
8
OBJECT__11
10
0
20
0
30
0
70
128
71
6
72
4
73
7
0
VERTEX
8
OBJECT__11
10
0
20
0
30
0
70
128
71
1
72
6
73
8
0
VERTEX
8
OBJECT__11
10
0
20
0
30
0
70
128
71
8
72
2
73
1
0
VERTEX
8
OBJECT__11
10
0
20
0
30
0
70
128
71
7
72
8
73
6
0
VERTEX
8
OBJECT__11
10
0
20
0
30
0
70
128
71
3
72
7
73
4
0
VERTEX
8
OBJECT__11
10
0
20
0
30
0
70
128
71
3
72
5
73
1
0
SEQEND
8
OBJECT__11
0
POLYLINE
8
OBJECT__12
66
1
70
64
71
8
72
8
62
253
0
VERTEX
8
OBJECT__12
10
-8.950000
20
0.000000
30
1714.199951
70
192
0
VERTEX
8
OBJECT__12
10
0.000000
20
8.950000
30
1714.199951
70
192
0
VERTEX
8
OBJECT__12
10
0.000000
20
8.400000
30
1714.199951
70
192
0
VERTEX
8
OBJECT__12
10
8.950000
20
0.000000
30
1714.199951
70
192
0
VERTEX
8
OBJECT__12
10
8.400000
20
0.000000
30
1714.199951
70
192
0
VERTEX
8
OBJECT__12
10
0.000000
20
-8.950000
30
1714.199951
70
192
0
VERTEX
8
OBJECT__12
10
0.000000
20
-8.400000
30
1714.199951
70
192
0
VERTEX
8
OBJECT__12
10
-8.400000
20
0.000000
30
1714.199951
70
192
0
VERTEX
8
OBJECT__12
10
0
20
0
30
0
70
128
71
1
72
2
73
3
0
VERTEX
8
OBJECT__12
10
0
20
0
30
0
70
128
71
4
72
5
73
3
0
VERTEX
8
OBJECT__12
10
0
20
0
30
0
70
128
71
6
72
7
73
5
0
VERTEX
8
OBJECT__12
10
0
20
0
30
0
70
128
71
6
72
1
73
8
0
VERTEX
8
OBJECT__12
10
0
20
0
30
0
70
128
71
3
72
2
73
4
0
VERTEX
8
OBJECT__12
10
0
20
0
30
0
70
128
71
8
72
7
73
6
0
VERTEX
8
OBJECT__12
10
0
20
0
30
0
70
128
71
5
72
4
73
6
0
VERTEX
8
OBJECT__12
10
0
20
0
30
0
70
128
71
3
72
8
73
1
0
SEQEND
8
OBJECT__12
0
POLYLINE
8
OBJECT__13
66
1
70
64
71
8
72
8
62
253
0
VERTEX
8
OBJECT__13
10
0.000000
20
8.400000
30
1714.199951
70
192
0
VERTEX
8
OBJECT__13
10
8.400000
20
0.000000
30
1714.199951
70
192
0
VERTEX
8
OBJECT__13
10
8.100000
20
0.000000
30
1714.500000
70
192
0
VERTEX
8
OBJECT__13
10
-8.400000
20
0.000000
30
1714.199951
70
192
0
VERTEX
8
OBJECT__13
10
0.000000
20
8.100000
30
1714.500000
70
192
0
VERTEX
8
OBJECT__13
10
0.000000
20
-8.400000
30
1714.199951
70
192
0
VERTEX
8
OBJECT__13
10
-8.100000
20
0.000000
30
1714.500000
70
192
0
VERTEX
8
OBJECT__13
10
0.000000
20
-8.100000
30
1714.500000
70
192
0
VERTEX
8
OBJECT__13
10
0
20
0
30
0
70
128
71
1
72
2
73
3
0
VERTEX
8
OBJECT__13
10
0
20
0
30
0
70
128
71
4
72
1
73
5
0
VERTEX
8
OBJECT__13
10
0
20
0
30
0
70
128
71
6
72
4
73
7
0
VERTEX
8
OBJECT__13
10
0
20
0
30
0
70
128
71
2
72
6
73
8
0
VERTEX
8
OBJECT__13
10
0
20
0
30
0
70
128
71
8
72
3
73
2
0
VERTEX
8
OBJECT__13
10
0
20
0
30
0
70
128
71
7
72
8
73
6
0
VERTEX
8
OBJECT__13
10
0
20
0
30
0
70
128
71
5
72
7
73
4
0
VERTEX
8
OBJECT__13
10
0
20
0
30
0
70
128
71
3
72
5
73
1
0
SEQEND
8
OBJECT__13
0
POLYLINE
8
OBJECT__14
66
1
70
64
71
8
72
8
62
253
0
VERTEX
8
OBJECT__14
10
0.000000
20
-8.100000
30
1738.500000
70
192
0
VERTEX
8
OBJECT__14
10
0.000000
20
-8.100000
30
1714.500000
70
192
0
VERTEX
8
OBJECT__14
10
-8.100000
20
0.000000
30
1714.500000
70
192
0
VERTEX
8
OBJECT__14
10
8.100000
20
0.000000
30
1738.500000
70
192
0
VERTEX
8
OBJECT__14
10
8.100000
20
0.000000
30
1714.500000
70
192
0
VERTEX
8
OBJECT__14
10
0.000000
20
8.100000
30
1738.500000
70
192
0
VERTEX
8
OBJECT__14
10
0.000000
20
8.100000
30
1714.500000
70
192
0
VERTEX
8
OBJECT__14
10
-8.100000
20
0.000000
30
1738.500000
70
192
0
VERTEX
8
OBJECT__14
10
0
20
0
30
0
70
128
71
1
72
2
73
3
0
VERTEX
8
OBJECT__14
10
0
20
0
30
0
70
128
71
4
72
5
73
2
0
VERTEX
8
OBJECT__14
10
0
20
0
30
0
70
128
71
6
72
7
73
5
0
VERTEX
8
OBJECT__14
10
0
20
0
30
0
70
128
71
8
72
3
73
7
0
VERTEX
8
OBJECT__14
10
0
20
0
30
0
70
128
71
7
72
6
73
8
0
VERTEX
8
OBJECT__14
10
0
20
0
30
0
70
128
71
5
72
4
73
6
0
VERTEX
8
OBJECT__14
10
0
20
0
30
0
70
128
71
2
72
1
73
4
0
VERTEX
8
OBJECT__14
10
0
20
0
30
0
70
128
71
3
72
8
73
1
0
SEQEND
8
OBJECT__14
0
POLYLINE
8
OBJECT__15
66
1
70
64
71
10
72
10
62
253
0
VERTEX
8
OBJECT__15
10
9.316000
20
0.000000
30
6.000000
70
192
0
VERTEX
8
OBJECT__15
10
0.000000
20
9.316000
30
6.000000
70
192
0
VERTEX
8
OBJECT__15
10
-1.705000
20
6.363000
30
0.172000
70
192
0
VERTEX
8
OBJECT__15
10
-9.315000
20
0.000000
30
6.000000
70
192
0
VERTEX
8
OBJECT__15
10
-4.658000
20
8.067000
30
0.172000
70
192
0
VERTEX
8
OBJECT__15
10
-4.658000
20
0.000000
30
0.172000
70
192
0
VERTEX
8
OBJECT__15
10
0.000000
20
-9.315000
30
6.000000
70
192
0
VERTEX
8
OBJECT__15
10
-1.705000
20
-6.363000
30
0.172000
70
192
0
VERTEX
8
OBJECT__15
10
-4.658000
20
-8.067000
30
0.172000
70
192
0
VERTEX
8
OBJECT__15
10
9.316000
20
0.000000
30
0.172000
70
192
0
VERTEX
8
OBJECT__15
10
0
20
0
30
0
70
128
71
1
72
2
73
3
0
VERTEX
8
OBJECT__15
10
0
20
0
30
0
70
128
71
2
72
4
73
5
0
VERTEX
8
OBJECT__15
10
0
20
0
30
0
70
128
71
4
72
6
73
5
0
VERTEX
8
OBJECT__15
10
0
20
0
30
0
70
128
71
5
72
3
73
2
0
VERTEX
8
OBJECT__15
10
0
20
0
30
0
70
128
71
7
72
8
73
9
0
VERTEX
8
OBJECT__15
10
0
20
0
30
0
70
128
71
9
72
4
73
7
0
VERTEX
8
OBJECT__15
10
0
20
0
30
0
70
128
71
9
72
6
73
4
0
VERTEX
8
OBJECT__15
10
0
20
0
30
0
70
128
71
1
72
10
73
8
0
VERTEX
8
OBJECT__15
10
0
20
0
30
0
70
128
71
8
72
7
73
1
0
VERTEX
8
OBJECT__15
10
0
20
0
30
0
70
128
71
3
72
10
73
1
0
SEQEND
8
OBJECT__15
0
POLYLINE
8
OBJECT__16
66
1
70
64
71
12
72
12
62
253
0
VERTEX
8
OBJECT__16
10
9.614000
20
0.000000
30
0.000000
70
192
0
VERTEX
8
OBJECT__16
10
-4.807000
20
-8.326000
30
0.000000
70
192
0
VERTEX
8
OBJECT__16
10
-1.705000
20
-6.363000
30
0.172000
70
192
0
VERTEX
8
OBJECT__16
10
-4.658000
20
-8.067000
30
0.172000
70
192
0
VERTEX
8
OBJECT__16
10
-9.614000
20
0.000000
30
0.000000
70
192
0
VERTEX
8
OBJECT__16
10
-4.658000
20
0.000000
30
0.172000
70
192
0
VERTEX
8
OBJECT__16
10
-4.807000
20
8.326000
30
0.000000
70
192
0
VERTEX
8
OBJECT__16
10
-4.658000
20
8.067000
30
0.172000
70
192
0
VERTEX
8
OBJECT__16
10
4.807000
20
8.326000
30
0.000000
70
192
0
VERTEX
8
OBJECT__16
10
-1.705000
20
6.363000
30
0.172000
70
192
0
VERTEX
8
OBJECT__16
10
8.326000
20
4.807000
30
0.000000
70
192
0
VERTEX
8
OBJECT__16
10
9.316000
20
0.000000
30
0.172000
70
192
0
VERTEX
8
OBJECT__16
10
0
20
0
30
0
70
128
71
1
72
2
73
3
0
VERTEX
8
OBJECT__16
10
0
20
0
30
0
70
128
71
2
72
4
73
3
0
VERTEX
8
OBJECT__16
10
0
20
0
30
0
70
128
71
5
72
6
73
4
0
VERTEX
8
OBJECT__16
10
0
20
0
30
0
70
128
71
5
72
7
73
8
0
VERTEX
8
OBJECT__16
10
0
20
0
30
0
70
128
71
8
72
6
73
5
0
VERTEX
8
OBJECT__16
10
0
20
0
30
0
70
128
71
9
72
10
73
8
0
VERTEX
8
OBJECT__16
10
0
20
0
30
0
70
128
71
11
72
1
73
12
0
VERTEX
8
OBJECT__16
10
0
20
0
30
0
70
128
71
10
72
9
73
11
0
VERTEX
8
OBJECT__16
10
0
20
0
30
0
70
128
71
12
72
10
73
11
0
VERTEX
8
OBJECT__16
10
0
20
0
30
0
70
128
71
8
72
7
73
9
0
VERTEX
8
OBJECT__16
10
0
20
0
30
0
70
128
71
4
72
2
73
5
0
VERTEX
8
OBJECT__16
10
0
20
0
30
0
70
128
71
3
72
12
73
1
0
SEQEND
8
OBJECT__16
0
POLYLINE
8
OBJECT__18
66
1
70
64
71
13
72
13
62
253
0
VERTEX
8
OBJECT__18
10
0.000000
20
10.600000
30
0.000000
70
192
0
VERTEX
8
OBJECT__18
10
4.807000
20
8.326000
30
0.000000
70
192
0
VERTEX
8
OBJECT__18
10
-4.807000
20
8.326000
30
0.000000
70
192
0
VERTEX
8
OBJECT__18
10
10.600000
20
0.000000
30
0.000000
70
192
0
VERTEX
8
OBJECT__18
10
9.614000
20
0.000000
30
0.000000
70
192
0
VERTEX
8
OBJECT__18
10
8.326000
20
4.807000
30
0.000000
70
192
0
VERTEX
8
OBJECT__18
10
7.495000
20
7.495000
30
0.000000
70
192
0
VERTEX
8
OBJECT__18
10
-9.614000
20
0.000000
30
0.000000
70
192
0
VERTEX
8
OBJECT__18
10
-10.600000
20
0.000000
30
0.000000
70
192
0
VERTEX
8
OBJECT__18
10
-7.495000
20
7.495000
30
0.000000
70
192
0
VERTEX
8
OBJECT__18
10
0.000000
20
-10.600000
30
0.000000
70
192
0
VERTEX
8
OBJECT__18
10
-4.807000
20
-8.326000
30
0.000000
70
192
0
VERTEX
8
OBJECT__18
10
-7.495000
20
-7.495000
30
0.000000
70
192
0
VERTEX
8
OBJECT__18
10
0
20
0
30
0
70
128
71
1
72
2
73
3
0
VERTEX
8
OBJECT__18
10
0
20
0
30
0
70
128
71
4
72
5
73
6
0
VERTEX
8
OBJECT__18
10
0
20
0
30
0
70
128
71
1
72
7
73
2
0
VERTEX
8
OBJECT__18
10
0
20
0
30
0
70
128
71
6
72
7
73
4
0
VERTEX
8
OBJECT__18
10
0
20
0
30
0
70
128
71
8
72
9
73
10
0
VERTEX
8
OBJECT__18
10
0
20
0
30
0
70
128
71
6
72
2
73
7
0
VERTEX
8
OBJECT__18
10
0
20
0
30
0
70
128
71
3
72
10
73
1
0
VERTEX
8
OBJECT__18
10
0
20
0
30
0
70
128
71
11
72
12
73
5
0
VERTEX
8
OBJECT__18
10
0
20
0
30
0
70
128
71
8
72
12
73
13
0
VERTEX
8
OBJECT__18
10
0
20
0
30
0
70
128
71
5
72
4
73
11
0
VERTEX
8
OBJECT__18
10
0
20
0
30
0
70
128
71
13
72
9
73
8
0
VERTEX
8
OBJECT__18
10
0
20
0
30
0
70
128
71
12
72
11
73
13
0
VERTEX
8
OBJECT__18
10
0
20
0
30
0
70
128
71
10
72
3
73
8
0
SEQEND
8
OBJECT__18
0
POLYLINE
8
OBJECT__19
66
1
70
64
71
15
72
15
62
253
0
VERTEX
8
OBJECT__19
10
-7.495000
20
7.495000
30
0.000000
70
192
0
VERTEX
8
OBJECT__19
10
-10.600000
20
0.000000
30
0.000000
70
192
0
VERTEX
8
OBJECT__19
10
-8.576000
20
6.231000
30
-0.500000
70
192
0
VERTEX
8
OBJECT__19
10
0.465000
20
9.168000
30
-0.500000
70
192
0
VERTEX
8
OBJECT__19
10
-10.600000
20
0.000000
30
-0.500000
70
192
0
VERTEX
8
OBJECT__19
10
0.000000
20
10.600000
30
0.000000
70
192
0
VERTEX
8
OBJECT__19
10
3.276000
20
10.081000
30
-0.500000
70
192
0
VERTEX
8
OBJECT__19
10
10.600000
20
0.000000
30
-0.500000
70
192
0
VERTEX
8
OBJECT__19
10
7.495000
20
7.495000
30
0.000000
70
192
0
VERTEX
8
OBJECT__19
10
10.600000
20
0.000000
30
0.000000
70
192
0
VERTEX
8
OBJECT__19
10
3.276000
20
-10.081000
30
-0.500000
70
192
0
VERTEX
8
OBJECT__19
10
0.465000
20
-9.168000
30
-0.500000
70
192
0
VERTEX
8
OBJECT__19
10
0.000000
20
-10.600000
30
0.000000
70
192
0
VERTEX
8
OBJECT__19
10
-7.495000
20
-7.495000
30
0.000000
70
192
0
VERTEX
8
OBJECT__19
10
-8.576000
20
-6.231000
30
-0.500000
70
192
0
VERTEX
8
OBJECT__19
10
0
20
0
30
0
70
128
71
1
72
2
73
3
0
VERTEX
8
OBJECT__19
10
0
20
0
30
0
70
128
71
3
72
4
73
1
0
VERTEX
8
OBJECT__19
10
0
20
0
30
0
70
128
71
2
72
5
73
3
0
VERTEX
8
OBJECT__19
10
0
20
0
30
0
70
128
71
4
72
6
73
1
0
VERTEX
8
OBJECT__19
10
0
20
0
30
0
70
128
71
7
72
8
73
9
0
VERTEX
8
OBJECT__19
10
0
20
0
30
0
70
128
71
9
72
6
73
7
0
VERTEX
8
OBJECT__19
10
0
20
0
30
0
70
128
71
8
72
10
73
9
0
VERTEX
8
OBJECT__19
10
0
20
0
30
0
70
128
71
6
72
4
73
7
0
VERTEX
8
OBJECT__19
10
0
20
0
30
0
70
128
71
10
72
11
73
12
0
VERTEX
8
OBJECT__19
10
0
20
0
30
0
70
128
71
12
72
13
73
10
0
VERTEX
8
OBJECT__19
10
0
20
0
30
0
70
128
71
10
72
8
73
11
0
VERTEX
8
OBJECT__19
10
0
20
0
30
0
70
128
71
14
72
13
73
15
0
VERTEX
8
OBJECT__19
10
0
20
0
30
0
70
128
71
15
72
5
73
14
0
VERTEX
8
OBJECT__19
10
0
20
0
30
0
70
128
71
5
72
2
73
14
0
VERTEX
8
OBJECT__19
10
0
20
0
30
0
70
128
71
13
72
12
73
15
0
SEQEND
8
OBJECT__19
0
POLYLINE
8
OBJECT__20
66
1
70
64
71
16
72
16
62
253
0
VERTEX
8
OBJECT__20
10
3.554000
20
-10.937000
30
0.495000
70
192
0
VERTEX
8
OBJECT__20
10
3.276000
20
-10.081000
30
-0.500000
70
192
0
VERTEX
8
OBJECT__20
10
10.600000
20
0.000000
30
-0.500000
70
192
0
VERTEX
8
OBJECT__20
10
0.505000
20
-9.946000
30
0.495000
70
192
0
VERTEX
8
OBJECT__20
10
0.465000
20
-9.168000
30
-0.500000
70
192
0
VERTEX
8
OBJECT__20
10
-9.304000
20
-6.760000
30
0.495000
70
192
0
VERTEX
8
OBJECT__20
10
-8.576000
20
-6.231000
30
-0.500000
70
192
0
VERTEX
8
OBJECT__20
10
-9.304000
20
6.760000
30
0.495000
70
192
0
VERTEX
8
OBJECT__20
10
-10.600000
20
0.000000
30
-0.500000
70
192
0
VERTEX
8
OBJECT__20
10
-9.500000
20
0.000000
30
0.495000
70
192
0
VERTEX
8
OBJECT__20
10
-8.576000
20
6.231000
30
-0.500000
70
192
0
VERTEX
8
OBJECT__20
10
0.505000
20
9.946000
30
0.495000
70
192
0
VERTEX
8
OBJECT__20
10
3.554000
20
10.937000
30
0.495000
70
192
0
VERTEX
8
OBJECT__20
10
3.276000
20
10.081000
30
-0.500000
70
192
0
VERTEX
8
OBJECT__20
10
0.465000
20
9.168000
30
-0.500000
70
192
0
VERTEX
8
OBJECT__20
10
11.500000
20
0.000000
30
0.495000
70
192
0
VERTEX
8
OBJECT__20
10
0
20
0
30
0
70
128
71
1
72
2
73
3
0
VERTEX
8
OBJECT__20
10
0
20
0
30
0
70
128
71
4
72
5
73
2
0
VERTEX
8
OBJECT__20
10
0
20
0
30
0
70
128
71
4
72
6
73
7
0
VERTEX
8
OBJECT__20
10
0
20
0
30
0
70
128
71
7
72
5
73
4
0
VERTEX
8
OBJECT__20
10
0
20
0
30
0
70
128
71
8
72
9
73
6
0
VERTEX
8
OBJECT__20
10
0
20
0
30
0
70
128
71
6
72
10
73
8
0
VERTEX
8
OBJECT__20
10
0
20
0
30
0
70
128
71
8
72
11
73
9
0
VERTEX
8
OBJECT__20
10
0
20
0
30
0
70
128
71
12
72
13
73
14
0
VERTEX
8
OBJECT__20
10
0
20
0
30
0
70
128
71
12
72
15
73
11
0
VERTEX
8
OBJECT__20
10
0
20
0
30
0
70
128
71
11
72
8
73
12
0
VERTEX
8
OBJECT__20
10
0
20
0
30
0
70
128
71
16
72
3
73
14
0
VERTEX
8
OBJECT__20
10
0
20
0
30
0
70
128
71
14
72
13
73
16
0
VERTEX
8
OBJECT__20
10
0
20
0
30
0
70
128
71
14
72
15
73
12
0
VERTEX
8
OBJECT__20
10
0
20
0
30
0
70
128
71
9
72
7
73
6
0
VERTEX
8
OBJECT__20
10
0
20
0
30
0
70
128
71
2
72
1
73
4
0
VERTEX
8
OBJECT__20
10
0
20
0
30
0
70
128
71
3
72
16
73
1
0
SEQEND
8
OBJECT__20
0
POLYLINE
8
OBJECT__21
66
1
70
64
71
16
72
16
62
253
0
VERTEX
8
OBJECT__21
10
-3.554000
20
-10.937000
30
11.000000
70
192
0
VERTEX
8
OBJECT__21
10
-11.500000
20
0.000000
30
11.000000
70
192
0
VERTEX
8
OBJECT__21
10
-9.304000
20
-6.760000
30
0.495000
70
192
0
VERTEX
8
OBJECT__21
10
0.505000
20
-9.946000
30
0.495000
70
192
0
VERTEX
8
OBJECT__21
10
-0.505000
20
-9.946000
30
11.000000
70
192
0
VERTEX
8
OBJECT__21
10
-9.304000
20
0.000000
30
0.495000
70
192
0
VERTEX
8
OBJECT__21
10
3.554000
20
-10.937000
30
0.495000
70
192
0
VERTEX
8
OBJECT__21
10
11.500000
20
0.000000
30
0.495000
70
192
0
VERTEX
8
OBJECT__21
10
9.304000
20
-6.760000
30
11.000000
70
192
0
VERTEX
8
OBJECT__21
10
9.304000
20
0.000000
30
11.000000
70
192
0
VERTEX
8
OBJECT__21
10
3.554000
20
10.937000
30
0.495000
70
192
0
VERTEX
8
OBJECT__21
10
-0.505000
20
9.946000
30
11.000000
70
192
0
VERTEX
8
OBJECT__21
10
9.304000
20
6.760000
30
11.000000
70
192
0
VERTEX
8
OBJECT__21
10
0.505000
20
9.946000
30
0.495000
70
192
0
VERTEX
8
OBJECT__21
10
-3.554000
20
10.937000
30
11.000000
70
192
0
VERTEX
8
OBJECT__21
10
-9.304000
20
6.760000
30
0.495000
70
192
0
VERTEX
8
OBJECT__21
10
0
20
0
30
0
70
128
71
1
72
2
73
3
0
VERTEX
8
OBJECT__21
10
0
20
0
30
0
70
128
71
4
72
5
73
1
0
VERTEX
8
OBJECT__21
10
0
20
0
30
0
70
128
71
2
72
6
73
3
0
VERTEX
8
OBJECT__21
10
0
20
0
30
0
70
128
71
7
72
8
73
9
0
VERTEX
8
OBJECT__21
10
0
20
0
30
0
70
128
71
8
72
10
73
9
0
VERTEX
8
OBJECT__21
10
0
20
0
30
0
70
128
71
5
72
4
73
7
0
VERTEX
8
OBJECT__21
10
0
20
0
30
0
70
128
71
11
72
12
73
13
0
VERTEX
8
OBJECT__21
10
0
20
0
30
0
70
128
71
13
72
8
73
11
0
VERTEX
8
OBJECT__21
10
0
20
0
30
0
70
128
71
11
72
14
73
12
0
VERTEX
8
OBJECT__21
10
0
20
0
30
0
70
128
71
15
72
14
73
16
0
VERTEX
8
OBJECT__21
10
0
20
0
30
0
70
128
71
16
72
2
73
15
0
VERTEX
8
OBJECT__21
10
0
20
0
30
0
70
128
71
16
72
6
73
2
0
VERTEX
8
OBJECT__21
10
0
20
0
30
0
70
128
71
15
72
12
73
14
0
VERTEX
8
OBJECT__21
10
0
20
0
30
0
70
128
71
13
72
10
73
8
0
VERTEX
8
OBJECT__21
10
0
20
0
30
0
70
128
71
9
72
5
73
7
0
VERTEX
8
OBJECT__21
10
0
20
0
30
0
70
128
71
3
72
4
73
1
0
SEQEND
8
OBJECT__21
0
POLYLINE
8
OBJECT__22
66
1
70
64
71
19
72
24
62
253
0
VERTEX
8
OBJECT__22
10
-11.500000
20
0.000000
30
11.000000
70
192
0
VERTEX
8
OBJECT__22
10
-3.554000
20
-10.937000
30
11.000000
70
192
0
VERTEX
8
OBJECT__22
10
-3.463000
20
-10.659000
30
11.707000
70
192
0
VERTEX
8
OBJECT__22
10
9.067000
20
-6.587000
30
11.707000
70
192
0
VERTEX
8
OBJECT__22
10
-0.505000
20
-9.946000
30
11.000000
70
192
0
VERTEX
8
OBJECT__22
10
9.067000
20
6.587000
30
11.707000
70
192
0
VERTEX
8
OBJECT__22
10
9.304000
20
0.000000
30
11.000000
70
192
0
VERTEX
8
OBJECT__22
10
9.304000
20
-6.760000
30
11.000000
70
192
0
VERTEX
8
OBJECT__22
10
9.304000
20
6.760000
30
11.000000
70
192
0
VERTEX
8
OBJECT__22
10
-0.505000
20
9.946000
30
11.000000
70
192
0
VERTEX
8
OBJECT__22
10
-3.463000
20
10.659000
30
11.707000
70
192
0
VERTEX
8
OBJECT__22
10
-3.554000
20
10.937000
30
11.000000
70
192
0
VERTEX
8
OBJECT__22
10
-11.207000
20
0.000000
30
11.707000
70
192
0
VERTEX
8
OBJECT__22
10
-3.245000
20
-9.986000
30
12.000000
70
192
0
VERTEX
8
OBJECT__22
10
-10.500000
20
0.000000
30
12.000000
70
192
0
VERTEX
8
OBJECT__22
10
8.495000
20
-6.172000
30
12.000000
70
192
0
VERTEX
8
OBJECT__22
10
10.500000
20
0.000000
30
12.000000
70
192
0
VERTEX
8
OBJECT__22
10
8.495000
20
6.172000
30
12.000000
70
192
0
VERTEX
8
OBJECT__22
10
-3.245000
20
9.986000
30
12.000000
70
192
0
VERTEX
8
OBJECT__22
10
0
20
0
30
0
70
128
71
1
72
2
73
3
0
VERTEX
8
OBJECT__22
10
0
20
0
30
0
70
128
71
4
72
3
73
5
0
VERTEX
8
OBJECT__22
10
0
20
0
30
0
70
128
71
3
72
2
73
5
0
VERTEX
8
OBJECT__22
10
0
20
0
30
0
70
128
71
6
72
4
73
7
0
VERTEX
8
OBJECT__22
10
0
20
0
30
0
70
128
71
4
72
8
73
7
0
VERTEX
8
OBJECT__22
10
0
20
0
30
0
70
128
71
6
72
9
73
10
0
VERTEX
8
OBJECT__22
10
0
20
0
30
0
70
128
71
10
72
11
73
6
0
VERTEX
8
OBJECT__22
10
0
20
0
30
0
70
128
71
12
72
1
73
13
0
VERTEX
8
OBJECT__22
10
0
20
0
30
0
70
128
71
3
72
14
73
15
0
VERTEX
8
OBJECT__22
10
0
20
0
30
0
70
128
71
3
72
4
73
16
0
VERTEX
8
OBJECT__22
10
0
20
0
30
0
70
128
71
4
72
6
73
17
0
VERTEX
8
OBJECT__22
10
0
20
0
30
0
70
128
71
17
72
16
73
4
0
VERTEX
8
OBJECT__22
10
0
20
0
30
0
70
128
71
6
72
18
73
17
0
VERTEX
8
OBJECT__22
10
0
20
0
30
0
70
128
71
11
72
19
73
18
0
VERTEX
8
OBJECT__22
10
0
20
0
30
0
70
128
71
11
72
13
73
15
0
VERTEX
8
OBJECT__22
10
0
20
0
30
0
70
128
71
15
72
19
73
11
0
VERTEX
8
OBJECT__22
10
0
20
0
30
0
70
128
71
18
72
6
73
11
0
VERTEX
8
OBJECT__22
10
0
20
0
30
0
70
128
71
16
72
14
73
3
0
VERTEX
8
OBJECT__22
10
0
20
0
30
0
70
128
71
15
72
13
73
3
0
VERTEX
8
OBJECT__22
10
0
20
0
30
0
70
128
71
13
72
11
73
12
0
VERTEX
8
OBJECT__22
10
0
20
0
30
0
70
128
71
10
72
12
73
11
0
VERTEX
8
OBJECT__22
10
0
20
0
30
0
70
128
71
7
72
9
73
6
0
VERTEX
8
OBJECT__22
10
0
20
0
30
0
70
128
71
5
72
8
73
4
0
VERTEX
8
OBJECT__22
10
0
20
0
30
0
70
128
71
3
72
13
73
1
0
SEQEND
8
OBJECT__22
0
POLYLINE
8
OBJECT__23
66
1
70
64
71
11
72
11
62
253
0
VERTEX
8
OBJECT__23
10
8.495000
20
6.172000
30
12.000000
70
192
0
VERTEX
8
OBJECT__23
10
6.081000
20
6.081000
30
12.000000
70
192
0
VERTEX
8
OBJECT__23
10
8.600000
20
0.000000
30
12.000000
70
192
0
VERTEX
8
OBJECT__23
10
-3.245000
20
9.986000
30
12.000000
70
192
0
VERTEX
8
OBJECT__23
10
0.000000
20
8.600000
30
12.000000
70
192
0
VERTEX
8
OBJECT__23
10
8.495000
20
-6.172000
30
12.000000
70
192
0
VERTEX
8
OBJECT__23
10
10.500000
20
0.000000
30
12.000000
70
192
0
VERTEX
8
OBJECT__23
10
-10.500000
20
0.000000
30
12.000000
70
192
0
VERTEX
8
OBJECT__23
10
-8.600000
20
0.000000
30
12.000000
70
192
0
VERTEX
8
OBJECT__23
10
-3.245000
20
-9.986000
30
12.000000
70
192
0
VERTEX
8
OBJECT__23
10
0.000000
20
-8.600000
30
12.000000
70
192
0
VERTEX
8
OBJECT__23
10
0
20
0
30
0
70
128
71
1
72
2
73
3
0
VERTEX
8
OBJECT__23
10
0
20
0
30
0
70
128
71
1
72
4
73
5
0
VERTEX
8
OBJECT__23
10
0
20
0
30
0
70
128
71
6
72
7
73
3
0
VERTEX
8
OBJECT__23
10
0
20
0
30
0
70
128
71
5
72
2
73
1
0
VERTEX
8
OBJECT__23
10
0
20
0
30
0
70
128
71
4
72
8
73
9
0
VERTEX
8
OBJECT__23
10
0
20
0
30
0
70
128
71
10
72
11
73
9
0
VERTEX
8
OBJECT__23
10
0
20
0
30
0
70
128
71
3
72
11
73
6
0
VERTEX
8
OBJECT__23
10
0
20
0
30
0
70
128
71
9
72
5
73
4
0
VERTEX
8
OBJECT__23
10
0
20
0
30
0
70
128
71
11
72
10
73
6
0
VERTEX
8
OBJECT__23
10
0
20
0
30
0
70
128
71
9
72
8
73
10
0
VERTEX
8
OBJECT__23
10
0
20
0
30
0
70
128
71
3
72
7
73
1
0
SEQEND
8
OBJECT__23
0
POLYLINE
8
OBJECT__24
66
1
70
64
71
13
72
17
62
253
0
VERTEX
8
OBJECT__24
10
-8.600000
20
0.000000
30
12.000000
70
192
0
VERTEX
8
OBJECT__24
10
0.000000
20
-8.600000
30
12.000000
70
192
0
VERTEX
8
OBJECT__24
10
0.000000
20
-8.246000
30
11.854000
70
192
0
VERTEX
8
OBJECT__24
10
8.600000
20
0.000000
30
12.000000
70
192
0
VERTEX
8
OBJECT__24
10
8.246000
20
0.000000
30
11.854000
70
192
0
VERTEX
8
OBJECT__24
10
0.000000
20
8.246000
30
11.854000
70
192
0
VERTEX
8
OBJECT__24
10
6.081000
20
6.081000
30
12.000000
70
192
0
VERTEX
8
OBJECT__24
10
-8.246000
20
0.000000
30
11.854000
70
192
0
VERTEX
8
OBJECT__24
10
0.000000
20
-8.100000
30
11.500000
70
192
0
VERTEX
8
OBJECT__24
10
-8.100000
20
0.000000
30
11.500000
70
192
0
VERTEX
8
OBJECT__24
10
8.100000
20
0.000000
30
11.500000
70
192
0
VERTEX
8
OBJECT__24
10
0.000000
20
8.100000
30
11.500000
70
192
0
VERTEX
8
OBJECT__24
10
0.000000
20
8.600000
30
12.000000
70
192
0
VERTEX
8
OBJECT__24
10
0
20
0
30
0
70
128
71
1
72
2
73
3
0
VERTEX
8
OBJECT__24
10
0
20
0
30
0
70
128
71
2
72
4
73
5
0
VERTEX
8
OBJECT__24
10
0
20
0
30
0
70
128
71
6
72
5
73
7
0
VERTEX
8
OBJECT__24
10
0
20
0
30
0
70
128
71
5
72
4
73
7
0
VERTEX
8
OBJECT__24
10
0
20
0
30
0
70
128
71
1
72
8
73
6
0
VERTEX
8
OBJECT__24
10
0
20
0
30
0
70
128
71
3
72
9
73
10
0
VERTEX
8
OBJECT__24
10
0
20
0
30
0
70
128
71
5
72
11
73
9
0
VERTEX
8
OBJECT__24
10
0
20
0
30
0
70
128
71
5
72
6
73
12
0
VERTEX
8
OBJECT__24
10
0
20
0
30
0
70
128
71
6
72
8
73
10
0
VERTEX
8
OBJECT__24
10
0
20
0
30
0
70
128
71
10
72
12
73
6
0
VERTEX
8
OBJECT__24
10
0
20
0
30
0
70
128
71
12
72
11
73
5
0
VERTEX
8
OBJECT__24
10
0
20
0
30
0
70
128
71
9
72
3
73
5
0
VERTEX
8
OBJECT__24
10
0
20
0
30
0
70
128
71
10
72
8
73
3
0
VERTEX
8
OBJECT__24
10
0
20
0
30
0
70
128
71
6
72
13
73
1
0
VERTEX
8
OBJECT__24
10
0
20
0
30
0
70
128
71
7
72
13
73
6
0
VERTEX
8
OBJECT__24
10
0
20
0
30
0
70
128
71
5
72
3
73
2
0
VERTEX
8
OBJECT__24
10
0
20
0
30
0
70
128
71
3
72
8
73
1
0
SEQEND
8
OBJECT__24
0
POLYLINE
8
OBJECT__25
66
1
70
64
71
8
72
8
62
253
0
VERTEX
8
OBJECT__25
10
-8.100000
20
0.000000
30
11.000000
70
192
0
VERTEX
8
OBJECT__25
10
0.000000
20
8.100000
30
11.000000
70
192
0
VERTEX
8
OBJECT__25
10
0.000000
20
8.100000
30
11.500000
70
192
0
VERTEX
8
OBJECT__25
10
8.100000
20
0.000000
30
11.000000
70
192
0
VERTEX
8
OBJECT__25
10
8.100000
20
0.000000
30
11.500000
70
192
0
VERTEX
8
OBJECT__25
10
0.000000
20
-8.100000
30
11.000000
70
192
0
VERTEX
8
OBJECT__25
10
0.000000
20
-8.100000
30
11.500000
70
192
0
VERTEX
8
OBJECT__25
10
-8.100000
20
0.000000
30
11.500000
70
192
0
VERTEX
8
OBJECT__25
10
0
20
0
30
0
70
128
71
1
72
2
73
3
0
VERTEX
8
OBJECT__25
10
0
20
0
30
0
70
128
71
2
72
4
73
5
0
VERTEX
8
OBJECT__25
10
0
20
0
30
0
70
128
71
5
72
4
73
6
0
VERTEX
8
OBJECT__25
10
0
20
0
30
0
70
128
71
7
72
6
73
1
0
VERTEX
8
OBJECT__25
10
0
20
0
30
0
70
128
71
1
72
8
73
7
0
VERTEX
8
OBJECT__25
10
0
20
0
30
0
70
128
71
6
72
7
73
5
0
VERTEX
8
OBJECT__25
10
0
20
0
30
0
70
128
71
5
72
3
73
2
0
VERTEX
8
OBJECT__25
10
0
20
0
30
0
70
128
71
3
72
8
73
1
0
SEQEND
8
OBJECT__25
0
POLYLINE
8
OBJECT__26
66
1
70
64
71
8
72
8
62
253
0
VERTEX
8
OBJECT__26
10
-8.500000
20
0.000000
30
1738.500000
70
192
0
VERTEX
8
OBJECT__26
10
0.000000
20
8.500000
30
1738.500000
70
192
0
VERTEX
8
OBJECT__26
10
0.000000
20
8.000000
30
1738.000000
70
192
0
VERTEX
8
OBJECT__26
10
8.500000
20
0.000000
30
1738.500000
70
192
0
VERTEX
8
OBJECT__26
10
8.000000
20
0.000000
30
1738.000000
70
192
0
VERTEX
8
OBJECT__26
10
0.000000
20
-8.500000
30
1738.500000
70
192
0
VERTEX
8
OBJECT__26
10
0.000000
20
-8.000000
30
1738.000000
70
192
0
VERTEX
8
OBJECT__26
10
-8.000000
20
0.000000
30
1738.000000
70
192
0
VERTEX
8
OBJECT__26
10
0
20
0
30
0
70
128
71
1
72
2
73
3
0
VERTEX
8
OBJECT__26
10
0
20
0
30
0
70
128
71
2
72
4
73
5
0
VERTEX
8
OBJECT__26
10
0
20
0
30
0
70
128
71
4
72
6
73
7
0
VERTEX
8
OBJECT__26
10
0
20
0
30
0
70
128
71
6
72
1
73
8
0
VERTEX
8
OBJECT__26
10
0
20
0
30
0
70
128
71
8
72
7
73
6
0
VERTEX
8
OBJECT__26
10
0
20
0
30
0
70
128
71
7
72
5
73
4
0
VERTEX
8
OBJECT__26
10
0
20
0
30
0
70
128
71
5
72
3
73
2
0
VERTEX
8
OBJECT__26
10
0
20
0
30
0
70
128
71
3
72
8
73
1
0
SEQEND
8
OBJECT__26
0
POLYLINE
8
OBJECT__27
66
1
70
64
71
8
72
8
62
253
0
VERTEX
8
OBJECT__27
10
0.000000
20
8.000000
30
1721.000000
70
192
0
VERTEX
8
OBJECT__27
10
0.000000
20
8.000000
30
1738.000000
70
192
0
VERTEX
8
OBJECT__27
10
8.000000
20
0.000000
30
1738.000000
70
192
0
VERTEX
8
OBJECT__27
10
-8.000000
20
0.000000
30
1721.000000
70
192
0
VERTEX
8
OBJECT__27
10
-8.000000
20
0.000000
30
1738.000000
70
192
0
VERTEX
8
OBJECT__27
10
0.000000
20
-8.000000
30
1721.000000
70
192
0
VERTEX
8
OBJECT__27
10
0.000000
20
-8.000000
30
1738.000000
70
192
0
VERTEX
8
OBJECT__27
10
8.000000
20
0.000000
30
1721.000000
70
192
0
VERTEX
8
OBJECT__27
10
0
20
0
30
0
70
128
71
1
72
2
73
3
0
VERTEX
8
OBJECT__27
10
0
20
0
30
0
70
128
71
4
72
5
73
2
0
VERTEX
8
OBJECT__27
10
0
20
0
30
0
70
128
71
6
72
7
73
5
0
VERTEX
8
OBJECT__27
10
0
20
0
30
0
70
128
71
8
72
3
73
7
0
VERTEX
8
OBJECT__27
10
0
20
0
30
0
70
128
71
7
72
6
73
8
0
VERTEX
8
OBJECT__27
10
0
20
0
30
0
70
128
71
5
72
4
73
6
0
VERTEX
8
OBJECT__27
10
0
20
0
30
0
70
128
71
2
72
1
73
4
0
VERTEX
8
OBJECT__27
10
0
20
0
30
0
70
128
71
3
72
8
73
1
0
SEQEND
8
OBJECT__27
0
POLYLINE
8
OBJECT__29
66
1
70
64
71
8
72
8
62
253
0
VERTEX
8
OBJECT__29
10
-8.000000
20
0.000000
30
1721.000000
70
192
0
VERTEX
8
OBJECT__29
10
0.000000
20
8.000000
30
1721.000000
70
192
0
VERTEX
8
OBJECT__29
10
0.000000
20
7.650000
30
1721.000000
70
192
0
VERTEX
8
OBJECT__29
10
8.000000
20
0.000000
30
1721.000000
70
192
0
VERTEX
8
OBJECT__29
10
7.650000
20
0.000000
30
1721.000000
70
192
0
VERTEX
8
OBJECT__29
10
0.000000
20
-8.000000
30
1721.000000
70
192
0
VERTEX
8
OBJECT__29
10
0.000000
20
-7.650000
30
1721.000000
70
192
0
VERTEX
8
OBJECT__29
10
-7.650000
20
0.000000
30
1721.000000
70
192
0
VERTEX
8
OBJECT__29
10
0
20
0
30
0
70
128
71
1
72
2
73
3
0
VERTEX
8
OBJECT__29
10
0
20
0
30
0
70
128
71
4
72
5
73
3
0
VERTEX
8
OBJECT__29
10
0
20
0
30
0
70
128
71
6
72
7
73
5
0
VERTEX
8
OBJECT__29
10
0
20
0
30
0
70
128
71
1
72
8
73
7
0
VERTEX
8
OBJECT__29
10
0
20
0
30
0
70
128
71
3
72
2
73
4
0
VERTEX
8
OBJECT__29
10
0
20
0
30
0
70
128
71
7
72
6
73
1
0
VERTEX
8
OBJECT__29
10
0
20
0
30
0
70
128
71
5
72
4
73
6
0
VERTEX
8
OBJECT__29
10
0
20
0
30
0
70
128
71
3
72
8
73
1
0
SEQEND
8
OBJECT__29
0
POLYLINE
8
OBJECT__30
66
1
70
64
71
8
72
8
62
253
0
VERTEX
8
OBJECT__30
10
0.000000
20
-7.650000
30
1721.000000
70
192
0
VERTEX
8
OBJECT__30
10
0.000000
20
-7.650000
30
1738.000000
70
192
0
VERTEX
8
OBJECT__30
10
7.650000
20
0.000000
30
1738.000000
70
192
0
VERTEX
8
OBJECT__30
10
-7.650000
20
0.000000
30
1721.000000
70
192
0
VERTEX
8
OBJECT__30
10
-7.650000
20
0.000000
30
1738.000000
70
192
0
VERTEX
8
OBJECT__30
10
0.000000
20
7.650000
30
1721.000000
70
192
0
VERTEX
8
OBJECT__30
10
0.000000
20
7.650000
30
1738.000000
70
192
0
VERTEX
8
OBJECT__30
10
7.650000
20
0.000000
30
1721.000000
70
192
0
VERTEX
8
OBJECT__30
10
0
20
0
30
0
70
128
71
1
72
2
73
3
0
VERTEX
8
OBJECT__30
10
0
20
0
30
0
70
128
71
4
72
5
73
2
0
VERTEX
8
OBJECT__30
10
0
20
0
30
0
70
128
71
6
72
7
73
5
0
VERTEX
8
OBJECT__30
10
0
20
0
30
0
70
128
71
8
72
3
73
7
0
VERTEX
8
OBJECT__30
10
0
20
0
30
0
70
128
71
7
72
6
73
8
0
VERTEX
8
OBJECT__30
10
0
20
0
30
0
70
128
71
5
72
4
73
6
0
VERTEX
8
OBJECT__30
10
0
20
0
30
0
70
128
71
2
72
1
73
4
0
VERTEX
8
OBJECT__30
10
0
20
0
30
0
70
128
71
3
72
8
73
1
0
SEQEND
8
OBJECT__30
0
POLYLINE
8
OBJECT__31
66
1
70
64
71
8
72
8
62
253
0
VERTEX
8
OBJECT__31
10
10.500000
20
0.000000
30
8.500000
70
192
0
VERTEX
8
OBJECT__31
10
0.000000
20
10.500000
30
8.500000
70
192
0
VERTEX
8
OBJECT__31
10
0.000000
20
6.000000
30
8.500000
70
192
0
VERTEX
8
OBJECT__31
10
-10.500000
20
0.000000
30
8.500000
70
192
0
VERTEX
8
OBJECT__31
10
-6.000000
20
0.000000
30
8.500000
70
192
0
VERTEX
8
OBJECT__31
10
0.000000
20
-10.500000
30
8.500000
70
192
0
VERTEX
8
OBJECT__31
10
0.000000
20
-6.000000
30
8.500000
70
192
0
VERTEX
8
OBJECT__31
10
6.000000
20
0.000000
30
8.500000
70
192
0
VERTEX
8
OBJECT__31
10
0
20
0
30
0
70
128
71
1
72
2
73
3
0
VERTEX
8
OBJECT__31
10
0
20
0
30
0
70
128
71
2
72
4
73
5
0
VERTEX
8
OBJECT__31
10
0
20
0
30
0
70
128
71
4
72
6
73
7
0
VERTEX
8
OBJECT__31
10
0
20
0
30
0
70
128
71
6
72
1
73
8
0
VERTEX
8
OBJECT__31
10
0
20
0
30
0
70
128
71
5
72
3
73
2
0
VERTEX
8
OBJECT__31
10
0
20
0
30
0
70
128
71
8
72
7
73
6
0
VERTEX
8
OBJECT__31
10
0
20
0
30
0
70
128
71
7
72
5
73
4
0
VERTEX
8
OBJECT__31
10
0
20
0
30
0
70
128
71
3
72
8
73
1
0
SEQEND
8
OBJECT__31
0
POLYLINE
8
OBJECT__32
66
1
70
64
71
8
72
8
62
253
0
VERTEX
8
OBJECT__32
10
0.000000
20
6.000000
30
7.000000
70
192
0
VERTEX
8
OBJECT__32
10
0.000000
20
6.000000
30
8.500000
70
192
0
VERTEX
8
OBJECT__32
10
-6.000000
20
0.000000
30
8.500000
70
192
0
VERTEX
8
OBJECT__32
10
6.000000
20
0.000000
30
7.000000
70
192
0
VERTEX
8
OBJECT__32
10
6.000000
20
0.000000
30
8.500000
70
192
0
VERTEX
8
OBJECT__32
10
0.000000
20
-6.000000
30
8.500000
70
192
0
VERTEX
8
OBJECT__32
10
0.000000
20
-6.000000
30
7.000000
70
192
0
VERTEX
8
OBJECT__32
10
-6.000000
20
0.000000
30
7.000000
70
192
0
VERTEX
8
OBJECT__32
10
0
20
0
30
0
70
128
71
1
72
2
73
3
0
VERTEX
8
OBJECT__32
10
0
20
0
30
0
70
128
71
4
72
5
73
2
0
VERTEX
8
OBJECT__32
10
0
20
0
30
0
70
128
71
6
72
5
73
4
0
VERTEX
8
OBJECT__32
10
0
20
0
30
0
70
128
71
3
72
6
73
7
0
VERTEX
8
OBJECT__32
10
0
20
0
30
0
70
128
71
7
72
8
73
3
0
VERTEX
8
OBJECT__32
10
0
20
0
30
0
70
128
71
4
72
7
73
6
0
VERTEX
8
OBJECT__32
10
0
20
0
30
0
70
128
71
2
72
1
73
4
0
VERTEX
8
OBJECT__32
10
0
20
0
30
0
70
128
71
3
72
8
73
1
0
SEQEND
8
OBJECT__32
0
POLYLINE
8
OBJECT__34
66
1
70
64
71
8
72
8
62
253
0
VERTEX
8
OBJECT__34
10
10.500000
20
0.000000
30
7.000000
70
192
0
VERTEX
8
OBJECT__34
10
6.000000
20
0.000000
30
7.000000
70
192
0
VERTEX
8
OBJECT__34
10
0.000000
20
6.000000
30
7.000000
70
192
0
VERTEX
8
OBJECT__34
10
0.000000
20
-10.500000
30
7.000000
70
192
0
VERTEX
8
OBJECT__34
10
0.000000
20
-6.000000
30
7.000000
70
192
0
VERTEX
8
OBJECT__34
10
0.000000
20
10.500000
30
7.000000
70
192
0
VERTEX
8
OBJECT__34
10
-10.500000
20
0.000000
30
7.000000
70
192
0
VERTEX
8
OBJECT__34
10
-6.000000
20
0.000000
30
7.000000
70
192
0
VERTEX
8
OBJECT__34
10
0
20
0
30
0
70
128
71
1
72
2
73
3
0
VERTEX
8
OBJECT__34
10
0
20
0
30
0
70
128
71
4
72
5
73
2
0
VERTEX
8
OBJECT__34
10
0
20
0
30
0
70
128
71
2
72
1
73
4
0
VERTEX
8
OBJECT__34
10
0
20
0
30
0
70
128
71
3
72
6
73
1
0
VERTEX
8
OBJECT__34
10
0
20
0
30
0
70
128
71
7
72
8
73
5
0
VERTEX
8
OBJECT__34
10
0
20
0
30
0
70
128
71
5
72
4
73
7
0
VERTEX
8
OBJECT__34
10
0
20
0
30
0
70
128
71
3
72
8
73
6
0
VERTEX
8
OBJECT__34
10
0
20
0
30
0
70
128
71
8
72
7
73
6
0
SEQEND
8
OBJECT__34
0
POLYLINE
8
OBJECT__35
66
1
70
64
71
8
72
8
62
253
0
VERTEX
8
OBJECT__35
10
-8.500000
20
0.000000
30
1740.500000
70
192
0
VERTEX
8
OBJECT__35
10
-3.500000
20
0.000000
30
1740.500000
70
192
0
VERTEX
8
OBJECT__35
10
0.000000
20
3.500000
30
1740.500000
70
192
0
VERTEX
8
OBJECT__35
10
0.000000
20
-8.500000
30
1740.500000
70
192
0
VERTEX
8
OBJECT__35
10
0.000000
20
-3.500000
30
1740.500000
70
192
0
VERTEX
8
OBJECT__35
10
0.000000
20
8.500000
30
1740.500000
70
192
0
VERTEX
8
OBJECT__35
10
8.500000
20
0.000000
30
1740.500000
70
192
0
VERTEX
8
OBJECT__35
10
3.500000
20
0.000000
30
1740.500000
70
192
0
VERTEX
8
OBJECT__35
10
0
20
0
30
0
70
128
71
1
72
2
73
3
0
VERTEX
8
OBJECT__35
10
0
20
0
30
0
70
128
71
1
72
4
73
5
0
VERTEX
8
OBJECT__35
10
0
20
0
30
0
70
128
71
5
72
2
73
1
0
VERTEX
8
OBJECT__35
10
0
20
0
30
0
70
128
71
3
72
6
73
1
0
VERTEX
8
OBJECT__35
10
0
20
0
30
0
70
128
71
4
72
7
73
8
0
VERTEX
8
OBJECT__35
10
0
20
0
30
0
70
128
71
8
72
5
73
4
0
VERTEX
8
OBJECT__35
10
0
20
0
30
0
70
128
71
3
72
8
73
6
0
VERTEX
8
OBJECT__35
10
0
20
0
30
0
70
128
71
8
72
7
73
6
0
SEQEND
8
OBJECT__35
0
POLYLINE
8
OBJECT__36
66
1
70
64
71
8
72
8
62
253
0
VERTEX
8
OBJECT__36
10
0.000000
20
3.500000
30
1728.500000
70
192
0
VERTEX
8
OBJECT__36
10
0.000000
20
3.500000
30
1740.500000
70
192
0
VERTEX
8
OBJECT__36
10
-3.500000
20
0.000000
30
1740.500000
70
192
0
VERTEX
8
OBJECT__36
10
3.500000
20
0.000000
30
1728.500000
70
192
0
VERTEX
8
OBJECT__36
10
3.500000
20
0.000000
30
1740.500000
70
192
0
VERTEX
8
OBJECT__36
10
0.000000
20
-3.500000
30
1740.500000
70
192
0
VERTEX
8
OBJECT__36
10
0.000000
20
-3.500000
30
1728.500000
70
192
0
VERTEX
8
OBJECT__36
10
-3.500000
20
0.000000
30
1728.500000
70
192
0
VERTEX
8
OBJECT__36
10
0
20
0
30
0
70
128
71
1
72
2
73
3
0
VERTEX
8
OBJECT__36
10
0
20
0
30
0
70
128
71
4
72
5
73
2
0
VERTEX
8
OBJECT__36
10
0
20
0
30
0
70
128
71
6
72
5
73
4
0
VERTEX
8
OBJECT__36
10
0
20
0
30
0
70
128
71
3
72
6
73
7
0
VERTEX
8
OBJECT__36
10
0
20
0
30
0
70
128
71
7
72
8
73
3
0
VERTEX
8
OBJECT__36
10
0
20
0
30
0
70
128
71
4
72
7
73
6
0
VERTEX
8
OBJECT__36
10
0
20
0
30
0
70
128
71
2
72
1
73
4
0
VERTEX
8
OBJECT__36
10
0
20
0
30
0
70
128
71
3
72
8
73
1
0
SEQEND
8
OBJECT__36
0
POLYLINE
8
OBJECT__38
66
1
70
64
71
8
72
8
62
253
0
VERTEX
8
OBJECT__38
10
7.500000
20
0.000000
30
1739.000000
70
192
0
VERTEX
8
OBJECT__38
10
0.000000
20
-7.500000
30
1739.000000
70
192
0
VERTEX
8
OBJECT__38
10
0.000000
20
-7.500000
30
19.000000
70
192
0
VERTEX
8
OBJECT__38
10
7.500000
20
0.000000
30
19.000000
70
192
0
VERTEX
8
OBJECT__38
10
-7.500000
20
0.000000
30
1739.000000
70
192
0
VERTEX
8
OBJECT__38
10
-7.500000
20
0.000000
30
19.000000
70
192
0
VERTEX
8
OBJECT__38
10
0.000000
20
7.500000
30
1739.000000
70
192
0
VERTEX
8
OBJECT__38
10
0.000000
20
7.500000
30
19.000000
70
192
0
VERTEX
8
OBJECT__38
10
0
20
0
30
0
70
128
71
1
72
2
73
3
0
VERTEX
8
OBJECT__38
10
0
20
0
30
0
70
128
71
1
72
3
73
4
0
VERTEX
8
OBJECT__38
10
0
20
0
30
0
70
128
71
2
72
5
73
6
0
VERTEX
8
OBJECT__38
10
0
20
0
30
0
70
128
71
2
72
6
73
3
0
VERTEX
8
OBJECT__38
10
0
20
0
30
0
70
128
71
5
72
7
73
8
0
VERTEX
8
OBJECT__38
10
0
20
0
30
0
70
128
71
5
72
8
73
6
0
VERTEX
8
OBJECT__38
10
0
20
0
30
0
70
128
71
7
72
1
73
4
0
VERTEX
8
OBJECT__38
10
0
20
0
30
0
70
128
71
7
72
4
73
8
0
SEQEND
8
OBJECT__38
0
POLYLINE
8
OBJECT__40
66
1
70
64
71
8
72
8
62
253
0
VERTEX
8
OBJECT__40
10
-8.500000
20
0.000000
30
10.500000
70
192
0
VERTEX
8
OBJECT__40
10
0.000000
20
-8.500000
30
10.500000
70
192
0
VERTEX
8
OBJECT__40
10
0.000000
20
-8.000000
30
11.000000
70
192
0
VERTEX
8
OBJECT__40
10
8.500000
20
0.000000
30
10.500000
70
192
0
VERTEX
8
OBJECT__40
10
8.000000
20
0.000000
30
11.000000
70
192
0
VERTEX
8
OBJECT__40
10
0.000000
20
8.500000
30
10.500000
70
192
0
VERTEX
8
OBJECT__40
10
0.000000
20
8.000000
30
11.000000
70
192
0
VERTEX
8
OBJECT__40
10
-8.000000
20
0.000000
30
11.000000
70
192
0
VERTEX
8
OBJECT__40
10
0
20
0
30
0
70
128
71
1
72
2
73
3
0
VERTEX
8
OBJECT__40
10
0
20
0
30
0
70
128
71
2
72
4
73
5
0
VERTEX
8
OBJECT__40
10
0
20
0
30
0
70
128
71
4
72
6
73
7
0
VERTEX
8
OBJECT__40
10
0
20
0
30
0
70
128
71
1
72
8
73
7
0
VERTEX
8
OBJECT__40
10
0
20
0
30
0
70
128
71
7
72
6
73
1
0
VERTEX
8
OBJECT__40
10
0
20
0
30
0
70
128
71
7
72
5
73
4
0
VERTEX
8
OBJECT__40
10
0
20
0
30
0
70
128
71
5
72
3
73
2
0
VERTEX
8
OBJECT__40
10
0
20
0
30
0
70
128
71
3
72
8
73
1
0
SEQEND
8
OBJECT__40
0
POLYLINE
8
OBJECT__41
66
1
70
64
71
8
72
8
62
253
0
VERTEX
8
OBJECT__41
10
0.000000
20
-8.000000
30
28.000000
70
192
0
VERTEX
8
OBJECT__41
10
0.000000
20
-8.000000
30
11.000000
70
192
0
VERTEX
8
OBJECT__41
10
8.000000
20
0.000000
30
11.000000
70
192
0
VERTEX
8
OBJECT__41
10
-8.000000
20
0.000000
30
28.000000
70
192
0
VERTEX
8
OBJECT__41
10
-8.000000
20
0.000000
30
11.000000
70
192
0
VERTEX
8
OBJECT__41
10
0.000000
20
8.000000
30
11.000000
70
192
0
VERTEX
8
OBJECT__41
10
8.000000
20
0.000000
30
28.000000
70
192
0
VERTEX
8
OBJECT__41
10
0.000000
20
8.000000
30
28.000000
70
192
0
VERTEX
8
OBJECT__41
10
0
20
0
30
0
70
128
71
1
72
2
73
3
0
VERTEX
8
OBJECT__41
10
0
20
0
30
0
70
128
71
4
72
5
73
2
0
VERTEX
8
OBJECT__41
10
0
20
0
30
0
70
128
71
6
72
5
73
4
0
VERTEX
8
OBJECT__41
10
0
20
0
30
0
70
128
71
7
72
3
73
6
0
VERTEX
8
OBJECT__41
10
0
20
0
30
0
70
128
71
6
72
8
73
7
0
VERTEX
8
OBJECT__41
10
0
20
0
30
0
70
128
71
4
72
8
73
6
0
VERTEX
8
OBJECT__41
10
0
20
0
30
0
70
128
71
2
72
1
73
4
0
VERTEX
8
OBJECT__41
10
0
20
0
30
0
70
128
71
3
72
7
73
1
0
SEQEND
8
OBJECT__41
0
POLYLINE
8
OBJECT__43
66
1
70
64
71
8
72
8
62
253
0
VERTEX
8
OBJECT__43
10
-8.000000
20
0.000000
30
28.000000
70
192
0
VERTEX
8
OBJECT__43
10
-7.650000
20
0.000000
30
28.000000
70
192
0
VERTEX
8
OBJECT__43
10
0.000000
20
7.650000
30
28.000000
70
192
0
VERTEX
8
OBJECT__43
10
0.000000
20
8.000000
30
28.000000
70
192
0
VERTEX
8
OBJECT__43
10
0.000000
20
-8.000000
30
28.000000
70
192
0
VERTEX
8
OBJECT__43
10
0.000000
20
-7.650000
30
28.000000
70
192
0
VERTEX
8
OBJECT__43
10
8.000000
20
0.000000
30
28.000000
70
192
0
VERTEX
8
OBJECT__43
10
7.650000
20
0.000000
30
28.000000
70
192
0
VERTEX
8
OBJECT__43
10
0
20
0
30
0
70
128
71
1
72
2
73
3
0
VERTEX
8
OBJECT__43
10
0
20
0
30
0
70
128
71
3
72
4
73
1
0
VERTEX
8
OBJECT__43
10
0
20
0
30
0
70
128
71
1
72
5
73
6
0
VERTEX
8
OBJECT__43
10
0
20
0
30
0
70
128
71
6
72
2
73
1
0
VERTEX
8
OBJECT__43
10
0
20
0
30
0
70
128
71
7
72
8
73
6
0
VERTEX
8
OBJECT__43
10
0
20
0
30
0
70
128
71
6
72
5
73
7
0
VERTEX
8
OBJECT__43
10
0
20
0
30
0
70
128
71
3
72
8
73
4
0
VERTEX
8
OBJECT__43
10
0
20
0
30
0
70
128
71
8
72
7
73
4
0
SEQEND
8
OBJECT__43
0
POLYLINE
8
OBJECT__44
66
1
70
64
71
8
72
8
62
253
0
VERTEX
8
OBJECT__44
10
0.000000
20
7.650000
30
28.000000
70
192
0
VERTEX
8
OBJECT__44
10
0.000000
20
7.650000
30
11.000000
70
192
0
VERTEX
8
OBJECT__44
10
7.650000
20
0.000000
30
11.000000
70
192
0
VERTEX
8
OBJECT__44
10
-7.650000
20
0.000000
30
28.000000
70
192
0
VERTEX
8
OBJECT__44
10
-7.650000
20
0.000000
30
11.000000
70
192
0
VERTEX
8
OBJECT__44
10
0.000000
20
-7.650000
30
28.000000
70
192
0
VERTEX
8
OBJECT__44
10
0.000000
20
-7.650000
30
11.000000
70
192
0
VERTEX
8
OBJECT__44
10
7.650000
20
0.000000
30
28.000000
70
192
0
VERTEX
8
OBJECT__44
10
0
20
0
30
0
70
128
71
1
72
2
73
3
0
VERTEX
8
OBJECT__44
10
0
20
0
30
0
70
128
71
4
72
5
73
2
0
VERTEX
8
OBJECT__44
10
0
20
0
30
0
70
128
71
6
72
7
73
5
0
VERTEX
8
OBJECT__44
10
0
20
0
30
0
70
128
71
3
72
7
73
6
0
VERTEX
8
OBJECT__44
10
0
20
0
30
0
70
128
71
6
72
8
73
3
0
VERTEX
8
OBJECT__44
10
0
20
0
30
0
70
128
71
5
72
4
73
6
0
VERTEX
8
OBJECT__44
10
0
20
0
30
0
70
128
71
2
72
1
73
4
0
VERTEX
8
OBJECT__44
10
0
20
0
30
0
70
128
71
3
72
8
73
1
0
SEQEND
8
OBJECT__44
0
POLYLINE
8
OBJECT__45
66
1
70
64
71
8
72
8
62
253
0
VERTEX
8
OBJECT__45
10
4.000000
20
0.000000
30
1728.500000
70
192
0
VERTEX
8
OBJECT__45
10
0.000000
20
-4.000000
30
1549.500000
70
192
0
VERTEX
8
OBJECT__45
10
0.000000
20
-4.000000
30
1728.500000
70
192
0
VERTEX
8
OBJECT__45
10
4.000000
20
0.000000
30
1549.500000
70
192
0
VERTEX
8
OBJECT__45
10
-4.000000
20
0.000000
30
1549.500000
70
192
0
VERTEX
8
OBJECT__45
10
-4.000000
20
0.000000
30
1728.500000
70
192
0
VERTEX
8
OBJECT__45
10
0.000000
20
4.000000
30
1549.500000
70
192
0
VERTEX
8
OBJECT__45
10
0.000000
20
4.000000
30
1728.500000
70
192
0
VERTEX
8
OBJECT__45
10
0
20
0
30
0
70
128
71
1
72
2
73
3
0
VERTEX
8
OBJECT__45
10
0
20
0
30
0
70
128
71
1
72
4
73
2
0
VERTEX
8
OBJECT__45
10
0
20
0
30
0
70
128
71
3
72
5
73
6
0
VERTEX
8
OBJECT__45
10
0
20
0
30
0
70
128
71
3
72
2
73
5
0
VERTEX
8
OBJECT__45
10
0
20
0
30
0
70
128
71
6
72
7
73
8
0
VERTEX
8
OBJECT__45
10
0
20
0
30
0
70
128
71
6
72
5
73
7
0
VERTEX
8
OBJECT__45
10
0
20
0
30
0
70
128
71
8
72
4
73
1
0
VERTEX
8
OBJECT__45
10
0
20
0
30
0
70
128
71
8
72
7
73
4
0
SEQEND
8
OBJECT__45
0
POLYLINE
8
OBJECT__47
66
1
70
64
71
8
72
8
62
253
0
VERTEX
8
OBJECT__47
10
7.000000
20
0.000000
30
1739.000000
70
192
0
VERTEX
8
OBJECT__47
10
0.000000
20
-7.000000
30
19.000000
70
192
0
VERTEX
8
OBJECT__47
10
0.000000
20
-7.000000
30
1739.000000
70
192
0
VERTEX
8
OBJECT__47
10
7.000000
20
0.000000
30
19.000000
70
192
0
VERTEX
8
OBJECT__47
10
-7.000000
20
0.000000
30
19.000000
70
192
0
VERTEX
8
OBJECT__47
10
-7.000000
20
0.000000
30
1739.000000
70
192
0
VERTEX
8
OBJECT__47
10
0.000000
20
7.000000
30
19.000000
70
192
0
VERTEX
8
OBJECT__47
10
0.000000
20
7.000000
30
1739.000000
70
192
0
VERTEX
8
OBJECT__47
10
0
20
0
30
0
70
128
71
1
72
2
73
3
0
VERTEX
8
OBJECT__47
10
0
20
0
30
0
70
128
71
1
72
4
73
2
0
VERTEX
8
OBJECT__47
10
0
20
0
30
0
70
128
71
3
72
5
73
6
0
VERTEX
8
OBJECT__47
10
0
20
0
30
0
70
128
71
3
72
2
73
5
0
VERTEX
8
OBJECT__47
10
0
20
0
30
0
70
128
71
6
72
7
73
8
0
VERTEX
8
OBJECT__47
10
0
20
0
30
0
70
128
71
6
72
5
73
7
0
VERTEX
8
OBJECT__47
10
0
20
0
30
0
70
128
71
8
72
4
73
1
0
VERTEX
8
OBJECT__47
10
0
20
0
30
0
70
128
71
8
72
7
73
4
0
SEQEND
8
OBJECT__47
0
POLYLINE
8
OBJECT__49
66
1
70
64
71
8
72
8
62
253
0
VERTEX
8
OBJECT__49
10
10.500000
20
0.000000
30
1742.000000
70
192
0
VERTEX
8
OBJECT__49
10
0.000000
20
10.500000
30
1742.000000
70
192
0
VERTEX
8
OBJECT__49
10
0.000000
20
6.000000
30
1742.000000
70
192
0
VERTEX
8
OBJECT__49
10
-10.500000
20
0.000000
30
1742.000000
70
192
0
VERTEX
8
OBJECT__49
10
-6.000000
20
0.000000
30
1742.000000
70
192
0
VERTEX
8
OBJECT__49
10
0.000000
20
-10.500000
30
1742.000000
70
192
0
VERTEX
8
OBJECT__49
10
0.000000
20
-6.000000
30
1742.000000
70
192
0
VERTEX
8
OBJECT__49
10
6.000000
20
0.000000
30
1742.000000
70
192
0
VERTEX
8
OBJECT__49
10
0
20
0
30
0
70
128
71
1
72
2
73
3
0
VERTEX
8
OBJECT__49
10
0
20
0
30
0
70
128
71
2
72
4
73
5
0
VERTEX
8
OBJECT__49
10
0
20
0
30
0
70
128
71
4
72
6
73
7
0
VERTEX
8
OBJECT__49
10
0
20
0
30
0
70
128
71
6
72
1
73
8
0
VERTEX
8
OBJECT__49
10
0
20
0
30
0
70
128
71
5
72
3
73
2
0
VERTEX
8
OBJECT__49
10
0
20
0
30
0
70
128
71
8
72
7
73
6
0
VERTEX
8
OBJECT__49
10
0
20
0
30
0
70
128
71
7
72
5
73
4
0
VERTEX
8
OBJECT__49
10
0
20
0
30
0
70
128
71
3
72
8
73
1
0
SEQEND
8
OBJECT__49
0
POLYLINE
8
OBJECT__50
66
1
70
64
71
8
72
8
62
253
0
VERTEX
8
OBJECT__50
10
0.000000
20
6.000000
30
1740.500000
70
192
0
VERTEX
8
OBJECT__50
10
0.000000
20
6.000000
30
1742.000000
70
192
0
VERTEX
8
OBJECT__50
10
-6.000000
20
0.000000
30
1742.000000
70
192
0
VERTEX
8
OBJECT__50
10
6.000000
20
0.000000
30
1740.500000
70
192
0
VERTEX
8
OBJECT__50
10
6.000000
20
0.000000
30
1742.000000
70
192
0
VERTEX
8
OBJECT__50
10
0.000000
20
-6.000000
30
1742.000000
70
192
0
VERTEX
8
OBJECT__50
10
0.000000
20
-6.000000
30
1740.500000
70
192
0
VERTEX
8
OBJECT__50
10
-6.000000
20
0.000000
30
1740.500000
70
192
0
VERTEX
8
OBJECT__50
10
0
20
0
30
0
70
128
71
1
72
2
73
3
0
VERTEX
8
OBJECT__50
10
0
20
0
30
0
70
128
71
4
72
5
73
2
0
VERTEX
8
OBJECT__50
10
0
20
0
30
0
70
128
71
6
72
5
73
4
0
VERTEX
8
OBJECT__50
10
0
20
0
30
0
70
128
71
3
72
6
73
7
0
VERTEX
8
OBJECT__50
10
0
20
0
30
0
70
128
71
7
72
8
73
3
0
VERTEX
8
OBJECT__50
10
0
20
0
30
0
70
128
71
4
72
7
73
6
0
VERTEX
8
OBJECT__50
10
0
20
0
30
0
70
128
71
2
72
1
73
4
0
VERTEX
8
OBJECT__50
10
0
20
0
30
0
70
128
71
3
72
8
73
1
0
SEQEND
8
OBJECT__50
0
POLYLINE
8
OBJECT__52
66
1
70
64
71
8
72
8
62
253
0
VERTEX
8
OBJECT__52
10
10.500000
20
0.000000
30
1740.500000
70
192
0
VERTEX
8
OBJECT__52
10
6.000000
20
0.000000
30
1740.500000
70
192
0
VERTEX
8
OBJECT__52
10
0.000000
20
6.000000
30
1740.500000
70
192
0
VERTEX
8
OBJECT__52
10
0.000000
20
-10.500000
30
1740.500000
70
192
0
VERTEX
8
OBJECT__52
10
0.000000
20
-6.000000
30
1740.500000
70
192
0
VERTEX
8
OBJECT__52
10
-10.500000
20
0.000000
30
1740.500000
70
192
0
VERTEX
8
OBJECT__52
10
-6.000000
20
0.000000
30
1740.500000
70
192
0
VERTEX
8
OBJECT__52
10
0.000000
20
10.500000
30
1740.500000
70
192
0
VERTEX
8
OBJECT__52
10
0
20
0
30
0
70
128
71
1
72
2
73
3
0
VERTEX
8
OBJECT__52
10
0
20
0
30
0
70
128
71
4
72
5
73
2
0
VERTEX
8
OBJECT__52
10
0
20
0
30
0
70
128
71
6
72
7
73
5
0
VERTEX
8
OBJECT__52
10
0
20
0
30
0
70
128
71
3
72
8
73
1
0
VERTEX
8
OBJECT__52
10
0
20
0
30
0
70
128
71
5
72
4
73
6
0
VERTEX
8
OBJECT__52
10
0
20
0
30
0
70
128
71
2
72
1
73
4
0
VERTEX
8
OBJECT__52
10
0
20
0
30
0
70
128
71
3
72
7
73
8
0
VERTEX
8
OBJECT__52
10
0
20
0
30
0
70
128
71
7
72
6
73
8
0
SEQEND
8
OBJECT__52
0
POLYLINE
8
OBJECT__53
66
1
70
64
71
8
72
8
62
253
0
VERTEX
8
OBJECT__53
10
0.000000
20
8.500000
30
8.500000
70
192
0
VERTEX
8
OBJECT__53
10
8.500000
20
0.000000
30
8.500000
70
192
0
VERTEX
8
OBJECT__53
10
3.500000
20
0.000000
30
8.500000
70
192
0
VERTEX
8
OBJECT__53
10
0.000000
20
3.500000
30
8.500000
70
192
0
VERTEX
8
OBJECT__53
10
0.000000
20
-8.500000
30
8.500000
70
192
0
VERTEX
8
OBJECT__53
10
0.000000
20
-3.500000
30
8.500000
70
192
0
VERTEX
8
OBJECT__53
10
-8.500000
20
0.000000
30
8.500000
70
192
0
VERTEX
8
OBJECT__53
10
-3.500000
20
0.000000
30
8.500000
70
192
0
VERTEX
8
OBJECT__53
10
0
20
0
30
0
70
128
71
1
72
2
73
3
0
VERTEX
8
OBJECT__53
10
0
20
0
30
0
70
128
71
3
72
4
73
1
0
VERTEX
8
OBJECT__53
10
0
20
0
30
0
70
128
71
2
72
5
73
6
0
VERTEX
8
OBJECT__53
10
0
20
0
30
0
70
128
71
6
72
3
73
2
0
VERTEX
8
OBJECT__53
10
0
20
0
30
0
70
128
71
7
72
8
73
6
0
VERTEX
8
OBJECT__53
10
0
20
0
30
0
70
128
71
6
72
5
73
7
0
VERTEX
8
OBJECT__53
10
0
20
0
30
0
70
128
71
4
72
8
73
1
0
VERTEX
8
OBJECT__53
10
0
20
0
30
0
70
128
71
8
72
7
73
1
0
SEQEND
8
OBJECT__53
0
POLYLINE
8
OBJECT__54
66
1
70
64
71
8
72
8
62
253
0
VERTEX
8
OBJECT__54
10
0.000000
20
-3.500000
30
20.500000
70
192
0
VERTEX
8
OBJECT__54
10
0.000000
20
-3.500000
30
8.500000
70
192
0
VERTEX
8
OBJECT__54
10
-3.500000
20
0.000000
30
8.500000
70
192
0
VERTEX
8
OBJECT__54
10
3.500000
20
0.000000
30
20.500000
70
192
0
VERTEX
8
OBJECT__54
10
3.500000
20
0.000000
30
8.500000
70
192
0
VERTEX
8
OBJECT__54
10
0.000000
20
3.500000
30
20.500000
70
192
0
VERTEX
8
OBJECT__54
10
0.000000
20
3.500000
30
8.500000
70
192
0
VERTEX
8
OBJECT__54
10
-3.500000
20
0.000000
30
20.500000
70
192
0
VERTEX
8
OBJECT__54
10
0
20
0
30
0
70
128
71
1
72
2
73
3
0
VERTEX
8
OBJECT__54
10
0
20
0
30
0
70
128
71
4
72
5
73
2
0
VERTEX
8
OBJECT__54
10
0
20
0
30
0
70
128
71
6
72
7
73
5
0
VERTEX
8
OBJECT__54
10
0
20
0
30
0
70
128
71
8
72
3
73
7
0
VERTEX
8
OBJECT__54
10
0
20
0
30
0
70
128
71
7
72
6
73
8
0
VERTEX
8
OBJECT__54
10
0
20
0
30
0
70
128
71
5
72
4
73
6
0
VERTEX
8
OBJECT__54
10
0
20
0
30
0
70
128
71
2
72
1
73
4
0
VERTEX
8
OBJECT__54
10
0
20
0
30
0
70
128
71
3
72
8
73
1
0
SEQEND
8
OBJECT__54
0
ENDSEC
0
EOF
