999
Converted by 3D Exploration 
999
XDimension Software, LLC
999
http://www.xdsoft.com/explorer/
0
SECTION
2
HEADER
9
$ACADVER
1
AC1008
9
$UCSORG
10
0.0
20
0.0
30
0.0
9
$UCSXDIR
10
1.0
20
0.0
30
0.0
9
$TILEMODE
70
1
9
$UCSYDIR
10
0.0
20
1.0
30
0.0
9
$EXTMIN
10
0.000000
20
-40.500000
30
-40.500000
9
$EXTMAX
10
160.000000
20
40.500000
30
40.500000
0
ENDSEC
0
SECTION
2
TABLES
0
TABLE
2
LTYPE
70
1
0
LTYPE
2
CONTINUOUS
70
64
3
Solid line
72
65
73
0
40
0.0
0
ENDTAB
0
TABLE
2
LAYER
70
36
0
LAYER
2
OBJECT__0
70
0
62
253
6
CONTINUOUS
0
LAYER
2
OBJECT__1
70
0
62
253
6
CONTINUOUS
0
LAYER
2
OBJECT__3
70
0
62
253
6
CONTINUOUS
0
LAYER
2
OBJECT__4
70
0
62
253
6
CONTINUOUS
0
LAYER
2
OBJECT__5
70
0
62
253
6
CONTINUOUS
0
LAYER
2
OBJECT__6
70
0
62
253
6
CONTINUOUS
0
LAYER
2
OBJECT__7
70
0
62
253
6
CONTINUOUS
0
LAYER
2
OBJECT__8
70
0
62
253
6
CONTINUOUS
0
LAYER
2
OBJECT__9
70
0
62
253
6
CONTINUOUS
0
LAYER
2
OBJECT__10
70
0
62
253
6
CONTINUOUS
0
LAYER
2
OBJECT__12
70
0
62
253
6
CONTINUOUS
0
LAYER
2
OBJECT__13
70
0
62
253
6
CONTINUOUS
0
LAYER
2
OBJECT__14
70
0
62
253
6
CONTINUOUS
0
LAYER
2
OBJECT__15
70
0
62
253
6
CONTINUOUS
0
LAYER
2
OBJECT__17
70
0
62
253
6
CONTINUOUS
0
LAYER
2
OBJECT__18
70
0
62
253
6
CONTINUOUS
0
LAYER
2
OBJECT__19
70
0
62
253
6
CONTINUOUS
0
LAYER
2
OBJECT__20
70
0
62
253
6
CONTINUOUS
0
LAYER
2
OBJECT__21
70
0
62
253
6
CONTINUOUS
0
LAYER
2
OBJECT__23
70
0
62
253
6
CONTINUOUS
0
LAYER
2
OBJECT__24
70
0
62
253
6
CONTINUOUS
0
LAYER
2
OBJECT__26
70
0
62
253
6
CONTINUOUS
0
LAYER
2
OBJECT__27
70
0
62
253
6
CONTINUOUS
0
LAYER
2
OBJECT__29
70
0
62
253
6
CONTINUOUS
0
LAYER
2
OBJECT__30
70
0
62
253
6
CONTINUOUS
0
LAYER
2
OBJECT__31
70
0
62
253
6
CONTINUOUS
0
LAYER
2
OBJECT__32
70
0
62
253
6
CONTINUOUS
0
LAYER
2
OBJECT__34
70
0
62
253
6
CONTINUOUS
0
LAYER
2
OBJECT__35
70
0
62
253
6
CONTINUOUS
0
ENDTAB
0
TABLE
2
STYLE
70
1
0
STYLE
2
STANDARD
70
0
40
0.0
41
1.0
50
0.0
71
0
42
0.2
3
txt
4
1
0
ENDTAB
0
TABLE
2
UCS
70
0
0
ENDTAB
0
ENDSEC
0
SECTION
2
ENTITIES
0
POLYLINE
8
OBJECT__0
66
1
70
64
71
27
72
28
62
253
0
VERTEX
8
OBJECT__0
10
9.480000
20
-3.739000
30
-98.708000
70
192
0
VERTEX
8
OBJECT__0
10
9.557000
20
-4.102000
30
-95.865997
70
192
0
VERTEX
8
OBJECT__0
10
9.506000
20
-4.746000
30
-97.374001
70
192
0
VERTEX
8
OBJECT__0
10
9.585000
20
-3.460000
30
-95.069000
70
192
0
VERTEX
8
OBJECT__0
10
9.397000
20
-4.415000
30
-100.588997
70
192
0
VERTEX
8
OBJECT__0
10
9.351000
20
-3.477000
30
-101.933998
70
192
0
VERTEX
8
OBJECT__0
10
9.450000
20
-4.854000
30
-99.010002
70
192
0
VERTEX
8
OBJECT__0
10
9.331000
20
-2.684000
30
-102.504997
70
192
0
VERTEX
8
OBJECT__0
10
9.617000
20
-2.127000
30
-94.117996
70
192
0
VERTEX
8
OBJECT__0
10
9.630000
20
-0.832000
30
-93.741997
70
192
0
VERTEX
8
OBJECT__0
10
9.328000
20
2.634000
30
-102.602997
70
192
0
VERTEX
8
OBJECT__0
10
9.630000
20
0.795000
30
-93.735001
70
192
0
VERTEX
8
OBJECT__0
10
9.519000
20
-0.048000
30
-98.398003
70
192
0
VERTEX
8
OBJECT__0
10
9.633000
20
-0.554000
30
-93.661003
70
192
0
VERTEX
8
OBJECT__0
10
9.326000
20
2.576000
30
-102.653999
70
192
0
VERTEX
8
OBJECT__0
10
9.318000
20
-2.147000
30
-102.891998
70
192
0
VERTEX
8
OBJECT__0
10
9.302000
20
-0.575000
30
-103.356003
70
192
0
VERTEX
8
OBJECT__0
10
9.305000
20
1.060000
30
-103.273003
70
192
0
VERTEX
8
OBJECT__0
10
9.531000
20
2.079000
30
-97.748001
70
192
0
VERTEX
8
OBJECT__0
10
9.412000
20
4.600000
30
-100.138000
70
192
0
VERTEX
8
OBJECT__0
10
9.467000
20
4.880000
30
-98.523003
70
192
0
VERTEX
8
OBJECT__0
10
9.363000
20
3.807000
30
-101.563004
70
192
0
VERTEX
8
OBJECT__0
10
9.571000
20
3.818000
30
-95.470001
70
192
0
VERTEX
8
OBJECT__0
10
9.608000
20
2.596000
30
-94.376999
70
192
0
VERTEX
8
OBJECT__0
10
9.522000
20
4.609000
30
-96.905998
70
192
0
VERTEX
8
OBJECT__0
10
9.630000
20
1.081000
30
-93.750999
70
192
0
VERTEX
8
OBJECT__0
10
9.363000
20
3.802000
30
-101.568001
70
192
0
VERTEX
8
OBJECT__0
10
0
20
0
30
0
70
128
71
1
72
2
73
3
0
VERTEX
8
OBJECT__0
10
0
20
0
30
0
70
128
71
1
72
4
73
2
0
VERTEX
8
OBJECT__0
10
0
20
0
30
0
70
128
71
1
72
5
73
6
0
VERTEX
8
OBJECT__0
10
0
20
0
30
0
70
128
71
1
72
7
73
5
0
VERTEX
8
OBJECT__0
10
0
20
0
30
0
70
128
71
6
72
8
73
1
0
VERTEX
8
OBJECT__0
10
0
20
0
30
0
70
128
71
9
72
4
73
1
0
VERTEX
8
OBJECT__0
10
0
20
0
30
0
70
128
71
8
72
10
73
9
0
VERTEX
8
OBJECT__0
10
0
20
0
30
0
70
128
71
1
72
8
73
9
0
VERTEX
8
OBJECT__0
10
0
20
0
30
0
70
128
71
11
72
12
73
13
0
VERTEX
8
OBJECT__0
10
0
20
0
30
0
70
128
71
12
72
14
73
13
0
VERTEX
8
OBJECT__0
10
0
20
0
30
0
70
128
71
13
72
15
73
11
0
VERTEX
8
OBJECT__0
10
0
20
0
30
0
70
128
71
13
72
8
73
16
0
VERTEX
8
OBJECT__0
10
0
20
0
30
0
70
128
71
16
72
17
73
13
0
VERTEX
8
OBJECT__0
10
0
20
0
30
0
70
128
71
17
72
18
73
13
0
VERTEX
8
OBJECT__0
10
0
20
0
30
0
70
128
71
18
72
15
73
13
0
VERTEX
8
OBJECT__0
10
0
20
0
30
0
70
128
71
13
72
10
73
8
0
VERTEX
8
OBJECT__0
10
0
20
0
30
0
70
128
71
19
72
20
73
21
0
VERTEX
8
OBJECT__0
10
0
20
0
30
0
70
128
71
19
72
22
73
20
0
VERTEX
8
OBJECT__0
10
0
20
0
30
0
70
128
71
19
72
23
73
24
0
VERTEX
8
OBJECT__0
10
0
20
0
30
0
70
128
71
19
72
25
73
23
0
VERTEX
8
OBJECT__0
10
0
20
0
30
0
70
128
71
24
72
26
73
19
0
VERTEX
8
OBJECT__0
10
0
20
0
30
0
70
128
71
26
72
12
73
19
0
VERTEX
8
OBJECT__0
10
0
20
0
30
0
70
128
71
19
72
11
73
27
0
VERTEX
8
OBJECT__0
10
0
20
0
30
0
70
128
71
27
72
22
73
19
0
VERTEX
8
OBJECT__0
10
0
20
0
30
0
70
128
71
19
72
12
73
11
0
VERTEX
8
OBJECT__0
10
0
20
0
30
0
70
128
71
21
72
25
73
19
0
VERTEX
8
OBJECT__0
10
0
20
0
30
0
70
128
71
14
72
10
73
13
0
VERTEX
8
OBJECT__0
10
0
20
0
30
0
70
128
71
3
72
7
73
1
0
SEQEND
8
OBJECT__0
0
POLYLINE
8
OBJECT__1
66
1
70
64
71
49
72
49
62
253
0
VERTEX
8
OBJECT__1
10
9.167000
20
3.955000
30
-101.683998
70
192
0
VERTEX
8
OBJECT__1
10
9.167000
20
3.960000
30
-101.679001
70
192
0
VERTEX
8
OBJECT__1
10
9.363000
20
3.807000
30
-101.563004
70
192
0
VERTEX
8
OBJECT__1
10
9.216000
20
4.785000
30
-100.195999
70
192
0
VERTEX
8
OBJECT__1
10
9.412000
20
4.600000
30
-100.138000
70
192
0
VERTEX
8
OBJECT__1
10
9.467000
20
4.880000
30
-98.523003
70
192
0
VERTEX
8
OBJECT__1
10
9.220000
20
4.808000
30
-100.065002
70
192
0
VERTEX
8
OBJECT__1
10
9.326000
20
4.794000
30
-96.834999
70
192
0
VERTEX
8
OBJECT__1
10
9.522000
20
4.609000
30
-96.905998
70
192
0
VERTEX
8
OBJECT__1
10
9.375000
20
3.971000
30
-95.341003
70
192
0
VERTEX
8
OBJECT__1
10
9.571000
20
3.818000
30
-95.470001
70
192
0
VERTEX
8
OBJECT__1
10
9.404000
20
2.952000
30
-94.430000
70
192
0
VERTEX
8
OBJECT__1
10
9.608000
20
2.596000
30
-94.376999
70
192
0
VERTEX
8
OBJECT__1
10
9.433000
20
1.125000
30
-93.553001
70
192
0
VERTEX
8
OBJECT__1
10
9.630000
20
1.081000
30
-93.750999
70
192
0
VERTEX
8
OBJECT__1
10
9.436000
20
-0.577000
30
-93.459999
70
192
0
VERTEX
8
OBJECT__1
10
9.633000
20
-0.554000
30
-93.661003
70
192
0
VERTEX
8
OBJECT__1
10
9.630000
20
0.795000
30
-93.735001
70
192
0
VERTEX
8
OBJECT__1
10
9.421000
20
-2.213000
30
-93.934998
70
192
0
VERTEX
8
OBJECT__1
10
9.617000
20
-2.127000
30
-94.117996
70
192
0
VERTEX
8
OBJECT__1
10
9.630000
20
-0.832000
30
-93.741997
70
192
0
VERTEX
8
OBJECT__1
10
9.404000
20
-2.940000
30
-94.454002
70
192
0
VERTEX
8
OBJECT__1
10
9.585000
20
-3.460000
30
-95.069000
70
192
0
VERTEX
8
OBJECT__1
10
9.388000
20
-3.599000
30
-94.924004
70
192
0
VERTEX
8
OBJECT__1
10
9.361000
20
-4.267000
30
-95.752998
70
192
0
VERTEX
8
OBJECT__1
10
9.557000
20
-4.102000
30
-95.865997
70
192
0
VERTEX
8
OBJECT__1
10
9.310000
20
-4.937000
30
-97.321999
70
192
0
VERTEX
8
OBJECT__1
10
9.506000
20
-4.746000
30
-97.374001
70
192
0
VERTEX
8
OBJECT__1
10
9.254000
20
-5.049000
30
-99.023003
70
192
0
VERTEX
8
OBJECT__1
10
9.450000
20
-4.854000
30
-99.010002
70
192
0
VERTEX
8
OBJECT__1
10
9.220000
20
-4.763000
30
-100.051003
70
192
0
VERTEX
8
OBJECT__1
10
9.397000
20
-4.415000
30
-100.588997
70
192
0
VERTEX
8
OBJECT__1
10
9.200000
20
-4.592000
30
-100.666000
70
192
0
VERTEX
8
OBJECT__1
10
9.155000
20
-3.616000
30
-102.065002
70
192
0
VERTEX
8
OBJECT__1
10
9.351000
20
-3.477000
30
-101.933998
70
192
0
VERTEX
8
OBJECT__1
10
9.122000
20
-2.233000
30
-103.060997
70
192
0
VERTEX
8
OBJECT__1
10
9.331000
20
-2.684000
30
-102.504997
70
192
0
VERTEX
8
OBJECT__1
10
9.318000
20
-2.147000
30
-102.891998
70
192
0
VERTEX
8
OBJECT__1
10
9.106000
20
-0.598000
30
-103.542999
70
192
0
VERTEX
8
OBJECT__1
10
9.302000
20
-0.575000
30
-103.356003
70
192
0
VERTEX
8
OBJECT__1
10
9.305000
20
1.060000
30
-103.273003
70
192
0
VERTEX
8
OBJECT__1
10
9.107000
20
-0.003000
30
-103.513000
70
192
0
VERTEX
8
OBJECT__1
10
9.130000
20
2.680000
30
-102.814003
70
192
0
VERTEX
8
OBJECT__1
10
9.326000
20
2.576000
30
-102.653999
70
192
0
VERTEX
8
OBJECT__1
10
9.363000
20
3.802000
30
-101.568001
70
192
0
VERTEX
8
OBJECT__1
10
9.328000
20
2.634000
30
-102.602997
70
192
0
VERTEX
8
OBJECT__1
10
9.109000
20
1.103000
30
-103.458000
70
192
0
VERTEX
8
OBJECT__1
10
9.412000
20
2.700000
30
-94.205002
70
192
0
VERTEX
8
OBJECT__1
10
9.271000
20
5.076000
30
-98.516998
70
192
0
VERTEX
8
OBJECT__1
10
0
20
0
30
0
70
128
71
1
72
2
73
3
0
VERTEX
8
OBJECT__1
10
0
20
0
30
0
70
128
71
4
72
5
73
3
0
VERTEX
8
OBJECT__1
10
0
20
0
30
0
70
128
71
3
72
2
73
4
0
VERTEX
8
OBJECT__1
10
0
20
0
30
0
70
128
71
6
72
5
73
7
0
VERTEX
8
OBJECT__1
10
0
20
0
30
0
70
128
71
5
72
4
73
7
0
VERTEX
8
OBJECT__1
10
0
20
0
30
0
70
128
71
8
72
9
73
6
0
VERTEX
8
OBJECT__1
10
0
20
0
30
0
70
128
71
10
72
11
73
9
0
VERTEX
8
OBJECT__1
10
0
20
0
30
0
70
128
71
11
72
10
73
12
0
VERTEX
8
OBJECT__1
10
0
20
0
30
0
70
128
71
12
72
13
73
11
0
VERTEX
8
OBJECT__1
10
0
20
0
30
0
70
128
71
14
72
15
73
13
0
VERTEX
8
OBJECT__1
10
0
20
0
30
0
70
128
71
16
72
17
73
18
0
VERTEX
8
OBJECT__1
10
0
20
0
30
0
70
128
71
18
72
14
73
16
0
VERTEX
8
OBJECT__1
10
0
20
0
30
0
70
128
71
19
72
20
73
21
0
VERTEX
8
OBJECT__1
10
0
20
0
30
0
70
128
71
21
72
16
73
19
0
VERTEX
8
OBJECT__1
10
0
20
0
30
0
70
128
71
20
72
19
73
22
0
VERTEX
8
OBJECT__1
10
0
20
0
30
0
70
128
71
22
72
23
73
20
0
VERTEX
8
OBJECT__1
10
0
20
0
30
0
70
128
71
24
72
25
73
26
0
VERTEX
8
OBJECT__1
10
0
20
0
30
0
70
128
71
25
72
27
73
28
0
VERTEX
8
OBJECT__1
10
0
20
0
30
0
70
128
71
27
72
29
73
30
0
VERTEX
8
OBJECT__1
10
0
20
0
30
0
70
128
71
30
72
29
73
31
0
VERTEX
8
OBJECT__1
10
0
20
0
30
0
70
128
71
31
72
32
73
30
0
VERTEX
8
OBJECT__1
10
0
20
0
30
0
70
128
71
33
72
34
73
35
0
VERTEX
8
OBJECT__1
10
0
20
0
30
0
70
128
71
34
72
36
73
37
0
VERTEX
8
OBJECT__1
10
0
20
0
30
0
70
128
71
36
72
38
73
37
0
VERTEX
8
OBJECT__1
10
0
20
0
30
0
70
128
71
36
72
39
73
40
0
VERTEX
8
OBJECT__1
10
0
20
0
30
0
70
128
71
41
72
40
73
42
0
VERTEX
8
OBJECT__1
10
0
20
0
30
0
70
128
71
40
72
39
73
42
0
VERTEX
8
OBJECT__1
10
0
20
0
30
0
70
128
71
43
72
44
73
41
0
VERTEX
8
OBJECT__1
10
0
20
0
30
0
70
128
71
1
72
45
73
46
0
VERTEX
8
OBJECT__1
10
0
20
0
30
0
70
128
71
46
72
43
73
1
0
VERTEX
8
OBJECT__1
10
0
20
0
30
0
70
128
71
46
72
44
73
43
0
VERTEX
8
OBJECT__1
10
0
20
0
30
0
70
128
71
41
72
47
73
43
0
VERTEX
8
OBJECT__1
10
0
20
0
30
0
70
128
71
42
72
47
73
41
0
VERTEX
8
OBJECT__1
10
0
20
0
30
0
70
128
71
40
72
38
73
36
0
VERTEX
8
OBJECT__1
10
0
20
0
30
0
70
128
71
37
72
35
73
34
0
VERTEX
8
OBJECT__1
10
0
20
0
30
0
70
128
71
35
72
32
73
33
0
VERTEX
8
OBJECT__1
10
0
20
0
30
0
70
128
71
31
72
33
73
32
0
VERTEX
8
OBJECT__1
10
0
20
0
30
0
70
128
71
30
72
28
73
27
0
VERTEX
8
OBJECT__1
10
0
20
0
30
0
70
128
71
28
72
26
73
25
0
VERTEX
8
OBJECT__1
10
0
20
0
30
0
70
128
71
26
72
23
73
24
0
VERTEX
8
OBJECT__1
10
0
20
0
30
0
70
128
71
22
72
24
73
23
0
VERTEX
8
OBJECT__1
10
0
20
0
30
0
70
128
71
21
72
17
73
16
0
VERTEX
8
OBJECT__1
10
0
20
0
30
0
70
128
71
18
72
15
73
14
0
VERTEX
8
OBJECT__1
10
0
20
0
30
0
70
128
71
13
72
48
73
14
0
VERTEX
8
OBJECT__1
10
0
20
0
30
0
70
128
71
12
72
48
73
13
0
VERTEX
8
OBJECT__1
10
0
20
0
30
0
70
128
71
9
72
8
73
10
0
VERTEX
8
OBJECT__1
10
0
20
0
30
0
70
128
71
6
72
49
73
8
0
VERTEX
8
OBJECT__1
10
0
20
0
30
0
70
128
71
7
72
49
73
6
0
VERTEX
8
OBJECT__1
10
0
20
0
30
0
70
128
71
3
72
45
73
1
0
SEQEND
8
OBJECT__1
0
POLYLINE
8
OBJECT__3
66
1
70
64
71
30
72
30
62
253
0
VERTEX
8
OBJECT__3
10
6.460000
20
-4.874000
30
-100.084000
70
192
0
VERTEX
8
OBJECT__3
10
6.460000
20
0.000000
30
-103.625000
70
192
0
VERTEX
8
OBJECT__3
10
9.122000
20
-2.233000
30
-103.060997
70
192
0
VERTEX
8
OBJECT__3
10
9.155000
20
-3.616000
30
-102.065002
70
192
0
VERTEX
8
OBJECT__3
10
9.106000
20
-0.598000
30
-103.542999
70
192
0
VERTEX
8
OBJECT__3
10
9.200000
20
-4.592000
30
-100.666000
70
192
0
VERTEX
8
OBJECT__3
10
9.107000
20
-0.003000
30
-103.513000
70
192
0
VERTEX
8
OBJECT__3
10
6.460000
20
-3.012000
30
-94.353996
70
192
0
VERTEX
8
OBJECT__3
10
9.310000
20
-4.937000
30
-97.321999
70
192
0
VERTEX
8
OBJECT__3
10
9.361000
20
-4.267000
30
-95.752998
70
192
0
VERTEX
8
OBJECT__3
10
9.254000
20
-5.049000
30
-99.023003
70
192
0
VERTEX
8
OBJECT__3
10
9.388000
20
-3.599000
30
-94.924004
70
192
0
VERTEX
8
OBJECT__3
10
9.220000
20
-4.763000
30
-100.051003
70
192
0
VERTEX
8
OBJECT__3
10
6.460000
20
3.012000
30
-94.353996
70
192
0
VERTEX
8
OBJECT__3
10
9.433000
20
1.125000
30
-93.553001
70
192
0
VERTEX
8
OBJECT__3
10
9.412000
20
2.700000
30
-94.205002
70
192
0
VERTEX
8
OBJECT__3
10
9.436000
20
-0.577000
30
-93.459999
70
192
0
VERTEX
8
OBJECT__3
10
9.404000
20
-2.940000
30
-94.454002
70
192
0
VERTEX
8
OBJECT__3
10
9.421000
20
-2.213000
30
-93.934998
70
192
0
VERTEX
8
OBJECT__3
10
6.460000
20
4.874000
30
-100.084000
70
192
0
VERTEX
8
OBJECT__3
10
9.326000
20
4.794000
30
-96.834999
70
192
0
VERTEX
8
OBJECT__3
10
9.375000
20
3.971000
30
-95.341003
70
192
0
VERTEX
8
OBJECT__3
10
9.271000
20
5.076000
30
-98.516998
70
192
0
VERTEX
8
OBJECT__3
10
9.404000
20
2.952000
30
-94.430000
70
192
0
VERTEX
8
OBJECT__3
10
9.167000
20
3.960000
30
-101.679001
70
192
0
VERTEX
8
OBJECT__3
10
9.167000
20
3.955000
30
-101.683998
70
192
0
VERTEX
8
OBJECT__3
10
9.130000
20
2.680000
30
-102.814003
70
192
0
VERTEX
8
OBJECT__3
10
9.216000
20
4.785000
30
-100.195999
70
192
0
VERTEX
8
OBJECT__3
10
9.109000
20
1.103000
30
-103.458000
70
192
0
VERTEX
8
OBJECT__3
10
9.220000
20
4.808000
30
-100.065002
70
192
0
VERTEX
8
OBJECT__3
10
0
20
0
30
0
70
128
71
1
72
2
73
3
0
VERTEX
8
OBJECT__3
10
0
20
0
30
0
70
128
71
3
72
4
73
1
0
VERTEX
8
OBJECT__3
10
0
20
0
30
0
70
128
71
2
72
5
73
3
0
VERTEX
8
OBJECT__3
10
0
20
0
30
0
70
128
71
4
72
6
73
1
0
VERTEX
8
OBJECT__3
10
0
20
0
30
0
70
128
71
2
72
7
73
5
0
VERTEX
8
OBJECT__3
10
0
20
0
30
0
70
128
71
8
72
1
73
9
0
VERTEX
8
OBJECT__3
10
0
20
0
30
0
70
128
71
9
72
10
73
8
0
VERTEX
8
OBJECT__3
10
0
20
0
30
0
70
128
71
1
72
11
73
9
0
VERTEX
8
OBJECT__3
10
0
20
0
30
0
70
128
71
10
72
12
73
8
0
VERTEX
8
OBJECT__3
10
0
20
0
30
0
70
128
71
1
72
13
73
11
0
VERTEX
8
OBJECT__3
10
0
20
0
30
0
70
128
71
14
72
15
73
16
0
VERTEX
8
OBJECT__3
10
0
20
0
30
0
70
128
71
14
72
8
73
17
0
VERTEX
8
OBJECT__3
10
0
20
0
30
0
70
128
71
17
72
15
73
14
0
VERTEX
8
OBJECT__3
10
0
20
0
30
0
70
128
71
8
72
18
73
19
0
VERTEX
8
OBJECT__3
10
0
20
0
30
0
70
128
71
19
72
17
73
8
0
VERTEX
8
OBJECT__3
10
0
20
0
30
0
70
128
71
20
72
14
73
21
0
VERTEX
8
OBJECT__3
10
0
20
0
30
0
70
128
71
14
72
22
73
21
0
VERTEX
8
OBJECT__3
10
0
20
0
30
0
70
128
71
21
72
23
73
20
0
VERTEX
8
OBJECT__3
10
0
20
0
30
0
70
128
71
14
72
24
73
22
0
VERTEX
8
OBJECT__3
10
0
20
0
30
0
70
128
71
20
72
25
73
26
0
VERTEX
8
OBJECT__3
10
0
20
0
30
0
70
128
71
26
72
2
73
20
0
VERTEX
8
OBJECT__3
10
0
20
0
30
0
70
128
71
26
72
27
73
2
0
VERTEX
8
OBJECT__3
10
0
20
0
30
0
70
128
71
20
72
28
73
25
0
VERTEX
8
OBJECT__3
10
0
20
0
30
0
70
128
71
27
72
29
73
2
0
VERTEX
8
OBJECT__3
10
0
20
0
30
0
70
128
71
20
72
30
73
28
0
VERTEX
8
OBJECT__3
10
0
20
0
30
0
70
128
71
29
72
7
73
2
0
VERTEX
8
OBJECT__3
10
0
20
0
30
0
70
128
71
23
72
30
73
20
0
VERTEX
8
OBJECT__3
10
0
20
0
30
0
70
128
71
16
72
24
73
14
0
VERTEX
8
OBJECT__3
10
0
20
0
30
0
70
128
71
12
72
18
73
8
0
VERTEX
8
OBJECT__3
10
0
20
0
30
0
70
128
71
6
72
13
73
1
0
SEQEND
8
OBJECT__3
0
POLYLINE
8
OBJECT__4
66
1
70
64
71
17
72
16
62
253
0
VERTEX
8
OBJECT__4
10
6.460000
20
4.874000
30
-100.084000
70
192
0
VERTEX
8
OBJECT__4
10
6.460000
20
7.050000
30
-98.400002
70
192
0
VERTEX
8
OBJECT__4
10
6.460000
20
5.293000
30
-94.156998
70
192
0
VERTEX
8
OBJECT__4
10
6.460000
20
7.050000
30
-98.699997
70
192
0
VERTEX
8
OBJECT__4
10
6.460000
20
3.012000
30
-94.353996
70
192
0
VERTEX
8
OBJECT__4
10
6.460000
20
1.050000
30
-92.400002
70
192
0
VERTEX
8
OBJECT__4
10
6.460000
20
-1.050000
30
-92.400002
70
192
0
VERTEX
8
OBJECT__4
10
6.460000
20
-4.874000
30
-100.084000
70
192
0
VERTEX
8
OBJECT__4
10
6.460000
20
-3.012000
30
-94.353996
70
192
0
VERTEX
8
OBJECT__4
10
6.460000
20
-5.293000
30
-94.156998
70
192
0
VERTEX
8
OBJECT__4
10
6.460000
20
0.000000
30
-103.625000
70
192
0
VERTEX
8
OBJECT__4
10
6.460000
20
4.477000
30
-103.625000
70
192
0
VERTEX
8
OBJECT__4
10
6.460000
20
6.368000
30
-101.477997
70
192
0
VERTEX
8
OBJECT__4
10
6.460000
20
-7.050000
30
-98.400002
70
192
0
VERTEX
8
OBJECT__4
10
6.460000
20
-7.050000
30
-98.699997
70
192
0
VERTEX
8
OBJECT__4
10
6.460000
20
-6.368000
30
-101.477997
70
192
0
VERTEX
8
OBJECT__4
10
6.460000
20
-4.477000
30
-103.625000
70
192
0
VERTEX
8
OBJECT__4
10
0
20
0
30
0
70
128
71
1
72
2
73
3
0
VERTEX
8
OBJECT__4
10
0
20
0
30
0
70
128
71
1
72
4
73
2
0
VERTEX
8
OBJECT__4
10
0
20
0
30
0
70
128
71
5
72
6
73
7
0
VERTEX
8
OBJECT__4
10
0
20
0
30
0
70
128
71
8
72
9
73
10
0
VERTEX
8
OBJECT__4
10
0
20
0
30
0
70
128
71
1
72
11
73
12
0
VERTEX
8
OBJECT__4
10
0
20
0
30
0
70
128
71
1
72
13
73
4
0
VERTEX
8
OBJECT__4
10
0
20
0
30
0
70
128
71
7
72
10
73
9
0
VERTEX
8
OBJECT__4
10
0
20
0
30
0
70
128
71
10
72
14
73
8
0
VERTEX
8
OBJECT__4
10
0
20
0
30
0
70
128
71
3
72
5
73
1
0
VERTEX
8
OBJECT__4
10
0
20
0
30
0
70
128
71
7
72
9
73
5
0
VERTEX
8
OBJECT__4
10
0
20
0
30
0
70
128
71
14
72
15
73
8
0
VERTEX
8
OBJECT__4
10
0
20
0
30
0
70
128
71
8
72
16
73
17
0
VERTEX
8
OBJECT__4
10
0
20
0
30
0
70
128
71
5
72
3
73
6
0
VERTEX
8
OBJECT__4
10
0
20
0
30
0
70
128
71
17
72
11
73
8
0
VERTEX
8
OBJECT__4
10
0
20
0
30
0
70
128
71
15
72
16
73
8
0
VERTEX
8
OBJECT__4
10
0
20
0
30
0
70
128
71
12
72
13
73
1
0
SEQEND
8
OBJECT__4
0
POLYLINE
8
OBJECT__5
66
1
70
64
71
17
72
16
62
253
0
VERTEX
8
OBJECT__5
10
6.460000
20
3.012000
30
-94.353996
70
192
0
VERTEX
8
OBJECT__5
10
6.460000
20
-3.012000
30
-94.353996
70
192
0
VERTEX
8
OBJECT__5
10
6.460000
20
-1.050000
30
-92.400002
70
192
0
VERTEX
8
OBJECT__5
10
6.460000
20
4.874000
30
-100.084000
70
192
0
VERTEX
8
OBJECT__5
10
6.460000
20
5.293000
30
-94.156998
70
192
0
VERTEX
8
OBJECT__5
10
6.460000
20
-4.874000
30
-100.084000
70
192
0
VERTEX
8
OBJECT__5
10
6.460000
20
-7.050000
30
-98.400002
70
192
0
VERTEX
8
OBJECT__5
10
6.460000
20
-5.293000
30
-94.156998
70
192
0
VERTEX
8
OBJECT__5
10
6.460000
20
1.050000
30
-92.400002
70
192
0
VERTEX
8
OBJECT__5
10
6.460000
20
7.050000
30
-98.400002
70
192
0
VERTEX
8
OBJECT__5
10
6.460000
20
-7.050000
30
-98.699997
70
192
0
VERTEX
8
OBJECT__5
10
6.460000
20
7.050000
30
-98.699997
70
192
0
VERTEX
8
OBJECT__5
10
6.460000
20
0.000000
30
-103.625000
70
192
0
VERTEX
8
OBJECT__5
10
6.460000
20
-4.477000
30
-103.625000
70
192
0
VERTEX
8
OBJECT__5
10
6.460000
20
-6.368000
30
-101.477997
70
192
0
VERTEX
8
OBJECT__5
10
6.460000
20
6.368000
30
-101.477997
70
192
0
VERTEX
8
OBJECT__5
10
6.460000
20
4.477000
30
-103.625000
70
192
0
VERTEX
8
OBJECT__5
10
0
20
0
30
0
70
128
71
1
72
2
73
3
0
VERTEX
8
OBJECT__5
10
0
20
0
30
0
70
128
71
4
72
1
73
5
0
VERTEX
8
OBJECT__5
10
0
20
0
30
0
70
128
71
6
72
7
73
8
0
VERTEX
8
OBJECT__5
10
0
20
0
30
0
70
128
71
3
72
9
73
1
0
VERTEX
8
OBJECT__5
10
0
20
0
30
0
70
128
71
5
72
10
73
4
0
VERTEX
8
OBJECT__5
10
0
20
0
30
0
70
128
71
6
72
11
73
7
0
VERTEX
8
OBJECT__5
10
0
20
0
30
0
70
128
71
9
72
5
73
1
0
VERTEX
8
OBJECT__5
10
0
20
0
30
0
70
128
71
10
72
12
73
4
0
VERTEX
8
OBJECT__5
10
0
20
0
30
0
70
128
71
6
72
13
73
14
0
VERTEX
8
OBJECT__5
10
0
20
0
30
0
70
128
71
6
72
15
73
11
0
VERTEX
8
OBJECT__5
10
0
20
0
30
0
70
128
71
12
72
16
73
4
0
VERTEX
8
OBJECT__5
10
0
20
0
30
0
70
128
71
4
72
16
73
17
0
VERTEX
8
OBJECT__5
10
0
20
0
30
0
70
128
71
8
72
2
73
6
0
VERTEX
8
OBJECT__5
10
0
20
0
30
0
70
128
71
17
72
13
73
4
0
VERTEX
8
OBJECT__5
10
0
20
0
30
0
70
128
71
2
72
8
73
3
0
VERTEX
8
OBJECT__5
10
0
20
0
30
0
70
128
71
14
72
15
73
6
0
SEQEND
8
OBJECT__5
0
POLYLINE
8
OBJECT__6
66
1
70
64
71
30
72
30
62
253
0
VERTEX
8
OBJECT__6
10
6.460000
20
4.874000
30
-100.084000
70
192
0
VERTEX
8
OBJECT__6
10
9.271000
20
5.076000
30
-98.516998
70
192
0
VERTEX
8
OBJECT__6
10
9.326000
20
4.794000
30
-96.834999
70
192
0
VERTEX
8
OBJECT__6
10
6.460000
20
3.012000
30
-94.353996
70
192
0
VERTEX
8
OBJECT__6
10
9.220000
20
4.808000
30
-100.065002
70
192
0
VERTEX
8
OBJECT__6
10
9.375000
20
3.971000
30
-95.341003
70
192
0
VERTEX
8
OBJECT__6
10
6.460000
20
-3.012000
30
-94.353996
70
192
0
VERTEX
8
OBJECT__6
10
9.436000
20
-0.577000
30
-93.459999
70
192
0
VERTEX
8
OBJECT__6
10
9.421000
20
-2.213000
30
-93.934998
70
192
0
VERTEX
8
OBJECT__6
10
9.433000
20
1.125000
30
-93.553001
70
192
0
VERTEX
8
OBJECT__6
10
9.404000
20
2.952000
30
-94.430000
70
192
0
VERTEX
8
OBJECT__6
10
9.412000
20
2.700000
30
-94.205002
70
192
0
VERTEX
8
OBJECT__6
10
9.361000
20
-4.267000
30
-95.752998
70
192
0
VERTEX
8
OBJECT__6
10
9.310000
20
-4.937000
30
-97.321999
70
192
0
VERTEX
8
OBJECT__6
10
9.388000
20
-3.599000
30
-94.924004
70
192
0
VERTEX
8
OBJECT__6
10
9.404000
20
-2.940000
30
-94.454002
70
192
0
VERTEX
8
OBJECT__6
10
6.460000
20
-4.874000
30
-100.084000
70
192
0
VERTEX
8
OBJECT__6
10
9.254000
20
-5.049000
30
-99.023003
70
192
0
VERTEX
8
OBJECT__6
10
6.460000
20
0.000000
30
-103.625000
70
192
0
VERTEX
8
OBJECT__6
10
9.155000
20
-3.616000
30
-102.065002
70
192
0
VERTEX
8
OBJECT__6
10
9.200000
20
-4.592000
30
-100.666000
70
192
0
VERTEX
8
OBJECT__6
10
9.122000
20
-2.233000
30
-103.060997
70
192
0
VERTEX
8
OBJECT__6
10
9.220000
20
-4.763000
30
-100.051003
70
192
0
VERTEX
8
OBJECT__6
10
9.106000
20
-0.598000
30
-103.542999
70
192
0
VERTEX
8
OBJECT__6
10
9.130000
20
2.680000
30
-102.814003
70
192
0
VERTEX
8
OBJECT__6
10
9.167000
20
3.955000
30
-101.683998
70
192
0
VERTEX
8
OBJECT__6
10
9.167000
20
3.960000
30
-101.679001
70
192
0
VERTEX
8
OBJECT__6
10
9.109000
20
1.103000
30
-103.458000
70
192
0
VERTEX
8
OBJECT__6
10
9.107000
20
-0.003000
30
-103.513000
70
192
0
VERTEX
8
OBJECT__6
10
9.216000
20
4.785000
30
-100.195999
70
192
0
VERTEX
8
OBJECT__6
10
0
20
0
30
0
70
128
71
1
72
2
73
3
0
VERTEX
8
OBJECT__6
10
0
20
0
30
0
70
128
71
3
72
4
73
1
0
VERTEX
8
OBJECT__6
10
0
20
0
30
0
70
128
71
1
72
5
73
2
0
VERTEX
8
OBJECT__6
10
0
20
0
30
0
70
128
71
3
72
6
73
4
0
VERTEX
8
OBJECT__6
10
0
20
0
30
0
70
128
71
7
72
8
73
9
0
VERTEX
8
OBJECT__6
10
0
20
0
30
0
70
128
71
4
72
10
73
8
0
VERTEX
8
OBJECT__6
10
0
20
0
30
0
70
128
71
4
72
11
73
12
0
VERTEX
8
OBJECT__6
10
0
20
0
30
0
70
128
71
12
72
10
73
4
0
VERTEX
8
OBJECT__6
10
0
20
0
30
0
70
128
71
8
72
7
73
4
0
VERTEX
8
OBJECT__6
10
0
20
0
30
0
70
128
71
7
72
13
73
14
0
VERTEX
8
OBJECT__6
10
0
20
0
30
0
70
128
71
7
72
15
73
13
0
VERTEX
8
OBJECT__6
10
0
20
0
30
0
70
128
71
7
72
16
73
15
0
VERTEX
8
OBJECT__6
10
0
20
0
30
0
70
128
71
14
72
17
73
7
0
VERTEX
8
OBJECT__6
10
0
20
0
30
0
70
128
71
14
72
18
73
17
0
VERTEX
8
OBJECT__6
10
0
20
0
30
0
70
128
71
19
72
17
73
20
0
VERTEX
8
OBJECT__6
10
0
20
0
30
0
70
128
71
17
72
21
73
20
0
VERTEX
8
OBJECT__6
10
0
20
0
30
0
70
128
71
20
72
22
73
19
0
VERTEX
8
OBJECT__6
10
0
20
0
30
0
70
128
71
17
72
23
73
21
0
VERTEX
8
OBJECT__6
10
0
20
0
30
0
70
128
71
22
72
24
73
19
0
VERTEX
8
OBJECT__6
10
0
20
0
30
0
70
128
71
1
72
19
73
25
0
VERTEX
8
OBJECT__6
10
0
20
0
30
0
70
128
71
25
72
26
73
1
0
VERTEX
8
OBJECT__6
10
0
20
0
30
0
70
128
71
26
72
27
73
1
0
VERTEX
8
OBJECT__6
10
0
20
0
30
0
70
128
71
19
72
28
73
25
0
VERTEX
8
OBJECT__6
10
0
20
0
30
0
70
128
71
19
72
29
73
28
0
VERTEX
8
OBJECT__6
10
0
20
0
30
0
70
128
71
27
72
30
73
1
0
VERTEX
8
OBJECT__6
10
0
20
0
30
0
70
128
71
30
72
5
73
1
0
VERTEX
8
OBJECT__6
10
0
20
0
30
0
70
128
71
24
72
29
73
19
0
VERTEX
8
OBJECT__6
10
0
20
0
30
0
70
128
71
18
72
23
73
17
0
VERTEX
8
OBJECT__6
10
0
20
0
30
0
70
128
71
9
72
16
73
7
0
VERTEX
8
OBJECT__6
10
0
20
0
30
0
70
128
71
6
72
11
73
4
0
SEQEND
8
OBJECT__6
0
POLYLINE
8
OBJECT__7
66
1
70
64
71
49
72
49
62
253
0
VERTEX
8
OBJECT__7
10
9.216000
20
4.785000
30
-100.195999
70
192
0
VERTEX
8
OBJECT__7
10
9.167000
20
3.960000
30
-101.679001
70
192
0
VERTEX
8
OBJECT__7
10
9.363000
20
3.807000
30
-101.563004
70
192
0
VERTEX
8
OBJECT__7
10
9.167000
20
3.955000
30
-101.683998
70
192
0
VERTEX
8
OBJECT__7
10
9.363000
20
3.802000
30
-101.568001
70
192
0
VERTEX
8
OBJECT__7
10
9.467000
20
4.880000
30
-98.523003
70
192
0
VERTEX
8
OBJECT__7
10
9.271000
20
5.076000
30
-98.516998
70
192
0
VERTEX
8
OBJECT__7
10
9.220000
20
4.808000
30
-100.065002
70
192
0
VERTEX
8
OBJECT__7
10
9.412000
20
4.600000
30
-100.138000
70
192
0
VERTEX
8
OBJECT__7
10
9.326000
20
4.794000
30
-96.834999
70
192
0
VERTEX
8
OBJECT__7
10
9.375000
20
3.971000
30
-95.341003
70
192
0
VERTEX
8
OBJECT__7
10
9.522000
20
4.609000
30
-96.905998
70
192
0
VERTEX
8
OBJECT__7
10
9.571000
20
3.818000
30
-95.470001
70
192
0
VERTEX
8
OBJECT__7
10
9.608000
20
2.596000
30
-94.376999
70
192
0
VERTEX
8
OBJECT__7
10
9.404000
20
2.952000
30
-94.430000
70
192
0
VERTEX
8
OBJECT__7
10
9.412000
20
2.700000
30
-94.205002
70
192
0
VERTEX
8
OBJECT__7
10
9.433000
20
1.125000
30
-93.553001
70
192
0
VERTEX
8
OBJECT__7
10
9.436000
20
-0.577000
30
-93.459999
70
192
0
VERTEX
8
OBJECT__7
10
9.630000
20
0.795000
30
-93.735001
70
192
0
VERTEX
8
OBJECT__7
10
9.630000
20
1.081000
30
-93.750999
70
192
0
VERTEX
8
OBJECT__7
10
9.421000
20
-2.213000
30
-93.934998
70
192
0
VERTEX
8
OBJECT__7
10
9.630000
20
-0.832000
30
-93.741997
70
192
0
VERTEX
8
OBJECT__7
10
9.633000
20
-0.554000
30
-93.661003
70
192
0
VERTEX
8
OBJECT__7
10
9.617000
20
-2.127000
30
-94.117996
70
192
0
VERTEX
8
OBJECT__7
10
9.585000
20
-3.460000
30
-95.069000
70
192
0
VERTEX
8
OBJECT__7
10
9.404000
20
-2.940000
30
-94.454002
70
192
0
VERTEX
8
OBJECT__7
10
9.388000
20
-3.599000
30
-94.924004
70
192
0
VERTEX
8
OBJECT__7
10
9.557000
20
-4.102000
30
-95.865997
70
192
0
VERTEX
8
OBJECT__7
10
9.361000
20
-4.267000
30
-95.752998
70
192
0
VERTEX
8
OBJECT__7
10
9.506000
20
-4.746000
30
-97.374001
70
192
0
VERTEX
8
OBJECT__7
10
9.310000
20
-4.937000
30
-97.321999
70
192
0
VERTEX
8
OBJECT__7
10
9.450000
20
-4.854000
30
-99.010002
70
192
0
VERTEX
8
OBJECT__7
10
9.397000
20
-4.415000
30
-100.588997
70
192
0
VERTEX
8
OBJECT__7
10
9.220000
20
-4.763000
30
-100.051003
70
192
0
VERTEX
8
OBJECT__7
10
9.200000
20
-4.592000
30
-100.666000
70
192
0
VERTEX
8
OBJECT__7
10
9.351000
20
-3.477000
30
-101.933998
70
192
0
VERTEX
8
OBJECT__7
10
9.155000
20
-3.616000
30
-102.065002
70
192
0
VERTEX
8
OBJECT__7
10
9.331000
20
-2.684000
30
-102.504997
70
192
0
VERTEX
8
OBJECT__7
10
9.122000
20
-2.233000
30
-103.060997
70
192
0
VERTEX
8
OBJECT__7
10
9.318000
20
-2.147000
30
-102.891998
70
192
0
VERTEX
8
OBJECT__7
10
9.302000
20
-0.575000
30
-103.356003
70
192
0
VERTEX
8
OBJECT__7
10
9.305000
20
1.060000
30
-103.273003
70
192
0
VERTEX
8
OBJECT__7
10
9.109000
20
1.103000
30
-103.458000
70
192
0
VERTEX
8
OBJECT__7
10
9.107000
20
-0.003000
30
-103.513000
70
192
0
VERTEX
8
OBJECT__7
10
9.130000
20
2.680000
30
-102.814003
70
192
0
VERTEX
8
OBJECT__7
10
9.328000
20
2.634000
30
-102.602997
70
192
0
VERTEX
8
OBJECT__7
10
9.326000
20
2.576000
30
-102.653999
70
192
0
VERTEX
8
OBJECT__7
10
9.106000
20
-0.598000
30
-103.542999
70
192
0
VERTEX
8
OBJECT__7
10
9.254000
20
-5.049000
30
-99.023003
70
192
0
VERTEX
8
OBJECT__7
10
0
20
0
30
0
70
128
71
1
72
2
73
3
0
VERTEX
8
OBJECT__7
10
0
20
0
30
0
70
128
71
2
72
4
73
5
0
VERTEX
8
OBJECT__7
10
0
20
0
30
0
70
128
71
5
72
3
73
2
0
VERTEX
8
OBJECT__7
10
0
20
0
30
0
70
128
71
6
72
7
73
8
0
VERTEX
8
OBJECT__7
10
0
20
0
30
0
70
128
71
8
72
9
73
6
0
VERTEX
8
OBJECT__7
10
0
20
0
30
0
70
128
71
10
72
7
73
6
0
VERTEX
8
OBJECT__7
10
0
20
0
30
0
70
128
71
11
72
10
73
12
0
VERTEX
8
OBJECT__7
10
0
20
0
30
0
70
128
71
13
72
14
73
15
0
VERTEX
8
OBJECT__7
10
0
20
0
30
0
70
128
71
14
72
16
73
15
0
VERTEX
8
OBJECT__7
10
0
20
0
30
0
70
128
71
17
72
16
73
14
0
VERTEX
8
OBJECT__7
10
0
20
0
30
0
70
128
71
18
72
17
73
19
0
VERTEX
8
OBJECT__7
10
0
20
0
30
0
70
128
71
17
72
20
73
19
0
VERTEX
8
OBJECT__7
10
0
20
0
30
0
70
128
71
21
72
18
73
22
0
VERTEX
8
OBJECT__7
10
0
20
0
30
0
70
128
71
18
72
23
73
22
0
VERTEX
8
OBJECT__7
10
0
20
0
30
0
70
128
71
24
72
25
73
26
0
VERTEX
8
OBJECT__7
10
0
20
0
30
0
70
128
71
25
72
27
73
26
0
VERTEX
8
OBJECT__7
10
0
20
0
30
0
70
128
71
27
72
25
73
28
0
VERTEX
8
OBJECT__7
10
0
20
0
30
0
70
128
71
29
72
28
73
30
0
VERTEX
8
OBJECT__7
10
0
20
0
30
0
70
128
71
31
72
30
73
32
0
VERTEX
8
OBJECT__7
10
0
20
0
30
0
70
128
71
32
72
33
73
34
0
VERTEX
8
OBJECT__7
10
0
20
0
30
0
70
128
71
33
72
35
73
34
0
VERTEX
8
OBJECT__7
10
0
20
0
30
0
70
128
71
35
72
33
73
36
0
VERTEX
8
OBJECT__7
10
0
20
0
30
0
70
128
71
37
72
36
73
38
0
VERTEX
8
OBJECT__7
10
0
20
0
30
0
70
128
71
38
72
39
73
37
0
VERTEX
8
OBJECT__7
10
0
20
0
30
0
70
128
71
39
72
40
73
41
0
VERTEX
8
OBJECT__7
10
0
20
0
30
0
70
128
71
42
72
43
73
44
0
VERTEX
8
OBJECT__7
10
0
20
0
30
0
70
128
71
44
72
41
73
42
0
VERTEX
8
OBJECT__7
10
0
20
0
30
0
70
128
71
45
72
43
73
42
0
VERTEX
8
OBJECT__7
10
0
20
0
30
0
70
128
71
4
72
45
73
46
0
VERTEX
8
OBJECT__7
10
0
20
0
30
0
70
128
71
45
72
47
73
46
0
VERTEX
8
OBJECT__7
10
0
20
0
30
0
70
128
71
46
72
5
73
4
0
VERTEX
8
OBJECT__7
10
0
20
0
30
0
70
128
71
42
72
47
73
45
0
VERTEX
8
OBJECT__7
10
0
20
0
30
0
70
128
71
44
72
48
73
41
0
VERTEX
8
OBJECT__7
10
0
20
0
30
0
70
128
71
41
72
48
73
39
0
VERTEX
8
OBJECT__7
10
0
20
0
30
0
70
128
71
38
72
40
73
39
0
VERTEX
8
OBJECT__7
10
0
20
0
30
0
70
128
71
36
72
37
73
35
0
VERTEX
8
OBJECT__7
10
0
20
0
30
0
70
128
71
34
72
49
73
32
0
VERTEX
8
OBJECT__7
10
0
20
0
30
0
70
128
71
32
72
49
73
31
0
VERTEX
8
OBJECT__7
10
0
20
0
30
0
70
128
71
30
72
31
73
29
0
VERTEX
8
OBJECT__7
10
0
20
0
30
0
70
128
71
28
72
29
73
27
0
VERTEX
8
OBJECT__7
10
0
20
0
30
0
70
128
71
26
72
21
73
24
0
VERTEX
8
OBJECT__7
10
0
20
0
30
0
70
128
71
22
72
24
73
21
0
VERTEX
8
OBJECT__7
10
0
20
0
30
0
70
128
71
19
72
23
73
18
0
VERTEX
8
OBJECT__7
10
0
20
0
30
0
70
128
71
14
72
20
73
17
0
VERTEX
8
OBJECT__7
10
0
20
0
30
0
70
128
71
15
72
11
73
13
0
VERTEX
8
OBJECT__7
10
0
20
0
30
0
70
128
71
12
72
13
73
11
0
VERTEX
8
OBJECT__7
10
0
20
0
30
0
70
128
71
6
72
12
73
10
0
VERTEX
8
OBJECT__7
10
0
20
0
30
0
70
128
71
8
72
1
73
9
0
VERTEX
8
OBJECT__7
10
0
20
0
30
0
70
128
71
3
72
9
73
1
0
SEQEND
8
OBJECT__7
0
POLYLINE
8
OBJECT__8
66
1
70
64
71
27
72
28
62
253
0
VERTEX
8
OBJECT__8
10
9.617000
20
-2.127000
30
-94.117996
70
192
0
VERTEX
8
OBJECT__8
10
9.331000
20
-2.684000
30
-102.504997
70
192
0
VERTEX
8
OBJECT__8
10
9.480000
20
-3.739000
30
-98.708000
70
192
0
VERTEX
8
OBJECT__8
10
9.585000
20
-3.460000
30
-95.069000
70
192
0
VERTEX
8
OBJECT__8
10
9.351000
20
-3.477000
30
-101.933998
70
192
0
VERTEX
8
OBJECT__8
10
9.397000
20
-4.415000
30
-100.588997
70
192
0
VERTEX
8
OBJECT__8
10
9.450000
20
-4.854000
30
-99.010002
70
192
0
VERTEX
8
OBJECT__8
10
9.506000
20
-4.746000
30
-97.374001
70
192
0
VERTEX
8
OBJECT__8
10
9.557000
20
-4.102000
30
-95.865997
70
192
0
VERTEX
8
OBJECT__8
10
9.519000
20
-0.048000
30
-98.398003
70
192
0
VERTEX
8
OBJECT__8
10
9.302000
20
-0.575000
30
-103.356003
70
192
0
VERTEX
8
OBJECT__8
10
9.318000
20
-2.147000
30
-102.891998
70
192
0
VERTEX
8
OBJECT__8
10
9.305000
20
1.060000
30
-103.273003
70
192
0
VERTEX
8
OBJECT__8
10
9.326000
20
2.576000
30
-102.653999
70
192
0
VERTEX
8
OBJECT__8
10
9.630000
20
-0.832000
30
-93.741997
70
192
0
VERTEX
8
OBJECT__8
10
9.328000
20
2.634000
30
-102.602997
70
192
0
VERTEX
8
OBJECT__8
10
9.630000
20
0.795000
30
-93.735001
70
192
0
VERTEX
8
OBJECT__8
10
9.633000
20
-0.554000
30
-93.661003
70
192
0
VERTEX
8
OBJECT__8
10
9.531000
20
2.079000
30
-97.748001
70
192
0
VERTEX
8
OBJECT__8
10
9.363000
20
3.807000
30
-101.563004
70
192
0
VERTEX
8
OBJECT__8
10
9.363000
20
3.802000
30
-101.568001
70
192
0
VERTEX
8
OBJECT__8
10
9.630000
20
1.081000
30
-93.750999
70
192
0
VERTEX
8
OBJECT__8
10
9.608000
20
2.596000
30
-94.376999
70
192
0
VERTEX
8
OBJECT__8
10
9.571000
20
3.818000
30
-95.470001
70
192
0
VERTEX
8
OBJECT__8
10
9.522000
20
4.609000
30
-96.905998
70
192
0
VERTEX
8
OBJECT__8
10
9.467000
20
4.880000
30
-98.523003
70
192
0
VERTEX
8
OBJECT__8
10
9.412000
20
4.600000
30
-100.138000
70
192
0
VERTEX
8
OBJECT__8
10
0
20
0
30
0
70
128
71
1
72
2
73
3
0
VERTEX
8
OBJECT__8
10
0
20
0
30
0
70
128
71
3
72
4
73
1
0
VERTEX
8
OBJECT__8
10
0
20
0
30
0
70
128
71
3
72
2
73
5
0
VERTEX
8
OBJECT__8
10
0
20
0
30
0
70
128
71
5
72
6
73
3
0
VERTEX
8
OBJECT__8
10
0
20
0
30
0
70
128
71
3
72
7
73
8
0
VERTEX
8
OBJECT__8
10
0
20
0
30
0
70
128
71
8
72
9
73
3
0
VERTEX
8
OBJECT__8
10
0
20
0
30
0
70
128
71
9
72
4
73
3
0
VERTEX
8
OBJECT__8
10
0
20
0
30
0
70
128
71
6
72
7
73
3
0
VERTEX
8
OBJECT__8
10
0
20
0
30
0
70
128
71
10
72
11
73
12
0
VERTEX
8
OBJECT__8
10
0
20
0
30
0
70
128
71
10
72
13
73
11
0
VERTEX
8
OBJECT__8
10
0
20
0
30
0
70
128
71
10
72
14
73
13
0
VERTEX
8
OBJECT__8
10
0
20
0
30
0
70
128
71
2
72
15
73
10
0
VERTEX
8
OBJECT__8
10
0
20
0
30
0
70
128
71
16
72
14
73
10
0
VERTEX
8
OBJECT__8
10
0
20
0
30
0
70
128
71
10
72
17
73
16
0
VERTEX
8
OBJECT__8
10
0
20
0
30
0
70
128
71
10
72
15
73
18
0
VERTEX
8
OBJECT__8
10
0
20
0
30
0
70
128
71
10
72
18
73
17
0
VERTEX
8
OBJECT__8
10
0
20
0
30
0
70
128
71
19
72
20
73
21
0
VERTEX
8
OBJECT__8
10
0
20
0
30
0
70
128
71
16
72
17
73
19
0
VERTEX
8
OBJECT__8
10
0
20
0
30
0
70
128
71
19
72
22
73
23
0
VERTEX
8
OBJECT__8
10
0
20
0
30
0
70
128
71
19
72
17
73
22
0
VERTEX
8
OBJECT__8
10
0
20
0
30
0
70
128
71
23
72
24
73
19
0
VERTEX
8
OBJECT__8
10
0
20
0
30
0
70
128
71
19
72
25
73
26
0
VERTEX
8
OBJECT__8
10
0
20
0
30
0
70
128
71
26
72
27
73
19
0
VERTEX
8
OBJECT__8
10
0
20
0
30
0
70
128
71
27
72
20
73
19
0
VERTEX
8
OBJECT__8
10
0
20
0
30
0
70
128
71
24
72
25
73
19
0
VERTEX
8
OBJECT__8
10
0
20
0
30
0
70
128
71
21
72
16
73
19
0
VERTEX
8
OBJECT__8
10
0
20
0
30
0
70
128
71
12
72
2
73
10
0
VERTEX
8
OBJECT__8
10
0
20
0
30
0
70
128
71
1
72
15
73
2
0
SEQEND
8
OBJECT__8
0
POLYLINE
8
OBJECT__9
66
1
70
64
71
10
72
8
62
253
0
VERTEX
8
OBJECT__9
10
160.000000
20
-13.500000
30
0.000000
70
192
0
VERTEX
8
OBJECT__9
10
160.000000
20
4.172000
30
12.839000
70
192
0
VERTEX
8
OBJECT__9
10
160.000000
20
-4.172000
30
12.839000
70
192
0
VERTEX
8
OBJECT__9
10
160.000000
20
13.500000
30
0.000000
70
192
0
VERTEX
8
OBJECT__9
10
160.000000
20
10.922000
30
7.935000
70
192
0
VERTEX
8
OBJECT__9
10
160.000000
20
4.172000
30
-12.839000
70
192
0
VERTEX
8
OBJECT__9
10
160.000000
20
10.922000
30
-7.935000
70
192
0
VERTEX
8
OBJECT__9
10
160.000000
20
-10.922000
30
-7.935000
70
192
0
VERTEX
8
OBJECT__9
10
160.000000
20
-4.172000
30
-12.839000
70
192
0
VERTEX
8
OBJECT__9
10
160.000000
20
-10.922000
30
7.935000
70
192
0
VERTEX
8
OBJECT__9
10
0
20
0
30
0
70
128
71
1
72
2
73
3
0
VERTEX
8
OBJECT__9
10
0
20
0
30
0
70
128
71
1
72
4
73
5
0
VERTEX
8
OBJECT__9
10
0
20
0
30
0
70
128
71
1
72
6
73
7
0
VERTEX
8
OBJECT__9
10
0
20
0
30
0
70
128
71
1
72
8
73
9
0
VERTEX
8
OBJECT__9
10
0
20
0
30
0
70
128
71
5
72
2
73
1
0
VERTEX
8
OBJECT__9
10
0
20
0
30
0
70
128
71
9
72
6
73
1
0
VERTEX
8
OBJECT__9
10
0
20
0
30
0
70
128
71
7
72
4
73
1
0
VERTEX
8
OBJECT__9
10
0
20
0
30
0
70
128
71
3
72
10
73
1
0
SEQEND
8
OBJECT__9
0
POLYLINE
8
OBJECT__10
66
1
70
64
71
20
72
20
62
253
0
VERTEX
8
OBJECT__10
10
8.600000
20
-10.922000
30
7.935000
70
192
0
VERTEX
8
OBJECT__10
10
8.600000
20
-13.500000
30
0.000000
70
192
0
VERTEX
8
OBJECT__10
10
160.000000
20
-13.500000
30
0.000000
70
192
0
VERTEX
8
OBJECT__10
10
160.000000
20
-4.172000
30
12.839000
70
192
0
VERTEX
8
OBJECT__10
10
8.600000
20
-4.172000
30
12.839000
70
192
0
VERTEX
8
OBJECT__10
10
160.000000
20
4.172000
30
12.839000
70
192
0
VERTEX
8
OBJECT__10
10
8.600000
20
4.172000
30
12.839000
70
192
0
VERTEX
8
OBJECT__10
10
160.000000
20
10.922000
30
7.935000
70
192
0
VERTEX
8
OBJECT__10
10
8.600000
20
10.922000
30
7.935000
70
192
0
VERTEX
8
OBJECT__10
10
160.000000
20
13.500000
30
0.000000
70
192
0
VERTEX
8
OBJECT__10
10
8.600000
20
13.500000
30
0.000000
70
192
0
VERTEX
8
OBJECT__10
10
160.000000
20
10.922000
30
-7.935000
70
192
0
VERTEX
8
OBJECT__10
10
8.600000
20
10.922000
30
-7.935000
70
192
0
VERTEX
8
OBJECT__10
10
160.000000
20
4.172000
30
-12.839000
70
192
0
VERTEX
8
OBJECT__10
10
8.600000
20
4.172000
30
-12.839000
70
192
0
VERTEX
8
OBJECT__10
10
8.600000
20
-4.172000
30
-12.839000
70
192
0
VERTEX
8
OBJECT__10
10
8.600000
20
-10.922000
30
-7.935000
70
192
0
VERTEX
8
OBJECT__10
10
160.000000
20
-4.172000
30
-12.839000
70
192
0
VERTEX
8
OBJECT__10
10
160.000000
20
-10.922000
30
-7.935000
70
192
0
VERTEX
8
OBJECT__10
10
160.000000
20
-10.922000
30
7.935000
70
192
0
VERTEX
8
OBJECT__10
10
0
20
0
30
0
70
128
71
1
72
2
73
3
0
VERTEX
8
OBJECT__10
10
0
20
0
30
0
70
128
71
4
72
5
73
1
0
VERTEX
8
OBJECT__10
10
0
20
0
30
0
70
128
71
6
72
7
73
5
0
VERTEX
8
OBJECT__10
10
0
20
0
30
0
70
128
71
8
72
9
73
7
0
VERTEX
8
OBJECT__10
10
0
20
0
30
0
70
128
71
10
72
11
73
9
0
VERTEX
8
OBJECT__10
10
0
20
0
30
0
70
128
71
12
72
13
73
11
0
VERTEX
8
OBJECT__10
10
0
20
0
30
0
70
128
71
14
72
15
73
13
0
VERTEX
8
OBJECT__10
10
0
20
0
30
0
70
128
71
16
72
15
73
14
0
VERTEX
8
OBJECT__10
10
0
20
0
30
0
70
128
71
17
72
16
73
18
0
VERTEX
8
OBJECT__10
10
0
20
0
30
0
70
128
71
2
72
17
73
19
0
VERTEX
8
OBJECT__10
10
0
20
0
30
0
70
128
71
19
72
3
73
2
0
VERTEX
8
OBJECT__10
10
0
20
0
30
0
70
128
71
18
72
19
73
17
0
VERTEX
8
OBJECT__10
10
0
20
0
30
0
70
128
71
14
72
18
73
16
0
VERTEX
8
OBJECT__10
10
0
20
0
30
0
70
128
71
13
72
12
73
14
0
VERTEX
8
OBJECT__10
10
0
20
0
30
0
70
128
71
11
72
10
73
12
0
VERTEX
8
OBJECT__10
10
0
20
0
30
0
70
128
71
9
72
8
73
10
0
VERTEX
8
OBJECT__10
10
0
20
0
30
0
70
128
71
7
72
6
73
8
0
VERTEX
8
OBJECT__10
10
0
20
0
30
0
70
128
71
5
72
4
73
6
0
VERTEX
8
OBJECT__10
10
0
20
0
30
0
70
128
71
1
72
20
73
4
0
VERTEX
8
OBJECT__10
10
0
20
0
30
0
70
128
71
3
72
20
73
1
0
SEQEND
8
OBJECT__10
0
POLYLINE
8
OBJECT__12
66
1
70
64
71
20
72
20
62
253
0
VERTEX
8
OBJECT__12
10
160.000000
20
-10.922000
30
-7.935000
70
192
0
VERTEX
8
OBJECT__12
10
8.600000
20
-10.922000
30
-7.935000
70
192
0
VERTEX
8
OBJECT__12
10
8.600000
20
-13.500000
30
0.000000
70
192
0
VERTEX
8
OBJECT__12
10
160.000000
20
-4.172000
30
-12.839000
70
192
0
VERTEX
8
OBJECT__12
10
8.600000
20
-4.172000
30
-12.839000
70
192
0
VERTEX
8
OBJECT__12
10
160.000000
20
4.172000
30
-12.839000
70
192
0
VERTEX
8
OBJECT__12
10
8.600000
20
4.172000
30
-12.839000
70
192
0
VERTEX
8
OBJECT__12
10
160.000000
20
10.922000
30
-7.935000
70
192
0
VERTEX
8
OBJECT__12
10
8.600000
20
10.922000
30
-7.935000
70
192
0
VERTEX
8
OBJECT__12
10
8.600000
20
13.500000
30
0.000000
70
192
0
VERTEX
8
OBJECT__12
10
8.600000
20
10.922000
30
7.935000
70
192
0
VERTEX
8
OBJECT__12
10
160.000000
20
13.500000
30
0.000000
70
192
0
VERTEX
8
OBJECT__12
10
8.600000
20
4.172000
30
12.839000
70
192
0
VERTEX
8
OBJECT__12
10
160.000000
20
10.922000
30
7.935000
70
192
0
VERTEX
8
OBJECT__12
10
8.600000
20
-4.172000
30
12.839000
70
192
0
VERTEX
8
OBJECT__12
10
160.000000
20
4.172000
30
12.839000
70
192
0
VERTEX
8
OBJECT__12
10
160.000000
20
-10.922000
30
7.935000
70
192
0
VERTEX
8
OBJECT__12
10
8.600000
20
-10.922000
30
7.935000
70
192
0
VERTEX
8
OBJECT__12
10
160.000000
20
-13.500000
30
0.000000
70
192
0
VERTEX
8
OBJECT__12
10
160.000000
20
-4.172000
30
12.839000
70
192
0
VERTEX
8
OBJECT__12
10
0
20
0
30
0
70
128
71
1
72
2
73
3
0
VERTEX
8
OBJECT__12
10
0
20
0
30
0
70
128
71
4
72
5
73
2
0
VERTEX
8
OBJECT__12
10
0
20
0
30
0
70
128
71
6
72
7
73
5
0
VERTEX
8
OBJECT__12
10
0
20
0
30
0
70
128
71
8
72
9
73
7
0
VERTEX
8
OBJECT__12
10
0
20
0
30
0
70
128
71
10
72
9
73
8
0
VERTEX
8
OBJECT__12
10
0
20
0
30
0
70
128
71
11
72
10
73
12
0
VERTEX
8
OBJECT__12
10
0
20
0
30
0
70
128
71
13
72
11
73
14
0
VERTEX
8
OBJECT__12
10
0
20
0
30
0
70
128
71
15
72
13
73
16
0
VERTEX
8
OBJECT__12
10
0
20
0
30
0
70
128
71
17
72
18
73
15
0
VERTEX
8
OBJECT__12
10
0
20
0
30
0
70
128
71
19
72
3
73
18
0
VERTEX
8
OBJECT__12
10
0
20
0
30
0
70
128
71
18
72
17
73
19
0
VERTEX
8
OBJECT__12
10
0
20
0
30
0
70
128
71
15
72
20
73
17
0
VERTEX
8
OBJECT__12
10
0
20
0
30
0
70
128
71
16
72
20
73
15
0
VERTEX
8
OBJECT__12
10
0
20
0
30
0
70
128
71
14
72
16
73
13
0
VERTEX
8
OBJECT__12
10
0
20
0
30
0
70
128
71
12
72
14
73
11
0
VERTEX
8
OBJECT__12
10
0
20
0
30
0
70
128
71
8
72
12
73
10
0
VERTEX
8
OBJECT__12
10
0
20
0
30
0
70
128
71
7
72
6
73
8
0
VERTEX
8
OBJECT__12
10
0
20
0
30
0
70
128
71
5
72
4
73
6
0
VERTEX
8
OBJECT__12
10
0
20
0
30
0
70
128
71
2
72
1
73
4
0
VERTEX
8
OBJECT__12
10
0
20
0
30
0
70
128
71
3
72
19
73
1
0
SEQEND
8
OBJECT__12
0
POLYLINE
8
OBJECT__13
66
1
70
64
71
10
72
8
62
253
0
VERTEX
8
OBJECT__13
10
160.000000
20
-13.500000
30
0.000000
70
192
0
VERTEX
8
OBJECT__13
10
160.000000
20
4.172000
30
-12.839000
70
192
0
VERTEX
8
OBJECT__13
10
160.000000
20
-4.172000
30
-12.839000
70
192
0
VERTEX
8
OBJECT__13
10
160.000000
20
13.500000
30
0.000000
70
192
0
VERTEX
8
OBJECT__13
10
160.000000
20
10.922000
30
-7.935000
70
192
0
VERTEX
8
OBJECT__13
10
160.000000
20
-4.172000
30
12.839000
70
192
0
VERTEX
8
OBJECT__13
10
160.000000
20
4.172000
30
12.839000
70
192
0
VERTEX
8
OBJECT__13
10
160.000000
20
-10.922000
30
7.935000
70
192
0
VERTEX
8
OBJECT__13
10
160.000000
20
10.922000
30
7.935000
70
192
0
VERTEX
8
OBJECT__13
10
160.000000
20
-10.922000
30
-7.935000
70
192
0
VERTEX
8
OBJECT__13
10
0
20
0
30
0
70
128
71
1
72
2
73
3
0
VERTEX
8
OBJECT__13
10
0
20
0
30
0
70
128
71
1
72
4
73
5
0
VERTEX
8
OBJECT__13
10
0
20
0
30
0
70
128
71
4
72
6
73
7
0
VERTEX
8
OBJECT__13
10
0
20
0
30
0
70
128
71
4
72
1
73
8
0
VERTEX
8
OBJECT__13
10
0
20
0
30
0
70
128
71
5
72
2
73
1
0
VERTEX
8
OBJECT__13
10
0
20
0
30
0
70
128
71
8
72
6
73
4
0
VERTEX
8
OBJECT__13
10
0
20
0
30
0
70
128
71
7
72
9
73
4
0
VERTEX
8
OBJECT__13
10
0
20
0
30
0
70
128
71
3
72
10
73
1
0
SEQEND
8
OBJECT__13
0
POLYLINE
8
OBJECT__14
66
1
70
64
71
44
72
44
62
253
0
VERTEX
8
OBJECT__14
10
8.122000
20
-5.250000
30
-98.500000
70
192
0
VERTEX
8
OBJECT__14
10
9.581000
20
-4.841000
30
-100.341003
70
192
0
VERTEX
8
OBJECT__14
10
9.550000
20
-4.418000
30
-101.335999
70
192
0
VERTEX
8
OBJECT__14
10
9.601000
20
-5.108000
30
-99.712997
70
192
0
VERTEX
8
OBJECT__14
10
8.122000
20
-3.273000
30
-102.605003
70
192
0
VERTEX
8
OBJECT__14
10
9.639000
20
-5.186000
30
-98.496002
70
192
0
VERTEX
8
OBJECT__14
10
8.122000
20
1.168000
30
-103.617996
70
192
0
VERTEX
8
OBJECT__14
10
9.475000
20
0.064000
30
-103.750000
70
192
0
VERTEX
8
OBJECT__14
10
9.479000
20
0.853000
30
-103.605003
70
192
0
VERTEX
8
OBJECT__14
10
9.484000
20
-1.677000
30
-103.474998
70
192
0
VERTEX
8
OBJECT__14
10
9.510000
20
-3.230000
30
-102.639000
70
192
0
VERTEX
8
OBJECT__14
10
9.497000
20
-2.479000
30
-103.042999
70
192
0
VERTEX
8
OBJECT__14
10
9.511000
20
-3.267000
30
-102.598999
70
192
0
VERTEX
8
OBJECT__14
10
8.122000
20
4.730000
30
-100.778000
70
192
0
VERTEX
8
OBJECT__14
10
9.512000
20
3.328000
30
-102.560997
70
192
0
VERTEX
8
OBJECT__14
10
9.531000
20
3.863000
30
-101.945000
70
192
0
VERTEX
8
OBJECT__14
10
9.485000
20
1.797000
30
-103.432999
70
192
0
VERTEX
8
OBJECT__14
10
9.481000
20
1.156000
30
-103.550003
70
192
0
VERTEX
8
OBJECT__14
10
9.554000
20
4.484000
30
-101.231003
70
192
0
VERTEX
8
OBJECT__14
10
8.122000
20
4.730000
30
-96.222000
70
192
0
VERTEX
8
OBJECT__14
10
8.122000
20
5.250000
30
-98.500000
70
192
0
VERTEX
8
OBJECT__14
10
9.659000
20
5.207000
30
-97.831001
70
192
0
VERTEX
8
OBJECT__14
10
9.605000
20
5.135000
30
-99.593002
70
192
0
VERTEX
8
OBJECT__14
10
9.647000
20
5.191000
30
-98.218002
70
192
0
VERTEX
8
OBJECT__14
10
9.568000
20
4.673000
30
-100.754997
70
192
0
VERTEX
8
OBJECT__14
10
8.122000
20
1.168000
30
-93.382004
70
192
0
VERTEX
8
OBJECT__14
10
9.779000
20
2.580000
30
-93.994003
70
192
0
VERTEX
8
OBJECT__14
10
9.787000
20
2.191000
30
-93.728996
70
192
0
VERTEX
8
OBJECT__14
10
9.796000
20
1.187000
30
-93.459999
70
192
0
VERTEX
8
OBJECT__14
10
9.756000
20
3.647000
30
-94.723000
70
192
0
VERTEX
8
OBJECT__14
10
9.709000
20
4.717000
30
-96.225998
70
192
0
VERTEX
8
OBJECT__14
10
9.712000
20
4.692000
30
-96.143997
70
192
0
VERTEX
8
OBJECT__14
10
8.122000
20
-3.273000
30
-94.394997
70
192
0
VERTEX
8
OBJECT__14
10
9.790000
20
-1.772000
30
-93.625999
70
192
0
VERTEX
8
OBJECT__14
10
9.775000
20
-2.883000
30
-94.112000
70
192
0
VERTEX
8
OBJECT__14
10
9.799000
20
-0.669000
30
-93.360001
70
192
0
VERTEX
8
OBJECT__14
10
9.797000
20
-1.269000
30
-93.405998
70
192
0
VERTEX
8
OBJECT__14
10
9.801000
20
0.206000
30
-93.293999
70
192
0
VERTEX
8
OBJECT__14
10
9.796000
20
1.150000
30
-93.449997
70
192
0
VERTEX
8
OBJECT__14
10
9.801000
20
0.488000
30
-93.273003
70
192
0
VERTEX
8
OBJECT__14
10
9.709000
20
-4.746000
30
-96.254997
70
192
0
VERTEX
8
OBJECT__14
10
9.656000
20
-5.221000
30
-97.953003
70
192
0
VERTEX
8
OBJECT__14
10
9.754000
20
-3.735000
30
-94.809998
70
192
0
VERTEX
8
OBJECT__14
10
9.766000
20
-3.255000
30
-94.417000
70
192
0
VERTEX
8
OBJECT__14
10
0
20
0
30
0
70
128
71
1
72
2
73
3
0
VERTEX
8
OBJECT__14
10
0
20
0
30
0
70
128
71
1
72
4
73
2
0
VERTEX
8
OBJECT__14
10
0
20
0
30
0
70
128
71
3
72
5
73
1
0
VERTEX
8
OBJECT__14
10
0
20
0
30
0
70
128
71
1
72
6
73
4
0
VERTEX
8
OBJECT__14
10
0
20
0
30
0
70
128
71
7
72
8
73
9
0
VERTEX
8
OBJECT__14
10
0
20
0
30
0
70
128
71
7
72
5
73
10
0
VERTEX
8
OBJECT__14
10
0
20
0
30
0
70
128
71
5
72
11
73
12
0
VERTEX
8
OBJECT__14
10
0
20
0
30
0
70
128
71
12
72
10
73
5
0
VERTEX
8
OBJECT__14
10
0
20
0
30
0
70
128
71
10
72
8
73
7
0
VERTEX
8
OBJECT__14
10
0
20
0
30
0
70
128
71
5
72
13
73
11
0
VERTEX
8
OBJECT__14
10
0
20
0
30
0
70
128
71
14
72
15
73
16
0
VERTEX
8
OBJECT__14
10
0
20
0
30
0
70
128
71
7
72
17
73
15
0
VERTEX
8
OBJECT__14
10
0
20
0
30
0
70
128
71
15
72
14
73
7
0
VERTEX
8
OBJECT__14
10
0
20
0
30
0
70
128
71
7
72
18
73
17
0
VERTEX
8
OBJECT__14
10
0
20
0
30
0
70
128
71
16
72
19
73
14
0
VERTEX
8
OBJECT__14
10
0
20
0
30
0
70
128
71
20
72
21
73
22
0
VERTEX
8
OBJECT__14
10
0
20
0
30
0
70
128
71
21
72
23
73
24
0
VERTEX
8
OBJECT__14
10
0
20
0
30
0
70
128
71
24
72
22
73
21
0
VERTEX
8
OBJECT__14
10
0
20
0
30
0
70
128
71
14
72
25
73
23
0
VERTEX
8
OBJECT__14
10
0
20
0
30
0
70
128
71
23
72
21
73
14
0
VERTEX
8
OBJECT__14
10
0
20
0
30
0
70
128
71
26
72
27
73
28
0
VERTEX
8
OBJECT__14
10
0
20
0
30
0
70
128
71
28
72
29
73
26
0
VERTEX
8
OBJECT__14
10
0
20
0
30
0
70
128
71
26
72
20
73
30
0
VERTEX
8
OBJECT__14
10
0
20
0
30
0
70
128
71
20
72
31
73
32
0
VERTEX
8
OBJECT__14
10
0
20
0
30
0
70
128
71
32
72
30
73
20
0
VERTEX
8
OBJECT__14
10
0
20
0
30
0
70
128
71
30
72
27
73
26
0
VERTEX
8
OBJECT__14
10
0
20
0
30
0
70
128
71
33
72
34
73
35
0
VERTEX
8
OBJECT__14
10
0
20
0
30
0
70
128
71
26
72
36
73
37
0
VERTEX
8
OBJECT__14
10
0
20
0
30
0
70
128
71
37
72
33
73
26
0
VERTEX
8
OBJECT__14
10
0
20
0
30
0
70
128
71
37
72
34
73
33
0
VERTEX
8
OBJECT__14
10
0
20
0
30
0
70
128
71
26
72
38
73
36
0
VERTEX
8
OBJECT__14
10
0
20
0
30
0
70
128
71
26
72
39
73
40
0
VERTEX
8
OBJECT__14
10
0
20
0
30
0
70
128
71
40
72
38
73
26
0
VERTEX
8
OBJECT__14
10
0
20
0
30
0
70
128
71
1
72
33
73
41
0
VERTEX
8
OBJECT__14
10
0
20
0
30
0
70
128
71
41
72
42
73
1
0
VERTEX
8
OBJECT__14
10
0
20
0
30
0
70
128
71
33
72
43
73
41
0
VERTEX
8
OBJECT__14
10
0
20
0
30
0
70
128
71
33
72
44
73
43
0
VERTEX
8
OBJECT__14
10
0
20
0
30
0
70
128
71
42
72
6
73
1
0
VERTEX
8
OBJECT__14
10
0
20
0
30
0
70
128
71
35
72
44
73
33
0
VERTEX
8
OBJECT__14
10
0
20
0
30
0
70
128
71
29
72
39
73
26
0
VERTEX
8
OBJECT__14
10
0
20
0
30
0
70
128
71
22
72
31
73
20
0
VERTEX
8
OBJECT__14
10
0
20
0
30
0
70
128
71
19
72
25
73
14
0
VERTEX
8
OBJECT__14
10
0
20
0
30
0
70
128
71
9
72
18
73
7
0
VERTEX
8
OBJECT__14
10
0
20
0
30
0
70
128
71
3
72
13
73
5
0
SEQEND
8
OBJECT__14
0
POLYLINE
8
OBJECT__15
66
1
70
64
71
140
72
168
62
253
0
VERTEX
8
OBJECT__15
10
6.800000
20
39.228001
30
-79.928001
70
192
0
VERTEX
8
OBJECT__15
10
9.065000
20
19.667999
30
-84.949997
70
192
0
VERTEX
8
OBJECT__15
10
9.065000
20
20.306000
30
-90.000000
70
192
0
VERTEX
8
OBJECT__15
10
6.800000
20
37.775002
30
-76.260002
70
192
0
VERTEX
8
OBJECT__15
10
6.800000
20
35.490002
30
-70.488998
70
192
0
VERTEX
8
OBJECT__15
10
9.065000
20
17.795000
30
-80.217003
70
192
0
VERTEX
8
OBJECT__15
10
6.800000
20
30.846001
30
-64.097000
70
192
0
VERTEX
8
OBJECT__15
10
9.065000
20
14.803000
30
-76.098999
70
192
0
VERTEX
8
OBJECT__15
10
6.800000
20
21.701000
30
-55.805000
70
192
0
VERTEX
8
OBJECT__15
10
9.065000
20
10.881000
30
-72.855003
70
192
0
VERTEX
8
OBJECT__15
10
6.800000
20
20.174999
30
-55.085999
70
192
0
VERTEX
8
OBJECT__15
10
6.800000
20
12.515000
30
-51.481998
70
192
0
VERTEX
8
OBJECT__15
10
9.065000
20
6.275000
30
-70.688004
70
192
0
VERTEX
8
OBJECT__15
10
6.800000
20
6.974000
30
-50.424999
70
192
0
VERTEX
8
OBJECT__15
10
9.065000
20
1.275000
30
-69.734001
70
192
0
VERTEX
8
OBJECT__15
10
6.800000
20
-7.029000
30
-50.181999
70
192
0
VERTEX
8
OBJECT__15
10
9.065000
20
-3.805000
30
-70.053001
70
192
0
VERTEX
8
OBJECT__15
10
6.800000
20
2.543000
30
-49.580002
70
192
0
VERTEX
8
OBJECT__15
10
6.800000
20
-17.243999
30
-53.355000
70
192
0
VERTEX
8
OBJECT__15
10
9.065000
20
-8.646000
30
-71.625999
70
192
0
VERTEX
8
OBJECT__15
10
6.800000
20
-20.098000
30
-55.166000
70
192
0
VERTEX
8
OBJECT__15
10
6.800000
20
-25.816000
30
-58.793999
70
192
0
VERTEX
8
OBJECT__15
10
9.065000
20
-12.944000
30
-74.353996
70
192
0
VERTEX
8
OBJECT__15
10
6.800000
20
-30.837999
30
-64.141998
70
192
0
VERTEX
8
OBJECT__15
10
9.065000
20
-16.427999
30
-78.064003
70
192
0
VERTEX
8
OBJECT__15
10
6.800000
20
-32.764999
30
-66.195000
70
192
0
VERTEX
8
OBJECT__15
10
6.800000
20
-37.655998
30
-75.091003
70
192
0
VERTEX
8
OBJECT__15
10
9.065000
20
-18.879999
30
-82.525002
70
192
0
VERTEX
8
OBJECT__15
10
6.800000
20
-37.935001
30
-76.180000
70
192
0
VERTEX
8
OBJECT__15
10
6.800000
20
-40.181000
30
-84.924004
70
192
0
VERTEX
8
OBJECT__15
10
9.065000
20
-20.146000
30
-87.455002
70
192
0
VERTEX
8
OBJECT__15
10
9.065000
20
-20.146000
30
-92.544998
70
192
0
VERTEX
8
OBJECT__15
10
6.800000
20
-40.181000
30
-90.000000
70
192
0
VERTEX
8
OBJECT__15
10
6.800000
20
-37.935001
30
-103.820000
70
192
0
VERTEX
8
OBJECT__15
10
9.065000
20
-18.879999
30
-97.474998
70
192
0
VERTEX
8
OBJECT__15
10
6.800000
20
-40.181000
30
-95.075996
70
192
0
VERTEX
8
OBJECT__15
10
6.800000
20
-37.655998
30
-104.908997
70
192
0
VERTEX
8
OBJECT__15
10
6.800000
20
-32.764999
30
-113.805000
70
192
0
VERTEX
8
OBJECT__15
10
9.065000
20
-16.427999
30
-101.935997
70
192
0
VERTEX
8
OBJECT__15
10
6.800000
20
-30.837999
30
-115.858002
70
192
0
VERTEX
8
OBJECT__15
10
6.800000
20
-25.816000
30
-121.206001
70
192
0
VERTEX
8
OBJECT__15
10
9.065000
20
-12.944000
30
-105.646004
70
192
0
VERTEX
8
OBJECT__15
10
6.800000
20
-20.098000
30
-124.834000
70
192
0
VERTEX
8
OBJECT__15
10
9.065000
20
-8.646000
30
-108.374001
70
192
0
VERTEX
8
OBJECT__15
10
6.800000
20
-17.243999
30
-126.644997
70
192
0
VERTEX
8
OBJECT__15
10
6.800000
20
-7.589000
30
-129.783005
70
192
0
VERTEX
8
OBJECT__15
10
9.065000
20
-3.805000
30
-109.946999
70
192
0
VERTEX
8
OBJECT__15
10
6.800000
20
-7.029000
30
-129.817993
70
192
0
VERTEX
8
OBJECT__15
10
6.800000
20
2.543000
30
-130.419998
70
192
0
VERTEX
8
OBJECT__15
10
9.065000
20
1.275000
30
-110.265999
70
192
0
VERTEX
8
OBJECT__15
10
6.800000
20
6.974000
30
-129.574997
70
192
0
VERTEX
8
OBJECT__15
10
6.800000
20
12.515000
30
-128.518005
70
192
0
VERTEX
8
OBJECT__15
10
9.065000
20
6.275000
30
-109.311996
70
192
0
VERTEX
8
OBJECT__15
10
6.800000
20
20.174999
30
-124.914001
70
192
0
VERTEX
8
OBJECT__15
10
9.065000
20
10.881000
30
-107.144997
70
192
0
VERTEX
8
OBJECT__15
10
6.800000
20
21.701000
30
-124.195000
70
192
0
VERTEX
8
OBJECT__15
10
6.800000
20
29.523001
30
-117.723999
70
192
0
VERTEX
8
OBJECT__15
10
9.065000
20
14.803000
30
-103.901001
70
192
0
VERTEX
8
OBJECT__15
10
6.800000
20
30.846001
30
-115.903000
70
192
0
VERTEX
8
OBJECT__15
10
6.800000
20
35.490002
30
-109.511002
70
192
0
VERTEX
8
OBJECT__15
10
9.065000
20
17.795000
30
-99.782997
70
192
0
VERTEX
8
OBJECT__15
10
6.800000
20
37.775002
30
-103.739998
70
192
0
VERTEX
8
OBJECT__15
10
9.065000
20
19.667999
30
-95.050003
70
192
0
VERTEX
8
OBJECT__15
10
6.800000
20
39.228001
30
-100.071999
70
192
0
VERTEX
8
OBJECT__15
10
6.800000
20
40.500000
30
-90.000000
70
192
0
VERTEX
8
OBJECT__15
10
9.822000
20
0.000000
30
-90.000000
70
192
0
VERTEX
8
OBJECT__15
10
9.790000
20
-1.772000
30
-93.625999
70
192
0
VERTEX
8
OBJECT__15
10
9.797000
20
-1.269000
30
-93.405998
70
192
0
VERTEX
8
OBJECT__15
10
9.801000
20
0.488000
30
-93.273003
70
192
0
VERTEX
8
OBJECT__15
10
9.796000
20
1.150000
30
-93.449997
70
192
0
VERTEX
8
OBJECT__15
10
9.801000
20
0.206000
30
-93.293999
70
192
0
VERTEX
8
OBJECT__15
10
9.796000
20
1.187000
30
-93.459999
70
192
0
VERTEX
8
OBJECT__15
10
9.787000
20
2.191000
30
-93.728996
70
192
0
VERTEX
8
OBJECT__15
10
9.659000
20
5.207000
30
-97.831001
70
192
0
VERTEX
8
OBJECT__15
10
9.647000
20
5.191000
30
-98.218002
70
192
0
VERTEX
8
OBJECT__15
10
9.712000
20
4.692000
30
-96.143997
70
192
0
VERTEX
8
OBJECT__15
10
9.709000
20
4.717000
30
-96.225998
70
192
0
VERTEX
8
OBJECT__15
10
9.756000
20
3.647000
30
-94.723000
70
192
0
VERTEX
8
OBJECT__15
10
9.779000
20
2.580000
30
-93.994003
70
192
0
VERTEX
8
OBJECT__15
10
9.554000
20
4.484000
30
-101.231003
70
192
0
VERTEX
8
OBJECT__15
10
9.531000
20
3.863000
30
-101.945000
70
192
0
VERTEX
8
OBJECT__15
10
9.605000
20
5.135000
30
-99.593002
70
192
0
VERTEX
8
OBJECT__15
10
9.568000
20
4.673000
30
-100.754997
70
192
0
VERTEX
8
OBJECT__15
10
9.485000
20
1.797000
30
-103.432999
70
192
0
VERTEX
8
OBJECT__15
10
9.481000
20
1.156000
30
-103.550003
70
192
0
VERTEX
8
OBJECT__15
10
9.512000
20
3.328000
30
-102.560997
70
192
0
VERTEX
8
OBJECT__15
10
9.475000
20
0.064000
30
-103.750000
70
192
0
VERTEX
8
OBJECT__15
10
9.479000
20
0.853000
30
-103.605003
70
192
0
VERTEX
8
OBJECT__15
10
9.484000
20
-1.677000
30
-103.474998
70
192
0
VERTEX
8
OBJECT__15
10
9.510000
20
-3.230000
30
-102.639000
70
192
0
VERTEX
8
OBJECT__15
10
9.511000
20
-3.267000
30
-102.598999
70
192
0
VERTEX
8
OBJECT__15
10
9.550000
20
-4.418000
30
-101.335999
70
192
0
VERTEX
8
OBJECT__15
10
9.497000
20
-2.479000
30
-103.042999
70
192
0
VERTEX
8
OBJECT__15
10
9.754000
20
-3.735000
30
-94.809998
70
192
0
VERTEX
8
OBJECT__15
10
9.766000
20
-3.255000
30
-94.417000
70
192
0
VERTEX
8
OBJECT__15
10
9.775000
20
-2.883000
30
-94.112000
70
192
0
VERTEX
8
OBJECT__15
10
9.709000
20
-4.746000
30
-96.254997
70
192
0
VERTEX
8
OBJECT__15
10
9.601000
20
-5.108000
30
-99.712997
70
192
0
VERTEX
8
OBJECT__15
10
9.639000
20
-5.186000
30
-98.496002
70
192
0
VERTEX
8
OBJECT__15
10
9.656000
20
-5.221000
30
-97.953003
70
192
0
VERTEX
8
OBJECT__15
10
9.581000
20
-4.841000
30
-100.341003
70
192
0
VERTEX
8
OBJECT__15
10
9.510000
20
-3.230000
30
-77.361000
70
192
0
VERTEX
8
OBJECT__15
10
9.497000
20
-2.479000
30
-76.957001
70
192
0
VERTEX
8
OBJECT__15
10
9.550000
20
-4.418000
30
-78.664001
70
192
0
VERTEX
8
OBJECT__15
10
9.511000
20
-3.267000
30
-77.401001
70
192
0
VERTEX
8
OBJECT__15
10
9.581000
20
-4.841000
30
-79.658997
70
192
0
VERTEX
8
OBJECT__15
10
9.484000
20
-1.677000
30
-76.525002
70
192
0
VERTEX
8
OBJECT__15
10
9.475000
20
0.064000
30
-76.250000
70
192
0
VERTEX
8
OBJECT__15
10
9.485000
20
1.797000
30
-76.567001
70
192
0
VERTEX
8
OBJECT__15
10
9.512000
20
3.328000
30
-77.439003
70
192
0
VERTEX
8
OBJECT__15
10
9.481000
20
1.156000
30
-76.449997
70
192
0
VERTEX
8
OBJECT__15
10
9.479000
20
0.853000
30
-76.394997
70
192
0
VERTEX
8
OBJECT__15
10
9.554000
20
4.484000
30
-78.768997
70
192
0
VERTEX
8
OBJECT__15
10
9.568000
20
4.673000
30
-79.245003
70
192
0
VERTEX
8
OBJECT__15
10
9.531000
20
3.863000
30
-78.055000
70
192
0
VERTEX
8
OBJECT__15
10
9.605000
20
5.135000
30
-80.406998
70
192
0
VERTEX
8
OBJECT__15
10
9.712000
20
4.692000
30
-83.856003
70
192
0
VERTEX
8
OBJECT__15
10
9.756000
20
3.647000
30
-85.277000
70
192
0
VERTEX
8
OBJECT__15
10
9.659000
20
5.207000
30
-82.168999
70
192
0
VERTEX
8
OBJECT__15
10
9.709000
20
4.717000
30
-83.774002
70
192
0
VERTEX
8
OBJECT__15
10
9.647000
20
5.191000
30
-81.781998
70
192
0
VERTEX
8
OBJECT__15
10
9.779000
20
2.580000
30
-86.005997
70
192
0
VERTEX
8
OBJECT__15
10
9.787000
20
2.191000
30
-86.271004
70
192
0
VERTEX
8
OBJECT__15
10
9.796000
20
1.187000
30
-86.540001
70
192
0
VERTEX
8
OBJECT__15
10
9.796000
20
1.150000
30
-86.550003
70
192
0
VERTEX
8
OBJECT__15
10
9.801000
20
0.488000
30
-86.726997
70
192
0
VERTEX
8
OBJECT__15
10
9.799000
20
-0.669000
30
-86.639999
70
192
0
VERTEX
8
OBJECT__15
10
9.797000
20
-1.269000
30
-86.594002
70
192
0
VERTEX
8
OBJECT__15
10
9.601000
20
-5.108000
30
-80.287003
70
192
0
VERTEX
8
OBJECT__15
10
9.656000
20
-5.221000
30
-82.046997
70
192
0
VERTEX
8
OBJECT__15
10
9.639000
20
-5.186000
30
-81.503998
70
192
0
VERTEX
8
OBJECT__15
10
9.709000
20
-4.746000
30
-83.745003
70
192
0
VERTEX
8
OBJECT__15
10
9.754000
20
-3.735000
30
-85.190002
70
192
0
VERTEX
8
OBJECT__15
10
9.775000
20
-2.883000
30
-85.888000
70
192
0
VERTEX
8
OBJECT__15
10
9.766000
20
-3.255000
30
-85.583000
70
192
0
VERTEX
8
OBJECT__15
10
9.790000
20
-1.772000
30
-86.374001
70
192
0
VERTEX
8
OBJECT__15
10
9.801000
20
0.206000
30
-86.706001
70
192
0
VERTEX
8
OBJECT__15
10
9.799000
20
-0.669000
30
-93.360001
70
192
0
VERTEX
8
OBJECT__15
10
6.800000
20
-7.589000
30
-50.216999
70
192
0
VERTEX
8
OBJECT__15
10
6.800000
20
29.523001
30
-62.276001
70
192
0
VERTEX
8
OBJECT__15
10
0
20
0
30
0
70
128
71
1
72
2
73
3
0
VERTEX
8
OBJECT__15
10
0
20
0
30
0
70
128
71
4
72
5
73
6
0
VERTEX
8
OBJECT__15
10
0
20
0
30
0
70
128
71
2
72
1
73
4
0
VERTEX
8
OBJECT__15
10
0
20
0
30
0
70
128
71
7
72
8
73
6
0
VERTEX
8
OBJECT__15
10
0
20
0
30
0
70
128
71
6
72
5
73
7
0
VERTEX
8
OBJECT__15
10
0
20
0
30
0
70
128
71
9
72
10
73
8
0
VERTEX
8
OBJECT__15
10
0
20
0
30
0
70
128
71
11
72
12
73
13
0
VERTEX
8
OBJECT__15
10
0
20
0
30
0
70
128
71
10
72
9
73
11
0
VERTEX
8
OBJECT__15
10
0
20
0
30
0
70
128
71
14
72
15
73
13
0
VERTEX
8
OBJECT__15
10
0
20
0
30
0
70
128
71
13
72
12
73
14
0
VERTEX
8
OBJECT__15
10
0
20
0
30
0
70
128
71
16
72
17
73
15
0
VERTEX
8
OBJECT__15
10
0
20
0
30
0
70
128
71
15
72
18
73
16
0
VERTEX
8
OBJECT__15
10
0
20
0
30
0
70
128
71
19
72
20
73
17
0
VERTEX
8
OBJECT__15
10
0
20
0
30
0
70
128
71
21
72
22
73
23
0
VERTEX
8
OBJECT__15
10
0
20
0
30
0
70
128
71
20
72
19
73
21
0
VERTEX
8
OBJECT__15
10
0
20
0
30
0
70
128
71
24
72
25
73
23
0
VERTEX
8
OBJECT__15
10
0
20
0
30
0
70
128
71
23
72
22
73
24
0
VERTEX
8
OBJECT__15
10
0
20
0
30
0
70
128
71
26
72
27
73
28
0
VERTEX
8
OBJECT__15
10
0
20
0
30
0
70
128
71
29
72
30
73
31
0
VERTEX
8
OBJECT__15
10
0
20
0
30
0
70
128
71
28
72
27
73
29
0
VERTEX
8
OBJECT__15
10
0
20
0
30
0
70
128
71
32
72
31
73
33
0
VERTEX
8
OBJECT__15
10
0
20
0
30
0
70
128
71
31
72
30
73
33
0
VERTEX
8
OBJECT__15
10
0
20
0
30
0
70
128
71
34
72
35
73
32
0
VERTEX
8
OBJECT__15
10
0
20
0
30
0
70
128
71
32
72
36
73
34
0
VERTEX
8
OBJECT__15
10
0
20
0
30
0
70
128
71
37
72
38
73
39
0
VERTEX
8
OBJECT__15
10
0
20
0
30
0
70
128
71
40
72
41
73
42
0
VERTEX
8
OBJECT__15
10
0
20
0
30
0
70
128
71
39
72
38
73
40
0
VERTEX
8
OBJECT__15
10
0
20
0
30
0
70
128
71
43
72
44
73
42
0
VERTEX
8
OBJECT__15
10
0
20
0
30
0
70
128
71
42
72
41
73
43
0
VERTEX
8
OBJECT__15
10
0
20
0
30
0
70
128
71
45
72
46
73
47
0
VERTEX
8
OBJECT__15
10
0
20
0
30
0
70
128
71
48
72
49
73
50
0
VERTEX
8
OBJECT__15
10
0
20
0
30
0
70
128
71
47
72
46
73
48
0
VERTEX
8
OBJECT__15
10
0
20
0
30
0
70
128
71
51
72
52
73
53
0
VERTEX
8
OBJECT__15
10
0
20
0
30
0
70
128
71
50
72
49
73
51
0
VERTEX
8
OBJECT__15
10
0
20
0
30
0
70
128
71
54
72
55
73
53
0
VERTEX
8
OBJECT__15
10
0
20
0
30
0
70
128
71
53
72
52
73
54
0
VERTEX
8
OBJECT__15
10
0
20
0
30
0
70
128
71
56
72
57
73
58
0
VERTEX
8
OBJECT__15
10
0
20
0
30
0
70
128
71
59
72
60
73
61
0
VERTEX
8
OBJECT__15
10
0
20
0
30
0
70
128
71
58
72
57
73
59
0
VERTEX
8
OBJECT__15
10
0
20
0
30
0
70
128
71
62
72
63
73
61
0
VERTEX
8
OBJECT__15
10
0
20
0
30
0
70
128
71
61
72
60
73
62
0
VERTEX
8
OBJECT__15
10
0
20
0
30
0
70
128
71
64
72
65
73
3
0
VERTEX
8
OBJECT__15
10
0
20
0
30
0
70
128
71
66
72
67
73
68
0
VERTEX
8
OBJECT__15
10
0
20
0
30
0
70
128
71
66
72
69
73
70
0
VERTEX
8
OBJECT__15
10
0
20
0
30
0
70
128
71
66
72
71
73
69
0
VERTEX
8
OBJECT__15
10
0
20
0
30
0
70
128
71
66
72
72
73
73
0
VERTEX
8
OBJECT__15
10
0
20
0
30
0
70
128
71
58
72
74
73
75
0
VERTEX
8
OBJECT__15
10
0
20
0
30
0
70
128
71
58
72
76
73
77
0
VERTEX
8
OBJECT__15
10
0
20
0
30
0
70
128
71
77
72
74
73
58
0
VERTEX
8
OBJECT__15
10
0
20
0
30
0
70
128
71
58
72
66
73
78
0
VERTEX
8
OBJECT__15
10
0
20
0
30
0
70
128
71
78
72
76
73
58
0
VERTEX
8
OBJECT__15
10
0
20
0
30
0
70
128
71
66
72
79
73
78
0
VERTEX
8
OBJECT__15
10
0
20
0
30
0
70
128
71
55
72
80
73
81
0
VERTEX
8
OBJECT__15
10
0
20
0
30
0
70
128
71
55
72
82
73
83
0
VERTEX
8
OBJECT__15
10
0
20
0
30
0
70
128
71
83
72
80
73
55
0
VERTEX
8
OBJECT__15
10
0
20
0
30
0
70
128
71
55
72
75
73
82
0
VERTEX
8
OBJECT__15
10
0
20
0
30
0
70
128
71
50
72
53
73
84
0
VERTEX
8
OBJECT__15
10
0
20
0
30
0
70
128
71
84
72
85
73
50
0
VERTEX
8
OBJECT__15
10
0
20
0
30
0
70
128
71
53
72
81
73
86
0
VERTEX
8
OBJECT__15
10
0
20
0
30
0
70
128
71
86
72
84
73
53
0
VERTEX
8
OBJECT__15
10
0
20
0
30
0
70
128
71
47
72
50
73
87
0
VERTEX
8
OBJECT__15
10
0
20
0
30
0
70
128
71
50
72
88
73
87
0
VERTEX
8
OBJECT__15
10
0
20
0
30
0
70
128
71
87
72
89
73
47
0
VERTEX
8
OBJECT__15
10
0
20
0
30
0
70
128
71
44
72
90
73
91
0
VERTEX
8
OBJECT__15
10
0
20
0
30
0
70
128
71
91
72
92
73
44
0
VERTEX
8
OBJECT__15
10
0
20
0
30
0
70
128
71
44
72
47
73
93
0
VERTEX
8
OBJECT__15
10
0
20
0
30
0
70
128
71
93
72
90
73
44
0
VERTEX
8
OBJECT__15
10
0
20
0
30
0
70
128
71
66
72
94
73
95
0
VERTEX
8
OBJECT__15
10
0
20
0
30
0
70
128
71
95
72
96
73
66
0
VERTEX
8
OBJECT__15
10
0
20
0
30
0
70
128
71
42
72
97
73
94
0
VERTEX
8
OBJECT__15
10
0
20
0
30
0
70
128
71
94
72
66
73
42
0
VERTEX
8
OBJECT__15
10
0
20
0
30
0
70
128
71
42
72
98
73
99
0
VERTEX
8
OBJECT__15
10
0
20
0
30
0
70
128
71
99
72
100
73
42
0
VERTEX
8
OBJECT__15
10
0
20
0
30
0
70
128
71
100
72
97
73
42
0
VERTEX
8
OBJECT__15
10
0
20
0
30
0
70
128
71
42
72
44
73
101
0
VERTEX
8
OBJECT__15
10
0
20
0
30
0
70
128
71
101
72
98
73
42
0
VERTEX
8
OBJECT__15
10
0
20
0
30
0
70
128
71
20
72
102
73
103
0
VERTEX
8
OBJECT__15
10
0
20
0
30
0
70
128
71
20
72
104
73
105
0
VERTEX
8
OBJECT__15
10
0
20
0
30
0
70
128
71
20
72
106
73
104
0
VERTEX
8
OBJECT__15
10
0
20
0
30
0
70
128
71
105
72
102
73
20
0
VERTEX
8
OBJECT__15
10
0
20
0
30
0
70
128
71
17
72
107
73
108
0
VERTEX
8
OBJECT__15
10
0
20
0
30
0
70
128
71
108
72
15
73
17
0
VERTEX
8
OBJECT__15
10
0
20
0
30
0
70
128
71
17
72
103
73
107
0
VERTEX
8
OBJECT__15
10
0
20
0
30
0
70
128
71
13
72
109
73
110
0
VERTEX
8
OBJECT__15
10
0
20
0
30
0
70
128
71
15
72
111
73
109
0
VERTEX
8
OBJECT__15
10
0
20
0
30
0
70
128
71
15
72
112
73
111
0
VERTEX
8
OBJECT__15
10
0
20
0
30
0
70
128
71
109
72
13
73
15
0
VERTEX
8
OBJECT__15
10
0
20
0
30
0
70
128
71
10
72
113
73
114
0
VERTEX
8
OBJECT__15
10
0
20
0
30
0
70
128
71
10
72
13
73
115
0
VERTEX
8
OBJECT__15
10
0
20
0
30
0
70
128
71
115
72
113
73
10
0
VERTEX
8
OBJECT__15
10
0
20
0
30
0
70
128
71
114
72
116
73
10
0
VERTEX
8
OBJECT__15
10
0
20
0
30
0
70
128
71
8
72
117
73
118
0
VERTEX
8
OBJECT__15
10
0
20
0
30
0
70
128
71
8
72
119
73
120
0
VERTEX
8
OBJECT__15
10
0
20
0
30
0
70
128
71
8
72
10
73
121
0
VERTEX
8
OBJECT__15
10
0
20
0
30
0
70
128
71
121
72
119
73
8
0
VERTEX
8
OBJECT__15
10
0
20
0
30
0
70
128
71
120
72
117
73
8
0
VERTEX
8
OBJECT__15
10
0
20
0
30
0
70
128
71
118
72
66
73
8
0
VERTEX
8
OBJECT__15
10
0
20
0
30
0
70
128
71
66
72
122
73
123
0
VERTEX
8
OBJECT__15
10
0
20
0
30
0
70
128
71
66
72
124
73
125
0
VERTEX
8
OBJECT__15
10
0
20
0
30
0
70
128
71
125
72
126
73
66
0
VERTEX
8
OBJECT__15
10
0
20
0
30
0
70
128
71
66
72
127
73
128
0
VERTEX
8
OBJECT__15
10
0
20
0
30
0
70
128
71
23
72
129
73
106
0
VERTEX
8
OBJECT__15
10
0
20
0
30
0
70
128
71
23
72
130
73
131
0
VERTEX
8
OBJECT__15
10
0
20
0
30
0
70
128
71
23
72
132
73
130
0
VERTEX
8
OBJECT__15
10
0
20
0
30
0
70
128
71
23
72
66
73
133
0
VERTEX
8
OBJECT__15
10
0
20
0
30
0
70
128
71
66
72
134
73
135
0
VERTEX
8
OBJECT__15
10
0
20
0
30
0
70
128
71
66
72
136
73
134
0
VERTEX
8
OBJECT__15
10
0
20
0
30
0
70
128
71
135
72
133
73
66
0
VERTEX
8
OBJECT__15
10
0
20
0
30
0
70
128
71
133
72
132
73
23
0
VERTEX
8
OBJECT__15
10
0
20
0
30
0
70
128
71
131
72
129
73
23
0
VERTEX
8
OBJECT__15
10
0
20
0
30
0
70
128
71
106
72
20
73
23
0
VERTEX
8
OBJECT__15
10
0
20
0
30
0
70
128
71
128
72
136
73
66
0
VERTEX
8
OBJECT__15
10
0
20
0
30
0
70
128
71
127
72
66
73
137
0
VERTEX
8
OBJECT__15
10
0
20
0
30
0
70
128
71
126
72
137
73
66
0
VERTEX
8
OBJECT__15
10
0
20
0
30
0
70
128
71
123
72
124
73
66
0
VERTEX
8
OBJECT__15
10
0
20
0
30
0
70
128
71
118
72
122
73
66
0
VERTEX
8
OBJECT__15
10
0
20
0
30
0
70
128
71
116
72
121
73
10
0
VERTEX
8
OBJECT__15
10
0
20
0
30
0
70
128
71
110
72
115
73
13
0
VERTEX
8
OBJECT__15
10
0
20
0
30
0
70
128
71
108
72
112
73
15
0
VERTEX
8
OBJECT__15
10
0
20
0
30
0
70
128
71
103
72
17
73
20
0
VERTEX
8
OBJECT__15
10
0
20
0
30
0
70
128
71
96
72
67
73
66
0
VERTEX
8
OBJECT__15
10
0
20
0
30
0
70
128
71
92
72
101
73
44
0
VERTEX
8
OBJECT__15
10
0
20
0
30
0
70
128
71
89
72
93
73
47
0
VERTEX
8
OBJECT__15
10
0
20
0
30
0
70
128
71
85
72
88
73
50
0
VERTEX
8
OBJECT__15
10
0
20
0
30
0
70
128
71
81
72
53
73
55
0
VERTEX
8
OBJECT__15
10
0
20
0
30
0
70
128
71
75
72
55
73
58
0
VERTEX
8
OBJECT__15
10
0
20
0
30
0
70
128
71
73
72
79
73
66
0
VERTEX
8
OBJECT__15
10
0
20
0
30
0
70
128
71
70
72
72
73
66
0
VERTEX
8
OBJECT__15
10
0
20
0
30
0
70
128
71
71
72
66
73
138
0
VERTEX
8
OBJECT__15
10
0
20
0
30
0
70
128
71
68
72
138
73
66
0
VERTEX
8
OBJECT__15
10
0
20
0
30
0
70
128
71
66
72
63
73
3
0
VERTEX
8
OBJECT__15
10
0
20
0
30
0
70
128
71
66
72
61
73
63
0
VERTEX
8
OBJECT__15
10
0
20
0
30
0
70
128
71
66
72
58
73
61
0
VERTEX
8
OBJECT__15
10
0
20
0
30
0
70
128
71
66
72
39
73
42
0
VERTEX
8
OBJECT__15
10
0
20
0
30
0
70
128
71
66
72
35
73
39
0
VERTEX
8
OBJECT__15
10
0
20
0
30
0
70
128
71
66
72
32
73
35
0
VERTEX
8
OBJECT__15
10
0
20
0
30
0
70
128
71
66
72
31
73
32
0
VERTEX
8
OBJECT__15
10
0
20
0
30
0
70
128
71
66
72
28
73
31
0
VERTEX
8
OBJECT__15
10
0
20
0
30
0
70
128
71
66
72
25
73
28
0
VERTEX
8
OBJECT__15
10
0
20
0
30
0
70
128
71
66
72
23
73
25
0
VERTEX
8
OBJECT__15
10
0
20
0
30
0
70
128
71
66
72
6
73
8
0
VERTEX
8
OBJECT__15
10
0
20
0
30
0
70
128
71
66
72
2
73
6
0
VERTEX
8
OBJECT__15
10
0
20
0
30
0
70
128
71
66
72
3
73
2
0
VERTEX
8
OBJECT__15
10
0
20
0
30
0
70
128
71
3
72
63
73
64
0
VERTEX
8
OBJECT__15
10
0
20
0
30
0
70
128
71
62
72
64
73
63
0
VERTEX
8
OBJECT__15
10
0
20
0
30
0
70
128
71
61
72
58
73
59
0
VERTEX
8
OBJECT__15
10
0
20
0
30
0
70
128
71
58
72
55
73
56
0
VERTEX
8
OBJECT__15
10
0
20
0
30
0
70
128
71
54
72
56
73
55
0
VERTEX
8
OBJECT__15
10
0
20
0
30
0
70
128
71
53
72
50
73
51
0
VERTEX
8
OBJECT__15
10
0
20
0
30
0
70
128
71
50
72
47
73
48
0
VERTEX
8
OBJECT__15
10
0
20
0
30
0
70
128
71
47
72
44
73
45
0
VERTEX
8
OBJECT__15
10
0
20
0
30
0
70
128
71
43
72
45
73
44
0
VERTEX
8
OBJECT__15
10
0
20
0
30
0
70
128
71
42
72
39
73
40
0
VERTEX
8
OBJECT__15
10
0
20
0
30
0
70
128
71
39
72
35
73
37
0
VERTEX
8
OBJECT__15
10
0
20
0
30
0
70
128
71
34
72
37
73
35
0
VERTEX
8
OBJECT__15
10
0
20
0
30
0
70
128
71
33
72
36
73
32
0
VERTEX
8
OBJECT__15
10
0
20
0
30
0
70
128
71
31
72
28
73
29
0
VERTEX
8
OBJECT__15
10
0
20
0
30
0
70
128
71
28
72
25
73
26
0
VERTEX
8
OBJECT__15
10
0
20
0
30
0
70
128
71
24
72
26
73
25
0
VERTEX
8
OBJECT__15
10
0
20
0
30
0
70
128
71
23
72
20
73
21
0
VERTEX
8
OBJECT__15
10
0
20
0
30
0
70
128
71
17
72
139
73
19
0
VERTEX
8
OBJECT__15
10
0
20
0
30
0
70
128
71
16
72
139
73
17
0
VERTEX
8
OBJECT__15
10
0
20
0
30
0
70
128
71
14
72
18
73
15
0
VERTEX
8
OBJECT__15
10
0
20
0
30
0
70
128
71
13
72
10
73
11
0
VERTEX
8
OBJECT__15
10
0
20
0
30
0
70
128
71
8
72
140
73
9
0
VERTEX
8
OBJECT__15
10
0
20
0
30
0
70
128
71
7
72
140
73
8
0
VERTEX
8
OBJECT__15
10
0
20
0
30
0
70
128
71
6
72
2
73
4
0
VERTEX
8
OBJECT__15
10
0
20
0
30
0
70
128
71
3
72
65
73
1
0
SEQEND
8
OBJECT__15
0
POLYLINE
8
OBJECT__17
66
1
70
64
71
44
72
44
62
253
0
VERTEX
8
OBJECT__17
10
8.122000
20
1.168000
30
-86.617996
70
192
0
VERTEX
8
OBJECT__17
10
9.801000
20
0.206000
30
-86.706001
70
192
0
VERTEX
8
OBJECT__17
10
9.801000
20
0.488000
30
-86.726997
70
192
0
VERTEX
8
OBJECT__17
10
8.122000
20
-3.273000
30
-85.605003
70
192
0
VERTEX
8
OBJECT__17
10
9.797000
20
-1.269000
30
-86.594002
70
192
0
VERTEX
8
OBJECT__17
10
9.790000
20
-1.772000
30
-86.374001
70
192
0
VERTEX
8
OBJECT__17
10
9.766000
20
-3.255000
30
-85.583000
70
192
0
VERTEX
8
OBJECT__17
10
9.775000
20
-2.883000
30
-85.888000
70
192
0
VERTEX
8
OBJECT__17
10
9.799000
20
-0.669000
30
-86.639999
70
192
0
VERTEX
8
OBJECT__17
10
8.122000
20
4.730000
30
-83.778000
70
192
0
VERTEX
8
OBJECT__17
10
9.756000
20
3.647000
30
-85.277000
70
192
0
VERTEX
8
OBJECT__17
10
9.712000
20
4.692000
30
-83.856003
70
192
0
VERTEX
8
OBJECT__17
10
9.779000
20
2.580000
30
-86.005997
70
192
0
VERTEX
8
OBJECT__17
10
9.796000
20
1.187000
30
-86.540001
70
192
0
VERTEX
8
OBJECT__17
10
9.787000
20
2.191000
30
-86.271004
70
192
0
VERTEX
8
OBJECT__17
10
9.796000
20
1.150000
30
-86.550003
70
192
0
VERTEX
8
OBJECT__17
10
8.122000
20
4.730000
30
-79.222000
70
192
0
VERTEX
8
OBJECT__17
10
8.122000
20
5.250000
30
-81.500000
70
192
0
VERTEX
8
OBJECT__17
10
9.605000
20
5.135000
30
-80.406998
70
192
0
VERTEX
8
OBJECT__17
10
9.709000
20
4.717000
30
-83.774002
70
192
0
VERTEX
8
OBJECT__17
10
9.659000
20
5.207000
30
-82.168999
70
192
0
VERTEX
8
OBJECT__17
10
9.647000
20
5.191000
30
-81.781998
70
192
0
VERTEX
8
OBJECT__17
10
8.122000
20
1.168000
30
-76.382004
70
192
0
VERTEX
8
OBJECT__17
10
9.512000
20
3.328000
30
-77.439003
70
192
0
VERTEX
8
OBJECT__17
10
9.554000
20
4.484000
30
-78.768997
70
192
0
VERTEX
8
OBJECT__17
10
9.531000
20
3.863000
30
-78.055000
70
192
0
VERTEX
8
OBJECT__17
10
9.485000
20
1.797000
30
-76.567001
70
192
0
VERTEX
8
OBJECT__17
10
9.568000
20
4.673000
30
-79.245003
70
192
0
VERTEX
8
OBJECT__17
10
8.122000
20
-3.273000
30
-77.394997
70
192
0
VERTEX
8
OBJECT__17
10
9.484000
20
-1.677000
30
-76.525002
70
192
0
VERTEX
8
OBJECT__17
10
9.497000
20
-2.479000
30
-76.957001
70
192
0
VERTEX
8
OBJECT__17
10
9.475000
20
0.064000
30
-76.250000
70
192
0
VERTEX
8
OBJECT__17
10
9.481000
20
1.156000
30
-76.449997
70
192
0
VERTEX
8
OBJECT__17
10
9.479000
20
0.853000
30
-76.394997
70
192
0
VERTEX
8
OBJECT__17
10
9.510000
20
-3.230000
30
-77.361000
70
192
0
VERTEX
8
OBJECT__17
10
8.122000
20
-5.250000
30
-81.500000
70
192
0
VERTEX
8
OBJECT__17
10
9.550000
20
-4.418000
30
-78.664001
70
192
0
VERTEX
8
OBJECT__17
10
9.581000
20
-4.841000
30
-79.658997
70
192
0
VERTEX
8
OBJECT__17
10
9.511000
20
-3.267000
30
-77.401001
70
192
0
VERTEX
8
OBJECT__17
10
9.601000
20
-5.108000
30
-80.287003
70
192
0
VERTEX
8
OBJECT__17
10
9.656000
20
-5.221000
30
-82.046997
70
192
0
VERTEX
8
OBJECT__17
10
9.709000
20
-4.746000
30
-83.745003
70
192
0
VERTEX
8
OBJECT__17
10
9.639000
20
-5.186000
30
-81.503998
70
192
0
VERTEX
8
OBJECT__17
10
9.754000
20
-3.735000
30
-85.190002
70
192
0
VERTEX
8
OBJECT__17
10
0
20
0
30
0
70
128
71
1
72
2
73
3
0
VERTEX
8
OBJECT__17
10
0
20
0
30
0
70
128
71
1
72
4
73
5
0
VERTEX
8
OBJECT__17
10
0
20
0
30
0
70
128
71
4
72
6
73
5
0
VERTEX
8
OBJECT__17
10
0
20
0
30
0
70
128
71
4
72
7
73
8
0
VERTEX
8
OBJECT__17
10
0
20
0
30
0
70
128
71
8
72
6
73
4
0
VERTEX
8
OBJECT__17
10
0
20
0
30
0
70
128
71
5
72
9
73
1
0
VERTEX
8
OBJECT__17
10
0
20
0
30
0
70
128
71
9
72
2
73
1
0
VERTEX
8
OBJECT__17
10
0
20
0
30
0
70
128
71
10
72
11
73
12
0
VERTEX
8
OBJECT__17
10
0
20
0
30
0
70
128
71
1
72
13
73
11
0
VERTEX
8
OBJECT__17
10
0
20
0
30
0
70
128
71
11
72
10
73
1
0
VERTEX
8
OBJECT__17
10
0
20
0
30
0
70
128
71
1
72
14
73
15
0
VERTEX
8
OBJECT__17
10
0
20
0
30
0
70
128
71
1
72
16
73
14
0
VERTEX
8
OBJECT__17
10
0
20
0
30
0
70
128
71
15
72
13
73
1
0
VERTEX
8
OBJECT__17
10
0
20
0
30
0
70
128
71
17
72
18
73
19
0
VERTEX
8
OBJECT__17
10
0
20
0
30
0
70
128
71
10
72
20
73
21
0
VERTEX
8
OBJECT__17
10
0
20
0
30
0
70
128
71
21
72
18
73
10
0
VERTEX
8
OBJECT__17
10
0
20
0
30
0
70
128
71
21
72
22
73
18
0
VERTEX
8
OBJECT__17
10
0
20
0
30
0
70
128
71
22
72
19
73
18
0
VERTEX
8
OBJECT__17
10
0
20
0
30
0
70
128
71
23
72
17
73
24
0
VERTEX
8
OBJECT__17
10
0
20
0
30
0
70
128
71
17
72
25
73
26
0
VERTEX
8
OBJECT__17
10
0
20
0
30
0
70
128
71
26
72
24
73
17
0
VERTEX
8
OBJECT__17
10
0
20
0
30
0
70
128
71
24
72
27
73
23
0
VERTEX
8
OBJECT__17
10
0
20
0
30
0
70
128
71
17
72
28
73
25
0
VERTEX
8
OBJECT__17
10
0
20
0
30
0
70
128
71
29
72
30
73
31
0
VERTEX
8
OBJECT__17
10
0
20
0
30
0
70
128
71
23
72
32
73
30
0
VERTEX
8
OBJECT__17
10
0
20
0
30
0
70
128
71
30
72
29
73
23
0
VERTEX
8
OBJECT__17
10
0
20
0
30
0
70
128
71
23
72
33
73
34
0
VERTEX
8
OBJECT__17
10
0
20
0
30
0
70
128
71
34
72
32
73
23
0
VERTEX
8
OBJECT__17
10
0
20
0
30
0
70
128
71
31
72
35
73
29
0
VERTEX
8
OBJECT__17
10
0
20
0
30
0
70
128
71
36
72
29
73
37
0
VERTEX
8
OBJECT__17
10
0
20
0
30
0
70
128
71
37
72
38
73
36
0
VERTEX
8
OBJECT__17
10
0
20
0
30
0
70
128
71
29
72
39
73
37
0
VERTEX
8
OBJECT__17
10
0
20
0
30
0
70
128
71
38
72
40
73
36
0
VERTEX
8
OBJECT__17
10
0
20
0
30
0
70
128
71
36
72
41
73
42
0
VERTEX
8
OBJECT__17
10
0
20
0
30
0
70
128
71
36
72
43
73
41
0
VERTEX
8
OBJECT__17
10
0
20
0
30
0
70
128
71
42
72
4
73
36
0
VERTEX
8
OBJECT__17
10
0
20
0
30
0
70
128
71
42
72
44
73
4
0
VERTEX
8
OBJECT__17
10
0
20
0
30
0
70
128
71
44
72
7
73
4
0
VERTEX
8
OBJECT__17
10
0
20
0
30
0
70
128
71
40
72
43
73
36
0
VERTEX
8
OBJECT__17
10
0
20
0
30
0
70
128
71
35
72
39
73
29
0
VERTEX
8
OBJECT__17
10
0
20
0
30
0
70
128
71
27
72
33
73
23
0
VERTEX
8
OBJECT__17
10
0
20
0
30
0
70
128
71
19
72
28
73
17
0
VERTEX
8
OBJECT__17
10
0
20
0
30
0
70
128
71
12
72
20
73
10
0
VERTEX
8
OBJECT__17
10
0
20
0
30
0
70
128
71
3
72
16
73
1
0
SEQEND
8
OBJECT__17
0
POLYLINE
8
OBJECT__18
66
1
70
64
71
60
72
60
62
253
0
VERTEX
8
OBJECT__18
10
0.000000
20
40.500000
30
-90.000000
70
192
0
VERTEX
8
OBJECT__18
10
0.000000
20
38.057999
30
-76.148003
70
192
0
VERTEX
8
OBJECT__18
10
6.800000
20
39.228001
30
-79.928001
70
192
0
VERTEX
8
OBJECT__18
10
6.800000
20
37.775002
30
-76.260002
70
192
0
VERTEX
8
OBJECT__18
10
0.000000
20
31.025000
30
-63.966999
70
192
0
VERTEX
8
OBJECT__18
10
6.800000
20
30.846001
30
-64.097000
70
192
0
VERTEX
8
OBJECT__18
10
6.800000
20
35.490002
30
-70.488998
70
192
0
VERTEX
8
OBJECT__18
10
0.000000
20
20.250000
30
-54.925999
70
192
0
VERTEX
8
OBJECT__18
10
6.800000
20
21.701000
30
-55.805000
70
192
0
VERTEX
8
OBJECT__18
10
6.800000
20
29.523001
30
-62.276001
70
192
0
VERTEX
8
OBJECT__18
10
6.800000
20
20.174999
30
-55.085999
70
192
0
VERTEX
8
OBJECT__18
10
0.000000
20
7.033000
30
-50.115002
70
192
0
VERTEX
8
OBJECT__18
10
6.800000
20
12.515000
30
-51.481998
70
192
0
VERTEX
8
OBJECT__18
10
6.800000
20
6.974000
30
-50.424999
70
192
0
VERTEX
8
OBJECT__18
10
0.000000
20
-7.033000
30
-50.115002
70
192
0
VERTEX
8
OBJECT__18
10
6.800000
20
-7.029000
30
-50.181999
70
192
0
VERTEX
8
OBJECT__18
10
6.800000
20
2.543000
30
-49.580002
70
192
0
VERTEX
8
OBJECT__18
10
0.000000
20
-20.250000
30
-54.925999
70
192
0
VERTEX
8
OBJECT__18
10
6.800000
20
-17.243999
30
-53.355000
70
192
0
VERTEX
8
OBJECT__18
10
6.800000
20
-20.098000
30
-55.166000
70
192
0
VERTEX
8
OBJECT__18
10
6.800000
20
-7.589000
30
-50.216999
70
192
0
VERTEX
8
OBJECT__18
10
0.000000
20
-31.025000
30
-63.966999
70
192
0
VERTEX
8
OBJECT__18
10
6.800000
20
-30.837999
30
-64.141998
70
192
0
VERTEX
8
OBJECT__18
10
6.800000
20
-25.816000
30
-58.793999
70
192
0
VERTEX
8
OBJECT__18
10
0.000000
20
-38.057999
30
-76.148003
70
192
0
VERTEX
8
OBJECT__18
10
6.800000
20
-37.655998
30
-75.091003
70
192
0
VERTEX
8
OBJECT__18
10
6.800000
20
-32.764999
30
-66.195000
70
192
0
VERTEX
8
OBJECT__18
10
6.800000
20
-37.935001
30
-76.180000
70
192
0
VERTEX
8
OBJECT__18
10
0.000000
20
-40.500000
30
-90.000000
70
192
0
VERTEX
8
OBJECT__18
10
6.800000
20
-40.181000
30
-84.924004
70
192
0
VERTEX
8
OBJECT__18
10
6.800000
20
-40.181000
30
-90.000000
70
192
0
VERTEX
8
OBJECT__18
10
0.000000
20
-38.057999
30
-103.851997
70
192
0
VERTEX
8
OBJECT__18
10
6.800000
20
-37.935001
30
-103.820000
70
192
0
VERTEX
8
OBJECT__18
10
6.800000
20
-40.181000
30
-95.075996
70
192
0
VERTEX
8
OBJECT__18
10
0.000000
20
-31.025000
30
-116.032997
70
192
0
VERTEX
8
OBJECT__18
10
6.800000
20
-32.764999
30
-113.805000
70
192
0
VERTEX
8
OBJECT__18
10
6.800000
20
-37.655998
30
-104.908997
70
192
0
VERTEX
8
OBJECT__18
10
6.800000
20
-30.837999
30
-115.858002
70
192
0
VERTEX
8
OBJECT__18
10
0.000000
20
-20.250000
30
-125.073997
70
192
0
VERTEX
8
OBJECT__18
10
6.800000
20
-25.816000
30
-121.206001
70
192
0
VERTEX
8
OBJECT__18
10
6.800000
20
-20.098000
30
-124.834000
70
192
0
VERTEX
8
OBJECT__18
10
0.000000
20
-7.033000
30
-129.884995
70
192
0
VERTEX
8
OBJECT__18
10
6.800000
20
-7.589000
30
-129.783005
70
192
0
VERTEX
8
OBJECT__18
10
6.800000
20
-17.243999
30
-126.644997
70
192
0
VERTEX
8
OBJECT__18
10
6.800000
20
-7.029000
30
-129.817993
70
192
0
VERTEX
8
OBJECT__18
10
0.000000
20
7.033000
30
-129.884995
70
192
0
VERTEX
8
OBJECT__18
10
6.800000
20
2.543000
30
-130.419998
70
192
0
VERTEX
8
OBJECT__18
10
6.800000
20
6.974000
30
-129.574997
70
192
0
VERTEX
8
OBJECT__18
10
0.000000
20
20.250000
30
-125.073997
70
192
0
VERTEX
8
OBJECT__18
10
6.800000
20
20.174999
30
-124.914001
70
192
0
VERTEX
8
OBJECT__18
10
6.800000
20
12.515000
30
-128.518005
70
192
0
VERTEX
8
OBJECT__18
10
0.000000
20
31.025000
30
-116.032997
70
192
0
VERTEX
8
OBJECT__18
10
6.800000
20
29.523001
30
-117.723999
70
192
0
VERTEX
8
OBJECT__18
10
6.800000
20
21.701000
30
-124.195000
70
192
0
VERTEX
8
OBJECT__18
10
6.800000
20
30.846001
30
-115.903000
70
192
0
VERTEX
8
OBJECT__18
10
0.000000
20
38.057999
30
-103.851997
70
192
0
VERTEX
8
OBJECT__18
10
6.800000
20
35.490002
30
-109.511002
70
192
0
VERTEX
8
OBJECT__18
10
6.800000
20
37.775002
30
-103.739998
70
192
0
VERTEX
8
OBJECT__18
10
6.800000
20
40.500000
30
-90.000000
70
192
0
VERTEX
8
OBJECT__18
10
6.800000
20
39.228001
30
-100.071999
70
192
0
VERTEX
8
OBJECT__18
10
0
20
0
30
0
70
128
71
1
72
2
73
3
0
VERTEX
8
OBJECT__18
10
0
20
0
30
0
70
128
71
2
72
4
73
3
0
VERTEX
8
OBJECT__18
10
0
20
0
30
0
70
128
71
5
72
6
73
7
0
VERTEX
8
OBJECT__18
10
0
20
0
30
0
70
128
71
7
72
2
73
5
0
VERTEX
8
OBJECT__18
10
0
20
0
30
0
70
128
71
8
72
9
73
10
0
VERTEX
8
OBJECT__18
10
0
20
0
30
0
70
128
71
8
72
11
73
9
0
VERTEX
8
OBJECT__18
10
0
20
0
30
0
70
128
71
10
72
5
73
8
0
VERTEX
8
OBJECT__18
10
0
20
0
30
0
70
128
71
8
72
12
73
13
0
VERTEX
8
OBJECT__18
10
0
20
0
30
0
70
128
71
12
72
14
73
13
0
VERTEX
8
OBJECT__18
10
0
20
0
30
0
70
128
71
15
72
16
73
17
0
VERTEX
8
OBJECT__18
10
0
20
0
30
0
70
128
71
17
72
12
73
15
0
VERTEX
8
OBJECT__18
10
0
20
0
30
0
70
128
71
15
72
18
73
19
0
VERTEX
8
OBJECT__18
10
0
20
0
30
0
70
128
71
18
72
20
73
19
0
VERTEX
8
OBJECT__18
10
0
20
0
30
0
70
128
71
19
72
21
73
15
0
VERTEX
8
OBJECT__18
10
0
20
0
30
0
70
128
71
22
72
23
73
24
0
VERTEX
8
OBJECT__18
10
0
20
0
30
0
70
128
71
24
72
18
73
22
0
VERTEX
8
OBJECT__18
10
0
20
0
30
0
70
128
71
25
72
26
73
27
0
VERTEX
8
OBJECT__18
10
0
20
0
30
0
70
128
71
25
72
28
73
26
0
VERTEX
8
OBJECT__18
10
0
20
0
30
0
70
128
71
27
72
22
73
25
0
VERTEX
8
OBJECT__18
10
0
20
0
30
0
70
128
71
25
72
29
73
30
0
VERTEX
8
OBJECT__18
10
0
20
0
30
0
70
128
71
29
72
31
73
30
0
VERTEX
8
OBJECT__18
10
0
20
0
30
0
70
128
71
32
72
33
73
34
0
VERTEX
8
OBJECT__18
10
0
20
0
30
0
70
128
71
34
72
29
73
32
0
VERTEX
8
OBJECT__18
10
0
20
0
30
0
70
128
71
32
72
35
73
36
0
VERTEX
8
OBJECT__18
10
0
20
0
30
0
70
128
71
36
72
37
73
32
0
VERTEX
8
OBJECT__18
10
0
20
0
30
0
70
128
71
35
72
38
73
36
0
VERTEX
8
OBJECT__18
10
0
20
0
30
0
70
128
71
35
72
39
73
40
0
VERTEX
8
OBJECT__18
10
0
20
0
30
0
70
128
71
39
72
41
73
40
0
VERTEX
8
OBJECT__18
10
0
20
0
30
0
70
128
71
42
72
43
73
44
0
VERTEX
8
OBJECT__18
10
0
20
0
30
0
70
128
71
44
72
39
73
42
0
VERTEX
8
OBJECT__18
10
0
20
0
30
0
70
128
71
42
72
45
73
43
0
VERTEX
8
OBJECT__18
10
0
20
0
30
0
70
128
71
42
72
46
73
47
0
VERTEX
8
OBJECT__18
10
0
20
0
30
0
70
128
71
46
72
48
73
47
0
VERTEX
8
OBJECT__18
10
0
20
0
30
0
70
128
71
49
72
50
73
51
0
VERTEX
8
OBJECT__18
10
0
20
0
30
0
70
128
71
51
72
46
73
49
0
VERTEX
8
OBJECT__18
10
0
20
0
30
0
70
128
71
49
72
52
73
53
0
VERTEX
8
OBJECT__18
10
0
20
0
30
0
70
128
71
53
72
54
73
49
0
VERTEX
8
OBJECT__18
10
0
20
0
30
0
70
128
71
52
72
55
73
53
0
VERTEX
8
OBJECT__18
10
0
20
0
30
0
70
128
71
52
72
56
73
57
0
VERTEX
8
OBJECT__18
10
0
20
0
30
0
70
128
71
56
72
58
73
57
0
VERTEX
8
OBJECT__18
10
0
20
0
30
0
70
128
71
1
72
59
73
60
0
VERTEX
8
OBJECT__18
10
0
20
0
30
0
70
128
71
60
72
56
73
1
0
VERTEX
8
OBJECT__18
10
0
20
0
30
0
70
128
71
60
72
58
73
56
0
VERTEX
8
OBJECT__18
10
0
20
0
30
0
70
128
71
57
72
55
73
52
0
VERTEX
8
OBJECT__18
10
0
20
0
30
0
70
128
71
54
72
50
73
49
0
VERTEX
8
OBJECT__18
10
0
20
0
30
0
70
128
71
51
72
48
73
46
0
VERTEX
8
OBJECT__18
10
0
20
0
30
0
70
128
71
47
72
45
73
42
0
VERTEX
8
OBJECT__18
10
0
20
0
30
0
70
128
71
44
72
41
73
39
0
VERTEX
8
OBJECT__18
10
0
20
0
30
0
70
128
71
40
72
38
73
35
0
VERTEX
8
OBJECT__18
10
0
20
0
30
0
70
128
71
37
72
33
73
32
0
VERTEX
8
OBJECT__18
10
0
20
0
30
0
70
128
71
34
72
31
73
29
0
VERTEX
8
OBJECT__18
10
0
20
0
30
0
70
128
71
30
72
28
73
25
0
VERTEX
8
OBJECT__18
10
0
20
0
30
0
70
128
71
27
72
23
73
22
0
VERTEX
8
OBJECT__18
10
0
20
0
30
0
70
128
71
24
72
20
73
18
0
VERTEX
8
OBJECT__18
10
0
20
0
30
0
70
128
71
21
72
16
73
15
0
VERTEX
8
OBJECT__18
10
0
20
0
30
0
70
128
71
17
72
14
73
12
0
VERTEX
8
OBJECT__18
10
0
20
0
30
0
70
128
71
13
72
11
73
8
0
VERTEX
8
OBJECT__18
10
0
20
0
30
0
70
128
71
10
72
6
73
5
0
VERTEX
8
OBJECT__18
10
0
20
0
30
0
70
128
71
7
72
4
73
2
0
VERTEX
8
OBJECT__18
10
0
20
0
30
0
70
128
71
3
72
59
73
1
0
SEQEND
8
OBJECT__18
0
POLYLINE
8
OBJECT__19
66
1
70
64
71
18
72
16
62
253
0
VERTEX
8
OBJECT__19
10
0.000000
20
-31.025000
30
-63.966999
70
192
0
VERTEX
8
OBJECT__19
10
0.000000
20
-7.033000
30
-50.115002
70
192
0
VERTEX
8
OBJECT__19
10
0.000000
20
7.033000
30
-50.115002
70
192
0
VERTEX
8
OBJECT__19
10
0.000000
20
-20.250000
30
-125.073997
70
192
0
VERTEX
8
OBJECT__19
10
0.000000
20
20.250000
30
-125.073997
70
192
0
VERTEX
8
OBJECT__19
10
0.000000
20
7.033000
30
-129.884995
70
192
0
VERTEX
8
OBJECT__19
10
0.000000
20
40.500000
30
-90.000000
70
192
0
VERTEX
8
OBJECT__19
10
0.000000
20
38.057999
30
-103.851997
70
192
0
VERTEX
8
OBJECT__19
10
0.000000
20
-20.250000
30
-54.925999
70
192
0
VERTEX
8
OBJECT__19
10
0.000000
20
20.250000
30
-54.925999
70
192
0
VERTEX
8
OBJECT__19
10
0.000000
20
-40.500000
30
-90.000000
70
192
0
VERTEX
8
OBJECT__19
10
0.000000
20
-38.057999
30
-76.148003
70
192
0
VERTEX
8
OBJECT__19
10
0.000000
20
-31.025000
30
-116.032997
70
192
0
VERTEX
8
OBJECT__19
10
0.000000
20
-38.057999
30
-103.851997
70
192
0
VERTEX
8
OBJECT__19
10
0.000000
20
31.025000
30
-116.032997
70
192
0
VERTEX
8
OBJECT__19
10
0.000000
20
38.057999
30
-76.148003
70
192
0
VERTEX
8
OBJECT__19
10
0.000000
20
31.025000
30
-63.966999
70
192
0
VERTEX
8
OBJECT__19
10
0.000000
20
-7.033000
30
-129.884995
70
192
0
VERTEX
8
OBJECT__19
10
0
20
0
30
0
70
128
71
1
72
2
73
3
0
VERTEX
8
OBJECT__19
10
0
20
0
30
0
70
128
71
4
72
5
73
6
0
VERTEX
8
OBJECT__19
10
0
20
0
30
0
70
128
71
4
72
7
73
8
0
VERTEX
8
OBJECT__19
10
0
20
0
30
0
70
128
71
1
72
9
73
2
0
VERTEX
8
OBJECT__19
10
0
20
0
30
0
70
128
71
10
72
11
73
12
0
VERTEX
8
OBJECT__19
10
0
20
0
30
0
70
128
71
10
72
13
73
14
0
VERTEX
8
OBJECT__19
10
0
20
0
30
0
70
128
71
4
72
15
73
5
0
VERTEX
8
OBJECT__19
10
0
20
0
30
0
70
128
71
4
72
16
73
7
0
VERTEX
8
OBJECT__19
10
0
20
0
30
0
70
128
71
12
72
1
73
10
0
VERTEX
8
OBJECT__19
10
0
20
0
30
0
70
128
71
10
72
4
73
13
0
VERTEX
8
OBJECT__19
10
0
20
0
30
0
70
128
71
8
72
15
73
4
0
VERTEX
8
OBJECT__19
10
0
20
0
30
0
70
128
71
4
72
10
73
17
0
VERTEX
8
OBJECT__19
10
0
20
0
30
0
70
128
71
14
72
11
73
10
0
VERTEX
8
OBJECT__19
10
0
20
0
30
0
70
128
71
17
72
16
73
4
0
VERTEX
8
OBJECT__19
10
0
20
0
30
0
70
128
71
6
72
18
73
4
0
VERTEX
8
OBJECT__19
10
0
20
0
30
0
70
128
71
3
72
10
73
1
0
SEQEND
8
OBJECT__19
0
POLYLINE
8
OBJECT__20
66
1
70
64
71
22
72
21
62
253
0
VERTEX
8
OBJECT__20
10
6.460000
20
6.368000
30
-78.522003
70
192
0
VERTEX
8
OBJECT__20
10
6.460000
20
5.125000
30
-81.500000
70
192
0
VERTEX
8
OBJECT__20
10
6.460000
20
3.624000
30
-77.875999
70
192
0
VERTEX
8
OBJECT__20
10
6.460000
20
4.477000
30
-76.375000
70
192
0
VERTEX
8
OBJECT__20
10
6.460000
20
7.050000
30
-81.300003
70
192
0
VERTEX
8
OBJECT__20
10
6.460000
20
6.246000
30
-84.599998
70
192
0
VERTEX
8
OBJECT__20
10
6.460000
20
4.050000
30
-86.795998
70
192
0
VERTEX
8
OBJECT__20
10
6.460000
20
3.624000
30
-85.124001
70
192
0
VERTEX
8
OBJECT__20
10
6.460000
20
7.050000
30
-81.599998
70
192
0
VERTEX
8
OBJECT__20
10
6.460000
20
1.050000
30
-87.599998
70
192
0
VERTEX
8
OBJECT__20
10
6.460000
20
-6.368000
30
-78.522003
70
192
0
VERTEX
8
OBJECT__20
10
6.460000
20
-4.477000
30
-76.375000
70
192
0
VERTEX
8
OBJECT__20
10
6.460000
20
-3.624000
30
-77.875999
70
192
0
VERTEX
8
OBJECT__20
10
6.460000
20
0.000000
30
-86.625000
70
192
0
VERTEX
8
OBJECT__20
10
6.460000
20
-6.246000
30
-84.599998
70
192
0
VERTEX
8
OBJECT__20
10
6.460000
20
-5.125000
30
-81.500000
70
192
0
VERTEX
8
OBJECT__20
10
6.460000
20
-3.624000
30
-85.124001
70
192
0
VERTEX
8
OBJECT__20
10
6.460000
20
-7.050000
30
-81.300003
70
192
0
VERTEX
8
OBJECT__20
10
6.460000
20
-1.050000
30
-87.599998
70
192
0
VERTEX
8
OBJECT__20
10
6.460000
20
-4.050000
30
-86.795998
70
192
0
VERTEX
8
OBJECT__20
10
6.460000
20
-7.050000
30
-81.599998
70
192
0
VERTEX
8
OBJECT__20
10
6.460000
20
0.000000
30
-76.375000
70
192
0
VERTEX
8
OBJECT__20
10
0
20
0
30
0
70
128
71
1
72
2
73
3
0
VERTEX
8
OBJECT__20
10
0
20
0
30
0
70
128
71
3
72
4
73
1
0
VERTEX
8
OBJECT__20
10
0
20
0
30
0
70
128
71
1
72
5
73
2
0
VERTEX
8
OBJECT__20
10
0
20
0
30
0
70
128
71
6
72
7
73
8
0
VERTEX
8
OBJECT__20
10
0
20
0
30
0
70
128
71
5
72
9
73
2
0
VERTEX
8
OBJECT__20
10
0
20
0
30
0
70
128
71
2
72
9
73
6
0
VERTEX
8
OBJECT__20
10
0
20
0
30
0
70
128
71
8
72
7
73
10
0
VERTEX
8
OBJECT__20
10
0
20
0
30
0
70
128
71
11
72
12
73
13
0
VERTEX
8
OBJECT__20
10
0
20
0
30
0
70
128
71
8
72
2
73
6
0
VERTEX
8
OBJECT__20
10
0
20
0
30
0
70
128
71
10
72
14
73
8
0
VERTEX
8
OBJECT__20
10
0
20
0
30
0
70
128
71
15
72
16
73
17
0
VERTEX
8
OBJECT__20
10
0
20
0
30
0
70
128
71
16
72
18
73
11
0
VERTEX
8
OBJECT__20
10
0
20
0
30
0
70
128
71
10
72
19
73
14
0
VERTEX
8
OBJECT__20
10
0
20
0
30
0
70
128
71
17
72
14
73
19
0
VERTEX
8
OBJECT__20
10
0
20
0
30
0
70
128
71
17
72
20
73
15
0
VERTEX
8
OBJECT__20
10
0
20
0
30
0
70
128
71
16
72
21
73
18
0
VERTEX
8
OBJECT__20
10
0
20
0
30
0
70
128
71
19
72
20
73
17
0
VERTEX
8
OBJECT__20
10
0
20
0
30
0
70
128
71
13
72
16
73
11
0
VERTEX
8
OBJECT__20
10
0
20
0
30
0
70
128
71
15
72
21
73
16
0
VERTEX
8
OBJECT__20
10
0
20
0
30
0
70
128
71
12
72
22
73
13
0
VERTEX
8
OBJECT__20
10
0
20
0
30
0
70
128
71
3
72
22
73
4
0
SEQEND
8
OBJECT__20
0
POLYLINE
8
OBJECT__21
66
1
70
64
71
22
72
21
62
253
0
VERTEX
8
OBJECT__21
10
6.460000
20
-6.368000
30
-78.522003
70
192
0
VERTEX
8
OBJECT__21
10
6.460000
20
-5.125000
30
-81.500000
70
192
0
VERTEX
8
OBJECT__21
10
6.460000
20
-3.624000
30
-77.875999
70
192
0
VERTEX
8
OBJECT__21
10
6.460000
20
-4.477000
30
-76.375000
70
192
0
VERTEX
8
OBJECT__21
10
6.460000
20
-6.246000
30
-84.599998
70
192
0
VERTEX
8
OBJECT__21
10
6.460000
20
-4.050000
30
-86.795998
70
192
0
VERTEX
8
OBJECT__21
10
6.460000
20
-3.624000
30
-85.124001
70
192
0
VERTEX
8
OBJECT__21
10
6.460000
20
6.368000
30
-78.522003
70
192
0
VERTEX
8
OBJECT__21
10
6.460000
20
4.477000
30
-76.375000
70
192
0
VERTEX
8
OBJECT__21
10
6.460000
20
3.624000
30
-77.875999
70
192
0
VERTEX
8
OBJECT__21
10
6.460000
20
-7.050000
30
-81.300003
70
192
0
VERTEX
8
OBJECT__21
10
6.460000
20
-7.050000
30
-81.599998
70
192
0
VERTEX
8
OBJECT__21
10
6.460000
20
6.246000
30
-84.599998
70
192
0
VERTEX
8
OBJECT__21
10
6.460000
20
5.125000
30
-81.500000
70
192
0
VERTEX
8
OBJECT__21
10
6.460000
20
3.624000
30
-85.124001
70
192
0
VERTEX
8
OBJECT__21
10
6.460000
20
7.050000
30
-81.300003
70
192
0
VERTEX
8
OBJECT__21
10
6.460000
20
-1.050000
30
-87.599998
70
192
0
VERTEX
8
OBJECT__21
10
6.460000
20
0.000000
30
-86.625000
70
192
0
VERTEX
8
OBJECT__21
10
6.460000
20
1.050000
30
-87.599998
70
192
0
VERTEX
8
OBJECT__21
10
6.460000
20
4.050000
30
-86.795998
70
192
0
VERTEX
8
OBJECT__21
10
6.460000
20
7.050000
30
-81.599998
70
192
0
VERTEX
8
OBJECT__21
10
6.460000
20
0.000000
30
-76.375000
70
192
0
VERTEX
8
OBJECT__21
10
0
20
0
30
0
70
128
71
1
72
2
73
3
0
VERTEX
8
OBJECT__21
10
0
20
0
30
0
70
128
71
3
72
4
73
1
0
VERTEX
8
OBJECT__21
10
0
20
0
30
0
70
128
71
5
72
6
73
7
0
VERTEX
8
OBJECT__21
10
0
20
0
30
0
70
128
71
8
72
9
73
10
0
VERTEX
8
OBJECT__21
10
0
20
0
30
0
70
128
71
1
72
11
73
2
0
VERTEX
8
OBJECT__21
10
0
20
0
30
0
70
128
71
2
72
12
73
5
0
VERTEX
8
OBJECT__21
10
0
20
0
30
0
70
128
71
13
72
14
73
15
0
VERTEX
8
OBJECT__21
10
0
20
0
30
0
70
128
71
14
72
16
73
8
0
VERTEX
8
OBJECT__21
10
0
20
0
30
0
70
128
71
7
72
2
73
5
0
VERTEX
8
OBJECT__21
10
0
20
0
30
0
70
128
71
7
72
6
73
17
0
VERTEX
8
OBJECT__21
10
0
20
0
30
0
70
128
71
15
72
18
73
19
0
VERTEX
8
OBJECT__21
10
0
20
0
30
0
70
128
71
15
72
20
73
13
0
VERTEX
8
OBJECT__21
10
0
20
0
30
0
70
128
71
14
72
21
73
16
0
VERTEX
8
OBJECT__21
10
0
20
0
30
0
70
128
71
17
72
18
73
7
0
VERTEX
8
OBJECT__21
10
0
20
0
30
0
70
128
71
18
72
17
73
19
0
VERTEX
8
OBJECT__21
10
0
20
0
30
0
70
128
71
10
72
14
73
8
0
VERTEX
8
OBJECT__21
10
0
20
0
30
0
70
128
71
19
72
20
73
15
0
VERTEX
8
OBJECT__21
10
0
20
0
30
0
70
128
71
9
72
22
73
10
0
VERTEX
8
OBJECT__21
10
0
20
0
30
0
70
128
71
13
72
21
73
14
0
VERTEX
8
OBJECT__21
10
0
20
0
30
0
70
128
71
11
72
12
73
2
0
VERTEX
8
OBJECT__21
10
0
20
0
30
0
70
128
71
3
72
22
73
4
0
SEQEND
8
OBJECT__21
0
POLYLINE
8
OBJECT__23
66
1
70
64
71
74
72
76
62
253
0
VERTEX
8
OBJECT__23
10
5.960000
20
-4.050000
30
-86.795998
70
192
0
VERTEX
8
OBJECT__23
10
5.960000
20
-1.050000
30
-87.599998
70
192
0
VERTEX
8
OBJECT__23
10
5.960000
20
-1.050000
30
-92.400002
70
192
0
VERTEX
8
OBJECT__23
10
5.960000
20
1.050000
30
-92.400002
70
192
0
VERTEX
8
OBJECT__23
10
5.960000
20
1.050000
30
-87.599998
70
192
0
VERTEX
8
OBJECT__23
10
5.960000
20
4.050000
30
-93.204002
70
192
0
VERTEX
8
OBJECT__23
10
5.960000
20
10.928000
30
-102.678001
70
192
0
VERTEX
8
OBJECT__23
10
5.960000
20
7.050000
30
-98.400002
70
192
0
VERTEX
8
OBJECT__23
10
5.960000
20
6.246000
30
-95.400002
70
192
0
VERTEX
8
OBJECT__23
10
5.960000
20
6.368000
30
-101.477997
70
192
0
VERTEX
8
OBJECT__23
10
5.960000
20
7.050000
30
-98.699997
70
192
0
VERTEX
8
OBJECT__23
10
5.960000
20
4.050000
30
-86.795998
70
192
0
VERTEX
8
OBJECT__23
10
5.960000
20
6.590000
30
-104.561996
70
192
0
VERTEX
8
OBJECT__23
10
5.960000
20
4.477000
30
-103.625000
70
192
0
VERTEX
8
OBJECT__23
10
5.960000
20
3.849000
30
-104.561996
70
192
0
VERTEX
8
OBJECT__23
10
5.960000
20
-4.050000
30
-93.204002
70
192
0
VERTEX
8
OBJECT__23
10
5.960000
20
0.410000
30
-105.056000
70
192
0
VERTEX
8
OBJECT__23
10
5.960000
20
10.928000
30
-77.321999
70
192
0
VERTEX
8
OBJECT__23
10
5.960000
20
7.050000
30
-81.599998
70
192
0
VERTEX
8
OBJECT__23
10
5.960000
20
7.050000
30
-81.300003
70
192
0
VERTEX
8
OBJECT__23
10
5.960000
20
6.246000
30
-84.599998
70
192
0
VERTEX
8
OBJECT__23
10
5.960000
20
6.368000
30
-78.522003
70
192
0
VERTEX
8
OBJECT__23
10
5.960000
20
4.477000
30
-76.375000
70
192
0
VERTEX
8
OBJECT__23
10
5.960000
20
6.590000
30
-75.438004
70
192
0
VERTEX
8
OBJECT__23
10
5.960000
20
-6.246000
30
-95.400002
70
192
0
VERTEX
8
OBJECT__23
10
5.960000
20
-6.246000
30
-84.599998
70
192
0
VERTEX
8
OBJECT__23
10
5.960000
20
-10.928000
30
-77.321999
70
192
0
VERTEX
8
OBJECT__23
10
5.960000
20
-7.050000
30
-81.599998
70
192
0
VERTEX
8
OBJECT__23
10
5.960000
20
0.410000
30
-74.944000
70
192
0
VERTEX
8
OBJECT__23
10
5.960000
20
3.849000
30
-75.438004
70
192
0
VERTEX
8
OBJECT__23
10
5.960000
20
-7.050000
30
-81.300003
70
192
0
VERTEX
8
OBJECT__23
10
5.960000
20
-7.050000
30
-98.400002
70
192
0
VERTEX
8
OBJECT__23
10
5.960000
20
0.410000
30
-72.932999
70
192
0
VERTEX
8
OBJECT__23
10
5.960000
20
-0.410000
30
-74.944000
70
192
0
VERTEX
8
OBJECT__23
10
5.960000
20
-0.410000
30
-72.932999
70
192
0
VERTEX
8
OBJECT__23
10
5.960000
20
-4.477000
30
-103.625000
70
192
0
VERTEX
8
OBJECT__23
10
5.960000
20
-0.410000
30
-105.056000
70
192
0
VERTEX
8
OBJECT__23
10
5.960000
20
-6.368000
30
-101.477997
70
192
0
VERTEX
8
OBJECT__23
10
5.960000
20
-6.590000
30
-104.561996
70
192
0
VERTEX
8
OBJECT__23
10
5.960000
20
-10.928000
30
-102.678001
70
192
0
VERTEX
8
OBJECT__23
10
5.960000
20
-7.050000
30
-98.699997
70
192
0
VERTEX
8
OBJECT__23
10
5.960000
20
0.410000
30
-107.067001
70
192
0
VERTEX
8
OBJECT__23
10
5.960000
20
-0.410000
30
-107.067001
70
192
0
VERTEX
8
OBJECT__23
10
5.960000
20
-6.590000
30
-75.438004
70
192
0
VERTEX
8
OBJECT__23
10
5.960000
20
-3.849000
30
-75.438004
70
192
0
VERTEX
8
OBJECT__23
10
5.960000
20
10.929000
30
-102.898003
70
192
0
VERTEX
8
OBJECT__23
10
5.960000
20
10.661000
30
-103.791000
70
192
0
VERTEX
8
OBJECT__23
10
5.960000
20
9.919000
30
-104.168999
70
192
0
VERTEX
8
OBJECT__23
10
5.960000
20
-3.849000
30
-104.561996
70
192
0
VERTEX
8
OBJECT__23
10
5.960000
20
8.665000
30
-104.301003
70
192
0
VERTEX
8
OBJECT__23
10
5.960000
20
7.410000
30
-104.512001
70
192
0
VERTEX
8
OBJECT__23
10
5.960000
20
-10.929000
30
-77.101997
70
192
0
VERTEX
8
OBJECT__23
10
5.960000
20
-10.661000
30
-76.209000
70
192
0
VERTEX
8
OBJECT__23
10
5.960000
20
-9.919000
30
-75.831001
70
192
0
VERTEX
8
OBJECT__23
10
5.960000
20
8.665000
30
-75.698997
70
192
0
VERTEX
8
OBJECT__23
10
5.960000
20
9.919000
30
-75.831001
70
192
0
VERTEX
8
OBJECT__23
10
5.960000
20
7.410000
30
-75.487999
70
192
0
VERTEX
8
OBJECT__23
10
5.960000
20
7.410000
30
-107.067001
70
192
0
VERTEX
8
OBJECT__23
10
5.960000
20
6.590000
30
-107.067001
70
192
0
VERTEX
8
OBJECT__23
10
5.960000
20
-6.368000
30
-78.522003
70
192
0
VERTEX
8
OBJECT__23
10
5.960000
20
-8.665000
30
-75.698997
70
192
0
VERTEX
8
OBJECT__23
10
5.960000
20
-7.410000
30
-75.487999
70
192
0
VERTEX
8
OBJECT__23
10
5.960000
20
7.410000
30
-72.932999
70
192
0
VERTEX
8
OBJECT__23
10
5.960000
20
-4.477000
30
-76.375000
70
192
0
VERTEX
8
OBJECT__23
10
5.960000
20
-7.410000
30
-72.932999
70
192
0
VERTEX
8
OBJECT__23
10
5.960000
20
-6.590000
30
-72.932999
70
192
0
VERTEX
8
OBJECT__23
10
5.960000
20
-8.665000
30
-104.301003
70
192
0
VERTEX
8
OBJECT__23
10
5.960000
20
-9.919000
30
-104.168999
70
192
0
VERTEX
8
OBJECT__23
10
5.960000
20
-7.410000
30
-104.512001
70
192
0
VERTEX
8
OBJECT__23
10
5.960000
20
6.590000
30
-72.932999
70
192
0
VERTEX
8
OBJECT__23
10
5.960000
20
-7.410000
30
-107.067001
70
192
0
VERTEX
8
OBJECT__23
10
5.960000
20
-6.590000
30
-107.067001
70
192
0
VERTEX
8
OBJECT__23
10
5.960000
20
10.661000
30
-76.209000
70
192
0
VERTEX
8
OBJECT__23
10
5.960000
20
-10.661000
30
-103.791000
70
192
0
VERTEX
8
OBJECT__23
10
0
20
0
30
0
70
128
71
1
72
2
73
3
0
VERTEX
8
OBJECT__23
10
0
20
0
30
0
70
128
71
4
72
3
73
2
0
VERTEX
8
OBJECT__23
10
0
20
0
30
0
70
128
71
2
72
5
73
4
0
VERTEX
8
OBJECT__23
10
0
20
0
30
0
70
128
71
6
72
4
73
5
0
VERTEX
8
OBJECT__23
10
0
20
0
30
0
70
128
71
7
72
8
73
9
0
VERTEX
8
OBJECT__23
10
0
20
0
30
0
70
128
71
7
72
10
73
11
0
VERTEX
8
OBJECT__23
10
0
20
0
30
0
70
128
71
5
72
12
73
6
0
VERTEX
8
OBJECT__23
10
0
20
0
30
0
70
128
71
11
72
8
73
7
0
VERTEX
8
OBJECT__23
10
0
20
0
30
0
70
128
71
10
72
7
73
13
0
VERTEX
8
OBJECT__23
10
0
20
0
30
0
70
128
71
12
72
9
73
6
0
VERTEX
8
OBJECT__23
10
0
20
0
30
0
70
128
71
13
72
14
73
10
0
VERTEX
8
OBJECT__23
10
0
20
0
30
0
70
128
71
14
72
13
73
15
0
VERTEX
8
OBJECT__23
10
0
20
0
30
0
70
128
71
3
72
16
73
1
0
VERTEX
8
OBJECT__23
10
0
20
0
30
0
70
128
71
15
72
17
73
14
0
VERTEX
8
OBJECT__23
10
0
20
0
30
0
70
128
71
18
72
19
73
20
0
VERTEX
8
OBJECT__23
10
0
20
0
30
0
70
128
71
7
72
21
73
19
0
VERTEX
8
OBJECT__23
10
0
20
0
30
0
70
128
71
9
72
12
73
7
0
VERTEX
8
OBJECT__23
10
0
20
0
30
0
70
128
71
22
72
23
73
24
0
VERTEX
8
OBJECT__23
10
0
20
0
30
0
70
128
71
19
72
18
73
7
0
VERTEX
8
OBJECT__23
10
0
20
0
30
0
70
128
71
25
72
26
73
1
0
VERTEX
8
OBJECT__23
10
0
20
0
30
0
70
128
71
27
72
28
73
26
0
VERTEX
8
OBJECT__23
10
0
20
0
30
0
70
128
71
23
72
29
73
30
0
VERTEX
8
OBJECT__23
10
0
20
0
30
0
70
128
71
20
72
22
73
18
0
VERTEX
8
OBJECT__23
10
0
20
0
30
0
70
128
71
16
72
25
73
1
0
VERTEX
8
OBJECT__23
10
0
20
0
30
0
70
128
71
27
72
31
73
28
0
VERTEX
8
OBJECT__23
10
0
20
0
30
0
70
128
71
24
72
18
73
22
0
VERTEX
8
OBJECT__23
10
0
20
0
30
0
70
128
71
26
72
25
73
27
0
VERTEX
8
OBJECT__23
10
0
20
0
30
0
70
128
71
27
72
25
73
32
0
VERTEX
8
OBJECT__23
10
0
20
0
30
0
70
128
71
12
72
21
73
7
0
VERTEX
8
OBJECT__23
10
0
20
0
30
0
70
128
71
33
72
29
73
34
0
VERTEX
8
OBJECT__23
10
0
20
0
30
0
70
128
71
30
72
24
73
23
0
VERTEX
8
OBJECT__23
10
0
20
0
30
0
70
128
71
34
72
35
73
33
0
VERTEX
8
OBJECT__23
10
0
20
0
30
0
70
128
71
36
72
14
73
37
0
VERTEX
8
OBJECT__23
10
0
20
0
30
0
70
128
71
38
72
36
73
39
0
VERTEX
8
OBJECT__23
10
0
20
0
30
0
70
128
71
40
72
32
73
41
0
VERTEX
8
OBJECT__23
10
0
20
0
30
0
70
128
71
42
72
43
73
37
0
VERTEX
8
OBJECT__23
10
0
20
0
30
0
70
128
71
29
72
23
73
34
0
VERTEX
8
OBJECT__23
10
0
20
0
30
0
70
128
71
23
72
44
73
45
0
VERTEX
8
OBJECT__23
10
0
20
0
30
0
70
128
71
46
72
47
73
48
0
VERTEX
8
OBJECT__23
10
0
20
0
30
0
70
128
71
37
72
49
73
36
0
VERTEX
8
OBJECT__23
10
0
20
0
30
0
70
128
71
41
72
38
73
40
0
VERTEX
8
OBJECT__23
10
0
20
0
30
0
70
128
71
37
72
14
73
17
0
VERTEX
8
OBJECT__23
10
0
20
0
30
0
70
128
71
45
72
34
73
23
0
VERTEX
8
OBJECT__23
10
0
20
0
30
0
70
128
71
7
72
50
73
51
0
VERTEX
8
OBJECT__23
10
0
20
0
30
0
70
128
71
50
72
7
73
46
0
VERTEX
8
OBJECT__23
10
0
20
0
30
0
70
128
71
52
72
53
73
54
0
VERTEX
8
OBJECT__23
10
0
20
0
30
0
70
128
71
18
72
55
73
56
0
VERTEX
8
OBJECT__23
10
0
20
0
30
0
70
128
71
18
72
24
73
57
0
VERTEX
8
OBJECT__23
10
0
20
0
30
0
70
128
71
39
72
40
73
38
0
VERTEX
8
OBJECT__23
10
0
20
0
30
0
70
128
71
32
72
40
73
27
0
VERTEX
8
OBJECT__23
10
0
20
0
30
0
70
128
71
58
72
59
73
13
0
VERTEX
8
OBJECT__23
10
0
20
0
30
0
70
128
71
48
72
50
73
46
0
VERTEX
8
OBJECT__23
10
0
20
0
30
0
70
128
71
60
72
27
73
44
0
VERTEX
8
OBJECT__23
10
0
20
0
30
0
70
128
71
27
72
61
73
62
0
VERTEX
8
OBJECT__23
10
0
20
0
30
0
70
128
71
61
72
27
73
52
0
VERTEX
8
OBJECT__23
10
0
20
0
30
0
70
128
71
57
72
55
73
18
0
VERTEX
8
OBJECT__23
10
0
20
0
30
0
70
128
71
63
72
57
73
24
0
VERTEX
8
OBJECT__23
10
0
20
0
30
0
70
128
71
37
72
17
73
42
0
VERTEX
8
OBJECT__23
10
0
20
0
30
0
70
128
71
51
72
13
73
7
0
VERTEX
8
OBJECT__23
10
0
20
0
30
0
70
128
71
44
72
64
73
60
0
VERTEX
8
OBJECT__23
10
0
20
0
30
0
70
128
71
65
72
66
73
44
0
VERTEX
8
OBJECT__23
10
0
20
0
30
0
70
128
71
54
72
61
73
52
0
VERTEX
8
OBJECT__23
10
0
20
0
30
0
70
128
71
40
72
67
73
68
0
VERTEX
8
OBJECT__23
10
0
20
0
30
0
70
128
71
40
72
39
73
69
0
VERTEX
8
OBJECT__23
10
0
20
0
30
0
70
128
71
24
72
70
73
63
0
VERTEX
8
OBJECT__23
10
0
20
0
30
0
70
128
71
13
72
51
73
58
0
VERTEX
8
OBJECT__23
10
0
20
0
30
0
70
128
71
44
72
23
73
64
0
VERTEX
8
OBJECT__23
10
0
20
0
30
0
70
128
71
62
72
44
73
27
0
VERTEX
8
OBJECT__23
10
0
20
0
30
0
70
128
71
69
72
67
73
40
0
VERTEX
8
OBJECT__23
10
0
20
0
30
0
70
128
71
71
72
69
73
39
0
VERTEX
8
OBJECT__23
10
0
20
0
30
0
70
128
71
49
72
39
73
36
0
VERTEX
8
OBJECT__23
10
0
20
0
30
0
70
128
71
44
72
62
73
65
0
VERTEX
8
OBJECT__23
10
0
20
0
30
0
70
128
71
39
72
72
73
71
0
VERTEX
8
OBJECT__23
10
0
20
0
30
0
70
128
71
60
72
31
73
27
0
VERTEX
8
OBJECT__23
10
0
20
0
30
0
70
128
71
56
72
73
73
18
0
VERTEX
8
OBJECT__23
10
0
20
0
30
0
70
128
71
68
72
74
73
40
0
SEQEND
8
OBJECT__23
0
POLYLINE
8
OBJECT__24
66
1
70
64
71
74
72
76
62
253
0
VERTEX
8
OBJECT__24
10
5.960000
20
4.050000
30
-93.204002
70
192
0
VERTEX
8
OBJECT__24
10
5.960000
20
4.050000
30
-86.795998
70
192
0
VERTEX
8
OBJECT__24
10
5.960000
20
1.050000
30
-87.599998
70
192
0
VERTEX
8
OBJECT__24
10
5.960000
20
1.050000
30
-92.400002
70
192
0
VERTEX
8
OBJECT__24
10
5.960000
20
-1.050000
30
-87.599998
70
192
0
VERTEX
8
OBJECT__24
10
5.960000
20
-1.050000
30
-92.400002
70
192
0
VERTEX
8
OBJECT__24
10
5.960000
20
-4.050000
30
-86.795998
70
192
0
VERTEX
8
OBJECT__24
10
5.960000
20
-4.050000
30
-93.204002
70
192
0
VERTEX
8
OBJECT__24
10
5.960000
20
-10.928000
30
-77.321999
70
192
0
VERTEX
8
OBJECT__24
10
5.960000
20
-7.050000
30
-81.599998
70
192
0
VERTEX
8
OBJECT__24
10
5.960000
20
-7.050000
30
-81.300003
70
192
0
VERTEX
8
OBJECT__24
10
5.960000
20
-6.246000
30
-95.400002
70
192
0
VERTEX
8
OBJECT__24
10
5.960000
20
-6.246000
30
-84.599998
70
192
0
VERTEX
8
OBJECT__24
10
5.960000
20
10.928000
30
-102.678001
70
192
0
VERTEX
8
OBJECT__24
10
5.960000
20
6.246000
30
-95.400002
70
192
0
VERTEX
8
OBJECT__24
10
5.960000
20
-6.368000
30
-78.522003
70
192
0
VERTEX
8
OBJECT__24
10
5.960000
20
-4.477000
30
-76.375000
70
192
0
VERTEX
8
OBJECT__24
10
5.960000
20
-6.590000
30
-75.438004
70
192
0
VERTEX
8
OBJECT__24
10
5.960000
20
-0.410000
30
-74.944000
70
192
0
VERTEX
8
OBJECT__24
10
5.960000
20
-3.849000
30
-75.438004
70
192
0
VERTEX
8
OBJECT__24
10
5.960000
20
7.050000
30
-98.400002
70
192
0
VERTEX
8
OBJECT__24
10
5.960000
20
6.246000
30
-84.599998
70
192
0
VERTEX
8
OBJECT__24
10
5.960000
20
-10.928000
30
-102.678001
70
192
0
VERTEX
8
OBJECT__24
10
5.960000
20
-7.050000
30
-98.400002
70
192
0
VERTEX
8
OBJECT__24
10
5.960000
20
-6.368000
30
-101.477997
70
192
0
VERTEX
8
OBJECT__24
10
5.960000
20
-7.050000
30
-98.699997
70
192
0
VERTEX
8
OBJECT__24
10
5.960000
20
10.928000
30
-77.321999
70
192
0
VERTEX
8
OBJECT__24
10
5.960000
20
7.050000
30
-81.599998
70
192
0
VERTEX
8
OBJECT__24
10
5.960000
20
-6.590000
30
-104.561996
70
192
0
VERTEX
8
OBJECT__24
10
5.960000
20
-4.477000
30
-103.625000
70
192
0
VERTEX
8
OBJECT__24
10
5.960000
20
-3.849000
30
-104.561996
70
192
0
VERTEX
8
OBJECT__24
10
5.960000
20
-0.410000
30
-105.056000
70
192
0
VERTEX
8
OBJECT__24
10
5.960000
20
4.477000
30
-103.625000
70
192
0
VERTEX
8
OBJECT__24
10
5.960000
20
0.410000
30
-105.056000
70
192
0
VERTEX
8
OBJECT__24
10
5.960000
20
6.368000
30
-101.477997
70
192
0
VERTEX
8
OBJECT__24
10
5.960000
20
6.590000
30
-104.561996
70
192
0
VERTEX
8
OBJECT__24
10
5.960000
20
7.050000
30
-98.699997
70
192
0
VERTEX
8
OBJECT__24
10
5.960000
20
-0.410000
30
-72.932999
70
192
0
VERTEX
8
OBJECT__24
10
5.960000
20
0.410000
30
-74.944000
70
192
0
VERTEX
8
OBJECT__24
10
5.960000
20
-10.929000
30
-77.101997
70
192
0
VERTEX
8
OBJECT__24
10
5.960000
20
-8.665000
30
-75.698997
70
192
0
VERTEX
8
OBJECT__24
10
5.960000
20
-9.919000
30
-75.831001
70
192
0
VERTEX
8
OBJECT__24
10
5.960000
20
3.849000
30
-104.561996
70
192
0
VERTEX
8
OBJECT__24
10
5.960000
20
0.410000
30
-72.932999
70
192
0
VERTEX
8
OBJECT__24
10
5.960000
20
-10.661000
30
-76.209000
70
192
0
VERTEX
8
OBJECT__24
10
5.960000
20
-7.410000
30
-75.487999
70
192
0
VERTEX
8
OBJECT__24
10
5.960000
20
0.410000
30
-107.067001
70
192
0
VERTEX
8
OBJECT__24
10
5.960000
20
6.590000
30
-75.438004
70
192
0
VERTEX
8
OBJECT__24
10
5.960000
20
3.849000
30
-75.438004
70
192
0
VERTEX
8
OBJECT__24
10
5.960000
20
6.368000
30
-78.522003
70
192
0
VERTEX
8
OBJECT__24
10
5.960000
20
7.050000
30
-81.300003
70
192
0
VERTEX
8
OBJECT__24
10
5.960000
20
8.665000
30
-75.698997
70
192
0
VERTEX
8
OBJECT__24
10
5.960000
20
7.410000
30
-75.487999
70
192
0
VERTEX
8
OBJECT__24
10
5.960000
20
10.661000
30
-76.209000
70
192
0
VERTEX
8
OBJECT__24
10
5.960000
20
9.919000
30
-75.831001
70
192
0
VERTEX
8
OBJECT__24
10
5.960000
20
10.929000
30
-102.898003
70
192
0
VERTEX
8
OBJECT__24
10
5.960000
20
8.665000
30
-104.301003
70
192
0
VERTEX
8
OBJECT__24
10
5.960000
20
9.919000
30
-104.168999
70
192
0
VERTEX
8
OBJECT__24
10
5.960000
20
-7.410000
30
-72.932999
70
192
0
VERTEX
8
OBJECT__24
10
5.960000
20
-0.410000
30
-107.067001
70
192
0
VERTEX
8
OBJECT__24
10
5.960000
20
4.477000
30
-76.375000
70
192
0
VERTEX
8
OBJECT__24
10
5.960000
20
7.410000
30
-72.932999
70
192
0
VERTEX
8
OBJECT__24
10
5.960000
20
6.590000
30
-72.932999
70
192
0
VERTEX
8
OBJECT__24
10
5.960000
20
10.661000
30
-103.791000
70
192
0
VERTEX
8
OBJECT__24
10
5.960000
20
7.410000
30
-104.512001
70
192
0
VERTEX
8
OBJECT__24
10
5.960000
20
-6.590000
30
-72.932999
70
192
0
VERTEX
8
OBJECT__24
10
5.960000
20
7.410000
30
-107.067001
70
192
0
VERTEX
8
OBJECT__24
10
5.960000
20
-8.665000
30
-104.301003
70
192
0
VERTEX
8
OBJECT__24
10
5.960000
20
-7.410000
30
-104.512001
70
192
0
VERTEX
8
OBJECT__24
10
5.960000
20
-10.661000
30
-103.791000
70
192
0
VERTEX
8
OBJECT__24
10
5.960000
20
-9.919000
30
-104.168999
70
192
0
VERTEX
8
OBJECT__24
10
5.960000
20
6.590000
30
-107.067001
70
192
0
VERTEX
8
OBJECT__24
10
5.960000
20
-7.410000
30
-107.067001
70
192
0
VERTEX
8
OBJECT__24
10
5.960000
20
-6.590000
30
-107.067001
70
192
0
VERTEX
8
OBJECT__24
10
0
20
0
30
0
70
128
71
1
72
2
73
3
0
VERTEX
8
OBJECT__24
10
0
20
0
30
0
70
128
71
4
72
3
73
5
0
VERTEX
8
OBJECT__24
10
0
20
0
30
0
70
128
71
5
72
6
73
4
0
VERTEX
8
OBJECT__24
10
0
20
0
30
0
70
128
71
7
72
8
73
6
0
VERTEX
8
OBJECT__24
10
0
20
0
30
0
70
128
71
6
72
5
73
7
0
VERTEX
8
OBJECT__24
10
0
20
0
30
0
70
128
71
3
72
4
73
1
0
VERTEX
8
OBJECT__24
10
0
20
0
30
0
70
128
71
9
72
10
73
11
0
VERTEX
8
OBJECT__24
10
0
20
0
30
0
70
128
71
9
72
12
73
13
0
VERTEX
8
OBJECT__24
10
0
20
0
30
0
70
128
71
14
72
2
73
15
0
VERTEX
8
OBJECT__24
10
0
20
0
30
0
70
128
71
7
72
12
73
8
0
VERTEX
8
OBJECT__24
10
0
20
0
30
0
70
128
71
16
72
17
73
18
0
VERTEX
8
OBJECT__24
10
0
20
0
30
0
70
128
71
13
72
10
73
9
0
VERTEX
8
OBJECT__24
10
0
20
0
30
0
70
128
71
1
72
15
73
2
0
VERTEX
8
OBJECT__24
10
0
20
0
30
0
70
128
71
17
72
19
73
20
0
VERTEX
8
OBJECT__24
10
0
20
0
30
0
70
128
71
11
72
16
73
9
0
VERTEX
8
OBJECT__24
10
0
20
0
30
0
70
128
71
15
72
21
73
14
0
VERTEX
8
OBJECT__24
10
0
20
0
30
0
70
128
71
18
72
9
73
16
0
VERTEX
8
OBJECT__24
10
0
20
0
30
0
70
128
71
14
72
22
73
2
0
VERTEX
8
OBJECT__24
10
0
20
0
30
0
70
128
71
9
72
23
73
24
0
VERTEX
8
OBJECT__24
10
0
20
0
30
0
70
128
71
23
72
25
73
26
0
VERTEX
8
OBJECT__24
10
0
20
0
30
0
70
128
71
7
72
13
73
12
0
VERTEX
8
OBJECT__24
10
0
20
0
30
0
70
128
71
14
72
27
73
28
0
VERTEX
8
OBJECT__24
10
0
20
0
30
0
70
128
71
26
72
24
73
23
0
VERTEX
8
OBJECT__24
10
0
20
0
30
0
70
128
71
25
72
23
73
29
0
VERTEX
8
OBJECT__24
10
0
20
0
30
0
70
128
71
28
72
22
73
14
0
VERTEX
8
OBJECT__24
10
0
20
0
30
0
70
128
71
29
72
30
73
25
0
VERTEX
8
OBJECT__24
10
0
20
0
30
0
70
128
71
30
72
31
73
32
0
VERTEX
8
OBJECT__24
10
0
20
0
30
0
70
128
71
33
72
32
73
34
0
VERTEX
8
OBJECT__24
10
0
20
0
30
0
70
128
71
35
72
33
73
36
0
VERTEX
8
OBJECT__24
10
0
20
0
30
0
70
128
71
14
72
21
73
37
0
VERTEX
8
OBJECT__24
10
0
20
0
30
0
70
128
71
24
72
12
73
9
0
VERTEX
8
OBJECT__24
10
0
20
0
30
0
70
128
71
30
72
29
73
31
0
VERTEX
8
OBJECT__24
10
0
20
0
30
0
70
128
71
38
72
19
73
39
0
VERTEX
8
OBJECT__24
10
0
20
0
30
0
70
128
71
40
72
41
73
42
0
VERTEX
8
OBJECT__24
10
0
20
0
30
0
70
128
71
34
72
43
73
33
0
VERTEX
8
OBJECT__24
10
0
20
0
30
0
70
128
71
37
72
35
73
14
0
VERTEX
8
OBJECT__24
10
0
20
0
30
0
70
128
71
32
72
33
73
30
0
VERTEX
8
OBJECT__24
10
0
20
0
30
0
70
128
71
39
72
44
73
38
0
VERTEX
8
OBJECT__24
10
0
20
0
30
0
70
128
71
42
72
45
73
40
0
VERTEX
8
OBJECT__24
10
0
20
0
30
0
70
128
71
9
72
18
73
46
0
VERTEX
8
OBJECT__24
10
0
20
0
30
0
70
128
71
36
72
14
73
35
0
VERTEX
8
OBJECT__24
10
0
20
0
30
0
70
128
71
47
72
34
73
32
0
VERTEX
8
OBJECT__24
10
0
20
0
30
0
70
128
71
19
72
17
73
39
0
VERTEX
8
OBJECT__24
10
0
20
0
30
0
70
128
71
17
72
48
73
49
0
VERTEX
8
OBJECT__24
10
0
20
0
30
0
70
128
71
27
72
50
73
51
0
VERTEX
8
OBJECT__24
10
0
20
0
30
0
70
128
71
50
72
27
73
48
0
VERTEX
8
OBJECT__24
10
0
20
0
30
0
70
128
71
27
72
52
73
53
0
VERTEX
8
OBJECT__24
10
0
20
0
30
0
70
128
71
27
72
54
73
55
0
VERTEX
8
OBJECT__24
10
0
20
0
30
0
70
128
71
56
72
57
73
58
0
VERTEX
8
OBJECT__24
10
0
20
0
30
0
70
128
71
46
72
41
73
9
0
VERTEX
8
OBJECT__24
10
0
20
0
30
0
70
128
71
59
72
46
73
18
0
VERTEX
8
OBJECT__24
10
0
20
0
30
0
70
128
71
32
72
60
73
47
0
VERTEX
8
OBJECT__24
10
0
20
0
30
0
70
128
71
49
72
39
73
17
0
VERTEX
8
OBJECT__24
10
0
20
0
30
0
70
128
71
48
72
61
73
50
0
VERTEX
8
OBJECT__24
10
0
20
0
30
0
70
128
71
62
72
63
73
48
0
VERTEX
8
OBJECT__24
10
0
20
0
30
0
70
128
71
55
72
52
73
27
0
VERTEX
8
OBJECT__24
10
0
20
0
30
0
70
128
71
58
72
64
73
56
0
VERTEX
8
OBJECT__24
10
0
20
0
30
0
70
128
71
14
72
36
73
65
0
VERTEX
8
OBJECT__24
10
0
20
0
30
0
70
128
71
18
72
66
73
59
0
VERTEX
8
OBJECT__24
10
0
20
0
30
0
70
128
71
20
72
18
73
17
0
VERTEX
8
OBJECT__24
10
0
20
0
30
0
70
128
71
48
72
17
73
61
0
VERTEX
8
OBJECT__24
10
0
20
0
30
0
70
128
71
53
72
48
73
27
0
VERTEX
8
OBJECT__24
10
0
20
0
30
0
70
128
71
65
72
57
73
14
0
VERTEX
8
OBJECT__24
10
0
20
0
30
0
70
128
71
67
72
65
73
36
0
VERTEX
8
OBJECT__24
10
0
20
0
30
0
70
128
71
43
72
36
73
33
0
VERTEX
8
OBJECT__24
10
0
20
0
30
0
70
128
71
48
72
53
73
62
0
VERTEX
8
OBJECT__24
10
0
20
0
30
0
70
128
71
23
72
68
73
69
0
VERTEX
8
OBJECT__24
10
0
20
0
30
0
70
128
71
23
72
70
73
71
0
VERTEX
8
OBJECT__24
10
0
20
0
30
0
70
128
71
36
72
72
73
67
0
VERTEX
8
OBJECT__24
10
0
20
0
30
0
70
128
71
51
72
28
73
27
0
VERTEX
8
OBJECT__24
10
0
20
0
30
0
70
128
71
73
72
74
73
29
0
VERTEX
8
OBJECT__24
10
0
20
0
30
0
70
128
71
71
72
68
73
23
0
VERTEX
8
OBJECT__24
10
0
20
0
30
0
70
128
71
40
72
9
73
41
0
VERTEX
8
OBJECT__24
10
0
20
0
30
0
70
128
71
69
72
29
73
23
0
VERTEX
8
OBJECT__24
10
0
20
0
30
0
70
128
71
29
72
69
73
73
0
VERTEX
8
OBJECT__24
10
0
20
0
30
0
70
128
71
56
72
14
73
57
0
SEQEND
8
OBJECT__24
0
POLYLINE
8
OBJECT__26
66
1
70
64
71
27
72
28
62
253
0
VERTEX
8
OBJECT__26
10
9.331000
20
-2.667000
30
-77.484001
70
192
0
VERTEX
8
OBJECT__26
10
9.630000
20
-0.822000
30
-86.264999
70
192
0
VERTEX
8
OBJECT__26
10
9.527000
20
-1.986000
30
-82.087997
70
192
0
VERTEX
8
OBJECT__26
10
9.617000
20
-2.157000
30
-85.867996
70
192
0
VERTEX
8
OBJECT__26
10
9.584000
20
-3.485000
30
-84.905998
70
192
0
VERTEX
8
OBJECT__26
10
9.538000
20
-4.420000
30
-83.558998
70
192
0
VERTEX
8
OBJECT__26
10
9.484000
20
-4.855000
30
-81.978996
70
192
0
VERTEX
8
OBJECT__26
10
9.428000
20
-4.743000
30
-80.343002
70
192
0
VERTEX
8
OBJECT__26
10
9.377000
20
-4.096000
30
-78.836998
70
192
0
VERTEX
8
OBJECT__26
10
9.350000
20
-3.452000
30
-78.041000
70
192
0
VERTEX
8
OBJECT__26
10
9.516000
20
0.190000
30
-81.530998
70
192
0
VERTEX
8
OBJECT__26
10
9.305000
20
1.092000
30
-76.734001
70
192
0
VERTEX
8
OBJECT__26
10
9.327000
20
2.605000
30
-77.363998
70
192
0
VERTEX
8
OBJECT__26
10
9.302000
20
-0.543000
30
-76.640999
70
192
0
VERTEX
8
OBJECT__26
10
9.318000
20
-2.117000
30
-77.093002
70
192
0
VERTEX
8
OBJECT__26
10
9.328000
20
2.648000
30
-77.402000
70
192
0
VERTEX
8
OBJECT__26
10
9.630000
20
0.797000
30
-86.267998
70
192
0
VERTEX
8
OBJECT__26
10
9.632000
20
-0.587000
30
-86.334999
70
192
0
VERTEX
8
OBJECT__26
10
9.609000
20
2.567000
30
-85.640999
70
192
0
VERTEX
8
OBJECT__26
10
9.630000
20
1.049000
30
-86.255997
70
192
0
VERTEX
8
OBJECT__26
10
9.470000
20
3.869000
30
-81.051003
70
192
0
VERTEX
8
OBJECT__26
10
9.572000
20
3.787000
30
-84.568001
70
192
0
VERTEX
8
OBJECT__26
10
9.364000
20
3.825000
30
-78.459999
70
192
0
VERTEX
8
OBJECT__26
10
9.413000
20
4.613000
30
-79.898003
70
192
0
VERTEX
8
OBJECT__26
10
9.468000
20
4.880000
30
-81.514999
70
192
0
VERTEX
8
OBJECT__26
10
9.523000
20
4.596000
30
-83.128998
70
192
0
VERTEX
8
OBJECT__26
10
9.572000
20
3.795000
30
-84.557999
70
192
0
VERTEX
8
OBJECT__26
10
0
20
0
30
0
70
128
71
1
72
2
73
3
0
VERTEX
8
OBJECT__26
10
0
20
0
30
0
70
128
71
3
72
2
73
4
0
VERTEX
8
OBJECT__26
10
0
20
0
30
0
70
128
71
4
72
5
73
3
0
VERTEX
8
OBJECT__26
10
0
20
0
30
0
70
128
71
3
72
6
73
7
0
VERTEX
8
OBJECT__26
10
0
20
0
30
0
70
128
71
7
72
8
73
3
0
VERTEX
8
OBJECT__26
10
0
20
0
30
0
70
128
71
8
72
9
73
3
0
VERTEX
8
OBJECT__26
10
0
20
0
30
0
70
128
71
9
72
10
73
3
0
VERTEX
8
OBJECT__26
10
0
20
0
30
0
70
128
71
5
72
6
73
3
0
VERTEX
8
OBJECT__26
10
0
20
0
30
0
70
128
71
11
72
12
73
13
0
VERTEX
8
OBJECT__26
10
0
20
0
30
0
70
128
71
11
72
14
73
12
0
VERTEX
8
OBJECT__26
10
0
20
0
30
0
70
128
71
11
72
15
73
14
0
VERTEX
8
OBJECT__26
10
0
20
0
30
0
70
128
71
16
72
17
73
11
0
VERTEX
8
OBJECT__26
10
0
20
0
30
0
70
128
71
2
72
1
73
11
0
VERTEX
8
OBJECT__26
10
0
20
0
30
0
70
128
71
1
72
15
73
11
0
VERTEX
8
OBJECT__26
10
0
20
0
30
0
70
128
71
11
72
17
73
18
0
VERTEX
8
OBJECT__26
10
0
20
0
30
0
70
128
71
11
72
18
73
2
0
VERTEX
8
OBJECT__26
10
0
20
0
30
0
70
128
71
16
72
19
73
20
0
VERTEX
8
OBJECT__26
10
0
20
0
30
0
70
128
71
19
72
16
73
21
0
VERTEX
8
OBJECT__26
10
0
20
0
30
0
70
128
71
21
72
22
73
19
0
VERTEX
8
OBJECT__26
10
0
20
0
30
0
70
128
71
21
72
16
73
23
0
VERTEX
8
OBJECT__26
10
0
20
0
30
0
70
128
71
23
72
24
73
21
0
VERTEX
8
OBJECT__26
10
0
20
0
30
0
70
128
71
21
72
25
73
26
0
VERTEX
8
OBJECT__26
10
0
20
0
30
0
70
128
71
26
72
27
73
21
0
VERTEX
8
OBJECT__26
10
0
20
0
30
0
70
128
71
27
72
22
73
21
0
VERTEX
8
OBJECT__26
10
0
20
0
30
0
70
128
71
24
72
25
73
21
0
VERTEX
8
OBJECT__26
10
0
20
0
30
0
70
128
71
20
72
17
73
16
0
VERTEX
8
OBJECT__26
10
0
20
0
30
0
70
128
71
13
72
16
73
11
0
VERTEX
8
OBJECT__26
10
0
20
0
30
0
70
128
71
3
72
10
73
1
0
SEQEND
8
OBJECT__26
0
POLYLINE
8
OBJECT__27
66
1
70
64
71
44
72
44
62
253
0
VERTEX
8
OBJECT__27
10
9.376000
20
3.948000
30
-84.688004
70
192
0
VERTEX
8
OBJECT__27
10
9.572000
20
3.795000
30
-84.557999
70
192
0
VERTEX
8
OBJECT__27
10
9.523000
20
4.596000
30
-83.128998
70
192
0
VERTEX
8
OBJECT__27
10
9.327000
20
4.781000
30
-83.202003
70
192
0
VERTEX
8
OBJECT__27
10
9.468000
20
4.880000
30
-81.514999
70
192
0
VERTEX
8
OBJECT__27
10
9.272000
20
5.076000
30
-81.523003
70
192
0
VERTEX
8
OBJECT__27
10
9.413000
20
4.613000
30
-79.898003
70
192
0
VERTEX
8
OBJECT__27
10
9.217000
20
4.798000
30
-79.839996
70
192
0
VERTEX
8
OBJECT__27
10
9.364000
20
3.825000
30
-78.459999
70
192
0
VERTEX
8
OBJECT__27
10
9.168000
20
3.978000
30
-78.345001
70
192
0
VERTEX
8
OBJECT__27
10
9.328000
20
2.648000
30
-77.402000
70
192
0
VERTEX
8
OBJECT__27
10
9.131000
20
2.710000
30
-77.205002
70
192
0
VERTEX
8
OBJECT__27
10
9.327000
20
2.605000
30
-77.363998
70
192
0
VERTEX
8
OBJECT__27
10
9.305000
20
1.092000
30
-76.734001
70
192
0
VERTEX
8
OBJECT__27
10
9.109000
20
1.136000
30
-76.550003
70
192
0
VERTEX
8
OBJECT__27
10
9.302000
20
-0.543000
30
-76.640999
70
192
0
VERTEX
8
OBJECT__27
10
9.121000
20
-2.202000
30
-76.924004
70
192
0
VERTEX
8
OBJECT__27
10
9.106000
20
-0.565000
30
-76.453003
70
192
0
VERTEX
8
OBJECT__27
10
9.154000
20
-3.591000
30
-77.908997
70
192
0
VERTEX
8
OBJECT__27
10
9.331000
20
-2.667000
30
-77.484001
70
192
0
VERTEX
8
OBJECT__27
10
9.318000
20
-2.117000
30
-77.093002
70
192
0
VERTEX
8
OBJECT__27
10
9.181000
20
-4.260000
30
-78.737999
70
192
0
VERTEX
8
OBJECT__27
10
9.350000
20
-3.452000
30
-78.041000
70
192
0
VERTEX
8
OBJECT__27
10
9.232000
20
-4.934000
30
-80.304001
70
192
0
VERTEX
8
OBJECT__27
10
9.377000
20
-4.096000
30
-78.836998
70
192
0
VERTEX
8
OBJECT__27
10
9.288000
20
-5.050000
30
-82.004997
70
192
0
VERTEX
8
OBJECT__27
10
9.428000
20
-4.743000
30
-80.343002
70
192
0
VERTEX
8
OBJECT__27
10
9.342000
20
-4.597000
30
-83.649002
70
192
0
VERTEX
8
OBJECT__27
10
9.484000
20
-4.855000
30
-81.978996
70
192
0
VERTEX
8
OBJECT__27
10
9.387000
20
-3.625000
30
-85.050003
70
192
0
VERTEX
8
OBJECT__27
10
9.538000
20
-4.420000
30
-83.558998
70
192
0
VERTEX
8
OBJECT__27
10
9.420000
20
-2.244000
30
-86.050003
70
192
0
VERTEX
8
OBJECT__27
10
9.584000
20
-3.485000
30
-84.905998
70
192
0
VERTEX
8
OBJECT__27
10
9.617000
20
-2.157000
30
-85.867996
70
192
0
VERTEX
8
OBJECT__27
10
9.630000
20
-0.822000
30
-86.264999
70
192
0
VERTEX
8
OBJECT__27
10
9.436000
20
-0.610000
30
-86.536003
70
192
0
VERTEX
8
OBJECT__27
10
9.632000
20
-0.587000
30
-86.334999
70
192
0
VERTEX
8
OBJECT__27
10
9.630000
20
0.797000
30
-86.267998
70
192
0
VERTEX
8
OBJECT__27
10
9.433000
20
1.091000
30
-86.454002
70
192
0
VERTEX
8
OBJECT__27
10
9.630000
20
1.049000
30
-86.255997
70
192
0
VERTEX
8
OBJECT__27
10
9.609000
20
2.567000
30
-85.640999
70
192
0
VERTEX
8
OBJECT__27
10
9.376000
20
3.939000
30
-84.698997
70
192
0
VERTEX
8
OBJECT__27
10
9.572000
20
3.787000
30
-84.568001
70
192
0
VERTEX
8
OBJECT__27
10
9.412000
20
2.670000
30
-85.814003
70
192
0
VERTEX
8
OBJECT__27
10
0
20
0
30
0
70
128
71
1
72
2
73
3
0
VERTEX
8
OBJECT__27
10
0
20
0
30
0
70
128
71
4
72
3
73
5
0
VERTEX
8
OBJECT__27
10
0
20
0
30
0
70
128
71
6
72
5
73
7
0
VERTEX
8
OBJECT__27
10
0
20
0
30
0
70
128
71
8
72
7
73
9
0
VERTEX
8
OBJECT__27
10
0
20
0
30
0
70
128
71
10
72
9
73
11
0
VERTEX
8
OBJECT__27
10
0
20
0
30
0
70
128
71
11
72
12
73
10
0
VERTEX
8
OBJECT__27
10
0
20
0
30
0
70
128
71
12
72
13
73
14
0
VERTEX
8
OBJECT__27
10
0
20
0
30
0
70
128
71
15
72
14
73
16
0
VERTEX
8
OBJECT__27
10
0
20
0
30
0
70
128
71
17
72
18
73
16
0
VERTEX
8
OBJECT__27
10
0
20
0
30
0
70
128
71
19
72
17
73
20
0
VERTEX
8
OBJECT__27
10
0
20
0
30
0
70
128
71
17
72
21
73
20
0
VERTEX
8
OBJECT__27
10
0
20
0
30
0
70
128
71
22
72
19
73
23
0
VERTEX
8
OBJECT__27
10
0
20
0
30
0
70
128
71
24
72
22
73
25
0
VERTEX
8
OBJECT__27
10
0
20
0
30
0
70
128
71
26
72
24
73
27
0
VERTEX
8
OBJECT__27
10
0
20
0
30
0
70
128
71
28
72
26
73
29
0
VERTEX
8
OBJECT__27
10
0
20
0
30
0
70
128
71
30
72
28
73
31
0
VERTEX
8
OBJECT__27
10
0
20
0
30
0
70
128
71
32
72
30
73
33
0
VERTEX
8
OBJECT__27
10
0
20
0
30
0
70
128
71
32
72
34
73
35
0
VERTEX
8
OBJECT__27
10
0
20
0
30
0
70
128
71
35
72
36
73
32
0
VERTEX
8
OBJECT__27
10
0
20
0
30
0
70
128
71
36
72
37
73
38
0
VERTEX
8
OBJECT__27
10
0
20
0
30
0
70
128
71
38
72
39
73
36
0
VERTEX
8
OBJECT__27
10
0
20
0
30
0
70
128
71
39
72
40
73
41
0
VERTEX
8
OBJECT__27
10
0
20
0
30
0
70
128
71
1
72
42
73
43
0
VERTEX
8
OBJECT__27
10
0
20
0
30
0
70
128
71
44
72
41
73
43
0
VERTEX
8
OBJECT__27
10
0
20
0
30
0
70
128
71
43
72
42
73
44
0
VERTEX
8
OBJECT__27
10
0
20
0
30
0
70
128
71
43
72
2
73
1
0
VERTEX
8
OBJECT__27
10
0
20
0
30
0
70
128
71
41
72
44
73
39
0
VERTEX
8
OBJECT__27
10
0
20
0
30
0
70
128
71
38
72
40
73
39
0
VERTEX
8
OBJECT__27
10
0
20
0
30
0
70
128
71
35
72
37
73
36
0
VERTEX
8
OBJECT__27
10
0
20
0
30
0
70
128
71
33
72
34
73
32
0
VERTEX
8
OBJECT__27
10
0
20
0
30
0
70
128
71
31
72
33
73
30
0
VERTEX
8
OBJECT__27
10
0
20
0
30
0
70
128
71
29
72
31
73
28
0
VERTEX
8
OBJECT__27
10
0
20
0
30
0
70
128
71
27
72
29
73
26
0
VERTEX
8
OBJECT__27
10
0
20
0
30
0
70
128
71
25
72
27
73
24
0
VERTEX
8
OBJECT__27
10
0
20
0
30
0
70
128
71
23
72
25
73
22
0
VERTEX
8
OBJECT__27
10
0
20
0
30
0
70
128
71
20
72
23
73
19
0
VERTEX
8
OBJECT__27
10
0
20
0
30
0
70
128
71
16
72
21
73
17
0
VERTEX
8
OBJECT__27
10
0
20
0
30
0
70
128
71
16
72
18
73
15
0
VERTEX
8
OBJECT__27
10
0
20
0
30
0
70
128
71
14
72
15
73
12
0
VERTEX
8
OBJECT__27
10
0
20
0
30
0
70
128
71
11
72
13
73
12
0
VERTEX
8
OBJECT__27
10
0
20
0
30
0
70
128
71
9
72
10
73
8
0
VERTEX
8
OBJECT__27
10
0
20
0
30
0
70
128
71
7
72
8
73
6
0
VERTEX
8
OBJECT__27
10
0
20
0
30
0
70
128
71
5
72
6
73
4
0
VERTEX
8
OBJECT__27
10
0
20
0
30
0
70
128
71
3
72
4
73
1
0
SEQEND
8
OBJECT__27
0
POLYLINE
8
OBJECT__29
66
1
70
64
71
44
72
44
62
253
0
VERTEX
8
OBJECT__29
10
9.376000
20
3.948000
30
-84.688004
70
192
0
VERTEX
8
OBJECT__29
10
9.327000
20
4.781000
30
-83.202003
70
192
0
VERTEX
8
OBJECT__29
10
9.523000
20
4.596000
30
-83.128998
70
192
0
VERTEX
8
OBJECT__29
10
9.272000
20
5.076000
30
-81.523003
70
192
0
VERTEX
8
OBJECT__29
10
9.468000
20
4.880000
30
-81.514999
70
192
0
VERTEX
8
OBJECT__29
10
9.217000
20
4.798000
30
-79.839996
70
192
0
VERTEX
8
OBJECT__29
10
9.413000
20
4.613000
30
-79.898003
70
192
0
VERTEX
8
OBJECT__29
10
9.168000
20
3.978000
30
-78.345001
70
192
0
VERTEX
8
OBJECT__29
10
9.364000
20
3.825000
30
-78.459999
70
192
0
VERTEX
8
OBJECT__29
10
9.131000
20
2.710000
30
-77.205002
70
192
0
VERTEX
8
OBJECT__29
10
9.328000
20
2.648000
30
-77.402000
70
192
0
VERTEX
8
OBJECT__29
10
9.327000
20
2.605000
30
-77.363998
70
192
0
VERTEX
8
OBJECT__29
10
9.109000
20
1.136000
30
-76.550003
70
192
0
VERTEX
8
OBJECT__29
10
9.305000
20
1.092000
30
-76.734001
70
192
0
VERTEX
8
OBJECT__29
10
9.106000
20
-0.565000
30
-76.453003
70
192
0
VERTEX
8
OBJECT__29
10
9.302000
20
-0.543000
30
-76.640999
70
192
0
VERTEX
8
OBJECT__29
10
9.121000
20
-2.202000
30
-76.924004
70
192
0
VERTEX
8
OBJECT__29
10
9.318000
20
-2.117000
30
-77.093002
70
192
0
VERTEX
8
OBJECT__29
10
9.154000
20
-3.591000
30
-77.908997
70
192
0
VERTEX
8
OBJECT__29
10
9.350000
20
-3.452000
30
-78.041000
70
192
0
VERTEX
8
OBJECT__29
10
9.331000
20
-2.667000
30
-77.484001
70
192
0
VERTEX
8
OBJECT__29
10
9.181000
20
-4.260000
30
-78.737999
70
192
0
VERTEX
8
OBJECT__29
10
9.377000
20
-4.096000
30
-78.836998
70
192
0
VERTEX
8
OBJECT__29
10
9.232000
20
-4.934000
30
-80.304001
70
192
0
VERTEX
8
OBJECT__29
10
9.428000
20
-4.743000
30
-80.343002
70
192
0
VERTEX
8
OBJECT__29
10
9.288000
20
-5.050000
30
-82.004997
70
192
0
VERTEX
8
OBJECT__29
10
9.484000
20
-4.855000
30
-81.978996
70
192
0
VERTEX
8
OBJECT__29
10
9.342000
20
-4.597000
30
-83.649002
70
192
0
VERTEX
8
OBJECT__29
10
9.538000
20
-4.420000
30
-83.558998
70
192
0
VERTEX
8
OBJECT__29
10
9.387000
20
-3.625000
30
-85.050003
70
192
0
VERTEX
8
OBJECT__29
10
9.584000
20
-3.485000
30
-84.905998
70
192
0
VERTEX
8
OBJECT__29
10
9.420000
20
-2.244000
30
-86.050003
70
192
0
VERTEX
8
OBJECT__29
10
9.617000
20
-2.157000
30
-85.867996
70
192
0
VERTEX
8
OBJECT__29
10
9.436000
20
-0.610000
30
-86.536003
70
192
0
VERTEX
8
OBJECT__29
10
9.630000
20
-0.822000
30
-86.264999
70
192
0
VERTEX
8
OBJECT__29
10
9.632000
20
-0.587000
30
-86.334999
70
192
0
VERTEX
8
OBJECT__29
10
9.433000
20
1.091000
30
-86.454002
70
192
0
VERTEX
8
OBJECT__29
10
9.630000
20
0.797000
30
-86.267998
70
192
0
VERTEX
8
OBJECT__29
10
9.630000
20
1.049000
30
-86.255997
70
192
0
VERTEX
8
OBJECT__29
10
9.412000
20
2.670000
30
-85.814003
70
192
0
VERTEX
8
OBJECT__29
10
9.609000
20
2.567000
30
-85.640999
70
192
0
VERTEX
8
OBJECT__29
10
9.376000
20
3.939000
30
-84.698997
70
192
0
VERTEX
8
OBJECT__29
10
9.572000
20
3.787000
30
-84.568001
70
192
0
VERTEX
8
OBJECT__29
10
9.572000
20
3.795000
30
-84.557999
70
192
0
VERTEX
8
OBJECT__29
10
0
20
0
30
0
70
128
71
1
72
2
73
3
0
VERTEX
8
OBJECT__29
10
0
20
0
30
0
70
128
71
2
72
4
73
5
0
VERTEX
8
OBJECT__29
10
0
20
0
30
0
70
128
71
4
72
6
73
7
0
VERTEX
8
OBJECT__29
10
0
20
0
30
0
70
128
71
6
72
8
73
9
0
VERTEX
8
OBJECT__29
10
0
20
0
30
0
70
128
71
8
72
10
73
11
0
VERTEX
8
OBJECT__29
10
0
20
0
30
0
70
128
71
10
72
12
73
11
0
VERTEX
8
OBJECT__29
10
0
20
0
30
0
70
128
71
10
72
13
73
14
0
VERTEX
8
OBJECT__29
10
0
20
0
30
0
70
128
71
13
72
15
73
16
0
VERTEX
8
OBJECT__29
10
0
20
0
30
0
70
128
71
17
72
18
73
16
0
VERTEX
8
OBJECT__29
10
0
20
0
30
0
70
128
71
19
72
20
73
21
0
VERTEX
8
OBJECT__29
10
0
20
0
30
0
70
128
71
21
72
17
73
19
0
VERTEX
8
OBJECT__29
10
0
20
0
30
0
70
128
71
22
72
23
73
20
0
VERTEX
8
OBJECT__29
10
0
20
0
30
0
70
128
71
24
72
25
73
23
0
VERTEX
8
OBJECT__29
10
0
20
0
30
0
70
128
71
26
72
27
73
25
0
VERTEX
8
OBJECT__29
10
0
20
0
30
0
70
128
71
28
72
29
73
27
0
VERTEX
8
OBJECT__29
10
0
20
0
30
0
70
128
71
30
72
31
73
29
0
VERTEX
8
OBJECT__29
10
0
20
0
30
0
70
128
71
32
72
33
73
31
0
VERTEX
8
OBJECT__29
10
0
20
0
30
0
70
128
71
32
72
34
73
35
0
VERTEX
8
OBJECT__29
10
0
20
0
30
0
70
128
71
34
72
36
73
35
0
VERTEX
8
OBJECT__29
10
0
20
0
30
0
70
128
71
34
72
37
73
38
0
VERTEX
8
OBJECT__29
10
0
20
0
30
0
70
128
71
37
72
39
73
38
0
VERTEX
8
OBJECT__29
10
0
20
0
30
0
70
128
71
37
72
40
73
41
0
VERTEX
8
OBJECT__29
10
0
20
0
30
0
70
128
71
40
72
42
73
43
0
VERTEX
8
OBJECT__29
10
0
20
0
30
0
70
128
71
42
72
1
73
44
0
VERTEX
8
OBJECT__29
10
0
20
0
30
0
70
128
71
44
72
43
73
42
0
VERTEX
8
OBJECT__29
10
0
20
0
30
0
70
128
71
43
72
41
73
40
0
VERTEX
8
OBJECT__29
10
0
20
0
30
0
70
128
71
41
72
39
73
37
0
VERTEX
8
OBJECT__29
10
0
20
0
30
0
70
128
71
38
72
36
73
34
0
VERTEX
8
OBJECT__29
10
0
20
0
30
0
70
128
71
35
72
33
73
32
0
VERTEX
8
OBJECT__29
10
0
20
0
30
0
70
128
71
31
72
30
73
32
0
VERTEX
8
OBJECT__29
10
0
20
0
30
0
70
128
71
29
72
28
73
30
0
VERTEX
8
OBJECT__29
10
0
20
0
30
0
70
128
71
27
72
26
73
28
0
VERTEX
8
OBJECT__29
10
0
20
0
30
0
70
128
71
25
72
24
73
26
0
VERTEX
8
OBJECT__29
10
0
20
0
30
0
70
128
71
23
72
22
73
24
0
VERTEX
8
OBJECT__29
10
0
20
0
30
0
70
128
71
20
72
19
73
22
0
VERTEX
8
OBJECT__29
10
0
20
0
30
0
70
128
71
21
72
18
73
17
0
VERTEX
8
OBJECT__29
10
0
20
0
30
0
70
128
71
16
72
15
73
17
0
VERTEX
8
OBJECT__29
10
0
20
0
30
0
70
128
71
16
72
14
73
13
0
VERTEX
8
OBJECT__29
10
0
20
0
30
0
70
128
71
14
72
12
73
10
0
VERTEX
8
OBJECT__29
10
0
20
0
30
0
70
128
71
11
72
9
73
8
0
VERTEX
8
OBJECT__29
10
0
20
0
30
0
70
128
71
9
72
7
73
6
0
VERTEX
8
OBJECT__29
10
0
20
0
30
0
70
128
71
7
72
5
73
4
0
VERTEX
8
OBJECT__29
10
0
20
0
30
0
70
128
71
5
72
3
73
2
0
VERTEX
8
OBJECT__29
10
0
20
0
30
0
70
128
71
3
72
44
73
1
0
SEQEND
8
OBJECT__29
0
POLYLINE
8
OBJECT__30
66
1
70
64
71
27
72
28
62
253
0
VERTEX
8
OBJECT__30
10
9.527000
20
-1.986000
30
-82.087997
70
192
0
VERTEX
8
OBJECT__30
10
9.377000
20
-4.096000
30
-78.836998
70
192
0
VERTEX
8
OBJECT__30
10
9.428000
20
-4.743000
30
-80.343002
70
192
0
VERTEX
8
OBJECT__30
10
9.484000
20
-4.855000
30
-81.978996
70
192
0
VERTEX
8
OBJECT__30
10
9.350000
20
-3.452000
30
-78.041000
70
192
0
VERTEX
8
OBJECT__30
10
9.584000
20
-3.485000
30
-84.905998
70
192
0
VERTEX
8
OBJECT__30
10
9.617000
20
-2.157000
30
-85.867996
70
192
0
VERTEX
8
OBJECT__30
10
9.538000
20
-4.420000
30
-83.558998
70
192
0
VERTEX
8
OBJECT__30
10
9.630000
20
-0.822000
30
-86.264999
70
192
0
VERTEX
8
OBJECT__30
10
9.331000
20
-2.667000
30
-77.484001
70
192
0
VERTEX
8
OBJECT__30
10
9.632000
20
-0.587000
30
-86.334999
70
192
0
VERTEX
8
OBJECT__30
10
9.516000
20
0.190000
30
-81.530998
70
192
0
VERTEX
8
OBJECT__30
10
9.318000
20
-2.117000
30
-77.093002
70
192
0
VERTEX
8
OBJECT__30
10
9.328000
20
2.648000
30
-77.402000
70
192
0
VERTEX
8
OBJECT__30
10
9.327000
20
2.605000
30
-77.363998
70
192
0
VERTEX
8
OBJECT__30
10
9.305000
20
1.092000
30
-76.734001
70
192
0
VERTEX
8
OBJECT__30
10
9.302000
20
-0.543000
30
-76.640999
70
192
0
VERTEX
8
OBJECT__30
10
9.630000
20
0.797000
30
-86.267998
70
192
0
VERTEX
8
OBJECT__30
10
9.470000
20
3.869000
30
-81.051003
70
192
0
VERTEX
8
OBJECT__30
10
9.572000
20
3.795000
30
-84.557999
70
192
0
VERTEX
8
OBJECT__30
10
9.523000
20
4.596000
30
-83.128998
70
192
0
VERTEX
8
OBJECT__30
10
9.572000
20
3.787000
30
-84.568001
70
192
0
VERTEX
8
OBJECT__30
10
9.413000
20
4.613000
30
-79.898003
70
192
0
VERTEX
8
OBJECT__30
10
9.364000
20
3.825000
30
-78.459999
70
192
0
VERTEX
8
OBJECT__30
10
9.468000
20
4.880000
30
-81.514999
70
192
0
VERTEX
8
OBJECT__30
10
9.609000
20
2.567000
30
-85.640999
70
192
0
VERTEX
8
OBJECT__30
10
9.630000
20
1.049000
30
-86.255997
70
192
0
VERTEX
8
OBJECT__30
10
0
20
0
30
0
70
128
71
1
72
2
73
3
0
VERTEX
8
OBJECT__30
10
0
20
0
30
0
70
128
71
3
72
4
73
1
0
VERTEX
8
OBJECT__30
10
0
20
0
30
0
70
128
71
1
72
5
73
2
0
VERTEX
8
OBJECT__30
10
0
20
0
30
0
70
128
71
1
72
6
73
7
0
VERTEX
8
OBJECT__30
10
0
20
0
30
0
70
128
71
1
72
8
73
6
0
VERTEX
8
OBJECT__30
10
0
20
0
30
0
70
128
71
7
72
9
73
1
0
VERTEX
8
OBJECT__30
10
0
20
0
30
0
70
128
71
10
72
5
73
1
0
VERTEX
8
OBJECT__30
10
0
20
0
30
0
70
128
71
1
72
9
73
10
0
VERTEX
8
OBJECT__30
10
0
20
0
30
0
70
128
71
9
72
11
73
12
0
VERTEX
8
OBJECT__30
10
0
20
0
30
0
70
128
71
12
72
10
73
9
0
VERTEX
8
OBJECT__30
10
0
20
0
30
0
70
128
71
12
72
13
73
10
0
VERTEX
8
OBJECT__30
10
0
20
0
30
0
70
128
71
12
72
14
73
15
0
VERTEX
8
OBJECT__30
10
0
20
0
30
0
70
128
71
15
72
16
73
12
0
VERTEX
8
OBJECT__30
10
0
20
0
30
0
70
128
71
16
72
17
73
12
0
VERTEX
8
OBJECT__30
10
0
20
0
30
0
70
128
71
17
72
13
73
12
0
VERTEX
8
OBJECT__30
10
0
20
0
30
0
70
128
71
12
72
18
73
14
0
VERTEX
8
OBJECT__30
10
0
20
0
30
0
70
128
71
19
72
20
73
21
0
VERTEX
8
OBJECT__30
10
0
20
0
30
0
70
128
71
19
72
22
73
20
0
VERTEX
8
OBJECT__30
10
0
20
0
30
0
70
128
71
19
72
23
73
24
0
VERTEX
8
OBJECT__30
10
0
20
0
30
0
70
128
71
19
72
25
73
23
0
VERTEX
8
OBJECT__30
10
0
20
0
30
0
70
128
71
24
72
14
73
19
0
VERTEX
8
OBJECT__30
10
0
20
0
30
0
70
128
71
26
72
22
73
19
0
VERTEX
8
OBJECT__30
10
0
20
0
30
0
70
128
71
14
72
18
73
27
0
VERTEX
8
OBJECT__30
10
0
20
0
30
0
70
128
71
27
72
26
73
14
0
VERTEX
8
OBJECT__30
10
0
20
0
30
0
70
128
71
19
72
14
73
26
0
VERTEX
8
OBJECT__30
10
0
20
0
30
0
70
128
71
21
72
25
73
19
0
VERTEX
8
OBJECT__30
10
0
20
0
30
0
70
128
71
11
72
18
73
12
0
VERTEX
8
OBJECT__30
10
0
20
0
30
0
70
128
71
4
72
8
73
1
0
SEQEND
8
OBJECT__30
0
POLYLINE
8
OBJECT__31
66
1
70
64
71
26
72
24
62
253
0
VERTEX
8
OBJECT__31
10
8.600000
20
-25.792999
30
1.623000
70
192
0
VERTEX
8
OBJECT__31
10
8.600000
20
-6.427000
30
25.032000
70
192
0
VERTEX
8
OBJECT__31
10
8.600000
20
-12.450000
30
22.646999
70
192
0
VERTEX
8
OBJECT__31
10
8.600000
20
23.384001
30
-11.004000
70
192
0
VERTEX
8
OBJECT__31
10
8.600000
20
9.514000
30
-24.028999
70
192
0
VERTEX
8
OBJECT__31
10
8.600000
20
15.191000
30
-20.908001
70
192
0
VERTEX
8
OBJECT__31
10
8.600000
20
-3.239000
30
-25.639999
70
192
0
VERTEX
8
OBJECT__31
10
8.600000
20
3.239000
30
-25.639999
70
192
0
VERTEX
8
OBJECT__31
10
8.600000
20
-17.691000
30
18.839001
70
192
0
VERTEX
8
OBJECT__31
10
8.600000
20
-21.820999
30
13.848000
70
192
0
VERTEX
8
OBJECT__31
10
8.600000
20
-24.579000
30
7.986000
70
192
0
VERTEX
8
OBJECT__31
10
8.600000
20
0.000000
30
25.844000
70
192
0
VERTEX
8
OBJECT__31
10
8.600000
20
17.691000
30
18.839001
70
192
0
VERTEX
8
OBJECT__31
10
8.600000
20
12.450000
30
22.646999
70
192
0
VERTEX
8
OBJECT__31
10
8.600000
20
-15.191000
30
-20.908001
70
192
0
VERTEX
8
OBJECT__31
10
8.600000
20
-9.514000
30
-24.028999
70
192
0
VERTEX
8
OBJECT__31
10
8.600000
20
21.820999
30
13.848000
70
192
0
VERTEX
8
OBJECT__31
10
8.600000
20
25.792999
30
1.623000
70
192
0
VERTEX
8
OBJECT__31
10
8.600000
20
24.579000
30
7.986000
70
192
0
VERTEX
8
OBJECT__31
10
8.600000
20
25.386000
30
-4.843000
70
192
0
VERTEX
8
OBJECT__31
10
8.600000
20
-23.384001
30
-11.004000
70
192
0
VERTEX
8
OBJECT__31
10
8.600000
20
-19.913000
30
-16.473000
70
192
0
VERTEX
8
OBJECT__31
10
8.600000
20
-25.386000
30
-4.843000
70
192
0
VERTEX
8
OBJECT__31
10
8.600000
20
6.427000
30
25.032000
70
192
0
VERTEX
8
OBJECT__31
10
8.600000
20
19.913000
30
-16.473000
70
192
0
VERTEX
8
OBJECT__31
10
8.600000
20
25.844000
30
0.000000
70
192
0
VERTEX
8
OBJECT__31
10
0
20
0
30
0
70
128
71
1
72
2
73
3
0
VERTEX
8
OBJECT__31
10
0
20
0
30
0
70
128
71
4
72
5
73
6
0
VERTEX
8
OBJECT__31
10
0
20
0
30
0
70
128
71
4
72
7
73
8
0
VERTEX
8
OBJECT__31
10
0
20
0
30
0
70
128
71
9
72
10
73
11
0
VERTEX
8
OBJECT__31
10
0
20
0
30
0
70
128
71
1
72
12
73
2
0
VERTEX
8
OBJECT__31
10
0
20
0
30
0
70
128
71
1
72
13
73
14
0
VERTEX
8
OBJECT__31
10
0
20
0
30
0
70
128
71
8
72
5
73
4
0
VERTEX
8
OBJECT__31
10
0
20
0
30
0
70
128
71
4
72
15
73
16
0
VERTEX
8
OBJECT__31
10
0
20
0
30
0
70
128
71
3
72
9
73
1
0
VERTEX
8
OBJECT__31
10
0
20
0
30
0
70
128
71
1
72
17
73
13
0
VERTEX
8
OBJECT__31
10
0
20
0
30
0
70
128
71
1
72
18
73
19
0
VERTEX
8
OBJECT__31
10
0
20
0
30
0
70
128
71
16
72
7
73
4
0
VERTEX
8
OBJECT__31
10
0
20
0
30
0
70
128
71
20
72
21
73
22
0
VERTEX
8
OBJECT__31
10
0
20
0
30
0
70
128
71
20
72
1
73
23
0
VERTEX
8
OBJECT__31
10
0
20
0
30
0
70
128
71
1
72
24
73
12
0
VERTEX
8
OBJECT__31
10
0
20
0
30
0
70
128
71
19
72
17
73
1
0
VERTEX
8
OBJECT__31
10
0
20
0
30
0
70
128
71
6
72
25
73
4
0
VERTEX
8
OBJECT__31
10
0
20
0
30
0
70
128
71
23
72
21
73
20
0
VERTEX
8
OBJECT__31
10
0
20
0
30
0
70
128
71
14
72
24
73
1
0
VERTEX
8
OBJECT__31
10
0
20
0
30
0
70
128
71
22
72
15
73
20
0
VERTEX
8
OBJECT__31
10
0
20
0
30
0
70
128
71
1
72
26
73
18
0
VERTEX
8
OBJECT__31
10
0
20
0
30
0
70
128
71
4
72
20
73
15
0
VERTEX
8
OBJECT__31
10
0
20
0
30
0
70
128
71
20
72
26
73
1
0
VERTEX
8
OBJECT__31
10
0
20
0
30
0
70
128
71
11
72
1
73
9
0
SEQEND
8
OBJECT__31
0
POLYLINE
8
OBJECT__32
66
1
70
64
71
69
72
69
62
253
0
VERTEX
8
OBJECT__32
10
6.805000
20
6.999000
30
39.616001
70
192
0
VERTEX
8
OBJECT__32
10
6.805000
20
0.000000
30
40.500000
70
192
0
VERTEX
8
OBJECT__32
10
8.600000
20
0.000000
30
25.844000
70
192
0
VERTEX
8
OBJECT__32
10
8.600000
20
6.427000
30
25.032000
70
192
0
VERTEX
8
OBJECT__32
10
6.805000
20
10.072000
30
39.228001
70
192
0
VERTEX
8
OBJECT__32
10
6.805000
20
19.511000
30
35.490002
70
192
0
VERTEX
8
OBJECT__32
10
6.805000
20
20.193001
30
34.994999
70
192
0
VERTEX
8
OBJECT__32
10
8.600000
20
12.450000
30
22.646999
70
192
0
VERTEX
8
OBJECT__32
10
8.600000
20
17.691000
30
18.839001
70
192
0
VERTEX
8
OBJECT__32
10
6.805000
20
27.724001
30
29.523001
70
192
0
VERTEX
8
OBJECT__32
10
8.600000
20
21.820999
30
13.848000
70
192
0
VERTEX
8
OBJECT__32
10
6.805000
20
34.195000
30
21.701000
70
192
0
VERTEX
8
OBJECT__32
10
6.805000
20
30.778999
30
25.830000
70
192
0
VERTEX
8
OBJECT__32
10
6.805000
20
37.918999
30
13.787000
70
192
0
VERTEX
8
OBJECT__32
10
8.600000
20
24.579000
30
7.986000
70
192
0
VERTEX
8
OBJECT__32
10
6.805000
20
38.518002
30
12.515000
70
192
0
VERTEX
8
OBJECT__32
10
6.805000
20
40.419998
30
2.543000
70
192
0
VERTEX
8
OBJECT__32
10
6.805000
20
39.783001
30
-7.589000
70
192
0
VERTEX
8
OBJECT__32
10
6.805000
20
40.500000
30
0.000000
70
192
0
VERTEX
8
OBJECT__32
10
8.600000
20
25.844000
30
0.000000
70
192
0
VERTEX
8
OBJECT__32
10
8.600000
20
25.792999
30
1.623000
70
192
0
VERTEX
8
OBJECT__32
10
6.805000
20
37.777000
30
-13.761000
70
192
0
VERTEX
8
OBJECT__32
10
8.600000
20
25.386000
30
-4.843000
70
192
0
VERTEX
8
OBJECT__32
10
8.600000
20
23.384001
30
-11.004000
70
192
0
VERTEX
8
OBJECT__32
10
6.805000
20
36.645000
30
-17.243999
70
192
0
VERTEX
8
OBJECT__32
10
8.600000
20
19.913000
30
-16.473000
70
192
0
VERTEX
8
OBJECT__32
10
6.805000
20
31.000999
30
-26.007999
70
192
0
VERTEX
8
OBJECT__32
10
8.600000
20
15.191000
30
-20.908001
70
192
0
VERTEX
8
OBJECT__32
10
6.805000
20
23.805000
30
-32.764999
70
192
0
VERTEX
8
OBJECT__32
10
8.600000
20
9.514000
30
-24.028999
70
192
0
VERTEX
8
OBJECT__32
10
6.805000
20
14.909000
30
-37.655998
70
192
0
VERTEX
8
OBJECT__32
10
6.805000
20
20.100000
30
-34.801998
70
192
0
VERTEX
8
OBJECT__32
10
6.805000
20
6.983000
30
-39.691002
70
192
0
VERTEX
8
OBJECT__32
10
8.600000
20
3.239000
30
-25.639999
70
192
0
VERTEX
8
OBJECT__32
10
6.805000
20
5.076000
30
-40.181000
70
192
0
VERTEX
8
OBJECT__32
10
8.600000
20
-3.239000
30
-25.639999
70
192
0
VERTEX
8
OBJECT__32
10
6.805000
20
-6.983000
30
-39.691002
70
192
0
VERTEX
8
OBJECT__32
10
8.600000
20
-9.514000
30
-24.028999
70
192
0
VERTEX
8
OBJECT__32
10
6.805000
20
-14.909000
30
-37.655998
70
192
0
VERTEX
8
OBJECT__32
10
8.600000
20
-15.191000
30
-20.908001
70
192
0
VERTEX
8
OBJECT__32
10
6.805000
20
-20.100000
30
-34.801998
70
192
0
VERTEX
8
OBJECT__32
10
6.805000
20
-23.805000
30
-32.764999
70
192
0
VERTEX
8
OBJECT__32
10
6.805000
20
-31.000999
30
-26.007999
70
192
0
VERTEX
8
OBJECT__32
10
8.600000
20
-19.913000
30
-16.473000
70
192
0
VERTEX
8
OBJECT__32
10
6.805000
20
-31.205999
30
-25.816000
70
192
0
VERTEX
8
OBJECT__32
10
6.805000
20
-36.645000
30
-17.243999
70
192
0
VERTEX
8
OBJECT__32
10
6.805000
20
-37.777000
30
-13.761000
70
192
0
VERTEX
8
OBJECT__32
10
8.600000
20
-23.384001
30
-11.004000
70
192
0
VERTEX
8
OBJECT__32
10
8.600000
20
-25.386000
30
-4.843000
70
192
0
VERTEX
8
OBJECT__32
10
6.805000
20
-39.783001
30
-7.589000
70
192
0
VERTEX
8
OBJECT__32
10
6.805000
20
-40.261002
30
0.015000
70
192
0
VERTEX
8
OBJECT__32
10
8.600000
20
-25.792999
30
1.623000
70
192
0
VERTEX
8
OBJECT__32
10
6.805000
20
-40.419998
30
2.543000
70
192
0
VERTEX
8
OBJECT__32
10
8.600000
20
-24.579000
30
7.986000
70
192
0
VERTEX
8
OBJECT__32
10
6.805000
20
-37.918999
30
13.787000
70
192
0
VERTEX
8
OBJECT__32
10
8.600000
20
-21.820999
30
13.848000
70
192
0
VERTEX
8
OBJECT__32
10
6.805000
20
-34.195000
30
21.701000
70
192
0
VERTEX
8
OBJECT__32
10
8.600000
20
-17.691000
30
18.839001
70
192
0
VERTEX
8
OBJECT__32
10
6.805000
20
-30.778999
30
25.830000
70
192
0
VERTEX
8
OBJECT__32
10
6.805000
20
-27.724001
30
29.523001
70
192
0
VERTEX
8
OBJECT__32
10
6.805000
20
-20.193001
30
34.994999
70
192
0
VERTEX
8
OBJECT__32
10
8.600000
20
-12.450000
30
22.646999
70
192
0
VERTEX
8
OBJECT__32
10
6.805000
20
-19.511000
30
35.490002
70
192
0
VERTEX
8
OBJECT__32
10
6.805000
20
-10.072000
30
39.228001
70
192
0
VERTEX
8
OBJECT__32
10
6.805000
20
-6.999000
30
39.616001
70
192
0
VERTEX
8
OBJECT__32
10
8.600000
20
-6.427000
30
25.032000
70
192
0
VERTEX
8
OBJECT__32
10
6.805000
20
-38.518002
30
12.515000
70
192
0
VERTEX
8
OBJECT__32
10
6.805000
20
-5.076000
30
-40.181000
70
192
0
VERTEX
8
OBJECT__32
10
6.805000
20
31.205999
30
-25.816000
70
192
0
VERTEX
8
OBJECT__32
10
0
20
0
30
0
70
128
71
1
72
2
73
3
0
VERTEX
8
OBJECT__32
10
0
20
0
30
0
70
128
71
4
72
5
73
1
0
VERTEX
8
OBJECT__32
10
0
20
0
30
0
70
128
71
6
72
5
73
4
0
VERTEX
8
OBJECT__32
10
0
20
0
30
0
70
128
71
7
72
8
73
9
0
VERTEX
8
OBJECT__32
10
0
20
0
30
0
70
128
71
9
72
10
73
7
0
VERTEX
8
OBJECT__32
10
0
20
0
30
0
70
128
71
11
72
12
73
13
0
VERTEX
8
OBJECT__32
10
0
20
0
30
0
70
128
71
13
72
9
73
11
0
VERTEX
8
OBJECT__32
10
0
20
0
30
0
70
128
71
14
72
12
73
11
0
VERTEX
8
OBJECT__32
10
0
20
0
30
0
70
128
71
15
72
16
73
14
0
VERTEX
8
OBJECT__32
10
0
20
0
30
0
70
128
71
17
72
16
73
15
0
VERTEX
8
OBJECT__32
10
0
20
0
30
0
70
128
71
18
72
19
73
20
0
VERTEX
8
OBJECT__32
10
0
20
0
30
0
70
128
71
17
72
21
73
20
0
VERTEX
8
OBJECT__32
10
0
20
0
30
0
70
128
71
20
72
19
73
17
0
VERTEX
8
OBJECT__32
10
0
20
0
30
0
70
128
71
22
72
18
73
23
0
VERTEX
8
OBJECT__32
10
0
20
0
30
0
70
128
71
24
72
25
73
22
0
VERTEX
8
OBJECT__32
10
0
20
0
30
0
70
128
71
25
72
24
73
26
0
VERTEX
8
OBJECT__32
10
0
20
0
30
0
70
128
71
27
72
26
73
28
0
VERTEX
8
OBJECT__32
10
0
20
0
30
0
70
128
71
28
72
29
73
27
0
VERTEX
8
OBJECT__32
10
0
20
0
30
0
70
128
71
30
72
31
73
32
0
VERTEX
8
OBJECT__32
10
0
20
0
30
0
70
128
71
32
72
28
73
30
0
VERTEX
8
OBJECT__32
10
0
20
0
30
0
70
128
71
33
72
31
73
30
0
VERTEX
8
OBJECT__32
10
0
20
0
30
0
70
128
71
34
72
35
73
33
0
VERTEX
8
OBJECT__32
10
0
20
0
30
0
70
128
71
35
72
34
73
36
0
VERTEX
8
OBJECT__32
10
0
20
0
30
0
70
128
71
37
72
36
73
38
0
VERTEX
8
OBJECT__32
10
0
20
0
30
0
70
128
71
38
72
39
73
37
0
VERTEX
8
OBJECT__32
10
0
20
0
30
0
70
128
71
38
72
40
73
41
0
VERTEX
8
OBJECT__32
10
0
20
0
30
0
70
128
71
40
72
42
73
41
0
VERTEX
8
OBJECT__32
10
0
20
0
30
0
70
128
71
43
72
42
73
40
0
VERTEX
8
OBJECT__32
10
0
20
0
30
0
70
128
71
44
72
45
73
43
0
VERTEX
8
OBJECT__32
10
0
20
0
30
0
70
128
71
46
72
45
73
44
0
VERTEX
8
OBJECT__32
10
0
20
0
30
0
70
128
71
47
72
48
73
49
0
VERTEX
8
OBJECT__32
10
0
20
0
30
0
70
128
71
49
72
50
73
47
0
VERTEX
8
OBJECT__32
10
0
20
0
30
0
70
128
71
51
72
50
73
49
0
VERTEX
8
OBJECT__32
10
0
20
0
30
0
70
128
71
52
72
53
73
51
0
VERTEX
8
OBJECT__32
10
0
20
0
30
0
70
128
71
53
72
52
73
54
0
VERTEX
8
OBJECT__32
10
0
20
0
30
0
70
128
71
55
72
54
73
56
0
VERTEX
8
OBJECT__32
10
0
20
0
30
0
70
128
71
56
72
57
73
55
0
VERTEX
8
OBJECT__32
10
0
20
0
30
0
70
128
71
56
72
58
73
59
0
VERTEX
8
OBJECT__32
10
0
20
0
30
0
70
128
71
58
72
60
73
59
0
VERTEX
8
OBJECT__32
10
0
20
0
30
0
70
128
71
61
72
60
73
58
0
VERTEX
8
OBJECT__32
10
0
20
0
30
0
70
128
71
62
72
63
73
61
0
VERTEX
8
OBJECT__32
10
0
20
0
30
0
70
128
71
64
72
63
73
62
0
VERTEX
8
OBJECT__32
10
0
20
0
30
0
70
128
71
65
72
66
73
3
0
VERTEX
8
OBJECT__32
10
0
20
0
30
0
70
128
71
3
72
2
73
65
0
VERTEX
8
OBJECT__32
10
0
20
0
30
0
70
128
71
65
72
64
73
66
0
VERTEX
8
OBJECT__32
10
0
20
0
30
0
70
128
71
62
72
66
73
64
0
VERTEX
8
OBJECT__32
10
0
20
0
30
0
70
128
71
58
72
62
73
61
0
VERTEX
8
OBJECT__32
10
0
20
0
30
0
70
128
71
59
72
57
73
56
0
VERTEX
8
OBJECT__32
10
0
20
0
30
0
70
128
71
55
72
67
73
54
0
VERTEX
8
OBJECT__32
10
0
20
0
30
0
70
128
71
54
72
67
73
53
0
VERTEX
8
OBJECT__32
10
0
20
0
30
0
70
128
71
49
72
52
73
51
0
VERTEX
8
OBJECT__32
10
0
20
0
30
0
70
128
71
47
72
46
73
48
0
VERTEX
8
OBJECT__32
10
0
20
0
30
0
70
128
71
44
72
48
73
46
0
VERTEX
8
OBJECT__32
10
0
20
0
30
0
70
128
71
40
72
44
73
43
0
VERTEX
8
OBJECT__32
10
0
20
0
30
0
70
128
71
41
72
39
73
38
0
VERTEX
8
OBJECT__32
10
0
20
0
30
0
70
128
71
37
72
68
73
36
0
VERTEX
8
OBJECT__32
10
0
20
0
30
0
70
128
71
36
72
68
73
35
0
VERTEX
8
OBJECT__32
10
0
20
0
30
0
70
128
71
30
72
34
73
33
0
VERTEX
8
OBJECT__32
10
0
20
0
30
0
70
128
71
32
72
29
73
28
0
VERTEX
8
OBJECT__32
10
0
20
0
30
0
70
128
71
27
72
69
73
26
0
VERTEX
8
OBJECT__32
10
0
20
0
30
0
70
128
71
26
72
69
73
25
0
VERTEX
8
OBJECT__32
10
0
20
0
30
0
70
128
71
23
72
24
73
22
0
VERTEX
8
OBJECT__32
10
0
20
0
30
0
70
128
71
20
72
23
73
18
0
VERTEX
8
OBJECT__32
10
0
20
0
30
0
70
128
71
15
72
21
73
17
0
VERTEX
8
OBJECT__32
10
0
20
0
30
0
70
128
71
11
72
15
73
14
0
VERTEX
8
OBJECT__32
10
0
20
0
30
0
70
128
71
13
72
10
73
9
0
VERTEX
8
OBJECT__32
10
0
20
0
30
0
70
128
71
7
72
6
73
8
0
VERTEX
8
OBJECT__32
10
0
20
0
30
0
70
128
71
4
72
8
73
6
0
VERTEX
8
OBJECT__32
10
0
20
0
30
0
70
128
71
3
72
4
73
1
0
SEQEND
8
OBJECT__32
0
POLYLINE
8
OBJECT__34
66
1
70
64
71
62
72
62
62
253
0
VERTEX
8
OBJECT__34
10
0.000000
20
40.500000
30
0.000000
70
192
0
VERTEX
8
OBJECT__34
10
6.805000
20
40.500000
30
0.000000
70
192
0
VERTEX
8
OBJECT__34
10
6.805000
20
39.783001
30
-7.589000
70
192
0
VERTEX
8
OBJECT__34
10
0.000000
20
38.057999
30
-13.852000
70
192
0
VERTEX
8
OBJECT__34
10
0.000000
20
31.025000
30
-26.033001
70
192
0
VERTEX
8
OBJECT__34
10
6.805000
20
36.645000
30
-17.243999
70
192
0
VERTEX
8
OBJECT__34
10
6.805000
20
31.205999
30
-25.816000
70
192
0
VERTEX
8
OBJECT__34
10
6.805000
20
37.777000
30
-13.761000
70
192
0
VERTEX
8
OBJECT__34
10
6.805000
20
31.000999
30
-26.007999
70
192
0
VERTEX
8
OBJECT__34
10
6.805000
20
23.805000
30
-32.764999
70
192
0
VERTEX
8
OBJECT__34
10
0.000000
20
20.250000
30
-35.074001
70
192
0
VERTEX
8
OBJECT__34
10
0.000000
20
7.033000
30
-39.884998
70
192
0
VERTEX
8
OBJECT__34
10
6.805000
20
14.909000
30
-37.655998
70
192
0
VERTEX
8
OBJECT__34
10
6.805000
20
20.100000
30
-34.801998
70
192
0
VERTEX
8
OBJECT__34
10
6.805000
20
5.076000
30
-40.181000
70
192
0
VERTEX
8
OBJECT__34
10
6.805000
20
-5.076000
30
-40.181000
70
192
0
VERTEX
8
OBJECT__34
10
0.000000
20
0.000000
30
-40.500000
70
192
0
VERTEX
8
OBJECT__34
10
0.000000
20
-7.033000
30
-39.884998
70
192
0
VERTEX
8
OBJECT__34
10
6.805000
20
6.983000
30
-39.691002
70
192
0
VERTEX
8
OBJECT__34
10
6.805000
20
-6.983000
30
-39.691002
70
192
0
VERTEX
8
OBJECT__34
10
6.805000
20
-14.909000
30
-37.655998
70
192
0
VERTEX
8
OBJECT__34
10
0.000000
20
-20.250000
30
-35.074001
70
192
0
VERTEX
8
OBJECT__34
10
0.000000
20
-31.025000
30
-26.033001
70
192
0
VERTEX
8
OBJECT__34
10
6.805000
20
-23.805000
30
-32.764999
70
192
0
VERTEX
8
OBJECT__34
10
6.805000
20
-20.100000
30
-34.801998
70
192
0
VERTEX
8
OBJECT__34
10
6.805000
20
-31.205999
30
-25.816000
70
192
0
VERTEX
8
OBJECT__34
10
6.805000
20
-36.645000
30
-17.243999
70
192
0
VERTEX
8
OBJECT__34
10
0.000000
20
-38.057999
30
-13.852000
70
192
0
VERTEX
8
OBJECT__34
10
6.805000
20
-31.000999
30
-26.007999
70
192
0
VERTEX
8
OBJECT__34
10
0.000000
20
-40.500000
30
0.000000
70
192
0
VERTEX
8
OBJECT__34
10
6.805000
20
-39.783001
30
-7.589000
70
192
0
VERTEX
8
OBJECT__34
10
6.805000
20
-37.777000
30
-13.761000
70
192
0
VERTEX
8
OBJECT__34
10
0.000000
20
-38.057999
30
13.852000
70
192
0
VERTEX
8
OBJECT__34
10
6.805000
20
-40.419998
30
2.543000
70
192
0
VERTEX
8
OBJECT__34
10
6.805000
20
-38.518002
30
12.515000
70
192
0
VERTEX
8
OBJECT__34
10
6.805000
20
-40.261002
30
0.015000
70
192
0
VERTEX
8
OBJECT__34
10
6.805000
20
-37.918999
30
13.787000
70
192
0
VERTEX
8
OBJECT__34
10
6.805000
20
-34.195000
30
21.701000
70
192
0
VERTEX
8
OBJECT__34
10
0.000000
20
-31.025000
30
26.033001
70
192
0
VERTEX
8
OBJECT__34
10
0.000000
20
-20.250000
30
35.074001
70
192
0
VERTEX
8
OBJECT__34
10
6.805000
20
-27.724001
30
29.523001
70
192
0
VERTEX
8
OBJECT__34
10
6.805000
20
-30.778999
30
25.830000
70
192
0
VERTEX
8
OBJECT__34
10
6.805000
20
-19.511000
30
35.490002
70
192
0
VERTEX
8
OBJECT__34
10
6.805000
20
-10.072000
30
39.228001
70
192
0
VERTEX
8
OBJECT__34
10
0.000000
20
-7.033000
30
39.884998
70
192
0
VERTEX
8
OBJECT__34
10
6.805000
20
-20.193001
30
34.994999
70
192
0
VERTEX
8
OBJECT__34
10
6.805000
20
-6.999000
30
39.616001
70
192
0
VERTEX
8
OBJECT__34
10
6.805000
20
0.000000
30
40.500000
70
192
0
VERTEX
8
OBJECT__34
10
0.000000
20
7.033000
30
39.884998
70
192
0
VERTEX
8
OBJECT__34
10
0.000000
20
20.250000
30
35.074001
70
192
0
VERTEX
8
OBJECT__34
10
6.805000
20
10.072000
30
39.228001
70
192
0
VERTEX
8
OBJECT__34
10
6.805000
20
19.511000
30
35.490002
70
192
0
VERTEX
8
OBJECT__34
10
6.805000
20
6.999000
30
39.616001
70
192
0
VERTEX
8
OBJECT__34
10
6.805000
20
20.193001
30
34.994999
70
192
0
VERTEX
8
OBJECT__34
10
6.805000
20
27.724001
30
29.523001
70
192
0
VERTEX
8
OBJECT__34
10
0.000000
20
31.025000
30
26.033001
70
192
0
VERTEX
8
OBJECT__34
10
0.000000
20
38.057999
30
13.852000
70
192
0
VERTEX
8
OBJECT__34
10
6.805000
20
34.195000
30
21.701000
70
192
0
VERTEX
8
OBJECT__34
10
6.805000
20
30.778999
30
25.830000
70
192
0
VERTEX
8
OBJECT__34
10
6.805000
20
38.518002
30
12.515000
70
192
0
VERTEX
8
OBJECT__34
10
6.805000
20
40.419998
30
2.543000
70
192
0
VERTEX
8
OBJECT__34
10
6.805000
20
37.918999
30
13.787000
70
192
0
VERTEX
8
OBJECT__34
10
0
20
0
30
0
70
128
71
1
72
2
73
3
0
VERTEX
8
OBJECT__34
10
0
20
0
30
0
70
128
71
3
72
4
73
1
0
VERTEX
8
OBJECT__34
10
0
20
0
30
0
70
128
71
5
72
4
73
6
0
VERTEX
8
OBJECT__34
10
0
20
0
30
0
70
128
71
6
72
7
73
5
0
VERTEX
8
OBJECT__34
10
0
20
0
30
0
70
128
71
4
72
8
73
6
0
VERTEX
8
OBJECT__34
10
0
20
0
30
0
70
128
71
5
72
9
73
10
0
VERTEX
8
OBJECT__34
10
0
20
0
30
0
70
128
71
10
72
11
73
5
0
VERTEX
8
OBJECT__34
10
0
20
0
30
0
70
128
71
12
72
11
73
13
0
VERTEX
8
OBJECT__34
10
0
20
0
30
0
70
128
71
11
72
14
73
13
0
VERTEX
8
OBJECT__34
10
0
20
0
30
0
70
128
71
15
72
16
73
17
0
VERTEX
8
OBJECT__34
10
0
20
0
30
0
70
128
71
16
72
18
73
17
0
VERTEX
8
OBJECT__34
10
0
20
0
30
0
70
128
71
17
72
12
73
15
0
VERTEX
8
OBJECT__34
10
0
20
0
30
0
70
128
71
12
72
19
73
15
0
VERTEX
8
OBJECT__34
10
0
20
0
30
0
70
128
71
18
72
20
73
21
0
VERTEX
8
OBJECT__34
10
0
20
0
30
0
70
128
71
21
72
22
73
18
0
VERTEX
8
OBJECT__34
10
0
20
0
30
0
70
128
71
23
72
22
73
24
0
VERTEX
8
OBJECT__34
10
0
20
0
30
0
70
128
71
22
72
25
73
24
0
VERTEX
8
OBJECT__34
10
0
20
0
30
0
70
128
71
23
72
26
73
27
0
VERTEX
8
OBJECT__34
10
0
20
0
30
0
70
128
71
27
72
28
73
23
0
VERTEX
8
OBJECT__34
10
0
20
0
30
0
70
128
71
23
72
29
73
26
0
VERTEX
8
OBJECT__34
10
0
20
0
30
0
70
128
71
30
72
28
73
31
0
VERTEX
8
OBJECT__34
10
0
20
0
30
0
70
128
71
28
72
32
73
31
0
VERTEX
8
OBJECT__34
10
0
20
0
30
0
70
128
71
33
72
30
73
34
0
VERTEX
8
OBJECT__34
10
0
20
0
30
0
70
128
71
34
72
35
73
33
0
VERTEX
8
OBJECT__34
10
0
20
0
30
0
70
128
71
30
72
36
73
34
0
VERTEX
8
OBJECT__34
10
0
20
0
30
0
70
128
71
33
72
37
73
38
0
VERTEX
8
OBJECT__34
10
0
20
0
30
0
70
128
71
38
72
39
73
33
0
VERTEX
8
OBJECT__34
10
0
20
0
30
0
70
128
71
40
72
39
73
41
0
VERTEX
8
OBJECT__34
10
0
20
0
30
0
70
128
71
39
72
42
73
41
0
VERTEX
8
OBJECT__34
10
0
20
0
30
0
70
128
71
40
72
43
73
44
0
VERTEX
8
OBJECT__34
10
0
20
0
30
0
70
128
71
44
72
45
73
40
0
VERTEX
8
OBJECT__34
10
0
20
0
30
0
70
128
71
40
72
46
73
43
0
VERTEX
8
OBJECT__34
10
0
20
0
30
0
70
128
71
45
72
47
73
48
0
VERTEX
8
OBJECT__34
10
0
20
0
30
0
70
128
71
48
72
49
73
45
0
VERTEX
8
OBJECT__34
10
0
20
0
30
0
70
128
71
50
72
49
73
51
0
VERTEX
8
OBJECT__34
10
0
20
0
30
0
70
128
71
51
72
52
73
50
0
VERTEX
8
OBJECT__34
10
0
20
0
30
0
70
128
71
49
72
53
73
51
0
VERTEX
8
OBJECT__34
10
0
20
0
30
0
70
128
71
50
72
54
73
55
0
VERTEX
8
OBJECT__34
10
0
20
0
30
0
70
128
71
55
72
56
73
50
0
VERTEX
8
OBJECT__34
10
0
20
0
30
0
70
128
71
57
72
56
73
58
0
VERTEX
8
OBJECT__34
10
0
20
0
30
0
70
128
71
56
72
59
73
58
0
VERTEX
8
OBJECT__34
10
0
20
0
30
0
70
128
71
57
72
60
73
61
0
VERTEX
8
OBJECT__34
10
0
20
0
30
0
70
128
71
57
72
62
73
60
0
VERTEX
8
OBJECT__34
10
0
20
0
30
0
70
128
71
61
72
1
73
57
0
VERTEX
8
OBJECT__34
10
0
20
0
30
0
70
128
71
61
72
2
73
1
0
VERTEX
8
OBJECT__34
10
0
20
0
30
0
70
128
71
58
72
62
73
57
0
VERTEX
8
OBJECT__34
10
0
20
0
30
0
70
128
71
55
72
59
73
56
0
VERTEX
8
OBJECT__34
10
0
20
0
30
0
70
128
71
52
72
54
73
50
0
VERTEX
8
OBJECT__34
10
0
20
0
30
0
70
128
71
48
72
53
73
49
0
VERTEX
8
OBJECT__34
10
0
20
0
30
0
70
128
71
44
72
47
73
45
0
VERTEX
8
OBJECT__34
10
0
20
0
30
0
70
128
71
41
72
46
73
40
0
VERTEX
8
OBJECT__34
10
0
20
0
30
0
70
128
71
38
72
42
73
39
0
VERTEX
8
OBJECT__34
10
0
20
0
30
0
70
128
71
35
72
37
73
33
0
VERTEX
8
OBJECT__34
10
0
20
0
30
0
70
128
71
31
72
36
73
30
0
VERTEX
8
OBJECT__34
10
0
20
0
30
0
70
128
71
27
72
32
73
28
0
VERTEX
8
OBJECT__34
10
0
20
0
30
0
70
128
71
24
72
29
73
23
0
VERTEX
8
OBJECT__34
10
0
20
0
30
0
70
128
71
21
72
25
73
22
0
VERTEX
8
OBJECT__34
10
0
20
0
30
0
70
128
71
16
72
20
73
18
0
VERTEX
8
OBJECT__34
10
0
20
0
30
0
70
128
71
13
72
19
73
12
0
VERTEX
8
OBJECT__34
10
0
20
0
30
0
70
128
71
10
72
14
73
11
0
VERTEX
8
OBJECT__34
10
0
20
0
30
0
70
128
71
7
72
9
73
5
0
VERTEX
8
OBJECT__34
10
0
20
0
30
0
70
128
71
3
72
8
73
4
0
SEQEND
8
OBJECT__34
0
POLYLINE
8
OBJECT__35
66
1
70
64
71
19
72
17
62
253
0
VERTEX
8
OBJECT__35
10
0.000000
20
-7.033000
30
39.884998
70
192
0
VERTEX
8
OBJECT__35
10
0.000000
20
-40.500000
30
0.000000
70
192
0
VERTEX
8
OBJECT__35
10
0.000000
20
-38.057999
30
13.852000
70
192
0
VERTEX
8
OBJECT__35
10
0.000000
20
-31.025000
30
26.033001
70
192
0
VERTEX
8
OBJECT__35
10
0.000000
20
-38.057999
30
-13.852000
70
192
0
VERTEX
8
OBJECT__35
10
0.000000
20
-20.250000
30
-35.074001
70
192
0
VERTEX
8
OBJECT__35
10
0.000000
20
-31.025000
30
-26.033001
70
192
0
VERTEX
8
OBJECT__35
10
0.000000
20
7.033000
30
-39.884998
70
192
0
VERTEX
8
OBJECT__35
10
0.000000
20
38.057999
30
-13.852000
70
192
0
VERTEX
8
OBJECT__35
10
0.000000
20
31.025000
30
-26.033001
70
192
0
VERTEX
8
OBJECT__35
10
0.000000
20
38.057999
30
13.852000
70
192
0
VERTEX
8
OBJECT__35
10
0.000000
20
40.500000
30
0.000000
70
192
0
VERTEX
8
OBJECT__35
10
0.000000
20
20.250000
30
35.074001
70
192
0
VERTEX
8
OBJECT__35
10
0.000000
20
31.025000
30
26.033001
70
192
0
VERTEX
8
OBJECT__35
10
0.000000
20
-7.033000
30
-39.884998
70
192
0
VERTEX
8
OBJECT__35
10
0.000000
20
7.033000
30
39.884998
70
192
0
VERTEX
8
OBJECT__35
10
0.000000
20
-20.250000
30
35.074001
70
192
0
VERTEX
8
OBJECT__35
10
0.000000
20
0.000000
30
-40.500000
70
192
0
VERTEX
8
OBJECT__35
10
0.000000
20
20.250000
30
-35.074001
70
192
0
VERTEX
8
OBJECT__35
10
0
20
0
30
0
70
128
71
1
72
2
73
3
0
VERTEX
8
OBJECT__35
10
0
20
0
30
0
70
128
71
3
72
4
73
1
0
VERTEX
8
OBJECT__35
10
0
20
0
30
0
70
128
71
1
72
5
73
2
0
VERTEX
8
OBJECT__35
10
0
20
0
30
0
70
128
71
1
72
6
73
7
0
VERTEX
8
OBJECT__35
10
0
20
0
30
0
70
128
71
7
72
5
73
1
0
VERTEX
8
OBJECT__35
10
0
20
0
30
0
70
128
71
8
72
9
73
10
0
VERTEX
8
OBJECT__35
10
0
20
0
30
0
70
128
71
8
72
11
73
12
0
VERTEX
8
OBJECT__35
10
0
20
0
30
0
70
128
71
8
72
13
73
14
0
VERTEX
8
OBJECT__35
10
0
20
0
30
0
70
128
71
1
72
15
73
6
0
VERTEX
8
OBJECT__35
10
0
20
0
30
0
70
128
71
12
72
9
73
8
0
VERTEX
8
OBJECT__35
10
0
20
0
30
0
70
128
71
8
72
16
73
13
0
VERTEX
8
OBJECT__35
10
0
20
0
30
0
70
128
71
4
72
17
73
1
0
VERTEX
8
OBJECT__35
10
0
20
0
30
0
70
128
71
14
72
11
73
8
0
VERTEX
8
OBJECT__35
10
0
20
0
30
0
70
128
71
16
72
18
73
15
0
VERTEX
8
OBJECT__35
10
0
20
0
30
0
70
128
71
10
72
19
73
8
0
VERTEX
8
OBJECT__35
10
0
20
0
30
0
70
128
71
8
72
18
73
16
0
VERTEX
8
OBJECT__35
10
0
20
0
30
0
70
128
71
1
72
16
73
15
0
SEQEND
8
OBJECT__35
0
ENDSEC
0
EOF
