999
Converted by 3D Exploration 
999
XDimension Software, LLC
999
http://www.xdsoft.com/explorer/
0
SECTION
2
HEADER
9
$ACADVER
1
AC1008
9
$UCSORG
10
0.0
20
0.0
30
0.0
9
$UCSXDIR
10
1.0
20
0.0
30
0.0
9
$TILEMODE
70
1
9
$UCSYDIR
10
0.0
20
1.0
30
0.0
9
$EXTMIN
10
-85.000000
20
-85.000000
30
-85.000000
9
$EXTMAX
10
319.424988
20
85.000000
30
1005.456970
0
ENDSEC
0
SECTION
2
TABLES
0
TABLE
2
LTYPE
70
1
0
LTYPE
2
CONTINUOUS
70
64
3
Solid line
72
65
73
0
40
0.0
0
ENDTAB
0
TABLE
2
LAYER
70
48
0
LAYER
2
OBJECT__0
70
0
62
253
6
CONTINUOUS
0
LAYER
2
OBJECT__1
70
0
62
253
6
CONTINUOUS
0
LAYER
2
OBJECT__3
70
0
62
253
6
CONTINUOUS
0
LAYER
2
OBJECT__4
70
0
62
253
6
CONTINUOUS
0
LAYER
2
OBJECT__6
70
0
62
253
6
CONTINUOUS
0
LAYER
2
OBJECT__7
70
0
62
253
6
CONTINUOUS
0
LAYER
2
OBJECT__8
70
0
62
253
6
CONTINUOUS
0
LAYER
2
OBJECT__9
70
0
62
253
6
CONTINUOUS
0
LAYER
2
OBJECT__10
70
0
62
253
6
CONTINUOUS
0
LAYER
2
OBJECT__11
70
0
62
253
6
CONTINUOUS
0
LAYER
2
OBJECT__12
70
0
62
253
6
CONTINUOUS
0
LAYER
2
OBJECT__13
70
0
62
253
6
CONTINUOUS
0
LAYER
2
OBJECT__14
70
0
62
253
6
CONTINUOUS
0
LAYER
2
OBJECT__15
70
0
62
253
6
CONTINUOUS
0
LAYER
2
OBJECT__16
70
0
62
253
6
CONTINUOUS
0
LAYER
2
OBJECT__17
70
0
62
253
6
CONTINUOUS
0
LAYER
2
OBJECT__18
70
0
62
253
6
CONTINUOUS
0
LAYER
2
OBJECT__19
70
0
62
253
6
CONTINUOUS
0
LAYER
2
OBJECT__20
70
0
62
253
6
CONTINUOUS
0
LAYER
2
OBJECT__21
70
0
62
253
6
CONTINUOUS
0
LAYER
2
OBJECT__22
70
0
62
253
6
CONTINUOUS
0
LAYER
2
OBJECT__23
70
0
62
253
6
CONTINUOUS
0
LAYER
2
OBJECT__24
70
0
62
253
6
CONTINUOUS
0
LAYER
2
OBJECT__25
70
0
62
253
6
CONTINUOUS
0
LAYER
2
OBJECT__26
70
0
62
253
6
CONTINUOUS
0
LAYER
2
OBJECT__27
70
0
62
253
6
CONTINUOUS
0
LAYER
2
OBJECT__28
70
0
62
253
6
CONTINUOUS
0
LAYER
2
OBJECT__29
70
0
62
253
6
CONTINUOUS
0
LAYER
2
OBJECT__30
70
0
62
253
6
CONTINUOUS
0
LAYER
2
OBJECT__31
70
0
62
253
6
CONTINUOUS
0
LAYER
2
OBJECT__32
70
0
62
253
6
CONTINUOUS
0
LAYER
2
OBJECT__33
70
0
62
253
6
CONTINUOUS
0
LAYER
2
OBJECT__34
70
0
62
253
6
CONTINUOUS
0
LAYER
2
OBJECT__35
70
0
62
253
6
CONTINUOUS
0
LAYER
2
OBJECT__36
70
0
62
253
6
CONTINUOUS
0
LAYER
2
OBJECT__37
70
0
62
253
6
CONTINUOUS
0
LAYER
2
OBJECT__38
70
0
62
253
6
CONTINUOUS
0
LAYER
2
OBJECT__39
70
0
62
253
6
CONTINUOUS
0
LAYER
2
OBJECT__41
70
0
62
253
6
CONTINUOUS
0
LAYER
2
OBJECT__42
70
0
62
253
6
CONTINUOUS
0
LAYER
2
OBJECT__43
70
0
62
253
6
CONTINUOUS
0
LAYER
2
OBJECT__45
70
0
62
253
6
CONTINUOUS
0
LAYER
2
OBJECT__46
70
0
62
253
6
CONTINUOUS
0
LAYER
2
OBJECT__47
70
0
62
253
6
CONTINUOUS
0
ENDTAB
0
TABLE
2
STYLE
70
1
0
STYLE
2
STANDARD
70
0
40
0.0
41
1.0
50
0.0
71
0
42
0.2
3
txt
4
1
0
ENDTAB
0
TABLE
2
UCS
70
0
0
ENDTAB
0
ENDSEC
0
SECTION
2
ENTITIES
0
POLYLINE
8
OBJECT__0
66
1
70
64
71
24
72
24
62
253
0
VERTEX
8
OBJECT__0
10
22.950001
20
-13.250000
30
5.047000
70
192
0
VERTEX
8
OBJECT__0
10
26.500000
20
0.000000
30
5.047000
70
192
0
VERTEX
8
OBJECT__0
10
26.500000
20
0.000000
30
733.500000
70
192
0
VERTEX
8
OBJECT__0
10
13.250000
20
-22.950001
30
5.047000
70
192
0
VERTEX
8
OBJECT__0
10
22.950001
20
-13.250000
30
733.500000
70
192
0
VERTEX
8
OBJECT__0
10
0.000000
20
-26.500000
30
5.047000
70
192
0
VERTEX
8
OBJECT__0
10
13.250000
20
-22.950001
30
733.500000
70
192
0
VERTEX
8
OBJECT__0
10
-13.250000
20
-22.950001
30
733.500000
70
192
0
VERTEX
8
OBJECT__0
10
-13.250000
20
-22.950001
30
5.047000
70
192
0
VERTEX
8
OBJECT__0
10
-22.950001
20
-13.250000
30
733.500000
70
192
0
VERTEX
8
OBJECT__0
10
-22.950001
20
-13.250000
30
5.047000
70
192
0
VERTEX
8
OBJECT__0
10
-26.500000
20
0.000000
30
733.500000
70
192
0
VERTEX
8
OBJECT__0
10
-26.500000
20
0.000000
30
5.047000
70
192
0
VERTEX
8
OBJECT__0
10
-22.950001
20
13.250000
30
733.500000
70
192
0
VERTEX
8
OBJECT__0
10
-22.950001
20
13.250000
30
5.047000
70
192
0
VERTEX
8
OBJECT__0
10
-13.250000
20
22.950001
30
733.500000
70
192
0
VERTEX
8
OBJECT__0
10
-13.250000
20
22.950001
30
5.047000
70
192
0
VERTEX
8
OBJECT__0
10
0.000000
20
26.500000
30
733.500000
70
192
0
VERTEX
8
OBJECT__0
10
0.000000
20
26.500000
30
5.047000
70
192
0
VERTEX
8
OBJECT__0
10
13.250000
20
22.950001
30
733.500000
70
192
0
VERTEX
8
OBJECT__0
10
13.250000
20
22.950001
30
5.047000
70
192
0
VERTEX
8
OBJECT__0
10
22.950001
20
13.250000
30
5.047000
70
192
0
VERTEX
8
OBJECT__0
10
22.950001
20
13.250000
30
733.500000
70
192
0
VERTEX
8
OBJECT__0
10
0.000000
20
-26.500000
30
733.500000
70
192
0
VERTEX
8
OBJECT__0
10
0
20
0
30
0
70
128
71
1
72
2
73
3
0
VERTEX
8
OBJECT__0
10
0
20
0
30
0
70
128
71
4
72
1
73
5
0
VERTEX
8
OBJECT__0
10
0
20
0
30
0
70
128
71
6
72
4
73
7
0
VERTEX
8
OBJECT__0
10
0
20
0
30
0
70
128
71
8
72
9
73
6
0
VERTEX
8
OBJECT__0
10
0
20
0
30
0
70
128
71
10
72
11
73
9
0
VERTEX
8
OBJECT__0
10
0
20
0
30
0
70
128
71
12
72
13
73
11
0
VERTEX
8
OBJECT__0
10
0
20
0
30
0
70
128
71
14
72
15
73
13
0
VERTEX
8
OBJECT__0
10
0
20
0
30
0
70
128
71
16
72
17
73
15
0
VERTEX
8
OBJECT__0
10
0
20
0
30
0
70
128
71
18
72
19
73
17
0
VERTEX
8
OBJECT__0
10
0
20
0
30
0
70
128
71
20
72
21
73
19
0
VERTEX
8
OBJECT__0
10
0
20
0
30
0
70
128
71
22
72
21
73
20
0
VERTEX
8
OBJECT__0
10
0
20
0
30
0
70
128
71
2
72
22
73
23
0
VERTEX
8
OBJECT__0
10
0
20
0
30
0
70
128
71
23
72
3
73
2
0
VERTEX
8
OBJECT__0
10
0
20
0
30
0
70
128
71
20
72
23
73
22
0
VERTEX
8
OBJECT__0
10
0
20
0
30
0
70
128
71
19
72
18
73
20
0
VERTEX
8
OBJECT__0
10
0
20
0
30
0
70
128
71
17
72
16
73
18
0
VERTEX
8
OBJECT__0
10
0
20
0
30
0
70
128
71
15
72
14
73
16
0
VERTEX
8
OBJECT__0
10
0
20
0
30
0
70
128
71
13
72
12
73
14
0
VERTEX
8
OBJECT__0
10
0
20
0
30
0
70
128
71
11
72
10
73
12
0
VERTEX
8
OBJECT__0
10
0
20
0
30
0
70
128
71
9
72
8
73
10
0
VERTEX
8
OBJECT__0
10
0
20
0
30
0
70
128
71
6
72
24
73
8
0
VERTEX
8
OBJECT__0
10
0
20
0
30
0
70
128
71
7
72
24
73
6
0
VERTEX
8
OBJECT__0
10
0
20
0
30
0
70
128
71
5
72
7
73
4
0
VERTEX
8
OBJECT__0
10
0
20
0
30
0
70
128
71
3
72
5
73
1
0
SEQEND
8
OBJECT__0
0
POLYLINE
8
OBJECT__1
66
1
70
64
71
24
72
24
62
253
0
VERTEX
8
OBJECT__1
10
22.950001
20
13.250000
30
733.500000
70
192
0
VERTEX
8
OBJECT__1
10
22.950001
20
13.250000
30
5.047000
70
192
0
VERTEX
8
OBJECT__1
10
26.500000
20
0.000000
30
5.047000
70
192
0
VERTEX
8
OBJECT__1
10
13.250000
20
22.950001
30
733.500000
70
192
0
VERTEX
8
OBJECT__1
10
13.250000
20
22.950001
30
5.047000
70
192
0
VERTEX
8
OBJECT__1
10
0.000000
20
26.500000
30
733.500000
70
192
0
VERTEX
8
OBJECT__1
10
0.000000
20
26.500000
30
5.047000
70
192
0
VERTEX
8
OBJECT__1
10
-13.250000
20
22.950001
30
5.047000
70
192
0
VERTEX
8
OBJECT__1
10
-22.950001
20
13.250000
30
5.047000
70
192
0
VERTEX
8
OBJECT__1
10
-13.250000
20
22.950001
30
733.500000
70
192
0
VERTEX
8
OBJECT__1
10
-26.500000
20
0.000000
30
5.047000
70
192
0
VERTEX
8
OBJECT__1
10
-22.950001
20
13.250000
30
733.500000
70
192
0
VERTEX
8
OBJECT__1
10
-22.950001
20
-13.250000
30
5.047000
70
192
0
VERTEX
8
OBJECT__1
10
-26.500000
20
0.000000
30
733.500000
70
192
0
VERTEX
8
OBJECT__1
10
-13.250000
20
-22.950001
30
5.047000
70
192
0
VERTEX
8
OBJECT__1
10
-22.950001
20
-13.250000
30
733.500000
70
192
0
VERTEX
8
OBJECT__1
10
0.000000
20
-26.500000
30
733.500000
70
192
0
VERTEX
8
OBJECT__1
10
0.000000
20
-26.500000
30
5.047000
70
192
0
VERTEX
8
OBJECT__1
10
13.250000
20
-22.950001
30
733.500000
70
192
0
VERTEX
8
OBJECT__1
10
13.250000
20
-22.950001
30
5.047000
70
192
0
VERTEX
8
OBJECT__1
10
22.950001
20
-13.250000
30
733.500000
70
192
0
VERTEX
8
OBJECT__1
10
22.950001
20
-13.250000
30
5.047000
70
192
0
VERTEX
8
OBJECT__1
10
26.500000
20
0.000000
30
733.500000
70
192
0
VERTEX
8
OBJECT__1
10
-13.250000
20
-22.950001
30
733.500000
70
192
0
VERTEX
8
OBJECT__1
10
0
20
0
30
0
70
128
71
1
72
2
73
3
0
VERTEX
8
OBJECT__1
10
0
20
0
30
0
70
128
71
4
72
5
73
2
0
VERTEX
8
OBJECT__1
10
0
20
0
30
0
70
128
71
6
72
7
73
5
0
VERTEX
8
OBJECT__1
10
0
20
0
30
0
70
128
71
8
72
7
73
6
0
VERTEX
8
OBJECT__1
10
0
20
0
30
0
70
128
71
9
72
8
73
10
0
VERTEX
8
OBJECT__1
10
0
20
0
30
0
70
128
71
11
72
9
73
12
0
VERTEX
8
OBJECT__1
10
0
20
0
30
0
70
128
71
13
72
11
73
14
0
VERTEX
8
OBJECT__1
10
0
20
0
30
0
70
128
71
15
72
13
73
16
0
VERTEX
8
OBJECT__1
10
0
20
0
30
0
70
128
71
17
72
18
73
15
0
VERTEX
8
OBJECT__1
10
0
20
0
30
0
70
128
71
19
72
20
73
18
0
VERTEX
8
OBJECT__1
10
0
20
0
30
0
70
128
71
21
72
22
73
20
0
VERTEX
8
OBJECT__1
10
0
20
0
30
0
70
128
71
23
72
3
73
22
0
VERTEX
8
OBJECT__1
10
0
20
0
30
0
70
128
71
22
72
21
73
23
0
VERTEX
8
OBJECT__1
10
0
20
0
30
0
70
128
71
20
72
19
73
21
0
VERTEX
8
OBJECT__1
10
0
20
0
30
0
70
128
71
18
72
17
73
19
0
VERTEX
8
OBJECT__1
10
0
20
0
30
0
70
128
71
15
72
24
73
17
0
VERTEX
8
OBJECT__1
10
0
20
0
30
0
70
128
71
16
72
24
73
15
0
VERTEX
8
OBJECT__1
10
0
20
0
30
0
70
128
71
14
72
16
73
13
0
VERTEX
8
OBJECT__1
10
0
20
0
30
0
70
128
71
12
72
14
73
11
0
VERTEX
8
OBJECT__1
10
0
20
0
30
0
70
128
71
10
72
12
73
9
0
VERTEX
8
OBJECT__1
10
0
20
0
30
0
70
128
71
6
72
10
73
8
0
VERTEX
8
OBJECT__1
10
0
20
0
30
0
70
128
71
5
72
4
73
6
0
VERTEX
8
OBJECT__1
10
0
20
0
30
0
70
128
71
2
72
1
73
4
0
VERTEX
8
OBJECT__1
10
0
20
0
30
0
70
128
71
3
72
23
73
1
0
SEQEND
8
OBJECT__1
0
POLYLINE
8
OBJECT__3
66
1
70
64
71
12
72
10
62
253
0
VERTEX
8
OBJECT__3
10
-26.500999
20
0.000000
30
733.500000
70
192
0
VERTEX
8
OBJECT__3
10
-22.951000
20
0.000000
30
803.174988
70
192
0
VERTEX
8
OBJECT__3
10
-22.951000
20
13.251000
30
803.174988
70
192
0
VERTEX
8
OBJECT__3
10
-17.212000
20
20.150999
30
733.500000
70
192
0
VERTEX
8
OBJECT__3
10
-17.212000
20
-20.150999
30
733.500000
70
192
0
VERTEX
8
OBJECT__3
10
-22.951000
20
-13.250000
30
803.174988
70
192
0
VERTEX
8
OBJECT__3
10
-15.658000
20
-17.461000
30
803.174988
70
192
0
VERTEX
8
OBJECT__3
10
0.000000
20
-26.500999
30
733.500000
70
192
0
VERTEX
8
OBJECT__3
10
-0.001000
20
-26.500999
30
803.174988
70
192
0
VERTEX
8
OBJECT__3
10
-0.002000
20
26.500000
30
733.500000
70
192
0
VERTEX
8
OBJECT__3
10
-15.658000
20
17.461000
30
803.174988
70
192
0
VERTEX
8
OBJECT__3
10
-0.001000
20
26.500999
30
803.174988
70
192
0
VERTEX
8
OBJECT__3
10
0
20
0
30
0
70
128
71
1
72
2
73
3
0
VERTEX
8
OBJECT__3
10
0
20
0
30
0
70
128
71
3
72
4
73
1
0
VERTEX
8
OBJECT__3
10
0
20
0
30
0
70
128
71
1
72
5
73
6
0
VERTEX
8
OBJECT__3
10
0
20
0
30
0
70
128
71
5
72
7
73
6
0
VERTEX
8
OBJECT__3
10
0
20
0
30
0
70
128
71
8
72
9
73
7
0
VERTEX
8
OBJECT__3
10
0
20
0
30
0
70
128
71
10
72
4
73
11
0
VERTEX
8
OBJECT__3
10
0
20
0
30
0
70
128
71
11
72
12
73
10
0
VERTEX
8
OBJECT__3
10
0
20
0
30
0
70
128
71
7
72
5
73
8
0
VERTEX
8
OBJECT__3
10
0
20
0
30
0
70
128
71
6
72
2
73
1
0
VERTEX
8
OBJECT__3
10
0
20
0
30
0
70
128
71
3
72
11
73
4
0
SEQEND
8
OBJECT__3
0
POLYLINE
8
OBJECT__4
66
1
70
64
71
12
72
10
62
253
0
VERTEX
8
OBJECT__4
10
26.497999
20
0.000000
30
733.500000
70
192
0
VERTEX
8
OBJECT__4
10
22.950001
20
0.000000
30
803.174988
70
192
0
VERTEX
8
OBJECT__4
10
22.950001
20
-13.250000
30
803.174988
70
192
0
VERTEX
8
OBJECT__4
10
17.209000
20
-20.150999
30
733.500000
70
192
0
VERTEX
8
OBJECT__4
10
17.209000
20
20.150000
30
733.500000
70
192
0
VERTEX
8
OBJECT__4
10
22.950001
20
13.251000
30
803.174988
70
192
0
VERTEX
8
OBJECT__4
10
15.656000
20
17.461000
30
803.174988
70
192
0
VERTEX
8
OBJECT__4
10
-0.002000
20
26.500000
30
733.500000
70
192
0
VERTEX
8
OBJECT__4
10
-0.001000
20
26.500999
30
803.174988
70
192
0
VERTEX
8
OBJECT__4
10
0.000000
20
-26.500999
30
733.500000
70
192
0
VERTEX
8
OBJECT__4
10
15.656000
20
-17.462000
30
803.174988
70
192
0
VERTEX
8
OBJECT__4
10
0.000000
20
-26.500000
30
803.174988
70
192
0
VERTEX
8
OBJECT__4
10
0
20
0
30
0
70
128
71
1
72
2
73
3
0
VERTEX
8
OBJECT__4
10
0
20
0
30
0
70
128
71
3
72
4
73
1
0
VERTEX
8
OBJECT__4
10
0
20
0
30
0
70
128
71
1
72
5
73
6
0
VERTEX
8
OBJECT__4
10
0
20
0
30
0
70
128
71
5
72
7
73
6
0
VERTEX
8
OBJECT__4
10
0
20
0
30
0
70
128
71
9
72
5
73
8
0
VERTEX
8
OBJECT__4
10
0
20
0
30
0
70
128
71
9
72
7
73
5
0
VERTEX
8
OBJECT__4
10
0
20
0
30
0
70
128
71
10
72
4
73
11
0
VERTEX
8
OBJECT__4
10
0
20
0
30
0
70
128
71
11
72
12
73
10
0
VERTEX
8
OBJECT__4
10
0
20
0
30
0
70
128
71
6
72
2
73
1
0
VERTEX
8
OBJECT__4
10
0
20
0
30
0
70
128
71
3
72
11
73
4
0
SEQEND
8
OBJECT__4
0
POLYLINE
8
OBJECT__6
66
1
70
64
71
66
72
66
62
253
0
VERTEX
8
OBJECT__6
10
-19.062000
20
-18.410000
30
822.335999
70
192
0
VERTEX
8
OBJECT__6
10
-15.658000
20
-17.461000
30
803.174988
70
192
0
VERTEX
8
OBJECT__6
10
-0.001000
20
-26.500999
30
803.174988
70
192
0
VERTEX
8
OBJECT__6
10
-22.738001
20
-13.106000
30
816.814026
70
192
0
VERTEX
8
OBJECT__6
10
-22.951000
20
-13.250000
30
803.174988
70
192
0
VERTEX
8
OBJECT__6
10
-12.966000
20
-23.112000
30
835.263977
70
192
0
VERTEX
8
OBJECT__6
10
-17.379000
20
-19.708000
30
825.905029
70
192
0
VERTEX
8
OBJECT__6
10
-5.876000
20
-25.841000
30
877.062012
70
192
0
VERTEX
8
OBJECT__6
10
-8.045000
20
-25.236000
30
855.409973
70
192
0
VERTEX
8
OBJECT__6
10
-0.001000
20
-26.500999
30
915.195007
70
192
0
VERTEX
8
OBJECT__6
10
-5.123000
20
-26.000999
30
915.195007
70
192
0
VERTEX
8
OBJECT__6
10
0.000000
20
-26.500999
30
915.195007
70
192
0
VERTEX
8
OBJECT__6
10
-5.526000
20
-25.917999
30
915.195007
70
192
0
VERTEX
8
OBJECT__6
10
-8.337000
20
-25.155001
30
852.494995
70
192
0
VERTEX
8
OBJECT__6
10
-22.951000
20
13.251000
30
803.174988
70
192
0
VERTEX
8
OBJECT__6
10
-25.827999
20
5.935000
30
812.599976
70
192
0
VERTEX
8
OBJECT__6
10
-23.417000
20
11.823000
30
815.775024
70
192
0
VERTEX
8
OBJECT__6
10
-22.951000
20
0.000000
30
803.174988
70
192
0
VERTEX
8
OBJECT__6
10
-26.184000
20
-0.222000
30
812.168030
70
192
0
VERTEX
8
OBJECT__6
10
-26.340000
20
-2.916000
30
811.979004
70
192
0
VERTEX
8
OBJECT__6
10
-23.930000
20
-11.386000
30
815.023010
70
192
0
VERTEX
8
OBJECT__6
10
-23.594000
20
-11.871000
30
815.528015
70
192
0
VERTEX
8
OBJECT__6
10
-5.660000
20
25.889999
30
884.552002
70
192
0
VERTEX
8
OBJECT__6
10
-5.123000
20
26.000999
30
915.195007
70
192
0
VERTEX
8
OBJECT__6
10
-0.001000
20
26.500999
30
915.195007
70
192
0
VERTEX
8
OBJECT__6
10
-5.526000
20
25.917999
30
915.195007
70
192
0
VERTEX
8
OBJECT__6
10
-0.001000
20
26.500000
30
803.174988
70
192
0
VERTEX
8
OBJECT__6
10
-7.721000
20
25.351000
30
856.200989
70
192
0
VERTEX
8
OBJECT__6
10
0.000000
20
26.500999
30
915.195007
70
192
0
VERTEX
8
OBJECT__6
10
-11.723000
20
23.767000
30
838.853027
70
192
0
VERTEX
8
OBJECT__6
10
-7.923000
20
25.271000
30
855.325012
70
192
0
VERTEX
8
OBJECT__6
10
-17.367001
20
20.017000
30
825.382996
70
192
0
VERTEX
8
OBJECT__6
10
-17.169001
20
20.149000
30
825.854980
70
192
0
VERTEX
8
OBJECT__6
10
-15.658000
20
17.461000
30
803.174988
70
192
0
VERTEX
8
OBJECT__6
10
-22.572001
20
13.886000
30
816.887024
70
192
0
VERTEX
8
OBJECT__6
10
-22.849001
20
13.208000
30
816.520996
70
192
0
VERTEX
8
OBJECT__6
10
15.656000
20
17.461000
30
803.174988
70
192
0
VERTEX
8
OBJECT__6
10
19.066000
20
18.406000
30
822.325989
70
192
0
VERTEX
8
OBJECT__6
10
22.738001
20
13.107000
30
816.809021
70
192
0
VERTEX
8
OBJECT__6
10
22.950001
20
13.251000
30
803.174988
70
192
0
VERTEX
8
OBJECT__6
10
13.023000
20
23.080000
30
835.104980
70
192
0
VERTEX
8
OBJECT__6
10
17.514999
20
19.606001
30
825.604980
70
192
0
VERTEX
8
OBJECT__6
10
5.867000
20
25.843000
30
877.229980
70
192
0
VERTEX
8
OBJECT__6
10
8.048000
20
25.235001
30
855.401978
70
192
0
VERTEX
8
OBJECT__6
10
4.025000
20
26.194000
30
915.195007
70
192
0
VERTEX
8
OBJECT__6
10
5.523000
20
25.919001
30
915.195007
70
192
0
VERTEX
8
OBJECT__6
10
8.344000
20
25.153000
30
852.443970
70
192
0
VERTEX
8
OBJECT__6
10
22.950001
20
-13.250000
30
803.174988
70
192
0
VERTEX
8
OBJECT__6
10
25.830999
20
-5.920000
30
812.593018
70
192
0
VERTEX
8
OBJECT__6
10
23.393000
20
-11.875000
30
815.802002
70
192
0
VERTEX
8
OBJECT__6
10
22.950001
20
0.000000
30
803.174988
70
192
0
VERTEX
8
OBJECT__6
10
26.173000
20
0.051000
30
812.177979
70
192
0
VERTEX
8
OBJECT__6
10
26.337999
20
2.929000
30
811.976990
70
192
0
VERTEX
8
OBJECT__6
10
23.927999
20
11.389000
30
815.020020
70
192
0
VERTEX
8
OBJECT__6
10
23.695999
20
11.725000
30
815.369995
70
192
0
VERTEX
8
OBJECT__6
10
5.642000
20
-25.893000
30
885.401001
70
192
0
VERTEX
8
OBJECT__6
10
5.523000
20
-25.919001
30
915.195007
70
192
0
VERTEX
8
OBJECT__6
10
4.023000
20
-26.193001
30
915.195007
70
192
0
VERTEX
8
OBJECT__6
10
7.636000
20
-25.375999
30
856.744995
70
192
0
VERTEX
8
OBJECT__6
10
11.842000
20
-23.708000
30
838.476990
70
192
0
VERTEX
8
OBJECT__6
10
7.955000
20
-25.250000
30
855.362976
70
192
0
VERTEX
8
OBJECT__6
10
17.357000
20
-20.025000
30
825.398010
70
192
0
VERTEX
8
OBJECT__6
10
17.142000
20
-20.169001
30
825.906982
70
192
0
VERTEX
8
OBJECT__6
10
15.656000
20
-17.462000
30
803.174988
70
192
0
VERTEX
8
OBJECT__6
10
22.568001
20
-13.891000
30
816.888000
70
192
0
VERTEX
8
OBJECT__6
10
22.848000
20
-13.207000
30
816.520020
70
192
0
VERTEX
8
OBJECT__6
10
0
20
0
30
0
70
128
71
1
72
2
73
3
0
VERTEX
8
OBJECT__6
10
0
20
0
30
0
70
128
71
2
72
1
73
4
0
VERTEX
8
OBJECT__6
10
0
20
0
30
0
70
128
71
4
72
5
73
2
0
VERTEX
8
OBJECT__6
10
0
20
0
30
0
70
128
71
3
72
6
73
7
0
VERTEX
8
OBJECT__6
10
0
20
0
30
0
70
128
71
3
72
8
73
9
0
VERTEX
8
OBJECT__6
10
0
20
0
30
0
70
128
71
10
72
11
73
8
0
VERTEX
8
OBJECT__6
10
0
20
0
30
0
70
128
71
3
72
12
73
10
0
VERTEX
8
OBJECT__6
10
0
20
0
30
0
70
128
71
8
72
3
73
10
0
VERTEX
8
OBJECT__6
10
0
20
0
30
0
70
128
71
11
72
13
73
8
0
VERTEX
8
OBJECT__6
10
0
20
0
30
0
70
128
71
9
72
14
73
3
0
VERTEX
8
OBJECT__6
10
0
20
0
30
0
70
128
71
14
72
6
73
3
0
VERTEX
8
OBJECT__6
10
0
20
0
30
0
70
128
71
7
72
1
73
3
0
VERTEX
8
OBJECT__6
10
0
20
0
30
0
70
128
71
15
72
16
73
17
0
VERTEX
8
OBJECT__6
10
0
20
0
30
0
70
128
71
18
72
19
73
16
0
VERTEX
8
OBJECT__6
10
0
20
0
30
0
70
128
71
18
72
20
73
19
0
VERTEX
8
OBJECT__6
10
0
20
0
30
0
70
128
71
5
72
21
73
20
0
VERTEX
8
OBJECT__6
10
0
20
0
30
0
70
128
71
20
72
18
73
5
0
VERTEX
8
OBJECT__6
10
0
20
0
30
0
70
128
71
16
72
15
73
18
0
VERTEX
8
OBJECT__6
10
0
20
0
30
0
70
128
71
5
72
4
73
22
0
VERTEX
8
OBJECT__6
10
0
20
0
30
0
70
128
71
22
72
21
73
5
0
VERTEX
8
OBJECT__6
10
0
20
0
30
0
70
128
71
23
72
24
73
25
0
VERTEX
8
OBJECT__6
10
0
20
0
30
0
70
128
71
23
72
26
73
24
0
VERTEX
8
OBJECT__6
10
0
20
0
30
0
70
128
71
27
72
28
73
23
0
VERTEX
8
OBJECT__6
10
0
20
0
30
0
70
128
71
23
72
29
73
27
0
VERTEX
8
OBJECT__6
10
0
20
0
30
0
70
128
71
27
72
30
73
31
0
VERTEX
8
OBJECT__6
10
0
20
0
30
0
70
128
71
31
72
28
73
27
0
VERTEX
8
OBJECT__6
10
0
20
0
30
0
70
128
71
27
72
32
73
33
0
VERTEX
8
OBJECT__6
10
0
20
0
30
0
70
128
71
33
72
30
73
27
0
VERTEX
8
OBJECT__6
10
0
20
0
30
0
70
128
71
32
72
27
73
34
0
VERTEX
8
OBJECT__6
10
0
20
0
30
0
70
128
71
34
72
35
73
32
0
VERTEX
8
OBJECT__6
10
0
20
0
30
0
70
128
71
34
72
15
73
36
0
VERTEX
8
OBJECT__6
10
0
20
0
30
0
70
128
71
36
72
35
73
34
0
VERTEX
8
OBJECT__6
10
0
20
0
30
0
70
128
71
37
72
38
73
39
0
VERTEX
8
OBJECT__6
10
0
20
0
30
0
70
128
71
39
72
40
73
37
0
VERTEX
8
OBJECT__6
10
0
20
0
30
0
70
128
71
27
72
41
73
42
0
VERTEX
8
OBJECT__6
10
0
20
0
30
0
70
128
71
27
72
43
73
44
0
VERTEX
8
OBJECT__6
10
0
20
0
30
0
70
128
71
45
72
46
73
43
0
VERTEX
8
OBJECT__6
10
0
20
0
30
0
70
128
71
27
72
29
73
45
0
VERTEX
8
OBJECT__6
10
0
20
0
30
0
70
128
71
43
72
27
73
45
0
VERTEX
8
OBJECT__6
10
0
20
0
30
0
70
128
71
44
72
47
73
27
0
VERTEX
8
OBJECT__6
10
0
20
0
30
0
70
128
71
47
72
41
73
27
0
VERTEX
8
OBJECT__6
10
0
20
0
30
0
70
128
71
42
72
38
73
27
0
VERTEX
8
OBJECT__6
10
0
20
0
30
0
70
128
71
48
72
49
73
50
0
VERTEX
8
OBJECT__6
10
0
20
0
30
0
70
128
71
51
72
52
73
49
0
VERTEX
8
OBJECT__6
10
0
20
0
30
0
70
128
71
51
72
53
73
52
0
VERTEX
8
OBJECT__6
10
0
20
0
30
0
70
128
71
40
72
54
73
53
0
VERTEX
8
OBJECT__6
10
0
20
0
30
0
70
128
71
53
72
51
73
40
0
VERTEX
8
OBJECT__6
10
0
20
0
30
0
70
128
71
49
72
48
73
51
0
VERTEX
8
OBJECT__6
10
0
20
0
30
0
70
128
71
40
72
39
73
55
0
VERTEX
8
OBJECT__6
10
0
20
0
30
0
70
128
71
55
72
54
73
40
0
VERTEX
8
OBJECT__6
10
0
20
0
30
0
70
128
71
56
72
57
73
58
0
VERTEX
8
OBJECT__6
10
0
20
0
30
0
70
128
71
3
72
59
73
56
0
VERTEX
8
OBJECT__6
10
0
20
0
30
0
70
128
71
56
72
12
73
3
0
VERTEX
8
OBJECT__6
10
0
20
0
30
0
70
128
71
3
72
60
73
61
0
VERTEX
8
OBJECT__6
10
0
20
0
30
0
70
128
71
61
72
59
73
3
0
VERTEX
8
OBJECT__6
10
0
20
0
30
0
70
128
71
3
72
62
73
63
0
VERTEX
8
OBJECT__6
10
0
20
0
30
0
70
128
71
63
72
60
73
3
0
VERTEX
8
OBJECT__6
10
0
20
0
30
0
70
128
71
62
72
3
73
64
0
VERTEX
8
OBJECT__6
10
0
20
0
30
0
70
128
71
64
72
65
73
62
0
VERTEX
8
OBJECT__6
10
0
20
0
30
0
70
128
71
64
72
48
73
66
0
VERTEX
8
OBJECT__6
10
0
20
0
30
0
70
128
71
66
72
65
73
64
0
VERTEX
8
OBJECT__6
10
0
20
0
30
0
70
128
71
58
72
12
73
56
0
VERTEX
8
OBJECT__6
10
0
20
0
30
0
70
128
71
50
72
66
73
48
0
VERTEX
8
OBJECT__6
10
0
20
0
30
0
70
128
71
37
72
27
73
38
0
VERTEX
8
OBJECT__6
10
0
20
0
30
0
70
128
71
25
72
29
73
23
0
VERTEX
8
OBJECT__6
10
0
20
0
30
0
70
128
71
17
72
36
73
15
0
SEQEND
8
OBJECT__6
0
POLYLINE
8
OBJECT__7
66
1
70
64
71
17
72
15
62
253
0
VERTEX
8
OBJECT__7
10
11.567000
20
-26.495001
30
952.080017
70
192
0
VERTEX
8
OBJECT__7
10
5.675000
20
-26.476000
30
947.083008
70
192
0
VERTEX
8
OBJECT__7
10
8.412000
20
-26.268999
30
944.445007
70
192
0
VERTEX
8
OBJECT__7
10
3.048000
20
-26.481001
30
936.495972
70
192
0
VERTEX
8
OBJECT__7
10
6.545000
20
-26.235001
30
935.137024
70
192
0
VERTEX
8
OBJECT__7
10
26.844000
20
-26.524000
30
961.981995
70
192
0
VERTEX
8
OBJECT__7
10
27.712999
20
-26.464001
30
958.844971
70
192
0
VERTEX
8
OBJECT__7
10
47.147999
20
-26.500000
30
963.135986
70
192
0
VERTEX
8
OBJECT__7
10
0.147000
20
-26.487000
30
924.804993
70
192
0
VERTEX
8
OBJECT__7
10
-0.001000
20
-26.500999
30
915.195007
70
192
0
VERTEX
8
OBJECT__7
10
0.000000
20
-26.500999
30
915.195007
70
192
0
VERTEX
8
OBJECT__7
10
4.103000
20
-26.190001
30
922.965027
70
192
0
VERTEX
8
OBJECT__7
10
4.023000
20
-26.193001
30
915.195007
70
192
0
VERTEX
8
OBJECT__7
10
22.833000
20
-26.455000
30
957.767029
70
192
0
VERTEX
8
OBJECT__7
10
13.939000
20
-26.341000
30
949.551025
70
192
0
VERTEX
8
OBJECT__7
10
21.983000
20
-26.528999
30
960.916016
70
192
0
VERTEX
8
OBJECT__7
10
46.752998
20
-26.500000
30
966.348022
70
192
0
VERTEX
8
OBJECT__7
10
0
20
0
30
0
70
128
71
1
72
2
73
3
0
VERTEX
8
OBJECT__7
10
0
20
0
30
0
70
128
71
4
72
5
73
3
0
VERTEX
8
OBJECT__7
10
0
20
0
30
0
70
128
71
3
72
2
73
4
0
VERTEX
8
OBJECT__7
10
0
20
0
30
0
70
128
71
6
72
7
73
8
0
VERTEX
8
OBJECT__7
10
0
20
0
30
0
70
128
71
5
72
4
73
9
0
VERTEX
8
OBJECT__7
10
0
20
0
30
0
70
128
71
9
72
10
73
11
0
VERTEX
8
OBJECT__7
10
0
20
0
30
0
70
128
71
11
72
12
73
9
0
VERTEX
8
OBJECT__7
10
0
20
0
30
0
70
128
71
11
72
13
73
12
0
VERTEX
8
OBJECT__7
10
0
20
0
30
0
70
128
71
14
72
7
73
6
0
VERTEX
8
OBJECT__7
10
0
20
0
30
0
70
128
71
1
72
15
73
14
0
VERTEX
8
OBJECT__7
10
0
20
0
30
0
70
128
71
14
72
16
73
1
0
VERTEX
8
OBJECT__7
10
0
20
0
30
0
70
128
71
6
72
16
73
14
0
VERTEX
8
OBJECT__7
10
0
20
0
30
0
70
128
71
9
72
12
73
5
0
VERTEX
8
OBJECT__7
10
0
20
0
30
0
70
128
71
8
72
17
73
6
0
VERTEX
8
OBJECT__7
10
0
20
0
30
0
70
128
71
3
72
15
73
1
0
SEQEND
8
OBJECT__7
0
POLYLINE
8
OBJECT__8
66
1
70
64
71
16
72
14
62
253
0
VERTEX
8
OBJECT__8
10
5.675000
20
-26.476000
30
947.083008
70
192
0
VERTEX
8
OBJECT__8
10
11.567000
20
-26.495001
30
952.080017
70
192
0
VERTEX
8
OBJECT__8
10
8.553000
20
-26.239000
30
955.335999
70
192
0
VERTEX
8
OBJECT__8
10
-1.452000
20
-26.073000
30
938.218994
70
192
0
VERTEX
8
OBJECT__8
10
3.048000
20
-26.481001
30
936.495972
70
192
0
VERTEX
8
OBJECT__8
10
2.351000
20
-26.150999
30
950.533997
70
192
0
VERTEX
8
OBJECT__8
10
25.740000
20
-26.431000
30
965.982971
70
192
0
VERTEX
8
OBJECT__8
10
26.844000
20
-26.524000
30
961.981995
70
192
0
VERTEX
8
OBJECT__8
10
46.752998
20
-26.500000
30
966.348022
70
192
0
VERTEX
8
OBJECT__8
10
-4.835000
20
-26.003000
30
927.263977
70
192
0
VERTEX
8
OBJECT__8
10
-5.123000
20
-26.000999
30
915.195007
70
192
0
VERTEX
8
OBJECT__8
10
-0.001000
20
-26.500999
30
915.195007
70
192
0
VERTEX
8
OBJECT__8
10
0.147000
20
-26.487000
30
924.804993
70
192
0
VERTEX
8
OBJECT__8
10
21.983000
20
-26.528999
30
960.916016
70
192
0
VERTEX
8
OBJECT__8
10
20.962000
20
-26.415001
30
964.942993
70
192
0
VERTEX
8
OBJECT__8
10
46.250000
20
-26.500000
30
970.445007
70
192
0
VERTEX
8
OBJECT__8
10
0
20
0
30
0
70
128
71
1
72
2
73
3
0
VERTEX
8
OBJECT__8
10
0
20
0
30
0
70
128
71
4
72
5
73
1
0
VERTEX
8
OBJECT__8
10
0
20
0
30
0
70
128
71
1
72
6
73
4
0
VERTEX
8
OBJECT__8
10
0
20
0
30
0
70
128
71
7
72
8
73
9
0
VERTEX
8
OBJECT__8
10
0
20
0
30
0
70
128
71
5
72
4
73
10
0
VERTEX
8
OBJECT__8
10
0
20
0
30
0
70
128
71
11
72
12
73
13
0
VERTEX
8
OBJECT__8
10
0
20
0
30
0
70
128
71
13
72
10
73
11
0
VERTEX
8
OBJECT__8
10
0
20
0
30
0
70
128
71
14
72
8
73
7
0
VERTEX
8
OBJECT__8
10
0
20
0
30
0
70
128
71
3
72
2
73
14
0
VERTEX
8
OBJECT__8
10
0
20
0
30
0
70
128
71
14
72
15
73
3
0
VERTEX
8
OBJECT__8
10
0
20
0
30
0
70
128
71
7
72
15
73
14
0
VERTEX
8
OBJECT__8
10
0
20
0
30
0
70
128
71
10
72
13
73
5
0
VERTEX
8
OBJECT__8
10
0
20
0
30
0
70
128
71
9
72
16
73
7
0
VERTEX
8
OBJECT__8
10
0
20
0
30
0
70
128
71
3
72
6
73
1
0
SEQEND
8
OBJECT__8
0
POLYLINE
8
OBJECT__9
66
1
70
64
71
18
72
15
62
253
0
VERTEX
8
OBJECT__9
10
13.939000
20
-26.341000
30
949.551025
70
192
0
VERTEX
8
OBJECT__9
10
8.412000
20
-26.268999
30
944.445007
70
192
0
VERTEX
8
OBJECT__9
10
11.243000
20
-26.141001
30
946.703003
70
192
0
VERTEX
8
OBJECT__9
10
6.741000
20
-25.976999
30
934.820007
70
192
0
VERTEX
8
OBJECT__9
10
6.545000
20
-26.235001
30
935.137024
70
192
0
VERTEX
8
OBJECT__9
10
6.741000
20
-25.976999
30
934.820007
70
192
0
VERTEX
8
OBJECT__9
10
47.147999
20
-26.500000
30
963.135986
70
192
0
VERTEX
8
OBJECT__9
10
27.712999
20
-26.464001
30
958.844971
70
192
0
VERTEX
8
OBJECT__9
10
31.319000
20
-26.465000
30
959.322021
70
192
0
VERTEX
8
OBJECT__9
10
28.031000
20
-26.427000
30
957.987976
70
192
0
VERTEX
8
OBJECT__9
10
4.103000
20
-26.190001
30
922.965027
70
192
0
VERTEX
8
OBJECT__9
10
5.523000
20
-25.919001
30
915.195007
70
192
0
VERTEX
8
OBJECT__9
10
22.833000
20
-26.455000
30
957.767029
70
192
0
VERTEX
8
OBJECT__9
10
18.903000
20
-26.322001
30
954.286987
70
192
0
VERTEX
8
OBJECT__9
10
14.013000
20
-26.143000
30
949.455994
70
192
0
VERTEX
8
OBJECT__9
10
14.018000
20
-26.205999
30
949.450012
70
192
0
VERTEX
8
OBJECT__9
10
4.023000
20
-26.193001
30
915.195007
70
192
0
VERTEX
8
OBJECT__9
10
47.296001
20
-26.500000
30
961.924011
70
192
0
VERTEX
8
OBJECT__9
10
0
20
0
30
0
70
128
71
1
72
2
73
3
0
VERTEX
8
OBJECT__9
10
0
20
0
30
0
70
128
71
4
72
3
73
2
0
VERTEX
8
OBJECT__9
10
0
20
0
30
0
70
128
71
2
72
5
73
6
0
VERTEX
8
OBJECT__9
10
0
20
0
30
0
70
128
71
7
72
8
73
9
0
VERTEX
8
OBJECT__9
10
0
20
0
30
0
70
128
71
10
72
9
73
8
0
VERTEX
8
OBJECT__9
10
0
20
0
30
0
70
128
71
6
72
5
73
11
0
VERTEX
8
OBJECT__9
10
0
20
0
30
0
70
128
71
11
72
12
73
6
0
VERTEX
8
OBJECT__9
10
0
20
0
30
0
70
128
71
13
72
1
73
14
0
VERTEX
8
OBJECT__9
10
0
20
0
30
0
70
128
71
14
72
10
73
13
0
VERTEX
8
OBJECT__9
10
0
20
0
30
0
70
128
71
1
72
15
73
14
0
VERTEX
8
OBJECT__9
10
0
20
0
30
0
70
128
71
1
72
16
73
15
0
VERTEX
8
OBJECT__9
10
0
20
0
30
0
70
128
71
10
72
8
73
13
0
VERTEX
8
OBJECT__9
10
0
20
0
30
0
70
128
71
11
72
17
73
12
0
VERTEX
8
OBJECT__9
10
0
20
0
30
0
70
128
71
9
72
18
73
7
0
VERTEX
8
OBJECT__9
10
0
20
0
30
0
70
128
71
3
72
16
73
1
0
SEQEND
8
OBJECT__9
0
POLYLINE
8
OBJECT__10
66
1
70
64
71
17
72
15
62
253
0
VERTEX
8
OBJECT__10
10
8.553000
20
-26.239000
30
955.335999
70
192
0
VERTEX
8
OBJECT__10
10
7.734000
20
-26.204000
30
956.476013
70
192
0
VERTEX
8
OBJECT__10
10
2.351000
20
-26.150999
30
950.533997
70
192
0
VERTEX
8
OBJECT__10
10
2.080000
20
-26.098000
30
950.786987
70
192
0
VERTEX
8
OBJECT__10
10
-3.339000
20
-25.972000
30
938.833984
70
192
0
VERTEX
8
OBJECT__10
10
-1.452000
20
-26.073000
30
938.218994
70
192
0
VERTEX
8
OBJECT__10
10
25.521999
20
-26.438000
30
966.911011
70
192
0
VERTEX
8
OBJECT__10
10
25.740000
20
-26.431000
30
965.982971
70
192
0
VERTEX
8
OBJECT__10
10
46.250000
20
-26.500000
30
970.445007
70
192
0
VERTEX
8
OBJECT__10
10
-4.835000
20
-26.003000
30
927.263977
70
192
0
VERTEX
8
OBJECT__10
10
-3.409000
20
-25.971001
30
938.679016
70
192
0
VERTEX
8
OBJECT__10
10
-5.123000
20
-26.000999
30
915.195007
70
192
0
VERTEX
8
OBJECT__10
10
-5.413000
20
-25.919001
30
924.106018
70
192
0
VERTEX
8
OBJECT__10
10
-5.526000
20
-25.917999
30
915.195007
70
192
0
VERTEX
8
OBJECT__10
10
11.383000
20
-26.271999
30
960.146973
70
192
0
VERTEX
8
OBJECT__10
10
20.962000
20
-26.415001
30
964.942993
70
192
0
VERTEX
8
OBJECT__10
10
46.209999
20
-26.500000
30
970.771973
70
192
0
VERTEX
8
OBJECT__10
10
0
20
0
30
0
70
128
71
2
72
3
73
1
0
VERTEX
8
OBJECT__10
10
0
20
0
30
0
70
128
71
2
72
4
73
3
0
VERTEX
8
OBJECT__10
10
0
20
0
30
0
70
128
71
5
72
6
73
3
0
VERTEX
8
OBJECT__10
10
0
20
0
30
0
70
128
71
3
72
4
73
5
0
VERTEX
8
OBJECT__10
10
0
20
0
30
0
70
128
71
7
72
8
73
9
0
VERTEX
8
OBJECT__10
10
0
20
0
30
0
70
128
71
5
72
10
73
6
0
VERTEX
8
OBJECT__10
10
0
20
0
30
0
70
128
71
5
72
11
73
10
0
VERTEX
8
OBJECT__10
10
0
20
0
30
0
70
128
71
12
72
10
73
13
0
VERTEX
8
OBJECT__10
10
0
20
0
30
0
70
128
71
13
72
14
73
12
0
VERTEX
8
OBJECT__10
10
0
20
0
30
0
70
128
71
10
72
11
73
13
0
VERTEX
8
OBJECT__10
10
0
20
0
30
0
70
128
71
15
72
1
73
16
0
VERTEX
8
OBJECT__10
10
0
20
0
30
0
70
128
71
16
72
7
73
15
0
VERTEX
8
OBJECT__10
10
0
20
0
30
0
70
128
71
16
72
8
73
7
0
VERTEX
8
OBJECT__10
10
0
20
0
30
0
70
128
71
15
72
2
73
1
0
VERTEX
8
OBJECT__10
10
0
20
0
30
0
70
128
71
9
72
17
73
7
0
SEQEND
8
OBJECT__10
0
POLYLINE
8
OBJECT__11
66
1
70
64
71
16
72
14
62
253
0
VERTEX
8
OBJECT__11
10
-1.442000
20
26.075001
30
938.219971
70
192
0
VERTEX
8
OBJECT__11
10
2.363000
20
26.153999
30
950.531982
70
192
0
VERTEX
8
OBJECT__11
10
5.684000
20
26.476999
30
947.081970
70
192
0
VERTEX
8
OBJECT__11
10
8.566000
20
26.240999
30
955.336975
70
192
0
VERTEX
8
OBJECT__11
10
11.575000
20
26.496000
30
952.080017
70
192
0
VERTEX
8
OBJECT__11
10
25.743999
20
26.431000
30
965.982971
70
192
0
VERTEX
8
OBJECT__11
10
46.250000
20
26.500000
30
970.445007
70
192
0
VERTEX
8
OBJECT__11
10
46.752998
20
26.500000
30
966.348022
70
192
0
VERTEX
8
OBJECT__11
10
20.969000
20
26.415001
30
964.943970
70
192
0
VERTEX
8
OBJECT__11
10
21.988001
20
26.528999
30
960.916016
70
192
0
VERTEX
8
OBJECT__11
10
26.846001
20
26.523001
30
961.981995
70
192
0
VERTEX
8
OBJECT__11
10
-5.123000
20
26.000999
30
915.195007
70
192
0
VERTEX
8
OBJECT__11
10
-4.832000
20
26.004000
30
927.252991
70
192
0
VERTEX
8
OBJECT__11
10
0.150000
20
26.488001
30
924.799011
70
192
0
VERTEX
8
OBJECT__11
10
3.055000
20
26.482000
30
936.495972
70
192
0
VERTEX
8
OBJECT__11
10
-0.001000
20
26.500999
30
915.195007
70
192
0
VERTEX
8
OBJECT__11
10
0
20
0
30
0
70
128
71
1
72
2
73
3
0
VERTEX
8
OBJECT__11
10
0
20
0
30
0
70
128
71
3
72
2
73
4
0
VERTEX
8
OBJECT__11
10
0
20
0
30
0
70
128
71
4
72
5
73
3
0
VERTEX
8
OBJECT__11
10
0
20
0
30
0
70
128
71
6
72
7
73
8
0
VERTEX
8
OBJECT__11
10
0
20
0
30
0
70
128
71
4
72
9
73
10
0
VERTEX
8
OBJECT__11
10
0
20
0
30
0
70
128
71
10
72
9
73
6
0
VERTEX
8
OBJECT__11
10
0
20
0
30
0
70
128
71
6
72
11
73
10
0
VERTEX
8
OBJECT__11
10
0
20
0
30
0
70
128
71
12
72
13
73
14
0
VERTEX
8
OBJECT__11
10
0
20
0
30
0
70
128
71
15
72
14
73
13
0
VERTEX
8
OBJECT__11
10
0
20
0
30
0
70
128
71
13
72
1
73
15
0
VERTEX
8
OBJECT__11
10
0
20
0
30
0
70
128
71
14
72
16
73
12
0
VERTEX
8
OBJECT__11
10
0
20
0
30
0
70
128
71
10
72
5
73
4
0
VERTEX
8
OBJECT__11
10
0
20
0
30
0
70
128
71
8
72
11
73
6
0
VERTEX
8
OBJECT__11
10
0
20
0
30
0
70
128
71
3
72
15
73
1
0
SEQEND
8
OBJECT__11
0
POLYLINE
8
OBJECT__12
66
1
70
64
71
17
72
15
62
253
0
VERTEX
8
OBJECT__12
10
3.055000
20
26.482000
30
936.495972
70
192
0
VERTEX
8
OBJECT__12
10
5.684000
20
26.476999
30
947.081970
70
192
0
VERTEX
8
OBJECT__12
10
8.415000
20
26.268999
30
944.445007
70
192
0
VERTEX
8
OBJECT__12
10
11.575000
20
26.496000
30
952.080017
70
192
0
VERTEX
8
OBJECT__12
10
13.942000
20
26.340000
30
949.551025
70
192
0
VERTEX
8
OBJECT__12
10
26.846001
20
26.523001
30
961.981995
70
192
0
VERTEX
8
OBJECT__12
10
46.752998
20
26.500000
30
966.348022
70
192
0
VERTEX
8
OBJECT__12
10
47.147999
20
26.500000
30
963.135986
70
192
0
VERTEX
8
OBJECT__12
10
21.988001
20
26.528999
30
960.916016
70
192
0
VERTEX
8
OBJECT__12
10
22.834000
20
26.455000
30
957.767029
70
192
0
VERTEX
8
OBJECT__12
10
27.715000
20
26.464001
30
958.844971
70
192
0
VERTEX
8
OBJECT__12
10
0.000000
20
26.500999
30
915.195007
70
192
0
VERTEX
8
OBJECT__12
10
0.150000
20
26.488001
30
924.799011
70
192
0
VERTEX
8
OBJECT__12
10
4.105000
20
26.190001
30
922.963013
70
192
0
VERTEX
8
OBJECT__12
10
4.025000
20
26.194000
30
915.195007
70
192
0
VERTEX
8
OBJECT__12
10
6.548000
20
26.235001
30
935.137024
70
192
0
VERTEX
8
OBJECT__12
10
-0.001000
20
26.500999
30
915.195007
70
192
0
VERTEX
8
OBJECT__12
10
0
20
0
30
0
70
128
71
1
72
2
73
3
0
VERTEX
8
OBJECT__12
10
0
20
0
30
0
70
128
71
4
72
5
73
3
0
VERTEX
8
OBJECT__12
10
0
20
0
30
0
70
128
71
3
72
2
73
4
0
VERTEX
8
OBJECT__12
10
0
20
0
30
0
70
128
71
6
72
7
73
8
0
VERTEX
8
OBJECT__12
10
0
20
0
30
0
70
128
71
4
72
9
73
10
0
VERTEX
8
OBJECT__12
10
0
20
0
30
0
70
128
71
10
72
9
73
6
0
VERTEX
8
OBJECT__12
10
0
20
0
30
0
70
128
71
6
72
11
73
10
0
VERTEX
8
OBJECT__12
10
0
20
0
30
0
70
128
71
12
72
13
73
14
0
VERTEX
8
OBJECT__12
10
0
20
0
30
0
70
128
71
14
72
15
73
12
0
VERTEX
8
OBJECT__12
10
0
20
0
30
0
70
128
71
16
72
14
73
13
0
VERTEX
8
OBJECT__12
10
0
20
0
30
0
70
128
71
13
72
1
73
16
0
VERTEX
8
OBJECT__12
10
0
20
0
30
0
70
128
71
12
72
17
73
13
0
VERTEX
8
OBJECT__12
10
0
20
0
30
0
70
128
71
10
72
5
73
4
0
VERTEX
8
OBJECT__12
10
0
20
0
30
0
70
128
71
8
72
11
73
6
0
VERTEX
8
OBJECT__12
10
0
20
0
30
0
70
128
71
3
72
16
73
1
0
SEQEND
8
OBJECT__12
0
POLYLINE
8
OBJECT__13
66
1
70
64
71
17
72
15
62
253
0
VERTEX
8
OBJECT__13
10
-3.323000
20
25.976000
30
938.833008
70
192
0
VERTEX
8
OBJECT__13
10
2.094000
20
26.101999
30
950.783997
70
192
0
VERTEX
8
OBJECT__13
10
2.363000
20
26.153999
30
950.531982
70
192
0
VERTEX
8
OBJECT__13
10
7.749000
20
26.207001
30
956.476013
70
192
0
VERTEX
8
OBJECT__13
10
8.566000
20
26.240999
30
955.336975
70
192
0
VERTEX
8
OBJECT__13
10
25.527000
20
26.438999
30
966.911011
70
192
0
VERTEX
8
OBJECT__13
10
46.209999
20
26.500000
30
970.771973
70
192
0
VERTEX
8
OBJECT__13
10
46.250000
20
26.500000
30
970.445007
70
192
0
VERTEX
8
OBJECT__13
10
-5.123000
20
26.000999
30
915.195007
70
192
0
VERTEX
8
OBJECT__13
10
-5.526000
20
25.917999
30
915.195007
70
192
0
VERTEX
8
OBJECT__13
10
-5.409000
20
25.921000
30
924.080017
70
192
0
VERTEX
8
OBJECT__13
10
-3.399000
20
25.974001
30
938.666016
70
192
0
VERTEX
8
OBJECT__13
10
-4.832000
20
26.004000
30
927.252991
70
192
0
VERTEX
8
OBJECT__13
10
-1.442000
20
26.075001
30
938.219971
70
192
0
VERTEX
8
OBJECT__13
10
25.743999
20
26.431000
30
965.982971
70
192
0
VERTEX
8
OBJECT__13
10
20.969000
20
26.415001
30
964.943970
70
192
0
VERTEX
8
OBJECT__13
10
11.397000
20
26.274000
30
960.148010
70
192
0
VERTEX
8
OBJECT__13
10
0
20
0
30
0
70
128
71
1
72
2
73
3
0
VERTEX
8
OBJECT__13
10
0
20
0
30
0
70
128
71
4
72
5
73
3
0
VERTEX
8
OBJECT__13
10
0
20
0
30
0
70
128
71
3
72
2
73
4
0
VERTEX
8
OBJECT__13
10
0
20
0
30
0
70
128
71
6
72
7
73
8
0
VERTEX
8
OBJECT__13
10
0
20
0
30
0
70
128
71
9
72
10
73
11
0
VERTEX
8
OBJECT__13
10
0
20
0
30
0
70
128
71
11
72
12
73
13
0
VERTEX
8
OBJECT__13
10
0
20
0
30
0
70
128
71
14
72
13
73
12
0
VERTEX
8
OBJECT__13
10
0
20
0
30
0
70
128
71
12
72
1
73
14
0
VERTEX
8
OBJECT__13
10
0
20
0
30
0
70
128
71
6
72
15
73
16
0
VERTEX
8
OBJECT__13
10
0
20
0
30
0
70
128
71
16
72
17
73
6
0
VERTEX
8
OBJECT__13
10
0
20
0
30
0
70
128
71
16
72
5
73
17
0
VERTEX
8
OBJECT__13
10
0
20
0
30
0
70
128
71
5
72
4
73
17
0
VERTEX
8
OBJECT__13
10
0
20
0
30
0
70
128
71
11
72
13
73
9
0
VERTEX
8
OBJECT__13
10
0
20
0
30
0
70
128
71
8
72
15
73
6
0
VERTEX
8
OBJECT__13
10
0
20
0
30
0
70
128
71
3
72
14
73
1
0
SEQEND
8
OBJECT__13
0
POLYLINE
8
OBJECT__14
66
1
70
64
71
49
72
47
62
253
0
VERTEX
8
OBJECT__14
10
-23.417000
20
11.823000
30
815.775024
70
192
0
VERTEX
8
OBJECT__14
10
-25.827999
20
5.935000
30
812.599976
70
192
0
VERTEX
8
OBJECT__14
10
-23.839001
20
4.448000
30
819.916016
70
192
0
VERTEX
8
OBJECT__14
10
-26.184000
20
-0.222000
30
812.168030
70
192
0
VERTEX
8
OBJECT__14
10
-24.162001
20
-0.198000
30
819.385986
70
192
0
VERTEX
8
OBJECT__14
10
-8.045000
20
-25.236000
30
855.409973
70
192
0
VERTEX
8
OBJECT__14
10
-5.876000
20
-25.841000
30
877.062012
70
192
0
VERTEX
8
OBJECT__14
10
-10.548000
20
-20.304001
30
865.820984
70
192
0
VERTEX
8
OBJECT__14
10
-9.384000
20
-20.784000
30
894.664001
70
192
0
VERTEX
8
OBJECT__14
10
-8.781000
20
-24.375999
30
915.195007
70
192
0
VERTEX
8
OBJECT__14
10
-9.364000
20
-20.791000
30
915.195007
70
192
0
VERTEX
8
OBJECT__14
10
-5.526000
20
-25.917999
30
915.195007
70
192
0
VERTEX
8
OBJECT__14
10
-10.671000
20
-20.253000
30
862.784973
70
192
0
VERTEX
8
OBJECT__14
10
-8.781000
20
24.375999
30
915.195007
70
192
0
VERTEX
8
OBJECT__14
10
-5.526000
20
25.917999
30
915.195007
70
192
0
VERTEX
8
OBJECT__14
10
-5.660000
20
25.889999
30
884.552002
70
192
0
VERTEX
8
OBJECT__14
10
-9.902000
20
20.580000
30
872.715027
70
192
0
VERTEX
8
OBJECT__14
10
-9.364000
20
20.792000
30
915.195007
70
192
0
VERTEX
8
OBJECT__14
10
-7.721000
20
25.351000
30
856.200989
70
192
0
VERTEX
8
OBJECT__14
10
-10.767000
20
20.155001
30
865.862976
70
192
0
VERTEX
8
OBJECT__14
10
-11.301000
20
19.892000
30
861.630981
70
192
0
VERTEX
8
OBJECT__14
10
-7.923000
20
25.271000
30
855.325012
70
192
0
VERTEX
8
OBJECT__14
10
-11.723000
20
23.767000
30
838.853027
70
192
0
VERTEX
8
OBJECT__14
10
-13.080000
20
19.017000
30
847.538025
70
192
0
VERTEX
8
OBJECT__14
10
-17.169001
20
20.149000
30
825.854980
70
192
0
VERTEX
8
OBJECT__14
10
-16.995001
20
16.086000
30
834.429993
70
192
0
VERTEX
8
OBJECT__14
10
-17.367001
20
20.017000
30
825.382996
70
192
0
VERTEX
8
OBJECT__14
10
-22.572001
20
13.886000
30
816.887024
70
192
0
VERTEX
8
OBJECT__14
10
-21.323000
20
10.862000
30
824.398987
70
192
0
VERTEX
8
OBJECT__14
10
-18.285999
20
14.665000
30
831.129028
70
192
0
VERTEX
8
OBJECT__14
10
-17.382999
20
15.795000
30
833.130981
70
192
0
VERTEX
8
OBJECT__14
10
-22.849001
20
13.208000
30
816.520996
70
192
0
VERTEX
8
OBJECT__14
10
-21.636999
20
10.062000
30
823.840027
70
192
0
VERTEX
8
OBJECT__14
10
-12.966000
20
-23.112000
30
835.263977
70
192
0
VERTEX
8
OBJECT__14
10
-14.283000
20
-18.264000
30
842.630981
70
192
0
VERTEX
8
OBJECT__14
10
-17.159000
20
-15.742000
30
834.424988
70
192
0
VERTEX
8
OBJECT__14
10
-8.337000
20
-25.155001
30
852.494995
70
192
0
VERTEX
8
OBJECT__14
10
-10.876000
20
-20.139999
30
861.643005
70
192
0
VERTEX
8
OBJECT__14
10
-19.062000
20
-18.410000
30
822.335999
70
192
0
VERTEX
8
OBJECT__14
10
-18.903999
20
-14.211000
30
829.445007
70
192
0
VERTEX
8
OBJECT__14
10
-21.681999
20
-9.818000
30
823.872986
70
192
0
VERTEX
8
OBJECT__14
10
-22.738001
20
-13.106000
30
816.814026
70
192
0
VERTEX
8
OBJECT__14
10
-23.594000
20
-11.871000
30
815.528015
70
192
0
VERTEX
8
OBJECT__14
10
-17.379000
20
-19.708000
30
825.905029
70
192
0
VERTEX
8
OBJECT__14
10
-18.313000
20
-14.730000
30
831.130981
70
192
0
VERTEX
8
OBJECT__14
10
-26.340000
20
-2.916000
30
811.979004
70
192
0
VERTEX
8
OBJECT__14
10
-24.257000
20
-1.561000
30
819.229980
70
192
0
VERTEX
8
OBJECT__14
10
-23.930000
20
-11.386000
30
815.023010
70
192
0
VERTEX
8
OBJECT__14
10
-22.559000
20
-8.431000
30
822.114014
70
192
0
VERTEX
8
OBJECT__14
10
0
20
0
30
0
70
128
71
1
72
2
73
3
0
VERTEX
8
OBJECT__14
10
0
20
0
30
0
70
128
71
2
72
4
73
5
0
VERTEX
8
OBJECT__14
10
0
20
0
30
0
70
128
71
5
72
3
73
2
0
VERTEX
8
OBJECT__14
10
0
20
0
30
0
70
128
71
6
72
7
73
8
0
VERTEX
8
OBJECT__14
10
0
20
0
30
0
70
128
71
7
72
9
73
8
0
VERTEX
8
OBJECT__14
10
0
20
0
30
0
70
128
71
10
72
11
73
9
0
VERTEX
8
OBJECT__14
10
0
20
0
30
0
70
128
71
7
72
12
73
10
0
VERTEX
8
OBJECT__14
10
0
20
0
30
0
70
128
71
9
72
7
73
10
0
VERTEX
8
OBJECT__14
10
0
20
0
30
0
70
128
71
8
72
13
73
6
0
VERTEX
8
OBJECT__14
10
0
20
0
30
0
70
128
71
14
72
15
73
16
0
VERTEX
8
OBJECT__14
10
0
20
0
30
0
70
128
71
17
72
18
73
14
0
VERTEX
8
OBJECT__14
10
0
20
0
30
0
70
128
71
19
72
20
73
17
0
VERTEX
8
OBJECT__14
10
0
20
0
30
0
70
128
71
21
72
20
73
19
0
VERTEX
8
OBJECT__14
10
0
20
0
30
0
70
128
71
19
72
22
73
21
0
VERTEX
8
OBJECT__14
10
0
20
0
30
0
70
128
71
17
72
16
73
19
0
VERTEX
8
OBJECT__14
10
0
20
0
30
0
70
128
71
22
72
23
73
24
0
VERTEX
8
OBJECT__14
10
0
20
0
30
0
70
128
71
23
72
25
73
26
0
VERTEX
8
OBJECT__14
10
0
20
0
30
0
70
128
71
26
72
24
73
23
0
VERTEX
8
OBJECT__14
10
0
20
0
30
0
70
128
71
27
72
28
73
29
0
VERTEX
8
OBJECT__14
10
0
20
0
30
0
70
128
71
30
72
25
73
27
0
VERTEX
8
OBJECT__14
10
0
20
0
30
0
70
128
71
29
72
30
73
27
0
VERTEX
8
OBJECT__14
10
0
20
0
30
0
70
128
71
30
72
31
73
25
0
VERTEX
8
OBJECT__14
10
0
20
0
30
0
70
128
71
28
72
32
73
33
0
VERTEX
8
OBJECT__14
10
0
20
0
30
0
70
128
71
33
72
29
73
28
0
VERTEX
8
OBJECT__14
10
0
20
0
30
0
70
128
71
32
72
1
73
33
0
VERTEX
8
OBJECT__14
10
0
20
0
30
0
70
128
71
34
72
35
73
36
0
VERTEX
8
OBJECT__14
10
0
20
0
30
0
70
128
71
37
72
38
73
35
0
VERTEX
8
OBJECT__14
10
0
20
0
30
0
70
128
71
35
72
34
73
37
0
VERTEX
8
OBJECT__14
10
0
20
0
30
0
70
128
71
37
72
6
73
38
0
VERTEX
8
OBJECT__14
10
0
20
0
30
0
70
128
71
39
72
40
73
41
0
VERTEX
8
OBJECT__14
10
0
20
0
30
0
70
128
71
41
72
42
73
39
0
VERTEX
8
OBJECT__14
10
0
20
0
30
0
70
128
71
41
72
43
73
42
0
VERTEX
8
OBJECT__14
10
0
20
0
30
0
70
128
71
44
72
36
73
45
0
VERTEX
8
OBJECT__14
10
0
20
0
30
0
70
128
71
45
72
40
73
44
0
VERTEX
8
OBJECT__14
10
0
20
0
30
0
70
128
71
4
72
46
73
47
0
VERTEX
8
OBJECT__14
10
0
20
0
30
0
70
128
71
48
72
49
73
47
0
VERTEX
8
OBJECT__14
10
0
20
0
30
0
70
128
71
47
72
46
73
48
0
VERTEX
8
OBJECT__14
10
0
20
0
30
0
70
128
71
43
72
41
73
49
0
VERTEX
8
OBJECT__14
10
0
20
0
30
0
70
128
71
48
72
43
73
49
0
VERTEX
8
OBJECT__14
10
0
20
0
30
0
70
128
71
47
72
5
73
4
0
VERTEX
8
OBJECT__14
10
0
20
0
30
0
70
128
71
39
72
44
73
40
0
VERTEX
8
OBJECT__14
10
0
20
0
30
0
70
128
71
36
72
44
73
34
0
VERTEX
8
OBJECT__14
10
0
20
0
30
0
70
128
71
31
72
26
73
25
0
VERTEX
8
OBJECT__14
10
0
20
0
30
0
70
128
71
24
72
21
73
22
0
VERTEX
8
OBJECT__14
10
0
20
0
30
0
70
128
71
16
72
17
73
14
0
VERTEX
8
OBJECT__14
10
0
20
0
30
0
70
128
71
13
72
38
73
6
0
VERTEX
8
OBJECT__14
10
0
20
0
30
0
70
128
71
3
72
33
73
1
0
SEQEND
8
OBJECT__14
0
POLYLINE
8
OBJECT__15
66
1
70
64
71
17
72
15
62
253
0
VERTEX
8
OBJECT__15
10
6.741000
20
25.978001
30
934.820007
70
192
0
VERTEX
8
OBJECT__15
10
6.548000
20
26.235001
30
935.137024
70
192
0
VERTEX
8
OBJECT__15
10
8.415000
20
26.268999
30
944.445007
70
192
0
VERTEX
8
OBJECT__15
10
13.942000
20
26.340000
30
949.551025
70
192
0
VERTEX
8
OBJECT__15
10
14.018000
20
26.205999
30
949.450012
70
192
0
VERTEX
8
OBJECT__15
10
11.244000
20
26.141001
30
946.703003
70
192
0
VERTEX
8
OBJECT__15
10
27.715000
20
26.464001
30
958.844971
70
192
0
VERTEX
8
OBJECT__15
10
31.320999
20
26.465000
30
959.322021
70
192
0
VERTEX
8
OBJECT__15
10
28.031000
20
26.427000
30
957.987976
70
192
0
VERTEX
8
OBJECT__15
10
47.147999
20
26.500000
30
963.135986
70
192
0
VERTEX
8
OBJECT__15
10
47.296001
20
26.500000
30
961.924011
70
192
0
VERTEX
8
OBJECT__15
10
5.523000
20
25.919001
30
915.195007
70
192
0
VERTEX
8
OBJECT__15
10
4.105000
20
26.190001
30
922.963013
70
192
0
VERTEX
8
OBJECT__15
10
4.025000
20
26.194000
30
915.195007
70
192
0
VERTEX
8
OBJECT__15
10
22.834000
20
26.455000
30
957.767029
70
192
0
VERTEX
8
OBJECT__15
10
18.905001
20
26.322001
30
954.286987
70
192
0
VERTEX
8
OBJECT__15
10
14.013000
20
26.142000
30
949.455994
70
192
0
VERTEX
8
OBJECT__15
10
0
20
0
30
0
70
128
71
1
72
2
73
3
0
VERTEX
8
OBJECT__15
10
0
20
0
30
0
70
128
71
4
72
5
73
6
0
VERTEX
8
OBJECT__15
10
0
20
0
30
0
70
128
71
6
72
3
73
4
0
VERTEX
8
OBJECT__15
10
0
20
0
30
0
70
128
71
7
72
8
73
9
0
VERTEX
8
OBJECT__15
10
0
20
0
30
0
70
128
71
10
72
11
73
8
0
VERTEX
8
OBJECT__15
10
0
20
0
30
0
70
128
71
8
72
7
73
10
0
VERTEX
8
OBJECT__15
10
0
20
0
30
0
70
128
71
1
72
12
73
13
0
VERTEX
8
OBJECT__15
10
0
20
0
30
0
70
128
71
12
72
14
73
13
0
VERTEX
8
OBJECT__15
10
0
20
0
30
0
70
128
71
15
72
9
73
16
0
VERTEX
8
OBJECT__15
10
0
20
0
30
0
70
128
71
16
72
4
73
15
0
VERTEX
8
OBJECT__15
10
0
20
0
30
0
70
128
71
16
72
17
73
4
0
VERTEX
8
OBJECT__15
10
0
20
0
30
0
70
128
71
15
72
7
73
9
0
VERTEX
8
OBJECT__15
10
0
20
0
30
0
70
128
71
17
72
5
73
4
0
VERTEX
8
OBJECT__15
10
0
20
0
30
0
70
128
71
13
72
2
73
1
0
VERTEX
8
OBJECT__15
10
0
20
0
30
0
70
128
71
3
72
6
73
1
0
SEQEND
8
OBJECT__15
0
POLYLINE
8
OBJECT__16
66
1
70
64
71
49
72
47
62
253
0
VERTEX
8
OBJECT__16
10
23.393000
20
-11.875000
30
815.802002
70
192
0
VERTEX
8
OBJECT__16
10
25.830999
20
-5.920000
30
812.593018
70
192
0
VERTEX
8
OBJECT__16
10
23.860001
20
-4.344000
30
819.875977
70
192
0
VERTEX
8
OBJECT__16
10
26.173000
20
0.051000
30
812.177979
70
192
0
VERTEX
8
OBJECT__16
10
24.171000
20
0.042000
30
819.367004
70
192
0
VERTEX
8
OBJECT__16
10
10.708000
20
20.237000
30
862.408997
70
192
0
VERTEX
8
OBJECT__16
10
8.048000
20
25.235001
30
855.401978
70
192
0
VERTEX
8
OBJECT__16
10
5.867000
20
25.843000
30
877.229980
70
192
0
VERTEX
8
OBJECT__16
10
8.777000
20
24.379999
30
915.195007
70
192
0
VERTEX
8
OBJECT__16
10
9.361000
20
20.792999
30
915.195007
70
192
0
VERTEX
8
OBJECT__16
10
9.378000
20
20.785999
30
900.536987
70
192
0
VERTEX
8
OBJECT__16
10
5.523000
20
25.919001
30
915.195007
70
192
0
VERTEX
8
OBJECT__16
10
9.386000
20
20.782000
30
893.804993
70
192
0
VERTEX
8
OBJECT__16
10
8.777000
20
-24.379999
30
915.195007
70
192
0
VERTEX
8
OBJECT__16
10
5.523000
20
-25.919001
30
915.195007
70
192
0
VERTEX
8
OBJECT__16
10
5.642000
20
-25.893000
30
885.401001
70
192
0
VERTEX
8
OBJECT__16
10
9.890000
20
-20.584000
30
872.875977
70
192
0
VERTEX
8
OBJECT__16
10
9.544000
20
-20.719999
30
900.539001
70
192
0
VERTEX
8
OBJECT__16
10
9.361000
20
-20.792000
30
915.195007
70
192
0
VERTEX
8
OBJECT__16
10
7.636000
20
-25.375999
30
856.744995
70
192
0
VERTEX
8
OBJECT__16
10
11.299000
20
-19.893000
30
861.655029
70
192
0
VERTEX
8
OBJECT__16
10
7.955000
20
-25.250000
30
855.362976
70
192
0
VERTEX
8
OBJECT__16
10
11.842000
20
-23.708000
30
838.476990
70
192
0
VERTEX
8
OBJECT__16
10
13.065000
20
-19.025999
30
847.590027
70
192
0
VERTEX
8
OBJECT__16
10
12.287000
20
-19.408001
30
853.786987
70
192
0
VERTEX
8
OBJECT__16
10
17.142000
20
-20.169001
30
825.906982
70
192
0
VERTEX
8
OBJECT__16
10
16.983999
20
-16.087000
30
834.486023
70
192
0
VERTEX
8
OBJECT__16
10
17.357000
20
-20.025000
30
825.398010
70
192
0
VERTEX
8
OBJECT__16
10
22.568001
20
-13.891000
30
816.888000
70
192
0
VERTEX
8
OBJECT__16
10
21.188000
20
-11.087000
30
824.655029
70
192
0
VERTEX
8
OBJECT__16
10
17.421000
20
-15.759000
30
833.023987
70
192
0
VERTEX
8
OBJECT__16
10
22.848000
20
-13.207000
30
816.520020
70
192
0
VERTEX
8
OBJECT__16
10
21.596001
20
-10.056000
30
823.924011
70
192
0
VERTEX
8
OBJECT__16
10
13.023000
20
23.080000
30
835.104980
70
192
0
VERTEX
8
OBJECT__16
10
14.382000
20
18.198000
30
842.260010
70
192
0
VERTEX
8
OBJECT__16
10
17.254999
20
15.647000
30
834.150024
70
192
0
VERTEX
8
OBJECT__16
10
8.344000
20
25.153000
30
852.443970
70
192
0
VERTEX
8
OBJECT__16
10
12.276000
20
19.365999
30
853.806030
70
192
0
VERTEX
8
OBJECT__16
10
10.850000
20
20.158001
30
861.629028
70
192
0
VERTEX
8
OBJECT__16
10
19.066000
20
18.406000
30
822.325989
70
192
0
VERTEX
8
OBJECT__16
10
19.010000
20
14.089000
30
829.197998
70
192
0
VERTEX
8
OBJECT__16
10
21.754000
20
9.678000
30
823.728027
70
192
0
VERTEX
8
OBJECT__16
10
22.738001
20
13.107000
30
816.809021
70
192
0
VERTEX
8
OBJECT__16
10
23.695999
20
11.725000
30
815.369995
70
192
0
VERTEX
8
OBJECT__16
10
17.514999
20
19.606001
30
825.604980
70
192
0
VERTEX
8
OBJECT__16
10
26.337999
20
2.929000
30
811.976990
70
192
0
VERTEX
8
OBJECT__16
10
24.267000
20
1.401000
30
819.208984
70
192
0
VERTEX
8
OBJECT__16
10
23.927999
20
11.389000
30
815.020020
70
192
0
VERTEX
8
OBJECT__16
10
22.622000
20
8.282000
30
821.997009
70
192
0
VERTEX
8
OBJECT__16
10
0
20
0
30
0
70
128
71
1
72
2
73
3
0
VERTEX
8
OBJECT__16
10
0
20
0
30
0
70
128
71
2
72
4
73
5
0
VERTEX
8
OBJECT__16
10
0
20
0
30
0
70
128
71
5
72
3
73
2
0
VERTEX
8
OBJECT__16
10
0
20
0
30
0
70
128
71
6
72
7
73
8
0
VERTEX
8
OBJECT__16
10
0
20
0
30
0
70
128
71
9
72
10
73
11
0
VERTEX
8
OBJECT__16
10
0
20
0
30
0
70
128
71
11
72
8
73
9
0
VERTEX
8
OBJECT__16
10
0
20
0
30
0
70
128
71
8
72
12
73
9
0
VERTEX
8
OBJECT__16
10
0
20
0
30
0
70
128
71
11
72
13
73
8
0
VERTEX
8
OBJECT__16
10
0
20
0
30
0
70
128
71
8
72
13
73
6
0
VERTEX
8
OBJECT__16
10
0
20
0
30
0
70
128
71
14
72
15
73
16
0
VERTEX
8
OBJECT__16
10
0
20
0
30
0
70
128
71
14
72
17
73
18
0
VERTEX
8
OBJECT__16
10
0
20
0
30
0
70
128
71
18
72
19
73
14
0
VERTEX
8
OBJECT__16
10
0
20
0
30
0
70
128
71
20
72
21
73
17
0
VERTEX
8
OBJECT__16
10
0
20
0
30
0
70
128
71
17
72
16
73
20
0
VERTEX
8
OBJECT__16
10
0
20
0
30
0
70
128
71
20
72
22
73
21
0
VERTEX
8
OBJECT__16
10
0
20
0
30
0
70
128
71
22
72
23
73
24
0
VERTEX
8
OBJECT__16
10
0
20
0
30
0
70
128
71
24
72
25
73
22
0
VERTEX
8
OBJECT__16
10
0
20
0
30
0
70
128
71
23
72
26
73
27
0
VERTEX
8
OBJECT__16
10
0
20
0
30
0
70
128
71
27
72
24
73
23
0
VERTEX
8
OBJECT__16
10
0
20
0
30
0
70
128
71
28
72
29
73
30
0
VERTEX
8
OBJECT__16
10
0
20
0
30
0
70
128
71
31
72
26
73
28
0
VERTEX
8
OBJECT__16
10
0
20
0
30
0
70
128
71
30
72
31
73
28
0
VERTEX
8
OBJECT__16
10
0
20
0
30
0
70
128
71
29
72
32
73
33
0
VERTEX
8
OBJECT__16
10
0
20
0
30
0
70
128
71
33
72
30
73
29
0
VERTEX
8
OBJECT__16
10
0
20
0
30
0
70
128
71
32
72
1
73
33
0
VERTEX
8
OBJECT__16
10
0
20
0
30
0
70
128
71
34
72
35
73
36
0
VERTEX
8
OBJECT__16
10
0
20
0
30
0
70
128
71
37
72
38
73
35
0
VERTEX
8
OBJECT__16
10
0
20
0
30
0
70
128
71
38
72
37
73
7
0
VERTEX
8
OBJECT__16
10
0
20
0
30
0
70
128
71
7
72
39
73
38
0
VERTEX
8
OBJECT__16
10
0
20
0
30
0
70
128
71
35
72
34
73
37
0
VERTEX
8
OBJECT__16
10
0
20
0
30
0
70
128
71
40
72
41
73
42
0
VERTEX
8
OBJECT__16
10
0
20
0
30
0
70
128
71
42
72
43
73
40
0
VERTEX
8
OBJECT__16
10
0
20
0
30
0
70
128
71
42
72
44
73
43
0
VERTEX
8
OBJECT__16
10
0
20
0
30
0
70
128
71
45
72
36
73
41
0
VERTEX
8
OBJECT__16
10
0
20
0
30
0
70
128
71
4
72
46
73
47
0
VERTEX
8
OBJECT__16
10
0
20
0
30
0
70
128
71
48
72
49
73
47
0
VERTEX
8
OBJECT__16
10
0
20
0
30
0
70
128
71
47
72
46
73
48
0
VERTEX
8
OBJECT__16
10
0
20
0
30
0
70
128
71
44
72
42
73
49
0
VERTEX
8
OBJECT__16
10
0
20
0
30
0
70
128
71
48
72
44
73
49
0
VERTEX
8
OBJECT__16
10
0
20
0
30
0
70
128
71
47
72
5
73
4
0
VERTEX
8
OBJECT__16
10
0
20
0
30
0
70
128
71
40
72
45
73
41
0
VERTEX
8
OBJECT__16
10
0
20
0
30
0
70
128
71
36
72
45
73
34
0
VERTEX
8
OBJECT__16
10
0
20
0
30
0
70
128
71
31
72
27
73
26
0
VERTEX
8
OBJECT__16
10
0
20
0
30
0
70
128
71
25
72
21
73
22
0
VERTEX
8
OBJECT__16
10
0
20
0
30
0
70
128
71
16
72
17
73
14
0
VERTEX
8
OBJECT__16
10
0
20
0
30
0
70
128
71
6
72
39
73
7
0
VERTEX
8
OBJECT__16
10
0
20
0
30
0
70
128
71
3
72
33
73
1
0
SEQEND
8
OBJECT__16
0
POLYLINE
8
OBJECT__17
66
1
70
64
71
26
72
26
62
253
0
VERTEX
8
OBJECT__17
10
15.964000
20
9.688000
30
837.057983
70
192
0
VERTEX
8
OBJECT__17
10
17.254999
20
15.647000
30
834.150024
70
192
0
VERTEX
8
OBJECT__17
10
14.382000
20
18.198000
30
842.260010
70
192
0
VERTEX
8
OBJECT__17
10
21.754000
20
9.678000
30
823.728027
70
192
0
VERTEX
8
OBJECT__17
10
19.010000
20
14.089000
30
829.197998
70
192
0
VERTEX
8
OBJECT__17
10
24.171000
20
0.042000
30
819.367004
70
192
0
VERTEX
8
OBJECT__17
10
24.267000
20
1.401000
30
819.208984
70
192
0
VERTEX
8
OBJECT__17
10
22.622000
20
8.282000
30
821.997009
70
192
0
VERTEX
8
OBJECT__17
10
21.596001
20
-10.056000
30
823.924011
70
192
0
VERTEX
8
OBJECT__17
10
23.860001
20
-4.344000
30
819.875977
70
192
0
VERTEX
8
OBJECT__17
10
17.421000
20
-15.759000
30
833.023987
70
192
0
VERTEX
8
OBJECT__17
10
21.188000
20
-11.087000
30
824.655029
70
192
0
VERTEX
8
OBJECT__17
10
16.983999
20
-16.087000
30
834.486023
70
192
0
VERTEX
8
OBJECT__17
10
12.287000
20
-19.408001
30
853.786987
70
192
0
VERTEX
8
OBJECT__17
10
13.065000
20
-19.025999
30
847.590027
70
192
0
VERTEX
8
OBJECT__17
10
12.276000
20
19.365999
30
853.806030
70
192
0
VERTEX
8
OBJECT__17
10
10.751000
20
0.172000
30
862.005005
70
192
0
VERTEX
8
OBJECT__17
10
10.850000
20
20.158001
30
861.629028
70
192
0
VERTEX
8
OBJECT__17
10
10.708000
20
20.237000
30
862.408997
70
192
0
VERTEX
8
OBJECT__17
10
9.386000
20
20.782000
30
893.804993
70
192
0
VERTEX
8
OBJECT__17
10
9.544000
20
-20.719999
30
900.539001
70
192
0
VERTEX
8
OBJECT__17
10
9.890000
20
-20.584000
30
872.875977
70
192
0
VERTEX
8
OBJECT__17
10
11.299000
20
-19.893000
30
861.655029
70
192
0
VERTEX
8
OBJECT__17
10
9.378000
20
20.785999
30
900.536987
70
192
0
VERTEX
8
OBJECT__17
10
9.361000
20
20.792999
30
915.195007
70
192
0
VERTEX
8
OBJECT__17
10
9.361000
20
-20.792000
30
915.195007
70
192
0
VERTEX
8
OBJECT__17
10
0
20
0
30
0
70
128
71
1
72
2
73
3
0
VERTEX
8
OBJECT__17
10
0
20
0
30
0
70
128
71
1
72
4
73
5
0
VERTEX
8
OBJECT__17
10
0
20
0
30
0
70
128
71
5
72
2
73
1
0
VERTEX
8
OBJECT__17
10
0
20
0
30
0
70
128
71
1
72
6
73
7
0
VERTEX
8
OBJECT__17
10
0
20
0
30
0
70
128
71
7
72
8
73
1
0
VERTEX
8
OBJECT__17
10
0
20
0
30
0
70
128
71
8
72
4
73
1
0
VERTEX
8
OBJECT__17
10
0
20
0
30
0
70
128
71
1
72
9
73
10
0
VERTEX
8
OBJECT__17
10
0
20
0
30
0
70
128
71
1
72
11
73
12
0
VERTEX
8
OBJECT__17
10
0
20
0
30
0
70
128
71
1
72
13
73
11
0
VERTEX
8
OBJECT__17
10
0
20
0
30
0
70
128
71
12
72
9
73
1
0
VERTEX
8
OBJECT__17
10
0
20
0
30
0
70
128
71
1
72
14
73
15
0
VERTEX
8
OBJECT__17
10
0
20
0
30
0
70
128
71
15
72
13
73
1
0
VERTEX
8
OBJECT__17
10
0
20
0
30
0
70
128
71
10
72
6
73
1
0
VERTEX
8
OBJECT__17
10
0
20
0
30
0
70
128
71
1
72
16
73
14
0
VERTEX
8
OBJECT__17
10
0
20
0
30
0
70
128
71
14
72
16
73
17
0
VERTEX
8
OBJECT__17
10
0
20
0
30
0
70
128
71
17
72
16
73
18
0
VERTEX
8
OBJECT__17
10
0
20
0
30
0
70
128
71
18
72
19
73
17
0
VERTEX
8
OBJECT__17
10
0
20
0
30
0
70
128
71
20
72
21
73
17
0
VERTEX
8
OBJECT__17
10
0
20
0
30
0
70
128
71
17
72
19
73
20
0
VERTEX
8
OBJECT__17
10
0
20
0
30
0
70
128
71
17
72
21
73
22
0
VERTEX
8
OBJECT__17
10
0
20
0
30
0
70
128
71
22
72
23
73
17
0
VERTEX
8
OBJECT__17
10
0
20
0
30
0
70
128
71
20
72
24
73
21
0
VERTEX
8
OBJECT__17
10
0
20
0
30
0
70
128
71
25
72
26
73
21
0
VERTEX
8
OBJECT__17
10
0
20
0
30
0
70
128
71
21
72
24
73
25
0
VERTEX
8
OBJECT__17
10
0
20
0
30
0
70
128
71
17
72
23
73
14
0
VERTEX
8
OBJECT__17
10
0
20
0
30
0
70
128
71
3
72
16
73
1
0
SEQEND
8
OBJECT__17
0
POLYLINE
8
OBJECT__18
66
1
70
64
71
26
72
27
62
253
0
VERTEX
8
OBJECT__18
10
17.472000
20
-23.091000
30
946.237976
70
192
0
VERTEX
8
OBJECT__18
10
15.141000
20
-18.680000
30
940.867004
70
192
0
VERTEX
8
OBJECT__18
10
19.504000
20
-17.511999
30
944.755981
70
192
0
VERTEX
8
OBJECT__18
10
10.173000
20
-24.149000
30
933.090027
70
192
0
VERTEX
8
OBJECT__18
10
11.294000
20
-20.033001
30
932.273987
70
192
0
VERTEX
8
OBJECT__18
10
47.903999
20
-21.504000
30
956.973022
70
192
0
VERTEX
8
OBJECT__18
10
30.923000
20
-22.004999
30
953.578003
70
192
0
VERTEX
8
OBJECT__18
10
35.262001
20
-14.669000
30
952.731018
70
192
0
VERTEX
8
OBJECT__18
10
32.903000
20
-15.030000
30
951.820007
70
192
0
VERTEX
8
OBJECT__18
10
11.243000
20
-26.141001
30
946.703003
70
192
0
VERTEX
8
OBJECT__18
10
14.018000
20
-26.205999
30
949.450012
70
192
0
VERTEX
8
OBJECT__18
10
10.582000
20
-20.284000
30
930.682983
70
192
0
VERTEX
8
OBJECT__18
10
8.777000
20
-24.379999
30
915.195007
70
192
0
VERTEX
8
OBJECT__18
10
9.361000
20
-20.792000
30
915.195007
70
192
0
VERTEX
8
OBJECT__18
10
5.523000
20
-25.919001
30
915.195007
70
192
0
VERTEX
8
OBJECT__18
10
6.741000
20
-25.976999
30
934.820007
70
192
0
VERTEX
8
OBJECT__18
10
6.741000
20
-25.976999
30
934.820007
70
192
0
VERTEX
8
OBJECT__18
10
47.824001
20
-23.393000
30
957.630005
70
192
0
VERTEX
8
OBJECT__18
10
47.354000
20
-26.464001
30
961.453003
70
192
0
VERTEX
8
OBJECT__18
10
31.319000
20
-26.465000
30
959.322021
70
192
0
VERTEX
8
OBJECT__18
10
47.839001
20
-23.291000
30
957.502991
70
192
0
VERTEX
8
OBJECT__18
10
28.031000
20
-26.427000
30
957.987976
70
192
0
VERTEX
8
OBJECT__18
10
23.243999
20
-16.510000
30
948.090027
70
192
0
VERTEX
8
OBJECT__18
10
18.903000
20
-26.322001
30
954.286987
70
192
0
VERTEX
8
OBJECT__18
10
47.296001
20
-26.500000
30
961.924011
70
192
0
VERTEX
8
OBJECT__18
10
48.168999
20
-14.242000
30
954.817993
70
192
0
VERTEX
8
OBJECT__18
10
0
20
0
30
0
70
128
71
1
72
2
73
3
0
VERTEX
8
OBJECT__18
10
0
20
0
30
0
70
128
71
4
72
5
73
2
0
VERTEX
8
OBJECT__18
10
0
20
0
30
0
70
128
71
2
72
1
73
4
0
VERTEX
8
OBJECT__18
10
0
20
0
30
0
70
128
71
6
72
7
73
8
0
VERTEX
8
OBJECT__18
10
0
20
0
30
0
70
128
71
7
72
9
73
8
0
VERTEX
8
OBJECT__18
10
0
20
0
30
0
70
128
71
4
72
1
73
10
0
VERTEX
8
OBJECT__18
10
0
20
0
30
0
70
128
71
1
72
11
73
10
0
VERTEX
8
OBJECT__18
10
0
20
0
30
0
70
128
71
4
72
12
73
5
0
VERTEX
8
OBJECT__18
10
0
20
0
30
0
70
128
71
13
72
14
73
12
0
VERTEX
8
OBJECT__18
10
0
20
0
30
0
70
128
71
12
72
4
73
13
0
VERTEX
8
OBJECT__18
10
0
20
0
30
0
70
128
71
15
72
13
73
4
0
VERTEX
8
OBJECT__18
10
0
20
0
30
0
70
128
71
4
72
16
73
17
0
VERTEX
8
OBJECT__18
10
0
20
0
30
0
70
128
71
18
72
19
73
20
0
VERTEX
8
OBJECT__18
10
0
20
0
30
0
70
128
71
20
72
7
73
18
0
VERTEX
8
OBJECT__18
10
0
20
0
30
0
70
128
71
7
72
21
73
18
0
VERTEX
8
OBJECT__18
10
0
20
0
30
0
70
128
71
20
72
22
73
7
0
VERTEX
8
OBJECT__18
10
0
20
0
30
0
70
128
71
7
72
6
73
21
0
VERTEX
8
OBJECT__18
10
0
20
0
30
0
70
128
71
7
72
23
73
9
0
VERTEX
8
OBJECT__18
10
0
20
0
30
0
70
128
71
1
72
3
73
23
0
VERTEX
8
OBJECT__18
10
0
20
0
30
0
70
128
71
23
72
7
73
1
0
VERTEX
8
OBJECT__18
10
0
20
0
30
0
70
128
71
7
72
22
73
24
0
VERTEX
8
OBJECT__18
10
0
20
0
30
0
70
128
71
24
72
1
73
7
0
VERTEX
8
OBJECT__18
10
0
20
0
30
0
70
128
71
24
72
11
73
1
0
VERTEX
8
OBJECT__18
10
0
20
0
30
0
70
128
71
19
72
25
73
20
0
VERTEX
8
OBJECT__18
10
0
20
0
30
0
70
128
71
4
72
17
73
15
0
VERTEX
8
OBJECT__18
10
0
20
0
30
0
70
128
71
10
72
17
73
4
0
VERTEX
8
OBJECT__18
10
0
20
0
30
0
70
128
71
8
72
26
73
6
0
SEQEND
8
OBJECT__18
0
POLYLINE
8
OBJECT__19
66
1
70
64
71
20
72
18
62
253
0
VERTEX
8
OBJECT__19
10
19.504000
20
-17.511999
30
944.755981
70
192
0
VERTEX
8
OBJECT__19
10
11.293000
20
20.039000
30
932.273987
70
192
0
VERTEX
8
OBJECT__19
10
15.141000
20
18.687000
30
940.867981
70
192
0
VERTEX
8
OBJECT__19
10
11.294000
20
-20.033001
30
932.273987
70
192
0
VERTEX
8
OBJECT__19
10
15.141000
20
-18.680000
30
940.867004
70
192
0
VERTEX
8
OBJECT__19
10
19.503000
20
17.517000
30
944.757019
70
192
0
VERTEX
8
OBJECT__19
10
35.262001
20
14.669000
30
952.731018
70
192
0
VERTEX
8
OBJECT__19
10
35.262001
20
-14.669000
30
952.731018
70
192
0
VERTEX
8
OBJECT__19
10
32.903000
20
-15.030000
30
951.820007
70
192
0
VERTEX
8
OBJECT__19
10
48.230000
20
-0.002000
30
954.317993
70
192
0
VERTEX
8
OBJECT__19
10
48.214001
20
-6.841000
30
954.447998
70
192
0
VERTEX
8
OBJECT__19
10
48.168999
20
14.241000
30
954.817993
70
192
0
VERTEX
8
OBJECT__19
10
48.168999
20
-14.242000
30
954.817993
70
192
0
VERTEX
8
OBJECT__19
10
32.903000
20
15.031000
30
951.820007
70
192
0
VERTEX
8
OBJECT__19
10
9.361000
20
20.792999
30
915.195007
70
192
0
VERTEX
8
OBJECT__19
10
10.580000
20
20.290001
30
930.681030
70
192
0
VERTEX
8
OBJECT__19
10
10.582000
20
-20.284000
30
930.682983
70
192
0
VERTEX
8
OBJECT__19
10
23.243999
20
-16.510000
30
948.090027
70
192
0
VERTEX
8
OBJECT__19
10
23.243000
20
16.514999
30
948.090027
70
192
0
VERTEX
8
OBJECT__19
10
9.361000
20
-20.792000
30
915.195007
70
192
0
VERTEX
8
OBJECT__19
10
0
20
0
30
0
70
128
71
1
72
2
73
3
0
VERTEX
8
OBJECT__19
10
0
20
0
30
0
70
128
71
2
72
1
73
5
0
VERTEX
8
OBJECT__19
10
0
20
0
30
0
70
128
71
2
72
5
73
4
0
VERTEX
8
OBJECT__19
10
0
20
0
30
0
70
128
71
3
72
6
73
1
0
VERTEX
8
OBJECT__19
10
0
20
0
30
0
70
128
71
7
72
8
73
9
0
VERTEX
8
OBJECT__19
10
0
20
0
30
0
70
128
71
8
72
7
73
10
0
VERTEX
8
OBJECT__19
10
0
20
0
30
0
70
128
71
10
72
11
73
8
0
VERTEX
8
OBJECT__19
10
0
20
0
30
0
70
128
71
7
72
12
73
10
0
VERTEX
8
OBJECT__19
10
0
20
0
30
0
70
128
71
11
72
13
73
8
0
VERTEX
8
OBJECT__19
10
0
20
0
30
0
70
128
71
14
72
7
73
9
0
VERTEX
8
OBJECT__19
10
0
20
0
30
0
70
128
71
15
72
16
73
17
0
VERTEX
8
OBJECT__19
10
0
20
0
30
0
70
128
71
16
72
2
73
4
0
VERTEX
8
OBJECT__19
10
0
20
0
30
0
70
128
71
4
72
17
73
16
0
VERTEX
8
OBJECT__19
10
0
20
0
30
0
70
128
71
6
72
18
73
1
0
VERTEX
8
OBJECT__19
10
0
20
0
30
0
70
128
71
18
72
19
73
14
0
VERTEX
8
OBJECT__19
10
0
20
0
30
0
70
128
71
6
72
19
73
18
0
VERTEX
8
OBJECT__19
10
0
20
0
30
0
70
128
71
14
72
9
73
18
0
VERTEX
8
OBJECT__19
10
0
20
0
30
0
70
128
71
17
72
20
73
15
0
SEQEND
8
OBJECT__19
0
POLYLINE
8
OBJECT__20
66
1
70
64
71
23
72
24
62
253
0
VERTEX
8
OBJECT__20
10
10.173000
20
24.150999
30
933.090027
70
192
0
VERTEX
8
OBJECT__20
10
6.741000
20
25.978001
30
934.820007
70
192
0
VERTEX
8
OBJECT__20
10
11.244000
20
26.141001
30
946.703003
70
192
0
VERTEX
8
OBJECT__20
10
17.472000
20
23.093000
30
946.237976
70
192
0
VERTEX
8
OBJECT__20
10
14.018000
20
26.205999
30
949.450012
70
192
0
VERTEX
8
OBJECT__20
10
47.827999
20
23.434999
30
957.596008
70
192
0
VERTEX
8
OBJECT__20
10
30.923000
20
22.004999
30
953.578003
70
192
0
VERTEX
8
OBJECT__20
10
31.320999
20
26.465000
30
959.322021
70
192
0
VERTEX
8
OBJECT__20
10
28.031000
20
26.427000
30
957.987976
70
192
0
VERTEX
8
OBJECT__20
10
47.296001
20
26.500000
30
961.924011
70
192
0
VERTEX
8
OBJECT__20
10
15.141000
20
18.687000
30
940.867981
70
192
0
VERTEX
8
OBJECT__20
10
19.504000
20
17.517000
30
944.757019
70
192
0
VERTEX
8
OBJECT__20
10
5.523000
20
25.919001
30
915.195007
70
192
0
VERTEX
8
OBJECT__20
10
8.777000
20
24.379999
30
915.195007
70
192
0
VERTEX
8
OBJECT__20
10
10.580000
20
20.290001
30
930.681030
70
192
0
VERTEX
8
OBJECT__20
10
11.293000
20
20.039000
30
932.273987
70
192
0
VERTEX
8
OBJECT__20
10
47.900002
20
21.490000
30
957.007996
70
192
0
VERTEX
8
OBJECT__20
10
48.168999
20
14.241000
30
954.817993
70
192
0
VERTEX
8
OBJECT__20
10
35.262001
20
14.669000
30
952.731018
70
192
0
VERTEX
8
OBJECT__20
10
18.905001
20
26.322001
30
954.286987
70
192
0
VERTEX
8
OBJECT__20
10
23.243000
20
16.514999
30
948.090027
70
192
0
VERTEX
8
OBJECT__20
10
32.903000
20
15.031000
30
951.820007
70
192
0
VERTEX
8
OBJECT__20
10
9.361000
20
20.792999
30
915.195007
70
192
0
VERTEX
8
OBJECT__20
10
0
20
0
30
0
70
128
71
1
72
2
73
3
0
VERTEX
8
OBJECT__20
10
0
20
0
30
0
70
128
71
3
72
4
73
1
0
VERTEX
8
OBJECT__20
10
0
20
0
30
0
70
128
71
3
72
5
73
4
0
VERTEX
8
OBJECT__20
10
0
20
0
30
0
70
128
71
6
72
7
73
8
0
VERTEX
8
OBJECT__20
10
0
20
0
30
0
70
128
71
7
72
9
73
8
0
VERTEX
8
OBJECT__20
10
0
20
0
30
0
70
128
71
8
72
10
73
6
0
VERTEX
8
OBJECT__20
10
0
20
0
30
0
70
128
71
1
72
4
73
11
0
VERTEX
8
OBJECT__20
10
0
20
0
30
0
70
128
71
12
72
11
73
4
0
VERTEX
8
OBJECT__20
10
0
20
0
30
0
70
128
71
13
72
2
73
1
0
VERTEX
8
OBJECT__20
10
0
20
0
30
0
70
128
71
14
72
1
73
15
0
VERTEX
8
OBJECT__20
10
0
20
0
30
0
70
128
71
16
72
15
73
1
0
VERTEX
8
OBJECT__20
10
0
20
0
30
0
70
128
71
17
72
18
73
19
0
VERTEX
8
OBJECT__20
10
0
20
0
30
0
70
128
71
19
72
7
73
17
0
VERTEX
8
OBJECT__20
10
0
20
0
30
0
70
128
71
7
72
4
73
20
0
VERTEX
8
OBJECT__20
10
0
20
0
30
0
70
128
71
4
72
5
73
20
0
VERTEX
8
OBJECT__20
10
0
20
0
30
0
70
128
71
20
72
9
73
7
0
VERTEX
8
OBJECT__20
10
0
20
0
30
0
70
128
71
4
72
7
73
21
0
VERTEX
8
OBJECT__20
10
0
20
0
30
0
70
128
71
22
72
21
73
7
0
VERTEX
8
OBJECT__20
10
0
20
0
30
0
70
128
71
21
72
12
73
4
0
VERTEX
8
OBJECT__20
10
0
20
0
30
0
70
128
71
19
72
22
73
7
0
VERTEX
8
OBJECT__20
10
0
20
0
30
0
70
128
71
15
72
23
73
14
0
VERTEX
8
OBJECT__20
10
0
20
0
30
0
70
128
71
1
72
14
73
13
0
VERTEX
8
OBJECT__20
10
0
20
0
30
0
70
128
71
11
72
16
73
1
0
VERTEX
8
OBJECT__20
10
0
20
0
30
0
70
128
71
6
72
17
73
7
0
SEQEND
8
OBJECT__20
0
POLYLINE
8
OBJECT__21
66
1
70
64
71
9
72
7
62
253
0
VERTEX
8
OBJECT__21
10
47.827999
20
23.434999
30
957.596008
70
192
0
VERTEX
8
OBJECT__21
10
293.654999
20
23.434999
30
987.778992
70
192
0
VERTEX
8
OBJECT__21
10
293.656006
20
23.395000
30
987.767029
70
192
0
VERTEX
8
OBJECT__21
10
48.168999
20
14.241000
30
954.817993
70
192
0
VERTEX
8
OBJECT__21
10
47.900002
20
21.490000
30
957.007996
70
192
0
VERTEX
8
OBJECT__21
10
293.994995
20
14.241000
30
985.000977
70
192
0
VERTEX
8
OBJECT__21
10
47.296001
20
26.500000
30
961.924011
70
192
0
VERTEX
8
OBJECT__21
10
293.144012
20
26.496000
30
991.935974
70
192
0
VERTEX
8
OBJECT__21
10
293.122986
20
26.500000
30
992.106995
70
192
0
VERTEX
8
OBJECT__21
10
0
20
0
30
0
70
128
71
1
72
2
73
3
0
VERTEX
8
OBJECT__21
10
0
20
0
30
0
70
128
71
3
72
4
73
5
0
VERTEX
8
OBJECT__21
10
0
20
0
30
0
70
128
71
3
72
5
73
1
0
VERTEX
8
OBJECT__21
10
0
20
0
30
0
70
128
71
3
72
6
73
4
0
VERTEX
8
OBJECT__21
10
0
20
0
30
0
70
128
71
1
72
7
73
8
0
VERTEX
8
OBJECT__21
10
0
20
0
30
0
70
128
71
8
72
2
73
1
0
VERTEX
8
OBJECT__21
10
0
20
0
30
0
70
128
71
7
72
9
73
8
0
SEQEND
8
OBJECT__21
0
POLYLINE
8
OBJECT__22
66
1
70
64
71
10
72
8
62
253
0
VERTEX
8
OBJECT__22
10
293.994995
20
-14.242000
30
985.000977
70
192
0
VERTEX
8
OBJECT__22
10
293.656006
20
-23.396000
30
987.767029
70
192
0
VERTEX
8
OBJECT__22
10
47.903999
20
-21.504000
30
956.973022
70
192
0
VERTEX
8
OBJECT__22
10
47.824001
20
-23.393000
30
957.630005
70
192
0
VERTEX
8
OBJECT__22
10
47.839001
20
-23.291000
30
957.502991
70
192
0
VERTEX
8
OBJECT__22
10
48.168999
20
-14.242000
30
954.817993
70
192
0
VERTEX
8
OBJECT__22
10
293.122986
20
-26.500999
30
992.106995
70
192
0
VERTEX
8
OBJECT__22
10
47.296001
20
-26.500000
30
961.924011
70
192
0
VERTEX
8
OBJECT__22
10
47.354000
20
-26.464001
30
961.453003
70
192
0
VERTEX
8
OBJECT__22
10
293.653992
20
-23.436001
30
987.778992
70
192
0
VERTEX
8
OBJECT__22
10
0
20
0
30
0
70
128
71
1
72
2
73
3
0
VERTEX
8
OBJECT__22
10
0
20
0
30
0
70
128
71
2
72
4
73
5
0
VERTEX
8
OBJECT__22
10
0
20
0
30
0
70
128
71
5
72
3
73
2
0
VERTEX
8
OBJECT__22
10
0
20
0
30
0
70
128
71
3
72
6
73
1
0
VERTEX
8
OBJECT__22
10
0
20
0
30
0
70
128
71
7
72
8
73
9
0
VERTEX
8
OBJECT__22
10
0
20
0
30
0
70
128
71
9
72
10
73
7
0
VERTEX
8
OBJECT__22
10
0
20
0
30
0
70
128
71
9
72
4
73
10
0
VERTEX
8
OBJECT__22
10
0
20
0
30
0
70
128
71
2
72
10
73
4
0
SEQEND
8
OBJECT__22
0
POLYLINE
8
OBJECT__23
66
1
70
64
71
17
72
15
62
253
0
VERTEX
8
OBJECT__23
10
48.168999
20
14.241000
30
954.817993
70
192
0
VERTEX
8
OBJECT__23
10
282.101013
20
7.168000
30
983.176025
70
192
0
VERTEX
8
OBJECT__23
10
280.260986
20
-0.002000
30
982.815002
70
192
0
VERTEX
8
OBJECT__23
10
293.994995
20
14.241000
30
985.000977
70
192
0
VERTEX
8
OBJECT__23
10
293.997009
20
14.120000
30
984.989990
70
192
0
VERTEX
8
OBJECT__23
10
287.501007
20
12.367000
30
984.054993
70
192
0
VERTEX
8
OBJECT__23
10
293.997986
20
14.000000
30
984.978027
70
192
0
VERTEX
8
OBJECT__23
10
48.230000
20
-0.002000
30
954.317993
70
192
0
VERTEX
8
OBJECT__23
10
280.165985
20
-0.375000
30
982.796021
70
192
0
VERTEX
8
OBJECT__23
10
48.214001
20
-6.841000
30
954.447998
70
192
0
VERTEX
8
OBJECT__23
10
293.994995
20
-14.242000
30
985.000977
70
192
0
VERTEX
8
OBJECT__23
10
48.168999
20
-14.242000
30
954.817993
70
192
0
VERTEX
8
OBJECT__23
10
289.036987
20
-13.077000
30
984.291016
70
192
0
VERTEX
8
OBJECT__23
10
293.997986
20
-14.000000
30
984.978027
70
192
0
VERTEX
8
OBJECT__23
10
293.997009
20
-14.120000
30
984.989990
70
192
0
VERTEX
8
OBJECT__23
10
282.829010
20
-8.281000
30
983.302002
70
192
0
VERTEX
8
OBJECT__23
10
282.343994
20
-6.841000
30
983.210022
70
192
0
VERTEX
8
OBJECT__23
10
0
20
0
30
0
70
128
71
1
72
2
73
3
0
VERTEX
8
OBJECT__23
10
0
20
0
30
0
70
128
71
4
72
5
73
6
0
VERTEX
8
OBJECT__23
10
0
20
0
30
0
70
128
71
6
72
1
73
4
0
VERTEX
8
OBJECT__23
10
0
20
0
30
0
70
128
71
5
72
7
73
6
0
VERTEX
8
OBJECT__23
10
0
20
0
30
0
70
128
71
6
72
2
73
1
0
VERTEX
8
OBJECT__23
10
0
20
0
30
0
70
128
71
8
72
3
73
9
0
VERTEX
8
OBJECT__23
10
0
20
0
30
0
70
128
71
9
72
10
73
8
0
VERTEX
8
OBJECT__23
10
0
20
0
30
0
70
128
71
11
72
12
73
13
0
VERTEX
8
OBJECT__23
10
0
20
0
30
0
70
128
71
13
72
14
73
15
0
VERTEX
8
OBJECT__23
10
0
20
0
30
0
70
128
71
13
72
15
73
11
0
VERTEX
8
OBJECT__23
10
0
20
0
30
0
70
128
71
12
72
16
73
13
0
VERTEX
8
OBJECT__23
10
0
20
0
30
0
70
128
71
12
72
10
73
17
0
VERTEX
8
OBJECT__23
10
0
20
0
30
0
70
128
71
17
72
16
73
12
0
VERTEX
8
OBJECT__23
10
0
20
0
30
0
70
128
71
9
72
17
73
10
0
VERTEX
8
OBJECT__23
10
0
20
0
30
0
70
128
71
3
72
8
73
1
0
SEQEND
8
OBJECT__23
0
POLYLINE
8
OBJECT__24
66
1
70
64
71
19
72
20
62
253
0
VERTEX
8
OBJECT__24
10
302.987000
20
-10.832000
30
986.093018
70
192
0
VERTEX
8
OBJECT__24
10
308.010986
20
0.000000
30
986.710022
70
192
0
VERTEX
8
OBJECT__24
10
306.118988
20
-4.336000
30
986.489990
70
192
0
VERTEX
8
OBJECT__24
10
308.130005
20
0.000000
30
986.737000
70
192
0
VERTEX
8
OBJECT__24
10
302.987000
20
10.831000
30
986.093018
70
192
0
VERTEX
8
OBJECT__24
10
303.062988
20
10.924000
30
986.114990
70
192
0
VERTEX
8
OBJECT__24
10
306.118988
20
4.335000
30
986.489990
70
192
0
VERTEX
8
OBJECT__24
10
293.997009
20
-14.120000
30
984.989990
70
192
0
VERTEX
8
OBJECT__24
10
300.821014
20
-11.745000
30
985.838989
70
192
0
VERTEX
8
OBJECT__24
10
303.062988
20
-10.925000
30
986.114990
70
192
0
VERTEX
8
OBJECT__24
10
293.997986
20
-14.000000
30
984.978027
70
192
0
VERTEX
8
OBJECT__24
10
302.911987
20
-10.739000
30
986.072998
70
192
0
VERTEX
8
OBJECT__24
10
307.893005
20
0.000000
30
986.684021
70
192
0
VERTEX
8
OBJECT__24
10
302.911987
20
10.739000
30
986.072998
70
192
0
VERTEX
8
OBJECT__24
10
293.997986
20
14.000000
30
984.978027
70
192
0
VERTEX
8
OBJECT__24
10
293.997009
20
14.120000
30
984.989990
70
192
0
VERTEX
8
OBJECT__24
10
293.994995
20
14.241000
30
985.000977
70
192
0
VERTEX
8
OBJECT__24
10
300.821014
20
11.744000
30
985.838989
70
192
0
VERTEX
8
OBJECT__24
10
293.994995
20
-14.242000
30
985.000977
70
192
0
VERTEX
8
OBJECT__24
10
0
20
0
30
0
70
128
71
1
72
2
73
3
0
VERTEX
8
OBJECT__24
10
0
20
0
30
0
70
128
71
2
72
4
73
3
0
VERTEX
8
OBJECT__24
10
0
20
0
30
0
70
128
71
5
72
6
73
7
0
VERTEX
8
OBJECT__24
10
0
20
0
30
0
70
128
71
7
72
2
73
5
0
VERTEX
8
OBJECT__24
10
0
20
0
30
0
70
128
71
8
72
1
73
9
0
VERTEX
8
OBJECT__24
10
0
20
0
30
0
70
128
71
1
72
10
73
9
0
VERTEX
8
OBJECT__24
10
0
20
0
30
0
70
128
71
1
72
8
73
11
0
VERTEX
8
OBJECT__24
10
0
20
0
30
0
70
128
71
1
72
12
73
13
0
VERTEX
8
OBJECT__24
10
0
20
0
30
0
70
128
71
2
72
13
73
14
0
VERTEX
8
OBJECT__24
10
0
20
0
30
0
70
128
71
5
72
14
73
15
0
VERTEX
8
OBJECT__24
10
0
20
0
30
0
70
128
71
16
72
17
73
18
0
VERTEX
8
OBJECT__24
10
0
20
0
30
0
70
128
71
18
72
5
73
16
0
VERTEX
8
OBJECT__24
10
0
20
0
30
0
70
128
71
18
72
6
73
5
0
VERTEX
8
OBJECT__24
10
0
20
0
30
0
70
128
71
15
72
16
73
5
0
VERTEX
8
OBJECT__24
10
0
20
0
30
0
70
128
71
14
72
5
73
2
0
VERTEX
8
OBJECT__24
10
0
20
0
30
0
70
128
71
13
72
2
73
1
0
VERTEX
8
OBJECT__24
10
0
20
0
30
0
70
128
71
11
72
12
73
1
0
VERTEX
8
OBJECT__24
10
0
20
0
30
0
70
128
71
9
72
19
73
8
0
VERTEX
8
OBJECT__24
10
0
20
0
30
0
70
128
71
7
72
4
73
2
0
VERTEX
8
OBJECT__24
10
0
20
0
30
0
70
128
71
3
72
10
73
1
0
SEQEND
8
OBJECT__24
0
POLYLINE
8
OBJECT__25
66
1
70
64
71
27
72
29
62
253
0
VERTEX
8
OBJECT__25
10
315.475006
20
-8.018000
30
990.434021
70
192
0
VERTEX
8
OBJECT__25
10
315.720001
20
-8.099000
30
994.882019
70
192
0
VERTEX
8
OBJECT__25
10
310.204987
20
-20.152000
30
994.205017
70
192
0
VERTEX
8
OBJECT__25
10
305.229004
20
-20.287001
30
989.176025
70
192
0
VERTEX
8
OBJECT__25
10
315.475006
20
8.017000
30
990.434021
70
192
0
VERTEX
8
OBJECT__25
10
319.424988
20
0.000000
30
995.336975
70
192
0
VERTEX
8
OBJECT__25
10
315.720001
20
8.098000
30
994.882019
70
192
0
VERTEX
8
OBJECT__25
10
305.229004
20
20.287001
30
989.176025
70
192
0
VERTEX
8
OBJECT__25
10
310.204987
20
20.150999
30
994.205017
70
192
0
VERTEX
8
OBJECT__25
10
305.795013
20
21.790001
30
993.663025
70
192
0
VERTEX
8
OBJECT__25
10
305.795013
20
-21.791000
30
993.663025
70
192
0
VERTEX
8
OBJECT__25
10
293.653992
20
-23.436001
30
987.778992
70
192
0
VERTEX
8
OBJECT__25
10
293.656006
20
-23.396000
30
987.767029
70
192
0
VERTEX
8
OBJECT__25
10
293.122986
20
-26.500999
30
992.106995
70
192
0
VERTEX
8
OBJECT__25
10
293.994995
20
-14.242000
30
985.000977
70
192
0
VERTEX
8
OBJECT__25
10
303.062988
20
-10.925000
30
986.114990
70
192
0
VERTEX
8
OBJECT__25
10
300.821014
20
-11.745000
30
985.838989
70
192
0
VERTEX
8
OBJECT__25
10
306.118988
20
-4.336000
30
986.489990
70
192
0
VERTEX
8
OBJECT__25
10
308.130005
20
0.000000
30
986.737000
70
192
0
VERTEX
8
OBJECT__25
10
306.118988
20
4.335000
30
986.489990
70
192
0
VERTEX
8
OBJECT__25
10
303.062988
20
10.924000
30
986.114990
70
192
0
VERTEX
8
OBJECT__25
10
300.821014
20
11.744000
30
985.838989
70
192
0
VERTEX
8
OBJECT__25
10
293.994995
20
14.241000
30
985.000977
70
192
0
VERTEX
8
OBJECT__25
10
293.654999
20
23.434999
30
987.778992
70
192
0
VERTEX
8
OBJECT__25
10
293.144012
20
26.496000
30
991.935974
70
192
0
VERTEX
8
OBJECT__25
10
293.656006
20
23.395000
30
987.767029
70
192
0
VERTEX
8
OBJECT__25
10
293.122986
20
26.500000
30
992.106995
70
192
0
VERTEX
8
OBJECT__25
10
0
20
0
30
0
70
128
71
1
72
2
73
3
0
VERTEX
8
OBJECT__25
10
0
20
0
30
0
70
128
71
3
72
4
73
1
0
VERTEX
8
OBJECT__25
10
0
20
0
30
0
70
128
71
1
72
5
73
6
0
VERTEX
8
OBJECT__25
10
0
20
0
30
0
70
128
71
5
72
7
73
6
0
VERTEX
8
OBJECT__25
10
0
20
0
30
0
70
128
71
5
72
8
73
9
0
VERTEX
8
OBJECT__25
10
0
20
0
30
0
70
128
71
8
72
10
73
9
0
VERTEX
8
OBJECT__25
10
0
20
0
30
0
70
128
71
11
72
12
73
13
0
VERTEX
8
OBJECT__25
10
0
20
0
30
0
70
128
71
11
72
14
73
12
0
VERTEX
8
OBJECT__25
10
0
20
0
30
0
70
128
71
4
72
13
73
15
0
VERTEX
8
OBJECT__25
10
0
20
0
30
0
70
128
71
1
72
4
73
16
0
VERTEX
8
OBJECT__25
10
0
20
0
30
0
70
128
71
4
72
17
73
16
0
VERTEX
8
OBJECT__25
10
0
20
0
30
0
70
128
71
1
72
18
73
19
0
VERTEX
8
OBJECT__25
10
0
20
0
30
0
70
128
71
19
72
5
73
1
0
VERTEX
8
OBJECT__25
10
0
20
0
30
0
70
128
71
5
72
20
73
21
0
VERTEX
8
OBJECT__25
10
0
20
0
30
0
70
128
71
21
72
8
73
5
0
VERTEX
8
OBJECT__25
10
0
20
0
30
0
70
128
71
8
72
22
73
23
0
VERTEX
8
OBJECT__25
10
0
20
0
30
0
70
128
71
24
72
25
73
10
0
VERTEX
8
OBJECT__25
10
0
20
0
30
0
70
128
71
10
72
8
73
26
0
VERTEX
8
OBJECT__25
10
0
20
0
30
0
70
128
71
26
72
24
73
10
0
VERTEX
8
OBJECT__25
10
0
20
0
30
0
70
128
71
25
72
27
73
10
0
VERTEX
8
OBJECT__25
10
0
20
0
30
0
70
128
71
23
72
26
73
8
0
VERTEX
8
OBJECT__25
10
0
20
0
30
0
70
128
71
21
72
22
73
8
0
VERTEX
8
OBJECT__25
10
0
20
0
30
0
70
128
71
19
72
20
73
5
0
VERTEX
8
OBJECT__25
10
0
20
0
30
0
70
128
71
16
72
18
73
1
0
VERTEX
8
OBJECT__25
10
0
20
0
30
0
70
128
71
15
72
17
73
4
0
VERTEX
8
OBJECT__25
10
0
20
0
30
0
70
128
71
13
72
4
73
11
0
VERTEX
8
OBJECT__25
10
0
20
0
30
0
70
128
71
9
72
7
73
5
0
VERTEX
8
OBJECT__25
10
0
20
0
30
0
70
128
71
6
72
2
73
1
0
VERTEX
8
OBJECT__25
10
0
20
0
30
0
70
128
71
3
72
11
73
4
0
SEQEND
8
OBJECT__25
0
POLYLINE
8
OBJECT__26
66
1
70
64
71
7
72
5
62
253
0
VERTEX
8
OBJECT__26
10
292.036011
20
26.500000
30
1000.955994
70
192
0
VERTEX
8
OBJECT__26
10
293.122986
20
26.500000
30
992.106995
70
192
0
VERTEX
8
OBJECT__26
10
46.752998
20
26.500000
30
966.348022
70
192
0
VERTEX
8
OBJECT__26
10
46.250000
20
26.500000
30
970.445007
70
192
0
VERTEX
8
OBJECT__26
10
47.296001
20
26.500000
30
961.924011
70
192
0
VERTEX
8
OBJECT__26
10
47.147999
20
26.500000
30
963.135986
70
192
0
VERTEX
8
OBJECT__26
10
46.209999
20
26.500000
30
970.771973
70
192
0
VERTEX
8
OBJECT__26
10
0
20
0
30
0
70
128
71
1
72
2
73
3
0
VERTEX
8
OBJECT__26
10
0
20
0
30
0
70
128
71
3
72
4
73
1
0
VERTEX
8
OBJECT__26
10
0
20
0
30
0
70
128
71
2
72
5
73
6
0
VERTEX
8
OBJECT__26
10
0
20
0
30
0
70
128
71
6
72
3
73
2
0
VERTEX
8
OBJECT__26
10
0
20
0
30
0
70
128
71
4
72
7
73
1
0
SEQEND
8
OBJECT__26
0
POLYLINE
8
OBJECT__27
66
1
70
64
71
7
72
5
62
253
0
VERTEX
8
OBJECT__27
10
292.036011
20
-26.500999
30
1000.955994
70
192
0
VERTEX
8
OBJECT__27
10
46.250000
20
-26.500000
30
970.445007
70
192
0
VERTEX
8
OBJECT__27
10
46.752998
20
-26.500000
30
966.348022
70
192
0
VERTEX
8
OBJECT__27
10
46.209999
20
-26.500000
30
970.771973
70
192
0
VERTEX
8
OBJECT__27
10
293.122986
20
-26.500999
30
992.106995
70
192
0
VERTEX
8
OBJECT__27
10
47.147999
20
-26.500000
30
963.135986
70
192
0
VERTEX
8
OBJECT__27
10
47.296001
20
-26.500000
30
961.924011
70
192
0
VERTEX
8
OBJECT__27
10
0
20
0
30
0
70
128
71
1
72
2
73
3
0
VERTEX
8
OBJECT__27
10
0
20
0
30
0
70
128
71
1
72
4
73
2
0
VERTEX
8
OBJECT__27
10
0
20
0
30
0
70
128
71
3
72
5
73
1
0
VERTEX
8
OBJECT__27
10
0
20
0
30
0
70
128
71
3
72
6
73
5
0
VERTEX
8
OBJECT__27
10
0
20
0
30
0
70
128
71
6
72
7
73
5
0
SEQEND
8
OBJECT__27
0
POLYLINE
8
OBJECT__28
66
1
70
64
71
19
72
17
62
253
0
VERTEX
8
OBJECT__28
10
2.080000
20
-26.098000
30
950.786987
70
192
0
VERTEX
8
OBJECT__28
10
7.734000
20
-26.204000
30
956.476013
70
192
0
VERTEX
8
OBJECT__28
10
5.532000
20
-21.820999
30
957.106018
70
192
0
VERTEX
8
OBJECT__28
10
-5.378000
20
-21.115000
30
939.278992
70
192
0
VERTEX
8
OBJECT__28
10
-3.339000
20
-25.972000
30
938.833984
70
192
0
VERTEX
8
OBJECT__28
10
-0.668000
20
-21.495001
30
952.682007
70
192
0
VERTEX
8
OBJECT__28
10
24.212000
20
-22.617001
30
968.000977
70
192
0
VERTEX
8
OBJECT__28
10
25.521000
20
-26.438000
30
966.911011
70
192
0
VERTEX
8
OBJECT__28
10
45.992001
20
-22.917000
30
972.549011
70
192
0
VERTEX
8
OBJECT__28
10
46.103001
20
-24.737000
30
971.645996
70
192
0
VERTEX
8
OBJECT__28
10
46.209999
20
-26.500000
30
970.771973
70
192
0
VERTEX
8
OBJECT__28
10
-3.409000
20
-25.971001
30
938.679016
70
192
0
VERTEX
8
OBJECT__28
10
-8.912000
20
-20.830999
30
929.223999
70
192
0
VERTEX
8
OBJECT__28
10
-8.781000
20
-24.375999
30
915.195007
70
192
0
VERTEX
8
OBJECT__28
10
-5.526000
20
-25.917999
30
915.195007
70
192
0
VERTEX
8
OBJECT__28
10
-5.413000
20
-25.919001
30
924.106018
70
192
0
VERTEX
8
OBJECT__28
10
-9.364000
20
-20.791000
30
915.195007
70
192
0
VERTEX
8
OBJECT__28
10
19.382999
20
-22.551001
30
966.992981
70
192
0
VERTEX
8
OBJECT__28
10
11.383000
20
-26.271999
30
960.146973
70
192
0
VERTEX
8
OBJECT__28
10
0
20
0
30
0
70
128
71
1
72
2
73
3
0
VERTEX
8
OBJECT__28
10
0
20
0
30
0
70
128
71
5
72
6
73
4
0
VERTEX
8
OBJECT__28
10
0
20
0
30
0
70
128
71
5
72
1
73
6
0
VERTEX
8
OBJECT__28
10
0
20
0
30
0
70
128
71
8
72
9
73
7
0
VERTEX
8
OBJECT__28
10
0
20
0
30
0
70
128
71
8
72
10
73
9
0
VERTEX
8
OBJECT__28
10
0
20
0
30
0
70
128
71
8
72
11
73
10
0
VERTEX
8
OBJECT__28
10
0
20
0
30
0
70
128
71
12
72
4
73
13
0
VERTEX
8
OBJECT__28
10
0
20
0
30
0
70
128
71
14
72
15
73
16
0
VERTEX
8
OBJECT__28
10
0
20
0
30
0
70
128
71
13
72
17
73
14
0
VERTEX
8
OBJECT__28
10
0
20
0
30
0
70
128
71
16
72
13
73
14
0
VERTEX
8
OBJECT__28
10
0
20
0
30
0
70
128
71
13
72
16
73
12
0
VERTEX
8
OBJECT__28
10
0
20
0
30
0
70
128
71
18
72
3
73
19
0
VERTEX
8
OBJECT__28
10
0
20
0
30
0
70
128
71
8
72
7
73
18
0
VERTEX
8
OBJECT__28
10
0
20
0
30
0
70
128
71
2
72
19
73
3
0
VERTEX
8
OBJECT__28
10
0
20
0
30
0
70
128
71
19
72
8
73
18
0
VERTEX
8
OBJECT__28
10
0
20
0
30
0
70
128
71
12
72
5
73
4
0
VERTEX
8
OBJECT__28
10
0
20
0
30
0
70
128
71
3
72
6
73
1
0
SEQEND
8
OBJECT__28
0
POLYLINE
8
OBJECT__29
66
1
70
64
71
19
72
17
62
253
0
VERTEX
8
OBJECT__29
10
-5.370000
20
21.122999
30
939.278015
70
192
0
VERTEX
8
OBJECT__29
10
-0.658000
20
21.506001
30
952.679016
70
192
0
VERTEX
8
OBJECT__29
10
2.094000
20
26.101999
30
950.783997
70
192
0
VERTEX
8
OBJECT__29
10
-3.323000
20
25.976000
30
938.833008
70
192
0
VERTEX
8
OBJECT__29
10
5.542000
20
21.830000
30
957.106018
70
192
0
VERTEX
8
OBJECT__29
10
7.749000
20
26.207001
30
956.476013
70
192
0
VERTEX
8
OBJECT__29
10
46.103001
20
24.736000
30
971.645996
70
192
0
VERTEX
8
OBJECT__29
10
46.209999
20
26.500000
30
970.771973
70
192
0
VERTEX
8
OBJECT__29
10
25.527000
20
26.438999
30
966.911011
70
192
0
VERTEX
8
OBJECT__29
10
24.215000
20
22.620001
30
968.000977
70
192
0
VERTEX
8
OBJECT__29
10
45.992001
20
22.916000
30
972.549011
70
192
0
VERTEX
8
OBJECT__29
10
-8.781000
20
24.375999
30
915.195007
70
192
0
VERTEX
8
OBJECT__29
10
-8.909000
20
20.836000
30
929.215027
70
192
0
VERTEX
8
OBJECT__29
10
-5.409000
20
25.921000
30
924.080017
70
192
0
VERTEX
8
OBJECT__29
10
-5.526000
20
25.917999
30
915.195007
70
192
0
VERTEX
8
OBJECT__29
10
-3.399000
20
25.974001
30
938.666016
70
192
0
VERTEX
8
OBJECT__29
10
11.397000
20
26.274000
30
960.148010
70
192
0
VERTEX
8
OBJECT__29
10
19.388000
20
22.554001
30
966.992981
70
192
0
VERTEX
8
OBJECT__29
10
-9.364000
20
20.792000
30
915.195007
70
192
0
VERTEX
8
OBJECT__29
10
0
20
0
30
0
70
128
71
1
72
2
73
3
0
VERTEX
8
OBJECT__29
10
0
20
0
30
0
70
128
71
3
72
4
73
1
0
VERTEX
8
OBJECT__29
10
0
20
0
30
0
70
128
71
3
72
2
73
5
0
VERTEX
8
OBJECT__29
10
0
20
0
30
0
70
128
71
5
72
6
73
3
0
VERTEX
8
OBJECT__29
10
0
20
0
30
0
70
128
71
7
72
8
73
9
0
VERTEX
8
OBJECT__29
10
0
20
0
30
0
70
128
71
9
72
10
73
7
0
VERTEX
8
OBJECT__29
10
0
20
0
30
0
70
128
71
10
72
11
73
7
0
VERTEX
8
OBJECT__29
10
0
20
0
30
0
70
128
71
12
72
13
73
14
0
VERTEX
8
OBJECT__29
10
0
20
0
30
0
70
128
71
14
72
15
73
12
0
VERTEX
8
OBJECT__29
10
0
20
0
30
0
70
128
71
16
72
14
73
13
0
VERTEX
8
OBJECT__29
10
0
20
0
30
0
70
128
71
13
72
1
73
16
0
VERTEX
8
OBJECT__29
10
0
20
0
30
0
70
128
71
1
72
4
73
16
0
VERTEX
8
OBJECT__29
10
0
20
0
30
0
70
128
71
5
72
17
73
6
0
VERTEX
8
OBJECT__29
10
0
20
0
30
0
70
128
71
18
72
9
73
17
0
VERTEX
8
OBJECT__29
10
0
20
0
30
0
70
128
71
17
72
5
73
18
0
VERTEX
8
OBJECT__29
10
0
20
0
30
0
70
128
71
18
72
10
73
9
0
VERTEX
8
OBJECT__29
10
0
20
0
30
0
70
128
71
12
72
19
73
13
0
SEQEND
8
OBJECT__29
0
POLYLINE
8
OBJECT__30
66
1
70
64
71
28
72
29
62
253
0
VERTEX
8
OBJECT__30
10
-19.823999
20
2.424000
30
827.424011
70
192
0
VERTEX
8
OBJECT__30
10
-21.681999
20
-9.818000
30
823.872986
70
192
0
VERTEX
8
OBJECT__30
10
-18.903999
20
-14.211000
30
829.445007
70
192
0
VERTEX
8
OBJECT__30
10
-18.313000
20
-14.730000
30
831.130981
70
192
0
VERTEX
8
OBJECT__30
10
-18.285999
20
14.665000
30
831.129028
70
192
0
VERTEX
8
OBJECT__30
10
-24.162001
20
-0.198000
30
819.385986
70
192
0
VERTEX
8
OBJECT__30
10
-24.257000
20
-1.561000
30
819.229980
70
192
0
VERTEX
8
OBJECT__30
10
-22.559000
20
-8.431000
30
822.114014
70
192
0
VERTEX
8
OBJECT__30
10
-21.636999
20
10.062000
30
823.840027
70
192
0
VERTEX
8
OBJECT__30
10
-23.839001
20
4.448000
30
819.916016
70
192
0
VERTEX
8
OBJECT__30
10
-21.323000
20
10.862000
30
824.398987
70
192
0
VERTEX
8
OBJECT__30
10
-15.505000
20
-1.089000
30
838.471985
70
192
0
VERTEX
8
OBJECT__30
10
-16.995001
20
16.086000
30
834.429993
70
192
0
VERTEX
8
OBJECT__30
10
-17.382999
20
15.795000
30
833.130981
70
192
0
VERTEX
8
OBJECT__30
10
-17.159000
20
-15.742000
30
834.424988
70
192
0
VERTEX
8
OBJECT__30
10
-14.283000
20
-18.264000
30
842.630981
70
192
0
VERTEX
8
OBJECT__30
10
-10.576000
20
0.008000
30
863.721985
70
192
0
VERTEX
8
OBJECT__30
10
-10.876000
20
-20.139999
30
861.643005
70
192
0
VERTEX
8
OBJECT__30
10
-10.671000
20
-20.253000
30
862.784973
70
192
0
VERTEX
8
OBJECT__30
10
-10.548000
20
-20.304001
30
865.820984
70
192
0
VERTEX
8
OBJECT__30
10
-10.767000
20
20.155001
30
865.862976
70
192
0
VERTEX
8
OBJECT__30
10
-11.301000
20
19.892000
30
861.630981
70
192
0
VERTEX
8
OBJECT__30
10
-13.080000
20
19.017000
30
847.538025
70
192
0
VERTEX
8
OBJECT__30
10
-9.364000
20
0.000000
30
915.195007
70
192
0
VERTEX
8
OBJECT__30
10
-9.364000
20
20.792000
30
915.195007
70
192
0
VERTEX
8
OBJECT__30
10
-9.902000
20
20.580000
30
872.715027
70
192
0
VERTEX
8
OBJECT__30
10
-9.384000
20
-20.784000
30
894.664001
70
192
0
VERTEX
8
OBJECT__30
10
-9.364000
20
-20.791000
30
915.195007
70
192
0
VERTEX
8
OBJECT__30
10
0
20
0
30
0
70
128
71
1
72
2
73
3
0
VERTEX
8
OBJECT__30
10
0
20
0
30
0
70
128
71
4
72
5
73
1
0
VERTEX
8
OBJECT__30
10
0
20
0
30
0
70
128
71
1
72
6
73
7
0
VERTEX
8
OBJECT__30
10
0
20
0
30
0
70
128
71
7
72
8
73
1
0
VERTEX
8
OBJECT__30
10
0
20
0
30
0
70
128
71
1
72
9
73
10
0
VERTEX
8
OBJECT__30
10
0
20
0
30
0
70
128
71
10
72
6
73
1
0
VERTEX
8
OBJECT__30
10
0
20
0
30
0
70
128
71
1
72
5
73
11
0
VERTEX
8
OBJECT__30
10
0
20
0
30
0
70
128
71
11
72
9
73
1
0
VERTEX
8
OBJECT__30
10
0
20
0
30
0
70
128
71
8
72
2
73
1
0
VERTEX
8
OBJECT__30
10
0
20
0
30
0
70
128
71
5
72
4
73
12
0
VERTEX
8
OBJECT__30
10
0
20
0
30
0
70
128
71
12
72
13
73
14
0
VERTEX
8
OBJECT__30
10
0
20
0
30
0
70
128
71
12
72
4
73
15
0
VERTEX
8
OBJECT__30
10
0
20
0
30
0
70
128
71
15
72
16
73
12
0
VERTEX
8
OBJECT__30
10
0
20
0
30
0
70
128
71
17
72
18
73
19
0
VERTEX
8
OBJECT__30
10
0
20
0
30
0
70
128
71
20
72
21
73
17
0
VERTEX
8
OBJECT__30
10
0
20
0
30
0
70
128
71
17
72
12
73
16
0
VERTEX
8
OBJECT__30
10
0
20
0
30
0
70
128
71
17
72
22
73
23
0
VERTEX
8
OBJECT__30
10
0
20
0
30
0
70
128
71
23
72
12
73
17
0
VERTEX
8
OBJECT__30
10
0
20
0
30
0
70
128
71
23
72
13
73
12
0
VERTEX
8
OBJECT__30
10
0
20
0
30
0
70
128
71
17
72
21
73
22
0
VERTEX
8
OBJECT__30
10
0
20
0
30
0
70
128
71
16
72
18
73
17
0
VERTEX
8
OBJECT__30
10
0
20
0
30
0
70
128
71
19
72
20
73
17
0
VERTEX
8
OBJECT__30
10
0
20
0
30
0
70
128
71
24
72
25
73
26
0
VERTEX
8
OBJECT__30
10
0
20
0
30
0
70
128
71
24
72
21
73
27
0
VERTEX
8
OBJECT__30
10
0
20
0
30
0
70
128
71
21
72
20
73
27
0
VERTEX
8
OBJECT__30
10
0
20
0
30
0
70
128
71
27
72
28
73
24
0
VERTEX
8
OBJECT__30
10
0
20
0
30
0
70
128
71
26
72
21
73
24
0
VERTEX
8
OBJECT__30
10
0
20
0
30
0
70
128
71
12
72
14
73
5
0
VERTEX
8
OBJECT__30
10
0
20
0
30
0
70
128
71
3
72
4
73
1
0
SEQEND
8
OBJECT__30
0
POLYLINE
8
OBJECT__31
66
1
70
64
71
16
72
14
62
253
0
VERTEX
8
OBJECT__31
10
5.542000
20
0.004000
30
957.103027
70
192
0
VERTEX
8
OBJECT__31
10
-0.676000
20
0.006000
30
952.658020
70
192
0
VERTEX
8
OBJECT__31
10
-0.668000
20
-21.495001
30
952.682007
70
192
0
VERTEX
8
OBJECT__31
10
-5.370000
20
0.004000
30
939.281982
70
192
0
VERTEX
8
OBJECT__31
10
-5.378000
20
-21.115000
30
939.278992
70
192
0
VERTEX
8
OBJECT__31
10
45.992001
20
0.000000
30
972.549011
70
192
0
VERTEX
8
OBJECT__31
10
24.214001
20
0.001000
30
967.997009
70
192
0
VERTEX
8
OBJECT__31
10
24.212000
20
-22.617001
30
968.000977
70
192
0
VERTEX
8
OBJECT__31
10
-8.910000
20
0.003000
30
929.192017
70
192
0
VERTEX
8
OBJECT__31
10
-8.912000
20
-20.830999
30
929.223999
70
192
0
VERTEX
8
OBJECT__31
10
-9.364000
20
0.000000
30
915.195007
70
192
0
VERTEX
8
OBJECT__31
10
-9.364000
20
-20.791000
30
915.195007
70
192
0
VERTEX
8
OBJECT__31
10
19.363001
20
0.002000
30
966.984009
70
192
0
VERTEX
8
OBJECT__31
10
5.532000
20
-21.820999
30
957.106018
70
192
0
VERTEX
8
OBJECT__31
10
19.382999
20
-22.551001
30
966.992981
70
192
0
VERTEX
8
OBJECT__31
10
45.992001
20
-22.917000
30
972.549011
70
192
0
VERTEX
8
OBJECT__31
10
0
20
0
30
0
70
128
71
1
72
2
73
3
0
VERTEX
8
OBJECT__31
10
0
20
0
30
0
70
128
71
2
72
4
73
5
0
VERTEX
8
OBJECT__31
10
0
20
0
30
0
70
128
71
5
72
3
73
2
0
VERTEX
8
OBJECT__31
10
0
20
0
30
0
70
128
71
6
72
7
73
8
0
VERTEX
8
OBJECT__31
10
0
20
0
30
0
70
128
71
4
72
9
73
10
0
VERTEX
8
OBJECT__31
10
0
20
0
30
0
70
128
71
9
72
11
73
12
0
VERTEX
8
OBJECT__31
10
0
20
0
30
0
70
128
71
12
72
10
73
9
0
VERTEX
8
OBJECT__31
10
0
20
0
30
0
70
128
71
13
72
1
73
14
0
VERTEX
8
OBJECT__31
10
0
20
0
30
0
70
128
71
7
72
13
73
15
0
VERTEX
8
OBJECT__31
10
0
20
0
30
0
70
128
71
15
72
8
73
7
0
VERTEX
8
OBJECT__31
10
0
20
0
30
0
70
128
71
14
72
15
73
13
0
VERTEX
8
OBJECT__31
10
0
20
0
30
0
70
128
71
10
72
5
73
4
0
VERTEX
8
OBJECT__31
10
0
20
0
30
0
70
128
71
8
72
16
73
6
0
VERTEX
8
OBJECT__31
10
0
20
0
30
0
70
128
71
3
72
14
73
1
0
SEQEND
8
OBJECT__31
0
POLYLINE
8
OBJECT__32
66
1
70
64
71
16
72
14
62
253
0
VERTEX
8
OBJECT__32
10
-0.676000
20
0.006000
30
952.658020
70
192
0
VERTEX
8
OBJECT__32
10
-0.658000
20
21.506001
30
952.679016
70
192
0
VERTEX
8
OBJECT__32
10
-5.370000
20
21.122999
30
939.278015
70
192
0
VERTEX
8
OBJECT__32
10
5.542000
20
0.004000
30
957.103027
70
192
0
VERTEX
8
OBJECT__32
10
5.542000
20
21.830000
30
957.106018
70
192
0
VERTEX
8
OBJECT__32
10
45.992001
20
0.000000
30
972.549011
70
192
0
VERTEX
8
OBJECT__32
10
45.992001
20
22.916000
30
972.549011
70
192
0
VERTEX
8
OBJECT__32
10
24.215000
20
22.620001
30
968.000977
70
192
0
VERTEX
8
OBJECT__32
10
-8.910000
20
0.003000
30
929.192017
70
192
0
VERTEX
8
OBJECT__32
10
-8.909000
20
20.836000
30
929.215027
70
192
0
VERTEX
8
OBJECT__32
10
-9.364000
20
20.792000
30
915.195007
70
192
0
VERTEX
8
OBJECT__32
10
-5.370000
20
0.004000
30
939.281982
70
192
0
VERTEX
8
OBJECT__32
10
24.214001
20
0.001000
30
967.997009
70
192
0
VERTEX
8
OBJECT__32
10
19.388000
20
22.554001
30
966.992981
70
192
0
VERTEX
8
OBJECT__32
10
19.363001
20
0.002000
30
966.984009
70
192
0
VERTEX
8
OBJECT__32
10
-9.364000
20
0.000000
30
915.195007
70
192
0
VERTEX
8
OBJECT__32
10
0
20
0
30
0
70
128
71
1
72
2
73
3
0
VERTEX
8
OBJECT__32
10
0
20
0
30
0
70
128
71
4
72
5
73
2
0
VERTEX
8
OBJECT__32
10
0
20
0
30
0
70
128
71
2
72
1
73
4
0
VERTEX
8
OBJECT__32
10
0
20
0
30
0
70
128
71
6
72
7
73
8
0
VERTEX
8
OBJECT__32
10
0
20
0
30
0
70
128
71
9
72
10
73
11
0
VERTEX
8
OBJECT__32
10
0
20
0
30
0
70
128
71
12
72
3
73
10
0
VERTEX
8
OBJECT__32
10
0
20
0
30
0
70
128
71
10
72
9
73
12
0
VERTEX
8
OBJECT__32
10
0
20
0
30
0
70
128
71
13
72
8
73
14
0
VERTEX
8
OBJECT__32
10
0
20
0
30
0
70
128
71
15
72
14
73
5
0
VERTEX
8
OBJECT__32
10
0
20
0
30
0
70
128
71
5
72
4
73
15
0
VERTEX
8
OBJECT__32
10
0
20
0
30
0
70
128
71
14
72
15
73
13
0
VERTEX
8
OBJECT__32
10
0
20
0
30
0
70
128
71
11
72
16
73
9
0
VERTEX
8
OBJECT__32
10
0
20
0
30
0
70
128
71
8
72
13
73
6
0
VERTEX
8
OBJECT__32
10
0
20
0
30
0
70
128
71
3
72
12
73
1
0
SEQEND
8
OBJECT__32
0
POLYLINE
8
OBJECT__33
66
1
70
64
71
15
72
13
62
253
0
VERTEX
8
OBJECT__33
10
302.958008
20
19.622999
30
1004.099976
70
192
0
VERTEX
8
OBJECT__33
10
301.687012
20
20.646000
30
1003.943970
70
192
0
VERTEX
8
OBJECT__33
10
291.817993
20
22.916000
30
1002.732971
70
192
0
VERTEX
8
OBJECT__33
10
45.992001
20
-22.917000
30
972.549011
70
192
0
VERTEX
8
OBJECT__33
10
314.009003
20
-5.023000
30
1005.456970
70
192
0
VERTEX
8
OBJECT__33
10
314.009003
20
5.022000
30
1005.456970
70
192
0
VERTEX
8
OBJECT__33
10
45.992001
20
0.000000
30
972.549011
70
192
0
VERTEX
8
OBJECT__33
10
312.763000
20
-7.649000
30
1005.304016
70
192
0
VERTEX
8
OBJECT__33
10
302.959015
20
-19.625999
30
1004.099976
70
192
0
VERTEX
8
OBJECT__33
10
309.632996
20
-14.246000
30
1004.919983
70
192
0
VERTEX
8
OBJECT__33
10
45.992001
20
22.916000
30
972.549011
70
192
0
VERTEX
8
OBJECT__33
10
312.761993
20
7.647000
30
1005.304016
70
192
0
VERTEX
8
OBJECT__33
10
309.618988
20
14.263000
30
1004.918030
70
192
0
VERTEX
8
OBJECT__33
10
291.817993
20
-22.917000
30
1002.732971
70
192
0
VERTEX
8
OBJECT__33
10
301.701996
20
-20.639999
30
1003.945984
70
192
0
VERTEX
8
OBJECT__33
10
0
20
0
30
0
70
128
71
1
72
2
73
3
0
VERTEX
8
OBJECT__33
10
0
20
0
30
0
70
128
71
4
72
5
73
6
0
VERTEX
8
OBJECT__33
10
0
20
0
30
0
70
128
71
3
72
7
73
1
0
VERTEX
8
OBJECT__33
10
0
20
0
30
0
70
128
71
4
72
8
73
5
0
VERTEX
8
OBJECT__33
10
0
20
0
30
0
70
128
71
4
72
9
73
10
0
VERTEX
8
OBJECT__33
10
0
20
0
30
0
70
128
71
3
72
11
73
7
0
VERTEX
8
OBJECT__33
10
0
20
0
30
0
70
128
71
4
72
12
73
13
0
VERTEX
8
OBJECT__33
10
0
20
0
30
0
70
128
71
10
72
8
73
4
0
VERTEX
8
OBJECT__33
10
0
20
0
30
0
70
128
71
9
72
4
73
14
0
VERTEX
8
OBJECT__33
10
0
20
0
30
0
70
128
71
13
72
1
73
4
0
VERTEX
8
OBJECT__33
10
0
20
0
30
0
70
128
71
14
72
15
73
9
0
VERTEX
8
OBJECT__33
10
0
20
0
30
0
70
128
71
6
72
12
73
4
0
VERTEX
8
OBJECT__33
10
0
20
0
30
0
70
128
71
7
72
4
73
1
0
SEQEND
8
OBJECT__33
0
POLYLINE
8
OBJECT__34
66
1
70
64
71
18
72
16
62
253
0
VERTEX
8
OBJECT__34
10
318.338989
20
0.000000
30
1004.185974
70
192
0
VERTEX
8
OBJECT__34
10
314.632996
20
-8.099000
30
1003.731018
70
192
0
VERTEX
8
OBJECT__34
10
315.720001
20
-8.099000
30
994.882019
70
192
0
VERTEX
8
OBJECT__34
10
310.204987
20
-20.152000
30
994.205017
70
192
0
VERTEX
8
OBJECT__34
10
309.118011
20
-20.152000
30
1003.054016
70
192
0
VERTEX
8
OBJECT__34
10
319.424988
20
0.000000
30
995.336975
70
192
0
VERTEX
8
OBJECT__34
10
315.720001
20
8.098000
30
994.882019
70
192
0
VERTEX
8
OBJECT__34
10
310.204987
20
20.150999
30
994.205017
70
192
0
VERTEX
8
OBJECT__34
10
309.118011
20
20.150999
30
1003.054016
70
192
0
VERTEX
8
OBJECT__34
10
314.632996
20
8.098000
30
1003.731018
70
192
0
VERTEX
8
OBJECT__34
10
305.795013
20
21.790001
30
993.663025
70
192
0
VERTEX
8
OBJECT__34
10
293.122986
20
26.500000
30
992.106995
70
192
0
VERTEX
8
OBJECT__34
10
292.036011
20
26.500000
30
1000.955994
70
192
0
VERTEX
8
OBJECT__34
10
304.708008
20
21.790001
30
1002.513000
70
192
0
VERTEX
8
OBJECT__34
10
305.795013
20
-21.791000
30
993.663025
70
192
0
VERTEX
8
OBJECT__34
10
304.708008
20
-21.791000
30
1002.513000
70
192
0
VERTEX
8
OBJECT__34
10
292.036011
20
-26.500999
30
1000.955994
70
192
0
VERTEX
8
OBJECT__34
10
293.122986
20
-26.500999
30
992.106995
70
192
0
VERTEX
8
OBJECT__34
10
0
20
0
30
0
70
128
71
1
72
2
73
3
0
VERTEX
8
OBJECT__34
10
0
20
0
30
0
70
128
71
4
72
3
73
2
0
VERTEX
8
OBJECT__34
10
0
20
0
30
0
70
128
71
2
72
5
73
4
0
VERTEX
8
OBJECT__34
10
0
20
0
30
0
70
128
71
1
72
6
73
7
0
VERTEX
8
OBJECT__34
10
0
20
0
30
0
70
128
71
8
72
9
73
10
0
VERTEX
8
OBJECT__34
10
0
20
0
30
0
70
128
71
10
72
7
73
8
0
VERTEX
8
OBJECT__34
10
0
20
0
30
0
70
128
71
9
72
8
73
11
0
VERTEX
8
OBJECT__34
10
0
20
0
30
0
70
128
71
11
72
12
73
13
0
VERTEX
8
OBJECT__34
10
0
20
0
30
0
70
128
71
13
72
14
73
11
0
VERTEX
8
OBJECT__34
10
0
20
0
30
0
70
128
71
15
72
16
73
17
0
VERTEX
8
OBJECT__34
10
0
20
0
30
0
70
128
71
5
72
16
73
15
0
VERTEX
8
OBJECT__34
10
0
20
0
30
0
70
128
71
15
72
4
73
5
0
VERTEX
8
OBJECT__34
10
0
20
0
30
0
70
128
71
17
72
18
73
15
0
VERTEX
8
OBJECT__34
10
0
20
0
30
0
70
128
71
11
72
14
73
9
0
VERTEX
8
OBJECT__34
10
0
20
0
30
0
70
128
71
7
72
10
73
1
0
VERTEX
8
OBJECT__34
10
0
20
0
30
0
70
128
71
3
72
6
73
1
0
SEQEND
8
OBJECT__34
0
POLYLINE
8
OBJECT__35
66
1
70
64
71
6
72
4
62
253
0
VERTEX
8
OBJECT__35
10
292.036011
20
-26.500999
30
1000.955994
70
192
0
VERTEX
8
OBJECT__35
10
291.899994
20
-24.856001
30
1002.065979
70
192
0
VERTEX
8
OBJECT__35
10
46.103001
20
-24.737000
30
971.645996
70
192
0
VERTEX
8
OBJECT__35
10
291.817993
20
-22.917000
30
1002.732971
70
192
0
VERTEX
8
OBJECT__35
10
45.992001
20
-22.917000
30
972.549011
70
192
0
VERTEX
8
OBJECT__35
10
46.209999
20
-26.500000
30
970.771973
70
192
0
VERTEX
8
OBJECT__35
10
0
20
0
30
0
70
128
71
1
72
2
73
3
0
VERTEX
8
OBJECT__35
10
0
20
0
30
0
70
128
71
4
72
5
73
3
0
VERTEX
8
OBJECT__35
10
0
20
0
30
0
70
128
71
3
72
2
73
4
0
VERTEX
8
OBJECT__35
10
0
20
0
30
0
70
128
71
3
72
6
73
1
0
SEQEND
8
OBJECT__35
0
POLYLINE
8
OBJECT__36
66
1
70
64
71
6
72
4
62
253
0
VERTEX
8
OBJECT__36
10
46.103001
20
24.736000
30
971.645996
70
192
0
VERTEX
8
OBJECT__36
10
291.928986
20
24.737000
30
1001.830017
70
192
0
VERTEX
8
OBJECT__36
10
46.209999
20
26.500000
30
970.771973
70
192
0
VERTEX
8
OBJECT__36
10
292.036011
20
26.500000
30
1000.955994
70
192
0
VERTEX
8
OBJECT__36
10
291.817993
20
22.916000
30
1002.732971
70
192
0
VERTEX
8
OBJECT__36
10
45.992001
20
22.916000
30
972.549011
70
192
0
VERTEX
8
OBJECT__36
10
0
20
0
30
0
70
128
71
2
72
3
73
1
0
VERTEX
8
OBJECT__36
10
0
20
0
30
0
70
128
71
2
72
4
73
3
0
VERTEX
8
OBJECT__36
10
0
20
0
30
0
70
128
71
5
72
2
73
1
0
VERTEX
8
OBJECT__36
10
0
20
0
30
0
70
128
71
1
72
6
73
5
0
SEQEND
8
OBJECT__36
0
POLYLINE
8
OBJECT__37
66
1
70
64
71
25
72
25
62
253
0
VERTEX
8
OBJECT__37
10
304.192993
20
-21.551001
30
1003.575989
70
192
0
VERTEX
8
OBJECT__37
10
314.632996
20
-8.099000
30
1003.731018
70
192
0
VERTEX
8
OBJECT__37
10
309.632996
20
-14.246000
30
1004.919983
70
192
0
VERTEX
8
OBJECT__37
10
312.763000
20
-7.649000
30
1005.304016
70
192
0
VERTEX
8
OBJECT__37
10
314.632996
20
8.098000
30
1003.731018
70
192
0
VERTEX
8
OBJECT__37
10
314.009003
20
5.022000
30
1005.456970
70
192
0
VERTEX
8
OBJECT__37
10
314.009003
20
-5.023000
30
1005.456970
70
192
0
VERTEX
8
OBJECT__37
10
312.761993
20
7.647000
30
1005.304016
70
192
0
VERTEX
8
OBJECT__37
10
304.192993
20
21.549999
30
1003.575989
70
192
0
VERTEX
8
OBJECT__37
10
302.958008
20
19.622999
30
1004.099976
70
192
0
VERTEX
8
OBJECT__37
10
309.618988
20
14.263000
30
1004.918030
70
192
0
VERTEX
8
OBJECT__37
10
304.708008
20
-21.791000
30
1002.513000
70
192
0
VERTEX
8
OBJECT__37
10
309.118011
20
-20.152000
30
1003.054016
70
192
0
VERTEX
8
OBJECT__37
10
309.118011
20
20.150999
30
1003.054016
70
192
0
VERTEX
8
OBJECT__37
10
292.036011
20
-26.500999
30
1000.955994
70
192
0
VERTEX
8
OBJECT__37
10
292.036011
20
26.500000
30
1000.955994
70
192
0
VERTEX
8
OBJECT__37
10
291.928986
20
24.737000
30
1001.830017
70
192
0
VERTEX
8
OBJECT__37
10
301.687012
20
20.646000
30
1003.943970
70
192
0
VERTEX
8
OBJECT__37
10
291.817993
20
22.916000
30
1002.732971
70
192
0
VERTEX
8
OBJECT__37
10
291.899994
20
-24.856001
30
1002.065979
70
192
0
VERTEX
8
OBJECT__37
10
301.701996
20
-20.639999
30
1003.945984
70
192
0
VERTEX
8
OBJECT__37
10
302.959015
20
-19.625999
30
1004.099976
70
192
0
VERTEX
8
OBJECT__37
10
291.817993
20
-22.917000
30
1002.732971
70
192
0
VERTEX
8
OBJECT__37
10
304.708008
20
21.790001
30
1002.513000
70
192
0
VERTEX
8
OBJECT__37
10
318.338989
20
0.000000
30
1004.185974
70
192
0
VERTEX
8
OBJECT__37
10
0
20
0
30
0
70
128
71
1
72
2
73
3
0
VERTEX
8
OBJECT__37
10
0
20
0
30
0
70
128
71
2
72
4
73
3
0
VERTEX
8
OBJECT__37
10
0
20
0
30
0
70
128
71
2
72
5
73
6
0
VERTEX
8
OBJECT__37
10
0
20
0
30
0
70
128
71
6
72
7
73
2
0
VERTEX
8
OBJECT__37
10
0
20
0
30
0
70
128
71
5
72
8
73
6
0
VERTEX
8
OBJECT__37
10
0
20
0
30
0
70
128
71
9
72
10
73
11
0
VERTEX
8
OBJECT__37
10
0
20
0
30
0
70
128
71
11
72
5
73
9
0
VERTEX
8
OBJECT__37
10
0
20
0
30
0
70
128
71
1
72
12
73
13
0
VERTEX
8
OBJECT__37
10
0
20
0
30
0
70
128
71
9
72
5
73
14
0
VERTEX
8
OBJECT__37
10
0
20
0
30
0
70
128
71
15
72
12
73
1
0
VERTEX
8
OBJECT__37
10
0
20
0
30
0
70
128
71
16
72
17
73
9
0
VERTEX
8
OBJECT__37
10
0
20
0
30
0
70
128
71
18
72
9
73
17
0
VERTEX
8
OBJECT__37
10
0
20
0
30
0
70
128
71
17
72
19
73
18
0
VERTEX
8
OBJECT__37
10
0
20
0
30
0
70
128
71
20
72
1
73
21
0
VERTEX
8
OBJECT__37
10
0
20
0
30
0
70
128
71
1
72
22
73
21
0
VERTEX
8
OBJECT__37
10
0
20
0
30
0
70
128
71
21
72
23
73
20
0
VERTEX
8
OBJECT__37
10
0
20
0
30
0
70
128
71
18
72
10
73
9
0
VERTEX
8
OBJECT__37
10
0
20
0
30
0
70
128
71
9
72
24
73
16
0
VERTEX
8
OBJECT__37
10
0
20
0
30
0
70
128
71
1
72
20
73
15
0
VERTEX
8
OBJECT__37
10
0
20
0
30
0
70
128
71
14
72
24
73
9
0
VERTEX
8
OBJECT__37
10
0
20
0
30
0
70
128
71
5
72
2
73
25
0
VERTEX
8
OBJECT__37
10
0
20
0
30
0
70
128
71
13
72
2
73
1
0
VERTEX
8
OBJECT__37
10
0
20
0
30
0
70
128
71
11
72
8
73
5
0
VERTEX
8
OBJECT__37
10
0
20
0
30
0
70
128
71
7
72
4
73
2
0
VERTEX
8
OBJECT__37
10
0
20
0
30
0
70
128
71
3
72
22
73
1
0
SEQEND
8
OBJECT__37
0
POLYLINE
8
OBJECT__38
66
1
70
64
71
15
72
15
62
253
0
VERTEX
8
OBJECT__38
10
280.894012
20
-4.264000
30
984.607971
70
192
0
VERTEX
8
OBJECT__38
10
284.740997
20
-3.450000
30
973.844971
70
192
0
VERTEX
8
OBJECT__38
10
287.229004
20
-11.164000
30
974.151001
70
192
0
VERTEX
8
OBJECT__38
10
293.920990
20
-13.800000
30
986.206970
70
192
0
VERTEX
8
OBJECT__38
10
285.869995
20
11.164000
30
985.218994
70
192
0
VERTEX
8
OBJECT__38
10
282.252991
20
4.264000
30
973.539978
70
192
0
VERTEX
8
OBJECT__38
10
288.765991
20
9.032000
30
974.338989
70
192
0
VERTEX
8
OBJECT__38
10
301.971985
20
11.164000
30
987.195984
70
192
0
VERTEX
8
OBJECT__38
10
295.279999
20
13.800000
30
975.138977
70
192
0
VERTEX
8
OBJECT__38
10
301.792999
20
9.032000
30
975.939026
70
192
0
VERTEX
8
OBJECT__38
10
306.946991
20
-4.264000
30
987.807007
70
192
0
VERTEX
8
OBJECT__38
10
308.306000
20
4.264000
30
976.739014
70
192
0
VERTEX
8
OBJECT__38
10
305.817993
20
-3.450000
30
976.432983
70
192
0
VERTEX
8
OBJECT__38
10
295.279999
20
-11.164000
30
975.138977
70
192
0
VERTEX
8
OBJECT__38
10
303.330994
20
-11.164000
30
976.127991
70
192
0
VERTEX
8
OBJECT__38
10
0
20
0
30
0
70
128
71
1
72
2
73
3
0
VERTEX
8
OBJECT__38
10
0
20
0
30
0
70
128
71
3
72
4
73
1
0
VERTEX
8
OBJECT__38
10
0
20
0
30
0
70
128
71
1
72
5
73
6
0
VERTEX
8
OBJECT__38
10
0
20
0
30
0
70
128
71
5
72
7
73
6
0
VERTEX
8
OBJECT__38
10
0
20
0
30
0
70
128
71
5
72
8
73
9
0
VERTEX
8
OBJECT__38
10
0
20
0
30
0
70
128
71
8
72
10
73
9
0
VERTEX
8
OBJECT__38
10
0
20
0
30
0
70
128
71
8
72
11
73
12
0
VERTEX
8
OBJECT__38
10
0
20
0
30
0
70
128
71
11
72
13
73
12
0
VERTEX
8
OBJECT__38
10
0
20
0
30
0
70
128
71
4
72
14
73
15
0
VERTEX
8
OBJECT__38
10
0
20
0
30
0
70
128
71
15
72
11
73
4
0
VERTEX
8
OBJECT__38
10
0
20
0
30
0
70
128
71
15
72
13
73
11
0
VERTEX
8
OBJECT__38
10
0
20
0
30
0
70
128
71
12
72
10
73
8
0
VERTEX
8
OBJECT__38
10
0
20
0
30
0
70
128
71
9
72
7
73
5
0
VERTEX
8
OBJECT__38
10
0
20
0
30
0
70
128
71
6
72
2
73
1
0
VERTEX
8
OBJECT__38
10
0
20
0
30
0
70
128
71
3
72
14
73
4
0
SEQEND
8
OBJECT__38
0
POLYLINE
8
OBJECT__39
66
1
70
64
71
16
72
16
62
253
0
VERTEX
8
OBJECT__39
10
303.330994
20
-11.164000
30
976.127991
70
192
0
VERTEX
8
OBJECT__39
10
287.850006
20
-10.396000
30
973.674011
70
192
0
VERTEX
8
OBJECT__39
10
295.346008
20
-12.850000
30
974.594971
70
192
0
VERTEX
8
OBJECT__39
10
287.229004
20
-11.164000
30
974.151001
70
192
0
VERTEX
8
OBJECT__39
10
295.419006
20
-11.823000
30
974.005981
70
192
0
VERTEX
8
OBJECT__39
10
295.346008
20
12.850000
30
974.594971
70
192
0
VERTEX
8
OBJECT__39
10
283.216003
20
3.971000
30
973.104980
70
192
0
VERTEX
8
OBJECT__39
10
288.765991
20
9.032000
30
974.338989
70
192
0
VERTEX
8
OBJECT__39
10
282.252991
20
4.264000
30
973.539978
70
192
0
VERTEX
8
OBJECT__39
10
284.740997
20
-3.450000
30
973.844971
70
192
0
VERTEX
8
OBJECT__39
10
302.842987
20
-10.396000
30
975.515015
70
192
0
VERTEX
8
OBJECT__39
10
307.476013
20
3.971000
30
976.083984
70
192
0
VERTEX
8
OBJECT__39
10
305.817993
20
-3.450000
30
976.432983
70
192
0
VERTEX
8
OBJECT__39
10
308.306000
20
4.264000
30
976.739014
70
192
0
VERTEX
8
OBJECT__39
10
301.792999
20
9.032000
30
975.939026
70
192
0
VERTEX
8
OBJECT__39
10
295.279999
20
13.800000
30
975.138977
70
192
0
VERTEX
8
OBJECT__39
10
0
20
0
30
0
70
128
71
1
72
2
73
3
0
VERTEX
8
OBJECT__39
10
0
20
0
30
0
70
128
71
1
72
4
73
2
0
VERTEX
8
OBJECT__39
10
0
20
0
30
0
70
128
71
1
72
5
73
4
0
VERTEX
8
OBJECT__39
10
0
20
0
30
0
70
128
71
6
72
7
73
8
0
VERTEX
8
OBJECT__39
10
0
20
0
30
0
70
128
71
7
72
9
73
8
0
VERTEX
8
OBJECT__39
10
0
20
0
30
0
70
128
71
2
72
4
73
10
0
VERTEX
8
OBJECT__39
10
0
20
0
30
0
70
128
71
10
72
7
73
2
0
VERTEX
8
OBJECT__39
10
0
20
0
30
0
70
128
71
11
72
12
73
13
0
VERTEX
8
OBJECT__39
10
0
20
0
30
0
70
128
71
12
72
14
73
13
0
VERTEX
8
OBJECT__39
10
0
20
0
30
0
70
128
71
12
72
6
73
15
0
VERTEX
8
OBJECT__39
10
0
20
0
30
0
70
128
71
6
72
16
73
15
0
VERTEX
8
OBJECT__39
10
0
20
0
30
0
70
128
71
15
72
14
73
12
0
VERTEX
8
OBJECT__39
10
0
20
0
30
0
70
128
71
13
72
1
73
11
0
VERTEX
8
OBJECT__39
10
0
20
0
30
0
70
128
71
3
72
11
73
1
0
VERTEX
8
OBJECT__39
10
0
20
0
30
0
70
128
71
10
72
9
73
7
0
VERTEX
8
OBJECT__39
10
0
20
0
30
0
70
128
71
8
72
16
73
6
0
SEQEND
8
OBJECT__39
0
POLYLINE
8
OBJECT__41
66
1
70
64
71
6
72
4
62
253
0
VERTEX
8
OBJECT__41
10
295.346008
20
12.850000
30
974.594971
70
192
0
VERTEX
8
OBJECT__41
10
295.346008
20
-12.850000
30
974.594971
70
192
0
VERTEX
8
OBJECT__41
10
287.850006
20
-10.396000
30
973.674011
70
192
0
VERTEX
8
OBJECT__41
10
307.476013
20
3.971000
30
976.083984
70
192
0
VERTEX
8
OBJECT__41
10
302.842987
20
-10.396000
30
975.515015
70
192
0
VERTEX
8
OBJECT__41
10
283.216003
20
3.971000
30
973.104980
70
192
0
VERTEX
8
OBJECT__41
10
0
20
0
30
0
70
128
71
1
72
2
73
3
0
VERTEX
8
OBJECT__41
10
0
20
0
30
0
70
128
71
1
72
4
73
5
0
VERTEX
8
OBJECT__41
10
0
20
0
30
0
70
128
71
5
72
2
73
1
0
VERTEX
8
OBJECT__41
10
0
20
0
30
0
70
128
71
3
72
6
73
1
0
SEQEND
8
OBJECT__41
0
POLYLINE
8
OBJECT__42
66
1
70
64
71
50
72
48
62
253
0
VERTEX
8
OBJECT__42
10
31.041000
20
-78.541000
30
0.000000
70
192
0
VERTEX
8
OBJECT__42
10
-40.016998
20
-74.372002
30
0.000000
70
192
0
VERTEX
8
OBJECT__42
10
-50.618999
20
-68.283997
30
0.000000
70
192
0
VERTEX
8
OBJECT__42
10
-23.079000
20
-81.353996
30
0.000000
70
192
0
VERTEX
8
OBJECT__42
10
-33.459000
20
-78.138000
30
0.000000
70
192
0
VERTEX
8
OBJECT__42
10
-5.000000
20
-84.508003
30
0.000000
70
192
0
VERTEX
8
OBJECT__42
10
-16.583000
20
-83.366997
30
0.000000
70
192
0
VERTEX
8
OBJECT__42
10
19.620001
20
-82.704002
30
0.000000
70
192
0
VERTEX
8
OBJECT__42
10
0.000000
20
-85.000000
30
0.000000
70
192
0
VERTEX
8
OBJECT__42
10
-55.136002
20
-64.037003
30
0.000000
70
192
0
VERTEX
8
OBJECT__42
10
-65.036003
20
-54.729000
30
0.000000
70
192
0
VERTEX
8
OBJECT__42
10
-67.697998
20
-50.691002
30
0.000000
70
192
0
VERTEX
8
OBJECT__42
10
54.734001
20
-65.031998
30
0.000000
70
192
0
VERTEX
8
OBJECT__42
10
38.213001
20
-75.926003
30
0.000000
70
192
0
VERTEX
8
OBJECT__42
10
58.889999
20
-60.611000
30
0.000000
70
192
0
VERTEX
8
OBJECT__42
10
78.139999
20
-33.452999
30
0.000000
70
192
0
VERTEX
8
OBJECT__42
10
68.288002
20
-50.613998
30
0.000000
70
192
0
VERTEX
8
OBJECT__42
10
-83.365997
20
16.583000
30
0.000000
70
192
0
VERTEX
8
OBJECT__42
10
81.914001
20
22.693001
30
0.000000
70
192
0
VERTEX
8
OBJECT__42
10
84.943001
20
3.134000
30
0.000000
70
192
0
VERTEX
8
OBJECT__42
10
32.702999
20
78.434998
30
0.000000
70
192
0
VERTEX
8
OBJECT__42
10
0.000000
20
85.000000
30
0.000000
70
192
0
VERTEX
8
OBJECT__42
10
13.502000
20
83.920998
30
0.000000
70
192
0
VERTEX
8
OBJECT__42
10
-21.586000
20
81.986000
30
0.000000
70
192
0
VERTEX
8
OBJECT__42
10
-19.603001
20
82.709000
30
0.000000
70
192
0
VERTEX
8
OBJECT__42
10
-38.825001
20
75.519997
30
0.000000
70
192
0
VERTEX
8
OBJECT__42
10
-38.195999
20
75.934998
30
0.000000
70
192
0
VERTEX
8
OBJECT__42
10
78.140999
20
-33.451000
30
0.000000
70
192
0
VERTEX
8
OBJECT__42
10
-77.117996
20
-34.943001
30
0.000000
70
192
0
VERTEX
8
OBJECT__42
10
-82.705002
20
-19.615999
30
0.000000
70
192
0
VERTEX
8
OBJECT__42
10
-75.928001
20
-38.208000
30
0.000000
70
192
0
VERTEX
8
OBJECT__42
10
84.629997
20
-0.772000
30
0.000000
70
192
0
VERTEX
8
OBJECT__42
10
83.366997
20
-16.583000
30
0.000000
70
192
0
VERTEX
8
OBJECT__42
10
78.222000
20
31.754000
30
0.000000
70
192
0
VERTEX
8
OBJECT__42
10
62.943001
20
57.124001
30
0.000000
70
192
0
VERTEX
8
OBJECT__42
10
74.445999
20
41.021999
30
0.000000
70
192
0
VERTEX
8
OBJECT__42
10
-3.396000
20
84.602997
30
0.000000
70
192
0
VERTEX
8
OBJECT__42
10
-66.931999
20
52.057999
30
0.000000
70
192
0
VERTEX
8
OBJECT__42
10
-54.719002
20
65.043999
30
0.000000
70
192
0
VERTEX
8
OBJECT__42
10
-76.477997
20
36.349998
30
0.000000
70
192
0
VERTEX
8
OBJECT__42
10
-68.277000
20
50.627998
30
0.000000
70
192
0
VERTEX
8
OBJECT__42
10
-82.606003
20
19.038000
30
0.000000
70
192
0
VERTEX
8
OBJECT__42
10
-78.133003
20
33.469002
30
0.000000
70
192
0
VERTEX
8
OBJECT__42
10
60.154999
20
59.555000
30
0.000000
70
192
0
VERTEX
8
OBJECT__42
10
-54.215000
20
65.376999
30
0.000000
70
192
0
VERTEX
8
OBJECT__42
10
-82.950996
20
-17.514999
30
0.000000
70
192
0
VERTEX
8
OBJECT__42
10
-85.000000
20
0.000000
30
0.000000
70
192
0
VERTEX
8
OBJECT__42
10
48.028999
20
70.129997
30
0.000000
70
192
0
VERTEX
8
OBJECT__42
10
-84.921997
20
0.794000
30
0.000000
70
192
0
VERTEX
8
OBJECT__42
10
32.528000
20
78.528999
30
0.000000
70
192
0
VERTEX
8
OBJECT__42
10
0
20
0
30
0
70
128
71
1
72
2
73
3
0
VERTEX
8
OBJECT__42
10
0
20
0
30
0
70
128
71
1
72
4
73
5
0
VERTEX
8
OBJECT__42
10
0
20
0
30
0
70
128
71
1
72
6
73
7
0
VERTEX
8
OBJECT__42
10
0
20
0
30
0
70
128
71
1
72
8
73
9
0
VERTEX
8
OBJECT__42
10
0
20
0
30
0
70
128
71
5
72
2
73
1
0
VERTEX
8
OBJECT__42
10
0
20
0
30
0
70
128
71
9
72
6
73
1
0
VERTEX
8
OBJECT__42
10
0
20
0
30
0
70
128
71
1
72
10
73
11
0
VERTEX
8
OBJECT__42
10
0
20
0
30
0
70
128
71
7
72
4
73
1
0
VERTEX
8
OBJECT__42
10
0
20
0
30
0
70
128
71
12
72
13
73
14
0
VERTEX
8
OBJECT__42
10
0
20
0
30
0
70
128
71
3
72
10
73
1
0
VERTEX
8
OBJECT__42
10
0
20
0
30
0
70
128
71
12
72
15
73
13
0
VERTEX
8
OBJECT__42
10
0
20
0
30
0
70
128
71
12
72
16
73
17
0
VERTEX
8
OBJECT__42
10
0
20
0
30
0
70
128
71
18
72
19
73
20
0
VERTEX
8
OBJECT__42
10
0
20
0
30
0
70
128
71
21
72
22
73
23
0
VERTEX
8
OBJECT__42
10
0
20
0
30
0
70
128
71
21
72
24
73
25
0
VERTEX
8
OBJECT__42
10
0
20
0
30
0
70
128
71
21
72
26
73
27
0
VERTEX
8
OBJECT__42
10
0
20
0
30
0
70
128
71
28
72
29
73
30
0
VERTEX
8
OBJECT__42
10
0
20
0
30
0
70
128
71
28
72
12
73
31
0
VERTEX
8
OBJECT__42
10
0
20
0
30
0
70
128
71
14
72
1
73
12
0
VERTEX
8
OBJECT__42
10
0
20
0
30
0
70
128
71
12
72
28
73
16
0
VERTEX
8
OBJECT__42
10
0
20
0
30
0
70
128
71
18
72
32
73
33
0
VERTEX
8
OBJECT__42
10
0
20
0
30
0
70
128
71
18
72
34
73
19
0
VERTEX
8
OBJECT__42
10
0
20
0
30
0
70
128
71
18
72
35
73
36
0
VERTEX
8
OBJECT__42
10
0
20
0
30
0
70
128
71
21
72
37
73
22
0
VERTEX
8
OBJECT__42
10
0
20
0
30
0
70
128
71
27
72
24
73
21
0
VERTEX
8
OBJECT__42
10
0
20
0
30
0
70
128
71
21
72
38
73
39
0
VERTEX
8
OBJECT__42
10
0
20
0
30
0
70
128
71
21
72
40
73
41
0
VERTEX
8
OBJECT__42
10
0
20
0
30
0
70
128
71
21
72
42
73
43
0
VERTEX
8
OBJECT__42
10
0
20
0
30
0
70
128
71
31
72
29
73
28
0
VERTEX
8
OBJECT__42
10
0
20
0
30
0
70
128
71
17
72
15
73
12
0
VERTEX
8
OBJECT__42
10
0
20
0
30
0
70
128
71
20
72
32
73
18
0
VERTEX
8
OBJECT__42
10
0
20
0
30
0
70
128
71
18
72
44
73
35
0
VERTEX
8
OBJECT__42
10
0
20
0
30
0
70
128
71
25
72
37
73
21
0
VERTEX
8
OBJECT__42
10
0
20
0
30
0
70
128
71
39
72
45
73
21
0
VERTEX
8
OBJECT__42
10
0
20
0
30
0
70
128
71
43
72
40
73
21
0
VERTEX
8
OBJECT__42
10
0
20
0
30
0
70
128
71
28
72
46
73
47
0
VERTEX
8
OBJECT__42
10
0
20
0
30
0
70
128
71
11
72
12
73
1
0
VERTEX
8
OBJECT__42
10
0
20
0
30
0
70
128
71
36
72
34
73
18
0
VERTEX
8
OBJECT__42
10
0
20
0
30
0
70
128
71
18
72
21
73
48
0
VERTEX
8
OBJECT__42
10
0
20
0
30
0
70
128
71
45
72
26
73
21
0
VERTEX
8
OBJECT__42
10
0
20
0
30
0
70
128
71
21
72
18
73
42
0
VERTEX
8
OBJECT__42
10
0
20
0
30
0
70
128
71
30
72
46
73
28
0
VERTEX
8
OBJECT__42
10
0
20
0
30
0
70
128
71
48
72
44
73
18
0
VERTEX
8
OBJECT__42
10
0
20
0
30
0
70
128
71
41
72
38
73
21
0
VERTEX
8
OBJECT__42
10
0
20
0
30
0
70
128
71
47
72
49
73
28
0
VERTEX
8
OBJECT__42
10
0
20
0
30
0
70
128
71
23
72
50
73
21
0
VERTEX
8
OBJECT__42
10
0
20
0
30
0
70
128
71
33
72
28
73
18
0
VERTEX
8
OBJECT__42
10
0
20
0
30
0
70
128
71
49
72
18
73
28
0
SEQEND
8
OBJECT__42
0
POLYLINE
8
OBJECT__43
66
1
70
64
71
71
72
69
62
253
0
VERTEX
8
OBJECT__43
10
-82.285004
20
18.948999
30
9.378000
70
192
0
VERTEX
8
OBJECT__43
10
-82.606003
20
19.038000
30
0.000000
70
192
0
VERTEX
8
OBJECT__43
10
-83.365997
20
16.583000
30
0.000000
70
192
0
VERTEX
8
OBJECT__43
10
-84.921997
20
0.794000
30
0.000000
70
192
0
VERTEX
8
OBJECT__43
10
-84.987000
20
1.469000
30
9.378000
70
192
0
VERTEX
8
OBJECT__43
10
-84.228996
20
11.195000
30
9.378000
70
192
0
VERTEX
8
OBJECT__43
10
-84.922997
20
0.806000
30
9.378000
70
192
0
VERTEX
8
OBJECT__43
10
-54.215000
20
65.376999
30
0.000000
70
192
0
VERTEX
8
OBJECT__43
10
-53.998001
20
65.070000
30
9.378000
70
192
0
VERTEX
8
OBJECT__43
10
-43.591999
20
72.887001
30
9.378000
70
192
0
VERTEX
8
OBJECT__43
10
-38.825001
20
75.519997
30
0.000000
70
192
0
VERTEX
8
OBJECT__43
10
-75.829002
20
38.202999
30
9.378000
70
192
0
VERTEX
8
OBJECT__43
10
-66.861000
20
52.076000
30
9.378000
70
192
0
VERTEX
8
OBJECT__43
10
-68.277000
20
50.627998
30
0.000000
70
192
0
VERTEX
8
OBJECT__43
10
-66.931999
20
52.057999
30
0.000000
70
192
0
VERTEX
8
OBJECT__43
10
-76.477997
20
36.349998
30
0.000000
70
192
0
VERTEX
8
OBJECT__43
10
-76.591003
20
36.444000
30
9.378000
70
192
0
VERTEX
8
OBJECT__43
10
-78.133003
20
33.469002
30
0.000000
70
192
0
VERTEX
8
OBJECT__43
10
-79.695999
20
29.278999
30
9.378000
70
192
0
VERTEX
8
OBJECT__43
10
-78.325996
20
32.441002
30
9.378000
70
192
0
VERTEX
8
OBJECT__43
10
-54.719002
20
65.043999
30
0.000000
70
192
0
VERTEX
8
OBJECT__43
10
-65.607002
20
54.015999
30
9.378000
70
192
0
VERTEX
8
OBJECT__43
10
-60.014999
20
60.021000
30
9.378000
70
192
0
VERTEX
8
OBJECT__43
10
-58.372002
20
61.785000
30
9.378000
70
192
0
VERTEX
8
OBJECT__43
10
-3.396000
20
84.602997
30
0.000000
70
192
0
VERTEX
8
OBJECT__43
10
-19.603001
20
82.709000
30
0.000000
70
192
0
VERTEX
8
OBJECT__43
10
-17.656000
20
83.084999
30
9.378000
70
192
0
VERTEX
8
OBJECT__43
10
-21.511999
20
81.792999
30
9.378000
70
192
0
VERTEX
8
OBJECT__43
10
-21.586000
20
81.986000
30
0.000000
70
192
0
VERTEX
8
OBJECT__43
10
-38.195999
20
75.934998
30
0.000000
70
192
0
VERTEX
8
OBJECT__43
10
-32.393002
20
78.147003
30
9.378000
70
192
0
VERTEX
8
OBJECT__43
10
-35.659000
20
77.053001
30
9.378000
70
192
0
VERTEX
8
OBJECT__43
10
-38.791000
20
75.407997
30
9.378000
70
192
0
VERTEX
8
OBJECT__43
10
-65.036003
20
-54.729000
30
0.000000
70
192
0
VERTEX
8
OBJECT__43
10
-55.136002
20
-64.037003
30
0.000000
70
192
0
VERTEX
8
OBJECT__43
10
-59.737000
20
-59.752998
30
9.378000
70
192
0
VERTEX
8
OBJECT__43
10
-67.350998
20
-51.805000
30
9.378000
70
192
0
VERTEX
8
OBJECT__43
10
-67.697998
20
-50.691002
30
0.000000
70
192
0
VERTEX
8
OBJECT__43
10
-55.387001
20
-64.293999
30
9.378000
70
192
0
VERTEX
8
OBJECT__43
10
-40.060001
20
-74.347000
30
9.378000
70
192
0
VERTEX
8
OBJECT__43
10
-40.016998
20
-74.372002
30
0.000000
70
192
0
VERTEX
8
OBJECT__43
10
-33.459000
20
-78.138000
30
0.000000
70
192
0
VERTEX
8
OBJECT__43
10
-28.695000
20
-79.908997
30
9.378000
70
192
0
VERTEX
8
OBJECT__43
10
-32.337002
20
-78.125999
30
9.378000
70
192
0
VERTEX
8
OBJECT__43
10
-23.079000
20
-81.353996
30
0.000000
70
192
0
VERTEX
8
OBJECT__43
10
-23.125000
20
-81.551003
30
9.378000
70
192
0
VERTEX
8
OBJECT__43
10
-16.583000
20
-83.366997
30
0.000000
70
192
0
VERTEX
8
OBJECT__43
10
-18.757999
20
-82.838997
30
9.378000
70
192
0
VERTEX
8
OBJECT__43
10
-4.975000
20
-84.427002
30
9.378000
70
192
0
VERTEX
8
OBJECT__43
10
-5.000000
20
-84.508003
30
0.000000
70
192
0
VERTEX
8
OBJECT__43
10
-54.553001
20
-65.164001
30
9.378000
70
192
0
VERTEX
8
OBJECT__43
10
-50.618999
20
-68.283997
30
0.000000
70
192
0
VERTEX
8
OBJECT__43
10
-45.762001
20
-71.556000
30
9.378000
70
192
0
VERTEX
8
OBJECT__43
10
-83.088997
20
-17.499001
30
9.378000
70
192
0
VERTEX
8
OBJECT__43
10
-82.950996
20
-17.514999
30
0.000000
70
192
0
VERTEX
8
OBJECT__43
10
-82.705002
20
-19.615999
30
0.000000
70
192
0
VERTEX
8
OBJECT__43
10
-77.117996
20
-34.943001
30
0.000000
70
192
0
VERTEX
8
OBJECT__43
10
-78.053001
20
-32.310001
30
9.378000
70
192
0
VERTEX
8
OBJECT__43
10
-80.417999
20
-27.243999
30
9.378000
70
192
0
VERTEX
8
OBJECT__43
10
-76.886002
20
-34.808998
30
9.378000
70
192
0
VERTEX
8
OBJECT__43
10
-75.928001
20
-38.208000
30
0.000000
70
192
0
VERTEX
8
OBJECT__43
10
-67.973000
20
-50.893002
30
9.378000
70
192
0
VERTEX
8
OBJECT__43
10
-72.429001
20
-44.355000
30
9.378000
70
192
0
VERTEX
8
OBJECT__43
10
-84.848000
20
0.015000
30
9.378000
70
192
0
VERTEX
8
OBJECT__43
10
-85.000000
20
0.000000
30
0.000000
70
192
0
VERTEX
8
OBJECT__43
10
-83.223000
20
-17.011999
30
9.378000
70
192
0
VERTEX
8
OBJECT__43
10
0.000000
20
-85.000000
30
0.000000
70
192
0
VERTEX
8
OBJECT__43
10
0.000000
20
-85.000000
30
9.378000
70
192
0
VERTEX
8
OBJECT__43
10
0.000000
20
85.000000
30
0.000000
70
192
0
VERTEX
8
OBJECT__43
10
-3.394000
20
84.632004
30
9.378000
70
192
0
VERTEX
8
OBJECT__43
10
0.000000
20
85.000000
30
9.378000
70
192
0
VERTEX
8
OBJECT__43
10
0
20
0
30
0
70
128
71
1
72
2
73
3
0
VERTEX
8
OBJECT__43
10
0
20
0
30
0
70
128
71
4
72
5
73
6
0
VERTEX
8
OBJECT__43
10
0
20
0
30
0
70
128
71
6
72
3
73
4
0
VERTEX
8
OBJECT__43
10
0
20
0
30
0
70
128
71
4
72
7
73
5
0
VERTEX
8
OBJECT__43
10
0
20
0
30
0
70
128
71
8
72
9
73
10
0
VERTEX
8
OBJECT__43
10
0
20
0
30
0
70
128
71
10
72
11
73
8
0
VERTEX
8
OBJECT__43
10
0
20
0
30
0
70
128
71
12
72
13
73
14
0
VERTEX
8
OBJECT__43
10
0
20
0
30
0
70
128
71
13
72
15
73
14
0
VERTEX
8
OBJECT__43
10
0
20
0
30
0
70
128
71
16
72
17
73
12
0
VERTEX
8
OBJECT__43
10
0
20
0
30
0
70
128
71
17
72
16
73
18
0
VERTEX
8
OBJECT__43
10
0
20
0
30
0
70
128
71
18
72
19
73
20
0
VERTEX
8
OBJECT__43
10
0
20
0
30
0
70
128
71
2
72
1
73
19
0
VERTEX
8
OBJECT__43
10
0
20
0
30
0
70
128
71
19
72
18
73
2
0
VERTEX
8
OBJECT__43
10
0
20
0
30
0
70
128
71
9
72
8
73
21
0
VERTEX
8
OBJECT__43
10
0
20
0
30
0
70
128
71
15
72
22
73
23
0
VERTEX
8
OBJECT__43
10
0
20
0
30
0
70
128
71
23
72
21
73
15
0
VERTEX
8
OBJECT__43
10
0
20
0
30
0
70
128
71
23
72
24
73
21
0
VERTEX
8
OBJECT__43
10
0
20
0
30
0
70
128
71
15
72
13
73
22
0
VERTEX
8
OBJECT__43
10
0
20
0
30
0
70
128
71
25
72
26
73
27
0
VERTEX
8
OBJECT__43
10
0
20
0
30
0
70
128
71
28
72
27
73
26
0
VERTEX
8
OBJECT__43
10
0
20
0
30
0
70
128
71
26
72
29
73
28
0
VERTEX
8
OBJECT__43
10
0
20
0
30
0
70
128
71
29
72
30
73
31
0
VERTEX
8
OBJECT__43
10
0
20
0
30
0
70
128
71
30
72
32
73
31
0
VERTEX
8
OBJECT__43
10
0
20
0
30
0
70
128
71
33
72
32
73
30
0
VERTEX
8
OBJECT__43
10
0
20
0
30
0
70
128
71
30
72
11
73
33
0
VERTEX
8
OBJECT__43
10
0
20
0
30
0
70
128
71
34
72
35
73
36
0
VERTEX
8
OBJECT__43
10
0
20
0
30
0
70
128
71
37
72
38
73
34
0
VERTEX
8
OBJECT__43
10
0
20
0
30
0
70
128
71
35
72
39
73
36
0
VERTEX
8
OBJECT__43
10
0
20
0
30
0
70
128
71
36
72
37
73
34
0
VERTEX
8
OBJECT__43
10
0
20
0
30
0
70
128
71
40
72
41
73
42
0
VERTEX
8
OBJECT__43
10
0
20
0
30
0
70
128
71
42
72
43
73
44
0
VERTEX
8
OBJECT__43
10
0
20
0
30
0
70
128
71
45
72
46
73
43
0
VERTEX
8
OBJECT__43
10
0
20
0
30
0
70
128
71
43
72
42
73
45
0
VERTEX
8
OBJECT__43
10
0
20
0
30
0
70
128
71
45
72
47
73
48
0
VERTEX
8
OBJECT__43
10
0
20
0
30
0
70
128
71
49
72
48
73
47
0
VERTEX
8
OBJECT__43
10
0
20
0
30
0
70
128
71
47
72
50
73
49
0
VERTEX
8
OBJECT__43
10
0
20
0
30
0
70
128
71
51
72
35
73
52
0
VERTEX
8
OBJECT__43
10
0
20
0
30
0
70
128
71
41
72
40
73
53
0
VERTEX
8
OBJECT__43
10
0
20
0
30
0
70
128
71
53
72
52
73
41
0
VERTEX
8
OBJECT__43
10
0
20
0
30
0
70
128
71
52
72
53
73
51
0
VERTEX
8
OBJECT__43
10
0
20
0
30
0
70
128
71
54
72
55
73
56
0
VERTEX
8
OBJECT__43
10
0
20
0
30
0
70
128
71
57
72
58
73
59
0
VERTEX
8
OBJECT__43
10
0
20
0
30
0
70
128
71
57
72
60
73
58
0
VERTEX
8
OBJECT__43
10
0
20
0
30
0
70
128
71
59
72
56
73
57
0
VERTEX
8
OBJECT__43
10
0
20
0
30
0
70
128
71
60
72
57
73
61
0
VERTEX
8
OBJECT__43
10
0
20
0
30
0
70
128
71
38
72
62
73
63
0
VERTEX
8
OBJECT__43
10
0
20
0
30
0
70
128
71
63
72
61
73
38
0
VERTEX
8
OBJECT__43
10
0
20
0
30
0
70
128
71
64
72
7
73
4
0
VERTEX
8
OBJECT__43
10
0
20
0
30
0
70
128
71
65
72
55
73
66
0
VERTEX
8
OBJECT__43
10
0
20
0
30
0
70
128
71
66
72
64
73
65
0
VERTEX
8
OBJECT__43
10
0
20
0
30
0
70
128
71
55
72
54
73
66
0
VERTEX
8
OBJECT__43
10
0
20
0
30
0
70
128
71
67
72
68
73
49
0
VERTEX
8
OBJECT__43
10
0
20
0
30
0
70
128
71
69
72
25
73
70
0
VERTEX
8
OBJECT__43
10
0
20
0
30
0
70
128
71
70
72
71
73
69
0
VERTEX
8
OBJECT__43
10
0
20
0
30
0
70
128
71
49
72
50
73
67
0
VERTEX
8
OBJECT__43
10
0
20
0
30
0
70
128
71
4
72
65
73
64
0
VERTEX
8
OBJECT__43
10
0
20
0
30
0
70
128
71
61
72
63
73
60
0
VERTEX
8
OBJECT__43
10
0
20
0
30
0
70
128
71
56
72
59
73
54
0
VERTEX
8
OBJECT__43
10
0
20
0
30
0
70
128
71
51
72
39
73
35
0
VERTEX
8
OBJECT__43
10
0
20
0
30
0
70
128
71
48
72
46
73
45
0
VERTEX
8
OBJECT__43
10
0
20
0
30
0
70
128
71
42
72
44
73
40
0
VERTEX
8
OBJECT__43
10
0
20
0
30
0
70
128
71
37
72
62
73
38
0
VERTEX
8
OBJECT__43
10
0
20
0
30
0
70
128
71
31
72
28
73
29
0
VERTEX
8
OBJECT__43
10
0
20
0
30
0
70
128
71
27
72
70
73
25
0
VERTEX
8
OBJECT__43
10
0
20
0
30
0
70
128
71
21
72
24
73
9
0
VERTEX
8
OBJECT__43
10
0
20
0
30
0
70
128
71
18
72
20
73
17
0
VERTEX
8
OBJECT__43
10
0
20
0
30
0
70
128
71
14
72
16
73
12
0
VERTEX
8
OBJECT__43
10
0
20
0
30
0
70
128
71
10
72
33
73
11
0
VERTEX
8
OBJECT__43
10
0
20
0
30
0
70
128
71
3
72
6
73
1
0
SEQEND
8
OBJECT__43
0
POLYLINE
8
OBJECT__45
66
1
70
64
71
54
72
52
62
253
0
VERTEX
8
OBJECT__45
10
78.140999
20
-33.451000
30
0.000000
70
192
0
VERTEX
8
OBJECT__45
10
80.453003
20
-27.141001
30
9.378000
70
192
0
VERTEX
8
OBJECT__45
10
78.338997
20
-32.451000
30
9.378000
70
192
0
VERTEX
8
OBJECT__45
10
83.366997
20
-16.583000
30
0.000000
70
192
0
VERTEX
8
OBJECT__45
10
84.498001
20
-9.024000
30
9.378000
70
192
0
VERTEX
8
OBJECT__45
10
84.629997
20
-0.772000
30
0.000000
70
192
0
VERTEX
8
OBJECT__45
10
84.875999
20
-0.794000
30
9.378000
70
192
0
VERTEX
8
OBJECT__45
10
31.041000
20
-78.541000
30
0.000000
70
192
0
VERTEX
8
OBJECT__45
10
38.213001
20
-75.926003
30
0.000000
70
192
0
VERTEX
8
OBJECT__45
10
36.792000
20
-76.521004
30
9.378000
70
192
0
VERTEX
8
OBJECT__45
10
32.362999
20
-78.074997
30
9.378000
70
192
0
VERTEX
8
OBJECT__45
10
54.734001
20
-65.031998
30
0.000000
70
192
0
VERTEX
8
OBJECT__45
10
59.155998
20
-60.827999
30
9.378000
70
192
0
VERTEX
8
OBJECT__45
10
45.855999
20
-71.497002
30
9.378000
70
192
0
VERTEX
8
OBJECT__45
10
58.889999
20
-60.611000
30
0.000000
70
192
0
VERTEX
8
OBJECT__45
10
68.288002
20
-50.613998
30
0.000000
70
192
0
VERTEX
8
OBJECT__45
10
67.418999
20
-51.716999
30
9.378000
70
192
0
VERTEX
8
OBJECT__45
10
78.139999
20
-33.452999
30
0.000000
70
192
0
VERTEX
8
OBJECT__45
10
77.120003
20
-35.513000
30
9.378000
70
192
0
VERTEX
8
OBJECT__45
10
77.969002
20
-33.382000
30
9.378000
70
192
0
VERTEX
8
OBJECT__45
10
60.286999
20
-59.919998
30
9.378000
70
192
0
VERTEX
8
OBJECT__45
10
78.174004
20
32.358002
30
9.378000
70
192
0
VERTEX
8
OBJECT__45
10
78.222000
20
31.754000
30
0.000000
70
192
0
VERTEX
8
OBJECT__45
10
74.445999
20
41.021999
30
0.000000
70
192
0
VERTEX
8
OBJECT__45
10
71.260002
20
46.227001
30
9.378000
70
192
0
VERTEX
8
OBJECT__45
10
62.943001
20
57.124001
30
0.000000
70
192
0
VERTEX
8
OBJECT__45
10
65.535004
20
54.104000
30
9.378000
70
192
0
VERTEX
8
OBJECT__45
10
60.029999
20
59.453999
30
9.378000
70
192
0
VERTEX
8
OBJECT__45
10
60.154999
20
59.555000
30
0.000000
70
192
0
VERTEX
8
OBJECT__45
10
48.028999
20
70.129997
30
0.000000
70
192
0
VERTEX
8
OBJECT__45
10
52.279999
20
66.987000
30
9.378000
70
192
0
VERTEX
8
OBJECT__45
10
59.743000
20
59.733002
30
9.378000
70
192
0
VERTEX
8
OBJECT__45
10
32.702999
20
78.434998
30
0.000000
70
192
0
VERTEX
8
OBJECT__45
10
32.479000
20
77.927002
30
9.378000
70
192
0
VERTEX
8
OBJECT__45
10
43.499001
20
72.942001
30
9.378000
70
192
0
VERTEX
8
OBJECT__45
10
84.943001
20
3.134000
30
0.000000
70
192
0
VERTEX
8
OBJECT__45
10
84.984001
20
1.583000
30
9.378000
70
192
0
VERTEX
8
OBJECT__45
10
84.912003
20
0.004000
30
9.378000
70
192
0
VERTEX
8
OBJECT__45
10
81.914001
20
22.693001
30
0.000000
70
192
0
VERTEX
8
OBJECT__45
10
82.526001
20
20.066000
30
9.378000
70
192
0
VERTEX
8
OBJECT__45
10
79.660004
20
29.377001
30
9.378000
70
192
0
VERTEX
8
OBJECT__45
10
78.441002
20
31.820999
30
9.378000
70
192
0
VERTEX
8
OBJECT__45
10
32.528000
20
78.528999
30
0.000000
70
192
0
VERTEX
8
OBJECT__45
10
26.201000
20
80.766998
30
9.378000
70
192
0
VERTEX
8
OBJECT__45
10
32.296001
20
78.009003
30
9.378000
70
192
0
VERTEX
8
OBJECT__45
10
13.502000
20
83.920998
30
0.000000
70
192
0
VERTEX
8
OBJECT__45
10
17.547001
20
83.109001
30
9.378000
70
192
0
VERTEX
8
OBJECT__45
10
0.000000
20
85.000000
30
9.378000
70
192
0
VERTEX
8
OBJECT__45
10
0.000000
20
85.000000
30
0.000000
70
192
0
VERTEX
8
OBJECT__45
10
0.000000
20
-85.000000
30
0.000000
70
192
0
VERTEX
8
OBJECT__45
10
19.620001
20
-82.704002
30
0.000000
70
192
0
VERTEX
8
OBJECT__45
10
18.863001
20
-82.814003
30
9.378000
70
192
0
VERTEX
8
OBJECT__45
10
31.040001
20
-78.540001
30
9.378000
70
192
0
VERTEX
8
OBJECT__45
10
0.000000
20
-85.000000
30
9.378000
70
192
0
VERTEX
8
OBJECT__45
10
0
20
0
30
0
70
128
71
1
72
2
73
3
0
VERTEX
8
OBJECT__45
10
0
20
0
30
0
70
128
71
2
72
1
73
4
0
VERTEX
8
OBJECT__45
10
0
20
0
30
0
70
128
71
4
72
5
73
2
0
VERTEX
8
OBJECT__45
10
0
20
0
30
0
70
128
71
6
72
7
73
5
0
VERTEX
8
OBJECT__45
10
0
20
0
30
0
70
128
71
5
72
4
73
6
0
VERTEX
8
OBJECT__45
10
0
20
0
30
0
70
128
71
8
72
9
73
10
0
VERTEX
8
OBJECT__45
10
0
20
0
30
0
70
128
71
10
72
11
73
8
0
VERTEX
8
OBJECT__45
10
0
20
0
30
0
70
128
71
12
72
13
73
14
0
VERTEX
8
OBJECT__45
10
0
20
0
30
0
70
128
71
14
72
9
73
12
0
VERTEX
8
OBJECT__45
10
0
20
0
30
0
70
128
71
12
72
15
73
13
0
VERTEX
8
OBJECT__45
10
0
20
0
30
0
70
128
71
14
72
10
73
9
0
VERTEX
8
OBJECT__45
10
0
20
0
30
0
70
128
71
15
72
16
73
17
0
VERTEX
8
OBJECT__45
10
0
20
0
30
0
70
128
71
16
72
18
73
19
0
VERTEX
8
OBJECT__45
10
0
20
0
30
0
70
128
71
20
72
19
73
18
0
VERTEX
8
OBJECT__45
10
0
20
0
30
0
70
128
71
18
72
1
73
20
0
VERTEX
8
OBJECT__45
10
0
20
0
30
0
70
128
71
19
72
17
73
16
0
VERTEX
8
OBJECT__45
10
0
20
0
30
0
70
128
71
17
72
21
73
15
0
VERTEX
8
OBJECT__45
10
0
20
0
30
0
70
128
71
22
72
23
73
24
0
VERTEX
8
OBJECT__45
10
0
20
0
30
0
70
128
71
24
72
25
73
22
0
VERTEX
8
OBJECT__45
10
0
20
0
30
0
70
128
71
26
72
27
73
25
0
VERTEX
8
OBJECT__45
10
0
20
0
30
0
70
128
71
25
72
24
73
26
0
VERTEX
8
OBJECT__45
10
0
20
0
30
0
70
128
71
28
72
27
73
26
0
VERTEX
8
OBJECT__45
10
0
20
0
30
0
70
128
71
26
72
29
73
28
0
VERTEX
8
OBJECT__45
10
0
20
0
30
0
70
128
71
29
72
30
73
31
0
VERTEX
8
OBJECT__45
10
0
20
0
30
0
70
128
71
31
72
32
73
29
0
VERTEX
8
OBJECT__45
10
0
20
0
30
0
70
128
71
33
72
34
73
35
0
VERTEX
8
OBJECT__45
10
0
20
0
30
0
70
128
71
35
72
30
73
33
0
VERTEX
8
OBJECT__45
10
0
20
0
30
0
70
128
71
35
72
31
73
30
0
VERTEX
8
OBJECT__45
10
0
20
0
30
0
70
128
71
6
72
36
73
37
0
VERTEX
8
OBJECT__45
10
0
20
0
30
0
70
128
71
37
72
38
73
6
0
VERTEX
8
OBJECT__45
10
0
20
0
30
0
70
128
71
36
72
39
73
40
0
VERTEX
8
OBJECT__45
10
0
20
0
30
0
70
128
71
39
72
23
73
41
0
VERTEX
8
OBJECT__45
10
0
20
0
30
0
70
128
71
41
72
40
73
39
0
VERTEX
8
OBJECT__45
10
0
20
0
30
0
70
128
71
23
72
42
73
41
0
VERTEX
8
OBJECT__45
10
0
20
0
30
0
70
128
71
40
72
37
73
36
0
VERTEX
8
OBJECT__45
10
0
20
0
30
0
70
128
71
34
72
33
73
43
0
VERTEX
8
OBJECT__45
10
0
20
0
30
0
70
128
71
43
72
44
73
45
0
VERTEX
8
OBJECT__45
10
0
20
0
30
0
70
128
71
46
72
47
73
44
0
VERTEX
8
OBJECT__45
10
0
20
0
30
0
70
128
71
48
72
47
73
46
0
VERTEX
8
OBJECT__45
10
0
20
0
30
0
70
128
71
46
72
49
73
48
0
VERTEX
8
OBJECT__45
10
0
20
0
30
0
70
128
71
44
72
43
73
46
0
VERTEX
8
OBJECT__45
10
0
20
0
30
0
70
128
71
50
72
51
73
52
0
VERTEX
8
OBJECT__45
10
0
20
0
30
0
70
128
71
53
72
52
73
51
0
VERTEX
8
OBJECT__45
10
0
20
0
30
0
70
128
71
51
72
8
73
53
0
VERTEX
8
OBJECT__45
10
0
20
0
30
0
70
128
71
52
72
54
73
50
0
VERTEX
8
OBJECT__45
10
0
20
0
30
0
70
128
71
43
72
45
73
34
0
VERTEX
8
OBJECT__45
10
0
20
0
30
0
70
128
71
38
72
7
73
6
0
VERTEX
8
OBJECT__45
10
0
20
0
30
0
70
128
71
32
72
28
73
29
0
VERTEX
8
OBJECT__45
10
0
20
0
30
0
70
128
71
22
72
42
73
23
0
VERTEX
8
OBJECT__45
10
0
20
0
30
0
70
128
71
21
72
13
73
15
0
VERTEX
8
OBJECT__45
10
0
20
0
30
0
70
128
71
11
72
53
73
8
0
VERTEX
8
OBJECT__45
10
0
20
0
30
0
70
128
71
3
72
20
73
1
0
SEQEND
8
OBJECT__45
0
POLYLINE
8
OBJECT__46
66
1
70
64
71
53
72
58
62
253
0
VERTEX
8
OBJECT__46
10
-42.512001
20
0.000000
30
11.345000
70
192
0
VERTEX
8
OBJECT__46
10
-84.228996
20
11.195000
30
9.378000
70
192
0
VERTEX
8
OBJECT__46
10
-84.987000
20
1.469000
30
9.378000
70
192
0
VERTEX
8
OBJECT__46
10
-39.230999
20
16.250000
30
11.345000
70
192
0
VERTEX
8
OBJECT__46
10
-82.285004
20
18.948999
30
9.378000
70
192
0
VERTEX
8
OBJECT__46
10
-78.325996
20
32.441002
30
9.378000
70
192
0
VERTEX
8
OBJECT__46
10
-79.695999
20
29.278999
30
9.378000
70
192
0
VERTEX
8
OBJECT__46
10
-84.922997
20
0.806000
30
9.378000
70
192
0
VERTEX
8
OBJECT__46
10
-4.975000
20
-84.427002
30
9.378000
70
192
0
VERTEX
8
OBJECT__46
10
0.000000
20
-85.000000
30
9.378000
70
192
0
VERTEX
8
OBJECT__46
10
0.000000
20
-79.679001
30
9.696000
70
192
0
VERTEX
8
OBJECT__46
10
-18.757999
20
-82.838997
30
9.378000
70
192
0
VERTEX
8
OBJECT__46
10
0.000000
20
-42.495998
30
10.771000
70
192
0
VERTEX
8
OBJECT__46
10
-16.250000
20
-39.230999
30
11.345000
70
192
0
VERTEX
8
OBJECT__46
10
-23.125000
20
-81.551003
30
9.378000
70
192
0
VERTEX
8
OBJECT__46
10
-32.337002
20
-78.125999
30
9.378000
70
192
0
VERTEX
8
OBJECT__46
10
-28.695000
20
-79.908997
30
9.378000
70
192
0
VERTEX
8
OBJECT__46
10
-16.250000
20
39.230999
30
11.345000
70
192
0
VERTEX
8
OBJECT__46
10
0.000000
20
0.000000
30
12.000000
70
192
0
VERTEX
8
OBJECT__46
10
0.000000
20
5.311000
30
11.990000
70
192
0
VERTEX
8
OBJECT__46
10
-30.061001
20
30.061001
30
11.345000
70
192
0
VERTEX
8
OBJECT__46
10
-53.998001
20
65.070000
30
9.378000
70
192
0
VERTEX
8
OBJECT__46
10
-58.372002
20
61.785000
30
9.378000
70
192
0
VERTEX
8
OBJECT__46
10
-43.591999
20
72.887001
30
9.378000
70
192
0
VERTEX
8
OBJECT__46
10
-38.791000
20
75.407997
30
9.378000
70
192
0
VERTEX
8
OBJECT__46
10
-32.393002
20
78.147003
30
9.378000
70
192
0
VERTEX
8
OBJECT__46
10
-35.659000
20
77.053001
30
9.378000
70
192
0
VERTEX
8
OBJECT__46
10
-66.861000
20
52.076000
30
9.378000
70
192
0
VERTEX
8
OBJECT__46
10
-75.829002
20
38.202999
30
9.378000
70
192
0
VERTEX
8
OBJECT__46
10
-76.591003
20
36.444000
30
9.378000
70
192
0
VERTEX
8
OBJECT__46
10
-60.014999
20
60.021000
30
9.378000
70
192
0
VERTEX
8
OBJECT__46
10
-65.607002
20
54.015999
30
9.378000
70
192
0
VERTEX
8
OBJECT__46
10
-21.511999
20
81.792999
30
9.378000
70
192
0
VERTEX
8
OBJECT__46
10
0.000000
20
42.493000
30
10.771000
70
192
0
VERTEX
8
OBJECT__46
10
-3.394000
20
84.632004
30
9.378000
70
192
0
VERTEX
8
OBJECT__46
10
-17.656000
20
83.084999
30
9.378000
70
192
0
VERTEX
8
OBJECT__46
10
0.000000
20
85.000000
30
9.378000
70
192
0
VERTEX
8
OBJECT__46
10
-30.061001
20
-30.061001
30
11.345000
70
192
0
VERTEX
8
OBJECT__46
10
-67.973000
20
-50.893002
30
9.378000
70
192
0
VERTEX
8
OBJECT__46
10
-67.350998
20
-51.805000
30
9.378000
70
192
0
VERTEX
8
OBJECT__46
10
-39.230999
20
-16.250000
30
11.345000
70
192
0
VERTEX
8
OBJECT__46
10
-72.429001
20
-44.355000
30
9.378000
70
192
0
VERTEX
8
OBJECT__46
10
-76.886002
20
-34.808998
30
9.378000
70
192
0
VERTEX
8
OBJECT__46
10
-78.053001
20
-32.310001
30
9.378000
70
192
0
VERTEX
8
OBJECT__46
10
-45.762001
20
-71.556000
30
9.378000
70
192
0
VERTEX
8
OBJECT__46
10
-40.060001
20
-74.347000
30
9.378000
70
192
0
VERTEX
8
OBJECT__46
10
-55.387001
20
-64.293999
30
9.378000
70
192
0
VERTEX
8
OBJECT__46
10
-54.553001
20
-65.164001
30
9.378000
70
192
0
VERTEX
8
OBJECT__46
10
-59.737000
20
-59.752998
30
9.378000
70
192
0
VERTEX
8
OBJECT__46
10
-83.088997
20
-17.499001
30
9.378000
70
192
0
VERTEX
8
OBJECT__46
10
-80.417999
20
-27.243999
30
9.378000
70
192
0
VERTEX
8
OBJECT__46
10
-84.848000
20
0.015000
30
9.378000
70
192
0
VERTEX
8
OBJECT__46
10
-83.223000
20
-17.011999
30
9.378000
70
192
0
VERTEX
8
OBJECT__46
10
0
20
0
30
0
70
128
71
1
72
2
73
3
0
VERTEX
8
OBJECT__46
10
0
20
0
30
0
70
128
71
1
72
4
73
5
0
VERTEX
8
OBJECT__46
10
0
20
0
30
0
70
128
71
5
72
2
73
1
0
VERTEX
8
OBJECT__46
10
0
20
0
30
0
70
128
71
4
72
6
73
7
0
VERTEX
8
OBJECT__46
10
0
20
0
30
0
70
128
71
7
72
5
73
4
0
VERTEX
8
OBJECT__46
10
0
20
0
30
0
70
128
71
3
72
8
73
1
0
VERTEX
8
OBJECT__46
10
0
20
0
30
0
70
128
71
9
72
10
73
11
0
VERTEX
8
OBJECT__46
10
0
20
0
30
0
70
128
71
12
72
9
73
13
0
VERTEX
8
OBJECT__46
10
0
20
0
30
0
70
128
71
14
72
15
73
12
0
VERTEX
8
OBJECT__46
10
0
20
0
30
0
70
128
71
14
72
16
73
17
0
VERTEX
8
OBJECT__46
10
0
20
0
30
0
70
128
71
17
72
15
73
14
0
VERTEX
8
OBJECT__46
10
0
20
0
30
0
70
128
71
13
72
14
73
12
0
VERTEX
8
OBJECT__46
10
0
20
0
30
0
70
128
71
18
72
19
73
20
0
VERTEX
8
OBJECT__46
10
0
20
0
30
0
70
128
71
21
72
22
73
23
0
VERTEX
8
OBJECT__46
10
0
20
0
30
0
70
128
71
18
72
24
73
22
0
VERTEX
8
OBJECT__46
10
0
20
0
30
0
70
128
71
18
72
25
73
24
0
VERTEX
8
OBJECT__46
10
0
20
0
30
0
70
128
71
22
72
21
73
18
0
VERTEX
8
OBJECT__46
10
0
20
0
30
0
70
128
71
18
72
26
73
27
0
VERTEX
8
OBJECT__46
10
0
20
0
30
0
70
128
71
27
72
25
73
18
0
VERTEX
8
OBJECT__46
10
0
20
0
30
0
70
128
71
28
72
29
73
4
0
VERTEX
8
OBJECT__46
10
0
20
0
30
0
70
128
71
4
72
21
73
28
0
VERTEX
8
OBJECT__46
10
0
20
0
30
0
70
128
71
29
72
30
73
4
0
VERTEX
8
OBJECT__46
10
0
20
0
30
0
70
128
71
21
72
31
73
32
0
VERTEX
8
OBJECT__46
10
0
20
0
30
0
70
128
71
32
72
28
73
21
0
VERTEX
8
OBJECT__46
10
0
20
0
30
0
70
128
71
33
72
26
73
18
0
VERTEX
8
OBJECT__46
10
0
20
0
30
0
70
128
71
34
72
35
73
36
0
VERTEX
8
OBJECT__46
10
0
20
0
30
0
70
128
71
36
72
33
73
34
0
VERTEX
8
OBJECT__46
10
0
20
0
30
0
70
128
71
34
72
37
73
35
0
VERTEX
8
OBJECT__46
10
0
20
0
30
0
70
128
71
38
72
39
73
40
0
VERTEX
8
OBJECT__46
10
0
20
0
30
0
70
128
71
38
72
41
73
42
0
VERTEX
8
OBJECT__46
10
0
20
0
30
0
70
128
71
41
72
43
73
42
0
VERTEX
8
OBJECT__46
10
0
20
0
30
0
70
128
71
41
72
44
73
43
0
VERTEX
8
OBJECT__46
10
0
20
0
30
0
70
128
71
42
72
39
73
38
0
VERTEX
8
OBJECT__46
10
0
20
0
30
0
70
128
71
38
72
45
73
46
0
VERTEX
8
OBJECT__46
10
0
20
0
30
0
70
128
71
38
72
47
73
48
0
VERTEX
8
OBJECT__46
10
0
20
0
30
0
70
128
71
48
72
45
73
38
0
VERTEX
8
OBJECT__46
10
0
20
0
30
0
70
128
71
46
72
14
73
38
0
VERTEX
8
OBJECT__46
10
0
20
0
30
0
70
128
71
38
72
49
73
47
0
VERTEX
8
OBJECT__46
10
0
20
0
30
0
70
128
71
41
72
1
73
50
0
VERTEX
8
OBJECT__46
10
0
20
0
30
0
70
128
71
50
72
51
73
41
0
VERTEX
8
OBJECT__46
10
0
20
0
30
0
70
128
71
1
72
52
73
53
0
VERTEX
8
OBJECT__46
10
0
20
0
30
0
70
128
71
53
72
50
73
1
0
VERTEX
8
OBJECT__46
10
0
20
0
30
0
70
128
71
19
72
1
73
41
0
VERTEX
8
OBJECT__46
10
0
20
0
30
0
70
128
71
19
72
38
73
14
0
VERTEX
8
OBJECT__46
10
0
20
0
30
0
70
128
71
41
72
38
73
19
0
VERTEX
8
OBJECT__46
10
0
20
0
30
0
70
128
71
51
72
44
73
41
0
VERTEX
8
OBJECT__46
10
0
20
0
30
0
70
128
71
46
72
16
73
14
0
VERTEX
8
OBJECT__46
10
0
20
0
30
0
70
128
71
40
72
49
73
38
0
VERTEX
8
OBJECT__46
10
0
20
0
30
0
70
128
71
18
72
34
73
33
0
VERTEX
8
OBJECT__46
10
0
20
0
30
0
70
128
71
30
72
6
73
4
0
VERTEX
8
OBJECT__46
10
0
20
0
30
0
70
128
71
23
72
31
73
21
0
VERTEX
8
OBJECT__46
10
0
20
0
30
0
70
128
71
20
72
34
73
18
0
VERTEX
8
OBJECT__46
10
0
20
0
30
0
70
128
71
19
72
21
73
4
0
VERTEX
8
OBJECT__46
10
0
20
0
30
0
70
128
71
18
72
21
73
19
0
VERTEX
8
OBJECT__46
10
0
20
0
30
0
70
128
71
11
72
13
73
9
0
VERTEX
8
OBJECT__46
10
0
20
0
30
0
70
128
71
14
72
13
73
19
0
VERTEX
8
OBJECT__46
10
0
20
0
30
0
70
128
71
8
72
52
73
1
0
VERTEX
8
OBJECT__46
10
0
20
0
30
0
70
128
71
4
72
1
73
19
0
SEQEND
8
OBJECT__46
0
POLYLINE
8
OBJECT__47
66
1
70
64
71
44
72
49
62
253
0
VERTEX
8
OBJECT__47
10
84.498001
20
-9.024000
30
9.378000
70
192
0
VERTEX
8
OBJECT__47
10
42.512001
20
0.000000
30
11.345000
70
192
0
VERTEX
8
OBJECT__47
10
39.230999
20
-16.250000
30
11.345000
70
192
0
VERTEX
8
OBJECT__47
10
80.453003
20
-27.141001
30
9.378000
70
192
0
VERTEX
8
OBJECT__47
10
78.338997
20
-32.451000
30
9.378000
70
192
0
VERTEX
8
OBJECT__47
10
84.875999
20
-0.794000
30
9.378000
70
192
0
VERTEX
8
OBJECT__47
10
16.250000
20
39.230999
30
11.345000
70
192
0
VERTEX
8
OBJECT__47
10
0.000000
20
42.493000
30
10.771000
70
192
0
VERTEX
8
OBJECT__47
10
0.000000
20
5.311000
30
11.990000
70
192
0
VERTEX
8
OBJECT__47
10
17.547001
20
83.109001
30
9.378000
70
192
0
VERTEX
8
OBJECT__47
10
0.000000
20
85.000000
30
9.378000
70
192
0
VERTEX
8
OBJECT__47
10
32.296001
20
78.009003
30
9.378000
70
192
0
VERTEX
8
OBJECT__47
10
26.201000
20
80.766998
30
9.378000
70
192
0
VERTEX
8
OBJECT__47
10
45.855999
20
-71.497002
30
9.378000
70
192
0
VERTEX
8
OBJECT__47
10
59.155998
20
-60.827999
30
9.378000
70
192
0
VERTEX
8
OBJECT__47
10
30.061001
20
-30.061001
30
11.345000
70
192
0
VERTEX
8
OBJECT__47
10
16.250000
20
-39.230999
30
11.345000
70
192
0
VERTEX
8
OBJECT__47
10
36.792000
20
-76.521004
30
9.378000
70
192
0
VERTEX
8
OBJECT__47
10
32.362999
20
-78.074997
30
9.378000
70
192
0
VERTEX
8
OBJECT__47
10
67.418999
20
-51.716999
30
9.378000
70
192
0
VERTEX
8
OBJECT__47
10
77.120003
20
-35.513000
30
9.378000
70
192
0
VERTEX
8
OBJECT__47
10
60.286999
20
-59.919998
30
9.378000
70
192
0
VERTEX
8
OBJECT__47
10
77.969002
20
-33.382000
30
9.378000
70
192
0
VERTEX
8
OBJECT__47
10
0.000000
20
-79.679001
30
9.696000
70
192
0
VERTEX
8
OBJECT__47
10
0.000000
20
-85.000000
30
9.378000
70
192
0
VERTEX
8
OBJECT__47
10
18.863001
20
-82.814003
30
9.378000
70
192
0
VERTEX
8
OBJECT__47
10
31.040001
20
-78.540001
30
9.378000
70
192
0
VERTEX
8
OBJECT__47
10
0.000000
20
-42.495998
30
10.771000
70
192
0
VERTEX
8
OBJECT__47
10
30.061001
20
30.061001
30
11.345000
70
192
0
VERTEX
8
OBJECT__47
10
71.260002
20
46.227001
30
9.378000
70
192
0
VERTEX
8
OBJECT__47
10
65.535004
20
54.104000
30
9.378000
70
192
0
VERTEX
8
OBJECT__47
10
39.230999
20
16.250000
30
11.345000
70
192
0
VERTEX
8
OBJECT__47
10
78.174004
20
32.358002
30
9.378000
70
192
0
VERTEX
8
OBJECT__47
10
60.029999
20
59.453999
30
9.378000
70
192
0
VERTEX
8
OBJECT__47
10
52.279999
20
66.987000
30
9.378000
70
192
0
VERTEX
8
OBJECT__47
10
43.499001
20
72.942001
30
9.378000
70
192
0
VERTEX
8
OBJECT__47
10
59.743000
20
59.733002
30
9.378000
70
192
0
VERTEX
8
OBJECT__47
10
32.479000
20
77.927002
30
9.378000
70
192
0
VERTEX
8
OBJECT__47
10
82.526001
20
20.066000
30
9.378000
70
192
0
VERTEX
8
OBJECT__47
10
84.912003
20
0.004000
30
9.378000
70
192
0
VERTEX
8
OBJECT__47
10
84.984001
20
1.583000
30
9.378000
70
192
0
VERTEX
8
OBJECT__47
10
79.660004
20
29.377001
30
9.378000
70
192
0
VERTEX
8
OBJECT__47
10
78.441002
20
31.820999
30
9.378000
70
192
0
VERTEX
8
OBJECT__47
10
0.000000
20
0.000000
30
12.000000
70
192
0
VERTEX
8
OBJECT__47
10
0
20
0
30
0
70
128
71
1
72
2
73
3
0
VERTEX
8
OBJECT__47
10
0
20
0
30
0
70
128
71
3
72
4
73
1
0
VERTEX
8
OBJECT__47
10
0
20
0
30
0
70
128
71
3
72
5
73
4
0
VERTEX
8
OBJECT__47
10
0
20
0
30
0
70
128
71
1
72
6
73
2
0
VERTEX
8
OBJECT__47
10
0
20
0
30
0
70
128
71
7
72
8
73
9
0
VERTEX
8
OBJECT__47
10
0
20
0
30
0
70
128
71
10
72
11
73
8
0
VERTEX
8
OBJECT__47
10
0
20
0
30
0
70
128
71
7
72
12
73
13
0
VERTEX
8
OBJECT__47
10
0
20
0
30
0
70
128
71
13
72
10
73
7
0
VERTEX
8
OBJECT__47
10
0
20
0
30
0
70
128
71
14
72
15
73
16
0
VERTEX
8
OBJECT__47
10
0
20
0
30
0
70
128
71
17
72
18
73
14
0
VERTEX
8
OBJECT__47
10
0
20
0
30
0
70
128
71
17
72
19
73
18
0
VERTEX
8
OBJECT__47
10
0
20
0
30
0
70
128
71
16
72
17
73
14
0
VERTEX
8
OBJECT__47
10
0
20
0
30
0
70
128
71
20
72
21
73
3
0
VERTEX
8
OBJECT__47
10
0
20
0
30
0
70
128
71
16
72
22
73
20
0
VERTEX
8
OBJECT__47
10
0
20
0
30
0
70
128
71
3
72
16
73
20
0
VERTEX
8
OBJECT__47
10
0
20
0
30
0
70
128
71
21
72
23
73
3
0
VERTEX
8
OBJECT__47
10
0
20
0
30
0
70
128
71
24
72
25
73
26
0
VERTEX
8
OBJECT__47
10
0
20
0
30
0
70
128
71
27
72
17
73
28
0
VERTEX
8
OBJECT__47
10
0
20
0
30
0
70
128
71
28
72
24
73
27
0
VERTEX
8
OBJECT__47
10
0
20
0
30
0
70
128
71
26
72
27
73
24
0
VERTEX
8
OBJECT__47
10
0
20
0
30
0
70
128
71
29
72
30
73
31
0
VERTEX
8
OBJECT__47
10
0
20
0
30
0
70
128
71
30
72
29
73
32
0
VERTEX
8
OBJECT__47
10
0
20
0
30
0
70
128
71
32
72
33
73
30
0
VERTEX
8
OBJECT__47
10
0
20
0
30
0
70
128
71
31
72
34
73
29
0
VERTEX
8
OBJECT__47
10
0
20
0
30
0
70
128
71
29
72
35
73
36
0
VERTEX
8
OBJECT__47
10
0
20
0
30
0
70
128
71
29
72
37
73
35
0
VERTEX
8
OBJECT__47
10
0
20
0
30
0
70
128
71
36
72
7
73
29
0
VERTEX
8
OBJECT__47
10
0
20
0
30
0
70
128
71
36
72
38
73
7
0
VERTEX
8
OBJECT__47
10
0
20
0
30
0
70
128
71
39
72
32
73
2
0
VERTEX
8
OBJECT__47
10
0
20
0
30
0
70
128
71
2
72
40
73
41
0
VERTEX
8
OBJECT__47
10
0
20
0
30
0
70
128
71
2
72
41
73
39
0
VERTEX
8
OBJECT__47
10
0
20
0
30
0
70
128
71
39
72
42
73
32
0
VERTEX
8
OBJECT__47
10
0
20
0
30
0
70
128
71
42
72
43
73
32
0
VERTEX
8
OBJECT__47
10
0
20
0
30
0
70
128
71
44
72
2
73
32
0
VERTEX
8
OBJECT__47
10
0
20
0
30
0
70
128
71
44
72
29
73
7
0
VERTEX
8
OBJECT__47
10
0
20
0
30
0
70
128
71
32
72
29
73
44
0
VERTEX
8
OBJECT__47
10
0
20
0
30
0
70
128
71
43
72
33
73
32
0
VERTEX
8
OBJECT__47
10
0
20
0
30
0
70
128
71
38
72
12
73
7
0
VERTEX
8
OBJECT__47
10
0
20
0
30
0
70
128
71
34
72
37
73
29
0
VERTEX
8
OBJECT__47
10
0
20
0
30
0
70
128
71
27
72
19
73
17
0
VERTEX
8
OBJECT__47
10
0
20
0
30
0
70
128
71
23
72
5
73
3
0
VERTEX
8
OBJECT__47
10
0
20
0
30
0
70
128
71
15
72
22
73
16
0
VERTEX
8
OBJECT__47
10
0
20
0
30
0
70
128
71
44
72
28
73
17
0
VERTEX
8
OBJECT__47
10
0
20
0
30
0
70
128
71
44
72
16
73
3
0
VERTEX
8
OBJECT__47
10
0
20
0
30
0
70
128
71
17
72
16
73
44
0
VERTEX
8
OBJECT__47
10
0
20
0
30
0
70
128
71
8
72
7
73
10
0
VERTEX
8
OBJECT__47
10
0
20
0
30
0
70
128
71
9
72
44
73
7
0
VERTEX
8
OBJECT__47
10
0
20
0
30
0
70
128
71
6
72
40
73
2
0
VERTEX
8
OBJECT__47
10
0
20
0
30
0
70
128
71
3
72
2
73
44
0
SEQEND
8
OBJECT__47
0
ENDSEC
0
EOF
