  0
SECTION
  2
HEADER
  9
$ACADVER
  1
AC1015
  9
$ACADMAINTVER
 70
     6
  9
$DWGCODEPAGE
  3
ANSI_1252
  9
$INSBASE
 10
0.0
 20
0.0
 30
0.0
  9
$EXTMIN
 10
0.0
 20
0.0
 30
0.0
  9
$EXTMAX
 10
1682.0
 20
2378.0
 30
0.0
  9
$LIMMIN
 10
0.0
 20
0.0
  9
$LIMMAX
 10
1682.0
 20
2378.0
  9
$ORTHOMODE
 70
     0
  9
$REGENMODE
 70
     1
  9
$FILLMODE
 70
     1
  9
$QTEXTMODE
 70
     0
  9
$MIRRTEXT
 70
     1
  9
$LTSCALE
 40
1.0
  9
$ATTMODE
 70
     1
  9
$TEXTSIZE
 40
2.5
  9
$TRACEWID
 40
1.0
  9
$TEXTSTYLE
  7
Standard
  9
$CLAYER
  8
0
  9
$CELTYPE
  6
ByLayer
  9
$CECOLOR
 62
   256
  9
$CELTSCALE
 40
1.0
  9
$DISPSILH
 70
     0
  9
$DIMSCALE
 40
1.0
  9
$DIMASZ
 40
2.5
  9
$DIMEXO
 40
0.625
  9
$DIMDLI
 40
3.75
  9
$DIMRND
 40
0.0
  9
$DIMDLE
 40
0.0
  9
$DIMEXE
 40
1.25
  9
$DIMTP
 40
0.0
  9
$DIMTM
 40
0.0
  9
$DIMTXT
 40
2.5
  9
$DIMCEN
 40
2.5
  9
$DIMTSZ
 40
0.0
  9
$DIMTOL
 70
     0
  9
$DIMLIM
 70
     0
  9
$DIMTIH
 70
     0
  9
$DIMTOH
 70
     0
  9
$DIMSE1
 70
     0
  9
$DIMSE2
 70
     0
  9
$DIMTAD
 70
     1
  9
$DIMZIN
 70
     8
  9
$DIMBLK
  1

  9
$DIMASO
 70
     1
  9
$DIMSHO
 70
     1
  9
$DIMPOST
  1

  9
$DIMAPOST
  1

  9
$DIMALT
 70
     0
  9
$DIMALTD
 70
     3
  9
$DIMALTF
 40
0.0393700787
  9
$DIMLFAC
 40
1.0
  9
$DIMTOFL
 70
     1
  9
$DIMTVP
 40
0.0
  9
$DIMTIX
 70
     0
  9
$DIMSOXD
 70
     0
  9
$DIMSAH
 70
     0
  9
$DIMBLK1
  1

  9
$DIMBLK2
  1

  9
$DIMSTYLE
  2
ISO-25
  9
$DIMCLRD
 70
     0
  9
$DIMCLRE
 70
     0
  9
$DIMCLRT
 70
     0
  9
$DIMTFAC
 40
1.0
  9
$DIMGAP
 40
0.625
  9
$DIMJUST
 70
     0
  9
$DIMSD1
 70
     0
  9
$DIMSD2
 70
     0
  9
$DIMTOLJ
 70
     0
  9
$DIMTZIN
 70
     8
  9
$DIMALTZ
 70
     0
  9
$DIMALTTZ
 70
     0
  9
$DIMUPT
 70
     0
  9
$DIMDEC
 70
     2
  9
$DIMTDEC
 70
     2
  9
$DIMALTU
 70
     2
  9
$DIMALTTD
 70
     3
  9
$DIMTXSTY
  7
Standard
  9
$DIMAUNIT
 70
     0
  9
$DIMADEC
 70
     0
  9
$DIMALTRND
 40
0.0
  9
$DIMAZIN
 70
     0
  9
$DIMDSEP
 70
    44
  9
$DIMATFIT
 70
     3
  9
$DIMFRAC
 70
     0
  9
$DIMLDRBLK
  1

  9
$DIMLUNIT
 70
     2
  9
$DIMLWD
 70
    -2
  9
$DIMLWE
 70
    -2
  9
$DIMTMOVE
 70
     0
  9
$LUNITS
 70
     2
  9
$LUPREC
 70
     4
  9
$SKETCHINC
 40
1.0
  9
$FILLETRAD
 40
10.0
  9
$AUNITS
 70
     0
  9
$AUPREC
 70
     0
  9
$MENU
  1
.
  9
$ELEVATION
 40
0.0
  9
$PELEVATION
 40
0.0
  9
$THICKNESS
 40
0.0
  9
$LIMCHECK
 70
     0
  9
$CHAMFERA
 40
10.0
  9
$CHAMFERB
 40
10.0
  9
$CHAMFERC
 40
20.0
  9
$CHAMFERD
 40
0.0
  9
$SKPOLY
 70
     0
  9
$TDCREATE
 40
2455147.592321458
  9
$TDUCREATE
 40
2455147.550654792
  9
$TDUPDATE
 40
2455147.59232147
  9
$TDUUPDATE
 40
2455147.550654803
  9
$TDINDWG
 40
0.0000000116
  9
$TDUSRTIMER
 40
0.0000000116
  9
$USRTIMER
 70
     1
  9
$ANGBASE
 50
0.0
  9
$ANGDIR
 70
     0
  9
$PDMODE
 70
     0
  9
$PDSIZE
 40
0.0
  9
$PLINEWID
 40
0.0
  9
$SPLFRAME
 70
     0
  9
$SPLINETYPE
 70
     6
  9
$SPLINESEGS
 70
     8
  9
$HANDSEED
  5
129
  9
$SURFTAB1
 70
     6
  9
$SURFTAB2
 70
     6
  9
$SURFTYPE
 70
     6
  9
$SURFU
 70
     6
  9
$SURFV
 70
     6
  9
$UCSBASE
  2

  9
$UCSNAME
  2

  9
$UCSORG
 10
0.0
 20
0.0
 30
0.0
  9
$UCSXDIR
 10
1.0
 20
0.0
 30
0.0
  9
$UCSYDIR
 10
0.0
 20
1.0
 30
0.0
  9
$UCSORTHOREF
  2

  9
$UCSORTHOVIEW
 70
     0
  9
$UCSORGTOP
 10
0.0
 20
0.0
 30
0.0
  9
$UCSORGBOTTOM
 10
0.0
 20
0.0
 30
0.0
  9
$UCSORGLEFT
 10
0.0
 20
0.0
 30
0.0
  9
$UCSORGRIGHT
 10
0.0
 20
0.0
 30
0.0
  9
$UCSORGFRONT
 10
0.0
 20
0.0
 30
0.0
  9
$UCSORGBACK
 10
0.0
 20
0.0
 30
0.0
  9
$PUCSBASE
  2

  9
$PUCSNAME
  2

  9
$PUCSORG
 10
0.0
 20
0.0
 30
0.0
  9
$PUCSXDIR
 10
1.0
 20
0.0
 30
0.0
  9
$PUCSYDIR
 10
0.0
 20
1.0
 30
0.0
  9
$PUCSORTHOREF
  2

  9
$PUCSORTHOVIEW
 70
     0
  9
$PUCSORGTOP
 10
0.0
 20
0.0
 30
0.0
  9
$PUCSORGBOTTOM
 10
0.0
 20
0.0
 30
0.0
  9
$PUCSORGLEFT
 10
0.0
 20
0.0
 30
0.0
  9
$PUCSORGRIGHT
 10
0.0
 20
0.0
 30
0.0
  9
$PUCSORGFRONT
 10
0.0
 20
0.0
 30
0.0
  9
$PUCSORGBACK
 10
0.0
 20
0.0
 30
0.0
  9
$USERI1
 70
     0
  9
$USERI2
 70
     0
  9
$USERI3
 70
     0
  9
$USERI4
 70
     0
  9
$USERI5
 70
     0
  9
$USERR1
 40
0.0
  9
$USERR2
 40
0.0
  9
$USERR3
 40
0.0
  9
$USERR4
 40
0.0
  9
$USERR5
 40
0.0
  9
$WORLDVIEW
 70
     1
  9
$SHADEDGE
 70
     3
  9
$SHADEDIF
 70
    70
  9
$TILEMODE
 70
     1
  9
$MAXACTVP
 70
    64
  9
$PINSBASE
 10
0.0
 20
0.0
 30
0.0
  9
$PLIMCHECK
 70
     0
  9
$PEXTMIN
 10
0.0
 20
0.0
 30
0.0
  9
$PEXTMAX
 10
1682.0
 20
2378.0
 30
0.0
  9
$PLIMMIN
 10
0.0
 20
0.0
  9
$PLIMMAX
 10
1682.0
 20
2378.0
  9
$UNITMODE
 70
     0
  9
$VISRETAIN
 70
     1
  9
$PLINEGEN
 70
     0
  9
$PSLTSCALE
 70
     1
  9
$TREEDEPTH
 70
  3020
  9
$CMLSTYLE
  2
Standard
  9
$CMLJUST
 70
     0
  9
$CMLSCALE
 40
20.0
  9
$PROXYGRAPHICS
 70
     1
  9
$MEASUREMENT
 70
     1
  9
$CELWEIGHT
370
    -1
  9
$ENDCAPS
280
     0
  9
$JOINSTYLE
280
     0
  9
$LWDISPLAY
290
     0
  9
$INSUNITS
 70
     4
  9
$HYPERLINKBASE
  1

  9
$STYLESHEET
  1

  9
$XEDIT
290
     1
  9
$CEPSNTYPE
380
     0
  9
$PSTYLEMODE
290
     1
  9
$FINGERPRINTGUID
  2
{E8CEB0E5-B945-4F36-B401-90A5FF5F9D3D}
  9
$VERSIONGUID
  2
{FAEB1C32-E019-11D5-929B-00C0DF256EC4}
  9
$EXTNAMES
290
     1
  9
$PSVPSCALE
 40
0.0
  9
$OLESTARTUP
290
     0
  0
ENDSEC
  0
SECTION
  2
CLASSES
  0
CLASS
  1
ACDBDICTIONARYWDFLT
  2
AcDbDictionaryWithDefault
  3
ObjectDBX Classes
 90
        0
280
     0
281
     0
  0
CLASS
  1
VISUALSTYLE
  2
AcDbVisualStyle
  3
ObjectDBX Classes
 90
     4095
280
     0
281
     0
  0
CLASS
  1
SCALE
  2
AcDbScale
  3
ObjectDBX Classes
 90
     1153
280
     0
281
     0
  0
CLASS
  1
DICTIONARYVAR
  2
AcDbDictionaryVar
  3
ObjectDBX Classes
 90
        0
280
     0
281
     0
  0
CLASS
  1
ACDBPLACEHOLDER
  2
AcDbPlaceHolder
  3
ObjectDBX Classes
 90
        0
280
     0
281
     0
  0
CLASS
  1
LAYOUT
  2
AcDbLayout
  3
ObjectDBX Classes
 90
        0
280
     0
281
     0
  0
ENDSEC
  0
SECTION
  2
TABLES
  0
TABLE
  2
VPORT
  5
8
330
0
100
AcDbSymbolTable
 70
     1
  0
VPORT
  5
29
330
8
100
AcDbSymbolTableRecord
100
AcDbViewportTableRecord
  2
*Active
 70
     0
 10
0.0
 20
0.0
 11
1.0
 21
1.0
 12
344.1869158879
 22
148.5
 13
0.0
 23
0.0
 14
10.0
 24
10.0
 15
10.0
 25
10.0
 16
0.0
 26
0.0
 36
1.0
 17
0.0
 27
0.0
 37
0.0
 40
297.0
 41
1.9729729729
 42
50.0
 43
0.0
 44
0.0
 50
0.0
 51
0.0
 71
     0
 72
   100
 73
     1
 74
     3
 75
     0
 76
     0
 77
     0
 78
     0
281
     0
 65
     1
110
0.0
120
0.0
130
0.0
111
1.0
121
0.0
131
0.0
112
0.0
122
1.0
132
0.0
 79
     0
146
0.0
  0
ENDTAB
  0
TABLE
  2
LTYPE
  5
5
330
0
100
AcDbSymbolTable
 70
     1
  0
LTYPE
  5
14
330
5
100
AcDbSymbolTableRecord
100
AcDbLinetypeTableRecord
  2
ByBlock
 70
     0
  3

 72
    65
 73
     0
 40
0.0
  0
LTYPE
  5
15
330
5
100
AcDbSymbolTableRecord
100
AcDbLinetypeTableRecord
  2
ByLayer
 70
     0
  3

 72
    65
 73
     0
 40
0.0
  0
LTYPE
  5
16
330
5
100
AcDbSymbolTableRecord
100
AcDbLinetypeTableRecord
  2
Continuous
 70
     0
  3
Solid line
 72
    65
 73
     0
 40
0.0
  0
ENDTAB
  0
TABLE
  2
LAYER
  5
2
330
0
100
AcDbSymbolTable
 70
     8
  0
LAYER
  5
10
330
2
100
AcDbSymbolTableRecord
100
AcDbLayerTableRecord
  2
0
 70
     0
 62
     7
  6
Continuous
370
    -3
390
F
  0
LAYER
  5
5D
330
2
100
AcDbSymbolTableRecord
100
AcDbLayerTableRecord
  2
Default
 70
     0
 62
     7
  6
Continuous
370
    -3
390
F
  0
LAYER
  5
60
330
2
100
AcDbSymbolTableRecord
100
AcDbLayerTableRecord
  2
$DDT_AUDIT_GENERATED_(60)
 70
     0
 62
     7
  6
Continuous
370
    -3
390
F
  0
LAYER
  5
84
330
2
100
AcDbSymbolTableRecord
100
AcDbLayerTableRecord
  2
$DDT_AUDIT_GENERATED_(84)
 70
     0
 62
     7
  6
Continuous
370
    -3
390
F
  0
LAYER
  5
8A
330
2
100
AcDbSymbolTableRecord
100
AcDbLayerTableRecord
  2
$DDT_AUDIT_GENERATED_(8A)
 70
     0
 62
     7
  6
Continuous
370
    -3
390
F
  0
LAYER
  5
92
330
2
100
AcDbSymbolTableRecord
100
AcDbLayerTableRecord
  2
$DDT_AUDIT_GENERATED_(92)
 70
     0
 62
     7
  6
Continuous
370
    -3
390
F
  0
LAYER
  5
9D
330
2
100
AcDbSymbolTableRecord
100
AcDbLayerTableRecord
  2
$DDT_AUDIT_GENERATED_(9D)
 70
     0
 62
     7
  6
Continuous
370
    -3
390
F
  0
LAYER
  5
DE
330
2
100
AcDbSymbolTableRecord
100
AcDbLayerTableRecord
  2
$DDT_AUDIT_GENERATED_(DE)
 70
     0
 62
     7
  6
Continuous
370
    -3
390
F
  0
ENDTAB
  0
TABLE
  2
STYLE
  5
3
330
0
100
AcDbSymbolTable
 70
     2
  0
STYLE
  5
11
330
3
100
AcDbSymbolTableRecord
100
AcDbTextStyleTableRecord
  2
Standard
 70
     0
 40
0.0
 41
1.0
 50
0.0
 71
     0
 42
2.5
  3
txt
  4

  0
STYLE
  5
118
330
3
100
AcDbSymbolTableRecord
100
AcDbTextStyleTableRecord
  2
SEACAD_seiso_ttf
 70
     0
 40
0.0
 41
1.0
 50
0.0
 71
     0
 42
0.2
  3
seiso.ttf
  4

  0
ENDTAB
  0
TABLE
  2
VIEW
  5
6
330
0
100
AcDbSymbolTable
 70
     0
  0
ENDTAB
  0
TABLE
  2
UCS
  5
7
330
0
100
AcDbSymbolTable
 70
     0
  0
ENDTAB
  0
TABLE
  2
APPID
  5
9
330
0
100
AcDbSymbolTable
 70
     1
  0
APPID
  5
12
330
9
100
AcDbSymbolTableRecord
100
AcDbRegAppTableRecord
  2
ACAD
 70
     0
  0
ENDTAB
  0
TABLE
  2
DIMSTYLE
  5
A
330
0
100
AcDbSymbolTable
 70
     1
100
AcDbDimStyleTable
  0
DIMSTYLE
105
27
330
A
100
AcDbSymbolTableRecord
100
AcDbDimStyleTableRecord
  2
ISO-25
 70
     0
 41
2.5
 42
0.625
 43
3.75
 44
1.25
 73
     0
 74
     0
 77
     1
 78
     8
140
2.5
141
2.5
143
0.0393700787
147
0.625
171
     3
172
     1
271
     2
272
     2
274
     3
278
    44
283
     0
284
     8
340
11
  0
ENDTAB
  0
TABLE
  2
BLOCK_RECORD
  5
1
330
0
100
AcDbSymbolTable
 70
     4
  0
BLOCK_RECORD
  5
1F
330
1
100
AcDbSymbolTableRecord
100
AcDbBlockTableRecord
  2
*Model_Space
340
22
  0
BLOCK_RECORD
  5
1B
330
1
100
AcDbSymbolTableRecord
100
AcDbBlockTableRecord
  2
*Paper_Space
340
1E
  0
BLOCK_RECORD
  5
5E
330
1
100
AcDbSymbolTableRecord
100
AcDbBlockTableRecord
  2
SE
340
0
102
{BLKREFS
331
5F
102
}
  0
BLOCK_RECORD
  5
BB
330
1
100
AcDbSymbolTableRecord
100
AcDbBlockTableRecord
  2
SE1
340
0
102
{BLKREFS
331
BC
102
}
  0
BLOCK_RECORD
  5
EC
330
1
100
AcDbSymbolTableRecord
100
AcDbBlockTableRecord
  2
SE2
340
0
102
{BLKREFS
331
ED
102
}
  0
ENDTAB
  0
ENDSEC
  0
SECTION
  2
BLOCKS
  0
BLOCK
  5
20
330
1F
100
AcDbEntity
  8
0
100
AcDbBlockBegin
  2
*Model_Space
 70
     0
 10
0.0
 20
0.0
 30
0.0
  3
*Model_Space
  1

  0
ENDBLK
  5
21
330
1F
100
AcDbEntity
  8
0
100
AcDbBlockEnd
  0
BLOCK
  5
1C
330
1B
100
AcDbEntity
 67
     1
  8
0
100
AcDbBlockBegin
  2
*Paper_Space
 70
     0
 10
0.0
 20
0.0
 30
0.0
  3
*Paper_Space
  1

  0
ENDBLK
  5
1D
330
1B
100
AcDbEntity
 67
     1
  8
0
100
AcDbBlockEnd
  0
BLOCK
  5
B9
330
5E
100
AcDbEntity
  8
0
100
AcDbBlockBegin
  2
SE
 70
     0
 10
0.0
 20
0.0
 30
0.0
  3
SE
  1

  0
LINE
  5
61
330
5E
100
AcDbEntity
  8
$DDT_AUDIT_GENERATED_(60)
  6
Continuous
 62
     7
100
AcDbLine
 10
68.8499870034
 20
1385.3322292643
 30
0.0
 11
68.8499870034
 21
1401.3259745465
 31
0.0
  0
LINE
  5
62
330
5E
100
AcDbEntity
  8
$DDT_AUDIT_GENERATED_(60)
  6
Continuous
 62
     7
100
AcDbLine
 10
68.8501629867
 20
1465.9601411181
 30
0.0
 11
68.8501629867
 21
1401.3259747959
 31
0.0
  0
LINE
  5
63
330
5E
100
AcDbEntity
  8
$DDT_AUDIT_GENERATED_(60)
  6
Continuous
 62
     7
100
AcDbLine
 10
113.8499870034
 20
1401.325974796
 30
0.0
 11
113.8499870034
 21
1385.3322292643
 31
0.0
  0
LINE
  5
64
330
5E
100
AcDbEntity
  8
$DDT_AUDIT_GENERATED_(60)
  6
Continuous
 62
     7
100
AcDbLine
 10
113.8499870034
 20
1465.5086955714
 30
0.0
 11
113.8499870034
 21
1401.325974796
 31
0.0
  0
LINE
  5
65
330
5E
100
AcDbEntity
  8
$DDT_AUDIT_GENERATED_(60)
  6
Continuous
 62
     7
100
AcDbLine
 10
69.3499873085
 20
1522.574443024
 30
0.0
 11
69.3499873097
 21
1522.5793876895
 31
0.0
  0
SPLINE
  5
66
330
5E
100
AcDbEntity
  8
$DDT_AUDIT_GENERATED_(60)
  6
Continuous
 62
     7
100
AcDbSpline
210
0.0
220
0.0
230
1.0
 70
     8
 71
     3
 72
    32
 73
    28
 74
     0
 42
0.0000000002157932
 43
0.0000000001
 40
0.0
 40
0.0
 40
0.0
 40
0.0
 40
0.0063544454329597
 40
0.0156303436598521
 40
0.0209205055073184
 40
0.0359487895015957
 40
0.0625201700620082
 40
0.1250256147598412
 40
0.1306540519719954
 40
0.2409730843492935
 40
0.3124821723467959
 40
0.3687164738837286
 40
0.3750092598597979
 40
0.4999168538834942
 40
0.4999328697051945
 40
0.5624378760940776
 40
0.6313562687768375
 40
0.6874784743813904
 40
0.7499994793763769
 40
0.75860945926294
 40
0.86788339004156
 40
0.9374788448287232
 40
0.9687393479021705
 40
0.9764755607802497
 40
0.9862657201655556
 40
0.9941241272309469
 40
1.0
 40
1.0
 40
1.0
 40
1.0
 10
68.85006096650989
 20
1522.079589156059
 30
0.0
 10
68.84998700336233
 20
1522.078549755959
 30
0.0
 10
68.84998700334924
 20
1522.075993391788
 30
0.0
 10
68.84998700346036
 20
1522.069422544225
 30
0.0
 10
68.84998700304612
 20
1522.04982380957
 30
0.0
 10
68.84998700868708
 20
1521.999146200228
 30
0.0
 10
68.8499869458304
 20
1521.809389727398
 30
0.0
 10
68.84998731688576
 20
1521.479132017868
 30
0.0
 10
68.84998746048542
 20
1520.635573221715
 30
0.0
 10
68.84998718116978
 20
1519.348475601898
 30
0.0
 10
68.84998639973233
 20
1516.960889383943
 30
0.0
 10
68.84999007249147
 20
1515.330929785473
 30
0.0
 10
68.84998943263165
 20
1512.866816365495
 30
0.0
 10
68.84998700318742
 20
1510.860331787148
 30
0.0
 10
68.84998700345673
 20
1507.683637741708
 30
0.0
 10
68.849985792581
 20
1505.341860050924
 30
0.0
 10
68.84999171307608
 20
1501.692240729979
 30
0.0
 10
68.8499865859311
 20
1497.784855054496
 30
0.0
 10
68.8499870211223
 20
1494.985320150969
 30
0.0
 10
68.84998697453496
 20
1490.913780593342
 30
0.0
 10
68.84998777190151
 20
1486.495122451822
 30
0.0
 10
68.8499869318798
 20
1481.356406644112
 30
0.0
 10
68.84998700594127
 20
1478.664775315485
 30
0.0
 10
68.84998700296778
 20
1477.450849587271
 30
0.0
 10
68.84998700346011
 20
1476.818293429817
 30
0.0
 10
68.84998700335257
 20
1476.23113594457
 30
0.0
 10
68.84998700336307
 20
1475.888044333769
 30
0.0
 10
68.84971814423413
 20
1475.738925220492
 30
0.0
  0
LINE
  5
67
330
5E
100
AcDbEntity
  8
$DDT_AUDIT_GENERATED_(60)
  6
Continuous
 62
     7
100
AcDbLine
 10
113.3499867892
 20
1522.5827610741
 30
0.0
 11
69.3499871624
 21
1522.5827610741
 31
0.0
  0
LINE
  5
68
330
5E
100
AcDbEntity
  8
$DDT_AUDIT_GENERATED_(60)
  6
Continuous
 62
     7
100
AcDbLine
 10
69.3499871624
 20
1522.5811749997
 30
0.0
 11
69.3499871623
 21
1522.567677259
 31
0.0
  0
SPLINE
  5
69
330
5E
100
AcDbEntity
  8
$DDT_AUDIT_GENERATED_(60)
  6
Continuous
 62
     7
100
AcDbSpline
210
0.0
220
0.0
230
1.0
 70
     8
 71
     3
 72
     8
 73
     4
 74
     0
 42
0.0000000126623743
 43
0.0000000001
 40
0.0
 40
0.0
 40
0.0
 40
0.0
 40
0.2388705671478526
 40
0.2388705671478526
 40
0.2388705671478526
 40
0.2388705671478526
 10
68.85006096650989
 20
1522.079589156059
 30
0.0
 10
68.85004667767029
 20
1522.14213233056
 30
0.0
 10
68.86232225346708
 20
1522.204503210019
 30
0.0
 10
68.88523926983892
 20
1522.262688102619
 30
0.0
  0
SPLINE
  5
6A
330
5E
100
AcDbEntity
  8
$DDT_AUDIT_GENERATED_(60)
  6
Continuous
 62
     7
100
AcDbSpline
210
0.0
220
0.0
230
1.0
 70
     8
 71
     3
 72
    11
 73
     7
 74
     0
 42
0.0000000002157841
 43
0.0000000001
 40
0.0
 40
0.0
 40
0.0
 40
0.0
 40
0.25
 40
0.5
 40
0.75
 40
1.0
 40
1.0
 40
1.0
 40
1.0
 10
113.8500291144716
 20
1475.738883563008
 30
0.0
 10
113.8499870033666
 20
1481.992096351034
 30
0.0
 10
113.8499870033676
 20
1494.289632610664
 30
0.0
 10
113.8499870033666
 20
1509.611386560014
 30
0.0
 10
113.8499870033676
 20
1519.725979601274
 30
0.0
 10
113.8499870033666
 20
1522.080544989244
 30
0.0
 10
113.849899012218
 20
1522.07958910329
 30
0.0
  0
SPLINE
  5
6B
330
5E
100
AcDbEntity
  8
$DDT_AUDIT_GENERATED_(60)
  6
Continuous
 62
     7
100
AcDbSpline
210
0.0
220
0.0
230
1.0
 70
     8
 71
     3
 72
     8
 73
     4
 74
     0
 42
0.0000000856669023
 43
0.0000000001
 40
0.8774171430178825
 40
0.8774171430178825
 40
0.8774171430178825
 40
0.8774171430178825
 40
1.0
 40
1.0
 40
1.0
 40
1.0
 10
113.8401581289304
 20
1464.741079535725
 30
0.0
 10
113.8465523407729
 20
1464.743852228165
 30
0.0
 10
113.8498931379891
 20
1464.746720495574
 30
0.0
 10
113.8498626510694
 20
1464.749656924991
 30
0.0
  0
SPLINE
  5
6C
330
5E
100
AcDbEntity
  8
$DDT_AUDIT_GENERATED_(60)
  6
Continuous
 62
     7
100
AcDbSpline
210
0.0
220
0.0
230
1.0
 70
     8
 71
     3
 72
     8
 73
     4
 74
     0
 42
0.0000000126545802
 43
0.0000000001
 40
0.748742293794475
 40
0.748742293794475
 40
0.748742293794475
 40
0.748742293794475
 40
1.0
 40
1.0
 40
1.0
 40
1.0
 10
113.8110821716852
 20
1522.271705643339
 30
0.0
 10
113.8363420912262
 20
1522.21097145572
 30
0.0
 10
113.8499210982149
 20
1522.145375592781
 30
0.0
 10
113.849899012218
 20
1522.07958910329
 30
0.0
  0
LINE
  5
6D
330
5E
100
AcDbEntity
  8
$DDT_AUDIT_GENERATED_(60)
  6
Continuous
 62
     7
100
AcDbLine
 10
68.8501629896
 20
1466.2677350616
 30
0.0
 11
68.8501629752
 21
1464.7496572898
 31
0.0
  0
LINE
  5
6E
330
5E
100
AcDbEntity
  8
$DDT_AUDIT_GENERATED_(60)
  6
Continuous
 62
     7
100
AcDbLine
 10
68.8494523986
 20
1475.7366724056
 30
0.0
 11
68.8498867791
 21
1466.2677355496
 31
0.0
  0
LINE
  5
6F
330
5E
100
AcDbEntity
  8
$DDT_AUDIT_GENERATED_(60)
  6
Continuous
 62
     7
100
AcDbLine
 10
113.8500712688
 20
1466.2677353552
 30
0.0
 11
113.8500712678
 21
1475.7388835007
 31
0.0
  0
LINE
  5
70
330
5E
100
AcDbEntity
  8
$DDT_AUDIT_GENERATED_(60)
  6
Continuous
 62
     7
100
AcDbLine
 10
113.8498110185
 20
1464.7496562807
 30
0.0
 11
113.8498110272
 21
1466.2677348624
 31
0.0
  0
ARC
  5
71
330
5E
100
AcDbEntity
  8
$DDT_AUDIT_GENERATED_(60)
  6
Continuous
 62
     7
100
AcDbCircle
 10
113.3512073138
 20
1464.7501550573
 30
0.0
 40
0.4986555860821239
100
AcDbArc
 50
269.8597354389
 51
359.9427643414
  0
ARC
  5
72
330
5E
100
AcDbEntity
  8
$DDT_AUDIT_GENERATED_(60)
  6
Continuous
 62
     7
100
AcDbCircle
 10
69.349083384
 20
1464.7505517022
 30
0.0
 40
0.4990513514182228
100
AcDbArc
 50
180.1026406963
 51
200.4092986405
  0
LINE
  5
73
330
5E
100
AcDbEntity
  8
$DDT_AUDIT_GENERATED_(60)
  6
Continuous
 62
     7
100
AcDbLine
 10
69.3499870037
 20
1466.31110859
 30
0.0
 11
113.3499870037
 21
1466.31110859
 31
0.0
  0
LINE
  5
74
330
5E
100
AcDbEntity
  8
$DDT_AUDIT_GENERATED_(60)
  6
Continuous
 62
     7
100
AcDbLine
 10
69.3499870204
 20
1475.7752571711
 30
0.0
 11
113.3499870937
 21
1475.7752571711
 31
0.0
  0
ELLIPSE
  5
75
330
5E
100
AcDbEntity
  8
$DDT_AUDIT_GENERATED_(60)
  6
Continuous
 62
     7
100
AcDbEllipse
 10
74.3499871467
 20
1465.1840747664
 30
0.0
 11
-3.600000000000037
 21
0.0
 31
0.0
210
0.0
220
0.0
230
1.0
 40
0.0867462251
 41
4.71238898038469
 42
6.283185307179586
  0
LINE
  5
76
330
5E
100
AcDbEntity
  8
$DDT_AUDIT_GENERATED_(60)
  6
Continuous
 62
     7
100
AcDbLine
 10
74.3499871467
 20
1465.4963611767
 30
0.0
 11
108.3499871467
 21
1465.4963611767
 31
0.0
  0
LINE
  5
77
330
5E
100
AcDbEntity
  8
$DDT_AUDIT_GENERATED_(60)
  6
Continuous
 62
     7
100
AcDbLine
 10
70.7499871467
 20
1464.8370898661
 30
0.0
 11
70.7499871467
 21
1465.1840747664
 31
0.0
  0
ELLIPSE
  5
78
330
5E
100
AcDbEntity
  8
$DDT_AUDIT_GENERATED_(60)
  6
Continuous
 62
     7
100
AcDbEllipse
 10
108.3499871467
 20
1465.1840747664
 30
0.0
 11
-3.599999999999959
 21
1.110223024625156E-13
 31
0.0
210
0.0
220
0.0
230
1.0
 40
0.0867462251
 41
3.141592653589793
 42
4.712388980384692
  0
ELLIPSE
  5
79
330
5E
100
AcDbEntity
  8
$DDT_AUDIT_GENERATED_(60)
  6
Continuous
 62
     7
100
AcDbEllipse
 10
74.3499871467
 20
1464.8370898661
 30
0.0
 11
3.599999999999968
 21
0.0
 31
0.0
210
0.0
220
0.0
230
1.0
 40
0.0867462251
 41
3.141592653589793
 42
4.712388980384693
  0
LINE
  5
7A
330
5E
100
AcDbEntity
  8
$DDT_AUDIT_GENERATED_(60)
  6
Continuous
 62
     7
100
AcDbLine
 10
111.9499871467
 20
1465.1840747664
 30
0.0
 11
111.9499871467
 21
1464.8370898661
 31
0.0
  0
LINE
  5
7B
330
5E
100
AcDbEntity
  8
$DDT_AUDIT_GENERATED_(60)
  6
Continuous
 62
     7
100
AcDbLine
 10
108.3499871467
 20
1464.5248034558
 30
0.0
 11
74.3499871467
 21
1464.5248034558
 31
0.0
  0
ELLIPSE
  5
7C
330
5E
100
AcDbEntity
  8
$DDT_AUDIT_GENERATED_(60)
  6
Continuous
 62
     7
100
AcDbEllipse
 10
108.3499871467
 20
1464.8370898661
 30
0.0
 11
3.600000000000002
 21
0.0
 31
0.0
210
0.0
220
0.0
230
1.0
 40
0.0867462251
 41
4.712388980384693
 42
6.283185307179586
  0
ELLIPSE
  5
7D
330
5E
100
AcDbEntity
  8
$DDT_AUDIT_GENERATED_(60)
  6
Continuous
 62
     7
100
AcDbEllipse
 10
74.3499871467
 20
1465.4348281309
 30
0.0
 11
-3.000000000000003
 21
-1.110223024625157E-13
 31
0.0
210
0.0
220
0.0
230
1.0
 40
0.0867462251
 41
0.2562488823492274
 42
0.2874296542415414
  0
ARC
  5
7E
330
5E
100
AcDbEntity
  8
$DDT_AUDIT_GENERATED_(60)
  6
Continuous
 62
     7
100
AcDbCircle
 10
69.3074066523
 20
1522.3293278719
 30
0.0
 40
0.245817402474849
100
AcDbArc
 50
82.4237258557
 51
107.711225799
  0
ARC
  5
7F
330
5E
100
AcDbEntity
  8
$DDT_AUDIT_GENERATED_(60)
  6
Continuous
 62
     7
100
AcDbCircle
 10
69.3314594244
 20
1522.0854749477
 30
0.0
 40
0.4807387809229086
100
AcDbArc
 50
87.7912848129
 51
158.3993420448
  0
LINE
  5
80
330
5E
100
AcDbEntity
  8
$DDT_AUDIT_GENERATED_(60)
  6
Continuous
 62
     7
100
AcDbLine
 10
69.3444870492
 20
1464.2495533766
 30
0.0
 11
113.3554867379
 21
1464.2495533766
 31
0.0
  0
ARC
  5
81
330
5E
100
AcDbEntity
  8
$DDT_AUDIT_GENERATED_(60)
  6
Continuous
 62
     7
100
AcDbCircle
 10
113.368895841
 20
1522.0858934294
 30
0.0
 40
0.480253602278391
100
AcDbArc
 50
22.7992040286
 51
92.256467618
  0
ARC
  5
82
330
5E
100
AcDbEntity
  8
$DDT_AUDIT_GENERATED_(60)
  6
Continuous
 62
     7
100
AcDbCircle
 10
69.3618522426
 20
1464.7741084128
 30
0.0
 40
0.5193265051422957
100
AcDbArc
 50
200.7870473151
 51
269.251697919
  0
ARC
  5
83
330
5E
100
AcDbEntity
  8
$DDT_AUDIT_GENERATED_(60)
  6
Continuous
 62
     7
100
AcDbCircle
 10
113.3408811088
 20
1464.7488673223
 30
0.0
 40
0.4996619538394027
100
AcDbArc
 50
284.388798075
 51
359.6910107146
  0
LINE
  5
85
330
5E
100
AcDbEntity
  8
$DDT_AUDIT_GENERATED_(84)
  6
Continuous
 62
     7
100
AcDbLine
 10
65.0499964294
 20
1376.8322292644
 30
0.0
 11
117.6499964294
 21
1376.8322292644
 31
0.0
  0
ARC
  5
86
330
5E
100
AcDbEntity
  8
$DDT_AUDIT_GENERATED_(84)
  6
Continuous
 62
     7
100
AcDbCircle
 10
117.6499964294
 20
1376.6322292644
 30
0.0
 40
0.1999999999999988
100
AcDbArc
 50
0.0
 51
90.0
  0
ARC
  5
87
330
5E
100
AcDbEntity
  8
$DDT_AUDIT_GENERATED_(84)
  6
Continuous
 62
     7
100
AcDbCircle
 10
65.0499964294
 20
1376.6322292644
 30
0.0
 40
0.199999999999978
100
AcDbArc
 50
90.0
 51
180.0
  0
LINE
  5
88
330
5E
100
AcDbEntity
  8
$DDT_AUDIT_GENERATED_(84)
  6
Continuous
 62
     7
100
AcDbLine
 10
117.8499964294
 20
658.3322292644
 30
0.0
 11
117.8499964294
 21
1376.6322292644
 31
0.0
  0
LINE
  5
89
330
5E
100
AcDbEntity
  8
$DDT_AUDIT_GENERATED_(84)
  6
Continuous
 62
     7
100
AcDbLine
 10
64.8499964294
 20
1376.6322292644
 30
0.0
 11
64.8499964294
 21
658.3322292644
 31
0.0
  0
LINE
  5
8B
330
5E
100
AcDbEntity
  8
$DDT_AUDIT_GENERATED_(8A)
  6
Continuous
 62
     7
100
AcDbLine
 10
65.8499964294
 20
1385.3322292644
 30
0.0
 11
116.8499964294
 21
1385.3322292644
 31
0.0
  0
LINE
  5
8C
330
5E
100
AcDbEntity
  8
$DDT_AUDIT_GENERATED_(8A)
  6
Continuous
 62
     7
100
AcDbLine
 10
117.8499964294
 20
1377.8322292644
 30
0.0
 11
117.8499964294
 21
1384.3322292644
 31
0.0
  0
LINE
  5
8D
330
5E
100
AcDbEntity
  8
$DDT_AUDIT_GENERATED_(8A)
  6
Continuous
 62
     7
100
AcDbLine
 10
64.8499964294
 20
1384.3322292644
 30
0.0
 11
64.8499964294
 21
1377.8322292644
 31
0.0
  0
ARC
  5
8E
330
5E
100
AcDbEntity
  8
$DDT_AUDIT_GENERATED_(8A)
  6
Continuous
 62
     7
100
AcDbCircle
 10
116.8499964294
 20
1384.3322292644
 30
0.0
 40
1.000000000000001
100
AcDbArc
 50
0.0
 51
90.0
  0
ARC
  5
8F
330
5E
100
AcDbEntity
  8
$DDT_AUDIT_GENERATED_(8A)
  6
Continuous
 62
     7
100
AcDbCircle
 10
65.8499964294
 20
1384.3322292644
 30
0.0
 40
1.000000000000001
100
AcDbArc
 50
90.0
 51
180.0
  0
ARC
  5
90
330
5E
100
AcDbEntity
  8
$DDT_AUDIT_GENERATED_(8A)
  6
Continuous
 62
     7
100
AcDbCircle
 10
65.8499964294
 20
1377.8322292644
 30
0.0
 40
1.000000000000001
100
AcDbArc
 50
180.0
 51
270.0
  0
ARC
  5
91
330
5E
100
AcDbEntity
  8
$DDT_AUDIT_GENERATED_(8A)
  6
Continuous
 62
     7
100
AcDbCircle
 10
116.8499964294
 20
1377.8322292644
 30
0.0
 40
1.000000000000001
100
AcDbArc
 50
270.0
 51
0.0
  0
LINE
  5
93
330
5E
100
AcDbEntity
  8
$DDT_AUDIT_GENERATED_(92)
  6
Continuous
 62
     7
100
AcDbLine
 10
8.35
 20
658.3322292644
 30
0.0
 11
174.35
 21
658.3322292644
 31
0.0
  0
LINE
  5
94
330
5E
100
AcDbEntity
  8
$DDT_AUDIT_GENERATED_(92)
  6
Continuous
 62
     7
100
AcDbLine
 10
176.35
 20
657.8322292644
 30
0.0
 11
176.35
 21
643.3322292644
 31
0.0
  0
LINE
  5
95
330
5E
100
AcDbEntity
  8
$DDT_AUDIT_GENERATED_(92)
  6
Continuous
 62
     7
100
AcDbLine
 10
8.35
 20
643.3322292644
 30
0.0
 11
174.35
 21
643.3322292644
 31
0.0
  0
LINE
  5
96
330
5E
100
AcDbEntity
  8
$DDT_AUDIT_GENERATED_(92)
  6
Continuous
 62
     7
100
AcDbLine
 10
6.35
 20
643.3322292644
 30
0.0
 11
6.35
 21
657.8322292644
 31
0.0
  0
LINE
  5
97
330
5E
100
AcDbEntity
  8
$DDT_AUDIT_GENERATED_(92)
  6
Continuous
 62
     7
100
AcDbLine
 10
8.35
 20
643.3322292644
 30
0.0
 11
6.35
 21
643.3322292644
 31
0.0
  0
LINE
  5
98
330
5E
100
AcDbEntity
  8
$DDT_AUDIT_GENERATED_(92)
  6
Continuous
 62
     7
100
AcDbLine
 10
176.35
 20
643.3322292644
 30
0.0
 11
174.35
 21
643.3322292644
 31
0.0
  0
LINE
  5
99
330
5E
100
AcDbEntity
  8
$DDT_AUDIT_GENERATED_(92)
  6
Continuous
 62
     7
100
AcDbLine
 10
175.85
 20
658.3322292644
 30
0.0
 11
174.35
 21
658.3322292644
 31
0.0
  0
ARC
  5
9A
330
5E
100
AcDbEntity
  8
$DDT_AUDIT_GENERATED_(92)
  6
Continuous
 62
     7
100
AcDbCircle
 10
175.85
 20
657.8322292644
 30
0.0
 40
0.5000000000077998
100
AcDbArc
 50
0.0000000009
 51
90.0
  0
ARC
  5
9B
330
5E
100
AcDbEntity
  8
$DDT_AUDIT_GENERATED_(92)
  6
Continuous
 62
     7
100
AcDbCircle
 10
6.85
 20
657.8322292644
 30
0.0
 40
0.4999999999999987
100
AcDbArc
 50
90.0
 51
180.0
  0
LINE
  5
9C
330
5E
100
AcDbEntity
  8
$DDT_AUDIT_GENERATED_(92)
  6
Continuous
 62
     7
100
AcDbLine
 10
8.35
 20
658.3322292644
 30
0.0
 11
6.85
 21
658.3322292644
 31
0.0
  0
ELLIPSE
  5
9E
330
5E
100
AcDbEntity
  8
$DDT_AUDIT_GENERATED_(9D)
  6
Continuous
 62
     7
100
AcDbEllipse
 10
109.9690042318
 20
1465.1557615243
 30
0.0
 11
-0.06199803286327521
 21
0.3951660966241555
 31
0.0
210
0.0
220
0.0
230
1.0
 40
0.8718404636
 41
2.963544389759462
 42
3.141110762556816
  0
ELLIPSE
  5
9F
330
5E
100
AcDbEntity
  8
$DDT_AUDIT_GENERATED_(9D)
  6
Continuous
 62
     7
100
AcDbEllipse
 10
108.3499964294
 20
1464.9345442546
 30
0.0
 11
1.550000000000117
 21
-1.776356839400250E-12
 31
0.0
210
0.0
220
0.0
230
1.0
 40
0.0867462251
 41
5.778112717433693
 42
6.283185307179269
  0
LINE
  5
A0
330
5E
100
AcDbEntity
  8
$DDT_AUDIT_GENERATED_(9D)
  6
Continuous
 62
     7
100
AcDbLine
 10
109.706462426
 20
1464.8694845858
 30
0.0
 11
109.706462426
 21
1464.7698615416
 31
0.0
  0
LINE
  5
A1
330
5E
100
AcDbEntity
  8
$DDT_AUDIT_GENERATED_(9D)
  6
Continuous
 62
     7
100
AcDbLine
 10
110.5999964294
 20
1465.4278526226
 30
0.0
 11
110.5999964294
 21
1465.233413387
 31
0.0
  0
LINE
  5
A2
330
5E
100
AcDbEntity
  8
$DDT_AUDIT_GENERATED_(9D)
  6
Continuous
 62
     7
100
AcDbLine
 10
72.0999964294
 20
1465.233413387
 30
0.0
 11
72.0999964294
 21
1465.427853912
 31
0.0
  0
ELLIPSE
  5
A3
330
5E
100
AcDbEntity
  8
$DDT_AUDIT_GENERATED_(9D)
  6
Continuous
 62
     7
100
AcDbEllipse
 10
74.3499964294
 20
1464.9345442546
 30
0.0
 11
1.550000000000294
 21
1.110223024625157E-13
 31
0.0
210
0.0
220
0.0
230
1.0
 40
0.0867462251
 41
3.141592653589793
 42
3.646665243335683
  0
ELLIPSE
  5
A4
330
5E
100
AcDbEntity
  8
$DDT_AUDIT_GENERATED_(9D)
  6
Continuous
 62
     7
100
AcDbEllipse
 10
72.730988627
 20
1465.1557615243
 30
0.0
 11
0.06199803286327174
 21
0.3951660966240444
 31
0.0
210
0.0
220
0.0
230
1.0
 40
0.8718404636
 41
3.142064760931511
 42
3.319640917417471
  0
LINE
  5
A5
330
5E
100
AcDbEntity
  8
$DDT_AUDIT_GENERATED_(9D)
  6
Continuous
 62
     7
100
AcDbLine
 10
72.9935304328
 20
1464.7423298507
 30
0.0
 11
72.9935304328
 21
1464.7438376741
 31
0.0
  0
ELLIPSE
  5
A6
330
5E
100
AcDbEntity
  8
$DDT_AUDIT_GENERATED_(9D)
  6
Continuous
 62
     7
100
AcDbEllipse
 10
74.3499964294
 20
1464.8349212105
 30
0.0
 11
1.550000000000294
 21
1.110223024625157E-13
 31
0.0
210
0.0
220
0.0
230
1.0
 40
0.0867462251
 41
3.141592653590658
 42
3.646665243335683
  0
LINE
  5
A7
330
5E
100
AcDbEntity
  8
$DDT_AUDIT_GENERATED_(9D)
  6
Continuous
 62
     7
100
AcDbLine
 10
72.7999964294
 20
1464.8349212105
 30
0.0
 11
72.7999964294
 21
1465.1819061108
 31
0.0
  0
ELLIPSE
  5
A8
330
5E
100
AcDbEntity
  8
$DDT_AUDIT_GENERATED_(9D)
  6
Continuous
 62
     7
100
AcDbEllipse
 10
74.3499964294
 20
1465.1819061108
 30
0.0
 11
-1.549999999999999
 21
1.110223024625157E-13
 31
0.0
210
0.0
220
0.0
230
1.0
 40
0.0867462251
 41
4.712388980384696
 42
6.283185307179586
  0
LINE
  5
A9
330
5E
100
AcDbEntity
  8
$DDT_AUDIT_GENERATED_(9D)
  6
Continuous
 62
     7
100
AcDbLine
 10
74.3499964294
 20
1465.3163627596
 30
0.0
 11
108.3499964294
 21
1465.3163627596
 31
0.0
  0
ELLIPSE
  5
AA
330
5E
100
AcDbEntity
  8
$DDT_AUDIT_GENERATED_(9D)
  6
Continuous
 62
     7
100
AcDbEllipse
 10
108.3499964294
 20
1465.1819061108
 30
0.0
 11
-1.549999999999994
 21
0.0
 31
0.0
210
0.0
220
0.0
230
1.0
 40
0.0867462251
 41
3.141592653589793
 42
4.71238898038469
  0
LINE
  5
AB
330
5E
100
AcDbEntity
  8
$DDT_AUDIT_GENERATED_(9D)
  6
Continuous
 62
     7
100
AcDbLine
 10
109.8999964294
 20
1465.1819061108
 30
0.0
 11
109.8999964294
 21
1464.8349212105
 31
0.0
  0
ELLIPSE
  5
AC
330
5E
100
AcDbEntity
  8
$DDT_AUDIT_GENERATED_(9D)
  6
Continuous
 62
     7
100
AcDbEllipse
 10
108.3499964294
 20
1464.8349212105
 30
0.0
 11
1.550000000000069
 21
-1.110223024625157E-13
 31
0.0
210
0.0
220
0.0
230
1.0
 40
0.0867462251
 41
5.778112717433675
 42
6.283185307179586
  0
LINE
  5
AD
330
5E
100
AcDbEntity
  8
$DDT_AUDIT_GENERATED_(9D)
  6
Continuous
 62
     7
100
AcDbLine
 10
72.9935304328
 20
1464.7698615416
 30
0.0
 11
109.706462426
 21
1464.7698615416
 31
0.0
  0
LINE
  5
AE
330
5E
100
AcDbEntity
  8
$DDT_AUDIT_GENERATED_(9D)
  6
Continuous
 62
     7
100
AcDbLine
 10
72.9935304328
 20
1464.8694845858
 30
0.0
 11
72.9935304328
 21
1464.7698615416
 31
0.0
  0
LINE
  5
AF
330
5E
100
AcDbEntity
  8
$DDT_AUDIT_GENERATED_(9D)
  6
Continuous
 62
     7
100
AcDbLine
 10
72.9935304328
 20
1464.8694845858
 30
0.0
 11
109.706462426
 21
1464.8694845858
 31
0.0
  0
SPLINE
  5
B0
330
5E
100
AcDbEntity
  8
$DDT_AUDIT_GENERATED_(9D)
  6
Continuous
 62
     7
100
AcDbSpline
210
0.0
220
0.0
230
1.0
 70
     8
 71
     3
 72
    13
 73
     9
 74
     0
 42
0.0000000053181061
 43
0.0000000001
 40
0.0348279261830719
 40
0.0348279261830719
 40
0.0348279261830719
 40
0.0348279261830719
 40
0.0440764104299599
 40
0.0821637835275337
 40
0.1350765316754669
 40
0.2262726340201283
 40
0.3602151336463514
 40
0.3874018206326562
 40
0.3874018206326562
 40
0.3874018206326562
 40
0.3874018206326562
 10
71.52464610664259
 20
1465.334954644093
 30
0.0
 10
71.52751040999217
 20
1465.327671058916
 30
0.0
 10
71.54372358068493
 20
1465.292357160687
 30
0.0
 10
71.60029537226394
 20
1465.239821125796
 30
0.0
 10
71.67955373139476
 20
1465.19716088583
 30
0.0
 10
71.8077703291013
 20
1465.156909360706
 30
0.0
 10
71.9693752982605
 20
1465.127146337242
 30
0.0
 10
72.0962971325245
 20
1465.109812228233
 30
0.0
 10
72.11837223353855
 20
1465.106936339229
 30
0.0
  0
SPLINE
  5
B1
330
5E
100
AcDbEntity
  8
$DDT_AUDIT_GENERATED_(9D)
  6
Continuous
 62
     7
100
AcDbSpline
210
0.0
220
0.0
230
1.0
 70
     8
 71
     3
 72
    11
 73
     7
 74
     0
 42
0.0000000052992297
 43
0.0000000001
 40
0.6460961192330216
 40
0.6460961192330216
 40
0.6460961192330216
 40
0.6460961192330216
 40
0.7446426567517115
 40
0.8874627228532104
 40
0.9445160373607143
 40
0.9797474525387843
 40
0.9797474525387843
 40
0.9797474525387843
 40
0.9797474525387843
 10
110.6603989075008
 20
1465.118042775302
 30
0.0
 10
110.7348366648381
 20
1465.129166842832
 30
0.0
 10
110.8958549807737
 20
1465.157956657712
 30
0.0
 10
111.0238377430394
 20
1465.193551187004
 30
0.0
 10
111.1396773481438
 20
1465.2666407933
 30
0.0
 10
111.1834230563745
 20
1465.343285507389
 30
0.0
 10
111.1922701000431
 20
1465.37479204986
 30
0.0
  0
ARC
  5
B2
330
5E
100
AcDbEntity
  8
$DDT_AUDIT_GENERATED_(9D)
  6
Continuous
 62
     7
100
AcDbCircle
 10
109.7981612207
 20
1466.4226866674
 30
0.0
 40
1.678321256784745
100
AcDbArc
 50
271.0108462367
 51
277.9746232706
  0
ARC
  5
B3
330
5E
100
AcDbEntity
  8
$DDT_AUDIT_GENERATED_(9D)
  6
Continuous
 62
     7
100
AcDbCircle
 10
109.7190248036
 20
1467.2835058827
 30
0.0
 40
2.541207083089961
100
AcDbArc
 50
269.7167589566
 51
272.4525835099
  0
SPLINE
  5
B4
330
5E
100
AcDbEntity
  8
$DDT_AUDIT_GENERATED_(9D)
  6
Continuous
 62
     7
100
AcDbSpline
210
0.0
220
0.0
230
1.0
 70
     8
 71
     3
 72
    13
 73
     9
 74
     0
 42
0.0000000121228338
 43
0.0000000001
 40
0.0
 40
0.0
 40
0.0
 40
0.0
 40
0.2082710040339627
 40
0.5089959084621638
 40
0.692212011004142
 40
0.8236630071002281
 40
0.9604044218254817
 40
1.0
 40
1.0
 40
1.0
 40
1.0
 10
110.0310022646701
 20
1464.760595427632
 30
0.0
 10
110.0794935474438
 20
1464.768406033528
 30
0.0
 10
110.1827243066723
 20
1464.788071180092
 30
0.0
 10
110.3023104382936
 20
1464.817826136037
 30
0.0
 10
110.453476402883
 20
1464.903275454795
 30
0.0
 10
110.5591545067201
 20
1465.032199450834
 30
0.0
 10
110.597024121719
 20
1465.152095360337
 30
0.0
 10
110.5995091344887
 20
1465.216466077628
 30
0.0
 10
110.5999964293834
 20
1465.233413387029
 30
0.0
  0
ARC
  5
B5
330
5E
100
AcDbEntity
  8
$DDT_AUDIT_GENERATED_(9D)
  6
Continuous
 62
     7
100
AcDbCircle
 10
109.7460657534
 20
1465.2397733414
 30
0.0
 40
0.3539878139262077
100
AcDbArc
 50
281.4526936188
 51
295.7678618188
  0
SPLINE
  5
B6
330
5E
100
AcDbEntity
  8
$DDT_AUDIT_GENERATED_(9D)
  6
Continuous
 62
     7
100
AcDbSpline
210
0.0
220
0.0
230
1.0
 70
     8
 71
     3
 72
    13
 73
     9
 74
     0
 42
0.0000000121573755
 43
0.0000000001
 40
0.0
 40
0.0
 40
0.0
 40
0.0
 40
0.149190566546659
 40
0.2650041607259806
 40
0.3733391075358768
 40
0.4903184981640183
 40
0.6623249439535102
 40
1.0
 40
1.0
 40
1.0
 40
1.0
 10
72.09999642938344
 20
1465.233413387029
 30
0.0
 10
72.1073358707259
 20
1465.169627561507
 30
0.0
 10
72.12014303226404
 20
1465.073175048724
 30
0.0
 10
72.20107531418375
 20
1464.953362652605
 30
0.0
 10
72.28652887702336
 20
1464.880361145616
 30
0.0
 10
72.37777726752788
 20
1464.831498356391
 30
0.0
 10
72.49516086983479
 20
1464.791716630713
 30
0.0
 10
72.59338814270627
 20
1464.772742285017
 30
0.0
 10
72.66899059409681
 20
1464.760595427632
 30
0.0
  0
ARC
  5
B7
330
5E
100
AcDbEntity
  8
$DDT_AUDIT_GENERATED_(9D)
  6
Continuous
 62
     7
100
AcDbCircle
 10
72.959422743
 20
1467.0286285586
 30
0.0
 40
2.28655310809343
100
AcDbArc
 50
262.7027239648
 51
270.8546922201
  0
LINE
  5
B8
330
5E
100
AcDbEntity
  8
$DDT_AUDIT_GENERATED_(9D)
  6
Continuous
 62
     7
100
AcDbLine
 10
72.9935304328
 20
1464.7423298507
 30
0.0
 11
109.706462426
 21
1464.7423298507
 31
0.0
  0
ENDBLK
  5
BA
330
5E
100
AcDbEntity
  8
0
100
AcDbBlockEnd
  0
BLOCK
  5
EA
330
BB
100
AcDbEntity
  8
0
100
AcDbBlockBegin
  2
SE1
 70
     0
 10
0.0
 20
0.0
 30
0.0
  3
SE1
  1

  0
LINE
  5
BD
330
BB
100
AcDbEntity
  8
$DDT_AUDIT_GENERATED_(60)
  6
Continuous
 62
     7
100
AcDbLine
 10
333.2944259004
 20
1401.325974546
 30
0.0
 11
333.2944259004
 21
1385.3322292643
 31
0.0
  0
LINE
  5
BE
330
BB
100
AcDbEntity
  8
$DDT_AUDIT_GENERATED_(60)
  6
Continuous
 62
     7
100
AcDbLine
 10
314.79442596
 20
1385.3322292643
 30
0.0
 11
314.79442596
 21
1401.325974796
 31
0.0
  0
LINE
  5
BF
330
BB
100
AcDbEntity
  8
$DDT_AUDIT_GENERATED_(60)
  6
Continuous
 62
     7
100
AcDbLine
 10
333.2945103536
 20
1401.3259747959
 30
0.0
 11
333.2945103536
 21
1471.3295717674
 31
0.0
  0
LINE
  5
C0
330
BB
100
AcDbEntity
  8
$DDT_AUDIT_GENERATED_(60)
  6
Continuous
 62
     7
100
AcDbLine
 10
314.79442596
 20
1401.325974796
 30
0.0
 11
314.79442596
 21
1471.3295738445
 31
0.0
  0
ARC
  5
C1
330
BB
100
AcDbEntity
  8
$DDT_AUDIT_GENERATED_(60)
  6
Continuous
 62
     7
100
AcDbCircle
 10
366.0424550113
 20
1471.3302345626
 30
0.0
 40
32.74919586056271
100
AcDbArc
 50
89.9965225578
 51
179.6348740217
  0
ARC
  5
C2
330
BB
100
AcDbEntity
  8
$DDT_AUDIT_GENERATED_(60)
  6
Continuous
 62
     7
100
AcDbCircle
 10
366.0430911733
 20
1471.3285568566
 30
0.0
 40
51.25083085068566
100
AcDbArc
 50
89.9984881728
 51
179.9988629913
  0
LINE
  5
C3
330
BB
100
AcDbEntity
  8
$DDT_AUDIT_GENERATED_(60)
  6
Continuous
 62
     7
100
AcDbLine
 10
366.0444432241
 20
1504.0796739237
 30
0.0
 11
581.4615659381
 21
1504.0796739239
 31
0.0
  0
LINE
  5
C4
330
BB
100
AcDbEntity
  8
$DDT_AUDIT_GENERATED_(60)
  6
Continuous
 62
     7
100
AcDbLine
 10
366.0444434964
 20
1522.5795889265
 30
0.0
 11
581.4615659383
 21
1522.5795889265
 31
0.0
  0
ARC
  5
C5
330
BB
100
AcDbEntity
  8
$DDT_AUDIT_GENERATED_(60)
  6
Continuous
 62
     7
100
AcDbCircle
 10
581.4611557281
 20
1471.3298051343
 30
0.0
 40
32.75023784752337
100
AcDbArc
 50
65.138345809
 51
89.999282287
  0
ARC
  5
C6
330
BB
100
AcDbEntity
  8
$DDT_AUDIT_GENERATED_(60)
  6
Continuous
 62
     7
100
AcDbCircle
 10
581.4597954654
 20
1471.3290226044
 30
0.0
 40
32.75149783853234
100
AcDbArc
 50
4.9770991589
 51
65.1369693754
  0
ARC
  5
C7
330
BB
100
AcDbEntity
  8
$DDT_AUDIT_GENERATED_(60)
  6
Continuous
 62
     7
100
AcDbCircle
 10
581.4609943553
 20
1471.3309228701
 30
0.0
 40
51.25025213281606
100
AcDbArc
 50
4.9801531624
 51
89.9993608689
  0
LINE
  5
C8
330
BB
100
AcDbEntity
  8
$DDT_AUDIT_GENERATED_(60)
  6
Continuous
 62
     7
100
AcDbLine
 10
614.0881704953
 20
1474.1704941083
 30
0.0
 11
614.9121826856
 21
1464.7063033848
 31
0.0
  0
LINE
  5
C9
330
BB
100
AcDbEntity
  8
$DDT_AUDIT_GENERATED_(60)
  6
Continuous
 62
     7
100
AcDbLine
 10
614.9119842207
 20
1464.7062838665
 30
0.0
 11
614.0879290349
 21
1474.1704737346
 31
0.0
  0
ARC
  5
CA
330
BB
100
AcDbEntity
  8
$DDT_AUDIT_GENERATED_(60)
  6
Continuous
 62
     7
100
AcDbCircle
 10
615.4098526287
 20
1464.7491918947
 30
0.0
 40
0.4996010929926769
100
AcDbArc
 50
184.9255105878
 51
275.0121363036
  0
LINE
  5
CB
330
BB
100
AcDbEntity
  8
$DDT_AUDIT_GENERATED_(60)
  6
Continuous
 62
     7
100
AcDbLine
 10
615.4535047217
 20
1464.251460099
 30
0.0
 11
632.8877268564
 21
1465.7695355306
 31
0.0
  0
LINE
  5
CC
330
BB
100
AcDbEntity
  8
$DDT_AUDIT_GENERATED_(60)
  6
Continuous
 62
     7
100
AcDbLine
 10
632.5183731487
 20
1475.7752907411
 30
0.0
 11
633.3424616737
 21
1466.31110859
 31
0.0
  0
LINE
  5
CD
330
BB
100
AcDbEntity
  8
$DDT_AUDIT_GENERATED_(60)
  6
Continuous
 62
     7
100
AcDbLine
 10
633.3442134604
 20
1466.2672546829
 30
0.0
 11
633.3422863157
 21
1466.3110931904
 31
0.0
  0
SPLINE
  5
CE
330
BB
100
AcDbEntity
  8
$DDT_AUDIT_GENERATED_(60)
  6
Continuous
 62
     7
100
AcDbSpline
210
0.0
220
0.0
230
1.0
 70
     8
 71
     3
 72
     9
 73
     5
 74
     0
 42
0.0000000129156481
 43
0.0000000001
 40
0.0
 40
0.0
 40
0.0
 40
0.0
 40
0.528268240500607
 40
1.0
 40
1.0
 40
1.0
 40
1.0
 10
632.88772317743
 20
1465.769578012479
 30
0.0
 10
633.0252703382363
 20
1465.781597393624
 30
0.0
 10
633.251810720013
 20
1465.907663531116
 30
0.0
 10
633.3443978773879
 20
1466.146223608858
 30
0.0
 10
633.3442948994763
 20
1466.267254707651
 30
0.0
  0
LINE
  5
CF
330
BB
100
AcDbEntity
  8
$DDT_AUDIT_GENERATED_(60)
  6
Continuous
 62
     7
100
AcDbLine
 10
614.0878362749
 20
1474.170466214
 30
0.0
 11
614.1599074653
 21
1473.344064393
 31
0.0
  0
LINE
  5
D0
330
BB
100
AcDbEntity
  8
$DDT_AUDIT_GENERATED_(84)
  6
Continuous
 62
     7
100
AcDbLine
 10
350.3444259596
 20
1376.8322292644
 30
0.0
 11
297.7444259596
 21
1376.8322292644
 31
0.0
  0
ARC
  5
D1
330
BB
100
AcDbEntity
  8
$DDT_AUDIT_GENERATED_(84)
  6
Continuous
 62
     7
100
AcDbCircle
 10
271.3368992997
 20
1354.832229266
 30
0.0
 40
26.51102513323165
100
AcDbArc
 50
351.3220372315
 51
8.6779634087
  0
ARC
  5
D2
330
BB
100
AcDbEntity
  8
$DDT_AUDIT_GENERATED_(84)
  6
Continuous
 62
     7
100
AcDbCircle
 10
350.3444259596
 20
1376.6322292644
 30
0.0
 40
0.1999999999999988
100
AcDbArc
 50
0.0
 51
90.0
  0
ARC
  5
D3
330
BB
100
AcDbEntity
  8
$DDT_AUDIT_GENERATED_(84)
  6
Continuous
 62
     7
100
AcDbCircle
 10
297.7444259596
 20
1376.6322292644
 30
0.0
 40
0.199999999999978
100
AcDbArc
 50
90.0
 51
180.0
  0
LINE
  5
D4
330
BB
100
AcDbEntity
  8
$DDT_AUDIT_GENERATED_(84)
  6
Continuous
 62
     7
100
AcDbLine
 10
350.5444259596
 20
658.3322292644
 30
0.0
 11
350.5444259596
 21
1376.6322292644
 31
0.0
  0
LINE
  5
D5
330
BB
100
AcDbEntity
  8
$DDT_AUDIT_GENERATED_(84)
  6
Continuous
 62
     7
100
AcDbLine
 10
297.5444259596
 20
1350.883132043
 30
0.0
 11
297.5444259596
 21
658.3322292644
 31
0.0
  0
LINE
  5
D6
330
BB
100
AcDbEntity
  8
$DDT_AUDIT_GENERATED_(84)
  6
Continuous
 62
     7
100
AcDbLine
 10
297.5444259596
 20
1376.6322292644
 30
0.0
 11
297.5444259596
 21
1358.8322292644
 31
0.0
  0
LINE
  5
D7
330
BB
100
AcDbEntity
  8
$DDT_AUDIT_GENERATED_(8A)
  6
Continuous
 62
     7
100
AcDbLine
 10
349.5444259596
 20
1385.3322292644
 30
0.0
 11
298.5444259596
 21
1385.3322292644
 31
0.0
  0
LINE
  5
D8
330
BB
100
AcDbEntity
  8
$DDT_AUDIT_GENERATED_(8A)
  6
Continuous
 62
     7
100
AcDbLine
 10
350.5444259596
 20
1377.8322292644
 30
0.0
 11
350.5444259596
 21
1384.3322292644
 31
0.0
  0
LINE
  5
D9
330
BB
100
AcDbEntity
  8
$DDT_AUDIT_GENERATED_(8A)
  6
Continuous
 62
     7
100
AcDbLine
 10
297.5444259596
 20
1384.3322292644
 30
0.0
 11
297.5444259596
 21
1377.8322292644
 31
0.0
  0
ARC
  5
DA
330
BB
100
AcDbEntity
  8
$DDT_AUDIT_GENERATED_(8A)
  6
Continuous
 62
     7
100
AcDbCircle
 10
349.5444259596
 20
1384.3322292644
 30
0.0
 40
1.000000000000001
100
AcDbArc
 50
0.0
 51
90.0
  0
ARC
  5
DB
330
BB
100
AcDbEntity
  8
$DDT_AUDIT_GENERATED_(8A)
  6
Continuous
 62
     7
100
AcDbCircle
 10
298.5444259596
 20
1384.3322292644
 30
0.0
 40
1.000000000000001
100
AcDbArc
 50
90.0
 51
180.0
  0
ARC
  5
DC
330
BB
100
AcDbEntity
  8
$DDT_AUDIT_GENERATED_(8A)
  6
Continuous
 62
     7
100
AcDbCircle
 10
298.5444259596
 20
1377.8322292644
 30
0.0
 40
1.000000000000001
100
AcDbArc
 50
180.0
 51
270.0
  0
ARC
  5
DD
330
BB
100
AcDbEntity
  8
$DDT_AUDIT_GENERATED_(8A)
  6
Continuous
 62
     7
100
AcDbCircle
 10
349.5444259596
 20
1377.8322292644
 30
0.0
 40
1.000000000000001
100
AcDbArc
 50
270.0
 51
0.0
  0
LINE
  5
DF
330
BB
100
AcDbEntity
  8
$DDT_AUDIT_GENERATED_(DE)
  6
Continuous
 62
     7
100
AcDbLine
 10
297.6444259596
 20
1351.5096725701
 30
0.0
 11
297.6444259596
 21
1358.1150830194
 31
0.0
  0
LINE
  5
E0
330
BB
100
AcDbEntity
  8
$DDT_AUDIT_GENERATED_(92)
  6
Continuous
 62
     7
100
AcDbLine
 10
241.0444259596
 20
658.3322292644
 30
0.0
 11
407.0444259596
 21
658.3322292644
 31
0.0
  0
LINE
  5
E1
330
BB
100
AcDbEntity
  8
$DDT_AUDIT_GENERATED_(92)
  6
Continuous
 62
     7
100
AcDbLine
 10
409.0444259596
 20
657.8322292644
 30
0.0
 11
409.0444259596
 21
643.3322292644
 31
0.0
  0
LINE
  5
E2
330
BB
100
AcDbEntity
  8
$DDT_AUDIT_GENERATED_(92)
  6
Continuous
 62
     7
100
AcDbLine
 10
241.0444259596
 20
643.3322292644
 30
0.0
 11
407.0444259596
 21
643.3322292644
 31
0.0
  0
LINE
  5
E3
330
BB
100
AcDbEntity
  8
$DDT_AUDIT_GENERATED_(92)
  6
Continuous
 62
     7
100
AcDbLine
 10
239.0444259596
 20
643.3322292644
 30
0.0
 11
239.0444259596
 21
657.8322292644
 31
0.0
  0
LINE
  5
E4
330
BB
100
AcDbEntity
  8
$DDT_AUDIT_GENERATED_(92)
  6
Continuous
 62
     7
100
AcDbLine
 10
241.0444259596
 20
643.3322292644
 30
0.0
 11
239.0444259596
 21
643.3322292644
 31
0.0
  0
LINE
  5
E5
330
BB
100
AcDbEntity
  8
$DDT_AUDIT_GENERATED_(92)
  6
Continuous
 62
     7
100
AcDbLine
 10
409.0444259596
 20
643.3322292644
 30
0.0
 11
407.0444259596
 21
643.3322292644
 31
0.0
  0
LINE
  5
E6
330
BB
100
AcDbEntity
  8
$DDT_AUDIT_GENERATED_(92)
  6
Continuous
 62
     7
100
AcDbLine
 10
408.5444259596
 20
658.3322292644
 30
0.0
 11
407.0444259596
 21
658.3322292644
 31
0.0
  0
ARC
  5
E7
330
BB
100
AcDbEntity
  8
$DDT_AUDIT_GENERATED_(92)
  6
Continuous
 62
     7
100
AcDbCircle
 10
408.5444259596
 20
657.8322292644
 30
0.0
 40
0.5000000000077998
100
AcDbArc
 50
0.0000000009
 51
90.0
  0
ARC
  5
E8
330
BB
100
AcDbEntity
  8
$DDT_AUDIT_GENERATED_(92)
  6
Continuous
 62
     7
100
AcDbCircle
 10
239.5444259596
 20
657.8322292644
 30
0.0
 40
0.4999999999999987
100
AcDbArc
 50
90.0
 51
180.0
  0
LINE
  5
E9
330
BB
100
AcDbEntity
  8
$DDT_AUDIT_GENERATED_(92)
  6
Continuous
 62
     7
100
AcDbLine
 10
241.0444259596
 20
658.3322292644
 30
0.0
 11
239.5444259596
 21
658.3322292644
 31
0.0
  0
ENDBLK
  5
EB
330
BB
100
AcDbEntity
  8
0
100
AcDbBlockEnd
  0
BLOCK
  5
116
330
EC
100
AcDbEntity
  8
0
100
AcDbBlockBegin
  2
SE2
 70
     0
 10
0.0
 20
0.0
 30
0.0
  3
SE2
  1

  0
SPLINE
  5
EE
330
EC
100
AcDbEntity
  8
$DDT_AUDIT_GENERATED_(60)
  6
Continuous
 62
     7
100
AcDbSpline
210
0.0
220
0.0
230
1.0
 70
     8
 71
     3
 72
    28
 73
    24
 74
     0
 42
0.0000000001948313
 43
0.0000000001
 40
0.011447334389797
 40
0.011447334389797
 40
0.011447334389797
 40
0.011447334389797
 40
0.024212846084267
 40
0.0485224095096944
 40
0.0867916931899922
 40
0.1250312107065986
 40
0.16466659438125
 40
0.2446039258714775
 40
0.2500309112010483
 40
0.3327362292539437
 40
0.4390935849941558
 40
0.5000120662502764
 40
0.538486919216139
 40
0.6184112877152883
 40
0.625047103639945
 40
0.6516078294961191
 40
0.7237450555594627
 40
0.8133726081712029
 40
0.9029693482730792
 40
0.9272009663082026
 40
0.9515134279418214
 40
0.9757787341066472
 40
1.0
 40
1.0
 40
1.0
 40
1.0
 10
68.85014512696749
 20
424.3886851832961
 30
0.0
 10
68.85016444354378
 20
424.3833186310195
 30
0.0
 10
68.85016492504504
 20
424.3617111310436
 30
0.0
 10
68.85016543566503
 20
424.2426324734898
 30
0.0
 10
68.85016514332085
 20
423.9602220759966
 30
0.0
 10
68.85016394847534
 20
423.4487975660756
 30
0.0
 10
68.85016303433508
 20
422.5037069986494
 30
0.0
 10
68.85016338990052
 20
421.4514268954148
 30
0.0
 10
68.8501634740356
 20
419.7611180010822
 30
0.0
 10
68.85016780865548
 20
417.4741376926157
 30
0.0
 10
68.85016447513415
 20
413.6698694884594
 30
0.0
 10
68.85016282237821
 20
409.9903370256147
 30
0.0
 10
68.85016233647572
 20
406.5218853659005
 30
0.0
 10
68.8501672760988
 20
403.8933049956192
 30
0.0
 10
68.85016739116269
 20
401.4038201460559
 30
0.0
 10
68.85016595544602
 20
399.0451225759119
 30
0.0
 10
68.85016086422182
 20
394.623556934367
 30
0.0
 10
68.85016360324013
 20
388.3634531225265
 30
0.0
 10
68.85016247844445
 20
383.0738254460351
 30
0.0
 10
68.85016276989809
 20
379.4370882269353
 30
0.0
 10
68.85016286293278
 20
377.5117119923068
 30
0.0
 10
68.85016279858652
 20
375.5809297693037
 30
0.0
 10
68.85016292412888
 20
374.2931001694214
 30
0.0
 10
68.85007499506109
 20
373.6497701698024
 30
0.0
  0
ARC
  5
EF
330
EC
100
AcDbEntity
  8
$DDT_AUDIT_GENERATED_(60)
  6
Continuous
 62
     7
100
AcDbCircle
 10
69.348656417
 20
424.4033191202
 30
0.0
 40
0.4986357494043243
100
AcDbArc
 50
89.8485516472
 51
180.4057576304
  0
LINE
  5
F0
330
EC
100
AcDbEntity
  8
$DDT_AUDIT_GENERATED_(60)
  6
Continuous
 62
     7
100
AcDbLine
 10
68.8501629867
 20
373.6497702362
 30
0.0
 11
68.8501629867
 21
158.2326474736
 31
0.0
  0
LINE
  5
F1
330
EC
100
AcDbEntity
  8
$DDT_AUDIT_GENERATED_(60)
  6
Continuous
 62
     7
100
AcDbLine
 10
113.3499867819
 20
424.9037209269
 30
0.0
 11
69.3499744457
 21
424.9037209269
 31
0.0
  0
ARC
  5
F2
330
EC
100
AcDbEntity
  8
$DDT_AUDIT_GENERATED_(60)
  6
Continuous
 62
     7
100
AcDbCircle
 10
39705.1956168593
 20
132.6848421797
 30
0.0
 40
39636.35378937497
100
AcDbArc
 50
179.9630697231
 51
180.0361532589
  0
LINE
  5
F3
330
EC
100
AcDbEntity
  8
$DDT_AUDIT_GENERATED_(60)
  6
Continuous
 62
     7
100
AcDbLine
 10
113.3499867827
 20
424.9016721425
 30
0.0
 11
113.3499867827
 21
424.8979287902
 31
0.0
  0
LINE
  5
F4
330
EC
100
AcDbEntity
  8
$DDT_AUDIT_GENERATED_(60)
  6
Continuous
 62
     7
100
AcDbLine
 10
113.3499866916
 20
373.6497702686
 30
0.0
 11
69.3499873097
 21
373.6497702395
 31
0.0
  0
LINE
  5
F5
330
EC
100
AcDbEntity
  8
$DDT_AUDIT_GENERATED_(60)
  6
Continuous
 62
     7
100
AcDbLine
 10
113.8498990122
 20
373.6497702666
 30
0.0
 11
113.8500289728
 21
424.3998022242
 31
0.0
  0
LINE
  5
F6
330
EC
100
AcDbEntity
  8
$DDT_AUDIT_GENERATED_(60)
  6
Continuous
 62
     7
100
AcDbLine
 10
113.3499867892
 20
158.2326471066
 30
0.0
 11
69.3499871624
 21
158.2326470775
 31
0.0
  0
SPLINE
  5
F7
330
EC
100
AcDbEntity
  8
$DDT_AUDIT_GENERATED_(60)
  6
Continuous
 62
     7
100
AcDbSpline
210
0.0
220
0.0
230
1.0
 70
     8
 71
     3
 72
     8
 73
     4
 74
     0
 42
0.0000000126696743
 43
0.0000000001
 40
0.7715057508525457
 40
0.7715057508525457
 40
0.7715057508525457
 40
0.7715057508525457
 40
1.0
 40
1.0
 40
1.0
 40
1.0
 10
113.8178069146532
 20
424.5752636355001
 30
0.0
 10
113.8388507601367
 20
424.5192766475877
 30
0.0
 10
113.8500776558489
 20
424.4596138981797
 30
0.0
 10
113.8500292144107
 20
424.3997876570876
 30
0.0
  0
LINE
  5
F8
330
EC
100
AcDbEntity
  8
$DDT_AUDIT_GENERATED_(60)
  6
Continuous
 62
     7
100
AcDbLine
 10
113.8498110201
 20
158.2326475516
 30
0.0
 11
113.8498110201
 21
373.6497702657
 31
0.0
  0
LINE
  5
F9
330
EC
100
AcDbEntity
  8
$DDT_AUDIT_GENERATED_(60)
  6
Continuous
 62
     7
100
AcDbLine
 10
113.8500291145
 20
107.6745636586
 30
0.0
 11
113.8498990122
 21
158.2326475504
 31
0.0
  0
LINE
  5
FA
330
EC
100
AcDbEntity
  8
$DDT_AUDIT_GENERATED_(60)
  6
Continuous
 62
     7
100
AcDbLine
 10
68.8494523986
 20
107.6743692346
 30
0.0
 11
68.8498867791
 21
106.8498671903
 31
0.0
  0
LINE
  5
FB
330
EC
100
AcDbEntity
  8
$DDT_AUDIT_GENERATED_(60)
  6
Continuous
 62
     7
100
AcDbLine
 10
113.8500712688
 20
106.8498671724
 30
0.0
 11
113.8500712678
 21
107.6745643737
 31
0.0
  0
ARC
  5
FC
330
EC
100
AcDbEntity
  8
$DDT_AUDIT_GENERATED_(60)
  6
Continuous
 62
     7
100
AcDbCircle
 10
69.3490210597
 20
106.850747003
 30
0.0
 40
0.4989969519039673
100
AcDbArc
 50
180.1010018879
 51
199.9247030479
  0
ARC
  5
FD
330
EC
100
AcDbEntity
  8
$DDT_AUDIT_GENERATED_(60)
  6
Continuous
 62
     7
100
AcDbCircle
 10
113.3511093306
 20
106.8506708577
 30
0.0
 40
0.4988325528908369
100
AcDbArc
 50
339.6336910067
 51
359.907725154
  0
LINE
  5
FE
330
EC
100
AcDbEntity
  8
$DDT_AUDIT_GENERATED_(60)
  6
Continuous
 62
     7
100
AcDbLine
 10
113.3499870037
 20
106.3519271422
 30
0.0
 11
113.3499870037
 21
106.35
 31
0.0
  0
LINE
  5
FF
330
EC
100
AcDbEntity
  8
$DDT_AUDIT_GENERATED_(60)
  6
Continuous
 62
     7
100
AcDbLine
 10
69.3499870037
 20
106.35
 30
0.0
 11
69.3499870037
 21
106.3519271447
 31
0.0
  0
ARC
  5
100
330
EC
100
AcDbEntity
  8
$DDT_AUDIT_GENERATED_(60)
  6
Continuous
 62
     7
100
AcDbCircle
 10
113.3562250664
 20
424.4030395821
 30
0.0
 40
0.4931558254412574
100
AcDbArc
 50
20.3136815992
 51
90.7247693715
  0
LINE
  5
101
330
EC
100
AcDbEntity
  8
$DDT_AUDIT_GENERATED_(60)
  6
Continuous
 62
     7
100
AcDbLine
 10
69.4179970117
 20
106.35
 30
0.0
 11
113.3554872625
 21
106.35
 31
0.0
  0
LINE
  5
102
330
EC
100
AcDbEntity
  8
$DDT_AUDIT_GENERATED_(60)
  6
Continuous
 62
     7
100
AcDbLine
 10
69.3444870309
 20
106.35
 30
0.0
 11
69.4179970117
 21
106.35
 31
0.0
  0
ARC
  5
103
330
EC
100
AcDbEntity
  8
$DDT_AUDIT_GENERATED_(60)
  6
Continuous
 62
     7
100
AcDbCircle
 10
69.3625114683
 20
106.875834831
 30
0.0
 40
0.5204974406213111
100
AcDbArc
 50
200.8491416849
 51
268.6211877784
  0
ARC
  5
104
330
EC
100
AcDbEntity
  8
$DDT_AUDIT_GENERATED_(60)
  6
Continuous
 62
     7
100
AcDbCircle
 10
113.338255167
 20
106.8739868526
 30
0.0
 40
0.5190795502137663
100
AcDbArc
 50
270.746319654
 51
339.256952405
  0
LINE
  5
105
330
EC
100
AcDbEntity
  8
$DDT_AUDIT_GENERATED_(DE)
  6
Continuous
 62
     7
100
AcDbLine
 10
94.7999964294
 20
442.0497875009
 30
0.0
 11
93.6499964294
 21
442.0497875009
 31
0.0
  0
LINE
  5
106
330
EC
100
AcDbEntity
  8
$DDT_AUDIT_GENERATED_(DE)
  6
Continuous
 62
     7
100
AcDbLine
 10
89.0499964294
 20
442.0497875009
 30
0.0
 11
87.8999964294
 21
442.0497875009
 31
0.0
  0
ARC
  5
107
330
EC
100
AcDbEntity
  8
$DDT_AUDIT_GENERATED_(DE)
  6
Continuous
 62
     7
100
AcDbCircle
 10
94.7999964294
 20
441.7497875009
 30
0.0
 40
0.2999999999999999
100
AcDbArc
 50
27.4132449779
 51
90.0
  0
ARC
  5
108
330
EC
100
AcDbEntity
  8
$DDT_AUDIT_GENERATED_(DE)
  6
Continuous
 62
     7
100
AcDbCircle
 10
87.8999964294
 20
441.7497875009
 30
0.0
 40
0.3000000000000017
100
AcDbArc
 50
90.0
 51
152.5867550221
  0
LINE
  5
109
330
EC
100
AcDbEntity
  8
$DDT_AUDIT_GENERATED_(92)
  6
Continuous
 62
     7
100
AcDbLine
 10
176.35
 20
332.6497875009
 30
0.0
 11
176.35
 21
498.6497875009
 31
0.0
  0
LINE
  5
10A
330
EC
100
AcDbEntity
  8
$DDT_AUDIT_GENERATED_(92)
  6
Continuous
 62
     7
100
AcDbLine
 10
8.35
 20
330.6497875008
 30
0.0
 11
68.8501629867
 21
330.6497875008
 31
0.0
  0
LINE
  5
10B
330
EC
100
AcDbEntity
  8
$DDT_AUDIT_GENERATED_(92)
  6
Continuous
 62
     7
100
AcDbLine
 10
113.8498110201
 20
330.6497875008
 30
0.0
 11
174.35
 21
330.6497875009
 31
0.0
  0
LINE
  5
10C
330
EC
100
AcDbEntity
  8
$DDT_AUDIT_GENERATED_(92)
  6
Continuous
 62
     7
100
AcDbLine
 10
6.35
 20
498.6497875009
 30
0.0
 11
6.35
 21
332.6497875009
 31
0.0
  0
LINE
  5
10D
330
EC
100
AcDbEntity
  8
$DDT_AUDIT_GENERATED_(92)
  6
Continuous
 62
     7
100
AcDbLine
 10
174.35
 20
500.6497875009
 30
0.0
 11
8.35
 21
500.6497875009
 31
0.0
  0
ARC
  5
10E
330
EC
100
AcDbEntity
  8
$DDT_AUDIT_GENERATED_(92)
  6
Continuous
 62
     7
100
AcDbCircle
 10
174.35
 20
332.6497875009
 30
0.0
 40
2.000000000007801
100
AcDbArc
 50
270.0
 51
0.0
  0
ARC
  5
10F
330
EC
100
AcDbEntity
  8
$DDT_AUDIT_GENERATED_(92)
  6
Continuous
 62
     7
100
AcDbCircle
 10
174.35
 20
498.6497875009
 30
0.0
 40
2.000000000007801
100
AcDbArc
 50
0.0
 51
90.0
  0
ARC
  5
110
330
EC
100
AcDbEntity
  8
$DDT_AUDIT_GENERATED_(92)
  6
Continuous
 62
     7
100
AcDbCircle
 10
8.35
 20
332.6497875009
 30
0.0
 40
2.000000000007801
100
AcDbArc
 50
180.0
 51
270.0
  0
ARC
  5
111
330
EC
100
AcDbEntity
  8
$DDT_AUDIT_GENERATED_(92)
  6
Continuous
 62
     7
100
AcDbCircle
 10
8.35
 20
498.6497875009
 30
0.0
 40
2.000000000007801
100
AcDbArc
 50
90.0
 51
180.0
  0
ARC
  5
112
330
EC
100
AcDbEntity
  8
$DDT_AUDIT_GENERATED_(92)
  6
Continuous
 62
     7
100
AcDbCircle
 10
91.35
 20
415.6497875009
 30
0.0
 40
26.6
100
AcDbArc
 50
0.0
 51
82.2006388507
  0
ARC
  5
113
330
EC
100
AcDbEntity
  8
$DDT_AUDIT_GENERATED_(92)
  6
Continuous
 62
     7
100
AcDbCircle
 10
91.35
 20
415.6497875009
 30
0.0
 40
26.6
100
AcDbArc
 50
82.9695309618
 51
97.0304690382
  0
ARC
  5
114
330
EC
100
AcDbEntity
  8
$DDT_AUDIT_GENERATED_(92)
  6
Continuous
 62
     7
100
AcDbCircle
 10
91.35
 20
415.6497875009
 30
0.0
 40
26.6
100
AcDbArc
 50
97.7993809963
 51
212.1382163883
  0
ARC
  5
115
330
EC
100
AcDbEntity
  8
$DDT_AUDIT_GENERATED_(92)
  6
Continuous
 62
     7
100
AcDbCircle
 10
91.35
 20
415.6497875009
 30
0.0
 40
26.6
100
AcDbArc
 50
327.7699750011
 51
0.0
  0
ENDBLK
  5
117
330
EC
100
AcDbEntity
  8
0
100
AcDbBlockEnd
  0
ENDSEC
  0
SECTION
  2
ENTITIES
  0
INSERT
  5
5F
330
1F
100
AcDbEntity
  8
Default
100
AcDbBlockReference
  2
SE
 10
0.0
 20
0.0
 30
0.0
  0
INSERT
  5
BC
330
1F
100
AcDbEntity
  8
Default
100
AcDbBlockReference
  2
SE1
 10
0.0
 20
0.0
 30
0.0
  0
INSERT
  5
ED
330
1F
100
AcDbEntity
  8
Default
100
AcDbBlockReference
  2
SE2
 10
0.0
 20
0.0
 30
0.0
  0
TEXT
  5
119
330
1F
100
AcDbEntity
  8
Default
  6
Continuous
 62
     7
100
AcDbText
 10
5.9362635081
 20
53.4225120485
 30
0.0
 40
10.0
  1
Grohe AG^J
  7
SEACAD_seiso_ttf
 11
5.9362635081
 21
63.4225120485
 31
0.0
100
AcDbText
 73
     3
  0
TEXT
  5
11A
330
1F
100
AcDbEntity
  8
Default
  6
Continuous
 62
     7
100
AcDbText
 10
5.9362635081
 20
37.0588756849
 30
0.0
 40
10.0
  1
 
  7
SEACAD_seiso_ttf
 11
5.9362635081
 21
47.0588756849
 31
0.0
100
AcDbText
 73
     3
  0
TEXT
  5
11B
330
1F
100
AcDbEntity
  8
Default
  6
Continuous
 62
     7
100
AcDbText
 10
5.9362635081
 20
20.6952393213
 30
0.0
 40
10.0
  1
ecn: 
  7
SEACAD_seiso_ttf
 11
5.9362635081
 21
30.6952393213
 31
0.0
100
AcDbText
 73
     3
  0
TEXT
  5
11C
330
1F
100
AcDbEntity
  8
Default
  6
Continuous
 62
     7
100
AcDbText
 10
5.9362635081
 20
4.3316029576
 30
0.0
 40
10.0
  1
unit: mm
  7
SEACAD_seiso_ttf
 11
5.9362635081
 21
14.3316029576
 31
0.0
100
AcDbText
 73
     3
  0
LINE
  5
11D
330
1F
100
AcDbEntity
  8
Default
  6
Continuous
 62
     7
100
AcDbLine
 10
0.0
 20
0.0
 30
0.0
 11
100.0
 21
0.0
 31
0.0
  0
LINE
  5
11E
330
1F
100
AcDbEntity
  8
Default
  6
Continuous
 62
     7
100
AcDbLine
 10
0.0
 20
0.0
 30
0.0
 11
0.0
 21
100.0
 31
0.0
  0
TEXT
  5
11F
330
1F
100
AcDbEntity
  8
Default
  6
Continuous
 62
     7
100
AcDbText
 10
24.3923665681
 20
-18.2375342018
 30
0.0
 40
10.0
  1
100 mm
  7
SEACAD_seiso_ttf
 11
24.3923665681
 21
-8.2375342018
 31
0.0
100
AcDbText
 73
     3
  0
TEXT
  5
120
330
1F
100
AcDbEntity
  8
Default
  6
Continuous
 62
     7
100
AcDbText
 10
-7.6150308803
 20
24.6231930421
 30
0.0
 40
10.0
  1
100 mm
 50
90.0
  7
SEACAD_seiso_ttf
 11
-17.6150308803
 21
24.6231930421
 31
0.0
100
AcDbText
 73
     3
  0
TEXT
  5
121
330
1F
100
AcDbEntity
  8
Default
  6
Continuous
 62
     7
100
AcDbText
 10
28.4878128572
 20
20.0907663715
 30
0.0
 40
10.0
  1
211341
  7
SEACAD_seiso_ttf
 11
28.4878128572
 21
30.0907663715
 31
0.0
100
AcDbText
 73
     3
  0
TEXT
  5
122
330
1F
100
AcDbEntity
  8
Default
  6
Continuous
 62
     7
100
AcDbText
 10
5.9012241913
 20
36.7242780188
 30
0.0
 40
10.0
  1
13218000
  7
SEACAD_seiso_ttf
 11
5.9012241913
 21
46.7242780188
 31
0.0
100
AcDbText
 73
     3
  0
ENDSEC
  0
SECTION
  2
OBJECTS
  0
DICTIONARY
  5
C
330
0
100
AcDbDictionary
281
     1
  3
ACAD_GROUP
350
D
  3
ACAD_LAYOUT
350
1A
  3
ACAD_MLEADERSTYLE
350
126
  3
ACAD_MLINESTYLE
350
17
  3
ACAD_PLOTSETTINGS
350
19
  3
ACAD_PLOTSTYLENAME
350
E
  3
ACAD_SCALELIST
350
3B
  3
ACAD_TABLESTYLE
350
125
  3
ACAD_VISUALSTYLE
350
2A
  3
AcDbVariableDictionary
350
123
  0
DICTIONARY
  5
D
102
{ACAD_REACTORS
330
C
102
}
330
C
100
AcDbDictionary
281
     1
  0
DICTIONARY
  5
1A
102
{ACAD_REACTORS
330
C
102
}
330
C
100
AcDbDictionary
281
     1
  3
Layout1
350
1E
  3
Model
350
22
  0
DICTIONARY
  5
126
102
{ACAD_REACTORS
330
C
102
}
330
C
100
AcDbDictionary
281
     1
  0
DICTIONARY
  5
17
102
{ACAD_REACTORS
330
C
102
}
330
C
100
AcDbDictionary
281
     1
  3
Standard
350
18
  0
DICTIONARY
  5
19
102
{ACAD_REACTORS
330
C
102
}
330
C
100
AcDbDictionary
281
     1
  0
ACDBDICTIONARYWDFLT
  5
E
102
{ACAD_REACTORS
330
C
102
}
330
C
100
AcDbDictionary
281
     1
  3
Normal
350
F
100
AcDbDictionaryWithDefault
340
F
  0
DICTIONARY
  5
3B
102
{ACAD_REACTORS
330
C
102
}
330
C
100
AcDbDictionary
281
     1
  3
A0
350
3C
  3
A1
350
3D
  3
A2
350
3E
  3
A3
350
3F
  3
A4
350
40
  3
A5
350
41
  3
A6
350
42
  3
A7
350
43
  3
A8
350
44
  3
A9
350
45
  3
B0
350
46
  3
B1
350
47
  3
B2
350
48
  3
B3
350
49
  3
B4
350
4A
  3
B5
350
4B
  3
B6
350
4C
  3
B7
350
4D
  3
B8
350
4E
  3
B9
350
4F
  3
C0
350
50
  3
C1
350
51
  3
C2
350
52
  3
C3
350
53
  3
C4
350
54
  3
C5
350
55
  3
C6
350
56
  3
C7
350
57
  3
C8
350
58
  3
C9
350
59
  3
D0
350
5A
  3
D1
350
5B
  3
D2
350
5C
  0
DICTIONARY
  5
125
102
{ACAD_REACTORS
330
C
102
}
330
C
100
AcDbDictionary
281
     1
  0
DICTIONARY
  5
2A
102
{ACAD_REACTORS
330
C
102
}
330
C
100
AcDbDictionary
281
     1
  3
2dWireframe
350
2F
  3
3D Hidden
350
31
  3
3dWireframe
350
30
  3
Basic
350
32
  3
Brighten
350
36
  3
ColorChange
350
3A
  3
Conceptual
350
34
  3
Dim
350
35
  3
Facepattern
350
39
  3
Flat
350
2B
  3
FlatWithEdges
350
2C
  3
Gouraud
350
2D
  3
GouraudWithEdges
350
2E
  3
Linepattern
350
38
  3
Realistic
350
33
  3
Thicken
350
37
  0
DICTIONARY
  5
123
102
{ACAD_REACTORS
330
C
102
}
330
C
100
AcDbDictionary
281
     1
  3
CANNOSCALE
350
124
  3
PSOLHEIGHT
350
128
  3
PSOLWIDTH
350
127
  0
LAYOUT
  5
1E
102
{ACAD_REACTORS
330
1A
102
}
330
1A
100
AcDbPlotSettings
  1

  2
none_device
  4

  6

 40
0.0
 41
0.0
 42
0.0
 43
0.0
 44
0.0
 45
0.0
 46
0.0
 47
0.0
 48
0.0
 49
0.0
140
0.0
141
0.0
142
1.0
143
1.0
 70
   688
 72
     0
 73
     0
 74
     5
  7

 75
    16
147
1.0
148
0.0
149
0.0
100
AcDbLayout
  1
Layout1
 70
     1
 71
     1
 10
0.0
 20
0.0
 11
1682.0
 21
2378.0
 12
0.0
 22
0.0
 32
0.0
 14
0.0
 24
0.0
 34
0.0
 15
1682.0
 25
2378.0
 35
0.0
146
0.0
 13
0.0
 23
0.0
 33
0.0
 16
1.0
 26
0.0
 36
0.0
 17
0.0
 27
1.0
 37
0.0
 76
     0
330
1B
  0
LAYOUT
  5
22
102
{ACAD_REACTORS
330
1A
102
}
330
1A
100
AcDbPlotSettings
  1

  2
none_device
  4

  6

 40
0.0
 41
0.0
 42
0.0
 43
0.0
 44
0.0
 45
0.0
 46
0.0
 47
0.0
 48
0.0
 49
0.0
140
0.0
141
0.0
142
1.0
143
1.0
 70
  1712
 72
     0
 73
     0
 74
     0
  7

 75
     0
147
1.0
148
0.0
149
0.0
100
AcDbLayout
  1
Model
 70
     1
 71
     0
 10
0.0
 20
0.0
 11
1682.0
 21
2378.0
 12
0.0
 22
0.0
 32
0.0
 14
0.0
 24
0.0
 34
0.0
 15
1682.0
 25
2378.0
 35
0.0
146
0.0
 13
0.0
 23
0.0
 33
0.0
 16
1.0
 26
0.0
 36
0.0
 17
0.0
 27
1.0
 37
0.0
 76
     0
330
1F
331
29
  0
MLINESTYLE
  5
18
102
{ACAD_REACTORS
330
17
102
}
330
17
100
AcDbMlineStyle
  2
Standard
 70
     0
  3

 62
   256
 51
90.0
 52
90.0
 71
     2
 49
0.5
 62
   256
  6
BYLAYER
 49
-0.5
 62
   256
  6
BYLAYER
  0
ACDBPLACEHOLDER
  5
F
102
{ACAD_REACTORS
330
E
102
}
330
E
  0
SCALE
  5
3C
102
{ACAD_REACTORS
330
3B
102
}
330
3B
100
AcDbScale
 70
     0
300
1:1
140
1.0
141
1.0
290
     1
  0
SCALE
  5
3D
102
{ACAD_REACTORS
330
3B
102
}
330
3B
100
AcDbScale
 70
     0
300
1:2
140
1.0
141
2.0
290
     0
  0
SCALE
  5
3E
102
{ACAD_REACTORS
330
3B
102
}
330
3B
100
AcDbScale
 70
     0
300
1:4
140
1.0
141
4.0
290
     0
  0
SCALE
  5
3F
102
{ACAD_REACTORS
330
3B
102
}
330
3B
100
AcDbScale
 70
     0
300
1:5
140
1.0
141
5.0
290
     0
  0
SCALE
  5
40
102
{ACAD_REACTORS
330
3B
102
}
330
3B
100
AcDbScale
 70
     0
300
1:8
140
1.0
141
8.0
290
     0
  0
SCALE
  5
41
102
{ACAD_REACTORS
330
3B
102
}
330
3B
100
AcDbScale
 70
     0
300
1:10
140
1.0
141
10.0
290
     0
  0
SCALE
  5
42
102
{ACAD_REACTORS
330
3B
102
}
330
3B
100
AcDbScale
 70
     0
300
1:16
140
1.0
141
16.0
290
     0
  0
SCALE
  5
43
102
{ACAD_REACTORS
330
3B
102
}
330
3B
100
AcDbScale
 70
     0
300
1:20
140
1.0
141
20.0
290
     0
  0
SCALE
  5
44
102
{ACAD_REACTORS
330
3B
102
}
330
3B
100
AcDbScale
 70
     0
300
1:30
140
1.0
141
30.0
290
     0
  0
SCALE
  5
45
102
{ACAD_REACTORS
330
3B
102
}
330
3B
100
AcDbScale
 70
     0
300
1:40
140
1.0
141
40.0
290
     0
  0
SCALE
  5
46
102
{ACAD_REACTORS
330
3B
102
}
330
3B
100
AcDbScale
 70
     0
300
1:50
140
1.0
141
50.0
290
     0
  0
SCALE
  5
47
102
{ACAD_REACTORS
330
3B
102
}
330
3B
100
AcDbScale
 70
     0
300
1:100
140
1.0
141
100.0
290
     0
  0
SCALE
  5
48
102
{ACAD_REACTORS
330
3B
102
}
330
3B
100
AcDbScale
 70
     0
300
2:1
140
2.0
141
1.0
290
     0
  0
SCALE
  5
49
102
{ACAD_REACTORS
330
3B
102
}
330
3B
100
AcDbScale
 70
     0
300
4:1
140
4.0
141
1.0
290
     0
  0
SCALE
  5
4A
102
{ACAD_REACTORS
330
3B
102
}
330
3B
100
AcDbScale
 70
     0
300
8:1
140
8.0
141
1.0
290
     0
  0
SCALE
  5
4B
102
{ACAD_REACTORS
330
3B
102
}
330
3B
100
AcDbScale
 70
     0
300
10:1
140
10.0
141
1.0
290
     0
  0
SCALE
  5
4C
102
{ACAD_REACTORS
330
3B
102
}
330
3B
100
AcDbScale
 70
     0
300
100:1
140
100.0
141
1.0
290
     0
  0
SCALE
  5
4D
102
{ACAD_REACTORS
330
3B
102
}
330
3B
100
AcDbScale
 70
     0
300
1/128" = 1'-0"
140
0.0078125
141
12.0
290
     0
  0
SCALE
  5
4E
102
{ACAD_REACTORS
330
3B
102
}
330
3B
100
AcDbScale
 70
     0
300
1/64" = 1'-0"
140
0.015625
141
12.0
290
     0
  0
SCALE
  5
4F
102
{ACAD_REACTORS
330
3B
102
}
330
3B
100
AcDbScale
 70
     0
300
1/32" = 1'-0"
140
0.03125
141
12.0
290
     0
  0
SCALE
  5
50
102
{ACAD_REACTORS
330
3B
102
}
330
3B
100
AcDbScale
 70
     0
300
1/16" = 1'-0"
140
0.0625
141
12.0
290
     0
  0
SCALE
  5
51
102
{ACAD_REACTORS
330
3B
102
}
330
3B
100
AcDbScale
 70
     0
300
3/32" = 1'-0"
140
0.09375
141
12.0
290
     0
  0
SCALE
  5
52
102
{ACAD_REACTORS
330
3B
102
}
330
3B
100
AcDbScale
 70
     0
300
1/8" = 1'-0"
140
0.125
141
12.0
290
     0
  0
SCALE
  5
53
102
{ACAD_REACTORS
330
3B
102
}
330
3B
100
AcDbScale
 70
     0
300
3/16" = 1'-0"
140
0.1875
141
12.0
290
     0
  0
SCALE
  5
54
102
{ACAD_REACTORS
330
3B
102
}
330
3B
100
AcDbScale
 70
     0
300
1/4" = 1'-0"
140
0.25
141
12.0
290
     0
  0
SCALE
  5
55
102
{ACAD_REACTORS
330
3B
102
}
330
3B
100
AcDbScale
 70
     0
300
3/8" = 1'-0"
140
0.375
141
12.0
290
     0
  0
SCALE
  5
56
102
{ACAD_REACTORS
330
3B
102
}
330
3B
100
AcDbScale
 70
     0
300
1/2" = 1'-0"
140
0.5
141
12.0
290
     0
  0
SCALE
  5
57
102
{ACAD_REACTORS
330
3B
102
}
330
3B
100
AcDbScale
 70
     0
300
3/4" = 1'-0"
140
0.75
141
12.0
290
     0
  0
SCALE
  5
58
102
{ACAD_REACTORS
330
3B
102
}
330
3B
100
AcDbScale
 70
     0
300
1" = 1'-0"
140
1.0
141
12.0
290
     0
  0
SCALE
  5
59
102
{ACAD_REACTORS
330
3B
102
}
330
3B
100
AcDbScale
 70
     0
300
1-1/2" = 1'-0"
140
1.5
141
12.0
290
     0
  0
SCALE
  5
5A
102
{ACAD_REACTORS
330
3B
102
}
330
3B
100
AcDbScale
 70
     0
300
3" = 1'-0"
140
3.0
141
12.0
290
     0
  0
SCALE
  5
5B
102
{ACAD_REACTORS
330
3B
102
}
330
3B
100
AcDbScale
 70
     0
300
6" = 1'-0"
140
6.0
141
12.0
290
     0
  0
SCALE
  5
5C
102
{ACAD_REACTORS
330
3B
102
}
330
3B
100
AcDbScale
 70
     0
300
1'-0" = 1'-0"
140
12.0
141
12.0
290
     0
  0
VISUALSTYLE
  5
2F
102
{ACAD_REACTORS
330
2A
102
}
330
2A
100
AcDbVisualStyle
  2
2dWireframe
 70
     4
 71
     0
 72
     2
 73
     0
 90
        0
 40
-0.6
 41
-30.0
 62
     5
 63
     7
 74
     1
 91
        4
 64
     7
 65
   257
 75
     1
175
     1
 42
1.0
 92
        0
 66
   257
 43
1.0
 76
     1
 77
     6
 78
     2
 67
     7
 79
     5
170
     0
171
     0
290
     0
174
     0
 93
        1
 44
0.0
173
     0
291
     0
 45
0.0
1001
ACAD
1000
AcDbSavedByObjectVersion
1070
     0
  0
VISUALSTYLE
  5
31
102
{ACAD_REACTORS
330
2A
102
}
330
2A
100
AcDbVisualStyle
  2
3D Hidden
 70
     6
 71
     1
 72
     2
 73
     2
 90
        0
 40
-0.6
 41
-30.0
 62
     5
 63
     7
 74
     2
 91
        2
 64
     7
 65
   257
 75
     2
175
     1
 42
40.0
 92
        0
 66
   257
 43
1.0
 76
     1
 77
     6
 78
     2
 67
     7
 79
     3
170
     0
171
     0
290
     0
174
     0
 93
        1
 44
0.0
173
     0
291
     0
 45
0.0
1001
ACAD
1000
AcDbSavedByObjectVersion
1070
     0
  0
VISUALSTYLE
  5
30
102
{ACAD_REACTORS
330
2A
102
}
330
2A
100
AcDbVisualStyle
  2
3dWireframe
 70
     5
 71
     0
 72
     2
 73
     0
 90
        0
 40
-0.6
 41
-30.0
 62
     5
 63
     7
 74
     1
 91
        4
 64
     7
 65
   257
 75
     1
175
     1
 42
1.0
 92
        0
 66
   257
 43
1.0
 76
     1
 77
     6
 78
     2
 67
     7
 79
     5
170
     0
171
     0
290
     0
174
     0
 93
        1
 44
0.0
173
     0
291
     0
 45
0.0
1001
ACAD
1000
AcDbSavedByObjectVersion
1070
     0
  0
VISUALSTYLE
  5
32
102
{ACAD_REACTORS
330
2A
102
}
330
2A
100
AcDbVisualStyle
  2
Basic
 70
     7
 71
     1
 72
     0
 73
     1
 90
        0
 40
-0.6
 41
-30.0
 62
     5
 63
     7
 74
     0
 91
        4
 64
     7
 65
   257
 75
     1
175
     1
 42
1.0
 92
        8
 66
     7
 43
1.0
 76
     1
 77
     6
 78
     2
 67
     7
 79
     5
170
     0
171
     0
290
     0
174
     0
 93
        1
 44
0.0
173
     0
291
     1
 45
0.0
1001
ACAD
1000
AcDbSavedByObjectVersion
1070
     0
  0
VISUALSTYLE
  5
36
102
{ACAD_REACTORS
330
2A
102
}
330
2A
100
AcDbVisualStyle
  2
Brighten
 70
    12
 71
     2
 72
     2
 73
     0
 90
        0
 40
-0.6
 41
-30.0
 62
     5
 63
     7
 74
     1
 91
        4
 64
     7
 65
   257
 75
     1
175
     1
 42
1.0
 92
        8
 66
     7
 43
1.0
 76
     1
 77
     6
 78
     2
 67
     7
 79
     5
170
     0
171
     0
290
     0
174
     0
 93
        1
 44
50.0
173
     0
291
     1
 45
0.0
1001
ACAD
1000
AcDbSavedByObjectVersion
1070
     0
  0
VISUALSTYLE
  5
3A
102
{ACAD_REACTORS
330
2A
102
}
330
2A
100
AcDbVisualStyle
  2
ColorChange
 70
    16
 71
     2
 72
     2
 73
     3
 90
        0
 40
-0.6
 41
-30.0
 62
     5
 63
     8
 74
     1
 91
        4
 64
     7
 65
   257
 75
     1
175
     1
 42
1.0
 92
        8
 66
     8
 43
1.0
 76
     1
 77
     6
 78
     2
 67
     7
 79
     5
170
     0
171
     0
290
     0
174
     0
 93
        1
 44
0.0
173
     0
291
     1
 45
0.0
1001
ACAD
1000
AcDbSavedByObjectVersion
1070
     0
  0
VISUALSTYLE
  5
34
102
{ACAD_REACTORS
330
2A
102
}
330
2A
100
AcDbVisualStyle
  2
Conceptual
 70
     9
 71
     3
 72
     2
 73
     0
 90
        0
 40
-0.6
 41
-30.0
 62
     5
 63
     7
 74
     2
 91
        2
 64
     7
 65
   257
 75
     1
175
     1
 42
40.0
 92
        8
 66
     7
 43
1.0
 76
     1
 77
     6
 78
     2
 67
     7
 79
     3
170
     0
171
     0
290
     0
174
     0
 93
        1
 44
0.0
173
     0
291
     0
 45
0.0
1001
ACAD
1000
AcDbSavedByObjectVersion
1070
     0
  0
VISUALSTYLE
  5
35
102
{ACAD_REACTORS
330
2A
102
}
330
2A
100
AcDbVisualStyle
  2
Dim
 70
    11
 71
     2
 72
     2
 73
     0
 90
        0
 40
-0.6
 41
-30.0
 62
     5
 63
     7
 74
     1
 91
        4
 64
     7
 65
   257
 75
     1
175
     1
 42
1.0
 92
        8
 66
     7
 43
1.0
 76
     1
 77
     6
 78
     2
 67
     7
 79
     5
170
     0
171
     0
290
     0
174
     0
 93
        1
 44
-50.0
173
     0
291
     1
 45
0.0
1001
ACAD
1000
AcDbSavedByObjectVersion
1070
     0
  0
VISUALSTYLE
  5
39
102
{ACAD_REACTORS
330
2A
102
}
330
2A
100
AcDbVisualStyle
  2
Facepattern
 70
    15
 71
     2
 72
     2
 73
     0
 90
        0
 40
-0.6
 41
-30.0
 62
     5
 63
     7
 74
     1
 91
        4
 64
     7
 65
   257
 75
     1
175
     1
 42
1.0
 92
        8
 66
     7
 43
1.0
 76
     1
 77
     6
 78
     2
 67
     7
 79
     5
170
     0
171
     0
290
     0
174
     0
 93
        1
 44
0.0
173
     0
291
     1
 45
0.0
1001
ACAD
1000
AcDbSavedByObjectVersion
1070
     0
  0
VISUALSTYLE
  5
2B
102
{ACAD_REACTORS
330
2A
102
}
330
2A
100
AcDbVisualStyle
  2
Flat
 70
     0
 71
     2
 72
     1
 73
     1
 90
        2
 40
-0.6
 41
30.0
 62
     5
 63
     7
 74
     0
 91
        4
 64
     7
 65
   257
 75
     1
175
     1
 42
1.0
 92
        8
 66
     7
 43
1.0
 76
     1
 77
     6
 78
     2
 67
     7
 79
     5
170
     0
171
     0
290
     0
174
     0
 93
       13
 44
0.0
173
     0
291
     1
 45
0.0
1001
ACAD
1000
AcDbSavedByObjectVersion
1070
     0
  0
VISUALSTYLE
  5
2C
102
{ACAD_REACTORS
330
2A
102
}
330
2A
100
AcDbVisualStyle
  2
FlatWithEdges
 70
     1
 71
     2
 72
     1
 73
     1
 90
        2
 40
-0.6
 41
30.0
 62
     5
 63
     7
 74
     1
 91
        4
 64
     7
 65
   257
 75
     1
175
     1
 42
1.0
 92
        0
 66
   257
 43
1.0
 76
     1
 77
     6
 78
     2
 67
     7
 79
     5
170
     0
171
     0
290
     0
174
     0
 93
       13
 44
0.0
173
     0
291
     1
 45
0.0
1001
ACAD
1000
AcDbSavedByObjectVersion
1070
     0
  0
VISUALSTYLE
  5
2D
102
{ACAD_REACTORS
330
2A
102
}
330
2A
100
AcDbVisualStyle
  2
Gouraud
 70
     2
 71
     2
 72
     2
 73
     1
 90
        2
 40
-0.6
 41
30.0
 62
     5
 63
     7
 74
     0
 91
        4
 64
     7
 65
   257
 75
     1
175
     1
 42
1.0
 92
        0
 66
     7
 43
1.0
 76
     1
 77
     6
 78
     2
 67
     7
 79
     5
170
     0
171
     0
290
     0
174
     0
 93
       13
 44
0.0
173
     0
291
     1
 45
0.0
1001
ACAD
1000
AcDbSavedByObjectVersion
1070
     0
  0
VISUALSTYLE
  5
2E
102
{ACAD_REACTORS
330
2A
102
}
330
2A
100
AcDbVisualStyle
  2
GouraudWithEdges
 70
     3
 71
     2
 72
     2
 73
     1
 90
        2
 40
-0.6
 41
30.0
 62
     5
 63
     7
 74
     1
 91
        4
 64
     7
 65
   257
 75
     1
175
     1
 42
1.0
 92
        0
 66
   257
 43
1.0
 76
     1
 77
     6
 78
     2
 67
     7
 79
     5
170
     0
171
     0
290
     0
174
     0
 93
       13
 44
0.0
173
     0
291
     1
 45
0.0
1001
ACAD
1000
AcDbSavedByObjectVersion
1070
     0
  0
VISUALSTYLE
  5
38
102
{ACAD_REACTORS
330
2A
102
}
330
2A
100
AcDbVisualStyle
  2
Linepattern
 70
    14
 71
     2
 72
     2
 73
     0
 90
        0
 40
-0.6
 41
-30.0
 62
     5
 63
     7
 74
     1
 91
        4
 64
     7
 65
   257
 75
     7
175
     7
 42
1.0
 92
        8
 66
     7
 43
1.0
 76
     1
 77
     6
 78
     2
 67
     7
 79
     5
170
     0
171
     0
290
     0
174
     0
 93
        1
 44
0.0
173
     0
291
     1
 45
0.0
1001
ACAD
1000
AcDbSavedByObjectVersion
1070
     0
  0
VISUALSTYLE
  5
33
102
{ACAD_REACTORS
330
2A
102
}
330
2A
100
AcDbVisualStyle
  2
Realistic
 70
     8
 71
     2
 72
     2
 73
     0
 90
        0
 40
-0.6
 41
-30.0
 62
     5
 63
     7
 74
     1
 91
        0
 64
     7
 65
   257
 75
     1
175
     1
 42
1.0
 92
        8
 66
     8
 43
1.0
 76
     1
 77
     6
 78
     2
 67
     7
 79
     5
170
     0
171
     0
290
     0
174
     0
 93
       13
 44
0.0
173
     0
291
     0
 45
0.0
1001
ACAD
1000
AcDbSavedByObjectVersion
1070
     0
  0
VISUALSTYLE
  5
37
102
{ACAD_REACTORS
330
2A
102
}
330
2A
100
AcDbVisualStyle
  2
Thicken
 70
    13
 71
     2
 72
     2
 73
     0
 90
        0
 40
-0.6
 41
-30.0
 62
     5
 63
     7
 74
     1
 91
        4
 64
     7
 65
   257
 75
     1
175
     1
 42
1.0
 92
       12
 66
     7
 43
1.0
 76
     1
 77
     6
 78
     2
 67
     7
 79
     5
170
     0
171
     0
290
     0
174
     0
 93
        1
 44
0.0
173
     0
291
     1
 45
0.0
1001
ACAD
1000
AcDbSavedByObjectVersion
1070
     0
  0
DICTIONARYVAR
  5
124
102
{ACAD_REACTORS
330
123
102
}
330
123
100
DictionaryVariables
280
     0
  1
1:1
  0
DICTIONARYVAR
  5
128
102
{ACAD_REACTORS
330
123
102
}
330
123
100
DictionaryVariables
280
     0
  1
80.000000
  0
DICTIONARYVAR
  5
127
102
{ACAD_REACTORS
330
123
102
}
330
123
100
DictionaryVariables
280
     0
  1
5.000000
  0
ENDSEC
  0
EOF
