  0
SECTION
  2
HEADER
  9
$ACADVER
  1
AC1015
  9
$ACADMAINTVER
 70
     6
  9
$DWGCODEPAGE
  3
ANSI_1252
  9
$INSBASE
 10
0.0
 20
0.0
 30
0.0
  9
$EXTMIN
 10
0.0
 20
0.0
 30
0.0
  9
$EXTMAX
 10
1682.0
 20
2378.0
 30
0.0
  9
$LIMMIN
 10
0.0
 20
0.0
  9
$LIMMAX
 10
1682.0
 20
2378.0
  9
$ORTHOMODE
 70
     0
  9
$REGENMODE
 70
     1
  9
$FILLMODE
 70
     1
  9
$QTEXTMODE
 70
     0
  9
$MIRRTEXT
 70
     1
  9
$LTSCALE
 40
1.0
  9
$ATTMODE
 70
     1
  9
$TEXTSIZE
 40
2.5
  9
$TRACEWID
 40
1.0
  9
$TEXTSTYLE
  7
Standard
  9
$CLAYER
  8
0
  9
$CELTYPE
  6
ByLayer
  9
$CECOLOR
 62
   256
  9
$CELTSCALE
 40
1.0
  9
$DISPSILH
 70
     0
  9
$DIMSCALE
 40
1.0
  9
$DIMASZ
 40
2.5
  9
$DIMEXO
 40
0.625
  9
$DIMDLI
 40
3.75
  9
$DIMRND
 40
0.0
  9
$DIMDLE
 40
0.0
  9
$DIMEXE
 40
1.25
  9
$DIMTP
 40
0.0
  9
$DIMTM
 40
0.0
  9
$DIMTXT
 40
2.5
  9
$DIMCEN
 40
2.5
  9
$DIMTSZ
 40
0.0
  9
$DIMTOL
 70
     0
  9
$DIMLIM
 70
     0
  9
$DIMTIH
 70
     0
  9
$DIMTOH
 70
     0
  9
$DIMSE1
 70
     0
  9
$DIMSE2
 70
     0
  9
$DIMTAD
 70
     1
  9
$DIMZIN
 70
     8
  9
$DIMBLK
  1

  9
$DIMASO
 70
     1
  9
$DIMSHO
 70
     1
  9
$DIMPOST
  1

  9
$DIMAPOST
  1

  9
$DIMALT
 70
     0
  9
$DIMALTD
 70
     3
  9
$DIMALTF
 40
0.0393700787
  9
$DIMLFAC
 40
1.0
  9
$DIMTOFL
 70
     1
  9
$DIMTVP
 40
0.0
  9
$DIMTIX
 70
     0
  9
$DIMSOXD
 70
     0
  9
$DIMSAH
 70
     0
  9
$DIMBLK1
  1

  9
$DIMBLK2
  1

  9
$DIMSTYLE
  2
ISO-25
  9
$DIMCLRD
 70
     0
  9
$DIMCLRE
 70
     0
  9
$DIMCLRT
 70
     0
  9
$DIMTFAC
 40
1.0
  9
$DIMGAP
 40
0.625
  9
$DIMJUST
 70
     0
  9
$DIMSD1
 70
     0
  9
$DIMSD2
 70
     0
  9
$DIMTOLJ
 70
     0
  9
$DIMTZIN
 70
     8
  9
$DIMALTZ
 70
     0
  9
$DIMALTTZ
 70
     0
  9
$DIMUPT
 70
     0
  9
$DIMDEC
 70
     2
  9
$DIMTDEC
 70
     2
  9
$DIMALTU
 70
     2
  9
$DIMALTTD
 70
     3
  9
$DIMTXSTY
  7
Standard
  9
$DIMAUNIT
 70
     0
  9
$DIMADEC
 70
     0
  9
$DIMALTRND
 40
0.0
  9
$DIMAZIN
 70
     0
  9
$DIMDSEP
 70
    44
  9
$DIMATFIT
 70
     3
  9
$DIMFRAC
 70
     0
  9
$DIMLDRBLK
  1

  9
$DIMLUNIT
 70
     2
  9
$DIMLWD
 70
    -2
  9
$DIMLWE
 70
    -2
  9
$DIMTMOVE
 70
     0
  9
$LUNITS
 70
     2
  9
$LUPREC
 70
     4
  9
$SKETCHINC
 40
1.0
  9
$FILLETRAD
 40
10.0
  9
$AUNITS
 70
     0
  9
$AUPREC
 70
     0
  9
$MENU
  1
.
  9
$ELEVATION
 40
0.0
  9
$PELEVATION
 40
0.0
  9
$THICKNESS
 40
0.0
  9
$LIMCHECK
 70
     0
  9
$CHAMFERA
 40
10.0
  9
$CHAMFERB
 40
10.0
  9
$CHAMFERC
 40
20.0
  9
$CHAMFERD
 40
0.0
  9
$SKPOLY
 70
     0
  9
$TDCREATE
 40
2455147.568128923
  9
$TDUCREATE
 40
2455147.526462257
  9
$TDUPDATE
 40
2455147.568128935
  9
$TDUUPDATE
 40
2455147.526462269
  9
$TDINDWG
 40
0.0000000116
  9
$TDUSRTIMER
 40
0.0000000116
  9
$USRTIMER
 70
     1
  9
$ANGBASE
 50
0.0
  9
$ANGDIR
 70
     0
  9
$PDMODE
 70
     0
  9
$PDSIZE
 40
0.0
  9
$PLINEWID
 40
0.0
  9
$SPLFRAME
 70
     0
  9
$SPLINETYPE
 70
     6
  9
$SPLINESEGS
 70
     8
  9
$HANDSEED
  5
154
  9
$SURFTAB1
 70
     6
  9
$SURFTAB2
 70
     6
  9
$SURFTYPE
 70
     6
  9
$SURFU
 70
     6
  9
$SURFV
 70
     6
  9
$UCSBASE
  2

  9
$UCSNAME
  2

  9
$UCSORG
 10
0.0
 20
0.0
 30
0.0
  9
$UCSXDIR
 10
1.0
 20
0.0
 30
0.0
  9
$UCSYDIR
 10
0.0
 20
1.0
 30
0.0
  9
$UCSORTHOREF
  2

  9
$UCSORTHOVIEW
 70
     0
  9
$UCSORGTOP
 10
0.0
 20
0.0
 30
0.0
  9
$UCSORGBOTTOM
 10
0.0
 20
0.0
 30
0.0
  9
$UCSORGLEFT
 10
0.0
 20
0.0
 30
0.0
  9
$UCSORGRIGHT
 10
0.0
 20
0.0
 30
0.0
  9
$UCSORGFRONT
 10
0.0
 20
0.0
 30
0.0
  9
$UCSORGBACK
 10
0.0
 20
0.0
 30
0.0
  9
$PUCSBASE
  2

  9
$PUCSNAME
  2

  9
$PUCSORG
 10
0.0
 20
0.0
 30
0.0
  9
$PUCSXDIR
 10
1.0
 20
0.0
 30
0.0
  9
$PUCSYDIR
 10
0.0
 20
1.0
 30
0.0
  9
$PUCSORTHOREF
  2

  9
$PUCSORTHOVIEW
 70
     0
  9
$PUCSORGTOP
 10
0.0
 20
0.0
 30
0.0
  9
$PUCSORGBOTTOM
 10
0.0
 20
0.0
 30
0.0
  9
$PUCSORGLEFT
 10
0.0
 20
0.0
 30
0.0
  9
$PUCSORGRIGHT
 10
0.0
 20
0.0
 30
0.0
  9
$PUCSORGFRONT
 10
0.0
 20
0.0
 30
0.0
  9
$PUCSORGBACK
 10
0.0
 20
0.0
 30
0.0
  9
$USERI1
 70
     0
  9
$USERI2
 70
     0
  9
$USERI3
 70
     0
  9
$USERI4
 70
     0
  9
$USERI5
 70
     0
  9
$USERR1
 40
0.0
  9
$USERR2
 40
0.0
  9
$USERR3
 40
0.0
  9
$USERR4
 40
0.0
  9
$USERR5
 40
0.0
  9
$WORLDVIEW
 70
     1
  9
$SHADEDGE
 70
     3
  9
$SHADEDIF
 70
    70
  9
$TILEMODE
 70
     1
  9
$MAXACTVP
 70
    64
  9
$PINSBASE
 10
0.0
 20
0.0
 30
0.0
  9
$PLIMCHECK
 70
     0
  9
$PEXTMIN
 10
0.0
 20
0.0
 30
0.0
  9
$PEXTMAX
 10
1682.0
 20
2378.0
 30
0.0
  9
$PLIMMIN
 10
0.0
 20
0.0
  9
$PLIMMAX
 10
1682.0
 20
2378.0
  9
$UNITMODE
 70
     0
  9
$VISRETAIN
 70
     1
  9
$PLINEGEN
 70
     0
  9
$PSLTSCALE
 70
     1
  9
$TREEDEPTH
 70
  3020
  9
$CMLSTYLE
  2
Standard
  9
$CMLJUST
 70
     0
  9
$CMLSCALE
 40
20.0
  9
$PROXYGRAPHICS
 70
     1
  9
$MEASUREMENT
 70
     1
  9
$CELWEIGHT
370
    -1
  9
$ENDCAPS
280
     0
  9
$JOINSTYLE
280
     0
  9
$LWDISPLAY
290
     0
  9
$INSUNITS
 70
     4
  9
$HYPERLINKBASE
  1

  9
$STYLESHEET
  1

  9
$XEDIT
290
     1
  9
$CEPSNTYPE
380
     0
  9
$PSTYLEMODE
290
     1
  9
$FINGERPRINTGUID
  2
{6B5370C4-C580-4B1D-B2B7-0EE1DFF78E2D}
  9
$VERSIONGUID
  2
{FAEB1C32-E019-11D5-929B-00C0DF256EC4}
  9
$EXTNAMES
290
     1
  9
$PSVPSCALE
 40
0.0
  9
$OLESTARTUP
290
     0
  0
ENDSEC
  0
SECTION
  2
CLASSES
  0
CLASS
  1
ACDBDICTIONARYWDFLT
  2
AcDbDictionaryWithDefault
  3
ObjectDBX Classes
 90
        0
280
     0
281
     0
  0
CLASS
  1
VISUALSTYLE
  2
AcDbVisualStyle
  3
ObjectDBX Classes
 90
     4095
280
     0
281
     0
  0
CLASS
  1
SCALE
  2
AcDbScale
  3
ObjectDBX Classes
 90
     1153
280
     0
281
     0
  0
CLASS
  1
DICTIONARYVAR
  2
AcDbDictionaryVar
  3
ObjectDBX Classes
 90
        0
280
     0
281
     0
  0
CLASS
  1
ACDBPLACEHOLDER
  2
AcDbPlaceHolder
  3
ObjectDBX Classes
 90
        0
280
     0
281
     0
  0
CLASS
  1
LAYOUT
  2
AcDbLayout
  3
ObjectDBX Classes
 90
        0
280
     0
281
     0
  0
ENDSEC
  0
SECTION
  2
TABLES
  0
TABLE
  2
VPORT
  5
8
330
0
100
AcDbSymbolTable
 70
     1
  0
VPORT
  5
29
330
8
100
AcDbSymbolTableRecord
100
AcDbViewportTableRecord
  2
*Active
 70
     0
 10
0.0
 20
0.0
 11
1.0
 21
1.0
 12
344.1869158879
 22
148.5
 13
0.0
 23
0.0
 14
10.0
 24
10.0
 15
10.0
 25
10.0
 16
0.0
 26
0.0
 36
1.0
 17
0.0
 27
0.0
 37
0.0
 40
297.0
 41
1.9729729729
 42
50.0
 43
0.0
 44
0.0
 50
0.0
 51
0.0
 71
     0
 72
   100
 73
     1
 74
     3
 75
     0
 76
     0
 77
     0
 78
     0
281
     0
 65
     1
110
0.0
120
0.0
130
0.0
111
1.0
121
0.0
131
0.0
112
0.0
122
1.0
132
0.0
 79
     0
146
0.0
  0
ENDTAB
  0
TABLE
  2
LTYPE
  5
5
330
0
100
AcDbSymbolTable
 70
     1
  0
LTYPE
  5
14
330
5
100
AcDbSymbolTableRecord
100
AcDbLinetypeTableRecord
  2
ByBlock
 70
     0
  3

 72
    65
 73
     0
 40
0.0
  0
LTYPE
  5
15
330
5
100
AcDbSymbolTableRecord
100
AcDbLinetypeTableRecord
  2
ByLayer
 70
     0
  3

 72
    65
 73
     0
 40
0.0
  0
LTYPE
  5
16
330
5
100
AcDbSymbolTableRecord
100
AcDbLinetypeTableRecord
  2
Continuous
 70
     0
  3
Solid line
 72
    65
 73
     0
 40
0.0
  0
ENDTAB
  0
TABLE
  2
LAYER
  5
2
330
0
100
AcDbSymbolTable
 70
     7
  0
LAYER
  5
10
330
2
100
AcDbSymbolTableRecord
100
AcDbLayerTableRecord
  2
0
 70
     0
 62
     7
  6
Continuous
370
    -3
390
F
  0
LAYER
  5
5D
330
2
100
AcDbSymbolTableRecord
100
AcDbLayerTableRecord
  2
Default
 70
     0
 62
     7
  6
Continuous
370
    -3
390
F
  0
LAYER
  5
60
330
2
100
AcDbSymbolTableRecord
100
AcDbLayerTableRecord
  2
$DDT_AUDIT_GENERATED_(60)
 70
     0
 62
     7
  6
Continuous
370
    -3
390
F
  0
LAYER
  5
6E
330
2
100
AcDbSymbolTableRecord
100
AcDbLayerTableRecord
  2
02555038_40437__
 70
     0
 62
     7
  6
Continuous
370
    -3
390
F
  0
LAYER
  5
80
330
2
100
AcDbSymbolTableRecord
100
AcDbLayerTableRecord
  2
$DDT_AUDIT_GENERATED_(80)
 70
     0
 62
     7
  6
Continuous
370
    -3
390
F
  0
LAYER
  5
B0
330
2
100
AcDbSymbolTableRecord
100
AcDbLayerTableRecord
  2
$DDT_AUDIT_GENERATED_(B0)
 70
     0
 62
     7
  6
Continuous
370
    -3
390
F
  0
LAYER
  5
B9
330
2
100
AcDbSymbolTableRecord
100
AcDbLayerTableRecord
  2
$DDT_AUDIT_GENERATED_(B9)
 70
     0
 62
     7
  6
Continuous
370
    -3
390
F
  0
ENDTAB
  0
TABLE
  2
STYLE
  5
3
330
0
100
AcDbSymbolTable
 70
     2
  0
STYLE
  5
11
330
3
100
AcDbSymbolTableRecord
100
AcDbTextStyleTableRecord
  2
Standard
 70
     0
 40
0.0
 41
1.0
 50
0.0
 71
     0
 42
2.5
  3
txt
  4

  0
STYLE
  5
143
330
3
100
AcDbSymbolTableRecord
100
AcDbTextStyleTableRecord
  2
SEACAD_seiso_ttf
 70
     0
 40
0.0
 41
1.0
 50
0.0
 71
     0
 42
0.2
  3
seiso.ttf
  4

  0
ENDTAB
  0
TABLE
  2
VIEW
  5
6
330
0
100
AcDbSymbolTable
 70
     0
  0
ENDTAB
  0
TABLE
  2
UCS
  5
7
330
0
100
AcDbSymbolTable
 70
     0
  0
ENDTAB
  0
TABLE
  2
APPID
  5
9
330
0
100
AcDbSymbolTable
 70
     1
  0
APPID
  5
12
330
9
100
AcDbSymbolTableRecord
100
AcDbRegAppTableRecord
  2
ACAD
 70
     0
  0
ENDTAB
  0
TABLE
  2
DIMSTYLE
  5
A
330
0
100
AcDbSymbolTable
 70
     1
100
AcDbDimStyleTable
  0
DIMSTYLE
105
27
330
A
100
AcDbSymbolTableRecord
100
AcDbDimStyleTableRecord
  2
ISO-25
 70
     0
 41
2.5
 42
0.625
 43
3.75
 44
1.25
 73
     0
 74
     0
 77
     1
 78
     8
140
2.5
141
2.5
143
0.0393700787
147
0.625
171
     3
172
     1
271
     2
272
     2
274
     3
278
    44
283
     0
284
     8
340
11
  0
ENDTAB
  0
TABLE
  2
BLOCK_RECORD
  5
1
330
0
100
AcDbSymbolTable
 70
     4
  0
BLOCK_RECORD
  5
1F
330
1
100
AcDbSymbolTableRecord
100
AcDbBlockTableRecord
  2
*Model_Space
340
22
  0
BLOCK_RECORD
  5
1B
330
1
100
AcDbSymbolTableRecord
100
AcDbBlockTableRecord
  2
*Paper_Space
340
1E
  0
BLOCK_RECORD
  5
5E
330
1
100
AcDbSymbolTableRecord
100
AcDbBlockTableRecord
  2
SE
340
0
102
{BLKREFS
331
5F
102
}
  0
BLOCK_RECORD
  5
B7
330
1
100
AcDbSymbolTableRecord
100
AcDbBlockTableRecord
  2
SE1
340
0
102
{BLKREFS
331
B8
102
}
  0
BLOCK_RECORD
  5
10A
330
1
100
AcDbSymbolTableRecord
100
AcDbBlockTableRecord
  2
SE2
340
0
102
{BLKREFS
331
10B
102
}
  0
ENDTAB
  0
ENDSEC
  0
SECTION
  2
BLOCKS
  0
BLOCK
  5
20
330
1F
100
AcDbEntity
  8
0
100
AcDbBlockBegin
  2
*Model_Space
 70
     0
 10
0.0
 20
0.0
 30
0.0
  3
*Model_Space
  1

  0
ENDBLK
  5
21
330
1F
100
AcDbEntity
  8
0
100
AcDbBlockEnd
  0
BLOCK
  5
1C
330
1B
100
AcDbEntity
 67
     1
  8
0
100
AcDbBlockBegin
  2
*Paper_Space
 70
     0
 10
0.0
 20
0.0
 30
0.0
  3
*Paper_Space
  1

  0
ENDBLK
  5
1D
330
1B
100
AcDbEntity
 67
     1
  8
0
100
AcDbBlockEnd
  0
BLOCK
  5
B5
330
5E
100
AcDbEntity
  8
0
100
AcDbBlockBegin
  2
SE
 70
     0
 10
0.0
 20
0.0
 30
0.0
  3
SE
  1

  0
SPLINE
  5
61
330
5E
100
AcDbEntity
  8
$DDT_AUDIT_GENERATED_(60)
  6
Continuous
 62
     7
100
AcDbSpline
210
0.0
220
0.0
230
1.0
 70
     8
 71
     5
 72
    12
 73
     6
 74
     0
 42
0.0000000001747843
 43
0.0000000001
 40
0.0
 40
0.0
 40
0.0
 40
0.0
 40
0.0
 40
0.0
 40
1.0
 40
1.0
 40
1.0
 40
1.0
 40
1.0
 40
1.0
 10
175.4114145219647
 20
666.5461456635147
 30
0.0
 10
163.9836175885332
 20
667.243664801747
 30
0.0
 10
152.5536267537905
 20
667.8225853272728
 30
0.0
 10
141.1214420177387
 20
668.282907240115
 30
0.0
 10
129.6870633803779
 20
668.6246305402738
 30
0.0
 10
118.2504908417021
 20
668.8477552277488
 30
0.0
  0
ARC
  5
62
330
5E
100
AcDbEntity
  8
$DDT_AUDIT_GENERATED_(60)
  6
Continuous
 62
     7
100
AcDbCircle
 10
7.3496631672
 20
665.548653471
 30
0.0
 40
0.9993076053963488
100
AcDbArc
 50
93.4640813769
 51
180.0338013731
  0
ARC
  5
63
330
5E
100
AcDbEntity
  8
$DDT_AUDIT_GENERATED_(60)
  6
Continuous
 62
     7
100
AcDbCircle
 10
175.3510307372
 20
665.5484685956
 30
0.0
 40
0.99950274297738
100
AcDbArc
 50
359.9733238237
 51
80.1873378651
  0
ARC
  5
64
330
5E
100
AcDbEntity
  8
$DDT_AUDIT_GENERATED_(60)
  6
Continuous
 62
     7
100
AcDbCircle
 10
91.3373360691
 20
-36050.4007602654
 30
0.0
 40
36716.04718441344
100
AcDbArc
 50
89.867335889
 51
90.1326231991
  0
LINE
  5
65
330
5E
100
AcDbEntity
  8
$DDT_AUDIT_GENERATED_(60)
  6
Continuous
 62
     7
100
AcDbLine
 10
6.6755828811
 20
657.1101247782
 30
0.0
 11
176.3509149323
 21
657.1101247921
 31
0.0
  0
SPLINE
  5
66
330
5E
100
AcDbEntity
  8
$DDT_AUDIT_GENERATED_(60)
  6
Continuous
 62
     7
100
AcDbSpline
210
0.0
220
0.0
230
1.0
 70
     8
 71
     3
 72
     8
 73
     4
 74
     0
 42
0.0000000011851235
 43
0.0000000001
 40
0.0
 40
0.0
 40
0.0
 40
0.0
 40
1.0
 40
1.0
 40
1.0
 40
1.0
 10
6.350355735697436
 20
665.5480639342563
 30
0.0
 10
6.350299486829608
 20
662.735417536522
 30
0.0
 10
6.350156081388669
 20
659.9227711451402
 30
0.0
 10
6.350221420964031
 20
657.1101247626499
 30
0.0
  0
ARC
  5
67
330
5E
100
AcDbEntity
  8
$DDT_AUDIT_GENERATED_(60)
  6
Continuous
 62
     7
100
AcDbCircle
 10
91.3793572805
 20
-710.892231829
 30
0.0
 40
1380.002752073691
100
AcDbArc
 50
91.1181197481
 51
93.4934661986
  0
SPLINE
  5
68
330
5E
100
AcDbEntity
  8
$DDT_AUDIT_GENERATED_(60)
  6
Continuous
 62
     7
100
AcDbSpline
210
0.0
220
0.0
230
1.0
 70
     8
 71
     3
 72
    38
 73
    34
 74
     0
 42
0.0000000001858736
 43
0.0000000001
 40
0.0
 40
0.0
 40
0.0
 40
0.0
 40
0.0625000000000001
 40
0.0625000000000001
 40
0.1250000000000002
 40
0.1250000000000002
 40
0.1875000000000002
 40
0.1875000000000002
 40
0.2500000000000002
 40
0.2500000000000002
 40
0.3125000000000002
 40
0.3125000000000002
 40
0.3750000000000003
 40
0.3750000000000003
 40
0.4375000000000003
 40
0.4375000000000003
 40
0.5000000000000003
 40
0.5000000000000003
 40
0.5625000000000003
 40
0.5625000000000003
 40
0.6250000000000002
 40
0.6250000000000002
 40
0.6875000000000002
 40
0.6875000000000002
 40
0.7500000000000002
 40
0.7500000000000002
 40
0.8125000000000002
 40
0.8125000000000002
 40
0.8750000000000001
 40
0.8750000000000001
 40
0.9375000000000001
 40
0.9375000000000001
 40
1.0
 40
1.0
 40
1.0
 40
1.0
 10
118.2504908417021
 20
668.8477552277488
 30
0.0
 10
118.2504908417021
 20
668.8477552277488
 30
0.0
 10
118.0761433682884
 20
668.8475703213785
 30
0.0
 10
117.3930144817996
 20
668.8472672405668
 30
0.0
 10
116.87594992396
 20
668.8471495786845
 30
0.0
 10
115.5259836932786
 20
668.8471499633475
 30
0.0
 10
114.6998809713331
 20
668.8472654175745
 30
0.0
 10
112.7481518185162
 20
668.8475691131725
 30
0.0
 10
111.6121226180117
 20
668.847755261683
 30
0.0
 10
109.1305444038649
 20
668.8477551938057
 30
0.0
 10
107.7765048571889
 20
668.8475725241634
 30
0.0
 10
104.8365309292577
 20
668.8472665106111
 30
0.0
 10
103.2709465204221
 20
668.8471501107412
 30
0.0
 10
100.0345385268608
 20
668.8471494324448
 30
0.0
 10
98.33992110086932
 20
668.8472648932441
 30
0.0
 10
94.86796853904428
 20
668.847570840056
 30
0.0
 10
93.12279428828337
 20
668.8477539014214
 30
0.0
 10
89.6145421826959
 20
668.8477565403923
 30
0.0
 10
87.83285913763717
 20
668.8475709105468
 30
0.0
 10
84.3829933783945
 20
668.8472667424203
 30
0.0
 10
82.7062325022461
 20
668.8471506898757
 30
0.0
 10
79.44958132477477
 20
668.847148863734
 30
0.0
 10
77.87393628395871
 20
668.847265848876
 30
0.0
 10
74.95831823391917
 20
668.8475686809063
 30
0.0
 10
73.59941653635762
 20
668.8477537714547
 30
0.0
 10
71.08711693554379
 20
668.8477566679422
 30
0.0
 10
69.97110774042415
 20
668.8475719628512
 30
0.0
 10
68.02177797232805
 20
668.8472686296003
 30
0.0
 10
67.17934830584937
 20
668.8471503066289
 30
0.0
 10
65.82736630396813
 20
668.8471492389956
 30
0.0
 10
65.31805898160182
 20
668.8472640984726
 30
0.0
 10
64.62863700964353
 20
668.8475673274226
 30
0.0
 10
64.45049084170215
 20
668.8477552277488
 30
0.0
 10
64.45049084170213
 20
668.8477552277488
 30
0.0
  0
ARC
  5
69
330
5E
100
AcDbEntity
  8
$DDT_AUDIT_GENERATED_(60)
  6
Continuous
 62
     7
100
AcDbCircle
 10
7.4543057242
 20
665.5487276033
 30
0.0
 40
0.9993187316326237
100
AcDbArc
 50
92.9761496547
 51
180.5584190163
  0
SPLINE
  5
6A
330
5E
100
AcDbEntity
  8
$DDT_AUDIT_GENERATED_(60)
  6
Continuous
 62
     7
100
AcDbSpline
210
0.0
220
0.0
230
1.0
 70
     8
 71
     3
 72
     8
 73
     4
 74
     0
 42
0.0000001014746945
 43
0.0000000001
 40
0.0
 40
0.0
 40
0.0
 40
0.0
 40
1.0
 40
1.0
 40
1.0
 40
1.0
 10
176.3213729749549
 20
665.5714088386427
 30
0.0
 10
176.3433541575843
 20
665.6167128474557
 30
0.0
 10
176.3502426019189
 20
665.6469255560625
 30
0.0
 10
176.3420383079587
 20
665.662046964463
 30
0.0
  0
ARC
  5
6B
330
5E
100
AcDbEntity
  8
$DDT_AUDIT_GENERATED_(60)
  6
Continuous
 62
     7
100
AcDbCircle
 10
175.352229076
 20
665.549877756
 30
0.0
 40
0.9968840760978775
100
AcDbArc
 50
80.1752483725
 51
89.4487340104
  0
LINE
  5
6C
330
5E
100
AcDbEntity
  8
$DDT_AUDIT_GENERATED_(60)
  6
Continuous
 62
     7
100
AcDbLine
 10
6.6893267193
 20
665.5986915628
 30
0.0
 11
6.6756524057
 21
657.1101247729
 31
0.0
  0
LINE
  5
6D
330
5E
100
AcDbEntity
  8
$DDT_AUDIT_GENERATED_(60)
  6
Continuous
 62
     7
100
AcDbLine
 10
176.0245076095
 20
657.1101247538
 30
0.0
 11
176.0115866941
 21
665.5986915629
 31
0.0
  0
ELLIPSE
  5
6F
330
5E
100
AcDbEntity
  8
02555038_40437__
  6
Continuous
 62
     7
100
AcDbEllipse
 10
91.350108234
 20
1631.7047886279
 30
0.0
 11
-12.34999999999998
 21
1.110223024625156E-13
 31
0.0
210
0.0
220
0.0
230
1.0
 40
0.1218693434
 41
0.0
 42
6.283185307179586
  0
ELLIPSE
  5
70
330
5E
100
AcDbEntity
  8
02555038_40437__
  6
Continuous
 62
     7
100
AcDbEllipse
 10
91.350108234
 20
1631.7047886279
 30
0.0
 11
12.85
 21
0.0
 31
0.0
210
0.0
220
0.0
230
1.0
 40
0.1218693434
 41
0.0
 42
6.283185307179586
  0
ELLIPSE
  5
71
330
5E
100
AcDbEntity
  8
02555038_40437__
  6
Continuous
 62
     7
100
AcDbEllipse
 10
91.350108234
 20
1632.8222298642
 30
0.0
 11
-13.79999999999997
 21
-1.110223024625156E-13
 31
0.0
210
0.0
220
0.0
230
1.0
 40
0.1218693434
 41
3.141592653589727
 42
4.370219594540361
  0
ARC
  5
72
330
5E
100
AcDbEntity
  8
02555038_40437__
  6
Continuous
 62
     7
100
AcDbCircle
 10
91.350108234
 20
1656.4085198308
 30
0.0
 40
23.03347271833741
100
AcDbArc
 50
262.995388141
 51
277.004611859
  0
ELLIPSE
  5
73
330
5E
100
AcDbEntity
  8
02555038_40437__
  6
Continuous
 62
     7
100
AcDbEllipse
 10
91.350108234
 20
1632.8222298642
 30
0.0
 11
13.79999999999996
 21
-1.110223024625157E-13
 31
0.0
210
0.0
220
0.0
230
1.0
 40
0.1218693434
 41
1.912965712639226
 42
3.141592653589724
  0
ELLIPSE
  5
74
330
5E
100
AcDbEntity
  8
02555038_40437__
  6
Continuous
 62
     7
100
AcDbEllipse
 10
91.350108234
 20
1623.4666555693
 30
0.0
 11
0.0
 21
-15.37893383164213
 31
0.0
210
0.0
220
0.0
230
1.0
 40
0.8973313853
 41
2.799423267745446
 42
3.48376203943414
  0
LINE
  5
75
330
5E
100
AcDbEntity
  8
02555038_40437__
  6
Continuous
 62
     7
100
AcDbLine
 10
95.9804429951
 20
1637.9540570049
 30
0.0
 11
95.9804429951
 21
1634.4065313285
 31
0.0
  0
SPLINE
  5
76
330
5E
100
AcDbEntity
  8
02555038_40437__
  6
Continuous
 62
     7
100
AcDbSpline
210
0.0
220
0.0
230
1.0
 70
     8
 71
     3
 72
    16
 73
    12
 74
     0
 42
0.0000000046577926
 43
0.0000000001
 40
0.0
 40
0.0
 40
0.0
 40
0.0
 40
0.1249999999999999
 40
0.1249999999999999
 40
0.2499999999999998
 40
0.2499999999999998
 40
0.5000000000000002
 40
0.5000000000000002
 40
0.7500000000000001
 40
0.7500000000000001
 40
1.0
 40
1.0
 40
1.0
 40
1.0
 10
95.98044299513357
 20
1634.406531328454
 30
0.0
 10
95.98044299513357
 20
1634.316470946821
 30
0.0
 10
95.94158032948107
 20
1634.230529234138
 30
0.0
 10
95.8302848987687
 20
1634.088810659448
 30
0.0
 10
95.76061199281979
 20
1634.031710562142
 30
0.0
 10
95.53538786605704
 20
1633.88229283803
 30
0.0
 10
95.37058172961515
 20
1633.81520425533
 30
0.0
 10
95.03205053192472
 20
1633.704131844843
 30
0.0
 10
94.85751473035631
 20
1633.662167575042
 30
0.0
 10
94.50939299608308
 20
1633.594253243101
 30
0.0
 10
94.33447084641602
 20
1633.568194859444
 30
0.0
 10
94.15902261505535
 20
1633.546961146704
 30
0.0
  0
SPLINE
  5
77
330
5E
100
AcDbEntity
  8
02555038_40437__
  6
Continuous
 62
     7
100
AcDbSpline
210
0.0
220
0.0
230
1.0
 70
     8
 71
     3
 72
    14
 73
    10
 74
     0
 42
0.0000000046545422
 43
0.0000000001
 40
0.0
 40
0.0
 40
0.0
 40
0.0
 40
0.5000000000000004
 40
0.5000000000000004
 40
0.7500000000000001
 40
0.7500000000000001
 40
0.8750000000000001
 40
0.8750000000000001
 40
1.0
 40
1.0
 40
1.0
 40
1.0
 10
88.5411938529799
 20
1633.546961146705
 30
0.0
 10
88.19045776633804
 20
1633.589409162585
 30
0.0
 10
87.84235570247763
 20
1633.647507576786
 30
0.0
 10
87.33350219125586
 20
1633.813676456928
 30
0.0
 10
87.16562805838483
 20
1633.882246885049
 30
0.0
 10
86.9426729021328
 20
1634.029438320454
 30
0.0
 10
86.87119831530991
 20
1634.087613970997
 30
0.0
 10
86.7594213687538
 20
1634.229120621855
 30
0.0
 10
86.71977347290142
 20
1634.316954316112
 30
0.0
 10
86.71977347290142
 20
1634.406531328454
 30
0.0
  0
LINE
  5
78
330
5E
100
AcDbEntity
  8
02555038_40437__
  6
Continuous
 62
     7
100
AcDbLine
 10
86.7197734729
 20
1634.4065313285
 30
0.0
 11
86.7197734729
 21
1637.9540570049
 31
0.0
  0
LINE
  5
79
330
5E
100
AcDbEntity
  8
02555038_40437__
  6
Continuous
 62
     7
100
AcDbLine
 10
95.9804429951
 20
1637.9540570049
 30
0.0
 11
86.7197734729
 21
1637.9540570049
 31
0.0
  0
LINE
  5
7A
330
5E
100
AcDbEntity
  8
02555038_40437__
  6
Continuous
 62
     7
100
AcDbLine
 10
78.3543553356
 20
1631.6179523663
 30
0.0
 11
78.7940612607
 21
1631.3717443413
 31
0.0
  0
LINE
  5
7B
330
5E
100
AcDbEntity
  8
02555038_40437__
  6
Continuous
 62
     7
100
AcDbLine
 10
103.9061552073
 20
1631.3717443413
 30
0.0
 11
104.3458611325
 21
1631.6179523663
 31
0.0
  0
ARC
  5
7C
330
5E
100
AcDbEntity
  8
02555038_40437__
  6
Continuous
 62
     7
100
AcDbCircle
 10
103.7666158468
 20
1632.8755952128
 30
0.0
 40
1.383131007317686
100
AcDbArc
 50
293.6917400436
 51
357.8780827249
  0
LINE
  5
7D
330
5E
100
AcDbEntity
  8
02555038_40437__
  6
Continuous
 62
     7
100
AcDbLine
 10
105.150108234
 20
1632.8222298642
 30
0.0
 11
105.150108234
 21
1642.549426512
 31
0.0
  0
LINE
  5
7E
330
5E
100
AcDbEntity
  8
02555038_40437__
  6
Continuous
 62
     7
100
AcDbLine
 10
77.550108234
 20
1642.5464890776
 30
0.0
 11
77.550108234
 21
1632.8222298642
 31
0.0
  0
ARC
  5
7F
330
5E
100
AcDbEntity
  8
02555038_40437__
  6
Continuous
 62
     7
100
AcDbCircle
 10
78.9450283143
 20
1632.8789757264
 30
0.0
 40
1.394853344852983
100
AcDbArc
 50
182.4212279818
 51
246.747110944
  0
SPLINE
  5
81
330
5E
100
AcDbEntity
  8
$DDT_AUDIT_GENERATED_(80)
  6
Continuous
 62
     7
100
AcDbSpline
210
0.0
220
0.0
230
1.0
 70
     8
 71
     2
 72
    24
 73
    21
 74
     0
 42
0.0000000001622714
 43
0.0000000001
 40
0.1944727240181798
 40
0.1944727240181798
 40
0.1944727240181798
 40
0.25
 40
0.25
 40
0.3125
 40
0.3125
 40
0.375
 40
0.375
 40
0.4375
 40
0.4375
 40
0.5
 40
0.5
 40
0.5625
 40
0.5625
 40
0.625
 40
0.625
 40
0.6875
 40
0.6875
 40
0.75
 40
0.75
 40
0.8055248530705976
 40
0.8055248530705976
 40
0.8055248530705976
 10
72.58048202927458
 20
1661.44461498928
 30
0.0
 10
73.72821537319757
 20
1661.644366826205
 30
0.0
 10
75.14643750353319
 20
1661.81720097499
 30
0.0
 10
76.74197214906776
 20
1662.01164362711
 30
0.0
 10
78.61901962211168
 20
1662.164491890327
 30
0.0
 10
80.49515247808144
 20
1662.317265676135
 30
0.0
 10
82.58080739882733
 20
1662.422551401596
 30
0.0
 10
84.66544605609388
 20
1662.527785825168
 30
0.0
 10
86.8795649078194
 20
1662.581463296511
 30
0.0
 10
89.09260489956844
 20
1662.635114612766
 30
0.0
 10
91.35010780143554
 20
1662.635121215819
 30
0.0
 10
93.60651070362569
 20
1662.635127815654
 30
0.0
 10
95.82065069518089
 20
1662.581463296671
 30
0.0
 10
98.03371181621544
 20
1662.527824926472
 30
0.0
 10
100.1194082045553
 20
1662.422551401909
 30
0.0
 10
102.2040883079088
 20
1662.317329173357
 30
0.0
 10
104.081195981892
 20
1662.164491890782
 30
0.0
 10
105.9573890090784
 20
1662.011729080296
 30
0.0
 10
107.5537781013062
 20
1661.817200975569
 30
0.0
 10
108.9713153667448
 20
1661.644466872731
 30
0.0
 10
110.1194943616917
 20
1661.444653069493
 30
0.0
  0
LINE
  5
82
330
5E
100
AcDbEntity
  8
$DDT_AUDIT_GENERATED_(80)
  6
Continuous
 62
     7
100
AcDbLine
 10
77.1085353064
 20
1611.9279367873
 30
0.0
 11
77.1085353064
 21
1642.0607844168
 31
0.0
  0
LINE
  5
83
330
5E
100
AcDbEntity
  8
$DDT_AUDIT_GENERATED_(80)
  6
Continuous
 62
     7
100
AcDbLine
 10
64.8500998521
 20
1649.2175337131
 30
0.0
 11
64.8500998521
 21
1619.0338499838
 31
0.0
  0
LINE
  5
84
330
5E
100
AcDbEntity
  8
$DDT_AUDIT_GENERATED_(80)
  6
Continuous
 62
     7
100
AcDbLine
 10
117.8501157575
 20
1649.2175337
 30
0.0
 11
117.8501111289
 21
1619.0338512978
 31
0.0
  0
LINE
  5
85
330
5E
100
AcDbEntity
  8
$DDT_AUDIT_GENERATED_(80)
  6
Continuous
 62
     7
100
AcDbLine
 10
105.5916803032
 20
1611.9279367873
 30
0.0
 11
105.5916803032
 21
1642.0607854616
 31
0.0
  0
SPLINE
  5
86
330
5E
100
AcDbEntity
  8
$DDT_AUDIT_GENERATED_(80)
  6
Continuous
 62
     7
100
AcDbSpline
210
0.0
220
0.0
230
1.0
 70
     8
 71
     3
 72
    10
 73
     6
 74
     0
 42
0.0000000006443603
 43
0.0000000001
 40
0.0
 40
0.0
 40
0.0
 40
0.0
 40
0.5
 40
0.5
 40
1.0
 40
1.0
 40
1.0
 40
1.0
 10
105.5958047656552
 20
1642.111998543824
 30
0.0
 10
109.678738122888
 20
1642.518839391758
 30
0.0
 10
112.7430945050788
 20
1643.561810604171
 30
0.0
 10
116.8295643020188
 20
1646.216356303387
 30
0.0
 10
117.8516090095797
 20
1647.776388738042
 30
0.0
 10
117.8509599939151
 20
1649.217534109274
 30
0.0
  0
SPLINE
  5
87
330
5E
100
AcDbEntity
  8
$DDT_AUDIT_GENERATED_(80)
  6
Continuous
 62
     7
100
AcDbSpline
210
0.0
220
0.0
230
1.0
 70
     8
 71
     6
 72
    38
 73
    31
 74
     0
 42
0.0000000006571446
 43
0.0000000001
 40
0.0
 40
0.0
 40
0.0
 40
0.0
 40
0.0
 40
0.0
 40
0.0
 40
0.04356642198977
 40
0.08713284397953
 40
0.130699265969
 40
0.174265687959
 40
0.217832109949
 40
0.239615320944
 40
0.261398531939
 40
0.283181742933
 40
0.304964953928
 40
0.326748164923
 40
0.348531375918
 40
0.403313993431
 40
0.458096610944
 40
0.512879228457
 40
0.56766184597
 40
0.622444463482
 40
0.677227080995
 40
0.732009698508
 40
0.786792316021
 40
0.813443276518
 40
0.840094237016
 40
0.89339615801
 40
0.946698079005
 40
0.973349039503
 40
1.0
 40
1.0
 40
1.0
 40
1.0
 40
1.0
 40
1.0
 40
1.0
 10
77.10252210850491
 20
1642.112202380327
 30
0.0
 10
76.93048822661183
 20
1642.129365262368
 30
0.0
 10
76.57750185411332
 20
1642.1666699813
 30
0.0
 10
76.05728039716625
 20
1642.228056557927
 30
0.0
 10
75.3822800037757
 20
1642.320682466593
 30
0.0
 10
74.56943618072145
 20
1642.45414829946
 30
0.0
 10
73.71794817320095
 20
1642.624528904784
 30
0.0
 10
72.97873780912091
 20
1642.797937576898
 30
0.0
 10
72.34142086343915
 20
1642.96817230878
 30
0.0
 10
71.79666975239316
 20
1643.130034163156
 30
0.0
 10
71.33635929626136
 20
1643.279244650332
 30
0.0
 10
70.9534782808963
 20
1643.41236349536
 30
0.0
 10
70.48856419834677
 20
1643.585380952196
 30
0.0
 10
69.95284165866241
 20
1643.8027165904
 30
0.0
 10
69.360243985964
 20
1644.069261842546
 30
0.0
 10
68.72736084785872
 20
1644.389933567384
 30
0.0
 10
68.07344233407315
 20
1644.769077741974
 30
0.0
 10
67.42029084018601
 20
1645.209827841238
 30
0.0
 10
66.84068638555851
 20
1645.666220432548
 30
0.0
 10
66.33439429742535
 20
1646.13475005796
 30
0.0
 10
65.93828419251251
 20
1646.571266307208
 30
0.0
 10
65.63353555406995
 20
1646.97125669678
 30
0.0
 10
65.37828959081077
 20
1647.371306629084
 30
0.0
 10
65.17180852688296
 20
1647.770131427602
 30
0.0
 10
65.02917501675566
 20
1648.127106520042
 30
0.0
 10
64.93577340789096
 20
1648.441505192358
 30
0.0
 10
64.8826913844927
 20
1648.715051745082
 30
0.0
 10
64.8582356544088
 20
1648.94785852764
 30
0.0
 10
64.8512626350693
 20
1649.102196181106
 30
0.0
 10
64.8500998581903
 20
1649.179127427668
 30
0.0
 10
64.84925570103871
 20
1649.217534085227
 30
0.0
  0
SPLINE
  5
88
330
5E
100
AcDbEntity
  8
$DDT_AUDIT_GENERATED_(80)
  6
Continuous
 62
     7
100
AcDbSpline
210
0.0
220
0.0
230
1.0
 70
     8
 71
     3
 72
    22
 73
    18
 74
     0
 42
0.0000000001835275
 43
0.0000000001
 40
0.0
 40
0.0
 40
0.0
 40
0.0
 40
0.125
 40
0.125
 40
0.25
 40
0.25
 40
0.375
 40
0.375
 40
0.5
 40
0.5
 40
0.625
 40
0.625
 40
0.75
 40
0.75
 40
0.875
 40
0.875
 40
1.0
 40
1.0
 40
1.0
 40
1.0
 10
117.8509599939107
 20
1658.06643700881
 30
0.0
 10
117.8515831372842
 20
1658.489583975019
 30
0.0
 10
117.1616505719617
 20
1658.912167699474
 30
0.0
 10
114.5063453078875
 20
1659.693302339202
 30
0.0
 10
112.5420171894465
 20
1660.051545961044
 30
0.0
 10
107.6360626231926
 20
1660.649393316166
 30
0.0
 10
104.6963661469029
 20
1660.888761860074
 30
0.0
 10
98.2865895627179
 20
1661.212312380747
 30
0.0
 10
94.81903102042412
 20
1661.296367074782
 30
0.0
 10
87.88118463418348
 20
1661.296367072777
 30
0.0
 10
84.4136260951611
 20
1661.212312376738
 30
0.0
 10
78.00384952356865
 20
1660.888761852361
 30
0.0
 10
75.06415305659509
 20
1660.649393306754
 30
0.0
 10
70.15819851360936
 20
1660.051545948797
 30
0.0
 10
68.1938704091111
 20
1659.693302325819
 30
0.0
 10
65.53856517543855
 20
1658.912167684556
 30
0.0
 10
64.84863262656296
 20
1658.489583959703
 30
0.0
 10
64.84925603125251
 20
1658.066436994016
 30
0.0
  0
LINE
  5
89
330
5E
100
AcDbEntity
  8
$DDT_AUDIT_GENERATED_(80)
  6
Continuous
 62
     7
100
AcDbLine
 10
117.8501111289
 20
1658.0664370175
 30
0.0
 11
117.8501111289
 21
1649.2175341158
 31
0.0
  0
SPLINE
  5
8A
330
5E
100
AcDbEntity
  8
$DDT_AUDIT_GENERATED_(80)
  6
Continuous
 62
     7
100
AcDbSpline
210
0.0
220
0.0
230
1.0
 70
     8
 71
     3
 72
    22
 73
    18
 74
     0
 42
0.0000000001835302
 43
0.0000000001
 40
0.0
 40
0.0
 40
0.0
 40
0.0
 40
0.1250000000000001
 40
0.1250000000000001
 40
0.2500000000000001
 40
0.2500000000000001
 40
0.3750000000000002
 40
0.3750000000000002
 40
0.5000000000000002
 40
0.5000000000000002
 40
0.6250000000000002
 40
0.6250000000000002
 40
0.7500000000000002
 40
0.7500000000000002
 40
0.8750000000000001
 40
0.8750000000000001
 40
1.0
 40
1.0
 40
1.0
 40
1.0
 10
64.84925570103871
 20
1649.217534085227
 30
0.0
 10
64.84863264142534
 20
1649.640289109886
 30
0.0
 10
65.53856520530498
 20
1650.062872834427
 30
0.0
 10
68.19387046699943
 20
1650.844007474377
 30
0.0
 10
70.15819858450409
 20
1651.202251096355
 30
0.0
 10
75.06415314946905
 20
1651.800098451766
 30
0.0
 10
78.00384962540593
 20
1652.039466995828
 30
0.0
 10
84.41362620942554
 20
1652.363017516794
 30
0.0
 10
87.8811847519057
 20
1652.447072210968
 30
0.0
 10
94.81903113891592
 20
1652.447072209205
 30
0.0
 10
98.28658967852002
 20
1652.363017513268
 30
0.0
 10
104.6963662514686
 20
1652.039466989045
 30
0.0
 10
107.6360627192149
 20
1651.80009844349
 30
0.0
 10
112.5420172637232
 20
1651.202251085585
 30
0.0
 10
114.5063453689698
 20
1650.844007462609
 30
0.0
 10
117.1616506039359
 20
1650.06287282131
 30
0.0
 10
117.8515831533559
 20
1649.640289096418
 30
0.0
 10
117.8509599939151
 20
1649.217534109274
 30
0.0
  0
LINE
  5
8B
330
5E
100
AcDbEntity
  8
$DDT_AUDIT_GENERATED_(80)
  6
Continuous
 62
     7
100
AcDbLine
 10
64.84841155
 20
1658.0664369991
 30
0.0
 11
64.84841155
 21
1649.2175340918
 31
0.0
  0
ARC
  5
8C
330
5E
100
AcDbEntity
  8
$DDT_AUDIT_GENERATED_(80)
  6
Continuous
 62
     7
100
AcDbCircle
 10
3608.9821911262
 20
1597.9715844036
 30
0.0
 40
3491.225108433724
100
AcDbArc
 50
179.6527057348
 51
179.6673132189
  0
ARC
  5
8D
330
5E
100
AcDbEntity
  8
$DDT_AUDIT_GENERATED_(80)
  6
Continuous
 62
     7
100
AcDbCircle
 10
3608.9821911262
 20
1597.9715844036
 30
0.0
 40
3491.225108433724
100
AcDbArc
 50
180.0113936008
 51
180.4212215045
  0
SPLINE
  5
8E
330
5E
100
AcDbEntity
  8
$DDT_AUDIT_GENERATED_(80)
  6
Continuous
 62
     7
100
AcDbSpline
210
0.0
220
0.0
230
1.0
 70
     8
 71
     6
 72
    36
 73
    29
 74
     0
 42
0.0000000006413732
 43
0.0000000001
 40
0.0
 40
0.0
 40
0.0
 40
0.0
 40
0.0
 40
0.0
 40
0.0
 40
0.0435664256786701
 40
0.0871328513573499
 40
0.130699277036
 40
0.174265702715
 40
0.217832128393
 40
0.239615341233
 40
0.261398554072
 40
0.2831817669109999
 40
0.304964979751
 40
0.32674819259
 40
0.348531405429
 40
0.4033140204610001
 40
0.458096635492
 40
0.512879250523
 40
0.567661865554
 40
0.622444480585
 40
0.6772270956169999
 40
0.732009710648
 40
0.7867923256789999
 40
0.813443284969
 40
0.840094244259
 40
0.89339616284
 40
0.9460402271912536
 40
0.9460402271912536
 40
0.9460402271912536
 40
0.9460402271912536
 40
0.9460402271912536
 40
0.9460402271912536
 40
0.9460402271912536
 10
105.5916779888505
 20
1611.927936552784
 30
0.0
 10
105.7697250046989
 20
1611.945681307792
 30
0.0
 10
106.1227112526776
 20
1611.982986030432
 30
0.0
 10
106.6429325328026
 20
1612.044372612928
 30
0.0
 10
107.3179327098045
 20
1612.136998529804
 30
0.0
 10
108.1307762928703
 20
1612.27046437301
 30
0.0
 10
108.9822640755716
 20
1612.440844989294
 30
0.0
 10
109.7214742649549
 20
1612.614253670904
 30
0.0
 10
110.3587910756008
 20
1612.784488411132
 30
0.0
 10
110.9035420827747
 20
1612.946350272998
 30
0.0
 10
111.3638524594708
 20
1613.095560766984
 30
0.0
 10
111.7467334145207
 20
1613.228679618172
 30
0.0
 10
112.2116474105411
 20
1613.401697075788
 30
0.0
 10
112.7473698465533
 20
1613.619032709046
 30
0.0
 10
113.3399674090269
 20
1613.885577950574
 30
0.0
 10
113.9728504415074
 20
1614.206249660314
 30
0.0
 10
114.6267688646642
 20
1614.58539381849
 30
0.0
 10
115.2799202907107
 20
1615.026143905988
 30
0.0
 10
115.8595247085532
 20
1615.482536500394
 30
0.0
 10
116.365816781727
 20
1615.951066147218
 30
0.0
 10
116.7619268843527
 20
1616.3875824349
 30
0.0
 10
117.0666755232212
 20
1616.787572875304
 30
0.0
 10
117.3219214844824
 20
1617.187622871842
 30
0.0
 10
117.5278984629298
 20
1617.585474103495
 30
0.0
 10
117.654507158046
 20
1617.902056239598
 30
0.0
 10
117.7279210302387
 20
1618.136993342147
 30
0.0
 10
117.774588264205
 20
1618.331890818538
 30
0.0
 10
117.8026392718306
 20
1618.487003173956
 30
0.0
 10
117.8142978171478
 20
1618.563909029617
 30
0.0
  0
ARC
  5
8F
330
5E
100
AcDbEntity
  8
$DDT_AUDIT_GENERATED_(80)
  6
Continuous
 62
     7
100
AcDbCircle
 10
91.3501083427
 20
1817.8328165707
 30
0.0
 40
206.3968069549329
100
AcDbArc
 50
266.0433936397
 51
273.9566054169
  0
SPLINE
  5
90
330
5E
100
AcDbEntity
  8
$DDT_AUDIT_GENERATED_(80)
  6
Continuous
 62
     7
100
AcDbSpline
210
0.0
220
0.0
230
1.0
 70
     8
 71
     5
 72
    12
 73
     6
 74
     0
 42
0.0000000002377342
 43
0.0000000001
 40
0.0
 40
0.0
 40
0.0
 40
0.0
 40
0.0
 40
0.0
 40
1.0
 40
1.0
 40
1.0
 40
1.0
 40
1.0
 40
1.0
 10
112.1429983726929
 20
1572.305368535892
 30
0.0
 10
112.1435342361884
 20
1586.818847251382
 30
0.0
 10
112.1432090361402
 20
1601.332325998664
 30
0.0
 10
105.5916803031651
 20
1608.902915381767
 30
0.0
 10
105.5916803031659
 20
1610.415426084515
 30
0.0
 10
105.5916779888505
 20
1611.927936552784
 30
0.0
  0
SPLINE
  5
91
330
5E
100
AcDbEntity
  8
$DDT_AUDIT_GENERATED_(80)
  6
Continuous
 62
     7
100
AcDbSpline
210
0.0
220
0.0
230
1.0
 70
     8
 71
     3
 72
    26
 73
    22
 74
     0
 42
0.000000000655474
 43
0.0000000001
 40
0.0
 40
0.0
 40
0.0
 40
0.0
 40
0.125
 40
0.25
 40
0.5
 40
0.5625
 40
0.59375
 40
0.6015625
 40
0.609375
 40
0.6171875
 40
0.625
 40
0.75
 40
0.875
 40
0.9375
 40
0.96875
 40
0.9765625
 40
0.9794921875
 40
0.98046875
 40
0.9814453125
 40
0.984375
 40
1.0
 40
1.0
 40
1.0
 40
1.0
 10
77.1085353064261
 20
1611.92793678727
 30
0.0
 10
76.47665464586305
 20
1611.990912077796
 30
0.0
 10
75.21556096150366
 20
1612.149645023975
 30
0.0
 10
72.72041475468676
 20
1612.628175275323
 30
0.0
 10
70.58993680042386
 20
1613.296238774756
 30
0.0
 10
69.02007621756766
 20
1614.059135016535
 30
0.0
 10
68.56901978986835
 20
1614.308052716216
 30
0.0
 10
68.36363530529295
 20
1614.427693107816
 30
0.0
 10
68.2615191641225
 20
1614.488476007924
 30
0.0
 10
68.15999614416016
 20
1614.550233256762
 30
0.0
 10
67.55451887218031
 20
1614.926692708684
 30
0.0
 10
66.50311679683706
 20
1615.710147483363
 30
0.0
 10
65.46685904898031
 20
1616.928137055572
 30
0.0
 10
65.0143458270124
 20
1617.944403091177
 30
0.0
 10
64.90094616791475
 20
1618.445564125714
 30
0.0
 10
64.87300128304905
 20
1618.655531350265
 30
0.0
 10
64.8666905794045
 20
1618.714291211755
 30
0.0
 10
64.86428849843
 20
1618.73879670917
 30
0.0
 10
64.86200043092735
 20
1618.763312870688
 30
0.0
 10
64.8537628609576
 20
1618.861459255203
 30
0.0
 10
64.85009984621526
 20
1618.955018777234
 30
0.0
 10
64.85009985209886
 20
1619.033849982563
 30
0.0
  0
SPLINE
  5
92
330
5E
100
AcDbEntity
  8
$DDT_AUDIT_GENERATED_(80)
  6
Continuous
 62
     7
100
AcDbSpline
210
0.0
220
0.0
230
1.0
 70
     8
 71
     5
 72
    15
 73
     9
 74
     0
 42
0.0000000002447166
 43
0.0000000001
 40
0.0
 40
0.0
 40
0.0
 40
0.0
 40
0.0
 40
0.0
 40
0.125
 40
0.25
 40
0.5
 40
1.0
 40
1.0
 40
1.0
 40
1.0
 40
1.0
 40
1.0
 10
70.55827392006861
 20
1572.305368436641
 30
0.0
 10
70.55852372074045
 20
1574.11954803337
 30
0.0
 10
70.5594806194014
 20
1577.747907168276
 30
0.0
 10
70.66479181889534
 20
1584.89614512948
 30
0.0
 10
71.79612772027626
 20
1598.013159806172
 30
0.0
 10
74.96534386430045
 20
1606.726035117597
 30
0.0
 10
77.10853530643439
 20
1610.037319047415
 30
0.0
 10
77.10853530642994
 20
1611.171689701929
 30
0.0
 10
77.1085353064261
 20
1611.92793678727
 30
0.0
  0
LINE
  5
93
330
5E
100
AcDbEntity
  8
$DDT_AUDIT_GENERATED_(80)
  6
Continuous
 62
     7
100
AcDbLine
 10
117.8510751948
 20
1390.6101247538
 30
0.0
 11
64.8489863624
 21
1390.6101247538
 31
0.0
  0
LINE
  5
94
330
5E
100
AcDbEntity
  8
$DDT_AUDIT_GENERATED_(80)
  6
Continuous
 62
     7
100
AcDbLine
 10
117.8515353434
 20
1460.284906584
 30
0.0
 11
117.8515353434
 21
1390.6101247538
 31
0.0
  0
LINE
  5
95
330
5E
100
AcDbEntity
  8
$DDT_AUDIT_GENERATED_(80)
  6
Continuous
 62
     7
100
AcDbLine
 10
64.84944634
 20
1390.6101247538
 30
0.0
 11
64.84944634
 21
1460.284906584
 31
0.0
  0
SPLINE
  5
96
330
5E
100
AcDbEntity
  8
$DDT_AUDIT_GENERATED_(80)
  6
Continuous
 62
     7
100
AcDbSpline
210
0.0
220
0.0
230
1.0
 70
     8
 71
     3
 72
    38
 73
    34
 74
     0
 42
0.0000000000475275
 43
0.0000000001
 40
0.0
 40
0.0
 40
0.0
 40
0.0
 40
0.0591718765886082
 40
0.1209149573369441
 40
0.1527463462199108
 40
0.1850477551576866
 40
0.2177384409225668
 40
0.2507560552607205
 40
0.2839773492385508
 40
0.3171931574696008
 40
0.3501688561710968
 40
0.3826539144326754
 40
0.4142808994862295
 40
0.4445568109795052
 40
0.4590828103415553
 40
0.4731431532068254
 40
0.4867622963347981
 40
0.5000224588889336
 40
0.513112238375734
 40
0.5263034325222278
 40
0.5398303922737244
 40
0.55382932657805
 40
0.5833551677753757
 40
0.614861150075855
 40
0.6478247511859763
 40
0.6816048586311141
 40
0.7156221931195276
 40
0.7494408016223127
 40
0.7827775876579735
 40
0.8155320752227687
 40
0.8792752839207522
 40
0.9402183504841938
 40
1.0
 40
1.0
 40
1.0
 40
1.0
 10
70.55827392006861
 20
1572.305368436641
 30
0.0
 10
70.55823637643023
 20
1568.083399552786
 30
0.0
 10
70.55815965777614
 20
1559.456003941603
 30
0.0
 10
70.56501970423793
 20
1548.557144245209
 30
0.0
 10
70.61713099115359
 20
1539.576678154503
 30
0.0
 10
70.70194168862776
 20
1532.671605997566
 30
0.0
 10
70.85906054125836
 20
1525.689951790662
 30
0.0
 10
71.12794290332089
 20
1518.662225762768
 30
0.0
 10
71.56620201567243
 20
1511.638083496681
 30
0.0
 10
72.25852051576082
 20
1504.694161324596
 30
0.0
 10
73.32824997313556
 20
1497.938662150369
 30
0.0
 10
74.94615711163215
 20
1491.52131149188
 30
0.0
 10
77.34232933372687
 20
1485.673159106477
 30
0.0
 10
80.25965791463655
 20
1481.478037957595
 30
0.0
 10
83.24193012241868
 20
1478.866085729712
 30
0.0
 10
85.74534623418623
 20
1477.389114579517
 30
0.0
 10
88.483923162207
 20
1476.455901785232
 30
0.0
 10
91.3433368546345
 20
1476.139301439526
 30
0.0
 10
94.17145110036704
 20
1476.450648076822
 30
0.0
 10
96.8398064656121
 20
1477.342674030898
 30
0.0
 10
99.27359101355037
 20
1478.741243757684
 30
0.0
 10
102.2105433429862
 20
1481.227462570498
 30
0.0
 10
105.1514051035812
 20
1485.29401664259
 30
0.0
 10
107.6144540775447
 20
1491.078831813696
 30
0.0
 10
109.3001723294122
 20
1497.552399123218
 30
0.0
 10
110.4143933859562
 20
1504.442503915761
 30
0.0
 10
111.1288468384956
 20
1511.538211670094
 30
0.0
 10
111.5752483613125
 20
1518.683687007778
 30
0.0
 10
111.8455828179824
 20
1525.781385895684
 30
0.0
 10
112.0511227003381
 20
1535.030408151781
 30
0.0
 10
112.1340064630035
 20
1546.264257033523
 30
0.0
 10
112.143427114216
 20
1559.425959195404
 30
0.0
 10
112.1431403669965
 20
1568.039855058705
 30
0.0
 10
112.1429983726929
 20
1572.305368535892
 30
0.0
  0
SPLINE
  5
97
330
5E
100
AcDbEntity
  8
$DDT_AUDIT_GENERATED_(80)
  6
Continuous
 62
     7
100
AcDbSpline
210
0.0
220
0.0
230
1.0
 70
     8
 71
     3
 72
     8
 73
     4
 74
     0
 42
0.0000000011220392
 43
0.0000000001
 40
0.0
 40
0.0
 40
0.0
 40
0.0
 40
0.0694908259112036
 40
0.0694908259112036
 40
0.0694908259112036
 40
0.0694908259112036
 10
77.10853530642657
 20
1642.060784416843
 30
0.0
 10
77.14376874277185
 20
1641.932473990053
 30
0.0
 10
77.28803478227495
 20
1641.794290062797
 30
0.0
 10
77.53707618682418
 20
1641.652659380861
 30
0.0
  0
SPLINE
  5
98
330
5E
100
AcDbEntity
  8
$DDT_AUDIT_GENERATED_(80)
  6
Continuous
 62
     7
100
AcDbSpline
210
0.0
220
0.0
230
1.0
 70
     8
 71
     3
 72
     8
 73
     4
 74
     0
 42
0.0000000011277828
 43
0.0000000001
 40
0.9300687497812221
 40
0.9300687497812221
 40
0.9300687497812221
 40
0.9300687497812221
 40
1.0
 40
1.0
 40
1.0
 40
1.0
 10
105.1631359533673
 20
1641.651895277723
 30
0.0
 10
105.4130934022039
 20
1641.79370302715
 30
0.0
 10
105.556221173597
 20
1641.931655437979
 30
0.0
 10
105.5916808798125
 20
1642.060783476423
 30
0.0
  0
SPLINE
  5
99
330
5E
100
AcDbEntity
  8
$DDT_AUDIT_GENERATED_(80)
  6
Continuous
 62
     7
100
AcDbSpline
210
0.0
220
0.0
230
1.0
 70
     8
 71
     3
 72
    30
 73
    26
 74
     0
 42
0.0000000003408734
 43
0.0000000001
 40
0.0016087705303404
 40
0.0016087705303404
 40
0.0016087705303404
 40
0.0016087705303404
 40
0.0624999999999999
 40
0.0624999999999999
 40
0.1249999999999998
 40
0.1249999999999998
 40
0.1874999999999997
 40
0.1874999999999997
 40
0.2499999999999996
 40
0.2499999999999996
 40
0.3749999999999997
 40
0.3749999999999997
 40
0.4999999999999999
 40
0.4999999999999999
 40
0.5624999999999999
 40
0.5624999999999999
 40
0.6249999999999999
 40
0.6249999999999999
 40
0.7500000000000012
 40
0.7500000000000012
 40
0.8125000000000019
 40
0.8125000000000019
 40
0.8750000000000024
 40
0.8750000000000024
 40
0.9983917080109953
 40
0.9983917080109953
 40
0.9983917080109953
 40
0.9983917080109953
 10
77.1021664785686
 20
1642.121104638374
 30
0.0
 10
77.10005254411347
 20
1642.233376540792
 30
0.0
 10
77.18771010754962
 20
1642.344000711111
 30
0.0
 10
77.53787613645825
 20
1642.565096584693
 30
0.0
 10
77.8097260761285
 20
1642.6766446487
 30
0.0
 10
78.51885565698521
 20
1642.888443696692
 30
0.0
 10
78.95453807183588
 20
1642.989149274646
 30
0.0
 10
79.98862133970526
 20
1643.180141237171
 30
0.0
 10
80.58919743785144
 20
1643.270229515545
 30
0.0
 10
82.5600735504237
 20
1643.512788004776
 30
0.0
 10
84.15340065097008
 20
1643.64371753717
 30
0.0
 10
87.59202026798116
 20
1643.818957571194
 30
0.0
 10
89.47047719742496
 20
1643.865136029032
 30
0.0
 10
92.27156674245431
 20
1643.865430479196
 30
0.0
 10
93.21905257039998
 20
1643.85403317017
 30
0.0
 10
95.04896497466146
 20
1643.80941675094
 30
0.0
 10
95.94048439318298
 20
1643.776356466345
 30
0.0
 10
98.54329904815732
 20
1643.644262224747
 30
0.0
 10
100.1172196304876
 20
1643.515342325854
 30
0.0
 10
102.1102007028029
 20
1643.270462530099
 30
0.0
 10
102.6993634938665
 20
1643.182053129917
 30
0.0
 10
103.7317327134313
 20
1642.992063687602
 30
0.0
 10
104.1781091539413
 20
1642.889255266468
 30
0.0
 10
105.2338746666361
 20
1642.574397926927
 30
0.0
 10
105.6000784504677
 20
1642.349050261403
 30
0.0
 10
105.5961472066621
 20
1642.120920294541
 30
0.0
  0
LINE
  5
9A
330
5E
100
AcDbEntity
  8
$DDT_AUDIT_GENERATED_(80)
  6
Continuous
 62
     7
100
AcDbLine
 10
105.5999219431
 20
1642.112442842
 30
0.0
 11
105.5916826097
 21
1642.0607897762
 31
0.0
  0
LINE
  5
9B
330
5E
100
AcDbEntity
  8
$DDT_AUDIT_GENERATED_(80)
  6
Continuous
 62
     7
100
AcDbLine
 10
77.1002945245
 20
1642.1124427676
 30
0.0
 11
77.1085353064
 21
1642.0607844169
 31
0.0
  0
ARC
  5
9C
330
5E
100
AcDbEntity
  8
$DDT_AUDIT_GENERATED_(80)
  6
Continuous
 62
     7
100
AcDbCircle
 10
108.8085253628
 20
1647.1178320375
 30
0.0
 40
14.38973756732722
100
AcDbArc
 50
52.3306727568
 51
84.9047568779
  0
ARC
  5
9D
330
5E
100
AcDbEntity
  8
$DDT_AUDIT_GENERATED_(80)
  6
Continuous
 62
     7
100
AcDbCircle
 10
73.8113963963
 20
1647.2741245333
 30
0.0
 40
14.2169921849955
100
AcDbArc
 50
95.2920165659
 51
127.7981057465
  0
ARC
  5
9E
330
5E
100
AcDbEntity
  8
$DDT_AUDIT_GENERATED_(80)
  6
Continuous
 62
     7
100
AcDbCircle
 10
74.4583500377
 20
1650.7443161448
 30
0.0
 40
10.86413828096716
100
AcDbArc
 50
99.775681146
 51
100.3840653046
  0
LINE
  5
9F
330
5E
100
AcDbEntity
  8
$DDT_AUDIT_GENERATED_(80)
  6
Continuous
 62
     7
100
AcDbLine
 10
117.8505131909
 20
1623.299574938
 30
0.0
 11
117.8502882792
 21
1620.0883586941
 31
0.0
  0
ARC
  5
A0
330
5E
100
AcDbEntity
  8
$DDT_AUDIT_GENERATED_(80)
  6
Continuous
 62
     7
100
AcDbCircle
 10
3054.0035542101
 20
1599.0604922302
 30
0.0
 40
2936.185770199232
100
AcDbArc
 50
179.626692868
 51
180.0348697972
  0
LINE
  5
A1
330
5E
100
AcDbEntity
  8
$DDT_AUDIT_GENERATED_(80)
  6
Continuous
 62
     7
100
AcDbLine
 10
117.8183163651
 20
1597.1882787539
 30
0.0
 11
117.8183277706
 21
1597.2735509058
 31
0.0
  0
SPLINE
  5
A2
330
5E
100
AcDbEntity
  8
$DDT_AUDIT_GENERATED_(80)
  6
Continuous
 62
     7
100
AcDbSpline
210
0.0
220
0.0
230
1.0
 70
     8
 71
     3
 72
    31
 73
    27
 74
     0
 42
0.0000000011560905
 43
0.0000000001
 40
0.0
 40
0.0
 40
0.0
 40
0.0
 40
0.0594241894521603
 40
0.1122760539146602
 40
0.1583543580280741
 40
0.1976297901708768
 40
0.2338011365567558
 40
0.2686132205895331
 40
0.3021203014154049
 40
0.3348179324751266
 40
0.3713365989749268
 40
0.4107871002382651
 40
0.4470393158745056
 40
0.4789155835970201
 40
0.5074411497729251
 40
0.5453307783607403
 40
0.582257533157959
 40
0.6191979131638536
 40
0.6572189344717477
 40
0.6969798110351597
 40
0.7255882888654551
 40
0.7578669641619175
 40
0.7754090947720546
 40
0.793895785170924
 40
0.813275919434465
 40
0.8224685259396493
 40
0.8224685259396493
 40
0.8224685259396493
 40
0.8224685259396493
 10
117.881035872071
 20
1619.266655836312
 30
0.0
 10
117.8808891557177
 20
1619.494646510942
 30
0.0
 10
117.8806337887336
 20
1619.855890308302
 30
0.0
 10
117.8794663860959
 20
1620.381602538416
 30
0.0
 10
117.8781204864101
 20
1620.81186773937
 30
0.0
 10
117.8767155917155
 20
1621.173861582588
 30
0.0
 10
117.8752240088925
 20
1621.505363531835
 30
0.0
 10
117.8735975161129
 20
1621.82909508235
 30
0.0
 10
117.8718226432559
 20
1622.154586939758
 30
0.0
 10
117.8698735967237
 20
1622.491552408076
 30
0.0
 10
117.8677304708361
 20
1622.847223540914
 30
0.0
 10
117.8654789078674
 20
1623.21315111378
 30
0.0
 10
117.8633518732813
 20
1623.560017147798
 30
0.0
 10
117.8614878860423
 20
1623.871030221479
 30
0.0
 10
117.8596556092456
 20
1624.188162792308
 30
0.0
 10
117.8578869648373
 20
1624.512059953191
 30
0.0
 10
117.8561784591403
 20
1624.853324388501
 30
0.0
 10
117.8546922633397
 20
1625.185625907798
 30
0.0
 10
117.8534148892509
 20
1625.513011257284
 30
0.0
 10
117.852437200716
 20
1625.817818950381
 30
0.0
 10
117.8518714590297
 20
1626.025844636983
 30
0.0
 10
117.8515419111655
 20
1626.153911937865
 30
0.0
 10
117.8512965715667
 20
1626.247819012229
 30
0.0
 10
117.851116575622
 20
1626.311504643937
 30
0.0
 10
117.8509643548601
 20
1626.369148330114
 30
0.0
 10
117.8508937559018
 20
1626.380499364248
 30
0.0
 10
117.8508731168098
 20
1626.380804068584
 30
0.0
  0
ARC
  5
A3
330
5E
100
AcDbEntity
  8
$DDT_AUDIT_GENERATED_(80)
  6
Continuous
 62
     7
100
AcDbCircle
 10
33.9262039658
 20
1618.5178718141
 30
0.0
 40
83.91525238183435
100
AcDbArc
 50
358.7394666717
 51
0.1910436125
  0
LINE
  5
A4
330
5E
100
AcDbEntity
  8
$DDT_AUDIT_GENERATED_(80)
  6
Continuous
 62
     7
100
AcDbLine
 10
64.8790885447
 20
1616.668775968
 30
0.0
 11
64.8796314893
 21
1616.6417108503
 31
0.0
  0
ARC
  5
A5
330
5E
100
AcDbEntity
  8
$DDT_AUDIT_GENERATED_(80)
  6
Continuous
 62
     7
100
AcDbCircle
 10
103.0394847041
 20
1618.2735929285
 30
0.0
 40
38.19412615207141
100
AcDbArc
 50
179.0952985734
 51
182.4081272426
  0
ARC
  5
A6
330
5E
100
AcDbEntity
  8
$DDT_AUDIT_GENERATED_(80)
  6
Continuous
 62
     7
100
AcDbCircle
 10
5623.2929439193
 20
1576.7040351489
 30
0.0
 40
5558.436944500861
100
AcDbArc
 50
179.820656506
 51
179.8709369854
  0
SPLINE
  5
A7
330
5E
100
AcDbEntity
  8
$DDT_AUDIT_GENERATED_(80)
  6
Continuous
 62
     7
100
AcDbSpline
210
0.0
220
0.0
230
1.0
 70
     8
 71
     3
 72
    32
 73
    28
 74
     0
 42
0.0000000012361721
 43
0.0000000001
 40
0.0
 40
0.0
 40
0.0
 40
0.0
 40
0.0547931214848085
 40
0.1030585891021115
 40
0.1447941939524053
 40
0.1799938633741311
 40
0.208652085182894
 40
0.2344793462545361
 40
0.2568485940771936
 40
0.2794467763094122
 40
0.302272532110277
 40
0.3253242087478107
 40
0.3486047021922679
 40
0.3723995290784098
 40
0.4413259562606638
 40
0.5157182271058973
 40
0.5601505396678278
 40
0.6019031901621168
 40
0.6392946854495825
 40
0.6724274144661538
 40
0.7063603619862445
 40
0.7441406695230279
 40
0.7832598343262149
 40
0.8275118228572902
 40
0.8784941885892293
 40
0.9360537267860701
 40
1.0
 40
1.0
 40
1.0
 40
1.0
 10
64.85004882291729
 20
1627.348189814544
 30
0.0
 10
64.84999788715965
 20
1627.209296868827
 30
0.0
 10
64.8499059618704
 20
1626.9893779102
 30
0.0
 10
64.84955347296483
 20
1626.645376372145
 30
0.0
 10
64.8490833461843
 20
1626.351422848551
 30
0.0
 10
64.84854377167787
 20
1626.09884568509
 30
0.0
 10
64.84797836360032
 20
1625.881771346025
 30
0.0
 10
64.84740867758585
 20
1625.692388993927
 30
0.0
 10
64.84680897675254
 20
1625.514338295221
 30
0.0
 10
64.84616840194812
 20
1625.341259878212
 30
0.0
 10
64.84545241777784
 20
1625.163594632409
 30
0.0
 10
64.84465924469552
 20
1624.981299916105
 30
0.0
 10
64.84378343716111
 20
1624.793380977453
 30
0.0
 10
64.84222086854541
 20
1624.477916053904
 30
0.0
 10
64.83963718452512
 20
1624.006762306971
 30
0.0
 10
64.83638549727219
 20
1623.467609972432
 30
0.0
 10
64.83355685438059
 20
1623.007613604198
 30
0.0
 10
64.83138049284123
 20
1622.649658125296
 30
0.0
 10
64.82946102337495
 20
1622.323605366361
 30
0.0
 10
64.82774539996625
 20
1622.017617998427
 30
0.0
 10
64.82619861877879
 20
1621.723886088015
 30
0.0
 10
64.82475695597026
 20
1621.425761927589
 30
0.0
 10
64.82339389765812
 20
1621.109104206315
 30
0.0
 10
64.82208044965611
 20
1620.752453313077
 30
0.0
 10
64.82085328051782
 20
1620.330581984939
 30
0.0
 10
64.81983553233789
 20
1619.822242970836
 30
0.0
 10
64.81965401525017
 20
1619.476021492771
 30
0.0
 10
64.81955371841723
 20
1619.258773916927
 30
0.0
  0
ARC
  5
A8
330
5E
100
AcDbEntity
  8
$DDT_AUDIT_GENERATED_(80)
  6
Continuous
 62
     7
100
AcDbCircle
 10
2196.5176421616
 20
1574.8024480963
 30
0.0
 40
2131.664392627405
100
AcDbArc
 50
179.8799443621
 51
180.0671175774
  0
LINE
  5
A9
330
5E
100
AcDbEntity
  8
$DDT_AUDIT_GENERATED_(80)
  6
Continuous
 62
     7
100
AcDbLine
 10
64.8580410031
 20
1579.3558951195
 30
0.0
 11
64.857929132
 21
1579.2690622747
 31
0.0
  0
LINE
  5
AA
330
5E
100
AcDbEntity
  8
$DDT_AUDIT_GENERATED_(80)
  6
Continuous
 62
     7
100
AcDbLine
 10
64.8777022363
 20
1589.249723069
 30
0.0
 11
64.8776295437
 21
1589.1984094786
 31
0.0
  0
ARC
  5
AB
330
5E
100
AcDbEntity
  8
$DDT_AUDIT_GENERATED_(80)
  6
Continuous
 62
     7
100
AcDbCircle
 10
-3275.1350302699
 20
1597.7626811892
 30
0.0
 40
3340.023581317927
100
AcDbArc
 50
359.8539659713
 51
0.3681756016
  0
LINE
  5
AC
330
5E
100
AcDbEntity
  8
$DDT_AUDIT_GENERATED_(80)
  6
Continuous
 62
     7
100
AcDbLine
 10
64.8195611885
 20
1619.3039243262
 30
0.0
 11
64.8195933447
 21
1619.2251124377
 31
0.0
  0
SPLINE
  5
AD
330
5E
100
AcDbEntity
  8
$DDT_AUDIT_GENERATED_(80)
  6
Continuous
 62
     7
100
AcDbSpline
210
0.0
220
0.0
230
1.0
 70
     8
 71
     3
 72
     8
 73
     4
 74
     0
 42
0.0000000029045537
 43
0.0000000001
 40
0.9637047819071494
 40
0.9637047819071494
 40
0.9637047819071494
 40
0.9637047819071494
 40
1.0
 40
1.0
 40
1.0
 40
1.0
 10
64.85332134924137
 20
1618.156315483398
 30
0.0
 10
64.85361282154572
 20
1618.116226101076
 30
0.0
 10
64.85392323799701
 20
1618.076535176963
 30
0.0
 10
64.85428001707413
 20
1618.031359460094
 30
0.0
  0
LINE
  5
AE
330
5E
100
AcDbEntity
  8
$DDT_AUDIT_GENERATED_(80)
  6
Continuous
 62
     7
100
AcDbLine
 10
64.8498856701
 20
1572.3053684863
 30
0.0
 11
64.8498856701
 21
1460.2711712077
 31
0.0
  0
LINE
  5
AF
330
5E
100
AcDbEntity
  8
$DDT_AUDIT_GENERATED_(80)
  6
Continuous
 62
     7
100
AcDbLine
 10
117.8513622376
 20
1460.2711712077
 30
0.0
 11
117.8513622376
 21
1572.30536853
 31
0.0
  0
ARC
  5
B1
330
5E
100
AcDbEntity
  8
$DDT_AUDIT_GENERATED_(B0)
  6
Continuous
 62
     7
100
AcDbCircle
 10
117.6504908417
 20
1390.4101247538
 30
0.0
 40
0.1999999999999988
100
AcDbArc
 50
0.0
 51
49.1308129659
  0
ARC
  5
B2
330
5E
100
AcDbEntity
  8
$DDT_AUDIT_GENERATED_(B0)
  6
Continuous
 62
     7
100
AcDbCircle
 10
65.0504908417
 20
1390.4101247538
 30
0.0
 40
0.199999999999978
100
AcDbArc
 50
137.2998882815
 51
180.0
  0
LINE
  5
B3
330
5E
100
AcDbEntity
  8
$DDT_AUDIT_GENERATED_(B0)
  6
Continuous
 62
     7
100
AcDbLine
 10
117.8504908417
 20
668.8474833807
 30
0.0
 11
117.8504908417
 21
1390.4101247538
 31
0.0
  0
LINE
  5
B4
330
5E
100
AcDbEntity
  8
$DDT_AUDIT_GENERATED_(B0)
  6
Continuous
 62
     7
100
AcDbLine
 10
64.8504908417
 20
1390.4101247538
 30
0.0
 11
64.8504908417
 21
668.8474778056
 31
0.0
  0
ENDBLK
  5
B6
330
5E
100
AcDbEntity
  8
0
100
AcDbBlockEnd
  0
BLOCK
  5
108
330
B7
100
AcDbEntity
  8
0
100
AcDbBlockBegin
  2
SE1
 70
     0
 10
0.0
 20
0.0
 30
0.0
  3
SE1
  1

  0
LINE
  5
BA
330
B7
100
AcDbEntity
  8
$DDT_AUDIT_GENERATED_(B9)
  6
Continuous
 62
     7
100
AcDbLine
 10
301.5743813553
 20
1366.3115926374
 30
0.0
 11
301.5743813553
 21
1370.9388444275
 31
0.0
  0
ARC
  5
BB
330
B7
100
AcDbEntity
  8
$DDT_AUDIT_GENERATED_(60)
  6
Continuous
 62
     7
100
AcDbCircle
 10
370.3832121848
 20
-24599.1359129339
 30
0.0
 40
25264.71967754393
100
AcDbArc
 50
89.9036375467
 51
90.0964023262
  0
ARC
  5
BC
330
B7
100
AcDbEntity
  8
$DDT_AUDIT_GENERATED_(60)
  6
Continuous
 62
     7
100
AcDbCircle
 10
285.3825085783
 20
-24715.2610732044
 30
0.0
 40
25380.84470653209
100
AcDbArc
 50
89.9040769732
 51
90.095959857
  0
LINE
  5
BD
330
B7
100
AcDbEntity
  8
$DDT_AUDIT_GENERATED_(60)
  6
Continuous
 62
     7
100
AcDbLine
 10
412.8748359931
 20
657.1101247781
 30
0.0
 11
327.8745177758
 21
657.1101247921
 31
0.0
  0
LINE
  5
BE
330
B7
100
AcDbEntity
  8
$DDT_AUDIT_GENERATED_(60)
  6
Continuous
 62
     7
100
AcDbLine
 10
242.8740085056
 20
657.1101247686
 30
0.0
 11
327.8745177758
 21
657.1101247627
 31
0.0
  0
SPLINE
  5
BF
330
B7
100
AcDbEntity
  8
$DDT_AUDIT_GENERATED_(60)
  6
Continuous
 62
     7
100
AcDbSpline
210
0.0
220
0.0
230
1.0
 70
     8
 71
     3
 72
    24
 73
    20
 74
     0
 42
0.0000000001859539
 43
0.0000000001
 40
0.0
 40
0.0
 40
0.0
 40
0.0
 40
0.0625
 40
0.0625
 40
0.1250000000000001
 40
0.1250000000000001
 40
0.1875000000000001
 40
0.1875000000000001
 40
0.2500000000000002
 40
0.2500000000000002
 40
0.3125000000000002
 40
0.3125000000000002
 40
0.3750000000000002
 40
0.3750000000000002
 40
0.4375000000000002
 40
0.4375000000000002
 40
0.5000000000000001
 40
0.5000000000000001
 40
0.5002159032718013
 40
0.5002159032718013
 40
0.5002159032718013
 40
0.5002159032718013
 10
327.8743813553044
 20
668.8477552277488
 30
0.0
 10
326.0974006616544
 20
668.8477552277488
 30
0.0
 10
324.3501118565838
 20
668.8475703213785
 30
0.0
 10
320.9124893045475
 20
668.8472672405668
 30
0.0
 10
319.2043617904131
 20
668.8471495786845
 30
0.0
 10
315.9469404730787
 20
668.8471499633475
 30
0.0
 10
314.4019786240037
 20
668.8472654175745
 30
0.0
 10
311.4780476339693
 20
668.8475691131725
 30
0.0
 10
310.0936252908041
 20
668.847755261683
 30
0.0
 10
307.6121331140394
 20
668.8477551938057
 30
0.0
 10
306.4986062618748
 20
668.8475725241634
 30
0.0
 10
304.5320502797948
 20
668.8472665106111
 30
0.0
 10
303.6962626495949
 20
668.8471501107412
 30
0.0
 10
302.3544674930358
 20
668.8471494324448
 30
0.0
 10
301.8380418189145
 20
668.8472648932441
 30
0.0
 10
301.146671718101
 20
668.847570840056
 30
0.0
 10
300.9755728295103
 20
668.8477539014214
 30
0.0
 10
300.974383402222
 20
668.847755225465
 30
0.0
 10
300.9743814009718
 20
668.8477552277922
 30
0.0
 10
300.9743814928607
 20
668.8477552278976
 30
0.0
  0
SPLINE
  5
C0
330
B7
100
AcDbEntity
  8
$DDT_AUDIT_GENERATED_(60)
  6
Continuous
 62
     7
100
AcDbSpline
210
0.0
220
0.0
230
1.0
 70
     8
 71
     3
 72
    22
 73
    18
 74
     0
 42
0.0000000001857933
 43
0.0000000001
 40
0.500215903271789
 40
0.500215903271789
 40
0.500215903271789
 40
0.500215903271789
 40
0.5625000000000003
 40
0.5625000000000003
 40
0.6250000000000002
 40
0.6250000000000002
 40
0.6875000000000002
 40
0.6875000000000002
 40
0.7500000000000002
 40
0.7500000000000002
 40
0.8125000000000002
 40
0.8125000000000002
 40
0.8750000000000001
 40
0.8750000000000001
 40
0.9375000000000001
 40
0.9375000000000001
 40
1.0
 40
1.0
 40
1.0
 40
1.0
 10
354.7743812177482
 20
668.8477552278976
 30
0.0
 10
354.7743547094775
 20
668.8477552582938
 30
0.0
 10
354.6001338688129
 20
668.8475703851798
 30
0.0
 10
353.9158261550872
 20
668.8472667424203
 30
0.0
 10
353.4084943256674
 20
668.8471506898757
 30
0.0
 10
352.0628596061664
 20
668.847148863734
 30
0.0
 10
351.2209996960038
 20
668.847265848876
 30
0.0
 10
349.2748203202128
 20
668.8475686809063
 30
0.0
 10
348.163801400209
 20
668.8477537714547
 30
0.0
 10
345.6551823128444
 20
668.8477566679422
 30
0.0
 10
344.2939443589071
 20
668.8475719628512
 30
0.0
 10
341.3818321465822
 20
668.8472686296003
 30
0.0
 10
339.8108206798011
 20
668.8471503066289
 30
0.0
 10
336.5515254169886
 20
668.8471492389956
 30
0.0
 10
334.8750360324198
 20
668.8472640984726
 30
0.0
 10
331.4295469262836
 20
668.8475673274226
 30
0.0
 10
329.6513620427318
 20
668.8477552277488
 30
0.0
 10
327.8743813553044
 20
668.8477552277488
 30
0.0
  0
ARC
  5
C1
330
B7
100
AcDbEntity
  8
$DDT_AUDIT_GENERATED_(60)
  6
Continuous
 62
     7
100
AcDbCircle
 10
411.8746450508
 20
665.5481748114
 30
0.0
 40
0.9998631414292253
100
AcDbArc
 50
359.4447282557
 51
87.0641928392
  0
ARC
  5
C2
330
B7
100
AcDbEntity
  8
$DDT_AUDIT_GENERATED_(60)
  6
Continuous
 62
     7
100
AcDbCircle
 10
243.8741125624
 20
665.5481744211
 30
0.0
 40
0.9998633148941749
100
AcDbArc
 50
92.9358203685
 51
180.5550337593
  0
LINE
  5
C3
330
B7
100
AcDbEntity
  8
$DDT_AUDIT_GENERATED_(60)
  6
Continuous
 62
     7
100
AcDbLine
 10
412.8748359891
 20
657.1101247729
 30
0.0
 11
412.8744193445
 21
665.5986915628
 31
0.0
  0
LINE
  5
C4
330
B7
100
AcDbEntity
  8
$DDT_AUDIT_GENERATED_(60)
  6
Continuous
 62
     7
100
AcDbLine
 10
242.874351096
 20
665.5986915629
 30
0.0
 11
242.8740085143
 21
657.1101247538
 31
0.0
  0
SPLINE
  5
C5
330
B7
100
AcDbEntity
  8
$DDT_AUDIT_GENERATED_(60)
  6
Continuous
 62
     7
100
AcDbSpline
210
0.0
220
0.0
230
1.0
 70
     8
 71
     3
 72
     8
 73
     4
 74
     0
 42
0.0000000001737198
 43
0.0000000001
 40
0.0
 40
0.0
 40
0.0
 40
0.0
 40
1.0
 40
1.0
 40
1.0
 40
1.0
 10
411.9352663693472
 20
666.5425827423359
 30
0.0
 10
392.8918177666654
 20
667.7109829199987
 30
0.0
 10
373.7221313040796
 20
668.4816233522517
 30
0.0
 10
354.4262069815899
 20
668.854504039095
 30
0.0
  0
SPLINE
  5
C6
330
B7
100
AcDbEntity
  8
$DDT_AUDIT_GENERATED_(60)
  6
Continuous
 62
     7
100
AcDbSpline
210
0.0
220
0.0
230
1.0
 70
     8
 71
     3
 72
     8
 73
     4
 74
     0
 42
0.0000000001737198
 43
0.0000000001
 40
0.0
 40
0.0
 40
0.0
 40
0.0
 40
1.0
 40
1.0
 40
1.0
 40
1.0
 10
301.322555729019
 20
668.854504039095
 30
0.0
 10
282.0266314065293
 20
668.4816233522517
 30
0.0
 10
262.8569449439435
 20
667.7109829199987
 30
0.0
 10
243.8134963412616
 20
666.5425827423359
 30
0.0
  0
LINE
  5
C7
330
B7
100
AcDbEntity
  8
02555038_40437__
  6
Continuous
 62
     7
100
AcDbLine
 10
610.4665897623
 20
1630.1387675652
 30
0.0
 11
635.9750258595
 21
1633.2708096907
 31
0.0
  0
LINE
  5
C8
330
B7
100
AcDbEntity
  8
02555038_40437__
  6
Continuous
 62
     7
100
AcDbLine
 10
607.1964714146
 20
1647.3354088437
 30
0.0
 11
634.9877636606
 21
1650.7477504591
 31
0.0
  0
LINE
  5
C9
330
B7
100
AcDbEntity
  8
02555038_40437__
  6
Continuous
 62
     7
100
AcDbLine
 10
609.7449219255
 20
1634.7854540764
 30
0.0
 11
608.8533895295
 21
1635.4819955229
 31
0.0
  0
LINE
  5
CA
330
B7
100
AcDbEntity
  8
02555038_40437__
  6
Continuous
 62
     7
100
AcDbLine
 10
610.2860452553
 20
1630.3783582182
 30
0.0
 11
610.180503308
 21
1631.2379283999
 31
0.0
  0
LINE
  5
CB
330
B7
100
AcDbEntity
  8
02555038_40437__
  6
Continuous
 62
     7
100
AcDbLine
 10
610.180503308
 20
1631.2379283999
 30
0.0
 11
609.7449219255
 21
1634.7854540764
 31
0.0
  0
LINE
  5
CC
330
B7
100
AcDbEntity
  8
02555038_40437__
  6
Continuous
 62
     7
100
AcDbLine
 10
635.9867032507
 20
1634.4065313285
 30
0.0
 11
610.180503308
 21
1631.2379283999
 31
0.0
  0
LINE
  5
CD
330
B7
100
AcDbEntity
  8
02555038_40437__
  6
Continuous
 62
     7
100
AcDbLine
 10
635.5511218682
 20
1637.9540570049
 30
0.0
 11
636.2476633148
 21
1638.8455894009
 31
0.0
  0
LINE
  5
CE
330
B7
100
AcDbEntity
  8
02555038_40437__
  6
Continuous
 62
     7
100
AcDbLine
 10
636.092245198
 20
1633.5469611467
 30
0.0
 11
635.9867032507
 21
1634.4065313285
 31
0.0
  0
LINE
  5
CF
330
B7
100
AcDbEntity
  8
02555038_40437__
  6
Continuous
 62
     7
100
AcDbLine
 10
635.9867032507
 20
1634.4065313285
 30
0.0
 11
635.5511218682
 21
1637.9540570049
 31
0.0
  0
LINE
  5
D0
330
B7
100
AcDbEntity
  8
02555038_40437__
  6
Continuous
 62
     7
100
AcDbLine
 10
610.3071536448
 20
1630.2064441818
 30
0.0
 11
610.4665897623
 21
1630.1387675652
 31
0.0
  0
LINE
  5
D1
330
B7
100
AcDbEntity
  8
02555038_40437__
  6
Continuous
 62
     7
100
AcDbLine
 10
635.9750258595
 20
1633.2708096907
 30
0.0
 11
636.1133535875
 21
1633.3750471104
 31
0.0
  0
LINE
  5
D2
330
B7
100
AcDbEntity
  8
02555038_40437__
  6
Continuous
 62
     7
100
AcDbLine
 10
636.2476633148
 20
1638.8455894009
 30
0.0
 11
635.6367461178
 21
1643.8211106917
 31
0.0
  0
LINE
  5
D3
330
B7
100
AcDbEntity
  8
02555038_40437__
  6
Continuous
 62
     7
100
AcDbLine
 10
608.3012920402
 20
1639.9784687373
 30
0.0
 11
608.8533895295
 21
1635.4819955229
 31
0.0
  0
SPLINE
  5
D4
330
B7
100
AcDbEntity
  8
$DDT_AUDIT_GENERATED_(80)
  6
Continuous
 62
     7
100
AcDbSpline
210
0.0
220
0.0
230
1.0
 70
     8
 71
     2
 72
    22
 73
    19
 74
     0
 42
0.0000000002182017
 43
0.0000000001
 40
0.0
 40
0.0
 40
0.0
 40
0.0625
 40
0.0625
 40
0.125
 40
0.125
 40
0.1875
 40
0.1875
 40
0.25
 40
0.25
 40
0.3125
 40
0.3125
 40
0.375
 40
0.375
 40
0.4375
 40
0.4375
 40
0.5
 40
0.5
 40
0.5000016549116326
 40
0.5000016549116326
 40
0.5000016549116326
 10
619.6924966397075
 20
1659.842685398688
 30
0.0
 10
621.9326407220395
 20
1660.117579575827
 30
0.0
 10
624.1297060335112
 20
1660.387345275371
 30
0.0
 10
626.3262411299675
 20
1660.657045872697
 30
0.0
 10
628.3963317815073
 20
1660.911221044376
 30
0.0
 10
630.465413752504
 20
1661.165272365657
 30
0.0
 10
632.3284437011989
 20
1661.394023679856
 30
0.0
 10
634.1905658623355
 20
1661.622663531759
 30
0.0
 10
635.7749461932204
 20
1661.81720097499
 30
0.0
 10
637.3585545124636
 20
1662.01164362711
 30
0.0
 10
638.6034037190151
 20
1662.164491890327
 30
0.0
 10
639.8476463557515
 20
1662.317265676135
 30
0.0
 10
640.7051297778255
 20
1662.422551401596
 30
0.0
 10
641.5621953795412
 20
1662.527785825168
 30
0.0
 10
641.9993633015417
 20
1662.581463296511
 30
0.0
 10
642.4363182074374
 20
1662.635114612766
 30
0.0
 10
642.436371984986
 20
1662.635121215819
 30
0.0
 10
642.4363719864092
 20
1662.635121215994
 30
0.0
 10
642.4363719875261
 20
1662.635121216131
 30
0.0
  0
LINE
  5
D5
330
B7
100
AcDbEntity
  8
$DDT_AUDIT_GENERATED_(80)
  6
Continuous
 62
     7
100
AcDbLine
 10
373.8661777045
 20
1629.6588431356
 30
0.0
 11
619.692516106
 21
1659.8425268585
 31
0.0
  0
LINE
  5
D6
330
B7
100
AcDbEntity
  8
$DDT_AUDIT_GENERATED_(80)
  6
Continuous
 62
     7
100
AcDbLine
 10
620.9971013301
 20
1649.2175337131
 30
0.0
 11
375.1707628765
 21
1619.0338499838
 31
0.0
  0
LINE
  5
D7
330
B7
100
AcDbEntity
  8
$DDT_AUDIT_GENERATED_(80)
  6
Continuous
 62
     7
100
AcDbLine
 10
647.299581654
 20
1652.4470722101
 30
0.0
 11
620.9971011731
 21
1649.2175341093
 31
0.0
  0
SPLINE
  5
D8
330
B7
100
AcDbEntity
  8
$DDT_AUDIT_GENERATED_(80)
  6
Continuous
 62
     7
100
AcDbSpline
210
0.0
220
0.0
230
1.0
 70
     8
 71
     5
 72
    12
 73
     6
 74
     0
 42
0.0000000000998549
 43
0.0000000001
 40
0.0
 40
0.0
 40
0.0
 40
0.0
 40
0.0
 40
0.0
 40
1.0
 40
1.0
 40
1.0
 40
1.0
 40
1.0
 40
1.0
 10
373.8661776535977
 20
1629.658843549868
 30
0.0
 10
356.3457189616771
 20
1627.507601114801
 30
0.0
 10
338.8229204414742
 20
1625.356358683944
 30
0.0
 10
318.5058933740477
 20
1613.741630007661
 30
0.0
 10
318.5058933828005
 20
1593.023500925867
 30
0.0
 10
318.5105729731079
 20
1572.305368486265
 30
0.0
  0
SPLINE
  5
D9
330
B7
100
AcDbEntity
  8
$DDT_AUDIT_GENERATED_(80)
  6
Continuous
 62
     7
100
AcDbSpline
210
0.0
220
0.0
230
1.0
 70
     8
 71
     5
 72
    12
 73
     6
 74
     0
 42
0.0000000001262754
 43
0.0000000001
 40
0.0
 40
0.0
 40
0.0
 40
0.0
 40
0.0
 40
0.0
 40
1.0
 40
1.0
 40
1.0
 40
1.0
 40
1.0
 40
1.0
 10
333.3974316436228
 20
1572.305368439002
 30
0.0
 10
333.4025073099596
 20
1588.743891949805
 30
0.0
 10
333.421696262478
 20
1605.182410834308
 30
0.0
 10
342.4552761361278
 20
1615.016892683677
 30
0.0
 10
358.8130195097076
 20
1617.025371334169
 30
0.0
 10
375.1707628766264
 20
1619.033849982563
 30
0.0
  0
LINE
  5
DA
330
B7
100
AcDbEntity
  8
$DDT_AUDIT_GENERATED_(80)
  6
Continuous
 62
     7
100
AcDbLine
 10
327.874074402
 20
1390.6101247538
 30
0.0
 11
354.3721652933
 21
1390.6101247538
 31
0.0
  0
LINE
  5
DB
330
B7
100
AcDbEntity
  8
$DDT_AUDIT_GENERATED_(80)
  6
Continuous
 62
     7
100
AcDbLine
 10
327.8740743386
 20
1390.6101247538
 30
0.0
 11
301.3733368402
 21
1390.6101247538
 31
0.0
  0
SPLINE
  5
DC
330
B7
100
AcDbEntity
  8
$DDT_AUDIT_GENERATED_(80)
  6
Continuous
 62
     7
100
AcDbSpline
210
0.0
220
0.0
230
1.0
 70
     8
 71
     3
 72
     8
 73
     4
 74
     0
 42
0.0000000000467222
 43
0.0000000001
 40
0.0763597640508162
 40
0.0763597640508162
 40
0.0763597640508162
 40
0.0763597640508162
 40
0.0904368383127575
 40
0.0904368383127575
 40
0.0904368383127575
 40
0.0904368383127575
 10
318.5039207379054
 20
1555.961941049488
 30
0.0
 10
318.5019410982377
 20
1554.957634318938
 30
0.0
 10
318.4992299182774
 20
1553.95332897013
 30
0.0
 10
318.4953836659849
 20
1552.949024578787
 30
0.0
  0
SPLINE
  5
DD
330
B7
100
AcDbEntity
  8
$DDT_AUDIT_GENERATED_(80)
  6
Continuous
 62
     7
100
AcDbSpline
210
0.0
220
0.0
230
1.0
 70
     8
 71
     3
 72
     9
 73
     5
 74
     0
 42
0.0000000000476635
 43
0.0000000001
 40
0.3435545808937563
 40
0.3435545808937563
 40
0.3435545808937563
 40
0.3435545808937563
 40
0.3504364430806726
 40
0.3618214392064164
 40
0.3618214392064164
 40
0.3618214392064164
 40
0.3618214392064164
 10
313.4655938641087
 20
1499.280680328685
 30
0.0
 10
313.3371476130121
 20
1498.814655530316
 30
0.0
 10
312.9879149606624
 20
1497.581860072833
 30
0.0
 10
312.6164942782734
 20
1496.361293125678
 30
0.0
 10
312.3767057706659
 20
1495.606543060469
 30
0.0
  0
SPLINE
  5
DE
330
B7
100
AcDbEntity
  8
$DDT_AUDIT_GENERATED_(80)
  6
Continuous
 62
     7
100
AcDbSpline
210
0.0
220
0.0
230
1.0
 70
     8
 71
     3
 72
    10
 73
     6
 74
     0
 42
0.0000000002707795
 43
0.0000000001
 40
0.4980010456237483
 40
0.4980010456237483
 40
0.4980010456237483
 40
0.4980010456237483
 40
0.5007220238613077
 40
0.5139055684796683
 40
0.5191515413567473
 40
0.5191515413567473
 40
0.5191515413567473
 40
0.5191515413567473
 10
303.5639108295422
 20
1476.253217370011
 30
0.0
 10
303.5599006851413
 20
1476.246752447235
 30
0.0
 10
303.5523048808801
 20
1476.234601351809
 30
0.0
 10
303.6680134157572
 20
1476.420918465048
 30
0.0
 10
303.8802842280306
 20
1476.769055641953
 30
0.0
 10
303.9487332959973
 20
1476.882024894781
 30
0.0
  0
SPLINE
  5
DF
330
B7
100
AcDbEntity
  8
$DDT_AUDIT_GENERATED_(80)
  6
Continuous
 62
     7
100
AcDbSpline
210
0.0
220
0.0
230
1.0
 70
     8
 71
     3
 72
     8
 73
     4
 74
     0
 42
0.0000000000551905
 43
0.0000000001
 40
0.5704498942499302
 40
0.5704498942499302
 40
0.5704498942499302
 40
0.5704498942499302
 40
0.5719028578764636
 40
0.5719028578764636
 40
0.5719028578764636
 40
0.5719028578764636
 10
307.3728231986046
 20
1483.130051283173
 30
0.0
 10
307.4115190549793
 20
1483.208432703849
 30
0.0
 10
307.4502498062986
 20
1483.28718343086
 30
0.0
 10
307.4890058096717
 20
1483.36629082566
 30
0.0
  0
SPLINE
  5
E0
330
B7
100
AcDbEntity
  8
$DDT_AUDIT_GENERATED_(80)
  6
Continuous
 62
     7
100
AcDbSpline
210
0.0
220
0.0
230
1.0
 70
     8
 71
     3
 72
     8
 73
     4
 74
     0
 42
0.0000000000474471
 43
0.0000000001
 40
0.6535781288827899
 40
0.6535781288827899
 40
0.6535781288827899
 40
0.6535781288827899
 40
0.6597932601376707
 40
0.6597932601376707
 40
0.6597932601376707
 40
0.6597932601376707
 10
313.3054851134673
 20
1498.706208384354
 30
0.0
 10
313.4238163199851
 20
1499.125917976375
 30
0.0
 10
313.5395823086943
 20
1499.546956136813
 30
0.0
 10
313.652806873763
 20
1499.969212290931
 30
0.0
  0
SPLINE
  5
E1
330
B7
100
AcDbEntity
  8
$DDT_AUDIT_GENERATED_(80)
  6
Continuous
 62
     7
100
AcDbSpline
210
0.0
220
0.0
230
1.0
 70
     8
 71
     3
 72
     9
 73
     5
 74
     0
 42
0.0000000000467219
 43
0.0000000001
 40
0.8615540962431356
 40
0.8615540962431356
 40
0.8615540962431356
 40
0.8615540962431356
 40
0.878368349027723
 40
0.9085259952580572
 40
0.9085259952580572
 40
0.9085259952580572
 40
0.9085259952580572
 10
318.3998749515181
 20
1542.673980892577
 30
0.0
 10
318.4198668034282
 20
1543.873400181224
 30
0.0
 10
318.4642063079494
 20
1547.224290855332
 30
0.0
 10
318.4858515767196
 20
1550.575384603033
 30
0.0
 10
318.4944280523203
 20
1552.726944009754
 30
0.0
  0
SPLINE
  5
E2
330
B7
100
AcDbEntity
  8
$DDT_AUDIT_GENERATED_(80)
  6
Continuous
 62
     7
100
AcDbSpline
210
0.0
220
0.0
230
1.0
 70
     8
 71
     3
 72
     9
 73
     5
 74
     0
 42
0.0000000000467217
 43
0.0000000001
 40
0.9225610778401493
 40
0.9225610778401493
 40
0.9225610778401493
 40
0.9225610778401493
 40
0.939726754864765
 40
0.9720507968508276
 40
0.9720507968508276
 40
0.9720507968508276
 40
0.9720507968508276
 10
318.5033518099276
 20
1555.730909275242
 30
0.0
 10
318.5059120417638
 20
1556.955586704349
 30
0.0
 10
318.5100772675024
 20
1560.486422290598
 30
0.0
 10
318.5111541793652
 20
1564.017226620315
 30
0.0
 10
318.5112466360598
 20
1566.323353298797
 30
0.0
  0
LINE
  5
E3
330
B7
100
AcDbEntity
  8
$DDT_AUDIT_GENERATED_(80)
  6
Continuous
 62
     7
100
AcDbLine
 10
337.2355613261
 20
1572.3053685359
 30
0.0
 11
337.22728821
 21
1572.3053685357
 31
0.0
  0
SPLINE
  5
E4
330
B7
100
AcDbEntity
  8
$DDT_AUDIT_GENERATED_(80)
  6
Continuous
 62
     7
100
AcDbSpline
210
0.0
220
0.0
230
1.0
 70
     8
 71
     3
 72
    22
 73
    18
 74
     0
 42
0.0000000000462984
 43
0.0000000001
 40
0.5000086426211872
 40
0.5000086426211872
 40
0.5000086426211872
 40
0.5000086426211872
 40
0.5267920707116938
 40
0.5552943003359602
 40
0.5855637833818875
 40
0.6171827987608216
 40
0.6496704248287178
 40
0.6826536287309946
 40
0.71457109822281
 40
0.7491169945434598
 40
0.7821497521054065
 40
0.8148566006804531
 40
0.8471744904751375
 40
0.8790220696274363
 40
0.910266332693498
 40
0.9407965758069634
 40
1.0
 40
1.0
 40
1.0
 40
1.0
 10
354.3748434880902
 20
1468.894271061745
 30
0.0
 10
354.3746966340519
 20
1468.894443797338
 30
0.0
 10
353.8184352556103
 20
1469.546497991814
 30
0.0
 10
351.5169877242259
 20
1472.432152679217
 30
0.0
 10
348.3062047449466
 20
1477.031277147637
 30
0.0
 10
344.8893763656088
 20
1482.925052396763
 30
0.0
 10
341.7585707455293
 20
1489.691132837282
 30
0.0
 10
339.1842101999901
 20
1496.906754245614
 30
0.0
 10
337.1497523282325
 20
1504.530466630394
 30
0.0
 10
335.6651891475183
 20
1512.311033306093
 30
0.0
 10
334.6483674652855
 20
1520.236270970567
 30
0.0
 10
334.0176084058636
 20
1528.025132233802
 30
0.0
 10
333.6603824602756
 20
1535.736669183469
 30
0.0
 10
333.4844601980586
 20
1543.337565652151
 30
0.0
 10
333.4150062624073
 20
1550.797513726566
 30
0.0
 10
333.3930236471716
 20
1560.437491636546
 30
0.0
 10
333.3956794379508
 20
1567.587813320958
 30
0.0
 10
333.3974316436228
 20
1572.305368439002
 30
0.0
  0
LINE
  5
E5
330
B7
100
AcDbEntity
  8
$DDT_AUDIT_GENERATED_(80)
  6
Continuous
 62
     7
100
AcDbLine
 10
337.2236583172
 20
1572.3053684366
 30
0.0
 11
337.2355613261
 21
1572.3053684366
 31
0.0
  0
SPLINE
  5
E6
330
B7
100
AcDbEntity
  8
$DDT_AUDIT_GENERATED_(80)
  6
Continuous
 62
     7
100
AcDbSpline
210
0.0
220
0.0
230
1.0
 70
     8
 71
     3
 72
     9
 73
     5
 74
     0
 42
0.000000000046717
 43
0.0000000001
 40
0.0708701240955291
 40
0.0708701240955291
 40
0.0708701240955291
 40
0.0708701240955291
 40
0.1209149573369441
 40
0.1414833539513211
 40
0.1414833539513211
 40
0.1414833539513211
 40
0.1414833539513211
 10
337.2401961654323
 20
1557.135335994906
 30
0.0
 10
337.2453726090859
 20
1553.564543079892
 30
0.0
 10
337.2628389283333
 20
1548.526178688485
 30
0.0
 10
337.3314575076461
 20
1543.488285872537
 30
0.0
 10
337.3578876981063
 20
1542.020968330095
 30
0.0
  0
SPLINE
  5
E7
330
B7
100
AcDbEntity
  8
$DDT_AUDIT_GENERATED_(80)
  6
Continuous
 62
     7
100
AcDbSpline
210
0.0
220
0.0
230
1.0
 70
     8
 71
     3
 72
    10
 73
     6
 74
     0
 42
0.0000000000467482
 43
0.0000000001
 40
0.1970558625546326
 40
0.1970558625546326
 40
0.1970558625546326
 40
0.1970558625546326
 40
0.2177384409225668
 40
0.2507560552607205
 40
0.2660949513800706
 40
0.2660949513800706
 40
0.2660949513800706
 40
0.2660949513800706
 10
337.7569894691029
 20
1530.133667110408
 30
0.0
 10
337.8351485812794
 20
1528.660290374607
 30
0.0
 10
338.0715783458095
 20
1524.836924042157
 30
0.0
 10
338.5101419195926
 20
1519.93254930992
 30
0.0
 10
338.9256541002729
 20
1516.511929433351
 30
0.0
 10
339.0693966415532
 20
1515.428950693409
 30
0.0
  0
ARC
  5
E8
330
B7
100
AcDbEntity
  8
$DDT_AUDIT_GENERATED_(80)
  6
Continuous
 62
     7
100
AcDbCircle
 10
653.7673793375
 20
1396.731475641
 30
0.0
 40
247.4480201983333
100
AcDbArc
 50
97.5031202743
 51
100.6917504143
  0
SPLINE
  5
E9
330
B7
100
AcDbEntity
  8
$DDT_AUDIT_GENERATED_(80)
  6
Continuous
 62
     7
100
AcDbSpline
210
0.0
220
0.0
230
1.0
 70
     8
 71
     3
 72
    20
 73
    16
 74
     0
 42
0.000000000349283
 43
0.0000000001
 40
0.0
 40
0.0
 40
0.0
 40
0.0
 40
0.0625
 40
0.0625
 40
0.1250000000000001
 40
0.1250000000000001
 40
0.1875000000000001
 40
0.1875000000000001
 40
0.2500000000000001
 40
0.2500000000000001
 40
0.3750000000000002
 40
0.3750000000000002
 40
0.5000000000000002
 40
0.5000000000000002
 40
0.5002733313913897
 40
0.5002733313913897
 40
0.5002733313913897
 40
0.5002733313913897
 10
621.8695262850409
 20
1642.112202380327
 30
0.0
 10
622.8039845334952
 20
1642.227530012218
 30
0.0
 10
623.7250810493939
 20
1642.341118070851
 30
0.0
 10
625.5413328022793
 20
1642.565096584693
 30
0.0
 10
626.4458749609543
 20
1642.6766446487
 30
0.0
 10
628.1633410519911
 20
1642.888443696692
 30
0.0
 10
628.9799514441911
 20
1642.989149274646
 30
0.0
 10
630.5286760567766
 20
1643.180141237171
 30
0.0
 10
631.2591837668133
 20
1643.270229515546
 30
0.0
 10
633.2260332616119
 20
1643.512788004776
 30
0.0
 10
634.2876977352465
 20
1643.64371753717
 30
0.0
 10
635.7086569378394
 20
1643.818957571194
 30
0.0
 10
636.0830988376279
 20
1643.865136029031
 30
0.0
 10
636.0846939908748
 20
1643.865332758381
 30
0.0
 10
636.0846956885553
 20
1643.865332967761
 30
0.0
 10
636.0846956038795
 20
1643.865332957331
 30
0.0
  0
LINE
  5
EA
330
B7
100
AcDbEntity
  8
$DDT_AUDIT_GENERATED_(80)
  6
Continuous
 62
     7
100
AcDbLine
 10
621.8694968128
 20
1642.1124427676
 30
0.0
 11
621.4555710374
 21
1642.0607844169
 31
0.0
  0
ARC
  5
EB
330
B7
100
AcDbEntity
  8
$DDT_AUDIT_GENERATED_(80)
  6
Continuous
 62
     7
100
AcDbCircle
 10
641.8155565565
 20
1654.8953592597
 30
0.0
 40
7.765401950311697
100
AcDbArc
 50
55.507232711
 51
85.7182842445
  0
LINE
  5
EC
330
B7
100
AcDbEntity
  8
$DDT_AUDIT_GENERATED_(80)
  6
Continuous
 62
     7
100
AcDbLine
 10
376.1046740905
 20
1611.4277537468
 30
0.0
 11
607.8821429144
 21
1639.8864529186
 31
0.0
  0
SPLINE
  5
ED
330
B7
100
AcDbEntity
  8
$DDT_AUDIT_GENERATED_(80)
  6
Continuous
 62
     7
100
AcDbSpline
210
0.0
220
0.0
230
1.0
 70
     8
 71
     3
 72
    12
 73
     8
 74
     0
 42
0.0000000006397976
 43
0.0000000001
 40
0.0
 40
0.0
 40
0.0
 40
0.0
 40
0.2777791768011073
 40
0.5075844352150217
 40
0.6945113469010339
 40
0.8664991195512476
 40
1.0
 40
1.0
 40
1.0
 40
1.0
 10
635.7646362467839
 20
1643.792910075541
 30
0.0
 10
637.2921620343133
 20
1644.164106108158
 30
0.0
 10
639.6306130357024
 20
1644.777989053977
 30
0.0
 10
642.9643843528773
 20
1646.326883012109
 30
0.0
 10
645.3659799074183
 20
1648.11715181046
 30
0.0
 10
647.0987373443803
 20
1650.18543097006
 30
0.0
 10
647.2415791490785
 20
1651.6938073173
 30
0.0
 10
647.299582135251
 20
1652.447072269409
 30
0.0
  0
LINE
  5
EE
330
B7
100
AcDbEntity
  8
$DDT_AUDIT_GENERATED_(80)
  6
Continuous
 62
     7
100
AcDbLine
 10
647.299581654
 20
1652.4470722101
 30
0.0
 11
646.2068856419
 21
1661.3463670738
 31
0.0
  0
SPLINE
  5
EF
330
B7
100
AcDbEntity
  8
$DDT_AUDIT_GENERATED_(80)
  6
Continuous
 62
     7
100
AcDbSpline
210
0.0
220
0.0
230
1.0
 70
     8
 71
     3
 72
    20
 73
    16
 74
     0
 42
0.0000000001571962
 43
0.0000000001
 40
0.0026705398864506
 40
0.0026705398864506
 40
0.0026705398864506
 40
0.0026705398864506
 40
0.0113966854570742
 40
0.052666210951894
 40
0.1026118900143866
 40
0.2029131793532337
 40
0.2948196769123732
 40
0.3827571443154752
 40
0.4686965092756092
 40
0.5545148263216632
 40
0.6418920627415343
 40
0.7310137401813555
 40
0.8210353527575855
 40
0.9108703828559395
 40
1.0
 40
1.0
 40
1.0
 40
1.0
 10
337.2355796733403
 20
1572.469026186132
 30
0.0
 10
337.2355370427193
 20
1572.642463750987
 30
0.0
 10
337.2357579127668
 20
1573.557400042852
 30
0.0
 10
337.2407774467304
 20
1575.764804385336
 30
0.0
 10
337.3320105373325
 20
1579.766876223563
 30
0.0
 10
337.7631532254093
 20
1584.909078606385
 30
0.0
 10
339.1441410848797
 20
1590.697440676455
 30
0.0
 10
341.5180100388155
 20
1595.846093234971
 30
0.0
 10
344.9037903541841
 20
1600.233273289765
 30
0.0
 10
349.1440918434793
 20
1603.770953121467
 30
0.0
 10
354.0165875614061
 20
1606.48068692877
 30
0.0
 10
359.3249713631121
 20
1608.45504867922
 30
0.0
 10
364.8294923313792
 20
1609.817794448241
 30
0.0
 10
370.5613743675522
 20
1610.747808298917
 30
0.0
 10
374.0445436719237
 20
1611.183144101946
 30
0.0
 10
376.1046740904553
 20
1611.427753746843
 30
0.0
  0
LINE
  5
F0
330
B7
100
AcDbEntity
  8
$DDT_AUDIT_GENERATED_(80)
  6
Continuous
 62
     7
100
AcDbLine
 10
318.5109238908
 20
1566.3233533134
 30
0.0
 11
318.5109238908
 21
1566.3235180093
 31
0.0
  0
LINE
  5
F1
330
B7
100
AcDbEntity
  8
$DDT_AUDIT_GENERATED_(80)
  6
Continuous
 62
     7
100
AcDbLine
 10
354.3721652981
 20
1390.6101247538
 30
0.0
 11
354.3721652981
 21
1460.2986419603
 31
0.0
  0
LINE
  5
F2
330
B7
100
AcDbEntity
  8
$DDT_AUDIT_GENERATED_(80)
  6
Continuous
 62
     7
100
AcDbLine
 10
301.373336821
 20
1460.2986419603
 30
0.0
 11
301.373336821
 21
1390.6101247538
 31
0.0
  0
LINE
  5
F3
330
B7
100
AcDbEntity
  8
$DDT_AUDIT_GENERATED_(80)
  6
Continuous
 62
     7
100
AcDbLine
 10
301.3733672627
 20
1468.9095258733
 30
0.0
 11
301.3733672627
 21
1460.2711712077
 31
0.0
  0
LINE
  5
F4
330
B7
100
AcDbEntity
  8
$DDT_AUDIT_GENERATED_(80)
  6
Continuous
 62
     7
100
AcDbLine
 10
354.3748438302
 20
1460.2711712077
 30
0.0
 11
354.3748438302
 21
1468.8946440186
 31
0.0
  0
SPLINE
  5
F5
330
B7
100
AcDbEntity
  8
$DDT_AUDIT_GENERATED_(80)
  6
Continuous
 62
     7
100
AcDbSpline
210
0.0
220
0.0
230
1.0
 70
     8
 71
     3
 72
     8
 73
     4
 74
     0
 42
0.0000000005715569
 43
0.0000000001
 40
0.0
 40
0.0
 40
0.0
 40
0.0
 40
1.0
 40
1.0
 40
1.0
 40
1.0
 10
318.5196985797729
 20
1572.305387366875
 30
0.0
 10
318.5152143448257
 20
1566.415367111592
 30
0.0
 10
318.509010473287
 20
1560.583347249111
 30
0.0
 10
318.5010869651571
 20
1554.809327779431
 30
0.0
  0
SPLINE
  5
F6
330
B7
100
AcDbEntity
  8
$DDT_AUDIT_GENERATED_(80)
  6
Continuous
 62
     7
100
AcDbSpline
210
0.0
220
0.0
230
1.0
 70
     8
 71
     3
 72
    16
 73
    12
 74
     0
 42
0.0000000001803195
 43
0.0000000001
 40
0.0
 40
0.0
 40
0.0
 40
0.0
 40
0.2003370606273923
 40
0.3982357451490348
 40
0.589878713682289
 40
0.6829120708255696
 40
0.7708945268682725
 40
0.847123297887839
 40
0.9108656572644537
 40
0.9618002280803083
 40
1.0
 40
1.0
 40
1.0
 40
1.0
 10
318.495325634353
 20
1553.004525378199
 30
0.0
 10
318.4785745287652
 20
1548.906783285993
 30
0.0
 10
318.427935531307
 20
1542.044078942828
 30
0.0
 10
318.1064343710584
 20
1530.849605502009
 30
0.0
 10
317.4703213681748
 20
1521.931200354262
 30
0.0
 10
316.657528789088
 20
1515.03848990116
 30
0.0
 10
315.9337625735143
 20
1510.319641803079
 30
0.0
 10
315.143824827642
 20
1506.171505190287
 30
0.0
 10
314.3829076942529
 20
1502.786680177097
 30
0.0
 10
313.6860744168052
 20
1500.054344363844
 30
0.0
 10
313.3007219349008
 20
1498.692071533644
 30
0.0
 10
313.1050868554998
 20
1498.005076278215
 30
0.0
  0
ARC
  5
F7
330
B7
100
AcDbEntity
  8
$DDT_AUDIT_GENERATED_(80)
  6
Continuous
 62
     7
100
AcDbCircle
 10
230.2286500885
 20
1521.3003451629
 30
0.0
 40
86.07140869249024
100
AcDbArc
 50
326.872373008
 51
333.8665532325
  0
ARC
  5
F8
330
B7
100
AcDbEntity
  8
$DDT_AUDIT_GENERATED_(80)
  6
Continuous
 62
     7
100
AcDbCircle
 10
230.0965235094
 20
1521.3610451351
 30
0.0
 40
86.21604882588156
100
AcDbArc
 50
333.5223457125
 51
342.52362389
  0
ARC
  5
F9
330
B7
100
AcDbEntity
  8
$DDT_AUDIT_GENERATED_(80)
  6
Continuous
 62
     7
100
AcDbCircle
 10
230.0965235094
 20
1521.3610451351
 30
0.0
 40
86.21604882588156
100
AcDbArc
 50
327.7504592872
 51
329.1006829337
  0
SPLINE
  5
FA
330
B7
100
AcDbEntity
  8
$DDT_AUDIT_GENERATED_(80)
  6
Continuous
 62
     7
100
AcDbSpline
210
0.0
220
0.0
230
1.0
 70
     8
 71
     3
 72
    10
 73
     6
 74
     0
 42
0.0000000017907816
 43
0.0000000001
 40
0.0
 40
0.0
 40
0.0
 40
0.0
 40
0.2245253737236013
 40
0.4183819266673843
 40
1.0
 40
1.0
 40
1.0
 40
1.0
 10
302.3034447335446
 20
1474.251866051631
 30
0.0
 10
302.0601938943129
 20
1473.866074393038
 30
0.0
 10
301.6804033588118
 20
1473.25085692065
 30
0.0
 10
301.2531975448807
 20
1471.388400500556
 30
0.0
 10
301.2962181235145
 20
1470.076424854654
 30
0.0
 10
301.3734115184218
 20
1468.897380067825
 30
0.0
  0
SPLINE
  5
FB
330
B7
100
AcDbEntity
  8
$DDT_AUDIT_GENERATED_(80)
  6
Continuous
 62
     7
100
AcDbSpline
210
0.0
220
0.0
230
1.0
 70
     8
 71
     3
 72
     8
 73
     4
 74
     0
 42
0.0000000178290525
 43
0.0000000001
 40
0.0
 40
0.0
 40
0.0
 40
0.0
 40
0.2580962291283294
 40
0.2580962291283294
 40
0.2580962291283294
 40
0.2580962291283294
 10
303.0401894780948
 20
1475.392680728165
 30
0.0
 10
302.9869964854028
 20
1475.313765165083
 30
0.0
 10
302.9596098607367
 20
1475.275052426436
 30
0.0
 10
302.9580296040963
 20
1475.276542512226
 30
0.0
  0
ARC
  5
FC
330
B7
100
AcDbEntity
  8
$DDT_AUDIT_GENERATED_(80)
  6
Continuous
 62
     7
100
AcDbCircle
 10
503.2337635241
 20
1540.0735407756
 30
0.0
 40
165.9782416014915
100
AcDbArc
 50
178.433321777
 51
180.4926603644
  0
ARC
  5
FD
330
B7
100
AcDbEntity
  8
$DDT_AUDIT_GENERATED_(80)
  6
Continuous
 62
     7
100
AcDbCircle
 10
437.6822273628
 20
1526.6297685454
 30
0.0
 40
99.2809848560237
100
AcDbArc
 50
185.5637000167
 51
209.1666845658
  0
ARC
  5
FE
330
B7
100
AcDbEntity
  8
$DDT_AUDIT_GENERATED_(80)
  6
Continuous
 62
     7
100
AcDbCircle
 10
675.8414306257
 20
1547.5936479465
 30
0.0
 40
338.5325670515921
100
AcDbArc
 50
180.6985075629
 51
183.1665514707
  0
SPLINE
  5
FF
330
B7
100
AcDbEntity
  8
$DDT_AUDIT_GENERATED_(80)
  6
Continuous
 62
     7
100
AcDbSpline
210
0.0
220
0.0
230
1.0
 70
     8
 71
     3
 72
     8
 73
     4
 74
     0
 42
0.0000000006068338
 43
0.0000000001
 40
0.0
 40
0.0
 40
0.0
 40
0.0
 40
1.0
 40
1.0
 40
1.0
 40
1.0
 10
337.2427541416253
 20
1555.826389168837
 30
0.0
 10
337.2374739157784
 20
1561.340149430084
 30
0.0
 10
337.2320313917684
 20
1566.833139025578
 30
0.0
 10
337.226426569595
 20
1572.305357955318
 30
0.0
  0
SPLINE
  5
100
330
B7
100
AcDbEntity
  8
$DDT_AUDIT_GENERATED_(80)
  6
Continuous
 62
     7
100
AcDbSpline
210
0.0
220
0.0
230
1.0
 70
     8
 71
     3
 72
    15
 73
    11
 74
     0
 42
0.000000000994688
 43
0.0000000001
 40
0.0
 40
0.0
 40
0.0
 40
0.0
 40
0.0896678494081028
 40
0.1766793281637954
 40
0.2631051372592546
 40
0.3573937890060233
 40
0.4694081834275405
 40
0.6086557577564528
 40
0.7842027467338506
 40
0.7925712829341427
 40
0.7925712829341427
 40
0.7925712829341427
 40
0.7925712829341427
 10
354.3747821672405
 20
1468.894270532218
 30
0.0
 10
354.3758118083362
 20
1469.312988240309
 30
0.0
 10
354.3750492746098
 20
1470.012510679542
 30
0.0
 10
354.3704926729716
 20
1471.096521007679
 30
0.0
 10
354.3151790735077
 20
1472.021907196623
 30
0.0
 10
354.1367954835113
 20
1472.836050446491
 30
0.0
 10
353.7540944711164
 20
1473.686233992236
 30
0.0
 10
353.098947868644
 20
1474.783118225016
 30
0.0
 10
352.4975538192749
 20
1475.735486313707
 30
0.0
 10
352.1637054680155
 20
1476.281297642395
 30
0.0
 10
352.1485269664141
 20
1476.306148086531
 30
0.0
  0
SPLINE
  5
101
330
B7
100
AcDbEntity
  8
$DDT_AUDIT_GENERATED_(80)
  6
Continuous
 62
     7
100
AcDbSpline
210
0.0
220
0.0
230
1.0
 70
     8
 71
     3
 72
     8
 73
     4
 74
     0
 42
0.0000000008180313
 43
0.0000000001
 40
0.9741263131229982
 40
0.9741263131229982
 40
0.9741263131229982
 40
0.9741263131229982
 40
1.0
 40
1.0
 40
1.0
 40
1.0
 10
351.1256304421787
 20
1478.016219126667
 30
0.0
 10
351.0728888917094
 20
1478.10526015217
 30
0.0
 10
351.0192014699883
 20
1478.195898638266
 30
0.0
 10
350.964416639956
 20
1478.288341941413
 30
0.0
  0
ARC
  5
102
330
B7
100
AcDbEntity
  8
$DDT_AUDIT_GENERATED_(B0)
  6
Continuous
 62
     7
100
AcDbCircle
 10
275.1668546954
 20
1368.6101247554
 30
0.0
 40
26.51102513323165
100
AcDbArc
 50
351.3220372315
 51
8.6779634087
  0
ARC
  5
103
330
B7
100
AcDbEntity
  8
$DDT_AUDIT_GENERATED_(B0)
  6
Continuous
 62
     7
100
AcDbCircle
 10
354.1743813553
 20
1390.4101247538
 30
0.0
 40
0.1999999999999988
100
AcDbArc
 50
0.0
 51
90.0
  0
ARC
  5
104
330
B7
100
AcDbEntity
  8
$DDT_AUDIT_GENERATED_(B0)
  6
Continuous
 62
     7
100
AcDbCircle
 10
301.5743813553
 20
1390.4101247538
 30
0.0
 40
0.199999999999978
100
AcDbArc
 50
90.0
 51
180.0
  0
LINE
  5
105
330
B7
100
AcDbEntity
  8
$DDT_AUDIT_GENERATED_(B0)
  6
Continuous
 62
     7
100
AcDbLine
 10
354.3743813553
 20
668.830085356
 30
0.0
 11
354.3743813553
 21
1390.4101247538
 31
0.0
  0
LINE
  5
106
330
B7
100
AcDbEntity
  8
$DDT_AUDIT_GENERATED_(B0)
  6
Continuous
 62
     7
100
AcDbLine
 10
301.3743813553
 20
1364.6610275324
 30
0.0
 11
301.3743813553
 21
668.830085356
 31
0.0
  0
LINE
  5
107
330
B7
100
AcDbEntity
  8
$DDT_AUDIT_GENERATED_(B0)
  6
Continuous
 62
     7
100
AcDbLine
 10
301.3743813553
 20
1390.4101247538
 30
0.0
 11
301.3743813553
 21
1372.6101247538
 31
0.0
  0
ENDBLK
  5
109
330
B7
100
AcDbEntity
  8
0
100
AcDbBlockEnd
  0
BLOCK
  5
141
330
10A
100
AcDbEntity
  8
0
100
AcDbBlockBegin
  2
SE2
 70
     0
 10
0.0
 20
0.0
 30
0.0
  3
SE2
  1

  0
ARC
  5
10C
330
10A
100
AcDbEntity
  8
$DDT_AUDIT_GENERATED_(60)
  6
Continuous
 62
     7
100
AcDbCircle
 10
91.3504445499
 20
425.8264142219
 30
0.0
 40
85.00009336057582
100
AcDbArc
 50
180.0187395081
 51
251.8164657356
  0
LINE
  5
10D
330
10A
100
AcDbEntity
  8
$DDT_AUDIT_GENERATED_(60)
  6
Continuous
 62
     7
100
AcDbLine
 10
176.350969444
 20
425.7986369837
 30
0.0
 11
176.3505333718
 21
425.7986369029
 31
0.0
  0
SPLINE
  5
10E
330
10A
100
AcDbEntity
  8
$DDT_AUDIT_GENERATED_(60)
  6
Continuous
 62
     7
100
AcDbSpline
210
0.0
220
0.0
230
1.0
 70
     8
 71
     3
 72
    14
 73
    10
 74
     0
 42
0.0000000000372652
 43
0.0000000001
 40
0.6009307089545212
 40
0.6009307089545212
 40
0.6009307089545212
 40
0.6009307089545212
 40
0.6162822902921584
 40
0.6925404756011659
 40
0.7500012918530536
 40
0.7699112706867076
 40
0.8483388496029961
 40
0.9253531219541268
 40
1.0
 40
1.0
 40
1.0
 40
1.0
 10
117.8528016777594
 20
345.0357906858478
 30
0.0
 10
119.151214223116
 20
345.4616993495666
 30
0.0
 10
126.8380696480408
 20
348.1901355793803
 30
0.0
 10
138.6609225857784
 20
354.4219800384219
 30
0.0
 10
149.2039179682752
 20
363.2184577709335
 30
0.0
 10
158.7044961450634
 20
373.3296993889143
 30
0.0
 10
167.5801947884088
 20
386.3126647654257
 30
0.0
 10
174.7610763778026
 20
405.6555179691559
 30
0.0
 10
176.3504594675599
 20
419.1525072954994
 30
0.0
 10
176.3509149323123
 20
425.7986368473136
 30
0.0
  0
SPLINE
  5
10F
330
10A
100
AcDbEntity
  8
$DDT_AUDIT_GENERATED_(60)
  6
Continuous
 62
     7
100
AcDbSpline
210
0.0
220
0.0
230
1.0
 70
     8
 71
     3
 72
     8
 73
     4
 74
     0
 42
0.00001
 43
0.0000000001
 40
0.0
 40
0.0
 40
0.0
 40
0.0
 40
1.0
 40
1.0
 40
1.0
 40
1.0
 10
6.350355735697436
 20
425.79861357206
 30
0.0
 10
6.350299486829608
 20
425.7984922751951
 30
0.0
 10
6.350156081388669
 20
425.7983838876479
 30
0.0
 10
6.350221420964031
 20
425.7985004829655
 30
0.0
  0
SPLINE
  5
110
330
10A
100
AcDbEntity
  8
$DDT_AUDIT_GENERATED_(60)
  6
Continuous
 62
     7
100
AcDbSpline
210
0.0
220
0.0
230
1.0
 70
     8
 71
     3
 72
    17
 73
    13
 74
     0
 42
0.0000000000745279
 43
0.0000000001
 40
0.0
 40
0.0
 40
0.0
 40
0.0
 40
0.0000012366649099
 40
0.0735281631177678
 40
0.2284677263732238
 40
0.3831559315951275
 40
0.500001971776672
 40
0.5383108577392145
 40
0.6921692240250715
 40
0.8385612077736934
 40
0.9683843031783819
 40
1.0
 40
1.0
 40
1.0
 40
1.0
 10
91.35049084263906
 20
510.7988233279537
 30
0.0
 10
91.35043580654444
 20
510.7990097527459
 30
0.0
 10
88.07810890054124
 20
510.7990230246086
 30
0.0
 10
77.9103762985379
 20
510.2125480112489
 30
0.0
 10
61.21110943779294
 20
506.1761733915152
 30
0.0
 10
44.25437656829209
 20
497.3401450614897
 30
0.0
 10
33.60771571770154
 20
488.4845559828942
 30
0.0
 10
24.17419633034384
 20
478.4684768418538
 30
0.0
 10
15.54913456806929
 20
465.9785434203959
 30
0.0
 10
8.608340605443146
 20
448.0055769904204
 30
0.0
 10
6.528327450458296
 20
434.3903554427465
 30
0.0
 10
6.349999999999994
 20
427.2056502223305
 30
0.0
 10
6.350221420964031
 20
425.7985004829655
 30
0.0
  0
SPLINE
  5
111
330
10A
100
AcDbEntity
  8
$DDT_AUDIT_GENERATED_(60)
  6
Continuous
 62
     7
100
AcDbSpline
210
0.0
220
0.0
230
1.0
 70
     8
 71
     3
 72
    18
 73
    14
 74
     0
 42
0.0000000000744762
 43
0.0000000001
 40
0.0
 40
0.0
 40
0.0
 40
0.0
 40
0.0000029937860046
 40
0.0000029937860046
 40
0.0000029937860046
 40
0.1767536649290586
 40
0.3263788453493978
 40
0.4832722631319514
 40
0.5000021152234565
 40
0.6382459603152999
 40
0.7964117601177152
 40
0.9438540534507062
 40
1.0
 40
1.0
 40
1.0
 40
1.0
 10
176.3509149323123
 20
425.7986368473136
 30
0.0
 10
176.35133904056
 20
425.7987700662868
 30
0.0
 10
176.3513390578836
 20
425.7989033413912
 30
0.0
 10
176.3513390748929
 20
425.7990366164968
 30
0.0
 10
176.352343290807
 20
433.6674895798103
 30
0.0
 10
174.32036226686
 20
448.18754292918
 30
0.0
 10
165.9824296975523
 20
468.1792735806703
 30
0.0
 10
157.3739711312712
 20
479.8409521068425
 30
0.0
 10
147.6878342350211
 20
489.7837266660247
 30
0.0
 10
136.7593212969287
 20
498.5659261006181
 30
0.0
 10
118.7838020359979
 20
507.1169796279547
 30
0.0
 10
102.9099010455598
 20
510.3998574874767
 30
0.0
 10
93.84924066601253
 20
510.7989971938412
 30
0.0
 10
91.35049084263906
 20
510.7988233279537
 30
0.0
  0
ARC
  5
112
330
10A
100
AcDbEntity
  8
$DDT_AUDIT_GENERATED_(60)
  6
Continuous
 62
     7
100
AcDbCircle
 10
91.3504908417
 20
425.7986369034
 30
0.0
 40
26.9
100
AcDbArc
 50
0.0
 51
180.0
  0
ARC
  5
113
330
10A
100
AcDbEntity
  8
$DDT_AUDIT_GENERATED_(60)
  6
Continuous
 62
     7
100
AcDbCircle
 10
91.3504908417
 20
425.7986369034
 30
0.0
 40
26.9
100
AcDbArc
 50
350.3188858587
 51
0.0
  0
ARC
  5
114
330
10A
100
AcDbEntity
  8
$DDT_AUDIT_GENERATED_(60)
  6
Continuous
 62
     7
100
AcDbCircle
 10
91.3504908417
 20
425.7986369034
 30
0.0
 40
26.9
100
AcDbArc
 50
180.0
 51
189.7348976269
  0
LINE
  5
115
330
10A
100
AcDbEntity
  8
$DDT_AUDIT_GENERATED_(80)
  6
Continuous
 62
     7
100
AcDbLine
 10
114.2662807378
 20
133.9805021461
 30
0.0
 11
114.2662807378
 21
379.8068408042
 31
0.0
  0
ARC
  5
116
330
10A
100
AcDbEntity
  8
$DDT_AUDIT_GENERATED_(80)
  6
Continuous
 62
     7
100
AcDbCircle
 10
91.3501077996
 20
134.1603199417
 30
0.0
 40
22.91692389957532
100
AcDbArc
 50
180.4495276409
 51
359.5504723431
  0
LINE
  5
117
330
10A
100
AcDbEntity
  8
$DDT_AUDIT_GENERATED_(80)
  6
Continuous
 62
     7
100
AcDbLine
 10
68.4339348718
 20
379.8068405543
 30
0.0
 11
68.4339348718
 21
133.9805021527
 31
0.0
  0
LINE
  5
118
330
10A
100
AcDbEntity
  8
$DDT_AUDIT_GENERATED_(80)
  6
Continuous
 62
     7
100
AcDbLine
 10
64.8501005125
 20
133.762377672
 30
0.0
 11
64.8501005125
 21
379.5887165782
 31
0.0
  0
LINE
  5
119
330
10A
100
AcDbEntity
  8
$DDT_AUDIT_GENERATED_(80)
  6
Continuous
 62
     7
100
AcDbLine
 10
117.8501111289
 20
379.5887165014
 30
0.0
 11
117.8501157575
 21
133.7623775515
 31
0.0
  0
ARC
  5
11A
330
10A
100
AcDbEntity
  8
$DDT_AUDIT_GENERATED_(80)
  6
Continuous
 62
     7
100
AcDbCircle
 10
91.350108013
 20
133.9566923349
 30
0.0
 40
26.50156401546035
100
AcDbArc
 50
180.4200037049
 51
359.5799960345
  0
LINE
  5
11B
330
10A
100
AcDbEntity
  8
$DDT_AUDIT_GENERATED_(80)
  6
Continuous
 62
     7
100
AcDbLine
 10
117.8501111289
 20
133.7624255592
 30
0.0
 11
117.8501111289
 21
132.6759170322
 31
0.0
  0
ARC
  5
11C
330
10A
100
AcDbEntity
  8
$DDT_AUDIT_GENERATED_(80)
  6
Continuous
 62
     7
100
AcDbCircle
 10
91.3501078471
 20
132.8701353119
 30
0.0
 40
26.50156382609178
100
AcDbArc
 50
180.4198993966
 51
202.0219151859
  0
ARC
  5
11D
330
10A
100
AcDbEntity
  8
$DDT_AUDIT_GENERATED_(80)
  6
Continuous
 62
     7
100
AcDbCircle
 10
91.3501078471
 20
132.8701353119
 30
0.0
 40
26.50156382609178
100
AcDbArc
 50
338.1405145938
 51
359.580100844
  0
LINE
  5
11E
330
10A
100
AcDbEntity
  8
$DDT_AUDIT_GENERATED_(80)
  6
Continuous
 62
     7
100
AcDbLine
 10
64.84841155
 20
133.7624257091
 30
0.0
 11
64.84841155
 21
132.6759169209
 31
0.0
  0
ARC
  5
11F
330
10A
100
AcDbEntity
  8
$DDT_AUDIT_GENERATED_(80)
  6
Continuous
 62
     7
100
AcDbCircle
 10
-3129.1988488003
 20
402.5139889491
 30
0.0
 40
3247.13376986315
100
AcDbArc
 50
359.5858936903
 51
0.3717430611
  0
ARC
  5
120
330
10A
100
AcDbEntity
  8
$DDT_AUDIT_GENERATED_(80)
  6
Continuous
 62
     7
100
AcDbCircle
 10
-3129.1988488003
 20
402.5139889491
 30
0.0
 40
3247.13376986315
100
AcDbArc
 50
0.3717430611
 51
0.4108779879
  0
ARC
  5
121
330
10A
100
AcDbEntity
  8
$DDT_AUDIT_GENERATED_(80)
  6
Continuous
 62
     7
100
AcDbCircle
 10
-1932.345047356
 20
385.3290890185
 30
0.0
 40
2050.203307512594
100
AcDbArc
 50
359.8384554884
 51
1.274253309
  0
ARC
  5
122
330
10A
100
AcDbEntity
  8
$DDT_AUDIT_GENERATED_(80)
  6
Continuous
 62
     7
100
AcDbCircle
 10
-468.9707166295
 20
385.1443738057
 30
0.0
 40
583.2614203281483
100
AcDbArc
 50
359.4756684192
 51
4.9194972726
  0
ARC
  5
123
330
10A
100
AcDbEntity
  8
$DDT_AUDIT_GENERATED_(80)
  6
Continuous
 62
     7
100
AcDbCircle
 10
654.6510440436
 20
385.0157006792
 30
0.0
 40
586.2402504781044
100
AcDbArc
 50
175.0929371773
 51
180.5090909829
  0
SPLINE
  5
124
330
10A
100
AcDbEntity
  8
$DDT_AUDIT_GENERATED_(80)
  6
Continuous
 62
     7
100
AcDbSpline
210
0.0
220
0.0
230
1.0
 70
     8
 71
     5
 72
    12
 73
     6
 74
     0
 42
0.0000000001262583
 43
0.0000000001
 40
0.0
 40
0.0
 40
0.0
 40
0.0
 40
0.0
 40
0.0
 40
0.297266325744969
 40
0.297266325744969
 40
0.297266325744969
 40
0.297266325744969
 40
0.297266325744969
 40
0.297266325744969
 10
64.85010018229485
 20
379.0454514425566
 30
0.0
 10
64.85010018229505
 20
383.9450459327844
 30
0.0
 10
64.83455888425325
 20
388.8446048239618
 30
0.0
 10
64.8221777395797
 20
393.6743175454076
 30
0.0
 10
64.8176596313769
 20
398.2977232357855
 30
0.0
 10
64.82007145757427
 20
402.5897056338134
 30
0.0
  0
SPLINE
  5
125
330
10A
100
AcDbEntity
  8
$DDT_AUDIT_GENERATED_(80)
  6
Continuous
 62
     7
100
AcDbSpline
210
0.0
220
0.0
230
1.0
 70
     8
 71
     5
 72
    12
 73
     6
 74
     0
 42
0.0000000003049395
 43
0.0000000001
 40
0.3044038761910103
 40
0.3044038761910103
 40
0.3044038761910103
 40
0.3044038761910103
 40
0.3044038761910103
 40
0.3044038761910103
 40
1.0
 40
1.0
 40
1.0
 40
1.0
 40
1.0
 40
1.0
 10
64.82040081816514
 20
403.1030435571938
 30
0.0
 10
64.82759357151934
 20
413.0706858610899
 30
0.0
 10
64.8723103378064
 20
421.1743899946271
 30
0.0
 10
64.93918983640947
 20
425.8186583896265
 30
0.0
 10
64.84991836173623
 20
425.8042612036828
 30
0.0
 10
64.84990485932376
 20
425.7999497496462
 30
0.0
  0
ARC
  5
126
330
10A
100
AcDbEntity
  8
$DDT_AUDIT_GENERATED_(80)
  6
Continuous
 62
     7
100
AcDbCircle
 10
1851.9386802199
 20
387.4908882707
 30
0.0
 40
1787.110443103495
100
AcDbArc
 50
180.2423596145
 51
180.283410233
  0
LINE
  5
127
330
10A
100
AcDbEntity
  8
$DDT_AUDIT_GENERATED_(80)
  6
Continuous
 62
     7
100
AcDbLine
 10
91.3506239539
 20
435.1624452856
 30
0.0
 11
84.2682689292
 21
435.1624452856
 31
0.0
  0
LINE
  5
128
330
10A
100
AcDbEntity
  8
$DDT_AUDIT_GENERATED_(80)
  6
Continuous
 62
     7
100
AcDbLine
 10
84.2682689292
 20
435.1624452856
 30
0.0
 11
84.1866294445
 21
435.1624452856
 31
0.0
  0
LINE
  5
129
330
10A
100
AcDbEntity
  8
$DDT_AUDIT_GENERATED_(80)
  6
Continuous
 62
     7
100
AcDbLine
 10
105.1883967925
 20
435.1624452856
 30
0.0
 11
105.1410490781
 21
435.1624452856
 31
0.0
  0
LINE
  5
12A
330
10A
100
AcDbEntity
  8
$DDT_AUDIT_GENERATED_(80)
  6
Continuous
 62
     7
100
AcDbLine
 10
105.1410490781
 20
435.1624452856
 30
0.0
 11
91.3506239539
 21
435.1624452856
 31
0.0
  0
ARC
  5
12B
330
10A
100
AcDbEntity
  8
$DDT_AUDIT_GENERATED_(80)
  6
Continuous
 62
     7
100
AcDbCircle
 10
91.3660630597
 20
425.7974713008
 30
0.0
 40
26.51615831621486
100
AcDbArc
 50
172.9701718586
 51
179.994644599
  0
SPLINE
  5
12C
330
10A
100
AcDbEntity
  8
$DDT_AUDIT_GENERATED_(80)
  6
Continuous
 62
     7
100
AcDbSpline
210
0.0
220
0.0
230
1.0
 70
     8
 71
     3
 72
     8
 73
     4
 74
     0
 42
0.000000002474977
 43
0.0000000001
 40
0.839115269540333
 40
0.839115269540333
 40
0.839115269540333
 40
0.839115269540333
 40
1.0
 40
1.0
 40
1.0
 40
1.0
 10
64.85785421412542
 20
425.1499856660035
 30
0.0
 10
64.85254476614173
 20
425.3665968489619
 30
0.0
 10
64.84989329625832
 20
425.5832731946169
 30
0.0
 10
64.84990485932376
 20
425.7999497496462
 30
0.0
  0
LINE
  5
12D
330
10A
100
AcDbEntity
  8
$DDT_AUDIT_GENERATED_(80)
  6
Continuous
 62
     7
100
AcDbLine
 10
117.268897578
 20
431.3245096873
 30
0.0
 11
117.3016793326
 21
431.1646735755
 31
0.0
  0
LINE
  5
12E
330
10A
100
AcDbEntity
  8
$DDT_AUDIT_GENERATED_(80)
  6
Continuous
 62
     7
100
AcDbLine
 10
65.349703131
 20
430.9215337161
 30
0.0
 11
65.4324477911
 21
431.324966818
 31
0.0
  0
SPLINE
  5
12F
330
10A
100
AcDbEntity
  8
$DDT_AUDIT_GENERATED_(80)
  6
Continuous
 62
     7
100
AcDbSpline
210
0.0
220
0.0
230
1.0
 70
     8
 71
     3
 72
    11
 73
     7
 74
     0
 42
0.0000000013479846
 43
0.0000000001
 40
0.4552805389786989
 40
0.4552805389786989
 40
0.4552805389786989
 40
0.4552805389786989
 40
0.5
 40
0.625
 40
0.75
 40
0.7500180894937735
 40
0.7500180894937735
 40
0.7500180894937735
 40
0.7500180894937735
 10
115.9809475632708
 20
434.3721593309014
 30
0.0
 10
115.9011470621939
 20
434.4474800737888
 30
0.0
 10
115.5793961277605
 20
434.7118837452059
 30
0.0
 10
114.8997085985624
 20
434.9955544647827
 30
0.0
 10
114.2894318836448
 20
435.0826143809616
 30
0.0
 10
113.9834085366499
 20
435.1107233884722
 30
0.0
 10
113.9833642565804
 20
435.1107274553824
 30
0.0
  0
ARC
  5
130
330
10A
100
AcDbEntity
  8
$DDT_AUDIT_GENERATED_(80)
  6
Continuous
 62
     7
100
AcDbCircle
 10
91.3506171679
 20
428.1452004819
 30
0.0
 40
21.94397399834114
100
AcDbArc
 50
18.6863151888
 51
161.2946055735
  0
ARC
  5
131
330
10A
100
AcDbEntity
  8
$DDT_AUDIT_GENERATED_(80)
  6
Continuous
 62
     7
100
AcDbCircle
 10
91.3965912386
 20
132.8415860677
 30
0.0
 40
26.49156008004055
100
AcDbArc
 50
269.8994658701
 51
338.1276366972
  0
ARC
  5
132
330
10A
100
AcDbEntity
  8
$DDT_AUDIT_GENERATED_(80)
  6
Continuous
 62
     7
100
AcDbCircle
 10
91.2906745388
 20
132.8018830342
 30
0.0
 40
26.45188303418876
100
AcDbArc
 50
201.9681430626
 51
270.1287348112
  0
LINE
  5
133
330
10A
100
AcDbEntity
  8
$DDT_AUDIT_GENERATED_(80)
  6
Continuous
 62
     7
100
AcDbLine
 10
117.3511083003
 20
430.9248623919
 30
0.0
 11
117.3023691347
 21
431.1648151697
 31
0.0
  0
SPLINE
  5
134
330
10A
100
AcDbEntity
  8
$DDT_AUDIT_GENERATED_(80)
  6
Continuous
 62
     7
100
AcDbSpline
210
0.0
220
0.0
230
1.0
 70
     8
 71
     3
 72
     8
 73
     4
 74
     0
 42
0.0000000022584089
 43
0.0000000001
 40
0.0
 40
0.0
 40
0.0
 40
0.0
 40
0.0183697421615694
 40
0.0183697421615694
 40
0.0183697421615694
 40
0.0183697421615694
 10
116.0038616335841
 20
434.2917485823613
 30
0.0
 10
115.9857810325854
 20
434.31284634875
 30
0.0
 10
115.9681359913141
 20
434.3333745014996
 30
0.0
 10
115.9507402744278
 20
434.3533450452141
 30
0.0
  0
SPLINE
  5
135
330
10A
100
AcDbEntity
  8
$DDT_AUDIT_GENERATED_(80)
  6
Continuous
 62
     7
100
AcDbSpline
210
0.0
220
0.0
230
1.0
 70
     8
 71
     3
 72
     9
 73
     5
 74
     0
 42
0.0000000024759083
 43
0.0000000001
 40
0.5432995693015052
 40
0.5432995693015052
 40
0.5432995693015052
 40
0.5432995693015052
 40
0.5434443288882955
 40
1.0
 40
1.0
 40
1.0
 40
1.0
 10
113.9833635512936
 20
435.1107574620794
 30
0.0
 10
113.9831721979491
 20
435.1107770018194
 30
0.0
 10
113.3794848260151
 20
435.1724042839901
 30
0.0
 10
112.8111287218644
 20
435.17594521811
 30
0.0
 10
112.1420703618662
 20
435.1625201333351
 30
0.0
  0
SPLINE
  5
136
330
10A
100
AcDbEntity
  8
$DDT_AUDIT_GENERATED_(80)
  6
Continuous
 62
     7
100
AcDbSpline
210
0.0
220
0.0
230
1.0
 70
     8
 71
     3
 72
    11
 73
     7
 74
     0
 42
0.0000000030309753
 43
0.0000000001
 40
0.0
 40
0.0
 40
0.0
 40
0.0
 40
0.297990911760622
 40
0.57726557477677
 40
0.8479538392247699
 40
1.0
 40
1.0
 40
1.0
 40
1.0
 10
117.2688574902265
 20
431.3248302551908
 30
0.0
 10
117.2003078402673
 20
431.6471384378473
 30
0.0
 10
117.0810627324232
 20
432.1816415667021
 30
0.0
 10
116.7967850446973
 20
433.0839076098164
 30
0.0
 10
116.4719504938104
 20
433.8516120420493
 30
0.0
 10
116.1423249583282
 20
434.1624723490853
 30
0.0
 10
116.0038616335841
 20
434.2917485823613
 30
0.0
  0
LINE
  5
137
330
10A
100
AcDbEntity
  8
$DDT_AUDIT_GENERATED_(80)
  6
Continuous
 62
     7
100
AcDbLine
 10
112.1420703343
 20
435.162520145
 30
0.0
 11
105.1883967925
 21
435.1624457919
 31
0.0
  0
LINE
  5
138
330
10A
100
AcDbEntity
  8
$DDT_AUDIT_GENERATED_(80)
  6
Continuous
 62
     7
100
AcDbLine
 10
84.1866294445
 20
435.1624458499
 30
0.0
 11
70.5595062136
 21
435.1625400413
 31
0.0
  0
SPLINE
  5
139
330
10A
100
AcDbEntity
  8
$DDT_AUDIT_GENERATED_(80)
  6
Continuous
 62
     7
100
AcDbSpline
210
0.0
220
0.0
230
1.0
 70
     8
 71
     3
 72
    12
 73
     8
 74
     0
 42
0.0000000020722477
 43
0.0000000001
 40
0.0
 40
0.0
 40
0.0
 40
0.0
 40
0.0364270090709426
 40
0.2275546558130866
 40
0.4183365456735628
 40
0.6106221684550607
 40
1.0
 40
1.0
 40
1.0
 40
1.0
 10
67.98343425706477
 20
434.9866623705371
 30
0.0
 10
67.91990266998413
 20
434.9772579830654
 30
0.0
 10
67.5798586086575
 20
434.9243136901383
 30
0.0
 10
66.9336310154615
 20
434.624949095899
 30
0.0
 10
66.29734691161381
 20
433.9464902628331
 30
0.0
 10
65.76913590322567
 20
432.7997654916195
 30
0.0
 10
65.56875569119153
 20
431.9817395143708
 30
0.0
 10
65.43254283963546
 20
431.3254977721929
 30
0.0
  0
ARC
  5
13A
330
10A
100
AcDbEntity
  8
$DDT_AUDIT_GENERATED_(80)
  6
Continuous
 62
     7
100
AcDbCircle
 10
69.9865724012
 20
424.6005328833
 30
0.0
 40
10.57753506967795
100
AcDbArc
 50
86.8950449497
 51
96.8808929314
  0
ARC
  5
13B
330
10A
100
AcDbEntity
  8
$DDT_AUDIT_GENERATED_(80)
  6
Continuous
 62
     7
100
AcDbCircle
 10
69.9865724012
 20
424.6005328833
 30
0.0
 40
10.57753506967795
100
AcDbArc
 50
98.5188143896
 51
100.9164083793
  0
ARC
  5
13C
330
10A
100
AcDbEntity
  8
$DDT_AUDIT_GENERATED_(80)
  6
Continuous
 62
     7
100
AcDbCircle
 10
2189.3548125803
 20
406.2328924054
 30
0.0
 40
2124.540001758295
100
AcDbArc
 50
179.5378971437
 51
180.1227611555
  0
LINE
  5
13D
330
10A
100
AcDbEntity
  8
$DDT_AUDIT_GENERATED_(80)
  6
Continuous
 62
     7
100
AcDbLine
 10
65.3509102053
 20
430.8873325506
 30
0.0
 11
65.0492325004
 21
429.0432093058
 31
0.0
  0
SPLINE
  5
13E
330
10A
100
AcDbEntity
  8
$DDT_AUDIT_GENERATED_(80)
  6
Continuous
 62
     7
100
AcDbSpline
210
0.0
220
0.0
230
1.0
 70
     8
 71
     3
 72
     8
 73
     4
 74
     0
 42
0.0000000022772149
 43
0.0000000001
 40
0.9940425550830785
 40
0.9940425550830785
 40
0.9940425550830785
 40
0.9940425550830785
 40
1.0
 40
1.0
 40
1.0
 40
1.0
 10
64.8838552994454
 20
423.2675696758305
 30
0.0
 10
64.88385300170967
 20
423.2589053816639
 30
0.0
 10
64.88385084423125
 20
423.2501849013967
 30
0.0
 10
64.88384882149032
 20
423.2414085752134
 30
0.0
  0
ARC
  5
13F
330
10A
100
AcDbEntity
  8
$DDT_AUDIT_GENERATED_(80)
  6
Continuous
 62
     7
100
AcDbCircle
 10
3433.9980744526
 20
395.7854137121
 30
0.0
 40
3369.185453091551
100
AcDbArc
 50
179.8757493176
 51
179.8858553613
  0
LINE
  5
140
330
10A
100
AcDbEntity
  8
$DDT_AUDIT_GENERATED_(80)
  6
Continuous
 62
     7
100
AcDbLine
 10
64.8205507462
 20
403.3021312802
 30
0.0
 11
64.8205435839
 21
403.0917679885
 31
0.0
  0
ENDBLK
  5
142
330
10A
100
AcDbEntity
  8
0
100
AcDbBlockEnd
  0
ENDSEC
  0
SECTION
  2
ENTITIES
  0
INSERT
  5
5F
330
1F
100
AcDbEntity
  8
Default
100
AcDbBlockReference
  2
SE
 10
0.0
 20
0.0
 30
0.0
  0
INSERT
  5
B8
330
1F
100
AcDbEntity
  8
Default
100
AcDbBlockReference
  2
SE1
 10
0.0
 20
0.0
 30
0.0
  0
INSERT
  5
10B
330
1F
100
AcDbEntity
  8
Default
100
AcDbBlockReference
  2
SE2
 10
0.0
 20
0.0
 30
0.0
  0
TEXT
  5
144
330
1F
100
AcDbEntity
  8
Default
  6
Continuous
 62
     7
100
AcDbText
 10
5.9362635081
 20
53.4225120485
 30
0.0
 40
10.0
  1
Grohe AG^J
  7
SEACAD_seiso_ttf
 11
5.9362635081
 21
63.4225120485
 31
0.0
100
AcDbText
 73
     3
  0
TEXT
  5
145
330
1F
100
AcDbEntity
  8
Default
  6
Continuous
 62
     7
100
AcDbText
 10
5.9362635081
 20
37.0588756849
 30
0.0
 40
10.0
  1
 
  7
SEACAD_seiso_ttf
 11
5.9362635081
 21
47.0588756849
 31
0.0
100
AcDbText
 73
     3
  0
TEXT
  5
146
330
1F
100
AcDbEntity
  8
Default
  6
Continuous
 62
     7
100
AcDbText
 10
5.9362635081
 20
20.6952393213
 30
0.0
 40
10.0
  1
ecn: 
  7
SEACAD_seiso_ttf
 11
5.9362635081
 21
30.6952393213
 31
0.0
100
AcDbText
 73
     3
  0
TEXT
  5
147
330
1F
100
AcDbEntity
  8
Default
  6
Continuous
 62
     7
100
AcDbText
 10
5.9362635081
 20
4.3316029576
 30
0.0
 40
10.0
  1
unit: mm
  7
SEACAD_seiso_ttf
 11
5.9362635081
 21
14.3316029576
 31
0.0
100
AcDbText
 73
     3
  0
LINE
  5
148
330
1F
100
AcDbEntity
  8
Default
  6
Continuous
 62
     7
100
AcDbLine
 10
0.0
 20
0.0
 30
0.0
 11
100.0
 21
0.0
 31
0.0
  0
LINE
  5
149
330
1F
100
AcDbEntity
  8
Default
  6
Continuous
 62
     7
100
AcDbLine
 10
0.0
 20
0.0
 30
0.0
 11
0.0
 21
100.0
 31
0.0
  0
TEXT
  5
14A
330
1F
100
AcDbEntity
  8
Default
  6
Continuous
 62
     7
100
AcDbText
 10
24.3923665681
 20
-18.2375342018
 30
0.0
 40
10.0
  1
100 mm
  7
SEACAD_seiso_ttf
 11
24.3923665681
 21
-8.2375342018
 31
0.0
100
AcDbText
 73
     3
  0
TEXT
  5
14B
330
1F
100
AcDbEntity
  8
Default
  6
Continuous
 62
     7
100
AcDbText
 10
-7.6150308803
 20
24.6231930421
 30
0.0
 40
10.0
  1
100 mm
 50
90.0
  7
SEACAD_seiso_ttf
 11
-17.6150308803
 21
24.6231930421
 31
0.0
100
AcDbText
 73
     3
  0
TEXT
  5
14C
330
1F
100
AcDbEntity
  8
Default
  6
Continuous
 62
     7
100
AcDbText
 10
28.4878128572
 20
20.0907663715
 30
0.0
 40
10.0
  1
216549
  7
SEACAD_seiso_ttf
 11
28.4878128572
 21
30.0907663715
 31
0.0
100
AcDbText
 73
     3
  0
TEXT
  5
14D
330
1F
100
AcDbEntity
  8
Default
  6
Continuous
 62
     7
100
AcDbText
 10
5.9012241913
 20
36.7242780188
 30
0.0
 40
10.0
  1
13245000
  7
SEACAD_seiso_ttf
 11
5.9012241913
 21
46.7242780188
 31
0.0
100
AcDbText
 73
     3
  0
ENDSEC
  0
SECTION
  2
OBJECTS
  0
DICTIONARY
  5
C
330
0
100
AcDbDictionary
281
     1
  3
ACAD_GROUP
350
D
  3
ACAD_LAYOUT
350
1A
  3
ACAD_MLEADERSTYLE
350
151
  3
ACAD_MLINESTYLE
350
17
  3
ACAD_PLOTSETTINGS
350
19
  3
ACAD_PLOTSTYLENAME
350
E
  3
ACAD_SCALELIST
350
3B
  3
ACAD_TABLESTYLE
350
150
  3
ACAD_VISUALSTYLE
350
2A
  3
AcDbVariableDictionary
350
14E
  0
DICTIONARY
  5
D
102
{ACAD_REACTORS
330
C
102
}
330
C
100
AcDbDictionary
281
     1
  0
DICTIONARY
  5
1A
102
{ACAD_REACTORS
330
C
102
}
330
C
100
AcDbDictionary
281
     1
  3
Layout1
350
1E
  3
Model
350
22
  0
DICTIONARY
  5
151
102
{ACAD_REACTORS
330
C
102
}
330
C
100
AcDbDictionary
281
     1
  0
DICTIONARY
  5
17
102
{ACAD_REACTORS
330
C
102
}
330
C
100
AcDbDictionary
281
     1
  3
Standard
350
18
  0
DICTIONARY
  5
19
102
{ACAD_REACTORS
330
C
102
}
330
C
100
AcDbDictionary
281
     1
  0
ACDBDICTIONARYWDFLT
  5
E
102
{ACAD_REACTORS
330
C
102
}
330
C
100
AcDbDictionary
281
     1
  3
Normal
350
F
100
AcDbDictionaryWithDefault
340
F
  0
DICTIONARY
  5
3B
102
{ACAD_REACTORS
330
C
102
}
330
C
100
AcDbDictionary
281
     1
  3
A0
350
3C
  3
A1
350
3D
  3
A2
350
3E
  3
A3
350
3F
  3
A4
350
40
  3
A5
350
41
  3
A6
350
42
  3
A7
350
43
  3
A8
350
44
  3
A9
350
45
  3
B0
350
46
  3
B1
350
47
  3
B2
350
48
  3
B3
350
49
  3
B4
350
4A
  3
B5
350
4B
  3
B6
350
4C
  3
B7
350
4D
  3
B8
350
4E
  3
B9
350
4F
  3
C0
350
50
  3
C1
350
51
  3
C2
350
52
  3
C3
350
53
  3
C4
350
54
  3
C5
350
55
  3
C6
350
56
  3
C7
350
57
  3
C8
350
58
  3
C9
350
59
  3
D0
350
5A
  3
D1
350
5B
  3
D2
350
5C
  0
DICTIONARY
  5
150
102
{ACAD_REACTORS
330
C
102
}
330
C
100
AcDbDictionary
281
     1
  0
DICTIONARY
  5
2A
102
{ACAD_REACTORS
330
C
102
}
330
C
100
AcDbDictionary
281
     1
  3
2dWireframe
350
2F
  3
3D Hidden
350
31
  3
3dWireframe
350
30
  3
Basic
350
32
  3
Brighten
350
36
  3
ColorChange
350
3A
  3
Conceptual
350
34
  3
Dim
350
35
  3
Facepattern
350
39
  3
Flat
350
2B
  3
FlatWithEdges
350
2C
  3
Gouraud
350
2D
  3
GouraudWithEdges
350
2E
  3
Linepattern
350
38
  3
Realistic
350
33
  3
Thicken
350
37
  0
DICTIONARY
  5
14E
102
{ACAD_REACTORS
330
C
102
}
330
C
100
AcDbDictionary
281
     1
  3
CANNOSCALE
350
14F
  3
PSOLHEIGHT
350
153
  3
PSOLWIDTH
350
152
  0
LAYOUT
  5
1E
102
{ACAD_REACTORS
330
1A
102
}
330
1A
100
AcDbPlotSettings
  1

  2
none_device
  4

  6

 40
0.0
 41
0.0
 42
0.0
 43
0.0
 44
0.0
 45
0.0
 46
0.0
 47
0.0
 48
0.0
 49
0.0
140
0.0
141
0.0
142
1.0
143
1.0
 70
   688
 72
     0
 73
     0
 74
     5
  7

 75
    16
147
1.0
148
0.0
149
0.0
100
AcDbLayout
  1
Layout1
 70
     1
 71
     1
 10
0.0
 20
0.0
 11
1682.0
 21
2378.0
 12
0.0
 22
0.0
 32
0.0
 14
0.0
 24
0.0
 34
0.0
 15
1682.0
 25
2378.0
 35
0.0
146
0.0
 13
0.0
 23
0.0
 33
0.0
 16
1.0
 26
0.0
 36
0.0
 17
0.0
 27
1.0
 37
0.0
 76
     0
330
1B
  0
LAYOUT
  5
22
102
{ACAD_REACTORS
330
1A
102
}
330
1A
100
AcDbPlotSettings
  1

  2
none_device
  4

  6

 40
0.0
 41
0.0
 42
0.0
 43
0.0
 44
0.0
 45
0.0
 46
0.0
 47
0.0
 48
0.0
 49
0.0
140
0.0
141
0.0
142
1.0
143
1.0
 70
  1712
 72
     0
 73
     0
 74
     0
  7

 75
     0
147
1.0
148
0.0
149
0.0
100
AcDbLayout
  1
Model
 70
     1
 71
     0
 10
0.0
 20
0.0
 11
1682.0
 21
2378.0
 12
0.0
 22
0.0
 32
0.0
 14
0.0
 24
0.0
 34
0.0
 15
1682.0
 25
2378.0
 35
0.0
146
0.0
 13
0.0
 23
0.0
 33
0.0
 16
1.0
 26
0.0
 36
0.0
 17
0.0
 27
1.0
 37
0.0
 76
     0
330
1F
331
29
  0
MLINESTYLE
  5
18
102
{ACAD_REACTORS
330
17
102
}
330
17
100
AcDbMlineStyle
  2
Standard
 70
     0
  3

 62
   256
 51
90.0
 52
90.0
 71
     2
 49
0.5
 62
   256
  6
BYLAYER
 49
-0.5
 62
   256
  6
BYLAYER
  0
ACDBPLACEHOLDER
  5
F
102
{ACAD_REACTORS
330
E
102
}
330
E
  0
SCALE
  5
3C
102
{ACAD_REACTORS
330
3B
102
}
330
3B
100
AcDbScale
 70
     0
300
1:1
140
1.0
141
1.0
290
     1
  0
SCALE
  5
3D
102
{ACAD_REACTORS
330
3B
102
}
330
3B
100
AcDbScale
 70
     0
300
1:2
140
1.0
141
2.0
290
     0
  0
SCALE
  5
3E
102
{ACAD_REACTORS
330
3B
102
}
330
3B
100
AcDbScale
 70
     0
300
1:4
140
1.0
141
4.0
290
     0
  0
SCALE
  5
3F
102
{ACAD_REACTORS
330
3B
102
}
330
3B
100
AcDbScale
 70
     0
300
1:5
140
1.0
141
5.0
290
     0
  0
SCALE
  5
40
102
{ACAD_REACTORS
330
3B
102
}
330
3B
100
AcDbScale
 70
     0
300
1:8
140
1.0
141
8.0
290
     0
  0
SCALE
  5
41
102
{ACAD_REACTORS
330
3B
102
}
330
3B
100
AcDbScale
 70
     0
300
1:10
140
1.0
141
10.0
290
     0
  0
SCALE
  5
42
102
{ACAD_REACTORS
330
3B
102
}
330
3B
100
AcDbScale
 70
     0
300
1:16
140
1.0
141
16.0
290
     0
  0
SCALE
  5
43
102
{ACAD_REACTORS
330
3B
102
}
330
3B
100
AcDbScale
 70
     0
300
1:20
140
1.0
141
20.0
290
     0
  0
SCALE
  5
44
102
{ACAD_REACTORS
330
3B
102
}
330
3B
100
AcDbScale
 70
     0
300
1:30
140
1.0
141
30.0
290
     0
  0
SCALE
  5
45
102
{ACAD_REACTORS
330
3B
102
}
330
3B
100
AcDbScale
 70
     0
300
1:40
140
1.0
141
40.0
290
     0
  0
SCALE
  5
46
102
{ACAD_REACTORS
330
3B
102
}
330
3B
100
AcDbScale
 70
     0
300
1:50
140
1.0
141
50.0
290
     0
  0
SCALE
  5
47
102
{ACAD_REACTORS
330
3B
102
}
330
3B
100
AcDbScale
 70
     0
300
1:100
140
1.0
141
100.0
290
     0
  0
SCALE
  5
48
102
{ACAD_REACTORS
330
3B
102
}
330
3B
100
AcDbScale
 70
     0
300
2:1
140
2.0
141
1.0
290
     0
  0
SCALE
  5
49
102
{ACAD_REACTORS
330
3B
102
}
330
3B
100
AcDbScale
 70
     0
300
4:1
140
4.0
141
1.0
290
     0
  0
SCALE
  5
4A
102
{ACAD_REACTORS
330
3B
102
}
330
3B
100
AcDbScale
 70
     0
300
8:1
140
8.0
141
1.0
290
     0
  0
SCALE
  5
4B
102
{ACAD_REACTORS
330
3B
102
}
330
3B
100
AcDbScale
 70
     0
300
10:1
140
10.0
141
1.0
290
     0
  0
SCALE
  5
4C
102
{ACAD_REACTORS
330
3B
102
}
330
3B
100
AcDbScale
 70
     0
300
100:1
140
100.0
141
1.0
290
     0
  0
SCALE
  5
4D
102
{ACAD_REACTORS
330
3B
102
}
330
3B
100
AcDbScale
 70
     0
300
1/128" = 1'-0"
140
0.0078125
141
12.0
290
     0
  0
SCALE
  5
4E
102
{ACAD_REACTORS
330
3B
102
}
330
3B
100
AcDbScale
 70
     0
300
1/64" = 1'-0"
140
0.015625
141
12.0
290
     0
  0
SCALE
  5
4F
102
{ACAD_REACTORS
330
3B
102
}
330
3B
100
AcDbScale
 70
     0
300
1/32" = 1'-0"
140
0.03125
141
12.0
290
     0
  0
SCALE
  5
50
102
{ACAD_REACTORS
330
3B
102
}
330
3B
100
AcDbScale
 70
     0
300
1/16" = 1'-0"
140
0.0625
141
12.0
290
     0
  0
SCALE
  5
51
102
{ACAD_REACTORS
330
3B
102
}
330
3B
100
AcDbScale
 70
     0
300
3/32" = 1'-0"
140
0.09375
141
12.0
290
     0
  0
SCALE
  5
52
102
{ACAD_REACTORS
330
3B
102
}
330
3B
100
AcDbScale
 70
     0
300
1/8" = 1'-0"
140
0.125
141
12.0
290
     0
  0
SCALE
  5
53
102
{ACAD_REACTORS
330
3B
102
}
330
3B
100
AcDbScale
 70
     0
300
3/16" = 1'-0"
140
0.1875
141
12.0
290
     0
  0
SCALE
  5
54
102
{ACAD_REACTORS
330
3B
102
}
330
3B
100
AcDbScale
 70
     0
300
1/4" = 1'-0"
140
0.25
141
12.0
290
     0
  0
SCALE
  5
55
102
{ACAD_REACTORS
330
3B
102
}
330
3B
100
AcDbScale
 70
     0
300
3/8" = 1'-0"
140
0.375
141
12.0
290
     0
  0
SCALE
  5
56
102
{ACAD_REACTORS
330
3B
102
}
330
3B
100
AcDbScale
 70
     0
300
1/2" = 1'-0"
140
0.5
141
12.0
290
     0
  0
SCALE
  5
57
102
{ACAD_REACTORS
330
3B
102
}
330
3B
100
AcDbScale
 70
     0
300
3/4" = 1'-0"
140
0.75
141
12.0
290
     0
  0
SCALE
  5
58
102
{ACAD_REACTORS
330
3B
102
}
330
3B
100
AcDbScale
 70
     0
300
1" = 1'-0"
140
1.0
141
12.0
290
     0
  0
SCALE
  5
59
102
{ACAD_REACTORS
330
3B
102
}
330
3B
100
AcDbScale
 70
     0
300
1-1/2" = 1'-0"
140
1.5
141
12.0
290
     0
  0
SCALE
  5
5A
102
{ACAD_REACTORS
330
3B
102
}
330
3B
100
AcDbScale
 70
     0
300
3" = 1'-0"
140
3.0
141
12.0
290
     0
  0
SCALE
  5
5B
102
{ACAD_REACTORS
330
3B
102
}
330
3B
100
AcDbScale
 70
     0
300
6" = 1'-0"
140
6.0
141
12.0
290
     0
  0
SCALE
  5
5C
102
{ACAD_REACTORS
330
3B
102
}
330
3B
100
AcDbScale
 70
     0
300
1'-0" = 1'-0"
140
12.0
141
12.0
290
     0
  0
VISUALSTYLE
  5
2F
102
{ACAD_REACTORS
330
2A
102
}
330
2A
100
AcDbVisualStyle
  2
2dWireframe
 70
     4
 71
     0
 72
     2
 73
     0
 90
        0
 40
-0.6
 41
-30.0
 62
     5
 63
     7
 74
     1
 91
        4
 64
     7
 65
   257
 75
     1
175
     1
 42
1.0
 92
        0
 66
   257
 43
1.0
 76
     1
 77
     6
 78
     2
 67
     7
 79
     5
170
     0
171
     0
290
     0
174
     0
 93
        1
 44
0.0
173
     0
291
     0
 45
0.0
1001
ACAD
1000
AcDbSavedByObjectVersion
1070
     0
  0
VISUALSTYLE
  5
31
102
{ACAD_REACTORS
330
2A
102
}
330
2A
100
AcDbVisualStyle
  2
3D Hidden
 70
     6
 71
     1
 72
     2
 73
     2
 90
        0
 40
-0.6
 41
-30.0
 62
     5
 63
     7
 74
     2
 91
        2
 64
     7
 65
   257
 75
     2
175
     1
 42
40.0
 92
        0
 66
   257
 43
1.0
 76
     1
 77
     6
 78
     2
 67
     7
 79
     3
170
     0
171
     0
290
     0
174
     0
 93
        1
 44
0.0
173
     0
291
     0
 45
0.0
1001
ACAD
1000
AcDbSavedByObjectVersion
1070
     0
  0
VISUALSTYLE
  5
30
102
{ACAD_REACTORS
330
2A
102
}
330
2A
100
AcDbVisualStyle
  2
3dWireframe
 70
     5
 71
     0
 72
     2
 73
     0
 90
        0
 40
-0.6
 41
-30.0
 62
     5
 63
     7
 74
     1
 91
        4
 64
     7
 65
   257
 75
     1
175
     1
 42
1.0
 92
        0
 66
   257
 43
1.0
 76
     1
 77
     6
 78
     2
 67
     7
 79
     5
170
     0
171
     0
290
     0
174
     0
 93
        1
 44
0.0
173
     0
291
     0
 45
0.0
1001
ACAD
1000
AcDbSavedByObjectVersion
1070
     0
  0
VISUALSTYLE
  5
32
102
{ACAD_REACTORS
330
2A
102
}
330
2A
100
AcDbVisualStyle
  2
Basic
 70
     7
 71
     1
 72
     0
 73
     1
 90
        0
 40
-0.6
 41
-30.0
 62
     5
 63
     7
 74
     0
 91
        4
 64
     7
 65
   257
 75
     1
175
     1
 42
1.0
 92
        8
 66
     7
 43
1.0
 76
     1
 77
     6
 78
     2
 67
     7
 79
     5
170
     0
171
     0
290
     0
174
     0
 93
        1
 44
0.0
173
     0
291
     1
 45
0.0
1001
ACAD
1000
AcDbSavedByObjectVersion
1070
     0
  0
VISUALSTYLE
  5
36
102
{ACAD_REACTORS
330
2A
102
}
330
2A
100
AcDbVisualStyle
  2
Brighten
 70
    12
 71
     2
 72
     2
 73
     0
 90
        0
 40
-0.6
 41
-30.0
 62
     5
 63
     7
 74
     1
 91
        4
 64
     7
 65
   257
 75
     1
175
     1
 42
1.0
 92
        8
 66
     7
 43
1.0
 76
     1
 77
     6
 78
     2
 67
     7
 79
     5
170
     0
171
     0
290
     0
174
     0
 93
        1
 44
50.0
173
     0
291
     1
 45
0.0
1001
ACAD
1000
AcDbSavedByObjectVersion
1070
     0
  0
VISUALSTYLE
  5
3A
102
{ACAD_REACTORS
330
2A
102
}
330
2A
100
AcDbVisualStyle
  2
ColorChange
 70
    16
 71
     2
 72
     2
 73
     3
 90
        0
 40
-0.6
 41
-30.0
 62
     5
 63
     8
 74
     1
 91
        4
 64
     7
 65
   257
 75
     1
175
     1
 42
1.0
 92
        8
 66
     8
 43
1.0
 76
     1
 77
     6
 78
     2
 67
     7
 79
     5
170
     0
171
     0
290
     0
174
     0
 93
        1
 44
0.0
173
     0
291
     1
 45
0.0
1001
ACAD
1000
AcDbSavedByObjectVersion
1070
     0
  0
VISUALSTYLE
  5
34
102
{ACAD_REACTORS
330
2A
102
}
330
2A
100
AcDbVisualStyle
  2
Conceptual
 70
     9
 71
     3
 72
     2
 73
     0
 90
        0
 40
-0.6
 41
-30.0
 62
     5
 63
     7
 74
     2
 91
        2
 64
     7
 65
   257
 75
     1
175
     1
 42
40.0
 92
        8
 66
     7
 43
1.0
 76
     1
 77
     6
 78
     2
 67
     7
 79
     3
170
     0
171
     0
290
     0
174
     0
 93
        1
 44
0.0
173
     0
291
     0
 45
0.0
1001
ACAD
1000
AcDbSavedByObjectVersion
1070
     0
  0
VISUALSTYLE
  5
35
102
{ACAD_REACTORS
330
2A
102
}
330
2A
100
AcDbVisualStyle
  2
Dim
 70
    11
 71
     2
 72
     2
 73
     0
 90
        0
 40
-0.6
 41
-30.0
 62
     5
 63
     7
 74
     1
 91
        4
 64
     7
 65
   257
 75
     1
175
     1
 42
1.0
 92
        8
 66
     7
 43
1.0
 76
     1
 77
     6
 78
     2
 67
     7
 79
     5
170
     0
171
     0
290
     0
174
     0
 93
        1
 44
-50.0
173
     0
291
     1
 45
0.0
1001
ACAD
1000
AcDbSavedByObjectVersion
1070
     0
  0
VISUALSTYLE
  5
39
102
{ACAD_REACTORS
330
2A
102
}
330
2A
100
AcDbVisualStyle
  2
Facepattern
 70
    15
 71
     2
 72
     2
 73
     0
 90
        0
 40
-0.6
 41
-30.0
 62
     5
 63
     7
 74
     1
 91
        4
 64
     7
 65
   257
 75
     1
175
     1
 42
1.0
 92
        8
 66
     7
 43
1.0
 76
     1
 77
     6
 78
     2
 67
     7
 79
     5
170
     0
171
     0
290
     0
174
     0
 93
        1
 44
0.0
173
     0
291
     1
 45
0.0
1001
ACAD
1000
AcDbSavedByObjectVersion
1070
     0
  0
VISUALSTYLE
  5
2B
102
{ACAD_REACTORS
330
2A
102
}
330
2A
100
AcDbVisualStyle
  2
Flat
 70
     0
 71
     2
 72
     1
 73
     1
 90
        2
 40
-0.6
 41
30.0
 62
     5
 63
     7
 74
     0
 91
        4
 64
     7
 65
   257
 75
     1
175
     1
 42
1.0
 92
        8
 66
     7
 43
1.0
 76
     1
 77
     6
 78
     2
 67
     7
 79
     5
170
     0
171
     0
290
     0
174
     0
 93
       13
 44
0.0
173
     0
291
     1
 45
0.0
1001
ACAD
1000
AcDbSavedByObjectVersion
1070
     0
  0
VISUALSTYLE
  5
2C
102
{ACAD_REACTORS
330
2A
102
}
330
2A
100
AcDbVisualStyle
  2
FlatWithEdges
 70
     1
 71
     2
 72
     1
 73
     1
 90
        2
 40
-0.6
 41
30.0
 62
     5
 63
     7
 74
     1
 91
        4
 64
     7
 65
   257
 75
     1
175
     1
 42
1.0
 92
        0
 66
   257
 43
1.0
 76
     1
 77
     6
 78
     2
 67
     7
 79
     5
170
     0
171
     0
290
     0
174
     0
 93
       13
 44
0.0
173
     0
291
     1
 45
0.0
1001
ACAD
1000
AcDbSavedByObjectVersion
1070
     0
  0
VISUALSTYLE
  5
2D
102
{ACAD_REACTORS
330
2A
102
}
330
2A
100
AcDbVisualStyle
  2
Gouraud
 70
     2
 71
     2
 72
     2
 73
     1
 90
        2
 40
-0.6
 41
30.0
 62
     5
 63
     7
 74
     0
 91
        4
 64
     7
 65
   257
 75
     1
175
     1
 42
1.0
 92
        0
 66
     7
 43
1.0
 76
     1
 77
     6
 78
     2
 67
     7
 79
     5
170
     0
171
     0
290
     0
174
     0
 93
       13
 44
0.0
173
     0
291
     1
 45
0.0
1001
ACAD
1000
AcDbSavedByObjectVersion
1070
     0
  0
VISUALSTYLE
  5
2E
102
{ACAD_REACTORS
330
2A
102
}
330
2A
100
AcDbVisualStyle
  2
GouraudWithEdges
 70
     3
 71
     2
 72
     2
 73
     1
 90
        2
 40
-0.6
 41
30.0
 62
     5
 63
     7
 74
     1
 91
        4
 64
     7
 65
   257
 75
     1
175
     1
 42
1.0
 92
        0
 66
   257
 43
1.0
 76
     1
 77
     6
 78
     2
 67
     7
 79
     5
170
     0
171
     0
290
     0
174
     0
 93
       13
 44
0.0
173
     0
291
     1
 45
0.0
1001
ACAD
1000
AcDbSavedByObjectVersion
1070
     0
  0
VISUALSTYLE
  5
38
102
{ACAD_REACTORS
330
2A
102
}
330
2A
100
AcDbVisualStyle
  2
Linepattern
 70
    14
 71
     2
 72
     2
 73
     0
 90
        0
 40
-0.6
 41
-30.0
 62
     5
 63
     7
 74
     1
 91
        4
 64
     7
 65
   257
 75
     7
175
     7
 42
1.0
 92
        8
 66
     7
 43
1.0
 76
     1
 77
     6
 78
     2
 67
     7
 79
     5
170
     0
171
     0
290
     0
174
     0
 93
        1
 44
0.0
173
     0
291
     1
 45
0.0
1001
ACAD
1000
AcDbSavedByObjectVersion
1070
     0
  0
VISUALSTYLE
  5
33
102
{ACAD_REACTORS
330
2A
102
}
330
2A
100
AcDbVisualStyle
  2
Realistic
 70
     8
 71
     2
 72
     2
 73
     0
 90
        0
 40
-0.6
 41
-30.0
 62
     5
 63
     7
 74
     1
 91
        0
 64
     7
 65
   257
 75
     1
175
     1
 42
1.0
 92
        8
 66
     8
 43
1.0
 76
     1
 77
     6
 78
     2
 67
     7
 79
     5
170
     0
171
     0
290
     0
174
     0
 93
       13
 44
0.0
173
     0
291
     0
 45
0.0
1001
ACAD
1000
AcDbSavedByObjectVersion
1070
     0
  0
VISUALSTYLE
  5
37
102
{ACAD_REACTORS
330
2A
102
}
330
2A
100
AcDbVisualStyle
  2
Thicken
 70
    13
 71
     2
 72
     2
 73
     0
 90
        0
 40
-0.6
 41
-30.0
 62
     5
 63
     7
 74
     1
 91
        4
 64
     7
 65
   257
 75
     1
175
     1
 42
1.0
 92
       12
 66
     7
 43
1.0
 76
     1
 77
     6
 78
     2
 67
     7
 79
     5
170
     0
171
     0
290
     0
174
     0
 93
        1
 44
0.0
173
     0
291
     1
 45
0.0
1001
ACAD
1000
AcDbSavedByObjectVersion
1070
     0
  0
DICTIONARYVAR
  5
14F
102
{ACAD_REACTORS
330
14E
102
}
330
14E
100
DictionaryVariables
280
     0
  1
1:1
  0
DICTIONARYVAR
  5
153
102
{ACAD_REACTORS
330
14E
102
}
330
14E
100
DictionaryVariables
280
     0
  1
80.000000
  0
DICTIONARYVAR
  5
152
102
{ACAD_REACTORS
330
14E
102
}
330
14E
100
DictionaryVariables
280
     0
  1
5.000000
  0
ENDSEC
  0
EOF
