999
Converted by 3D Exploration 
999
XDimension Software, LLC
999
http://www.xdsoft.com/explorer/
0
SECTION
2
HEADER
9
$ACADVER
1
AC1008
9
$UCSORG
10
0.0
20
0.0
30
0.0
9
$UCSXDIR
10
1.0
20
0.0
30
0.0
9
$TILEMODE
70
1
9
$UCSYDIR
10
0.0
20
1.0
30
0.0
9
$EXTMIN
10
-32.874001
20
-28.833000
30
-28.833000
9
$EXTMAX
10
160.003006
20
45.355000
30
256.500000
0
ENDSEC
0
SECTION
2
TABLES
0
TABLE
2
LTYPE
70
1
0
LTYPE
2
CONTINUOUS
70
64
3
Solid line
72
65
73
0
40
0.0
0
ENDTAB
0
TABLE
2
LAYER
70
60
0
LAYER
2
OBJECT__0
70
0
62
253
6
CONTINUOUS
0
LAYER
2
OBJECT__1
70
0
62
253
6
CONTINUOUS
0
LAYER
2
OBJECT__3
70
0
62
253
6
CONTINUOUS
0
LAYER
2
OBJECT__4
70
0
62
253
6
CONTINUOUS
0
LAYER
2
OBJECT__5
70
0
62
253
6
CONTINUOUS
0
LAYER
2
OBJECT__6
70
0
62
253
6
CONTINUOUS
0
LAYER
2
OBJECT__7
70
0
62
253
6
CONTINUOUS
0
LAYER
2
OBJECT__8
70
0
62
253
6
CONTINUOUS
0
LAYER
2
OBJECT__9
70
0
62
253
6
CONTINUOUS
0
LAYER
2
OBJECT__10
70
0
62
253
6
CONTINUOUS
0
LAYER
2
OBJECT__11
70
0
62
253
6
CONTINUOUS
0
LAYER
2
OBJECT__13
70
0
62
253
6
CONTINUOUS
0
LAYER
2
OBJECT__14
70
0
62
253
6
CONTINUOUS
0
LAYER
2
OBJECT__15
70
0
62
253
6
CONTINUOUS
0
LAYER
2
OBJECT__16
70
0
62
253
6
CONTINUOUS
0
LAYER
2
OBJECT__17
70
0
62
253
6
CONTINUOUS
0
LAYER
2
OBJECT__18
70
0
62
253
6
CONTINUOUS
0
LAYER
2
OBJECT__19
70
0
62
253
6
CONTINUOUS
0
LAYER
2
OBJECT__20
70
0
62
253
6
CONTINUOUS
0
LAYER
2
OBJECT__21
70
0
62
253
6
CONTINUOUS
0
LAYER
2
OBJECT__22
70
0
62
253
6
CONTINUOUS
0
LAYER
2
OBJECT__23
70
0
62
253
6
CONTINUOUS
0
LAYER
2
OBJECT__24
70
0
62
253
6
CONTINUOUS
0
LAYER
2
OBJECT__25
70
0
62
253
6
CONTINUOUS
0
LAYER
2
OBJECT__27
70
0
62
253
6
CONTINUOUS
0
LAYER
2
OBJECT__28
70
0
62
253
6
CONTINUOUS
0
LAYER
2
OBJECT__29
70
0
62
253
6
CONTINUOUS
0
LAYER
2
OBJECT__31
70
0
62
253
6
CONTINUOUS
0
LAYER
2
OBJECT__32
70
0
62
253
6
CONTINUOUS
0
LAYER
2
OBJECT__34
70
0
62
253
6
CONTINUOUS
0
LAYER
2
OBJECT__35
70
0
62
253
6
CONTINUOUS
0
LAYER
2
OBJECT__36
70
0
62
253
6
CONTINUOUS
0
LAYER
2
OBJECT__38
70
0
62
253
6
CONTINUOUS
0
LAYER
2
OBJECT__39
70
0
62
253
6
CONTINUOUS
0
LAYER
2
OBJECT__40
70
0
62
253
6
CONTINUOUS
0
LAYER
2
OBJECT__41
70
0
62
253
6
CONTINUOUS
0
LAYER
2
OBJECT__42
70
0
62
253
6
CONTINUOUS
0
LAYER
2
OBJECT__43
70
0
62
253
6
CONTINUOUS
0
LAYER
2
OBJECT__45
70
0
62
253
6
CONTINUOUS
0
LAYER
2
OBJECT__46
70
0
62
253
6
CONTINUOUS
0
LAYER
2
OBJECT__47
70
0
62
253
6
CONTINUOUS
0
LAYER
2
OBJECT__48
70
0
62
253
6
CONTINUOUS
0
LAYER
2
OBJECT__49
70
0
62
253
6
CONTINUOUS
0
LAYER
2
OBJECT__50
70
0
62
253
6
CONTINUOUS
0
LAYER
2
OBJECT__51
70
0
62
253
6
CONTINUOUS
0
LAYER
2
OBJECT__52
70
0
62
253
6
CONTINUOUS
0
LAYER
2
OBJECT__53
70
0
62
253
6
CONTINUOUS
0
LAYER
2
OBJECT__54
70
0
62
253
6
CONTINUOUS
0
LAYER
2
OBJECT__55
70
0
62
253
6
CONTINUOUS
0
LAYER
2
OBJECT__56
70
0
62
253
6
CONTINUOUS
0
LAYER
2
OBJECT__57
70
0
62
253
6
CONTINUOUS
0
LAYER
2
OBJECT__58
70
0
62
253
6
CONTINUOUS
0
LAYER
2
OBJECT__59
70
0
62
253
6
CONTINUOUS
0
ENDTAB
0
TABLE
2
STYLE
70
1
0
STYLE
2
STANDARD
70
0
40
0.0
41
1.0
50
0.0
71
0
42
0.2
3
txt
4
1
0
ENDTAB
0
TABLE
2
UCS
70
0
0
ENDTAB
0
ENDSEC
0
SECTION
2
ENTITIES
0
POLYLINE
8
OBJECT__0
66
1
70
64
71
8
72
6
62
253
0
VERTEX
8
OBJECT__0
10
-10.500000
20
27.004999
30
28.311001
70
192
0
VERTEX
8
OBJECT__0
10
-13.836000
20
27.004999
30
42.926998
70
192
0
VERTEX
8
OBJECT__0
10
-17.996000
20
27.004999
30
37.710999
70
192
0
VERTEX
8
OBJECT__0
10
-7.164000
20
27.004999
30
42.926998
70
192
0
VERTEX
8
OBJECT__0
10
-4.489000
20
27.004999
30
31.205999
70
192
0
VERTEX
8
OBJECT__0
10
-10.500000
20
27.004999
30
43.688999
70
192
0
VERTEX
8
OBJECT__0
10
-3.004000
20
27.004999
30
37.710999
70
192
0
VERTEX
8
OBJECT__0
10
-16.511000
20
27.004999
30
31.205999
70
192
0
VERTEX
8
OBJECT__0
10
0
20
0
30
0
70
128
71
1
72
2
73
3
0
VERTEX
8
OBJECT__0
10
0
20
0
30
0
70
128
71
4
72
1
73
5
0
VERTEX
8
OBJECT__0
10
0
20
0
30
0
70
128
71
1
72
6
73
2
0
VERTEX
8
OBJECT__0
10
0
20
0
30
0
70
128
71
5
72
7
73
4
0
VERTEX
8
OBJECT__0
10
0
20
0
30
0
70
128
71
4
72
6
73
1
0
VERTEX
8
OBJECT__0
10
0
20
0
30
0
70
128
71
3
72
8
73
1
0
SEQEND
8
OBJECT__0
0
POLYLINE
8
OBJECT__1
66
1
70
64
71
29
72
29
62
253
0
VERTEX
8
OBJECT__1
10
-16.511000
20
27.004999
30
31.205999
70
192
0
VERTEX
8
OBJECT__1
10
-16.649000
20
44.846001
30
31.150999
70
192
0
VERTEX
8
OBJECT__1
10
-13.053000
20
44.846001
30
28.417999
70
192
0
VERTEX
8
OBJECT__1
10
-10.500000
20
27.004999
30
28.311001
70
192
0
VERTEX
8
OBJECT__1
10
-17.996000
20
27.004999
30
37.710999
70
192
0
VERTEX
8
OBJECT__1
10
-18.489000
20
44.846001
30
36.426998
70
192
0
VERTEX
8
OBJECT__1
10
-17.118999
20
44.846001
30
31.507999
70
192
0
VERTEX
8
OBJECT__1
10
-17.997999
20
44.846001
30
37.660999
70
192
0
VERTEX
8
OBJECT__1
10
-13.836000
20
27.004999
30
42.926998
70
192
0
VERTEX
8
OBJECT__1
10
-16.603001
20
44.846001
30
41.173000
70
192
0
VERTEX
8
OBJECT__1
10
-13.798000
20
44.846001
30
42.931999
70
192
0
VERTEX
8
OBJECT__1
10
-3.004000
20
27.004999
30
37.710999
70
192
0
VERTEX
8
OBJECT__1
10
-3.002000
20
44.846001
30
37.660999
70
192
0
VERTEX
8
OBJECT__1
10
-4.397000
20
44.846001
30
41.173000
70
192
0
VERTEX
8
OBJECT__1
10
-7.164000
20
27.004999
30
42.926998
70
192
0
VERTEX
8
OBJECT__1
10
-4.489000
20
27.004999
30
31.205999
70
192
0
VERTEX
8
OBJECT__1
10
-3.881000
20
44.846001
30
31.507999
70
192
0
VERTEX
8
OBJECT__1
10
-2.511000
20
44.846001
30
36.426998
70
192
0
VERTEX
8
OBJECT__1
10
-4.351000
20
44.846001
30
31.150999
70
192
0
VERTEX
8
OBJECT__1
10
-7.947000
20
44.846001
30
28.417999
70
192
0
VERTEX
8
OBJECT__1
10
-10.500000
20
44.846001
30
28.417999
70
192
0
VERTEX
8
OBJECT__1
10
-12.500000
20
35.200001
30
43.571999
70
192
0
VERTEX
8
OBJECT__1
10
-12.500000
20
33.855000
30
43.548000
70
192
0
VERTEX
8
OBJECT__1
10
-8.500000
20
33.855000
30
43.548000
70
192
0
VERTEX
8
OBJECT__1
10
-10.500000
20
27.004999
30
43.688999
70
192
0
VERTEX
8
OBJECT__1
10
-7.202000
20
44.846001
30
42.931999
70
192
0
VERTEX
8
OBJECT__1
10
-8.500000
20
44.846001
30
43.745998
70
192
0
VERTEX
8
OBJECT__1
10
-8.500000
20
35.200001
30
43.571999
70
192
0
VERTEX
8
OBJECT__1
10
-12.500000
20
44.846001
30
43.745998
70
192
0
VERTEX
8
OBJECT__1
10
0
20
0
30
0
70
128
71
1
72
2
73
3
0
VERTEX
8
OBJECT__1
10
0
20
0
30
0
70
128
71
3
72
4
73
1
0
VERTEX
8
OBJECT__1
10
0
20
0
30
0
70
128
71
1
72
5
73
6
0
VERTEX
8
OBJECT__1
10
0
20
0
30
0
70
128
71
6
72
7
73
1
0
VERTEX
8
OBJECT__1
10
0
20
0
30
0
70
128
71
5
72
8
73
6
0
VERTEX
8
OBJECT__1
10
0
20
0
30
0
70
128
71
5
72
9
73
10
0
VERTEX
8
OBJECT__1
10
0
20
0
30
0
70
128
71
9
72
11
73
10
0
VERTEX
8
OBJECT__1
10
0
20
0
30
0
70
128
71
12
72
13
73
14
0
VERTEX
8
OBJECT__1
10
0
20
0
30
0
70
128
71
14
72
15
73
12
0
VERTEX
8
OBJECT__1
10
0
20
0
30
0
70
128
71
16
72
17
73
18
0
VERTEX
8
OBJECT__1
10
0
20
0
30
0
70
128
71
16
72
19
73
17
0
VERTEX
8
OBJECT__1
10
0
20
0
30
0
70
128
71
18
72
12
73
16
0
VERTEX
8
OBJECT__1
10
0
20
0
30
0
70
128
71
16
72
4
73
20
0
VERTEX
8
OBJECT__1
10
0
20
0
30
0
70
128
71
4
72
21
73
20
0
VERTEX
8
OBJECT__1
10
0
20
0
30
0
70
128
71
11
72
9
73
22
0
VERTEX
8
OBJECT__1
10
0
20
0
30
0
70
128
71
9
72
23
73
22
0
VERTEX
8
OBJECT__1
10
0
20
0
30
0
70
128
71
24
72
23
73
25
0
VERTEX
8
OBJECT__1
10
0
20
0
30
0
70
128
71
23
72
9
73
25
0
VERTEX
8
OBJECT__1
10
0
20
0
30
0
70
128
71
25
72
15
73
24
0
VERTEX
8
OBJECT__1
10
0
20
0
30
0
70
128
71
26
72
27
73
28
0
VERTEX
8
OBJECT__1
10
0
20
0
30
0
70
128
71
28
72
15
73
26
0
VERTEX
8
OBJECT__1
10
0
20
0
30
0
70
128
71
28
72
24
73
15
0
VERTEX
8
OBJECT__1
10
0
20
0
30
0
70
128
71
22
72
29
73
11
0
VERTEX
8
OBJECT__1
10
0
20
0
30
0
70
128
71
20
72
19
73
16
0
VERTEX
8
OBJECT__1
10
0
20
0
30
0
70
128
71
18
72
13
73
12
0
VERTEX
8
OBJECT__1
10
0
20
0
30
0
70
128
71
14
72
26
73
15
0
VERTEX
8
OBJECT__1
10
0
20
0
30
0
70
128
71
10
72
8
73
5
0
VERTEX
8
OBJECT__1
10
0
20
0
30
0
70
128
71
7
72
2
73
1
0
VERTEX
8
OBJECT__1
10
0
20
0
30
0
70
128
71
3
72
21
73
4
0
SEQEND
8
OBJECT__1
0
POLYLINE
8
OBJECT__3
66
1
70
64
71
39
72
45
62
253
0
VERTEX
8
OBJECT__3
10
-16.493000
20
45.205002
30
41.080002
70
192
0
VERTEX
8
OBJECT__3
10
-16.221001
20
45.355000
30
40.849998
70
192
0
VERTEX
8
OBJECT__3
10
-17.989000
20
45.355000
30
36.401001
70
192
0
VERTEX
8
OBJECT__3
10
-18.344999
20
45.205002
30
36.419998
70
192
0
VERTEX
8
OBJECT__3
10
-16.705999
20
45.355000
30
31.788000
70
192
0
VERTEX
8
OBJECT__3
10
-17.000999
20
45.205002
30
31.587999
70
192
0
VERTEX
8
OBJECT__3
10
-12.894000
20
45.355000
30
28.892000
70
192
0
VERTEX
8
OBJECT__3
10
-13.008000
20
45.205002
30
28.554001
70
192
0
VERTEX
8
OBJECT__3
10
-8.106000
20
45.355000
30
28.892000
70
192
0
VERTEX
8
OBJECT__3
10
-7.992000
20
45.205002
30
28.554001
70
192
0
VERTEX
8
OBJECT__3
10
-4.294000
20
45.355000
30
31.788000
70
192
0
VERTEX
8
OBJECT__3
10
-2.655000
20
45.205002
30
36.419998
70
192
0
VERTEX
8
OBJECT__3
10
-3.999000
20
45.205002
30
31.587999
70
192
0
VERTEX
8
OBJECT__3
10
-4.507000
20
45.205002
30
41.080002
70
192
0
VERTEX
8
OBJECT__3
10
-3.011000
20
45.355000
30
36.401001
70
192
0
VERTEX
8
OBJECT__3
10
-17.997999
20
44.846001
30
37.660999
70
192
0
VERTEX
8
OBJECT__3
10
-18.489000
20
44.846001
30
36.426998
70
192
0
VERTEX
8
OBJECT__3
10
-13.053000
20
44.846001
30
28.417999
70
192
0
VERTEX
8
OBJECT__3
10
-16.649000
20
44.846001
30
31.150999
70
192
0
VERTEX
8
OBJECT__3
10
-10.500000
20
44.846001
30
28.417999
70
192
0
VERTEX
8
OBJECT__3
10
-7.947000
20
44.846001
30
28.417999
70
192
0
VERTEX
8
OBJECT__3
10
-4.351000
20
44.846001
30
31.150999
70
192
0
VERTEX
8
OBJECT__3
10
-3.881000
20
44.846001
30
31.507999
70
192
0
VERTEX
8
OBJECT__3
10
-4.397000
20
44.846001
30
41.173000
70
192
0
VERTEX
8
OBJECT__3
10
-3.002000
20
44.846001
30
37.660999
70
192
0
VERTEX
8
OBJECT__3
10
-4.779000
20
45.355000
30
40.849998
70
192
0
VERTEX
8
OBJECT__3
10
-8.500000
20
45.355000
30
43.228001
70
192
0
VERTEX
8
OBJECT__3
10
-8.500000
20
45.334000
30
43.376999
70
192
0
VERTEX
8
OBJECT__3
10
-8.500000
20
45.148998
30
43.516998
70
192
0
VERTEX
8
OBJECT__3
10
-7.202000
20
44.846001
30
42.931999
70
192
0
VERTEX
8
OBJECT__3
10
-8.500000
20
44.846001
30
43.745998
70
192
0
VERTEX
8
OBJECT__3
10
-16.603001
20
44.846001
30
41.173000
70
192
0
VERTEX
8
OBJECT__3
10
-13.798000
20
44.846001
30
42.931999
70
192
0
VERTEX
8
OBJECT__3
10
-12.500000
20
45.148998
30
43.516998
70
192
0
VERTEX
8
OBJECT__3
10
-12.500000
20
45.334000
30
43.376999
70
192
0
VERTEX
8
OBJECT__3
10
-12.500000
20
45.355000
30
43.228001
70
192
0
VERTEX
8
OBJECT__3
10
-12.500000
20
44.846001
30
43.745998
70
192
0
VERTEX
8
OBJECT__3
10
-2.511000
20
44.846001
30
36.426998
70
192
0
VERTEX
8
OBJECT__3
10
-17.118999
20
44.846001
30
31.507999
70
192
0
VERTEX
8
OBJECT__3
10
0
20
0
30
0
70
128
71
1
72
2
73
3
0
VERTEX
8
OBJECT__3
10
0
20
0
30
0
70
128
71
4
72
3
73
5
0
VERTEX
8
OBJECT__3
10
0
20
0
30
0
70
128
71
6
72
5
73
7
0
VERTEX
8
OBJECT__3
10
0
20
0
30
0
70
128
71
8
72
7
73
9
0
VERTEX
8
OBJECT__3
10
0
20
0
30
0
70
128
71
10
72
9
73
11
0
VERTEX
8
OBJECT__3
10
0
20
0
30
0
70
128
71
12
72
13
73
11
0
VERTEX
8
OBJECT__3
10
0
20
0
30
0
70
128
71
14
72
12
73
15
0
VERTEX
8
OBJECT__3
10
0
20
0
30
0
70
128
71
1
72
4
73
16
0
VERTEX
8
OBJECT__3
10
0
20
0
30
0
70
128
71
4
72
17
73
16
0
VERTEX
8
OBJECT__3
10
0
20
0
30
0
70
128
71
17
72
4
73
6
0
VERTEX
8
OBJECT__3
10
0
20
0
30
0
70
128
71
8
72
18
73
19
0
VERTEX
8
OBJECT__3
10
0
20
0
30
0
70
128
71
19
72
6
73
8
0
VERTEX
8
OBJECT__3
10
0
20
0
30
0
70
128
71
8
72
10
73
20
0
VERTEX
8
OBJECT__3
10
0
20
0
30
0
70
128
71
10
72
21
73
20
0
VERTEX
8
OBJECT__3
10
0
20
0
30
0
70
128
71
10
72
13
73
22
0
VERTEX
8
OBJECT__3
10
0
20
0
30
0
70
128
71
13
72
23
73
22
0
VERTEX
8
OBJECT__3
10
0
20
0
30
0
70
128
71
23
72
13
73
12
0
VERTEX
8
OBJECT__3
10
0
20
0
30
0
70
128
71
14
72
24
73
25
0
VERTEX
8
OBJECT__3
10
0
20
0
30
0
70
128
71
25
72
12
73
14
0
VERTEX
8
OBJECT__3
10
0
20
0
30
0
70
128
71
14
72
26
73
27
0
VERTEX
8
OBJECT__3
10
0
20
0
30
0
70
128
71
27
72
28
73
14
0
VERTEX
8
OBJECT__3
10
0
20
0
30
0
70
128
71
14
72
29
73
30
0
VERTEX
8
OBJECT__3
10
0
20
0
30
0
70
128
71
29
72
31
73
30
0
VERTEX
8
OBJECT__3
10
0
20
0
30
0
70
128
71
1
72
32
73
33
0
VERTEX
8
OBJECT__3
10
0
20
0
30
0
70
128
71
33
72
34
73
1
0
VERTEX
8
OBJECT__3
10
0
20
0
30
0
70
128
71
1
72
35
73
36
0
VERTEX
8
OBJECT__3
10
0
20
0
30
0
70
128
71
1
72
34
73
35
0
VERTEX
8
OBJECT__3
10
0
20
0
30
0
70
128
71
36
72
2
73
1
0
VERTEX
8
OBJECT__3
10
0
20
0
30
0
70
128
71
33
72
37
73
34
0
VERTEX
8
OBJECT__3
10
0
20
0
30
0
70
128
71
30
72
24
73
14
0
VERTEX
8
OBJECT__3
10
0
20
0
30
0
70
128
71
28
72
29
73
14
0
VERTEX
8
OBJECT__3
10
0
20
0
30
0
70
128
71
25
72
38
73
12
0
VERTEX
8
OBJECT__3
10
0
20
0
30
0
70
128
71
12
72
38
73
23
0
VERTEX
8
OBJECT__3
10
0
20
0
30
0
70
128
71
22
72
21
73
10
0
VERTEX
8
OBJECT__3
10
0
20
0
30
0
70
128
71
20
72
18
73
8
0
VERTEX
8
OBJECT__3
10
0
20
0
30
0
70
128
71
19
72
39
73
6
0
VERTEX
8
OBJECT__3
10
0
20
0
30
0
70
128
71
6
72
39
73
17
0
VERTEX
8
OBJECT__3
10
0
20
0
30
0
70
128
71
16
72
32
73
1
0
VERTEX
8
OBJECT__3
10
0
20
0
30
0
70
128
71
15
72
26
73
14
0
VERTEX
8
OBJECT__3
10
0
20
0
30
0
70
128
71
11
72
15
73
12
0
VERTEX
8
OBJECT__3
10
0
20
0
30
0
70
128
71
11
72
13
73
10
0
VERTEX
8
OBJECT__3
10
0
20
0
30
0
70
128
71
9
72
10
73
8
0
VERTEX
8
OBJECT__3
10
0
20
0
30
0
70
128
71
7
72
8
73
6
0
VERTEX
8
OBJECT__3
10
0
20
0
30
0
70
128
71
5
72
6
73
4
0
VERTEX
8
OBJECT__3
10
0
20
0
30
0
70
128
71
3
72
4
73
1
0
SEQEND
8
OBJECT__3
0
POLYLINE
8
OBJECT__4
66
1
70
64
71
12
72
10
62
253
0
VERTEX
8
OBJECT__4
10
-17.989000
20
45.355000
30
36.401001
70
192
0
VERTEX
8
OBJECT__4
10
-4.294000
20
45.355000
30
31.788000
70
192
0
VERTEX
8
OBJECT__4
10
-8.106000
20
45.355000
30
28.892000
70
192
0
VERTEX
8
OBJECT__4
10
-12.894000
20
45.355000
30
28.892000
70
192
0
VERTEX
8
OBJECT__4
10
-3.011000
20
45.355000
30
36.401001
70
192
0
VERTEX
8
OBJECT__4
10
-12.500000
20
45.355000
30
43.228001
70
192
0
VERTEX
8
OBJECT__4
10
-8.500000
20
45.355000
30
43.228001
70
192
0
VERTEX
8
OBJECT__4
10
-8.500000
20
45.355000
30
64.000000
70
192
0
VERTEX
8
OBJECT__4
10
-16.221001
20
45.355000
30
40.849998
70
192
0
VERTEX
8
OBJECT__4
10
-16.705999
20
45.355000
30
31.788000
70
192
0
VERTEX
8
OBJECT__4
10
-12.500000
20
45.355000
30
64.000000
70
192
0
VERTEX
8
OBJECT__4
10
-4.779000
20
45.355000
30
40.849998
70
192
0
VERTEX
8
OBJECT__4
10
0
20
0
30
0
70
128
71
1
72
2
73
3
0
VERTEX
8
OBJECT__4
10
0
20
0
30
0
70
128
71
3
72
4
73
1
0
VERTEX
8
OBJECT__4
10
0
20
0
30
0
70
128
71
5
72
6
73
7
0
VERTEX
8
OBJECT__4
10
0
20
0
30
0
70
128
71
8
72
7
73
6
0
VERTEX
8
OBJECT__4
10
0
20
0
30
0
70
128
71
2
72
9
73
6
0
VERTEX
8
OBJECT__4
10
0
20
0
30
0
70
128
71
4
72
10
73
1
0
VERTEX
8
OBJECT__4
10
0
20
0
30
0
70
128
71
6
72
11
73
8
0
VERTEX
8
OBJECT__4
10
0
20
0
30
0
70
128
71
1
72
9
73
2
0
VERTEX
8
OBJECT__4
10
0
20
0
30
0
70
128
71
6
72
5
73
2
0
VERTEX
8
OBJECT__4
10
0
20
0
30
0
70
128
71
7
72
12
73
5
0
SEQEND
8
OBJECT__4
0
POLYLINE
8
OBJECT__5
66
1
70
64
71
9
72
7
62
253
0
VERTEX
8
OBJECT__5
10
-8.500000
20
44.855000
30
64.000000
70
192
0
VERTEX
8
OBJECT__5
10
-8.500000
20
33.855000
30
63.807999
70
192
0
VERTEX
8
OBJECT__5
10
-8.500000
20
35.200001
30
43.571999
70
192
0
VERTEX
8
OBJECT__5
10
-8.500000
20
44.846001
30
43.745998
70
192
0
VERTEX
8
OBJECT__5
10
-8.500000
20
45.355000
30
64.000000
70
192
0
VERTEX
8
OBJECT__5
10
-8.500000
20
45.148998
30
43.516998
70
192
0
VERTEX
8
OBJECT__5
10
-8.500000
20
33.855000
30
43.548000
70
192
0
VERTEX
8
OBJECT__5
10
-8.500000
20
45.334000
30
43.376999
70
192
0
VERTEX
8
OBJECT__5
10
-8.500000
20
45.355000
30
43.228001
70
192
0
VERTEX
8
OBJECT__5
10
0
20
0
30
0
70
128
71
1
72
2
73
3
0
VERTEX
8
OBJECT__5
10
0
20
0
30
0
70
128
71
4
72
5
73
1
0
VERTEX
8
OBJECT__5
10
0
20
0
30
0
70
128
71
5
72
4
73
6
0
VERTEX
8
OBJECT__5
10
0
20
0
30
0
70
128
71
2
72
7
73
3
0
VERTEX
8
OBJECT__5
10
0
20
0
30
0
70
128
71
3
72
4
73
1
0
VERTEX
8
OBJECT__5
10
0
20
0
30
0
70
128
71
6
72
8
73
5
0
VERTEX
8
OBJECT__5
10
0
20
0
30
0
70
128
71
8
72
9
73
5
0
SEQEND
8
OBJECT__5
0
POLYLINE
8
OBJECT__6
66
1
70
64
71
9
72
7
62
253
0
VERTEX
8
OBJECT__6
10
-12.500000
20
33.855000
30
63.807999
70
192
0
VERTEX
8
OBJECT__6
10
-12.500000
20
44.846001
30
43.745998
70
192
0
VERTEX
8
OBJECT__6
10
-12.500000
20
35.200001
30
43.571999
70
192
0
VERTEX
8
OBJECT__6
10
-12.500000
20
45.334000
30
43.376999
70
192
0
VERTEX
8
OBJECT__6
10
-12.500000
20
45.148998
30
43.516998
70
192
0
VERTEX
8
OBJECT__6
10
-12.500000
20
45.355000
30
64.000000
70
192
0
VERTEX
8
OBJECT__6
10
-12.500000
20
45.355000
30
43.228001
70
192
0
VERTEX
8
OBJECT__6
10
-12.500000
20
44.855000
30
64.000000
70
192
0
VERTEX
8
OBJECT__6
10
-12.500000
20
33.855000
30
43.548000
70
192
0
VERTEX
8
OBJECT__6
10
0
20
0
30
0
70
128
71
1
72
2
73
3
0
VERTEX
8
OBJECT__6
10
0
20
0
30
0
70
128
71
1
72
4
73
5
0
VERTEX
8
OBJECT__6
10
0
20
0
30
0
70
128
71
6
72
7
73
4
0
VERTEX
8
OBJECT__6
10
0
20
0
30
0
70
128
71
5
72
2
73
1
0
VERTEX
8
OBJECT__6
10
0
20
0
30
0
70
128
71
4
72
8
73
6
0
VERTEX
8
OBJECT__6
10
0
20
0
30
0
70
128
71
4
72
1
73
8
0
VERTEX
8
OBJECT__6
10
0
20
0
30
0
70
128
71
3
72
9
73
1
0
SEQEND
8
OBJECT__6
0
POLYLINE
8
OBJECT__7
66
1
70
64
71
4
72
2
62
253
0
VERTEX
8
OBJECT__7
10
-12.500000
20
45.355000
30
64.000000
70
192
0
VERTEX
8
OBJECT__7
10
-12.500000
20
44.855000
30
64.000000
70
192
0
VERTEX
8
OBJECT__7
10
-8.500000
20
44.855000
30
64.000000
70
192
0
VERTEX
8
OBJECT__7
10
-8.500000
20
45.355000
30
64.000000
70
192
0
VERTEX
8
OBJECT__7
10
0
20
0
30
0
70
128
71
1
72
2
73
3
0
VERTEX
8
OBJECT__7
10
0
20
0
30
0
70
128
71
3
72
4
73
1
0
SEQEND
8
OBJECT__7
0
POLYLINE
8
OBJECT__8
66
1
70
64
71
4
72
2
62
253
0
VERTEX
8
OBJECT__8
10
-12.500000
20
44.855000
30
64.000000
70
192
0
VERTEX
8
OBJECT__8
10
-12.500000
20
33.855000
30
63.807999
70
192
0
VERTEX
8
OBJECT__8
10
-8.500000
20
33.855000
30
63.807999
70
192
0
VERTEX
8
OBJECT__8
10
-8.500000
20
44.855000
30
64.000000
70
192
0
VERTEX
8
OBJECT__8
10
0
20
0
30
0
70
128
71
1
72
2
73
3
0
VERTEX
8
OBJECT__8
10
0
20
0
30
0
70
128
71
3
72
4
73
1
0
SEQEND
8
OBJECT__8
0
POLYLINE
8
OBJECT__9
66
1
70
64
71
4
72
2
62
253
0
VERTEX
8
OBJECT__9
10
-12.500000
20
33.855000
30
63.807999
70
192
0
VERTEX
8
OBJECT__9
10
-12.500000
20
33.855000
30
43.548000
70
192
0
VERTEX
8
OBJECT__9
10
-8.500000
20
33.855000
30
43.548000
70
192
0
VERTEX
8
OBJECT__9
10
-8.500000
20
33.855000
30
63.807999
70
192
0
VERTEX
8
OBJECT__9
10
0
20
0
30
0
70
128
71
1
72
2
73
3
0
VERTEX
8
OBJECT__9
10
0
20
0
30
0
70
128
71
3
72
4
73
1
0
SEQEND
8
OBJECT__9
0
POLYLINE
8
OBJECT__10
66
1
70
64
71
56
72
56
62
253
0
VERTEX
8
OBJECT__10
10
5.621000
20
5.621000
30
144.500000
70
192
0
VERTEX
8
OBJECT__10
10
23.752001
20
9.853000
30
144.500000
70
192
0
VERTEX
8
OBJECT__10
10
23.631001
20
10.354000
30
144.500000
70
192
0
VERTEX
8
OBJECT__10
10
7.950000
20
0.000000
30
144.500000
70
192
0
VERTEX
8
OBJECT__10
10
24.934000
20
4.944000
30
144.500000
70
192
0
VERTEX
8
OBJECT__10
10
25.799999
20
0.000000
30
144.500000
70
192
0
VERTEX
8
OBJECT__10
10
25.754000
20
1.542000
30
144.500000
70
192
0
VERTEX
8
OBJECT__10
10
21.084999
20
14.083000
30
144.500000
70
192
0
VERTEX
8
OBJECT__10
10
0.000000
20
7.950000
30
144.500000
70
192
0
VERTEX
8
OBJECT__10
10
4.933000
20
24.936001
30
144.500000
70
192
0
VERTEX
8
OBJECT__10
10
2.086000
20
25.716000
30
144.500000
70
192
0
VERTEX
8
OBJECT__10
10
9.809000
20
23.601000
30
144.500000
70
192
0
VERTEX
8
OBJECT__10
10
14.135000
20
21.173000
30
144.500000
70
192
0
VERTEX
8
OBJECT__10
10
11.305000
20
23.191000
30
144.500000
70
192
0
VERTEX
8
OBJECT__10
10
18.243000
20
18.243000
30
144.500000
70
192
0
VERTEX
8
OBJECT__10
10
-5.621000
20
5.621000
30
144.500000
70
192
0
VERTEX
8
OBJECT__10
10
-14.204000
20
21.201000
30
144.500000
70
192
0
VERTEX
8
OBJECT__10
10
-15.877000
20
20.336000
30
144.500000
70
192
0
VERTEX
8
OBJECT__10
10
-9.711000
20
23.523001
30
144.500000
70
192
0
VERTEX
8
OBJECT__10
10
-4.998000
20
24.968000
30
144.500000
70
192
0
VERTEX
8
OBJECT__10
10
-7.409000
20
24.712999
30
144.500000
70
192
0
VERTEX
8
OBJECT__10
10
0.032000
20
25.499001
30
144.500000
70
192
0
VERTEX
8
OBJECT__10
10
-7.950000
20
0.000000
30
144.500000
70
192
0
VERTEX
8
OBJECT__10
10
-23.757000
20
9.824000
30
144.500000
70
192
0
VERTEX
8
OBJECT__10
10
-24.035999
20
9.376000
30
144.500000
70
192
0
VERTEX
8
OBJECT__10
10
-21.084000
20
14.104000
30
144.500000
70
192
0
VERTEX
8
OBJECT__10
10
-24.868000
20
4.951000
30
144.500000
70
192
0
VERTEX
8
OBJECT__10
10
-18.200001
20
18.195999
30
144.500000
70
192
0
VERTEX
8
OBJECT__10
10
-18.973000
20
17.483000
30
144.500000
70
192
0
VERTEX
8
OBJECT__10
10
-25.799999
20
0.000000
30
144.500000
70
192
0
VERTEX
8
OBJECT__10
10
-5.621000
20
-5.621000
30
144.500000
70
192
0
VERTEX
8
OBJECT__10
10
-23.752001
20
-9.853000
30
144.500000
70
192
0
VERTEX
8
OBJECT__10
10
-23.631001
20
-10.355000
30
144.500000
70
192
0
VERTEX
8
OBJECT__10
10
-24.934000
20
-4.944000
30
144.500000
70
192
0
VERTEX
8
OBJECT__10
10
-21.084999
20
-14.083000
30
144.500000
70
192
0
VERTEX
8
OBJECT__10
10
-25.754000
20
-1.541000
30
144.500000
70
192
0
VERTEX
8
OBJECT__10
10
0.000000
20
-7.950000
30
144.500000
70
192
0
VERTEX
8
OBJECT__10
10
-4.933000
20
-24.936001
30
144.500000
70
192
0
VERTEX
8
OBJECT__10
10
-2.091000
20
-25.715000
30
144.500000
70
192
0
VERTEX
8
OBJECT__10
10
-9.809000
20
-23.600000
30
144.500000
70
192
0
VERTEX
8
OBJECT__10
10
-14.135000
20
-21.174000
30
144.500000
70
192
0
VERTEX
8
OBJECT__10
10
-11.310000
20
-23.188999
30
144.500000
70
192
0
VERTEX
8
OBJECT__10
10
-18.243000
20
-18.243000
30
144.500000
70
192
0
VERTEX
8
OBJECT__10
10
5.621000
20
-5.621000
30
144.500000
70
192
0
VERTEX
8
OBJECT__10
10
14.204000
20
-21.201000
30
144.500000
70
192
0
VERTEX
8
OBJECT__10
10
15.873000
20
-20.339001
30
144.500000
70
192
0
VERTEX
8
OBJECT__10
10
9.711000
20
-23.523001
30
144.500000
70
192
0
VERTEX
8
OBJECT__10
10
4.998000
20
-24.968000
30
144.500000
70
192
0
VERTEX
8
OBJECT__10
10
7.404000
20
-24.715000
30
144.500000
70
192
0
VERTEX
8
OBJECT__10
10
-0.032000
20
-25.497999
30
144.500000
70
192
0
VERTEX
8
OBJECT__10
10
18.198999
20
-18.195999
30
144.500000
70
192
0
VERTEX
8
OBJECT__10
10
23.756001
20
-9.824000
30
144.500000
70
192
0
VERTEX
8
OBJECT__10
10
24.035999
20
-9.375000
30
144.500000
70
192
0
VERTEX
8
OBJECT__10
10
21.084000
20
-14.104000
30
144.500000
70
192
0
VERTEX
8
OBJECT__10
10
24.868999
20
-4.951000
30
144.500000
70
192
0
VERTEX
8
OBJECT__10
10
18.974001
20
-17.482000
30
144.500000
70
192
0
VERTEX
8
OBJECT__10
10
0
20
0
30
0
70
128
71
1
72
2
73
3
0
VERTEX
8
OBJECT__10
10
0
20
0
30
0
70
128
71
2
72
1
73
4
0
VERTEX
8
OBJECT__10
10
0
20
0
30
0
70
128
71
4
72
5
73
2
0
VERTEX
8
OBJECT__10
10
0
20
0
30
0
70
128
71
4
72
6
73
7
0
VERTEX
8
OBJECT__10
10
0
20
0
30
0
70
128
71
7
72
5
73
4
0
VERTEX
8
OBJECT__10
10
0
20
0
30
0
70
128
71
3
72
8
73
1
0
VERTEX
8
OBJECT__10
10
0
20
0
30
0
70
128
71
9
72
10
73
11
0
VERTEX
8
OBJECT__10
10
0
20
0
30
0
70
128
71
12
72
10
73
9
0
VERTEX
8
OBJECT__10
10
0
20
0
30
0
70
128
71
9
72
1
73
12
0
VERTEX
8
OBJECT__10
10
0
20
0
30
0
70
128
71
1
72
13
73
14
0
VERTEX
8
OBJECT__10
10
0
20
0
30
0
70
128
71
1
72
15
73
13
0
VERTEX
8
OBJECT__10
10
0
20
0
30
0
70
128
71
14
72
12
73
1
0
VERTEX
8
OBJECT__10
10
0
20
0
30
0
70
128
71
16
72
17
73
18
0
VERTEX
8
OBJECT__10
10
0
20
0
30
0
70
128
71
19
72
17
73
16
0
VERTEX
8
OBJECT__10
10
0
20
0
30
0
70
128
71
9
72
20
73
21
0
VERTEX
8
OBJECT__10
10
0
20
0
30
0
70
128
71
9
72
22
73
20
0
VERTEX
8
OBJECT__10
10
0
20
0
30
0
70
128
71
21
72
19
73
9
0
VERTEX
8
OBJECT__10
10
0
20
0
30
0
70
128
71
16
72
9
73
19
0
VERTEX
8
OBJECT__10
10
0
20
0
30
0
70
128
71
23
72
24
73
25
0
VERTEX
8
OBJECT__10
10
0
20
0
30
0
70
128
71
24
72
23
73
16
0
VERTEX
8
OBJECT__10
10
0
20
0
30
0
70
128
71
16
72
26
73
24
0
VERTEX
8
OBJECT__10
10
0
20
0
30
0
70
128
71
25
72
27
73
23
0
VERTEX
8
OBJECT__10
10
0
20
0
30
0
70
128
71
16
72
28
73
29
0
VERTEX
8
OBJECT__10
10
0
20
0
30
0
70
128
71
29
72
26
73
16
0
VERTEX
8
OBJECT__10
10
0
20
0
30
0
70
128
71
27
72
30
73
23
0
VERTEX
8
OBJECT__10
10
0
20
0
30
0
70
128
71
18
72
28
73
16
0
VERTEX
8
OBJECT__10
10
0
20
0
30
0
70
128
71
31
72
32
73
33
0
VERTEX
8
OBJECT__10
10
0
20
0
30
0
70
128
71
32
72
31
73
23
0
VERTEX
8
OBJECT__10
10
0
20
0
30
0
70
128
71
23
72
34
73
32
0
VERTEX
8
OBJECT__10
10
0
20
0
30
0
70
128
71
33
72
35
73
31
0
VERTEX
8
OBJECT__10
10
0
20
0
30
0
70
128
71
23
72
30
73
36
0
VERTEX
8
OBJECT__10
10
0
20
0
30
0
70
128
71
36
72
34
73
23
0
VERTEX
8
OBJECT__10
10
0
20
0
30
0
70
128
71
37
72
38
73
39
0
VERTEX
8
OBJECT__10
10
0
20
0
30
0
70
128
71
40
72
38
73
37
0
VERTEX
8
OBJECT__10
10
0
20
0
30
0
70
128
71
31
72
41
73
42
0
VERTEX
8
OBJECT__10
10
0
20
0
30
0
70
128
71
42
72
40
73
31
0
VERTEX
8
OBJECT__10
10
0
20
0
30
0
70
128
71
31
72
43
73
41
0
VERTEX
8
OBJECT__10
10
0
20
0
30
0
70
128
71
37
72
31
73
40
0
VERTEX
8
OBJECT__10
10
0
20
0
30
0
70
128
71
44
72
45
73
46
0
VERTEX
8
OBJECT__10
10
0
20
0
30
0
70
128
71
44
72
47
73
45
0
VERTEX
8
OBJECT__10
10
0
20
0
30
0
70
128
71
44
72
48
73
49
0
VERTEX
8
OBJECT__10
10
0
20
0
30
0
70
128
71
49
72
47
73
44
0
VERTEX
8
OBJECT__10
10
0
20
0
30
0
70
128
71
48
72
44
73
37
0
VERTEX
8
OBJECT__10
10
0
20
0
30
0
70
128
71
37
72
50
73
48
0
VERTEX
8
OBJECT__10
10
0
20
0
30
0
70
128
71
46
72
51
73
44
0
VERTEX
8
OBJECT__10
10
0
20
0
30
0
70
128
71
39
72
50
73
37
0
VERTEX
8
OBJECT__10
10
0
20
0
30
0
70
128
71
35
72
43
73
31
0
VERTEX
8
OBJECT__10
10
0
20
0
30
0
70
128
71
11
72
22
73
9
0
VERTEX
8
OBJECT__10
10
0
20
0
30
0
70
128
71
4
72
52
73
53
0
VERTEX
8
OBJECT__10
10
0
20
0
30
0
70
128
71
52
72
4
73
44
0
VERTEX
8
OBJECT__10
10
0
20
0
30
0
70
128
71
44
72
54
73
52
0
VERTEX
8
OBJECT__10
10
0
20
0
30
0
70
128
71
53
72
55
73
4
0
VERTEX
8
OBJECT__10
10
0
20
0
30
0
70
128
71
44
72
51
73
56
0
VERTEX
8
OBJECT__10
10
0
20
0
30
0
70
128
71
56
72
54
73
44
0
VERTEX
8
OBJECT__10
10
0
20
0
30
0
70
128
71
55
72
6
73
4
0
VERTEX
8
OBJECT__10
10
0
20
0
30
0
70
128
71
8
72
15
73
1
0
SEQEND
8
OBJECT__10
0
POLYLINE
8
OBJECT__11
66
1
70
64
71
50
72
48
62
253
0
VERTEX
8
OBJECT__11
10
-5.072000
20
-25.429001
30
144.300003
70
192
0
VERTEX
8
OBJECT__11
10
0.000000
20
-25.429001
30
144.300003
70
192
0
VERTEX
8
OBJECT__11
10
-2.091000
20
-25.715000
30
144.500000
70
192
0
VERTEX
8
OBJECT__11
10
-4.933000
20
-24.936001
30
144.500000
70
192
0
VERTEX
8
OBJECT__11
10
-0.032000
20
-25.497999
30
144.500000
70
192
0
VERTEX
8
OBJECT__11
10
25.799999
20
0.000000
30
144.500000
70
192
0
VERTEX
8
OBJECT__11
10
24.868999
20
-4.951000
30
144.500000
70
192
0
VERTEX
8
OBJECT__11
10
24.863001
20
-4.925000
30
144.300003
70
192
0
VERTEX
8
OBJECT__11
10
26.000000
20
0.000000
30
144.300003
70
192
0
VERTEX
8
OBJECT__11
10
25.941000
20
0.000000
30
144.440994
70
192
0
VERTEX
8
OBJECT__11
10
-21.084999
20
-14.083000
30
144.500000
70
192
0
VERTEX
8
OBJECT__11
10
-21.163000
20
-14.082000
30
144.300003
70
192
0
VERTEX
8
OBJECT__11
10
-17.986000
20
-18.066999
30
144.300003
70
192
0
VERTEX
8
OBJECT__11
10
-14.277000
20
-21.261000
30
144.300003
70
192
0
VERTEX
8
OBJECT__11
10
-9.671000
20
-23.429001
30
144.300003
70
192
0
VERTEX
8
OBJECT__11
10
-11.310000
20
-23.188999
30
144.500000
70
192
0
VERTEX
8
OBJECT__11
10
-14.135000
20
-21.174000
30
144.500000
70
192
0
VERTEX
8
OBJECT__11
10
-9.809000
20
-23.600000
30
144.500000
70
192
0
VERTEX
8
OBJECT__11
10
-5.421000
20
-25.429001
30
144.300003
70
192
0
VERTEX
8
OBJECT__11
10
-16.138000
20
-20.385000
30
144.300003
70
192
0
VERTEX
8
OBJECT__11
10
-18.243000
20
-18.243000
30
144.500000
70
192
0
VERTEX
8
OBJECT__11
10
-24.884001
20
-4.933000
30
144.300003
70
192
0
VERTEX
8
OBJECT__11
10
-23.763000
20
-9.891000
30
144.300003
70
192
0
VERTEX
8
OBJECT__11
10
-23.752001
20
-9.853000
30
144.500000
70
192
0
VERTEX
8
OBJECT__11
10
-23.469999
20
-11.188000
30
144.300003
70
192
0
VERTEX
8
OBJECT__11
10
-23.631001
20
-10.355000
30
144.500000
70
192
0
VERTEX
8
OBJECT__11
10
-25.754000
20
-1.541000
30
144.500000
70
192
0
VERTEX
8
OBJECT__11
10
-25.799999
20
0.000000
30
144.500000
70
192
0
VERTEX
8
OBJECT__11
10
-25.941000
20
0.000000
30
144.440994
70
192
0
VERTEX
8
OBJECT__11
10
-24.934000
20
-4.944000
30
144.500000
70
192
0
VERTEX
8
OBJECT__11
10
-26.000000
20
0.000000
30
144.300003
70
192
0
VERTEX
8
OBJECT__11
10
14.282000
20
-21.270000
30
144.300003
70
192
0
VERTEX
8
OBJECT__11
10
16.094999
20
-20.419001
30
144.300003
70
192
0
VERTEX
8
OBJECT__11
10
15.873000
20
-20.339001
30
144.500000
70
192
0
VERTEX
8
OBJECT__11
10
17.990999
20
-18.066999
30
144.300003
70
192
0
VERTEX
8
OBJECT__11
10
18.198999
20
-18.195999
30
144.500000
70
192
0
VERTEX
8
OBJECT__11
10
21.084000
20
-14.104000
30
144.500000
70
192
0
VERTEX
8
OBJECT__11
10
21.190001
20
-14.100000
30
144.300003
70
192
0
VERTEX
8
OBJECT__11
10
23.370001
20
-11.396000
30
144.300003
70
192
0
VERTEX
8
OBJECT__11
10
23.756001
20
-9.824000
30
144.500000
70
192
0
VERTEX
8
OBJECT__11
10
24.035999
20
-9.375000
30
144.500000
70
192
0
VERTEX
8
OBJECT__11
10
23.719000
20
-9.880000
30
144.300003
70
192
0
VERTEX
8
OBJECT__11
10
18.974001
20
-17.482000
30
144.500000
70
192
0
VERTEX
8
OBJECT__11
10
5.421000
20
-25.429001
30
144.300003
70
192
0
VERTEX
8
OBJECT__11
10
9.674000
20
-23.433001
30
144.300003
70
192
0
VERTEX
8
OBJECT__11
10
7.404000
20
-24.715000
30
144.500000
70
192
0
VERTEX
8
OBJECT__11
10
4.998000
20
-24.968000
30
144.500000
70
192
0
VERTEX
8
OBJECT__11
10
5.072000
20
-25.429001
30
144.300003
70
192
0
VERTEX
8
OBJECT__11
10
9.711000
20
-23.523001
30
144.500000
70
192
0
VERTEX
8
OBJECT__11
10
14.204000
20
-21.201000
30
144.500000
70
192
0
VERTEX
8
OBJECT__11
10
0
20
0
30
0
70
128
71
1
72
2
73
3
0
VERTEX
8
OBJECT__11
10
0
20
0
30
0
70
128
71
3
72
4
73
1
0
VERTEX
8
OBJECT__11
10
0
20
0
30
0
70
128
71
2
72
5
73
3
0
VERTEX
8
OBJECT__11
10
0
20
0
30
0
70
128
71
6
72
7
73
8
0
VERTEX
8
OBJECT__11
10
0
20
0
30
0
70
128
71
8
72
9
73
10
0
VERTEX
8
OBJECT__11
10
0
20
0
30
0
70
128
71
11
72
12
73
13
0
VERTEX
8
OBJECT__11
10
0
20
0
30
0
70
128
71
14
72
15
73
16
0
VERTEX
8
OBJECT__11
10
0
20
0
30
0
70
128
71
16
72
17
73
14
0
VERTEX
8
OBJECT__11
10
0
20
0
30
0
70
128
71
4
72
18
73
15
0
VERTEX
8
OBJECT__11
10
0
20
0
30
0
70
128
71
15
72
19
73
4
0
VERTEX
8
OBJECT__11
10
0
20
0
30
0
70
128
71
20
72
17
73
21
0
VERTEX
8
OBJECT__11
10
0
20
0
30
0
70
128
71
21
72
13
73
20
0
VERTEX
8
OBJECT__11
10
0
20
0
30
0
70
128
71
20
72
14
73
17
0
VERTEX
8
OBJECT__11
10
0
20
0
30
0
70
128
71
22
72
23
73
24
0
VERTEX
8
OBJECT__11
10
0
20
0
30
0
70
128
71
23
72
25
73
26
0
VERTEX
8
OBJECT__11
10
0
20
0
30
0
70
128
71
11
72
26
73
25
0
VERTEX
8
OBJECT__11
10
0
20
0
30
0
70
128
71
25
72
12
73
11
0
VERTEX
8
OBJECT__11
10
0
20
0
30
0
70
128
71
27
72
28
73
29
0
VERTEX
8
OBJECT__11
10
0
20
0
30
0
70
128
71
22
72
30
73
27
0
VERTEX
8
OBJECT__11
10
0
20
0
30
0
70
128
71
27
72
31
73
22
0
VERTEX
8
OBJECT__11
10
0
20
0
30
0
70
128
71
32
72
33
73
34
0
VERTEX
8
OBJECT__11
10
0
20
0
30
0
70
128
71
33
72
35
73
36
0
VERTEX
8
OBJECT__11
10
0
20
0
30
0
70
128
71
36
72
34
73
33
0
VERTEX
8
OBJECT__11
10
0
20
0
30
0
70
128
71
37
72
38
73
39
0
VERTEX
8
OBJECT__11
10
0
20
0
30
0
70
128
71
39
72
40
73
37
0
VERTEX
8
OBJECT__11
10
0
20
0
30
0
70
128
71
8
72
7
73
41
0
VERTEX
8
OBJECT__11
10
0
20
0
30
0
70
128
71
41
72
42
73
8
0
VERTEX
8
OBJECT__11
10
0
20
0
30
0
70
128
71
35
72
37
73
43
0
VERTEX
8
OBJECT__11
10
0
20
0
30
0
70
128
71
43
72
36
73
35
0
VERTEX
8
OBJECT__11
10
0
20
0
30
0
70
128
71
44
72
45
73
46
0
VERTEX
8
OBJECT__11
10
0
20
0
30
0
70
128
71
46
72
47
73
44
0
VERTEX
8
OBJECT__11
10
0
20
0
30
0
70
128
71
47
72
48
73
44
0
VERTEX
8
OBJECT__11
10
0
20
0
30
0
70
128
71
45
72
49
73
46
0
VERTEX
8
OBJECT__11
10
0
20
0
30
0
70
128
71
45
72
32
73
50
0
VERTEX
8
OBJECT__11
10
0
20
0
30
0
70
128
71
47
72
5
73
2
0
VERTEX
8
OBJECT__11
10
0
20
0
30
0
70
128
71
2
72
48
73
47
0
VERTEX
8
OBJECT__11
10
0
20
0
30
0
70
128
71
50
72
49
73
45
0
VERTEX
8
OBJECT__11
10
0
20
0
30
0
70
128
71
35
72
38
73
37
0
VERTEX
8
OBJECT__11
10
0
20
0
30
0
70
128
71
41
72
40
73
42
0
VERTEX
8
OBJECT__11
10
0
20
0
30
0
70
128
71
39
72
42
73
40
0
VERTEX
8
OBJECT__11
10
0
20
0
30
0
70
128
71
34
72
50
73
32
0
VERTEX
8
OBJECT__11
10
0
20
0
30
0
70
128
71
29
72
31
73
27
0
VERTEX
8
OBJECT__11
10
0
20
0
30
0
70
128
71
26
72
24
73
23
0
VERTEX
8
OBJECT__11
10
0
20
0
30
0
70
128
71
24
72
30
73
22
0
VERTEX
8
OBJECT__11
10
0
20
0
30
0
70
128
71
19
72
1
73
4
0
VERTEX
8
OBJECT__11
10
0
20
0
30
0
70
128
71
15
72
18
73
16
0
VERTEX
8
OBJECT__11
10
0
20
0
30
0
70
128
71
13
72
21
73
11
0
VERTEX
8
OBJECT__11
10
0
20
0
30
0
70
128
71
8
72
10
73
6
0
SEQEND
8
OBJECT__11
0
POLYLINE
8
OBJECT__13
66
1
70
64
71
52
72
50
62
253
0
VERTEX
8
OBJECT__13
10
5.072000
20
25.440001
30
144.300003
70
192
0
VERTEX
8
OBJECT__13
10
0.000000
20
25.440001
30
144.300003
70
192
0
VERTEX
8
OBJECT__13
10
2.086000
20
25.716000
30
144.500000
70
192
0
VERTEX
8
OBJECT__13
10
4.933000
20
24.936001
30
144.500000
70
192
0
VERTEX
8
OBJECT__13
10
0.032000
20
25.499001
30
144.500000
70
192
0
VERTEX
8
OBJECT__13
10
-24.868000
20
4.951000
30
144.500000
70
192
0
VERTEX
8
OBJECT__13
10
-25.007999
20
4.941000
30
144.300003
70
192
0
VERTEX
8
OBJECT__13
10
-25.966000
20
1.337000
30
144.300003
70
192
0
VERTEX
8
OBJECT__13
10
-25.799999
20
0.000000
30
144.500000
70
192
0
VERTEX
8
OBJECT__13
10
-26.000000
20
0.000000
30
144.300003
70
192
0
VERTEX
8
OBJECT__13
10
-25.941000
20
0.000000
30
144.440994
70
192
0
VERTEX
8
OBJECT__13
10
21.084999
20
14.083000
30
144.500000
70
192
0
VERTEX
8
OBJECT__13
10
21.266001
20
14.140000
30
144.300003
70
192
0
VERTEX
8
OBJECT__13
10
17.933001
20
17.993999
30
144.300003
70
192
0
VERTEX
8
OBJECT__13
10
18.243000
20
18.243000
30
144.500000
70
192
0
VERTEX
8
OBJECT__13
10
14.361000
20
21.430000
30
144.300003
70
192
0
VERTEX
8
OBJECT__13
10
9.718000
20
23.500000
30
144.300003
70
192
0
VERTEX
8
OBJECT__13
10
11.305000
20
23.191000
30
144.500000
70
192
0
VERTEX
8
OBJECT__13
10
14.135000
20
21.173000
30
144.500000
70
192
0
VERTEX
8
OBJECT__13
10
9.809000
20
23.601000
30
144.500000
70
192
0
VERTEX
8
OBJECT__13
10
5.368000
20
25.440001
30
144.300003
70
192
0
VERTEX
8
OBJECT__13
10
15.338000
20
20.993999
30
144.300003
70
192
0
VERTEX
8
OBJECT__13
10
25.018000
20
4.936000
30
144.300003
70
192
0
VERTEX
8
OBJECT__13
10
23.636000
20
9.841000
30
144.300003
70
192
0
VERTEX
8
OBJECT__13
10
23.752001
20
9.853000
30
144.500000
70
192
0
VERTEX
8
OBJECT__13
10
23.631001
20
10.354000
30
144.500000
70
192
0
VERTEX
8
OBJECT__13
10
22.985001
20
12.152000
30
144.300003
70
192
0
VERTEX
8
OBJECT__13
10
25.941000
20
0.000000
30
144.440994
70
192
0
VERTEX
8
OBJECT__13
10
25.948999
20
1.634000
30
144.300003
70
192
0
VERTEX
8
OBJECT__13
10
25.754000
20
1.542000
30
144.500000
70
192
0
VERTEX
8
OBJECT__13
10
25.799999
20
0.000000
30
144.500000
70
192
0
VERTEX
8
OBJECT__13
10
24.934000
20
4.944000
30
144.500000
70
192
0
VERTEX
8
OBJECT__13
10
-14.204000
20
21.201000
30
144.500000
70
192
0
VERTEX
8
OBJECT__13
10
-14.321000
20
21.348000
30
144.300003
70
192
0
VERTEX
8
OBJECT__13
10
-15.721000
20
20.708000
30
144.300003
70
192
0
VERTEX
8
OBJECT__13
10
-15.877000
20
20.336000
30
144.500000
70
192
0
VERTEX
8
OBJECT__13
10
-17.955999
20
18.027000
30
144.300003
70
192
0
VERTEX
8
OBJECT__13
10
-18.200001
20
18.195999
30
144.500000
70
192
0
VERTEX
8
OBJECT__13
10
-23.757000
20
9.824000
30
144.500000
70
192
0
VERTEX
8
OBJECT__13
10
-21.084000
20
14.104000
30
144.500000
70
192
0
VERTEX
8
OBJECT__13
10
-23.202000
20
11.732000
30
144.300003
70
192
0
VERTEX
8
OBJECT__13
10
-21.219000
20
14.112000
30
144.300003
70
192
0
VERTEX
8
OBJECT__13
10
-24.035999
20
9.376000
30
144.500000
70
192
0
VERTEX
8
OBJECT__13
10
-23.698999
20
9.864000
30
144.300003
70
192
0
VERTEX
8
OBJECT__13
10
-18.973000
20
17.483000
30
144.500000
70
192
0
VERTEX
8
OBJECT__13
10
-5.368000
20
25.440001
30
144.300003
70
192
0
VERTEX
8
OBJECT__13
10
-9.695000
20
23.462999
30
144.300003
70
192
0
VERTEX
8
OBJECT__13
10
-7.409000
20
24.712999
30
144.500000
70
192
0
VERTEX
8
OBJECT__13
10
-4.998000
20
24.968000
30
144.500000
70
192
0
VERTEX
8
OBJECT__13
10
-5.072000
20
25.440001
30
144.300003
70
192
0
VERTEX
8
OBJECT__13
10
-9.711000
20
23.523001
30
144.500000
70
192
0
VERTEX
8
OBJECT__13
10
26.000000
20
0.000000
30
144.300003
70
192
0
VERTEX
8
OBJECT__13
10
0
20
0
30
0
70
128
71
1
72
2
73
3
0
VERTEX
8
OBJECT__13
10
0
20
0
30
0
70
128
71
3
72
4
73
1
0
VERTEX
8
OBJECT__13
10
0
20
0
30
0
70
128
71
2
72
5
73
3
0
VERTEX
8
OBJECT__13
10
0
20
0
30
0
70
128
71
6
72
7
73
8
0
VERTEX
8
OBJECT__13
10
0
20
0
30
0
70
128
71
8
72
9
73
6
0
VERTEX
8
OBJECT__13
10
0
20
0
30
0
70
128
71
8
72
10
73
11
0
VERTEX
8
OBJECT__13
10
0
20
0
30
0
70
128
71
12
72
13
73
14
0
VERTEX
8
OBJECT__13
10
0
20
0
30
0
70
128
71
14
72
15
73
12
0
VERTEX
8
OBJECT__13
10
0
20
0
30
0
70
128
71
16
72
17
73
18
0
VERTEX
8
OBJECT__13
10
0
20
0
30
0
70
128
71
18
72
19
73
16
0
VERTEX
8
OBJECT__13
10
0
20
0
30
0
70
128
71
17
72
20
73
18
0
VERTEX
8
OBJECT__13
10
0
20
0
30
0
70
128
71
4
72
20
73
17
0
VERTEX
8
OBJECT__13
10
0
20
0
30
0
70
128
71
17
72
21
73
4
0
VERTEX
8
OBJECT__13
10
0
20
0
30
0
70
128
71
22
72
19
73
15
0
VERTEX
8
OBJECT__13
10
0
20
0
30
0
70
128
71
15
72
14
73
22
0
VERTEX
8
OBJECT__13
10
0
20
0
30
0
70
128
71
23
72
24
73
25
0
VERTEX
8
OBJECT__13
10
0
20
0
30
0
70
128
71
26
72
24
73
27
0
VERTEX
8
OBJECT__13
10
0
20
0
30
0
70
128
71
27
72
13
73
26
0
VERTEX
8
OBJECT__13
10
0
20
0
30
0
70
128
71
26
72
25
73
24
0
VERTEX
8
OBJECT__13
10
0
20
0
30
0
70
128
71
13
72
12
73
26
0
VERTEX
8
OBJECT__13
10
0
20
0
30
0
70
128
71
28
72
29
73
30
0
VERTEX
8
OBJECT__13
10
0
20
0
30
0
70
128
71
30
72
31
73
28
0
VERTEX
8
OBJECT__13
10
0
20
0
30
0
70
128
71
30
72
29
73
23
0
VERTEX
8
OBJECT__13
10
0
20
0
30
0
70
128
71
23
72
32
73
30
0
VERTEX
8
OBJECT__13
10
0
20
0
30
0
70
128
71
33
72
34
73
35
0
VERTEX
8
OBJECT__13
10
0
20
0
30
0
70
128
71
36
72
35
73
37
0
VERTEX
8
OBJECT__13
10
0
20
0
30
0
70
128
71
37
72
38
73
36
0
VERTEX
8
OBJECT__13
10
0
20
0
30
0
70
128
71
39
72
40
73
41
0
VERTEX
8
OBJECT__13
10
0
20
0
30
0
70
128
71
40
72
42
73
41
0
VERTEX
8
OBJECT__13
10
0
20
0
30
0
70
128
71
6
72
43
73
44
0
VERTEX
8
OBJECT__13
10
0
20
0
30
0
70
128
71
44
72
7
73
6
0
VERTEX
8
OBJECT__13
10
0
20
0
30
0
70
128
71
42
72
40
73
45
0
VERTEX
8
OBJECT__13
10
0
20
0
30
0
70
128
71
45
72
37
73
42
0
VERTEX
8
OBJECT__13
10
0
20
0
30
0
70
128
71
45
72
38
73
37
0
VERTEX
8
OBJECT__13
10
0
20
0
30
0
70
128
71
46
72
47
73
48
0
VERTEX
8
OBJECT__13
10
0
20
0
30
0
70
128
71
48
72
49
73
46
0
VERTEX
8
OBJECT__13
10
0
20
0
30
0
70
128
71
49
72
50
73
46
0
VERTEX
8
OBJECT__13
10
0
20
0
30
0
70
128
71
47
72
51
73
48
0
VERTEX
8
OBJECT__13
10
0
20
0
30
0
70
128
71
33
72
51
73
47
0
VERTEX
8
OBJECT__13
10
0
20
0
30
0
70
128
71
49
72
5
73
2
0
VERTEX
8
OBJECT__13
10
0
20
0
30
0
70
128
71
2
72
50
73
49
0
VERTEX
8
OBJECT__13
10
0
20
0
30
0
70
128
71
47
72
34
73
33
0
VERTEX
8
OBJECT__13
10
0
20
0
30
0
70
128
71
43
72
39
73
44
0
VERTEX
8
OBJECT__13
10
0
20
0
30
0
70
128
71
41
72
44
73
39
0
VERTEX
8
OBJECT__13
10
0
20
0
30
0
70
128
71
35
72
36
73
33
0
VERTEX
8
OBJECT__13
10
0
20
0
30
0
70
128
71
28
72
52
73
29
0
VERTEX
8
OBJECT__13
10
0
20
0
30
0
70
128
71
25
72
32
73
23
0
VERTEX
8
OBJECT__13
10
0
20
0
30
0
70
128
71
22
72
16
73
19
0
VERTEX
8
OBJECT__13
10
0
20
0
30
0
70
128
71
21
72
1
73
4
0
VERTEX
8
OBJECT__13
10
0
20
0
30
0
70
128
71
8
72
11
73
9
0
SEQEND
8
OBJECT__13
0
POLYLINE
8
OBJECT__14
66
1
70
64
71
83
72
81
62
253
0
VERTEX
8
OBJECT__14
10
-15.721000
20
20.708000
30
144.300003
70
192
0
VERTEX
8
OBJECT__14
10
-14.321000
20
21.348000
30
144.300003
70
192
0
VERTEX
8
OBJECT__14
10
-14.321000
20
21.348000
30
44.200001
70
192
0
VERTEX
8
OBJECT__14
10
-9.695000
20
23.462999
30
144.300003
70
192
0
VERTEX
8
OBJECT__14
10
-9.695000
20
23.462999
30
44.200001
70
192
0
VERTEX
8
OBJECT__14
10
-5.368000
20
25.440001
30
44.200001
70
192
0
VERTEX
8
OBJECT__14
10
-5.368000
20
25.440001
30
144.300003
70
192
0
VERTEX
8
OBJECT__14
10
5.368000
20
25.440001
30
44.200001
70
192
0
VERTEX
8
OBJECT__14
10
5.072000
20
25.440001
30
44.200001
70
192
0
VERTEX
8
OBJECT__14
10
5.072000
20
25.440001
30
144.300003
70
192
0
VERTEX
8
OBJECT__14
10
0.000000
20
25.440001
30
144.300003
70
192
0
VERTEX
8
OBJECT__14
10
0.000000
20
25.440001
30
44.200001
70
192
0
VERTEX
8
OBJECT__14
10
-5.072000
20
25.440001
30
44.200001
70
192
0
VERTEX
8
OBJECT__14
10
-5.072000
20
25.440001
30
144.300003
70
192
0
VERTEX
8
OBJECT__14
10
5.368000
20
25.440001
30
144.300003
70
192
0
VERTEX
8
OBJECT__14
10
9.718000
20
23.500000
30
144.300003
70
192
0
VERTEX
8
OBJECT__14
10
9.718000
20
23.500000
30
44.200001
70
192
0
VERTEX
8
OBJECT__14
10
14.361000
20
21.430000
30
144.300003
70
192
0
VERTEX
8
OBJECT__14
10
14.361000
20
21.430000
30
44.200001
70
192
0
VERTEX
8
OBJECT__14
10
15.338000
20
20.993999
30
44.200001
70
192
0
VERTEX
8
OBJECT__14
10
15.338000
20
20.993999
30
144.300003
70
192
0
VERTEX
8
OBJECT__14
10
22.985001
20
12.152000
30
44.200001
70
192
0
VERTEX
8
OBJECT__14
10
21.266001
20
14.140000
30
44.200001
70
192
0
VERTEX
8
OBJECT__14
10
21.266001
20
14.140000
30
144.300003
70
192
0
VERTEX
8
OBJECT__14
10
17.933001
20
17.993999
30
144.300003
70
192
0
VERTEX
8
OBJECT__14
10
17.933001
20
17.993999
30
44.200001
70
192
0
VERTEX
8
OBJECT__14
10
22.985001
20
12.152000
30
144.300003
70
192
0
VERTEX
8
OBJECT__14
10
23.636000
20
9.841000
30
144.300003
70
192
0
VERTEX
8
OBJECT__14
10
23.636000
20
9.841000
30
44.200001
70
192
0
VERTEX
8
OBJECT__14
10
25.018000
20
4.936000
30
144.300003
70
192
0
VERTEX
8
OBJECT__14
10
25.018000
20
4.937000
30
44.200001
70
192
0
VERTEX
8
OBJECT__14
10
25.948999
20
1.634000
30
44.200001
70
192
0
VERTEX
8
OBJECT__14
10
25.948999
20
1.634000
30
144.300003
70
192
0
VERTEX
8
OBJECT__14
10
26.000000
20
0.000000
30
144.300003
70
192
0
VERTEX
8
OBJECT__14
10
26.000000
20
0.000000
30
44.200001
70
192
0
VERTEX
8
OBJECT__14
10
-23.202000
20
11.732000
30
44.200001
70
192
0
VERTEX
8
OBJECT__14
10
-24.730000
20
8.028000
30
69.364998
70
192
0
VERTEX
8
OBJECT__14
10
-24.037001
20
9.794000
30
71.026001
70
192
0
VERTEX
8
OBJECT__14
10
-25.608999
20
4.492000
30
67.584000
70
192
0
VERTEX
8
OBJECT__14
10
-25.395000
20
5.354000
30
68.017998
70
192
0
VERTEX
8
OBJECT__14
10
-25.007999
20
4.941000
30
44.200001
70
192
0
VERTEX
8
OBJECT__14
10
-25.966000
20
1.337000
30
44.200001
70
192
0
VERTEX
8
OBJECT__14
10
-25.945000
20
1.335000
30
66.953003
70
192
0
VERTEX
8
OBJECT__14
10
-23.698999
20
9.864000
30
44.200001
70
192
0
VERTEX
8
OBJECT__14
10
-23.591999
20
10.927000
30
72.092003
70
192
0
VERTEX
8
OBJECT__14
10
-22.584000
20
12.864000
30
130.835999
70
192
0
VERTEX
8
OBJECT__14
10
-21.219000
20
14.112000
30
144.300003
70
192
0
VERTEX
8
OBJECT__14
10
-17.955999
20
18.027000
30
144.300003
70
192
0
VERTEX
8
OBJECT__14
10
-23.184999
20
11.725000
30
132.921005
70
192
0
VERTEX
8
OBJECT__14
10
-23.202000
20
11.732000
30
144.300003
70
192
0
VERTEX
8
OBJECT__14
10
-22.461000
20
13.096000
30
130.410004
70
192
0
VERTEX
8
OBJECT__14
10
-21.907000
20
14.003000
30
118.808998
70
192
0
VERTEX
8
OBJECT__14
10
-21.945000
20
13.943000
30
125.431999
70
192
0
VERTEX
8
OBJECT__14
10
-15.721000
20
20.708000
30
44.200001
70
192
0
VERTEX
8
OBJECT__14
10
-21.907000
20
14.003000
30
92.532997
70
192
0
VERTEX
8
OBJECT__14
10
-21.907000
20
14.003000
30
103.000000
70
192
0
VERTEX
8
OBJECT__14
10
-21.907000
20
14.003000
30
84.557999
70
192
0
VERTEX
8
OBJECT__14
10
-21.974001
20
13.898000
30
79.254997
70
192
0
VERTEX
8
OBJECT__14
10
-21.955000
20
13.928000
30
80.766998
70
192
0
VERTEX
8
OBJECT__14
10
-21.952999
20
13.931000
30
126.795998
70
192
0
VERTEX
8
OBJECT__14
10
-22.552999
20
12.937000
30
75.531998
70
192
0
VERTEX
8
OBJECT__14
10
-21.219000
20
14.112000
30
44.200001
70
192
0
VERTEX
8
OBJECT__14
10
-23.180000
20
11.724000
30
73.455002
70
192
0
VERTEX
8
OBJECT__14
10
-22.596001
20
12.854000
30
75.389000
70
192
0
VERTEX
8
OBJECT__14
10
-17.955999
20
18.027000
30
44.200001
70
192
0
VERTEX
8
OBJECT__14
10
-25.007999
20
4.941000
30
144.300003
70
192
0
VERTEX
8
OBJECT__14
10
-25.629000
20
4.378000
30
138.804993
70
192
0
VERTEX
8
OBJECT__14
10
-25.920000
20
1.333000
30
139.350006
70
192
0
VERTEX
8
OBJECT__14
10
-23.698999
20
9.864000
30
144.300003
70
192
0
VERTEX
8
OBJECT__14
10
-25.388000
20
5.388000
30
138.320999
70
192
0
VERTEX
8
OBJECT__14
10
-24.843000
20
7.668000
30
137.227997
70
192
0
VERTEX
8
OBJECT__14
10
-23.483999
20
11.158000
30
133.959000
70
192
0
VERTEX
8
OBJECT__14
10
-24.028999
20
9.906000
30
135.358994
70
192
0
VERTEX
8
OBJECT__14
10
-24.171000
20
9.580000
30
135.723999
70
192
0
VERTEX
8
OBJECT__14
10
-26.000000
20
0.007000
30
139.500000
70
192
0
VERTEX
8
OBJECT__14
10
-26.000000
20
0.000000
30
139.500000
70
192
0
VERTEX
8
OBJECT__14
10
-26.000000
20
0.000000
30
141.899994
70
192
0
VERTEX
8
OBJECT__14
10
-26.000000
20
0.000000
30
144.300003
70
192
0
VERTEX
8
OBJECT__14
10
-25.966000
20
1.337000
30
144.300003
70
192
0
VERTEX
8
OBJECT__14
10
-25.993999
20
0.556000
30
139.488998
70
192
0
VERTEX
8
OBJECT__14
10
-26.000000
20
0.000000
30
44.200001
70
192
0
VERTEX
8
OBJECT__14
10
-26.000000
20
0.000000
30
66.849998
70
192
0
VERTEX
8
OBJECT__14
10
-25.981001
20
0.992000
30
66.885002
70
192
0
VERTEX
8
OBJECT__14
10
0
20
0
30
0
70
128
71
1
72
2
73
3
0
VERTEX
8
OBJECT__14
10
0
20
0
30
0
70
128
71
2
72
4
73
5
0
VERTEX
8
OBJECT__14
10
0
20
0
30
0
70
128
71
5
72
3
73
2
0
VERTEX
8
OBJECT__14
10
0
20
0
30
0
70
128
71
6
72
5
73
4
0
VERTEX
8
OBJECT__14
10
0
20
0
30
0
70
128
71
4
72
7
73
6
0
VERTEX
8
OBJECT__14
10
0
20
0
30
0
70
128
71
8
72
9
73
10
0
VERTEX
8
OBJECT__14
10
0
20
0
30
0
70
128
71
11
72
10
73
9
0
VERTEX
8
OBJECT__14
10
0
20
0
30
0
70
128
71
9
72
12
73
11
0
VERTEX
8
OBJECT__14
10
0
20
0
30
0
70
128
71
12
72
13
73
14
0
VERTEX
8
OBJECT__14
10
0
20
0
30
0
70
128
71
14
72
11
73
12
0
VERTEX
8
OBJECT__14
10
0
20
0
30
0
70
128
71
7
72
14
73
13
0
VERTEX
8
OBJECT__14
10
0
20
0
30
0
70
128
71
13
72
6
73
7
0
VERTEX
8
OBJECT__14
10
0
20
0
30
0
70
128
71
15
72
16
73
17
0
VERTEX
8
OBJECT__14
10
0
20
0
30
0
70
128
71
16
72
18
73
19
0
VERTEX
8
OBJECT__14
10
0
20
0
30
0
70
128
71
19
72
17
73
16
0
VERTEX
8
OBJECT__14
10
0
20
0
30
0
70
128
71
20
72
19
73
18
0
VERTEX
8
OBJECT__14
10
0
20
0
30
0
70
128
71
18
72
21
73
20
0
VERTEX
8
OBJECT__14
10
0
20
0
30
0
70
128
71
22
72
23
73
24
0
VERTEX
8
OBJECT__14
10
0
20
0
30
0
70
128
71
21
72
25
73
26
0
VERTEX
8
OBJECT__14
10
0
20
0
30
0
70
128
71
25
72
24
73
23
0
VERTEX
8
OBJECT__14
10
0
20
0
30
0
70
128
71
23
72
26
73
25
0
VERTEX
8
OBJECT__14
10
0
20
0
30
0
70
128
71
26
72
20
73
21
0
VERTEX
8
OBJECT__14
10
0
20
0
30
0
70
128
71
27
72
28
73
29
0
VERTEX
8
OBJECT__14
10
0
20
0
30
0
70
128
71
28
72
30
73
31
0
VERTEX
8
OBJECT__14
10
0
20
0
30
0
70
128
71
31
72
29
73
28
0
VERTEX
8
OBJECT__14
10
0
20
0
30
0
70
128
71
32
72
31
73
30
0
VERTEX
8
OBJECT__14
10
0
20
0
30
0
70
128
71
30
72
33
73
32
0
VERTEX
8
OBJECT__14
10
0
20
0
30
0
70
128
71
33
72
34
73
35
0
VERTEX
8
OBJECT__14
10
0
20
0
30
0
70
128
71
36
72
37
73
38
0
VERTEX
8
OBJECT__14
10
0
20
0
30
0
70
128
71
36
72
39
73
40
0
VERTEX
8
OBJECT__14
10
0
20
0
30
0
70
128
71
41
72
42
73
43
0
VERTEX
8
OBJECT__14
10
0
20
0
30
0
70
128
71
39
72
44
73
41
0
VERTEX
8
OBJECT__14
10
0
20
0
30
0
70
128
71
39
72
36
73
44
0
VERTEX
8
OBJECT__14
10
0
20
0
30
0
70
128
71
43
72
39
73
41
0
VERTEX
8
OBJECT__14
10
0
20
0
30
0
70
128
71
40
72
37
73
36
0
VERTEX
8
OBJECT__14
10
0
20
0
30
0
70
128
71
38
72
45
73
36
0
VERTEX
8
OBJECT__14
10
0
20
0
30
0
70
128
71
46
72
47
73
48
0
VERTEX
8
OBJECT__14
10
0
20
0
30
0
70
128
71
47
72
46
73
49
0
VERTEX
8
OBJECT__14
10
0
20
0
30
0
70
128
71
49
72
50
73
47
0
VERTEX
8
OBJECT__14
10
0
20
0
30
0
70
128
71
1
72
51
73
46
0
VERTEX
8
OBJECT__14
10
0
20
0
30
0
70
128
71
1
72
52
73
53
0
VERTEX
8
OBJECT__14
10
0
20
0
30
0
70
128
71
1
72
54
73
55
0
VERTEX
8
OBJECT__14
10
0
20
0
30
0
70
128
71
55
72
56
73
1
0
VERTEX
8
OBJECT__14
10
0
20
0
30
0
70
128
71
54
72
57
73
55
0
VERTEX
8
OBJECT__14
10
0
20
0
30
0
70
128
71
56
72
52
73
1
0
VERTEX
8
OBJECT__14
10
0
20
0
30
0
70
128
71
54
72
58
73
59
0
VERTEX
8
OBJECT__14
10
0
20
0
30
0
70
128
71
59
72
57
73
54
0
VERTEX
8
OBJECT__14
10
0
20
0
30
0
70
128
71
53
72
60
73
1
0
VERTEX
8
OBJECT__14
10
0
20
0
30
0
70
128
71
54
72
61
73
58
0
VERTEX
8
OBJECT__14
10
0
20
0
30
0
70
128
71
62
72
36
73
63
0
VERTEX
8
OBJECT__14
10
0
20
0
30
0
70
128
71
63
72
64
73
62
0
VERTEX
8
OBJECT__14
10
0
20
0
30
0
70
128
71
61
72
65
73
62
0
VERTEX
8
OBJECT__14
10
0
20
0
30
0
70
128
71
61
72
54
73
65
0
VERTEX
8
OBJECT__14
10
0
20
0
30
0
70
128
71
64
72
61
73
62
0
VERTEX
8
OBJECT__14
10
0
20
0
30
0
70
128
71
60
72
51
73
1
0
VERTEX
8
OBJECT__14
10
0
20
0
30
0
70
128
71
66
72
67
73
68
0
VERTEX
8
OBJECT__14
10
0
20
0
30
0
70
128
71
69
72
70
73
67
0
VERTEX
8
OBJECT__14
10
0
20
0
30
0
70
128
71
71
72
70
73
69
0
VERTEX
8
OBJECT__14
10
0
20
0
30
0
70
128
71
69
72
50
73
71
0
VERTEX
8
OBJECT__14
10
0
20
0
30
0
70
128
71
50
72
72
73
73
0
VERTEX
8
OBJECT__14
10
0
20
0
30
0
70
128
71
73
72
74
73
50
0
VERTEX
8
OBJECT__14
10
0
20
0
30
0
70
128
71
74
72
71
73
50
0
VERTEX
8
OBJECT__14
10
0
20
0
30
0
70
128
71
50
72
49
73
72
0
VERTEX
8
OBJECT__14
10
0
20
0
30
0
70
128
71
67
72
66
73
69
0
VERTEX
8
OBJECT__14
10
0
20
0
30
0
70
128
71
75
72
76
73
77
0
VERTEX
8
OBJECT__14
10
0
20
0
30
0
70
128
71
78
72
79
73
80
0
VERTEX
8
OBJECT__14
10
0
20
0
30
0
70
128
71
80
72
75
73
78
0
VERTEX
8
OBJECT__14
10
0
20
0
30
0
70
128
71
79
72
68
73
80
0
VERTEX
8
OBJECT__14
10
0
20
0
30
0
70
128
71
42
72
81
73
82
0
VERTEX
8
OBJECT__14
10
0
20
0
30
0
70
128
71
82
72
83
73
42
0
VERTEX
8
OBJECT__14
10
0
20
0
30
0
70
128
71
83
72
43
73
42
0
VERTEX
8
OBJECT__14
10
0
20
0
30
0
70
128
71
77
72
78
73
75
0
VERTEX
8
OBJECT__14
10
0
20
0
30
0
70
128
71
68
72
79
73
66
0
VERTEX
8
OBJECT__14
10
0
20
0
30
0
70
128
71
48
72
1
73
46
0
VERTEX
8
OBJECT__14
10
0
20
0
30
0
70
128
71
45
72
63
73
36
0
VERTEX
8
OBJECT__14
10
0
20
0
30
0
70
128
71
35
72
32
73
33
0
VERTEX
8
OBJECT__14
10
0
20
0
30
0
70
128
71
29
72
22
73
27
0
VERTEX
8
OBJECT__14
10
0
20
0
30
0
70
128
71
24
72
27
73
22
0
VERTEX
8
OBJECT__14
10
0
20
0
30
0
70
128
71
17
72
8
73
15
0
VERTEX
8
OBJECT__14
10
0
20
0
30
0
70
128
71
10
72
15
73
8
0
VERTEX
8
OBJECT__14
10
0
20
0
30
0
70
128
71
3
72
54
73
1
0
SEQEND
8
OBJECT__14
0
POLYLINE
8
OBJECT__15
66
1
70
64
71
52
72
50
62
253
0
VERTEX
8
OBJECT__15
10
-5.072000
20
25.440001
30
44.200001
70
192
0
VERTEX
8
OBJECT__15
10
0.000000
20
25.440001
30
44.200001
70
192
0
VERTEX
8
OBJECT__15
10
-2.091000
20
25.715000
30
44.000000
70
192
0
VERTEX
8
OBJECT__15
10
-4.933000
20
24.936001
30
44.000000
70
192
0
VERTEX
8
OBJECT__15
10
-0.032000
20
25.497999
30
44.000000
70
192
0
VERTEX
8
OBJECT__15
10
24.868999
20
4.951000
30
44.000000
70
192
0
VERTEX
8
OBJECT__15
10
25.018000
20
4.937000
30
44.200001
70
192
0
VERTEX
8
OBJECT__15
10
25.948999
20
1.634000
30
44.200001
70
192
0
VERTEX
8
OBJECT__15
10
25.799999
20
0.000000
30
44.000000
70
192
0
VERTEX
8
OBJECT__15
10
26.000000
20
0.000000
30
44.200001
70
192
0
VERTEX
8
OBJECT__15
10
25.941000
20
0.000000
30
44.058998
70
192
0
VERTEX
8
OBJECT__15
10
-21.084999
20
14.083000
30
44.000000
70
192
0
VERTEX
8
OBJECT__15
10
-21.219000
20
14.112000
30
44.200001
70
192
0
VERTEX
8
OBJECT__15
10
-17.955999
20
18.027000
30
44.200001
70
192
0
VERTEX
8
OBJECT__15
10
-18.243000
20
18.243000
30
44.000000
70
192
0
VERTEX
8
OBJECT__15
10
-14.321000
20
21.348000
30
44.200001
70
192
0
VERTEX
8
OBJECT__15
10
-9.695000
20
23.462999
30
44.200001
70
192
0
VERTEX
8
OBJECT__15
10
-11.310000
20
23.188999
30
44.000000
70
192
0
VERTEX
8
OBJECT__15
10
-14.135000
20
21.174000
30
44.000000
70
192
0
VERTEX
8
OBJECT__15
10
-9.809000
20
23.600000
30
44.000000
70
192
0
VERTEX
8
OBJECT__15
10
-5.368000
20
25.440001
30
44.200001
70
192
0
VERTEX
8
OBJECT__15
10
-15.721000
20
20.708000
30
44.200001
70
192
0
VERTEX
8
OBJECT__15
10
-25.007999
20
4.941000
30
44.200001
70
192
0
VERTEX
8
OBJECT__15
10
-23.698999
20
9.864000
30
44.200001
70
192
0
VERTEX
8
OBJECT__15
10
-23.752001
20
9.853000
30
44.000000
70
192
0
VERTEX
8
OBJECT__15
10
-23.202000
20
11.732000
30
44.200001
70
192
0
VERTEX
8
OBJECT__15
10
-23.631001
20
10.355000
30
44.000000
70
192
0
VERTEX
8
OBJECT__15
10
15.338000
20
20.993999
30
44.200001
70
192
0
VERTEX
8
OBJECT__15
10
17.933001
20
17.993999
30
44.200001
70
192
0
VERTEX
8
OBJECT__15
10
18.198999
20
18.195999
30
44.000000
70
192
0
VERTEX
8
OBJECT__15
10
15.873000
20
20.339001
30
44.000000
70
192
0
VERTEX
8
OBJECT__15
10
14.361000
20
21.430000
30
44.200001
70
192
0
VERTEX
8
OBJECT__15
10
14.204000
20
21.201000
30
44.000000
70
192
0
VERTEX
8
OBJECT__15
10
23.756001
20
9.824000
30
44.000000
70
192
0
VERTEX
8
OBJECT__15
10
21.084000
20
14.104000
30
44.000000
70
192
0
VERTEX
8
OBJECT__15
10
22.985001
20
12.152000
30
44.200001
70
192
0
VERTEX
8
OBJECT__15
10
23.636000
20
9.841000
30
44.200001
70
192
0
VERTEX
8
OBJECT__15
10
21.266001
20
14.140000
30
44.200001
70
192
0
VERTEX
8
OBJECT__15
10
24.035999
20
9.375000
30
44.000000
70
192
0
VERTEX
8
OBJECT__15
10
18.974001
20
17.482000
30
44.000000
70
192
0
VERTEX
8
OBJECT__15
10
5.368000
20
25.440001
30
44.200001
70
192
0
VERTEX
8
OBJECT__15
10
9.718000
20
23.500000
30
44.200001
70
192
0
VERTEX
8
OBJECT__15
10
7.404000
20
24.715000
30
44.000000
70
192
0
VERTEX
8
OBJECT__15
10
4.998000
20
24.968000
30
44.000000
70
192
0
VERTEX
8
OBJECT__15
10
5.072000
20
25.440001
30
44.200001
70
192
0
VERTEX
8
OBJECT__15
10
9.711000
20
23.523001
30
44.000000
70
192
0
VERTEX
8
OBJECT__15
10
-25.799999
20
0.000000
30
44.000000
70
192
0
VERTEX
8
OBJECT__15
10
-25.941000
20
0.000000
30
44.058998
70
192
0
VERTEX
8
OBJECT__15
10
-25.966000
20
1.337000
30
44.200001
70
192
0
VERTEX
8
OBJECT__15
10
-25.754000
20
1.541000
30
44.000000
70
192
0
VERTEX
8
OBJECT__15
10
-24.934000
20
4.944000
30
44.000000
70
192
0
VERTEX
8
OBJECT__15
10
-26.000000
20
0.000000
30
44.200001
70
192
0
VERTEX
8
OBJECT__15
10
0
20
0
30
0
70
128
71
1
72
2
73
3
0
VERTEX
8
OBJECT__15
10
0
20
0
30
0
70
128
71
3
72
4
73
1
0
VERTEX
8
OBJECT__15
10
0
20
0
30
0
70
128
71
2
72
5
73
3
0
VERTEX
8
OBJECT__15
10
0
20
0
30
0
70
128
71
6
72
7
73
8
0
VERTEX
8
OBJECT__15
10
0
20
0
30
0
70
128
71
8
72
9
73
6
0
VERTEX
8
OBJECT__15
10
0
20
0
30
0
70
128
71
8
72
10
73
11
0
VERTEX
8
OBJECT__15
10
0
20
0
30
0
70
128
71
12
72
13
73
14
0
VERTEX
8
OBJECT__15
10
0
20
0
30
0
70
128
71
14
72
15
73
12
0
VERTEX
8
OBJECT__15
10
0
20
0
30
0
70
128
71
16
72
17
73
18
0
VERTEX
8
OBJECT__15
10
0
20
0
30
0
70
128
71
18
72
19
73
16
0
VERTEX
8
OBJECT__15
10
0
20
0
30
0
70
128
71
4
72
20
73
17
0
VERTEX
8
OBJECT__15
10
0
20
0
30
0
70
128
71
17
72
21
73
4
0
VERTEX
8
OBJECT__15
10
0
20
0
30
0
70
128
71
22
72
19
73
15
0
VERTEX
8
OBJECT__15
10
0
20
0
30
0
70
128
71
15
72
14
73
22
0
VERTEX
8
OBJECT__15
10
0
20
0
30
0
70
128
71
23
72
24
73
25
0
VERTEX
8
OBJECT__15
10
0
20
0
30
0
70
128
71
24
72
26
73
27
0
VERTEX
8
OBJECT__15
10
0
20
0
30
0
70
128
71
12
72
27
73
26
0
VERTEX
8
OBJECT__15
10
0
20
0
30
0
70
128
71
26
72
13
73
12
0
VERTEX
8
OBJECT__15
10
0
20
0
30
0
70
128
71
28
72
29
73
30
0
VERTEX
8
OBJECT__15
10
0
20
0
30
0
70
128
71
30
72
31
73
28
0
VERTEX
8
OBJECT__15
10
0
20
0
30
0
70
128
71
31
72
32
73
28
0
VERTEX
8
OBJECT__15
10
0
20
0
30
0
70
128
71
31
72
33
73
32
0
VERTEX
8
OBJECT__15
10
0
20
0
30
0
70
128
71
34
72
35
73
36
0
VERTEX
8
OBJECT__15
10
0
20
0
30
0
70
128
71
36
72
37
73
34
0
VERTEX
8
OBJECT__15
10
0
20
0
30
0
70
128
71
35
72
38
73
36
0
VERTEX
8
OBJECT__15
10
0
20
0
30
0
70
128
71
7
72
6
73
39
0
VERTEX
8
OBJECT__15
10
0
20
0
30
0
70
128
71
39
72
37
73
7
0
VERTEX
8
OBJECT__15
10
0
20
0
30
0
70
128
71
38
72
35
73
40
0
VERTEX
8
OBJECT__15
10
0
20
0
30
0
70
128
71
40
72
29
73
38
0
VERTEX
8
OBJECT__15
10
0
20
0
30
0
70
128
71
40
72
30
73
29
0
VERTEX
8
OBJECT__15
10
0
20
0
30
0
70
128
71
41
72
42
73
43
0
VERTEX
8
OBJECT__15
10
0
20
0
30
0
70
128
71
43
72
44
73
41
0
VERTEX
8
OBJECT__15
10
0
20
0
30
0
70
128
71
44
72
45
73
41
0
VERTEX
8
OBJECT__15
10
0
20
0
30
0
70
128
71
42
72
46
73
43
0
VERTEX
8
OBJECT__15
10
0
20
0
30
0
70
128
71
33
72
46
73
42
0
VERTEX
8
OBJECT__15
10
0
20
0
30
0
70
128
71
44
72
5
73
2
0
VERTEX
8
OBJECT__15
10
0
20
0
30
0
70
128
71
47
72
48
73
49
0
VERTEX
8
OBJECT__15
10
0
20
0
30
0
70
128
71
49
72
50
73
47
0
VERTEX
8
OBJECT__15
10
0
20
0
30
0
70
128
71
23
72
51
73
50
0
VERTEX
8
OBJECT__15
10
0
20
0
30
0
70
128
71
50
72
49
73
23
0
VERTEX
8
OBJECT__15
10
0
20
0
30
0
70
128
71
48
72
52
73
49
0
VERTEX
8
OBJECT__15
10
0
20
0
30
0
70
128
71
2
72
45
73
44
0
VERTEX
8
OBJECT__15
10
0
20
0
30
0
70
128
71
42
72
32
73
33
0
VERTEX
8
OBJECT__15
10
0
20
0
30
0
70
128
71
39
72
34
73
37
0
VERTEX
8
OBJECT__15
10
0
20
0
30
0
70
128
71
27
72
25
73
24
0
VERTEX
8
OBJECT__15
10
0
20
0
30
0
70
128
71
25
72
51
73
23
0
VERTEX
8
OBJECT__15
10
0
20
0
30
0
70
128
71
22
72
16
73
19
0
VERTEX
8
OBJECT__15
10
0
20
0
30
0
70
128
71
21
72
1
73
4
0
VERTEX
8
OBJECT__15
10
0
20
0
30
0
70
128
71
17
72
20
73
18
0
VERTEX
8
OBJECT__15
10
0
20
0
30
0
70
128
71
8
72
11
73
9
0
SEQEND
8
OBJECT__15
0
POLYLINE
8
OBJECT__16
66
1
70
64
71
50
72
48
62
253
0
VERTEX
8
OBJECT__16
10
4.987000
20
-24.931999
30
44.000000
70
192
0
VERTEX
8
OBJECT__16
10
5.072000
20
-25.429001
30
44.200001
70
192
0
VERTEX
8
OBJECT__16
10
0.000000
20
-25.429001
30
44.200001
70
192
0
VERTEX
8
OBJECT__16
10
-0.031000
20
-25.552000
30
44.000000
70
192
0
VERTEX
8
OBJECT__16
10
-25.799999
20
0.000000
30
44.000000
70
192
0
VERTEX
8
OBJECT__16
10
-25.191999
20
-5.020000
30
44.000000
70
192
0
VERTEX
8
OBJECT__16
10
-24.884001
20
-4.933000
30
44.200001
70
192
0
VERTEX
8
OBJECT__16
10
-26.000000
20
0.000000
30
44.200001
70
192
0
VERTEX
8
OBJECT__16
10
17.985001
20
-17.999001
30
44.000000
70
192
0
VERTEX
8
OBJECT__16
10
21.452000
20
-14.334000
30
44.000000
70
192
0
VERTEX
8
OBJECT__16
10
21.190001
20
-14.100000
30
44.200001
70
192
0
VERTEX
8
OBJECT__16
10
14.242000
20
-21.274000
30
44.000000
70
192
0
VERTEX
8
OBJECT__16
10
14.282000
20
-21.270000
30
44.200001
70
192
0
VERTEX
8
OBJECT__16
10
9.674000
20
-23.433001
30
44.200001
70
192
0
VERTEX
8
OBJECT__16
10
5.421000
20
-25.429001
30
44.200001
70
192
0
VERTEX
8
OBJECT__16
10
7.839000
20
-24.580000
30
44.000000
70
192
0
VERTEX
8
OBJECT__16
10
9.748000
20
-23.594000
30
44.000000
70
192
0
VERTEX
8
OBJECT__16
10
17.990999
20
-18.066999
30
44.200001
70
192
0
VERTEX
8
OBJECT__16
10
16.094999
20
-20.419001
30
44.200001
70
192
0
VERTEX
8
OBJECT__16
10
15.503000
20
-20.622999
30
44.000000
70
192
0
VERTEX
8
OBJECT__16
10
23.719000
20
-9.880000
30
44.200001
70
192
0
VERTEX
8
OBJECT__16
10
23.427000
20
-9.699000
30
44.000000
70
192
0
VERTEX
8
OBJECT__16
10
25.197001
20
-5.544000
30
44.000000
70
192
0
VERTEX
8
OBJECT__16
10
24.863001
20
-4.925000
30
44.200001
70
192
0
VERTEX
8
OBJECT__16
10
25.253000
20
-5.028000
30
44.000000
70
192
0
VERTEX
8
OBJECT__16
10
23.370001
20
-11.396000
30
44.200001
70
192
0
VERTEX
8
OBJECT__16
10
25.799999
20
0.000000
30
44.000000
70
192
0
VERTEX
8
OBJECT__16
10
26.000000
20
0.000000
30
44.200001
70
192
0
VERTEX
8
OBJECT__16
10
-14.277000
20
-21.261000
30
44.200001
70
192
0
VERTEX
8
OBJECT__16
10
-16.138000
20
-20.385000
30
44.200001
70
192
0
VERTEX
8
OBJECT__16
10
-14.850000
20
-21.098000
30
44.000000
70
192
0
VERTEX
8
OBJECT__16
10
-17.974001
20
-17.974001
30
44.000000
70
192
0
VERTEX
8
OBJECT__16
10
-17.986000
20
-18.066999
30
44.200001
70
192
0
VERTEX
8
OBJECT__16
10
-23.444000
20
-9.695000
30
44.000000
70
192
0
VERTEX
8
OBJECT__16
10
-21.353001
20
-14.289000
30
44.000000
70
192
0
VERTEX
8
OBJECT__16
10
-21.163000
20
-14.082000
30
44.200001
70
192
0
VERTEX
8
OBJECT__16
10
-23.763000
20
-9.891000
30
44.200001
70
192
0
VERTEX
8
OBJECT__16
10
-23.469999
20
-11.188000
30
44.200001
70
192
0
VERTEX
8
OBJECT__16
10
-25.054001
20
-6.158000
30
44.000000
70
192
0
VERTEX
8
OBJECT__16
10
-21.098000
20
-14.850000
30
44.000000
70
192
0
VERTEX
8
OBJECT__16
10
-5.022000
20
-25.229000
30
44.000000
70
192
0
VERTEX
8
OBJECT__16
10
-5.072000
20
-25.429001
30
44.200001
70
192
0
VERTEX
8
OBJECT__16
10
-5.421000
20
-25.429001
30
44.200001
70
192
0
VERTEX
8
OBJECT__16
10
-9.671000
20
-23.429001
30
44.200001
70
192
0
VERTEX
8
OBJECT__16
10
-9.695000
20
-23.444000
30
44.000000
70
192
0
VERTEX
8
OBJECT__16
10
-6.153000
20
-25.056000
30
44.000000
70
192
0
VERTEX
8
OBJECT__16
10
-14.289000
20
-21.353001
30
44.000000
70
192
0
VERTEX
8
OBJECT__16
10
-1.624000
20
-25.749001
30
44.000000
70
192
0
VERTEX
8
OBJECT__16
10
25.941000
20
0.000000
30
44.058998
70
192
0
VERTEX
8
OBJECT__16
10
-25.941000
20
0.000000
30
44.058998
70
192
0
VERTEX
8
OBJECT__16
10
0
20
0
30
0
70
128
71
1
72
2
73
3
0
VERTEX
8
OBJECT__16
10
0
20
0
30
0
70
128
71
3
72
4
73
1
0
VERTEX
8
OBJECT__16
10
0
20
0
30
0
70
128
71
5
72
6
73
7
0
VERTEX
8
OBJECT__16
10
0
20
0
30
0
70
128
71
7
72
8
73
5
0
VERTEX
8
OBJECT__16
10
0
20
0
30
0
70
128
71
9
72
10
73
11
0
VERTEX
8
OBJECT__16
10
0
20
0
30
0
70
128
71
12
72
13
73
14
0
VERTEX
8
OBJECT__16
10
0
20
0
30
0
70
128
71
15
72
1
73
16
0
VERTEX
8
OBJECT__16
10
0
20
0
30
0
70
128
71
16
72
17
73
15
0
VERTEX
8
OBJECT__16
10
0
20
0
30
0
70
128
71
17
72
14
73
15
0
VERTEX
8
OBJECT__16
10
0
20
0
30
0
70
128
71
9
72
18
73
19
0
VERTEX
8
OBJECT__16
10
0
20
0
30
0
70
128
71
13
72
12
73
20
0
VERTEX
8
OBJECT__16
10
0
20
0
30
0
70
128
71
20
72
19
73
13
0
VERTEX
8
OBJECT__16
10
0
20
0
30
0
70
128
71
21
72
22
73
23
0
VERTEX
8
OBJECT__16
10
0
20
0
30
0
70
128
71
23
72
24
73
21
0
VERTEX
8
OBJECT__16
10
0
20
0
30
0
70
128
71
23
72
25
73
24
0
VERTEX
8
OBJECT__16
10
0
20
0
30
0
70
128
71
26
72
11
73
10
0
VERTEX
8
OBJECT__16
10
0
20
0
30
0
70
128
71
10
72
22
73
26
0
VERTEX
8
OBJECT__16
10
0
20
0
30
0
70
128
71
27
72
28
73
24
0
VERTEX
8
OBJECT__16
10
0
20
0
30
0
70
128
71
24
72
25
73
27
0
VERTEX
8
OBJECT__16
10
0
20
0
30
0
70
128
71
29
72
30
73
31
0
VERTEX
8
OBJECT__16
10
0
20
0
30
0
70
128
71
32
72
31
73
30
0
VERTEX
8
OBJECT__16
10
0
20
0
30
0
70
128
71
30
72
33
73
32
0
VERTEX
8
OBJECT__16
10
0
20
0
30
0
70
128
71
34
72
35
73
36
0
VERTEX
8
OBJECT__16
10
0
20
0
30
0
70
128
71
36
72
37
73
34
0
VERTEX
8
OBJECT__16
10
0
20
0
30
0
70
128
71
36
72
38
73
37
0
VERTEX
8
OBJECT__16
10
0
20
0
30
0
70
128
71
37
72
7
73
39
0
VERTEX
8
OBJECT__16
10
0
20
0
30
0
70
128
71
39
72
34
73
37
0
VERTEX
8
OBJECT__16
10
0
20
0
30
0
70
128
71
32
72
33
73
36
0
VERTEX
8
OBJECT__16
10
0
20
0
30
0
70
128
71
36
72
40
73
32
0
VERTEX
8
OBJECT__16
10
0
20
0
30
0
70
128
71
41
72
42
73
43
0
VERTEX
8
OBJECT__16
10
0
20
0
30
0
70
128
71
44
72
45
73
46
0
VERTEX
8
OBJECT__16
10
0
20
0
30
0
70
128
71
46
72
43
73
44
0
VERTEX
8
OBJECT__16
10
0
20
0
30
0
70
128
71
44
72
29
73
47
0
VERTEX
8
OBJECT__16
10
0
20
0
30
0
70
128
71
42
72
41
73
48
0
VERTEX
8
OBJECT__16
10
0
20
0
30
0
70
128
71
48
72
3
73
42
0
VERTEX
8
OBJECT__16
10
0
20
0
30
0
70
128
71
48
72
4
73
3
0
VERTEX
8
OBJECT__16
10
0
20
0
30
0
70
128
71
47
72
45
73
44
0
VERTEX
8
OBJECT__16
10
0
20
0
30
0
70
128
71
43
72
46
73
41
0
VERTEX
8
OBJECT__16
10
0
20
0
30
0
70
128
71
36
72
35
73
40
0
VERTEX
8
OBJECT__16
10
0
20
0
30
0
70
128
71
7
72
6
73
39
0
VERTEX
8
OBJECT__16
10
0
20
0
30
0
70
128
71
31
72
47
73
29
0
VERTEX
8
OBJECT__16
10
0
20
0
30
0
70
128
71
27
72
49
73
28
0
VERTEX
8
OBJECT__16
10
0
20
0
30
0
70
128
71
22
72
21
73
26
0
VERTEX
8
OBJECT__16
10
0
20
0
30
0
70
128
71
19
72
20
73
9
0
VERTEX
8
OBJECT__16
10
0
20
0
30
0
70
128
71
15
72
2
73
1
0
VERTEX
8
OBJECT__16
10
0
20
0
30
0
70
128
71
14
72
17
73
12
0
VERTEX
8
OBJECT__16
10
0
20
0
30
0
70
128
71
11
72
18
73
9
0
VERTEX
8
OBJECT__16
10
0
20
0
30
0
70
128
71
8
72
50
73
5
0
SEQEND
8
OBJECT__16
0
POLYLINE
8
OBJECT__17
66
1
70
64
71
76
72
74
62
253
0
VERTEX
8
OBJECT__17
10
23.719000
20
-9.880000
30
44.200001
70
192
0
VERTEX
8
OBJECT__17
10
24.863001
20
-4.925000
30
44.200001
70
192
0
VERTEX
8
OBJECT__17
10
24.863001
20
-4.925000
30
144.300003
70
192
0
VERTEX
8
OBJECT__17
10
23.370001
20
-11.396000
30
44.200001
70
192
0
VERTEX
8
OBJECT__17
10
23.719000
20
-9.880000
30
144.300003
70
192
0
VERTEX
8
OBJECT__17
10
23.370001
20
-11.396000
30
144.300003
70
192
0
VERTEX
8
OBJECT__17
10
26.000000
20
0.000000
30
144.300003
70
192
0
VERTEX
8
OBJECT__17
10
26.000000
20
0.000000
30
44.200001
70
192
0
VERTEX
8
OBJECT__17
10
16.094999
20
-20.419001
30
44.200001
70
192
0
VERTEX
8
OBJECT__17
10
17.990999
20
-18.066999
30
44.200001
70
192
0
VERTEX
8
OBJECT__17
10
17.990999
20
-18.066999
30
144.300003
70
192
0
VERTEX
8
OBJECT__17
10
21.190001
20
-14.100000
30
144.300003
70
192
0
VERTEX
8
OBJECT__17
10
21.190001
20
-14.100000
30
44.200001
70
192
0
VERTEX
8
OBJECT__17
10
9.674000
20
-23.433001
30
44.200001
70
192
0
VERTEX
8
OBJECT__17
10
14.282000
20
-21.270000
30
44.200001
70
192
0
VERTEX
8
OBJECT__17
10
14.282000
20
-21.270000
30
144.300003
70
192
0
VERTEX
8
OBJECT__17
10
5.421000
20
-25.429001
30
44.200001
70
192
0
VERTEX
8
OBJECT__17
10
9.674000
20
-23.433001
30
144.300003
70
192
0
VERTEX
8
OBJECT__17
10
5.421000
20
-25.429001
30
144.300003
70
192
0
VERTEX
8
OBJECT__17
10
16.094999
20
-20.419001
30
144.300003
70
192
0
VERTEX
8
OBJECT__17
10
-5.421000
20
-25.429001
30
44.200001
70
192
0
VERTEX
8
OBJECT__17
10
-5.072000
20
-25.429001
30
44.200001
70
192
0
VERTEX
8
OBJECT__17
10
-5.072000
20
-25.429001
30
144.300003
70
192
0
VERTEX
8
OBJECT__17
10
0.000000
20
-25.429001
30
144.300003
70
192
0
VERTEX
8
OBJECT__17
10
0.000000
20
-25.429001
30
44.200001
70
192
0
VERTEX
8
OBJECT__17
10
5.072000
20
-25.429001
30
144.300003
70
192
0
VERTEX
8
OBJECT__17
10
5.072000
20
-25.429001
30
44.200001
70
192
0
VERTEX
8
OBJECT__17
10
-5.421000
20
-25.429001
30
144.300003
70
192
0
VERTEX
8
OBJECT__17
10
-9.671000
20
-23.429001
30
144.300003
70
192
0
VERTEX
8
OBJECT__17
10
-9.671000
20
-23.429001
30
44.200001
70
192
0
VERTEX
8
OBJECT__17
10
-14.277000
20
-21.261000
30
44.200001
70
192
0
VERTEX
8
OBJECT__17
10
-14.277000
20
-21.261000
30
144.300003
70
192
0
VERTEX
8
OBJECT__17
10
-16.138000
20
-20.385000
30
44.200001
70
192
0
VERTEX
8
OBJECT__17
10
-16.138000
20
-20.385000
30
144.300003
70
192
0
VERTEX
8
OBJECT__17
10
-23.469999
20
-11.188000
30
144.300003
70
192
0
VERTEX
8
OBJECT__17
10
-24.726000
20
-8.040000
30
136.977005
70
192
0
VERTEX
8
OBJECT__17
10
-24.011000
20
-9.859000
30
135.261993
70
192
0
VERTEX
8
OBJECT__17
10
-23.763000
20
-9.891000
30
144.300003
70
192
0
VERTEX
8
OBJECT__17
10
-24.884001
20
-4.933000
30
144.300003
70
192
0
VERTEX
8
OBJECT__17
10
-25.615000
20
-4.457000
30
138.778000
70
192
0
VERTEX
8
OBJECT__17
10
-25.379999
20
-5.402000
30
138.302994
70
192
0
VERTEX
8
OBJECT__17
10
-26.000000
20
0.000000
30
144.300003
70
192
0
VERTEX
8
OBJECT__17
10
-25.978001
20
-1.062000
30
139.460999
70
192
0
VERTEX
8
OBJECT__17
10
-26.000000
20
0.000000
30
141.899994
70
192
0
VERTEX
8
OBJECT__17
10
-26.000000
20
0.000000
30
139.500000
70
192
0
VERTEX
8
OBJECT__17
10
-26.000000
20
-0.007000
30
139.500000
70
192
0
VERTEX
8
OBJECT__17
10
-23.586000
20
-10.940000
30
134.242004
70
192
0
VERTEX
8
OBJECT__17
10
-22.927999
20
-12.260000
30
74.103996
70
192
0
VERTEX
8
OBJECT__17
10
-21.163000
20
-14.082000
30
44.200001
70
192
0
VERTEX
8
OBJECT__17
10
-17.986000
20
-18.066999
30
44.200001
70
192
0
VERTEX
8
OBJECT__17
10
-23.440001
20
-11.173000
30
72.652000
70
192
0
VERTEX
8
OBJECT__17
10
-23.469999
20
-11.188000
30
44.200001
70
192
0
VERTEX
8
OBJECT__17
10
-22.125999
20
-13.655000
30
77.829002
70
192
0
VERTEX
8
OBJECT__17
10
-22.648001
20
-12.746000
30
75.402000
70
192
0
VERTEX
8
OBJECT__17
10
-21.907000
20
-14.003000
30
81.651001
70
192
0
VERTEX
8
OBJECT__17
10
-21.958000
20
-13.922000
30
80.766998
70
192
0
VERTEX
8
OBJECT__17
10
-21.907000
20
-14.003000
30
98.648003
70
192
0
VERTEX
8
OBJECT__17
10
-21.907000
20
-14.003000
30
103.000000
70
192
0
VERTEX
8
OBJECT__17
10
-21.907000
20
-14.003000
30
113.788002
70
192
0
VERTEX
8
OBJECT__17
10
-21.907000
20
-14.003000
30
121.944000
70
192
0
VERTEX
8
OBJECT__17
10
-21.975000
20
-13.897000
30
127.108002
70
192
0
VERTEX
8
OBJECT__17
10
-21.952999
20
-13.931000
30
125.419998
70
192
0
VERTEX
8
OBJECT__17
10
-22.552000
20
-12.939000
30
130.815994
70
192
0
VERTEX
8
OBJECT__17
10
-21.163000
20
-14.082000
30
144.300003
70
192
0
VERTEX
8
OBJECT__17
10
-23.461000
20
-11.183000
30
133.826004
70
192
0
VERTEX
8
OBJECT__17
10
-22.563000
20
-12.918000
30
130.852005
70
192
0
VERTEX
8
OBJECT__17
10
-17.986000
20
-18.066999
30
144.300003
70
192
0
VERTEX
8
OBJECT__17
10
-24.884001
20
-4.933000
30
44.200001
70
192
0
VERTEX
8
OBJECT__17
10
-25.721001
20
-3.796000
30
67.370003
70
192
0
VERTEX
8
OBJECT__17
10
-26.000000
20
0.000000
30
66.849998
70
192
0
VERTEX
8
OBJECT__17
10
-26.000000
20
0.000000
30
44.200001
70
192
0
VERTEX
8
OBJECT__17
10
-25.392000
20
-5.358000
30
68.016998
70
192
0
VERTEX
8
OBJECT__17
10
-23.763000
20
-9.891000
30
44.200001
70
192
0
VERTEX
8
OBJECT__17
10
-25.066999
20
-6.902000
30
68.656998
70
192
0
VERTEX
8
OBJECT__17
10
-24.059999
20
-9.856000
30
70.892998
70
192
0
VERTEX
8
OBJECT__17
10
-24.056000
20
-9.864000
30
70.904999
70
192
0
VERTEX
8
OBJECT__17
10
0
20
0
30
0
70
128
71
1
72
2
73
3
0
VERTEX
8
OBJECT__17
10
0
20
0
30
0
70
128
71
4
72
1
73
5
0
VERTEX
8
OBJECT__17
10
0
20
0
30
0
70
128
71
5
72
6
73
4
0
VERTEX
8
OBJECT__17
10
0
20
0
30
0
70
128
71
7
72
3
73
2
0
VERTEX
8
OBJECT__17
10
0
20
0
30
0
70
128
71
2
72
8
73
7
0
VERTEX
8
OBJECT__17
10
0
20
0
30
0
70
128
71
9
72
10
73
11
0
VERTEX
8
OBJECT__17
10
0
20
0
30
0
70
128
71
6
72
12
73
13
0
VERTEX
8
OBJECT__17
10
0
20
0
30
0
70
128
71
10
72
13
73
12
0
VERTEX
8
OBJECT__17
10
0
20
0
30
0
70
128
71
12
72
11
73
10
0
VERTEX
8
OBJECT__17
10
0
20
0
30
0
70
128
71
13
72
4
73
6
0
VERTEX
8
OBJECT__17
10
0
20
0
30
0
70
128
71
14
72
15
73
16
0
VERTEX
8
OBJECT__17
10
0
20
0
30
0
70
128
71
17
72
14
73
18
0
VERTEX
8
OBJECT__17
10
0
20
0
30
0
70
128
71
18
72
19
73
17
0
VERTEX
8
OBJECT__17
10
0
20
0
30
0
70
128
71
20
72
16
73
15
0
VERTEX
8
OBJECT__17
10
0
20
0
30
0
70
128
71
15
72
9
73
20
0
VERTEX
8
OBJECT__17
10
0
20
0
30
0
70
128
71
21
72
22
73
23
0
VERTEX
8
OBJECT__17
10
0
20
0
30
0
70
128
71
24
72
23
73
22
0
VERTEX
8
OBJECT__17
10
0
20
0
30
0
70
128
71
22
72
25
73
24
0
VERTEX
8
OBJECT__17
10
0
20
0
30
0
70
128
71
19
72
26
73
27
0
VERTEX
8
OBJECT__17
10
0
20
0
30
0
70
128
71
25
72
27
73
26
0
VERTEX
8
OBJECT__17
10
0
20
0
30
0
70
128
71
26
72
24
73
25
0
VERTEX
8
OBJECT__17
10
0
20
0
30
0
70
128
71
27
72
17
73
19
0
VERTEX
8
OBJECT__17
10
0
20
0
30
0
70
128
71
28
72
29
73
30
0
VERTEX
8
OBJECT__17
10
0
20
0
30
0
70
128
71
31
72
30
73
29
0
VERTEX
8
OBJECT__17
10
0
20
0
30
0
70
128
71
29
72
32
73
31
0
VERTEX
8
OBJECT__17
10
0
20
0
30
0
70
128
71
33
72
31
73
32
0
VERTEX
8
OBJECT__17
10
0
20
0
30
0
70
128
71
32
72
34
73
33
0
VERTEX
8
OBJECT__17
10
0
20
0
30
0
70
128
71
35
72
36
73
37
0
VERTEX
8
OBJECT__17
10
0
20
0
30
0
70
128
71
38
72
39
73
40
0
VERTEX
8
OBJECT__17
10
0
20
0
30
0
70
128
71
40
72
41
73
38
0
VERTEX
8
OBJECT__17
10
0
20
0
30
0
70
128
71
36
72
35
73
38
0
VERTEX
8
OBJECT__17
10
0
20
0
30
0
70
128
71
39
72
42
73
43
0
VERTEX
8
OBJECT__17
10
0
20
0
30
0
70
128
71
44
72
45
73
46
0
VERTEX
8
OBJECT__17
10
0
20
0
30
0
70
128
71
46
72
43
73
44
0
VERTEX
8
OBJECT__17
10
0
20
0
30
0
70
128
71
43
72
42
73
44
0
VERTEX
8
OBJECT__17
10
0
20
0
30
0
70
128
71
43
72
40
73
39
0
VERTEX
8
OBJECT__17
10
0
20
0
30
0
70
128
71
41
72
36
73
38
0
VERTEX
8
OBJECT__17
10
0
20
0
30
0
70
128
71
37
72
47
73
35
0
VERTEX
8
OBJECT__17
10
0
20
0
30
0
70
128
71
48
72
49
73
50
0
VERTEX
8
OBJECT__17
10
0
20
0
30
0
70
128
71
49
72
48
73
51
0
VERTEX
8
OBJECT__17
10
0
20
0
30
0
70
128
71
51
72
52
73
49
0
VERTEX
8
OBJECT__17
10
0
20
0
30
0
70
128
71
33
72
53
73
54
0
VERTEX
8
OBJECT__17
10
0
20
0
30
0
70
128
71
54
72
48
73
33
0
VERTEX
8
OBJECT__17
10
0
20
0
30
0
70
128
71
33
72
55
73
56
0
VERTEX
8
OBJECT__17
10
0
20
0
30
0
70
128
71
33
72
34
73
57
0
VERTEX
8
OBJECT__17
10
0
20
0
30
0
70
128
71
34
72
58
73
57
0
VERTEX
8
OBJECT__17
10
0
20
0
30
0
70
128
71
34
72
59
73
58
0
VERTEX
8
OBJECT__17
10
0
20
0
30
0
70
128
71
34
72
60
73
59
0
VERTEX
8
OBJECT__17
10
0
20
0
30
0
70
128
71
34
72
61
73
62
0
VERTEX
8
OBJECT__17
10
0
20
0
30
0
70
128
71
62
72
60
73
34
0
VERTEX
8
OBJECT__17
10
0
20
0
30
0
70
128
71
57
72
55
73
33
0
VERTEX
8
OBJECT__17
10
0
20
0
30
0
70
128
71
34
72
63
73
61
0
VERTEX
8
OBJECT__17
10
0
20
0
30
0
70
128
71
64
72
35
73
65
0
VERTEX
8
OBJECT__17
10
0
20
0
30
0
70
128
71
66
72
67
73
64
0
VERTEX
8
OBJECT__17
10
0
20
0
30
0
70
128
71
66
72
34
73
67
0
VERTEX
8
OBJECT__17
10
0
20
0
30
0
70
128
71
65
72
66
73
64
0
VERTEX
8
OBJECT__17
10
0
20
0
30
0
70
128
71
66
72
63
73
34
0
VERTEX
8
OBJECT__17
10
0
20
0
30
0
70
128
71
56
72
53
73
33
0
VERTEX
8
OBJECT__17
10
0
20
0
30
0
70
128
71
68
72
69
73
70
0
VERTEX
8
OBJECT__17
10
0
20
0
30
0
70
128
71
70
72
71
73
68
0
VERTEX
8
OBJECT__17
10
0
20
0
30
0
70
128
71
72
72
69
73
73
0
VERTEX
8
OBJECT__17
10
0
20
0
30
0
70
128
71
52
72
74
73
72
0
VERTEX
8
OBJECT__17
10
0
20
0
30
0
70
128
71
52
72
75
73
74
0
VERTEX
8
OBJECT__17
10
0
20
0
30
0
70
128
71
73
72
52
73
72
0
VERTEX
8
OBJECT__17
10
0
20
0
30
0
70
128
71
52
72
51
73
76
0
VERTEX
8
OBJECT__17
10
0
20
0
30
0
70
128
71
76
72
75
73
52
0
VERTEX
8
OBJECT__17
10
0
20
0
30
0
70
128
71
68
72
73
73
69
0
VERTEX
8
OBJECT__17
10
0
20
0
30
0
70
128
71
50
72
33
73
48
0
VERTEX
8
OBJECT__17
10
0
20
0
30
0
70
128
71
47
72
65
73
35
0
VERTEX
8
OBJECT__17
10
0
20
0
30
0
70
128
71
30
72
21
73
28
0
VERTEX
8
OBJECT__17
10
0
20
0
30
0
70
128
71
23
72
28
73
21
0
VERTEX
8
OBJECT__17
10
0
20
0
30
0
70
128
71
16
72
18
73
14
0
VERTEX
8
OBJECT__17
10
0
20
0
30
0
70
128
71
11
72
20
73
9
0
VERTEX
8
OBJECT__17
10
0
20
0
30
0
70
128
71
3
72
5
73
1
0
SEQEND
8
OBJECT__17
0
POLYLINE
8
OBJECT__18
66
1
70
64
71
39
72
37
62
253
0
VERTEX
8
OBJECT__18
10
-25.388000
20
5.388000
30
138.320999
70
192
0
VERTEX
8
OBJECT__18
10
-24.843000
20
7.668000
30
137.227997
70
192
0
VERTEX
8
OBJECT__18
10
-25.969999
20
6.662000
30
136.134995
70
192
0
VERTEX
8
OBJECT__18
10
-26.229000
20
5.481000
30
136.682007
70
192
0
VERTEX
8
OBJECT__18
10
-24.171000
20
9.580000
30
135.723999
70
192
0
VERTEX
8
OBJECT__18
10
-25.051001
20
9.208000
30
133.916000
70
192
0
VERTEX
8
OBJECT__18
10
-24.028999
20
9.906000
30
135.358994
70
192
0
VERTEX
8
OBJECT__18
10
-21.945000
20
13.943000
30
125.431999
70
192
0
VERTEX
8
OBJECT__18
10
-21.907000
20
14.003000
30
118.808998
70
192
0
VERTEX
8
OBJECT__18
10
-23.377001
20
12.831000
30
120.634003
70
192
0
VERTEX
8
OBJECT__18
10
-23.399000
20
12.740000
30
123.761002
70
192
0
VERTEX
8
OBJECT__18
10
-23.162001
20
12.958000
30
103.000000
70
192
0
VERTEX
8
OBJECT__18
10
-23.393999
20
12.886000
30
103.000000
70
192
0
VERTEX
8
OBJECT__18
10
-23.391001
20
12.876000
30
111.535004
70
192
0
VERTEX
8
OBJECT__18
10
-21.907000
20
14.003000
30
103.000000
70
192
0
VERTEX
8
OBJECT__18
10
-26.209000
20
0.005000
30
138.718002
70
192
0
VERTEX
8
OBJECT__18
10
-26.000000
20
0.007000
30
139.500000
70
192
0
VERTEX
8
OBJECT__18
10
-25.993999
20
0.556000
30
139.488998
70
192
0
VERTEX
8
OBJECT__18
10
-26.000000
20
0.000000
30
139.500000
70
192
0
VERTEX
8
OBJECT__18
10
-25.920000
20
1.333000
30
139.350006
70
192
0
VERTEX
8
OBJECT__18
10
-26.000000
20
-0.007000
30
139.500000
70
192
0
VERTEX
8
OBJECT__18
10
-26.886999
20
1.412000
30
138.110001
70
192
0
VERTEX
8
OBJECT__18
10
-26.952999
20
0.519000
30
138.274002
70
192
0
VERTEX
8
OBJECT__18
10
-25.629000
20
4.378000
30
138.804993
70
192
0
VERTEX
8
OBJECT__18
10
-26.801001
20
2.573000
30
137.897995
70
192
0
VERTEX
8
OBJECT__18
10
-26.767000
20
3.033000
30
137.813995
70
192
0
VERTEX
8
OBJECT__18
10
-26.990999
20
0.016000
30
138.365997
70
192
0
VERTEX
8
OBJECT__18
10
-26.327999
20
5.030000
30
136.889999
70
192
0
VERTEX
8
OBJECT__18
10
-23.483999
20
11.158000
30
133.959000
70
192
0
VERTEX
8
OBJECT__18
10
-24.875000
20
9.694000
30
133.492004
70
192
0
VERTEX
8
OBJECT__18
10
-23.962999
20
11.632000
30
130.466003
70
192
0
VERTEX
8
OBJECT__18
10
-23.184999
20
11.725000
30
132.921005
70
192
0
VERTEX
8
OBJECT__18
10
-22.584000
20
12.864000
30
130.835999
70
192
0
VERTEX
8
OBJECT__18
10
-23.823000
20
11.896000
30
129.580002
70
192
0
VERTEX
8
OBJECT__18
10
-22.461000
20
13.096000
30
130.410004
70
192
0
VERTEX
8
OBJECT__18
10
-23.722000
20
12.083000
30
128.949997
70
192
0
VERTEX
8
OBJECT__18
10
-21.952999
20
13.931000
30
126.795998
70
192
0
VERTEX
8
OBJECT__18
10
-23.422001
20
12.645000
30
127.060997
70
192
0
VERTEX
8
OBJECT__18
10
-23.403999
20
12.722000
30
124.406998
70
192
0
VERTEX
8
OBJECT__18
10
0
20
0
30
0
70
128
71
1
72
2
73
3
0
VERTEX
8
OBJECT__18
10
0
20
0
30
0
70
128
71
3
72
4
73
1
0
VERTEX
8
OBJECT__18
10
0
20
0
30
0
70
128
71
3
72
2
73
5
0
VERTEX
8
OBJECT__18
10
0
20
0
30
0
70
128
71
5
72
6
73
3
0
VERTEX
8
OBJECT__18
10
0
20
0
30
0
70
128
71
5
72
7
73
6
0
VERTEX
8
OBJECT__18
10
0
20
0
30
0
70
128
71
8
72
9
73
10
0
VERTEX
8
OBJECT__18
10
0
20
0
30
0
70
128
71
10
72
11
73
8
0
VERTEX
8
OBJECT__18
10
0
20
0
30
0
70
128
71
12
72
13
73
14
0
VERTEX
8
OBJECT__18
10
0
20
0
30
0
70
128
71
12
72
10
73
9
0
VERTEX
8
OBJECT__18
10
0
20
0
30
0
70
128
71
9
72
15
73
12
0
VERTEX
8
OBJECT__18
10
0
20
0
30
0
70
128
71
14
72
10
73
12
0
VERTEX
8
OBJECT__18
10
0
20
0
30
0
70
128
71
16
72
17
73
18
0
VERTEX
8
OBJECT__18
10
0
20
0
30
0
70
128
71
16
72
19
73
17
0
VERTEX
8
OBJECT__18
10
0
20
0
30
0
70
128
71
18
72
20
73
16
0
VERTEX
8
OBJECT__18
10
0
20
0
30
0
70
128
71
16
72
21
73
19
0
VERTEX
8
OBJECT__18
10
0
20
0
30
0
70
128
71
16
72
22
73
23
0
VERTEX
8
OBJECT__18
10
0
20
0
30
0
70
128
71
24
72
25
73
22
0
VERTEX
8
OBJECT__18
10
0
20
0
30
0
70
128
71
24
72
26
73
25
0
VERTEX
8
OBJECT__18
10
0
20
0
30
0
70
128
71
22
72
16
73
24
0
VERTEX
8
OBJECT__18
10
0
20
0
30
0
70
128
71
23
72
27
73
16
0
VERTEX
8
OBJECT__18
10
0
20
0
30
0
70
128
71
28
72
26
73
24
0
VERTEX
8
OBJECT__18
10
0
20
0
30
0
70
128
71
24
72
1
73
28
0
VERTEX
8
OBJECT__18
10
0
20
0
30
0
70
128
71
7
72
29
73
30
0
VERTEX
8
OBJECT__18
10
0
20
0
30
0
70
128
71
31
72
30
73
32
0
VERTEX
8
OBJECT__18
10
0
20
0
30
0
70
128
71
30
72
29
73
32
0
VERTEX
8
OBJECT__18
10
0
20
0
30
0
70
128
71
32
72
33
73
31
0
VERTEX
8
OBJECT__18
10
0
20
0
30
0
70
128
71
33
72
34
73
31
0
VERTEX
8
OBJECT__18
10
0
20
0
30
0
70
128
71
35
72
36
73
34
0
VERTEX
8
OBJECT__18
10
0
20
0
30
0
70
128
71
35
72
37
73
38
0
VERTEX
8
OBJECT__18
10
0
20
0
30
0
70
128
71
38
72
36
73
35
0
VERTEX
8
OBJECT__18
10
0
20
0
30
0
70
128
71
38
72
37
73
8
0
VERTEX
8
OBJECT__18
10
0
20
0
30
0
70
128
71
8
72
39
73
38
0
VERTEX
8
OBJECT__18
10
0
20
0
30
0
70
128
71
34
72
33
73
35
0
VERTEX
8
OBJECT__18
10
0
20
0
30
0
70
128
71
30
72
6
73
7
0
VERTEX
8
OBJECT__18
10
0
20
0
30
0
70
128
71
20
72
24
73
16
0
VERTEX
8
OBJECT__18
10
0
20
0
30
0
70
128
71
11
72
39
73
8
0
VERTEX
8
OBJECT__18
10
0
20
0
30
0
70
128
71
4
72
28
73
1
0
SEQEND
8
OBJECT__18
0
POLYLINE
8
OBJECT__19
66
1
70
64
71
32
72
30
62
253
0
VERTEX
8
OBJECT__19
10
-25.379999
20
-5.402000
30
138.302994
70
192
0
VERTEX
8
OBJECT__19
10
-26.209000
20
0.005000
30
138.718002
70
192
0
VERTEX
8
OBJECT__19
10
-26.889000
20
-1.408000
30
138.113007
70
192
0
VERTEX
8
OBJECT__19
10
-26.990999
20
0.016000
30
138.365997
70
192
0
VERTEX
8
OBJECT__19
10
-26.777000
20
-2.960000
30
137.835999
70
192
0
VERTEX
8
OBJECT__19
10
-25.615000
20
-4.457000
30
138.778000
70
192
0
VERTEX
8
OBJECT__19
10
-25.978001
20
-1.062000
30
139.460999
70
192
0
VERTEX
8
OBJECT__19
10
-26.000000
20
-0.007000
30
139.500000
70
192
0
VERTEX
8
OBJECT__19
10
-23.586000
20
-10.940000
30
134.242004
70
192
0
VERTEX
8
OBJECT__19
10
-24.011000
20
-9.859000
30
135.261993
70
192
0
VERTEX
8
OBJECT__19
10
-25.054001
20
-9.267000
30
133.970001
70
192
0
VERTEX
8
OBJECT__19
10
-24.896999
20
-9.609000
30
133.472000
70
192
0
VERTEX
8
OBJECT__19
10
-23.461000
20
-11.183000
30
133.826004
70
192
0
VERTEX
8
OBJECT__19
10
-24.009001
20
-11.543000
30
130.656006
70
192
0
VERTEX
8
OBJECT__19
10
-22.563000
20
-12.918000
30
130.852005
70
192
0
VERTEX
8
OBJECT__19
10
-24.726000
20
-8.040000
30
136.977005
70
192
0
VERTEX
8
OBJECT__19
10
-26.231001
20
-5.487000
30
136.686996
70
192
0
VERTEX
8
OBJECT__19
10
-25.997000
20
-6.571000
30
136.194000
70
192
0
VERTEX
8
OBJECT__19
10
-26.330000
20
-5.030000
30
136.895004
70
192
0
VERTEX
8
OBJECT__19
10
-23.420000
20
-12.649000
30
127.030998
70
192
0
VERTEX
8
OBJECT__19
10
-23.402000
20
-12.726000
30
124.362999
70
192
0
VERTEX
8
OBJECT__19
10
-21.952999
20
-13.931000
30
125.419998
70
192
0
VERTEX
8
OBJECT__19
10
-21.975000
20
-13.897000
30
127.108002
70
192
0
VERTEX
8
OBJECT__19
10
-22.552000
20
-12.939000
30
130.815994
70
192
0
VERTEX
8
OBJECT__19
10
-23.731001
20
-12.065000
30
128.942993
70
192
0
VERTEX
8
OBJECT__19
10
-23.829000
20
-11.881000
30
129.548004
70
192
0
VERTEX
8
OBJECT__19
10
-23.393999
20
-12.886000
30
103.000000
70
192
0
VERTEX
8
OBJECT__19
10
-21.907000
20
-14.003000
30
103.000000
70
192
0
VERTEX
8
OBJECT__19
10
-21.907000
20
-14.003000
30
113.788002
70
192
0
VERTEX
8
OBJECT__19
10
-23.377001
20
-12.830000
30
120.721001
70
192
0
VERTEX
8
OBJECT__19
10
-21.907000
20
-14.003000
30
121.944000
70
192
0
VERTEX
8
OBJECT__19
10
-23.398001
20
-12.743000
30
123.761002
70
192
0
VERTEX
8
OBJECT__19
10
0
20
0
30
0
70
128
71
1
72
2
73
3
0
VERTEX
8
OBJECT__19
10
0
20
0
30
0
70
128
71
2
72
4
73
3
0
VERTEX
8
OBJECT__19
10
0
20
0
30
0
70
128
71
3
72
5
73
1
0
VERTEX
8
OBJECT__19
10
0
20
0
30
0
70
128
71
2
72
1
73
6
0
VERTEX
8
OBJECT__19
10
0
20
0
30
0
70
128
71
6
72
7
73
2
0
VERTEX
8
OBJECT__19
10
0
20
0
30
0
70
128
71
7
72
8
73
2
0
VERTEX
8
OBJECT__19
10
0
20
0
30
0
70
128
71
9
72
10
73
11
0
VERTEX
8
OBJECT__19
10
0
20
0
30
0
70
128
71
12
72
13
73
9
0
VERTEX
8
OBJECT__19
10
0
20
0
30
0
70
128
71
13
72
12
73
14
0
VERTEX
8
OBJECT__19
10
0
20
0
30
0
70
128
71
14
72
15
73
13
0
VERTEX
8
OBJECT__19
10
0
20
0
30
0
70
128
71
11
72
12
73
9
0
VERTEX
8
OBJECT__19
10
0
20
0
30
0
70
128
71
11
72
10
73
16
0
VERTEX
8
OBJECT__19
10
0
20
0
30
0
70
128
71
1
72
17
73
18
0
VERTEX
8
OBJECT__19
10
0
20
0
30
0
70
128
71
1
72
19
73
17
0
VERTEX
8
OBJECT__19
10
0
20
0
30
0
70
128
71
18
72
16
73
1
0
VERTEX
8
OBJECT__19
10
0
20
0
30
0
70
128
71
20
72
21
73
22
0
VERTEX
8
OBJECT__19
10
0
20
0
30
0
70
128
71
23
72
24
73
25
0
VERTEX
8
OBJECT__19
10
0
20
0
30
0
70
128
71
26
72
25
73
24
0
VERTEX
8
OBJECT__19
10
0
20
0
30
0
70
128
71
24
72
15
73
26
0
VERTEX
8
OBJECT__19
10
0
20
0
30
0
70
128
71
25
72
20
73
23
0
VERTEX
8
OBJECT__19
10
0
20
0
30
0
70
128
71
27
72
28
73
29
0
VERTEX
8
OBJECT__19
10
0
20
0
30
0
70
128
71
29
72
30
73
27
0
VERTEX
8
OBJECT__19
10
0
20
0
30
0
70
128
71
31
72
22
73
32
0
VERTEX
8
OBJECT__19
10
0
20
0
30
0
70
128
71
22
72
21
73
32
0
VERTEX
8
OBJECT__19
10
0
20
0
30
0
70
128
71
32
72
30
73
31
0
VERTEX
8
OBJECT__19
10
0
20
0
30
0
70
128
71
29
72
31
73
30
0
VERTEX
8
OBJECT__19
10
0
20
0
30
0
70
128
71
22
72
23
73
20
0
VERTEX
8
OBJECT__19
10
0
20
0
30
0
70
128
71
16
72
18
73
11
0
VERTEX
8
OBJECT__19
10
0
20
0
30
0
70
128
71
14
72
26
73
15
0
VERTEX
8
OBJECT__19
10
0
20
0
30
0
70
128
71
5
72
19
73
1
0
SEQEND
8
OBJECT__19
0
POLYLINE
8
OBJECT__20
66
1
70
64
71
35
72
33
62
253
0
VERTEX
8
OBJECT__20
10
-23.844999
20
11.862000
30
76.416000
70
192
0
VERTEX
8
OBJECT__20
10
-22.596001
20
12.854000
30
75.389000
70
192
0
VERTEX
8
OBJECT__20
10
-23.180000
20
11.724000
30
73.455002
70
192
0
VERTEX
8
OBJECT__20
10
-24.851000
20
9.752000
30
72.926003
70
192
0
VERTEX
8
OBJECT__20
10
-23.591999
20
10.927000
30
72.092003
70
192
0
VERTEX
8
OBJECT__20
10
-24.037001
20
9.794000
30
71.026001
70
192
0
VERTEX
8
OBJECT__20
10
-24.909000
20
9.590000
30
72.782997
70
192
0
VERTEX
8
OBJECT__20
10
-25.076000
20
9.133000
30
72.378998
70
192
0
VERTEX
8
OBJECT__20
10
-24.730000
20
8.028000
30
69.364998
70
192
0
VERTEX
8
OBJECT__20
10
-25.395000
20
5.354000
30
68.017998
70
192
0
VERTEX
8
OBJECT__20
10
-26.240000
20
5.436000
30
69.649002
70
192
0
VERTEX
8
OBJECT__20
10
-25.945999
20
6.744000
30
70.267998
70
192
0
VERTEX
8
OBJECT__20
10
-26.340000
20
4.990000
30
69.438004
70
192
0
VERTEX
8
OBJECT__20
10
-23.415001
20
12.657000
30
79.380997
70
192
0
VERTEX
8
OBJECT__20
10
-23.399000
20
12.727000
30
81.810997
70
192
0
VERTEX
8
OBJECT__20
10
-21.955000
20
13.928000
30
80.766998
70
192
0
VERTEX
8
OBJECT__20
10
-21.974001
20
13.898000
30
79.254997
70
192
0
VERTEX
8
OBJECT__20
10
-22.552999
20
12.937000
30
75.531998
70
192
0
VERTEX
8
OBJECT__20
10
-23.725000
20
12.084000
30
77.244003
70
192
0
VERTEX
8
OBJECT__20
10
-23.812000
20
11.922000
30
76.641998
70
192
0
VERTEX
8
OBJECT__20
10
-26.209000
20
0.000000
30
67.633003
70
192
0
VERTEX
8
OBJECT__20
10
-26.877001
20
1.460000
30
68.261002
70
192
0
VERTEX
8
OBJECT__20
10
-26.990999
20
0.000000
30
67.986000
70
192
0
VERTEX
8
OBJECT__20
10
-26.743000
20
3.195000
30
68.587997
70
192
0
VERTEX
8
OBJECT__20
10
-25.945000
20
1.335000
30
66.953003
70
192
0
VERTEX
8
OBJECT__20
10
-25.981001
20
0.992000
30
66.885002
70
192
0
VERTEX
8
OBJECT__20
10
-25.608999
20
4.492000
30
67.584000
70
192
0
VERTEX
8
OBJECT__20
10
-26.000000
20
0.000000
30
66.849998
70
192
0
VERTEX
8
OBJECT__20
10
-23.162001
20
12.958000
30
103.000000
70
192
0
VERTEX
8
OBJECT__20
10
-21.907000
20
14.003000
30
103.000000
70
192
0
VERTEX
8
OBJECT__20
10
-21.907000
20
14.003000
30
92.532997
70
192
0
VERTEX
8
OBJECT__20
10
-23.375999
20
12.828000
30
85.333000
70
192
0
VERTEX
8
OBJECT__20
10
-23.393999
20
12.886000
30
103.000000
70
192
0
VERTEX
8
OBJECT__20
10
-21.907000
20
14.003000
30
84.557999
70
192
0
VERTEX
8
OBJECT__20
10
-23.396000
20
12.744000
30
82.393997
70
192
0
VERTEX
8
OBJECT__20
10
0
20
0
30
0
70
128
71
1
72
2
73
3
0
VERTEX
8
OBJECT__20
10
0
20
0
30
0
70
128
71
3
72
4
73
1
0
VERTEX
8
OBJECT__20
10
0
20
0
30
0
70
128
71
5
72
6
73
7
0
VERTEX
8
OBJECT__20
10
0
20
0
30
0
70
128
71
6
72
8
73
7
0
VERTEX
8
OBJECT__20
10
0
20
0
30
0
70
128
71
7
72
4
73
5
0
VERTEX
8
OBJECT__20
10
0
20
0
30
0
70
128
71
3
72
5
73
4
0
VERTEX
8
OBJECT__20
10
0
20
0
30
0
70
128
71
8
72
6
73
9
0
VERTEX
8
OBJECT__20
10
0
20
0
30
0
70
128
71
10
72
11
73
12
0
VERTEX
8
OBJECT__20
10
0
20
0
30
0
70
128
71
10
72
13
73
11
0
VERTEX
8
OBJECT__20
10
0
20
0
30
0
70
128
71
12
72
9
73
10
0
VERTEX
8
OBJECT__20
10
0
20
0
30
0
70
128
71
14
72
15
73
16
0
VERTEX
8
OBJECT__20
10
0
20
0
30
0
70
128
71
17
72
18
73
19
0
VERTEX
8
OBJECT__20
10
0
20
0
30
0
70
128
71
18
72
2
73
20
0
VERTEX
8
OBJECT__20
10
0
20
0
30
0
70
128
71
20
72
19
73
18
0
VERTEX
8
OBJECT__20
10
0
20
0
30
0
70
128
71
19
72
14
73
17
0
VERTEX
8
OBJECT__20
10
0
20
0
30
0
70
128
71
10
72
21
73
22
0
VERTEX
8
OBJECT__20
10
0
20
0
30
0
70
128
71
21
72
23
73
22
0
VERTEX
8
OBJECT__20
10
0
20
0
30
0
70
128
71
22
72
24
73
10
0
VERTEX
8
OBJECT__20
10
0
20
0
30
0
70
128
71
21
72
25
73
26
0
VERTEX
8
OBJECT__20
10
0
20
0
30
0
70
128
71
21
72
10
73
27
0
VERTEX
8
OBJECT__20
10
0
20
0
30
0
70
128
71
27
72
25
73
21
0
VERTEX
8
OBJECT__20
10
0
20
0
30
0
70
128
71
26
72
28
73
21
0
VERTEX
8
OBJECT__20
10
0
20
0
30
0
70
128
71
29
72
30
73
31
0
VERTEX
8
OBJECT__20
10
0
20
0
30
0
70
128
71
32
72
33
73
29
0
VERTEX
8
OBJECT__20
10
0
20
0
30
0
70
128
71
31
72
32
73
29
0
VERTEX
8
OBJECT__20
10
0
20
0
30
0
70
128
71
34
72
16
73
35
0
VERTEX
8
OBJECT__20
10
0
20
0
30
0
70
128
71
16
72
15
73
35
0
VERTEX
8
OBJECT__20
10
0
20
0
30
0
70
128
71
35
72
32
73
34
0
VERTEX
8
OBJECT__20
10
0
20
0
30
0
70
128
71
31
72
34
73
32
0
VERTEX
8
OBJECT__20
10
0
20
0
30
0
70
128
71
24
72
13
73
10
0
VERTEX
8
OBJECT__20
10
0
20
0
30
0
70
128
71
16
72
17
73
14
0
VERTEX
8
OBJECT__20
10
0
20
0
30
0
70
128
71
9
72
12
73
8
0
VERTEX
8
OBJECT__20
10
0
20
0
30
0
70
128
71
1
72
20
73
2
0
SEQEND
8
OBJECT__20
0
POLYLINE
8
OBJECT__21
66
1
70
64
71
34
72
32
62
253
0
VERTEX
8
OBJECT__21
10
-22.648001
20
-12.746000
30
75.402000
70
192
0
VERTEX
8
OBJECT__21
10
-22.125999
20
-13.655000
30
77.829002
70
192
0
VERTEX
8
OBJECT__21
10
-23.747000
20
-12.037000
30
77.264999
70
192
0
VERTEX
8
OBJECT__21
10
-23.421000
20
-12.648000
30
79.311996
70
192
0
VERTEX
8
OBJECT__21
10
-21.958000
20
-13.922000
30
80.766998
70
192
0
VERTEX
8
OBJECT__21
10
-23.396000
20
-12.737000
30
81.792999
70
192
0
VERTEX
8
OBJECT__21
10
-24.056000
20
-9.864000
30
70.904999
70
192
0
VERTEX
8
OBJECT__21
10
-24.896999
20
-9.644000
30
72.799004
70
192
0
VERTEX
8
OBJECT__21
10
-24.909000
20
-9.609000
30
72.768997
70
192
0
VERTEX
8
OBJECT__21
10
-23.974001
20
-11.612000
30
75.841003
70
192
0
VERTEX
8
OBJECT__21
10
-23.440001
20
-11.173000
30
72.652000
70
192
0
VERTEX
8
OBJECT__21
10
-22.927999
20
-12.260000
30
74.103996
70
192
0
VERTEX
8
OBJECT__21
10
-23.843000
20
-11.856000
30
76.660004
70
192
0
VERTEX
8
OBJECT__21
10
-25.066999
20
-6.902000
30
68.656998
70
192
0
VERTEX
8
OBJECT__21
10
-25.993999
20
-6.580000
30
70.163002
70
192
0
VERTEX
8
OBJECT__21
10
-26.240999
20
-5.437000
30
69.643997
70
192
0
VERTEX
8
OBJECT__21
10
-25.392000
20
-5.358000
30
68.016998
70
192
0
VERTEX
8
OBJECT__21
10
-24.059999
20
-9.856000
30
70.892998
70
192
0
VERTEX
8
OBJECT__21
10
-25.080999
20
-9.130000
30
72.357002
70
192
0
VERTEX
8
OBJECT__21
10
-26.209000
20
0.000000
30
67.633003
70
192
0
VERTEX
8
OBJECT__21
10
-26.000000
20
0.000000
30
66.849998
70
192
0
VERTEX
8
OBJECT__21
10
-25.721001
20
-3.796000
30
67.370003
70
192
0
VERTEX
8
OBJECT__21
10
-26.891001
20
-1.392000
30
68.233002
70
192
0
VERTEX
8
OBJECT__21
10
-26.952999
20
-0.519000
30
68.078003
70
192
0
VERTEX
8
OBJECT__21
10
-26.781000
20
-2.931000
30
68.505997
70
192
0
VERTEX
8
OBJECT__21
10
-26.337000
20
-4.992000
30
69.442001
70
192
0
VERTEX
8
OBJECT__21
10
-26.990999
20
0.000000
30
67.986000
70
192
0
VERTEX
8
OBJECT__21
10
-21.907000
20
-14.003000
30
81.651001
70
192
0
VERTEX
8
OBJECT__21
10
-23.389999
20
-12.758000
30
82.394997
70
192
0
VERTEX
8
OBJECT__21
10
-23.372999
20
-12.820000
30
84.122002
70
192
0
VERTEX
8
OBJECT__21
10
-21.907000
20
-14.003000
30
98.648003
70
192
0
VERTEX
8
OBJECT__21
10
-23.386999
20
-12.863000
30
91.074997
70
192
0
VERTEX
8
OBJECT__21
10
-23.393999
20
-12.886000
30
103.000000
70
192
0
VERTEX
8
OBJECT__21
10
-21.907000
20
-14.003000
30
103.000000
70
192
0
VERTEX
8
OBJECT__21
10
0
20
0
30
0
70
128
71
1
72
2
73
3
0
VERTEX
8
OBJECT__21
10
0
20
0
30
0
70
128
71
2
72
4
73
3
0
VERTEX
8
OBJECT__21
10
0
20
0
30
0
70
128
71
5
72
6
73
4
0
VERTEX
8
OBJECT__21
10
0
20
0
30
0
70
128
71
4
72
2
73
5
0
VERTEX
8
OBJECT__21
10
0
20
0
30
0
70
128
71
7
72
8
73
9
0
VERTEX
8
OBJECT__21
10
0
20
0
30
0
70
128
71
10
72
8
73
11
0
VERTEX
8
OBJECT__21
10
0
20
0
30
0
70
128
71
11
72
12
73
10
0
VERTEX
8
OBJECT__21
10
0
20
0
30
0
70
128
71
8
72
7
73
11
0
VERTEX
8
OBJECT__21
10
0
20
0
30
0
70
128
71
12
72
1
73
10
0
VERTEX
8
OBJECT__21
10
0
20
0
30
0
70
128
71
1
72
13
73
10
0
VERTEX
8
OBJECT__21
10
0
20
0
30
0
70
128
71
14
72
15
73
16
0
VERTEX
8
OBJECT__21
10
0
20
0
30
0
70
128
71
16
72
17
73
14
0
VERTEX
8
OBJECT__21
10
0
20
0
30
0
70
128
71
18
72
19
73
15
0
VERTEX
8
OBJECT__21
10
0
20
0
30
0
70
128
71
15
72
14
73
18
0
VERTEX
8
OBJECT__21
10
0
20
0
30
0
70
128
71
18
72
7
73
19
0
VERTEX
8
OBJECT__21
10
0
20
0
30
0
70
128
71
20
72
21
73
22
0
VERTEX
8
OBJECT__21
10
0
20
0
30
0
70
128
71
20
72
23
73
24
0
VERTEX
8
OBJECT__21
10
0
20
0
30
0
70
128
71
17
72
25
73
23
0
VERTEX
8
OBJECT__21
10
0
20
0
30
0
70
128
71
23
72
20
73
17
0
VERTEX
8
OBJECT__21
10
0
20
0
30
0
70
128
71
17
72
26
73
25
0
VERTEX
8
OBJECT__21
10
0
20
0
30
0
70
128
71
24
72
27
73
20
0
VERTEX
8
OBJECT__21
10
0
20
0
30
0
70
128
71
28
72
29
73
6
0
VERTEX
8
OBJECT__21
10
0
20
0
30
0
70
128
71
28
72
30
73
29
0
VERTEX
8
OBJECT__21
10
0
20
0
30
0
70
128
71
28
72
31
73
32
0
VERTEX
8
OBJECT__21
10
0
20
0
30
0
70
128
71
33
72
32
73
31
0
VERTEX
8
OBJECT__21
10
0
20
0
30
0
70
128
71
31
72
34
73
33
0
VERTEX
8
OBJECT__21
10
0
20
0
30
0
70
128
71
32
72
30
73
28
0
VERTEX
8
OBJECT__21
10
0
20
0
30
0
70
128
71
6
72
5
73
28
0
VERTEX
8
OBJECT__21
10
0
20
0
30
0
70
128
71
22
72
17
73
20
0
VERTEX
8
OBJECT__21
10
0
20
0
30
0
70
128
71
16
72
26
73
17
0
VERTEX
8
OBJECT__21
10
0
20
0
30
0
70
128
71
9
72
19
73
7
0
VERTEX
8
OBJECT__21
10
0
20
0
30
0
70
128
71
3
72
13
73
1
0
SEQEND
8
OBJECT__21
0
POLYLINE
8
OBJECT__22
66
1
70
64
71
80
72
109
62
253
0
VERTEX
8
OBJECT__22
10
-30.167999
20
-5.700000
30
131.811996
70
192
0
VERTEX
8
OBJECT__22
10
-27.729000
20
-8.039000
30
132.570999
70
192
0
VERTEX
8
OBJECT__22
10
-27.658001
20
-4.790000
30
136.354996
70
192
0
VERTEX
8
OBJECT__22
10
-31.695999
20
-2.957000
30
131.356003
70
192
0
VERTEX
8
OBJECT__22
10
-29.184999
20
-3.391000
30
135.936005
70
192
0
VERTEX
8
OBJECT__22
10
-30.139000
20
-1.757000
30
135.684006
70
192
0
VERTEX
8
OBJECT__22
10
-28.108000
20
-2.002000
30
137.524002
70
192
0
VERTEX
8
OBJECT__22
10
-28.881001
20
0.000000
30
137.376999
70
192
0
VERTEX
8
OBJECT__22
10
-30.464001
20
0.000000
30
135.600006
70
192
0
VERTEX
8
OBJECT__22
10
-32.217999
20
0.000000
30
131.203995
70
192
0
VERTEX
8
OBJECT__22
10
-32.189999
20
-3.751000
30
126.670998
70
192
0
VERTEX
8
OBJECT__22
10
-30.309000
20
-7.213000
30
127.149002
70
192
0
VERTEX
8
OBJECT__22
10
-27.320999
20
-10.130000
30
127.946999
70
192
0
VERTEX
8
OBJECT__22
10
-27.108000
20
-10.779000
30
122.918999
70
192
0
VERTEX
8
OBJECT__22
10
-30.221001
20
-7.741000
30
122.275002
70
192
0
VERTEX
8
OBJECT__22
10
-32.833000
20
0.000000
30
126.512001
70
192
0
VERTEX
8
OBJECT__22
10
-32.195000
20
-4.045000
30
121.889000
70
192
0
VERTEX
8
OBJECT__22
10
-31.695999
20
2.956000
30
131.356003
70
192
0
VERTEX
8
OBJECT__22
10
-32.195000
20
4.044000
30
121.889000
70
192
0
VERTEX
8
OBJECT__22
10
-32.873001
20
0.000000
30
121.760002
70
192
0
VERTEX
8
OBJECT__22
10
-32.189999
20
3.750000
30
126.670998
70
192
0
VERTEX
8
OBJECT__22
10
-30.139000
20
1.757000
30
135.684006
70
192
0
VERTEX
8
OBJECT__22
10
-28.684999
20
1.037000
30
137.414001
70
192
0
VERTEX
8
OBJECT__22
10
-29.184999
20
3.391000
30
135.936005
70
192
0
VERTEX
8
OBJECT__22
10
-30.167999
20
5.699000
30
131.811996
70
192
0
VERTEX
8
OBJECT__22
10
-30.221001
20
7.741000
30
122.275002
70
192
0
VERTEX
8
OBJECT__22
10
-30.309000
20
7.213000
30
127.149002
70
192
0
VERTEX
8
OBJECT__22
10
-27.730000
20
8.039000
30
132.570999
70
192
0
VERTEX
8
OBJECT__22
10
-27.658001
20
4.790000
30
136.354996
70
192
0
VERTEX
8
OBJECT__22
10
-27.108000
20
10.779000
30
122.918999
70
192
0
VERTEX
8
OBJECT__22
10
-27.011000
20
11.110000
30
103.000000
70
192
0
VERTEX
8
OBJECT__22
10
-29.832001
20
8.529000
30
103.000000
70
192
0
VERTEX
8
OBJECT__22
10
-30.097000
20
8.081000
30
103.000000
70
192
0
VERTEX
8
OBJECT__22
10
-31.879999
20
5.072000
30
103.000000
70
192
0
VERTEX
8
OBJECT__22
10
-32.077000
20
4.255000
30
103.000000
70
192
0
VERTEX
8
OBJECT__22
10
-32.817001
20
1.187000
30
103.000000
70
192
0
VERTEX
8
OBJECT__22
10
-32.744999
20
0.007000
30
103.000000
70
192
0
VERTEX
8
OBJECT__22
10
-32.575001
20
-2.799000
30
103.000000
70
192
0
VERTEX
8
OBJECT__22
10
-32.063999
20
-4.240000
30
103.000000
70
192
0
VERTEX
8
OBJECT__22
10
-31.392000
20
-6.140000
30
103.000000
70
192
0
VERTEX
8
OBJECT__22
10
-30.045000
20
-8.036000
30
103.000000
70
192
0
VERTEX
8
OBJECT__22
10
-29.136000
20
-9.318000
30
103.000000
70
192
0
VERTEX
8
OBJECT__22
10
-26.938000
20
-11.015000
30
103.000000
70
192
0
VERTEX
8
OBJECT__22
10
-25.926001
20
-11.796000
30
103.000000
70
192
0
VERTEX
8
OBJECT__22
10
-23.393999
20
-12.886000
30
103.000000
70
192
0
VERTEX
8
OBJECT__22
10
-23.377001
20
-12.830000
30
120.721001
70
192
0
VERTEX
8
OBJECT__22
10
-23.402000
20
-12.726000
30
124.362999
70
192
0
VERTEX
8
OBJECT__22
10
-23.420000
20
-12.649000
30
127.030998
70
192
0
VERTEX
8
OBJECT__22
10
-23.398001
20
-12.743000
30
123.761002
70
192
0
VERTEX
8
OBJECT__22
10
-24.009001
20
-11.543000
30
130.656006
70
192
0
VERTEX
8
OBJECT__22
10
-24.896999
20
-9.609000
30
133.472000
70
192
0
VERTEX
8
OBJECT__22
10
-23.829000
20
-11.881000
30
129.548004
70
192
0
VERTEX
8
OBJECT__22
10
-23.731001
20
-12.065000
30
128.942993
70
192
0
VERTEX
8
OBJECT__22
10
-25.997000
20
-6.571000
30
136.194000
70
192
0
VERTEX
8
OBJECT__22
10
-25.054001
20
-9.267000
30
133.970001
70
192
0
VERTEX
8
OBJECT__22
10
-26.777000
20
-2.960000
30
137.835999
70
192
0
VERTEX
8
OBJECT__22
10
-26.889000
20
-1.408000
30
138.113007
70
192
0
VERTEX
8
OBJECT__22
10
-26.330000
20
-5.030000
30
136.895004
70
192
0
VERTEX
8
OBJECT__22
10
-26.231001
20
-5.487000
30
136.686996
70
192
0
VERTEX
8
OBJECT__22
10
-26.990999
20
0.016000
30
138.365997
70
192
0
VERTEX
8
OBJECT__22
10
-26.952999
20
0.519000
30
138.274002
70
192
0
VERTEX
8
OBJECT__22
10
-26.886999
20
1.412000
30
138.110001
70
192
0
VERTEX
8
OBJECT__22
10
-26.801001
20
2.573000
30
137.897995
70
192
0
VERTEX
8
OBJECT__22
10
-26.767000
20
3.033000
30
137.813995
70
192
0
VERTEX
8
OBJECT__22
10
-26.327999
20
5.030000
30
136.889999
70
192
0
VERTEX
8
OBJECT__22
10
-26.229000
20
5.481000
30
136.682007
70
192
0
VERTEX
8
OBJECT__22
10
-25.969999
20
6.662000
30
136.134995
70
192
0
VERTEX
8
OBJECT__22
10
-25.051001
20
9.208000
30
133.916000
70
192
0
VERTEX
8
OBJECT__22
10
-27.320999
20
10.130000
30
127.945999
70
192
0
VERTEX
8
OBJECT__22
10
-24.875000
20
9.694000
30
133.492004
70
192
0
VERTEX
8
OBJECT__22
10
-23.962999
20
11.632000
30
130.466003
70
192
0
VERTEX
8
OBJECT__22
10
-23.823000
20
11.896000
30
129.580002
70
192
0
VERTEX
8
OBJECT__22
10
-23.422001
20
12.645000
30
127.060997
70
192
0
VERTEX
8
OBJECT__22
10
-23.403999
20
12.722000
30
124.406998
70
192
0
VERTEX
8
OBJECT__22
10
-23.722000
20
12.083000
30
128.949997
70
192
0
VERTEX
8
OBJECT__22
10
-23.391001
20
12.876000
30
111.535004
70
192
0
VERTEX
8
OBJECT__22
10
-23.393999
20
12.886000
30
103.000000
70
192
0
VERTEX
8
OBJECT__22
10
-26.944000
20
11.171000
30
103.000000
70
192
0
VERTEX
8
OBJECT__22
10
-23.377001
20
12.831000
30
120.634003
70
192
0
VERTEX
8
OBJECT__22
10
-23.399000
20
12.740000
30
123.761002
70
192
0
VERTEX
8
OBJECT__22
10
0
20
0
30
0
70
128
71
1
72
2
73
3
0
VERTEX
8
OBJECT__22
10
0
20
0
30
0
70
128
71
4
72
1
73
5
0
VERTEX
8
OBJECT__22
10
0
20
0
30
0
70
128
71
6
72
5
73
7
0
VERTEX
8
OBJECT__22
10
0
20
0
30
0
70
128
71
8
72
9
73
6
0
VERTEX
8
OBJECT__22
10
0
20
0
30
0
70
128
71
10
72
4
73
6
0
VERTEX
8
OBJECT__22
10
0
20
0
30
0
70
128
71
11
72
12
73
1
0
VERTEX
8
OBJECT__22
10
0
20
0
30
0
70
128
71
12
72
13
73
2
0
VERTEX
8
OBJECT__22
10
0
20
0
30
0
70
128
71
14
72
13
73
12
0
VERTEX
8
OBJECT__22
10
0
20
0
30
0
70
128
71
15
72
12
73
11
0
VERTEX
8
OBJECT__22
10
0
20
0
30
0
70
128
71
16
72
11
73
4
0
VERTEX
8
OBJECT__22
10
0
20
0
30
0
70
128
71
17
72
11
73
16
0
VERTEX
8
OBJECT__22
10
0
20
0
30
0
70
128
71
16
72
10
73
18
0
VERTEX
8
OBJECT__22
10
0
20
0
30
0
70
128
71
19
72
20
73
16
0
VERTEX
8
OBJECT__22
10
0
20
0
30
0
70
128
71
16
72
21
73
19
0
VERTEX
8
OBJECT__22
10
0
20
0
30
0
70
128
71
10
72
9
73
22
0
VERTEX
8
OBJECT__22
10
0
20
0
30
0
70
128
71
9
72
8
73
23
0
VERTEX
8
OBJECT__22
10
0
20
0
30
0
70
128
71
18
72
22
73
24
0
VERTEX
8
OBJECT__22
10
0
20
0
30
0
70
128
71
21
72
18
73
25
0
VERTEX
8
OBJECT__22
10
0
20
0
30
0
70
128
71
26
72
19
73
21
0
VERTEX
8
OBJECT__22
10
0
20
0
30
0
70
128
71
27
72
25
73
28
0
VERTEX
8
OBJECT__22
10
0
20
0
30
0
70
128
71
25
72
24
73
29
0
VERTEX
8
OBJECT__22
10
0
20
0
30
0
70
128
71
30
72
26
73
27
0
VERTEX
8
OBJECT__22
10
0
20
0
30
0
70
128
71
31
72
32
73
26
0
VERTEX
8
OBJECT__22
10
0
20
0
30
0
70
128
71
26
72
30
73
31
0
VERTEX
8
OBJECT__22
10
0
20
0
30
0
70
128
71
32
72
33
73
26
0
VERTEX
8
OBJECT__22
10
0
20
0
30
0
70
128
71
26
72
33
73
34
0
VERTEX
8
OBJECT__22
10
0
20
0
30
0
70
128
71
34
72
19
73
26
0
VERTEX
8
OBJECT__22
10
0
20
0
30
0
70
128
71
34
72
35
73
19
0
VERTEX
8
OBJECT__22
10
0
20
0
30
0
70
128
71
20
72
36
73
37
0
VERTEX
8
OBJECT__22
10
0
20
0
30
0
70
128
71
19
72
35
73
36
0
VERTEX
8
OBJECT__22
10
0
20
0
30
0
70
128
71
36
72
20
73
19
0
VERTEX
8
OBJECT__22
10
0
20
0
30
0
70
128
71
20
72
37
73
38
0
VERTEX
8
OBJECT__22
10
0
20
0
30
0
70
128
71
38
72
17
73
20
0
VERTEX
8
OBJECT__22
10
0
20
0
30
0
70
128
71
15
72
39
73
40
0
VERTEX
8
OBJECT__22
10
0
20
0
30
0
70
128
71
39
72
15
73
17
0
VERTEX
8
OBJECT__22
10
0
20
0
30
0
70
128
71
40
72
41
73
15
0
VERTEX
8
OBJECT__22
10
0
20
0
30
0
70
128
71
14
72
41
73
42
0
VERTEX
8
OBJECT__22
10
0
20
0
30
0
70
128
71
41
72
14
73
15
0
VERTEX
8
OBJECT__22
10
0
20
0
30
0
70
128
71
42
72
43
73
14
0
VERTEX
8
OBJECT__22
10
0
20
0
30
0
70
128
71
44
72
45
73
46
0
VERTEX
8
OBJECT__22
10
0
20
0
30
0
70
128
71
46
72
14
73
44
0
VERTEX
8
OBJECT__22
10
0
20
0
30
0
70
128
71
14
72
43
73
44
0
VERTEX
8
OBJECT__22
10
0
20
0
30
0
70
128
71
13
72
14
73
47
0
VERTEX
8
OBJECT__22
10
0
20
0
30
0
70
128
71
47
72
48
73
13
0
VERTEX
8
OBJECT__22
10
0
20
0
30
0
70
128
71
14
72
49
73
47
0
VERTEX
8
OBJECT__22
10
0
20
0
30
0
70
128
71
13
72
50
73
51
0
VERTEX
8
OBJECT__22
10
0
20
0
30
0
70
128
71
13
72
52
73
50
0
VERTEX
8
OBJECT__22
10
0
20
0
30
0
70
128
71
13
72
53
73
52
0
VERTEX
8
OBJECT__22
10
0
20
0
30
0
70
128
71
3
72
2
73
54
0
VERTEX
8
OBJECT__22
10
0
20
0
30
0
70
128
71
2
72
51
73
55
0
VERTEX
8
OBJECT__22
10
0
20
0
30
0
70
128
71
55
72
54
73
2
0
VERTEX
8
OBJECT__22
10
0
20
0
30
0
70
128
71
56
72
57
73
7
0
VERTEX
8
OBJECT__22
10
0
20
0
30
0
70
128
71
56
72
5
73
3
0
VERTEX
8
OBJECT__22
10
0
20
0
30
0
70
128
71
3
72
58
73
56
0
VERTEX
8
OBJECT__22
10
0
20
0
30
0
70
128
71
3
72
59
73
58
0
VERTEX
8
OBJECT__22
10
0
20
0
30
0
70
128
71
8
72
7
73
57
0
VERTEX
8
OBJECT__22
10
0
20
0
30
0
70
128
71
8
72
60
73
61
0
VERTEX
8
OBJECT__22
10
0
20
0
30
0
70
128
71
62
72
24
73
23
0
VERTEX
8
OBJECT__22
10
0
20
0
30
0
70
128
71
24
72
22
73
23
0
VERTEX
8
OBJECT__22
10
0
20
0
30
0
70
128
71
24
72
62
73
63
0
VERTEX
8
OBJECT__22
10
0
20
0
30
0
70
128
71
29
72
63
73
64
0
VERTEX
8
OBJECT__22
10
0
20
0
30
0
70
128
71
64
72
65
73
29
0
VERTEX
8
OBJECT__22
10
0
20
0
30
0
70
128
71
29
72
66
73
67
0
VERTEX
8
OBJECT__22
10
0
20
0
30
0
70
128
71
67
72
28
73
29
0
VERTEX
8
OBJECT__22
10
0
20
0
30
0
70
128
71
67
72
68
73
28
0
VERTEX
8
OBJECT__22
10
0
20
0
30
0
70
128
71
69
72
28
73
70
0
VERTEX
8
OBJECT__22
10
0
20
0
30
0
70
128
71
70
72
71
73
69
0
VERTEX
8
OBJECT__22
10
0
20
0
30
0
70
128
71
71
72
72
73
69
0
VERTEX
8
OBJECT__22
10
0
20
0
30
0
70
128
71
69
72
73
73
74
0
VERTEX
8
OBJECT__22
10
0
20
0
30
0
70
128
71
69
72
75
73
73
0
VERTEX
8
OBJECT__22
10
0
20
0
30
0
70
128
71
74
72
30
73
69
0
VERTEX
8
OBJECT__22
10
0
20
0
30
0
70
128
71
76
72
77
73
78
0
VERTEX
8
OBJECT__22
10
0
20
0
30
0
70
128
71
30
72
79
73
76
0
VERTEX
8
OBJECT__22
10
0
20
0
30
0
70
128
71
30
72
80
73
79
0
VERTEX
8
OBJECT__22
10
0
20
0
30
0
70
128
71
76
72
31
73
30
0
VERTEX
8
OBJECT__22
10
0
20
0
30
0
70
128
71
78
72
31
73
76
0
VERTEX
8
OBJECT__22
10
0
20
0
30
0
70
128
71
74
72
80
73
30
0
VERTEX
8
OBJECT__22
10
0
20
0
30
0
70
128
71
72
72
75
73
69
0
VERTEX
8
OBJECT__22
10
0
20
0
30
0
70
128
71
68
72
70
73
28
0
VERTEX
8
OBJECT__22
10
0
20
0
30
0
70
128
71
65
72
66
73
29
0
VERTEX
8
OBJECT__22
10
0
20
0
30
0
70
128
71
63
72
29
73
24
0
VERTEX
8
OBJECT__22
10
0
20
0
30
0
70
128
71
23
72
61
73
62
0
VERTEX
8
OBJECT__22
10
0
20
0
30
0
70
128
71
61
72
23
73
8
0
VERTEX
8
OBJECT__22
10
0
20
0
30
0
70
128
71
57
72
60
73
8
0
VERTEX
8
OBJECT__22
10
0
20
0
30
0
70
128
71
7
72
5
73
56
0
VERTEX
8
OBJECT__22
10
0
20
0
30
0
70
128
71
54
72
59
73
3
0
VERTEX
8
OBJECT__22
10
0
20
0
30
0
70
128
71
51
72
2
73
13
0
VERTEX
8
OBJECT__22
10
0
20
0
30
0
70
128
71
48
72
53
73
13
0
VERTEX
8
OBJECT__22
10
0
20
0
30
0
70
128
71
46
72
49
73
14
0
VERTEX
8
OBJECT__22
10
0
20
0
30
0
70
128
71
38
72
39
73
17
0
VERTEX
8
OBJECT__22
10
0
20
0
30
0
70
128
71
27
72
69
73
30
0
VERTEX
8
OBJECT__22
10
0
20
0
30
0
70
128
71
29
72
28
73
25
0
VERTEX
8
OBJECT__22
10
0
20
0
30
0
70
128
71
28
72
69
73
27
0
VERTEX
8
OBJECT__22
10
0
20
0
30
0
70
128
71
21
72
27
73
26
0
VERTEX
8
OBJECT__22
10
0
20
0
30
0
70
128
71
25
72
27
73
21
0
VERTEX
8
OBJECT__22
10
0
20
0
30
0
70
128
71
24
72
25
73
18
0
VERTEX
8
OBJECT__22
10
0
20
0
30
0
70
128
71
23
72
22
73
9
0
VERTEX
8
OBJECT__22
10
0
20
0
30
0
70
128
71
22
72
18
73
10
0
VERTEX
8
OBJECT__22
10
0
20
0
30
0
70
128
71
18
72
21
73
16
0
VERTEX
8
OBJECT__22
10
0
20
0
30
0
70
128
71
16
72
20
73
17
0
VERTEX
8
OBJECT__22
10
0
20
0
30
0
70
128
71
4
72
10
73
16
0
VERTEX
8
OBJECT__22
10
0
20
0
30
0
70
128
71
11
72
17
73
15
0
VERTEX
8
OBJECT__22
10
0
20
0
30
0
70
128
71
12
72
15
73
14
0
VERTEX
8
OBJECT__22
10
0
20
0
30
0
70
128
71
2
72
1
73
12
0
VERTEX
8
OBJECT__22
10
0
20
0
30
0
70
128
71
1
72
4
73
11
0
VERTEX
8
OBJECT__22
10
0
20
0
30
0
70
128
71
6
72
9
73
10
0
VERTEX
8
OBJECT__22
10
0
20
0
30
0
70
128
71
7
72
8
73
6
0
VERTEX
8
OBJECT__22
10
0
20
0
30
0
70
128
71
5
72
6
73
4
0
VERTEX
8
OBJECT__22
10
0
20
0
30
0
70
128
71
3
72
5
73
1
0
SEQEND
8
OBJECT__22
0
POLYLINE
8
OBJECT__23
66
1
70
64
71
76
72
100
62
253
0
VERTEX
8
OBJECT__23
10
-32.196999
20
4.040000
30
84.283997
70
192
0
VERTEX
8
OBJECT__23
10
-32.186001
20
3.735000
30
79.550003
70
192
0
VERTEX
8
OBJECT__23
10
-32.827999
20
0.000000
30
79.709999
70
192
0
VERTEX
8
OBJECT__23
10
-32.196999
20
0.000000
30
75.061996
70
192
0
VERTEX
8
OBJECT__23
10
-31.677999
20
2.938000
30
74.911003
70
192
0
VERTEX
8
OBJECT__23
10
-30.118999
20
1.744000
30
70.632004
70
192
0
VERTEX
8
OBJECT__23
10
-27.111000
20
10.772000
30
83.245003
70
192
0
VERTEX
8
OBJECT__23
10
-27.333000
20
10.091000
30
78.271004
70
192
0
VERTEX
8
OBJECT__23
10
-30.311001
20
7.184000
30
79.070999
70
192
0
VERTEX
8
OBJECT__23
10
-30.223000
20
7.733000
30
83.894997
70
192
0
VERTEX
8
OBJECT__23
10
-30.158001
20
5.664000
30
74.457001
70
192
0
VERTEX
8
OBJECT__23
10
-27.733999
20
7.990000
30
73.700996
70
192
0
VERTEX
8
OBJECT__23
10
-29.171000
20
3.366000
30
70.383003
70
192
0
VERTEX
8
OBJECT__23
10
-30.223000
20
-7.733000
30
83.894997
70
192
0
VERTEX
8
OBJECT__23
10
-32.196999
20
-4.039000
30
84.283997
70
192
0
VERTEX
8
OBJECT__23
10
-32.186001
20
-3.735000
30
79.551003
70
192
0
VERTEX
8
OBJECT__23
10
-27.111000
20
-10.772000
30
83.245003
70
192
0
VERTEX
8
OBJECT__23
10
-30.311001
20
-7.184000
30
79.070999
70
192
0
VERTEX
8
OBJECT__23
10
-30.158001
20
-5.664000
30
74.458000
70
192
0
VERTEX
8
OBJECT__23
10
-27.733999
20
-7.990000
30
73.702003
70
192
0
VERTEX
8
OBJECT__23
10
-31.677999
20
-2.938000
30
74.911003
70
192
0
VERTEX
8
OBJECT__23
10
-30.118999
20
-1.744000
30
70.632004
70
192
0
VERTEX
8
OBJECT__23
10
-29.171000
20
-3.366000
30
70.383003
70
192
0
VERTEX
8
OBJECT__23
10
-32.874001
20
0.000000
30
84.414001
70
192
0
VERTEX
8
OBJECT__23
10
-30.441999
20
0.000000
30
70.714996
70
192
0
VERTEX
8
OBJECT__23
10
-23.399000
20
12.727000
30
81.810997
70
192
0
VERTEX
8
OBJECT__23
10
-23.415001
20
12.657000
30
79.380997
70
192
0
VERTEX
8
OBJECT__23
10
-23.396000
20
12.744000
30
82.393997
70
192
0
VERTEX
8
OBJECT__23
10
-23.844999
20
11.862000
30
76.416000
70
192
0
VERTEX
8
OBJECT__23
10
-24.851000
20
9.752000
30
72.926003
70
192
0
VERTEX
8
OBJECT__23
10
-23.812000
20
11.922000
30
76.641998
70
192
0
VERTEX
8
OBJECT__23
10
-23.725000
20
12.084000
30
77.244003
70
192
0
VERTEX
8
OBJECT__23
10
-25.945999
20
6.744000
30
70.267998
70
192
0
VERTEX
8
OBJECT__23
10
-26.240000
20
5.436000
30
69.649002
70
192
0
VERTEX
8
OBJECT__23
10
-25.076000
20
9.133000
30
72.378998
70
192
0
VERTEX
8
OBJECT__23
10
-24.909000
20
9.590000
30
72.782997
70
192
0
VERTEX
8
OBJECT__23
10
-26.340000
20
4.990000
30
69.438004
70
192
0
VERTEX
8
OBJECT__23
10
-26.743000
20
3.195000
30
68.587997
70
192
0
VERTEX
8
OBJECT__23
10
-26.877001
20
1.460000
30
68.261002
70
192
0
VERTEX
8
OBJECT__23
10
-26.990999
20
0.000000
30
67.986000
70
192
0
VERTEX
8
OBJECT__23
10
-26.952999
20
-0.519000
30
68.078003
70
192
0
VERTEX
8
OBJECT__23
10
-26.891001
20
-1.392000
30
68.233002
70
192
0
VERTEX
8
OBJECT__23
10
-26.781000
20
-2.931000
30
68.505997
70
192
0
VERTEX
8
OBJECT__23
10
-26.337000
20
-4.992000
30
69.442001
70
192
0
VERTEX
8
OBJECT__23
10
-25.993999
20
-6.580000
30
70.163002
70
192
0
VERTEX
8
OBJECT__23
10
-25.080999
20
-9.130000
30
72.357002
70
192
0
VERTEX
8
OBJECT__23
10
-26.240999
20
-5.437000
30
69.643997
70
192
0
VERTEX
8
OBJECT__23
10
-27.333000
20
-10.092000
30
78.271004
70
192
0
VERTEX
8
OBJECT__23
10
-24.896999
20
-9.644000
30
72.799004
70
192
0
VERTEX
8
OBJECT__23
10
-23.974001
20
-11.612000
30
75.841003
70
192
0
VERTEX
8
OBJECT__23
10
-24.909000
20
-9.609000
30
72.768997
70
192
0
VERTEX
8
OBJECT__23
10
-23.843000
20
-11.856000
30
76.660004
70
192
0
VERTEX
8
OBJECT__23
10
-23.421000
20
-12.648000
30
79.311996
70
192
0
VERTEX
8
OBJECT__23
10
-23.396000
20
-12.737000
30
81.792999
70
192
0
VERTEX
8
OBJECT__23
10
-23.747000
20
-12.037000
30
77.264999
70
192
0
VERTEX
8
OBJECT__23
10
-25.926001
20
-11.796000
30
103.000000
70
192
0
VERTEX
8
OBJECT__23
10
-23.386999
20
-12.863000
30
91.074997
70
192
0
VERTEX
8
OBJECT__23
10
-23.393999
20
-12.886000
30
103.000000
70
192
0
VERTEX
8
OBJECT__23
10
-23.389999
20
-12.758000
30
82.394997
70
192
0
VERTEX
8
OBJECT__23
10
-23.372999
20
-12.820000
30
84.122002
70
192
0
VERTEX
8
OBJECT__23
10
-26.938000
20
-11.015000
30
103.000000
70
192
0
VERTEX
8
OBJECT__23
10
-29.136000
20
-9.318000
30
103.000000
70
192
0
VERTEX
8
OBJECT__23
10
-30.045000
20
-8.036000
30
103.000000
70
192
0
VERTEX
8
OBJECT__23
10
-31.392000
20
-6.140000
30
103.000000
70
192
0
VERTEX
8
OBJECT__23
10
-32.063999
20
-4.240000
30
103.000000
70
192
0
VERTEX
8
OBJECT__23
10
-32.575001
20
-2.799000
30
103.000000
70
192
0
VERTEX
8
OBJECT__23
10
-32.744999
20
0.007000
30
103.000000
70
192
0
VERTEX
8
OBJECT__23
10
-32.817001
20
1.187000
30
103.000000
70
192
0
VERTEX
8
OBJECT__23
10
-32.077000
20
4.254000
30
103.000000
70
192
0
VERTEX
8
OBJECT__23
10
-31.879999
20
5.072000
30
103.000000
70
192
0
VERTEX
8
OBJECT__23
10
-30.097000
20
8.080000
30
103.000000
70
192
0
VERTEX
8
OBJECT__23
10
-27.011000
20
11.110000
30
103.000000
70
192
0
VERTEX
8
OBJECT__23
10
-29.832001
20
8.529000
30
103.000000
70
192
0
VERTEX
8
OBJECT__23
10
-26.944000
20
11.171000
30
103.000000
70
192
0
VERTEX
8
OBJECT__23
10
-23.393999
20
12.886000
30
103.000000
70
192
0
VERTEX
8
OBJECT__23
10
-23.375999
20
12.828000
30
85.333000
70
192
0
VERTEX
8
OBJECT__23
10
0
20
0
30
0
70
128
71
1
72
2
73
3
0
VERTEX
8
OBJECT__23
10
0
20
0
30
0
70
128
71
4
72
5
73
6
0
VERTEX
8
OBJECT__23
10
0
20
0
30
0
70
128
71
7
72
8
73
9
0
VERTEX
8
OBJECT__23
10
0
20
0
30
0
70
128
71
3
72
2
73
5
0
VERTEX
8
OBJECT__23
10
0
20
0
30
0
70
128
71
10
72
9
73
2
0
VERTEX
8
OBJECT__23
10
0
20
0
30
0
70
128
71
2
72
9
73
11
0
VERTEX
8
OBJECT__23
10
0
20
0
30
0
70
128
71
9
72
8
73
12
0
VERTEX
8
OBJECT__23
10
0
20
0
30
0
70
128
71
5
72
11
73
13
0
VERTEX
8
OBJECT__23
10
0
20
0
30
0
70
128
71
14
72
15
73
16
0
VERTEX
8
OBJECT__23
10
0
20
0
30
0
70
128
71
17
72
14
73
18
0
VERTEX
8
OBJECT__23
10
0
20
0
30
0
70
128
71
18
72
19
73
20
0
VERTEX
8
OBJECT__23
10
0
20
0
30
0
70
128
71
21
72
22
73
23
0
VERTEX
8
OBJECT__23
10
0
20
0
30
0
70
128
71
3
72
4
73
21
0
VERTEX
8
OBJECT__23
10
0
20
0
30
0
70
128
71
15
72
24
73
3
0
VERTEX
8
OBJECT__23
10
0
20
0
30
0
70
128
71
3
72
16
73
15
0
VERTEX
8
OBJECT__23
10
0
20
0
30
0
70
128
71
16
72
21
73
19
0
VERTEX
8
OBJECT__23
10
0
20
0
30
0
70
128
71
4
72
25
73
22
0
VERTEX
8
OBJECT__23
10
0
20
0
30
0
70
128
71
8
72
7
73
26
0
VERTEX
8
OBJECT__23
10
0
20
0
30
0
70
128
71
26
72
27
73
8
0
VERTEX
8
OBJECT__23
10
0
20
0
30
0
70
128
71
7
72
28
73
26
0
VERTEX
8
OBJECT__23
10
0
20
0
30
0
70
128
71
8
72
29
73
30
0
VERTEX
8
OBJECT__23
10
0
20
0
30
0
70
128
71
8
72
31
73
29
0
VERTEX
8
OBJECT__23
10
0
20
0
30
0
70
128
71
30
72
12
73
8
0
VERTEX
8
OBJECT__23
10
0
20
0
30
0
70
128
71
8
72
32
73
31
0
VERTEX
8
OBJECT__23
10
0
20
0
30
0
70
128
71
11
72
33
73
34
0
VERTEX
8
OBJECT__23
10
0
20
0
30
0
70
128
71
33
72
11
73
12
0
VERTEX
8
OBJECT__23
10
0
20
0
30
0
70
128
71
12
72
35
73
33
0
VERTEX
8
OBJECT__23
10
0
20
0
30
0
70
128
71
12
72
36
73
35
0
VERTEX
8
OBJECT__23
10
0
20
0
30
0
70
128
71
13
72
37
73
38
0
VERTEX
8
OBJECT__23
10
0
20
0
30
0
70
128
71
13
72
34
73
37
0
VERTEX
8
OBJECT__23
10
0
20
0
30
0
70
128
71
6
72
13
73
39
0
VERTEX
8
OBJECT__23
10
0
20
0
30
0
70
128
71
40
72
25
73
6
0
VERTEX
8
OBJECT__23
10
0
20
0
30
0
70
128
71
25
72
40
73
41
0
VERTEX
8
OBJECT__23
10
0
20
0
30
0
70
128
71
22
72
41
73
42
0
VERTEX
8
OBJECT__23
10
0
20
0
30
0
70
128
71
23
72
42
73
43
0
VERTEX
8
OBJECT__23
10
0
20
0
30
0
70
128
71
43
72
44
73
23
0
VERTEX
8
OBJECT__23
10
0
20
0
30
0
70
128
71
45
72
46
73
20
0
VERTEX
8
OBJECT__23
10
0
20
0
30
0
70
128
71
19
72
23
73
47
0
VERTEX
8
OBJECT__23
10
0
20
0
30
0
70
128
71
47
72
45
73
19
0
VERTEX
8
OBJECT__23
10
0
20
0
30
0
70
128
71
20
72
19
73
45
0
VERTEX
8
OBJECT__23
10
0
20
0
30
0
70
128
71
48
72
20
73
49
0
VERTEX
8
OBJECT__23
10
0
20
0
30
0
70
128
71
49
72
50
73
48
0
VERTEX
8
OBJECT__23
10
0
20
0
30
0
70
128
71
20
72
51
73
49
0
VERTEX
8
OBJECT__23
10
0
20
0
30
0
70
128
71
50
72
52
73
48
0
VERTEX
8
OBJECT__23
10
0
20
0
30
0
70
128
71
48
72
53
73
54
0
VERTEX
8
OBJECT__23
10
0
20
0
30
0
70
128
71
48
72
55
73
53
0
VERTEX
8
OBJECT__23
10
0
20
0
30
0
70
128
71
54
72
17
73
48
0
VERTEX
8
OBJECT__23
10
0
20
0
30
0
70
128
71
56
72
17
73
57
0
VERTEX
8
OBJECT__23
10
0
20
0
30
0
70
128
71
57
72
58
73
56
0
VERTEX
8
OBJECT__23
10
0
20
0
30
0
70
128
71
17
72
59
73
60
0
VERTEX
8
OBJECT__23
10
0
20
0
30
0
70
128
71
60
72
57
73
17
0
VERTEX
8
OBJECT__23
10
0
20
0
30
0
70
128
71
17
72
61
73
62
0
VERTEX
8
OBJECT__23
10
0
20
0
30
0
70
128
71
62
72
14
73
17
0
VERTEX
8
OBJECT__23
10
0
20
0
30
0
70
128
71
15
72
63
73
64
0
VERTEX
8
OBJECT__23
10
0
20
0
30
0
70
128
71
63
72
15
73
14
0
VERTEX
8
OBJECT__23
10
0
20
0
30
0
70
128
71
64
72
65
73
15
0
VERTEX
8
OBJECT__23
10
0
20
0
30
0
70
128
71
24
72
15
73
66
0
VERTEX
8
OBJECT__23
10
0
20
0
30
0
70
128
71
66
72
67
73
24
0
VERTEX
8
OBJECT__23
10
0
20
0
30
0
70
128
71
65
72
66
73
15
0
VERTEX
8
OBJECT__23
10
0
20
0
30
0
70
128
71
1
72
24
73
68
0
VERTEX
8
OBJECT__23
10
0
20
0
30
0
70
128
71
68
72
69
73
1
0
VERTEX
8
OBJECT__23
10
0
20
0
30
0
70
128
71
24
72
67
73
68
0
VERTEX
8
OBJECT__23
10
0
20
0
30
0
70
128
71
10
72
1
73
70
0
VERTEX
8
OBJECT__23
10
0
20
0
30
0
70
128
71
1
72
69
73
70
0
VERTEX
8
OBJECT__23
10
0
20
0
30
0
70
128
71
70
72
71
73
10
0
VERTEX
8
OBJECT__23
10
0
20
0
30
0
70
128
71
72
72
7
73
10
0
VERTEX
8
OBJECT__23
10
0
20
0
30
0
70
128
71
10
72
71
73
73
0
VERTEX
8
OBJECT__23
10
0
20
0
30
0
70
128
71
10
72
73
73
72
0
VERTEX
8
OBJECT__23
10
0
20
0
30
0
70
128
71
74
72
75
73
76
0
VERTEX
8
OBJECT__23
10
0
20
0
30
0
70
128
71
76
72
7
73
74
0
VERTEX
8
OBJECT__23
10
0
20
0
30
0
70
128
71
7
72
72
73
74
0
VERTEX
8
OBJECT__23
10
0
20
0
30
0
70
128
71
76
72
28
73
7
0
VERTEX
8
OBJECT__23
10
0
20
0
30
0
70
128
71
62
72
63
73
14
0
VERTEX
8
OBJECT__23
10
0
20
0
30
0
70
128
71
56
72
61
73
17
0
VERTEX
8
OBJECT__23
10
0
20
0
30
0
70
128
71
54
72
59
73
17
0
VERTEX
8
OBJECT__23
10
0
20
0
30
0
70
128
71
52
72
55
73
48
0
VERTEX
8
OBJECT__23
10
0
20
0
30
0
70
128
71
46
72
51
73
20
0
VERTEX
8
OBJECT__23
10
0
20
0
30
0
70
128
71
44
72
47
73
23
0
VERTEX
8
OBJECT__23
10
0
20
0
30
0
70
128
71
42
72
23
73
22
0
VERTEX
8
OBJECT__23
10
0
20
0
30
0
70
128
71
41
72
22
73
25
0
VERTEX
8
OBJECT__23
10
0
20
0
30
0
70
128
71
39
72
40
73
6
0
VERTEX
8
OBJECT__23
10
0
20
0
30
0
70
128
71
38
72
39
73
13
0
VERTEX
8
OBJECT__23
10
0
20
0
30
0
70
128
71
34
72
13
73
11
0
VERTEX
8
OBJECT__23
10
0
20
0
30
0
70
128
71
30
72
36
73
12
0
VERTEX
8
OBJECT__23
10
0
20
0
30
0
70
128
71
27
72
32
73
8
0
VERTEX
8
OBJECT__23
10
0
20
0
30
0
70
128
71
22
72
21
73
4
0
VERTEX
8
OBJECT__23
10
0
20
0
30
0
70
128
71
19
72
18
73
16
0
VERTEX
8
OBJECT__23
10
0
20
0
30
0
70
128
71
21
72
16
73
3
0
VERTEX
8
OBJECT__23
10
0
20
0
30
0
70
128
71
23
72
19
73
21
0
VERTEX
8
OBJECT__23
10
0
20
0
30
0
70
128
71
20
72
48
73
18
0
VERTEX
8
OBJECT__23
10
0
20
0
30
0
70
128
71
18
72
48
73
17
0
VERTEX
8
OBJECT__23
10
0
20
0
30
0
70
128
71
16
72
18
73
14
0
VERTEX
8
OBJECT__23
10
0
20
0
30
0
70
128
71
13
72
6
73
5
0
VERTEX
8
OBJECT__23
10
0
20
0
30
0
70
128
71
12
72
11
73
9
0
VERTEX
8
OBJECT__23
10
0
20
0
30
0
70
128
71
11
72
5
73
2
0
VERTEX
8
OBJECT__23
10
0
20
0
30
0
70
128
71
2
72
1
73
10
0
VERTEX
8
OBJECT__23
10
0
20
0
30
0
70
128
71
5
72
4
73
3
0
VERTEX
8
OBJECT__23
10
0
20
0
30
0
70
128
71
9
72
10
73
7
0
VERTEX
8
OBJECT__23
10
0
20
0
30
0
70
128
71
6
72
25
73
4
0
VERTEX
8
OBJECT__23
10
0
20
0
30
0
70
128
71
3
72
24
73
1
0
SEQEND
8
OBJECT__23
0
POLYLINE
8
OBJECT__24
66
1
70
64
71
19
72
18
62
253
0
VERTEX
8
OBJECT__24
10
160.003006
20
0.000000
30
245.000000
70
192
0
VERTEX
8
OBJECT__24
10
159.919998
20
4.777000
30
234.539001
70
192
0
VERTEX
8
OBJECT__24
10
159.919998
20
7.846000
30
237.197998
70
192
0
VERTEX
8
OBJECT__24
10
159.919998
20
-1.637000
30
233.617004
70
192
0
VERTEX
8
OBJECT__24
10
159.919998
20
-0.050000
30
233.845001
70
192
0
VERTEX
8
OBJECT__24
10
159.919998
20
-11.034000
30
241.759995
70
192
0
VERTEX
8
OBJECT__24
10
159.919998
20
-7.961000
30
236.977997
70
192
0
VERTEX
8
OBJECT__24
10
159.919998
20
-11.034000
30
248.240005
70
192
0
VERTEX
8
OBJECT__24
10
159.919998
20
-11.034000
30
245.000000
70
192
0
VERTEX
8
OBJECT__24
10
159.919998
20
-7.531000
30
253.690994
70
192
0
VERTEX
8
OBJECT__24
10
159.919998
20
-7.961000
30
253.022003
70
192
0
VERTEX
8
OBJECT__24
10
159.919998
20
4.777000
30
255.460999
70
192
0
VERTEX
8
OBJECT__24
10
159.919998
20
-0.050000
30
256.154999
70
192
0
VERTEX
8
OBJECT__24
10
159.919998
20
9.674000
30
251.216995
70
192
0
VERTEX
8
OBJECT__24
10
159.919998
20
7.846000
30
252.802002
70
192
0
VERTEX
8
OBJECT__24
10
159.919998
20
11.500000
30
245.000000
70
192
0
VERTEX
8
OBJECT__24
10
159.919998
20
-1.637000
30
256.382996
70
192
0
VERTEX
8
OBJECT__24
10
159.919998
20
-7.531000
30
236.309006
70
192
0
VERTEX
8
OBJECT__24
10
159.919998
20
9.674000
30
238.783005
70
192
0
VERTEX
8
OBJECT__24
10
0
20
0
30
0
70
128
71
1
72
2
73
3
0
VERTEX
8
OBJECT__24
10
0
20
0
30
0
70
128
71
1
72
4
73
5
0
VERTEX
8
OBJECT__24
10
0
20
0
30
0
70
128
71
1
72
6
73
7
0
VERTEX
8
OBJECT__24
10
0
20
0
30
0
70
128
71
1
72
8
73
9
0
VERTEX
8
OBJECT__24
10
0
20
0
30
0
70
128
71
1
72
10
73
11
0
VERTEX
8
OBJECT__24
10
0
20
0
30
0
70
128
71
1
72
12
73
13
0
VERTEX
8
OBJECT__24
10
0
20
0
30
0
70
128
71
1
72
14
73
15
0
VERTEX
8
OBJECT__24
10
0
20
0
30
0
70
128
71
16
72
14
73
1
0
VERTEX
8
OBJECT__24
10
0
20
0
30
0
70
128
71
15
72
12
73
1
0
VERTEX
8
OBJECT__24
10
0
20
0
30
0
70
128
71
13
72
17
73
1
0
VERTEX
8
OBJECT__24
10
0
20
0
30
0
70
128
71
17
72
10
73
1
0
VERTEX
8
OBJECT__24
10
0
20
0
30
0
70
128
71
11
72
8
73
1
0
VERTEX
8
OBJECT__24
10
0
20
0
30
0
70
128
71
9
72
6
73
1
0
VERTEX
8
OBJECT__24
10
0
20
0
30
0
70
128
71
7
72
18
73
1
0
VERTEX
8
OBJECT__24
10
0
20
0
30
0
70
128
71
18
72
4
73
1
0
VERTEX
8
OBJECT__24
10
0
20
0
30
0
70
128
71
5
72
2
73
1
0
VERTEX
8
OBJECT__24
10
0
20
0
30
0
70
128
71
3
72
19
73
1
0
VERTEX
8
OBJECT__24
10
0
20
0
30
0
70
128
71
19
72
16
73
1
0
SEQEND
8
OBJECT__24
0
POLYLINE
8
OBJECT__25
66
1
70
64
71
26
72
26
62
253
0
VERTEX
8
OBJECT__25
10
91.220001
20
0.000000
30
256.500000
70
192
0
VERTEX
8
OBJECT__25
10
159.919998
20
-0.050000
30
256.154999
70
192
0
VERTEX
8
OBJECT__25
10
159.919998
20
4.777000
30
255.460999
70
192
0
VERTEX
8
OBJECT__25
10
91.220001
20
8.132000
30
253.132004
70
192
0
VERTEX
8
OBJECT__25
10
91.220001
20
11.500000
30
245.000000
70
192
0
VERTEX
8
OBJECT__25
10
159.919998
20
9.674000
30
251.216995
70
192
0
VERTEX
8
OBJECT__25
10
159.919998
20
7.846000
30
252.802002
70
192
0
VERTEX
8
OBJECT__25
10
159.919998
20
11.500000
30
245.000000
70
192
0
VERTEX
8
OBJECT__25
10
159.919998
20
9.674000
30
238.783005
70
192
0
VERTEX
8
OBJECT__25
10
91.220001
20
8.132000
30
236.867996
70
192
0
VERTEX
8
OBJECT__25
10
91.220001
20
0.000000
30
233.500000
70
192
0
VERTEX
8
OBJECT__25
10
159.919998
20
4.777000
30
234.539001
70
192
0
VERTEX
8
OBJECT__25
10
159.919998
20
7.846000
30
237.197998
70
192
0
VERTEX
8
OBJECT__25
10
91.220001
20
-8.132000
30
236.867996
70
192
0
VERTEX
8
OBJECT__25
10
159.919998
20
-1.637000
30
233.617004
70
192
0
VERTEX
8
OBJECT__25
10
159.919998
20
-7.531000
30
236.309006
70
192
0
VERTEX
8
OBJECT__25
10
159.919998
20
-0.050000
30
233.845001
70
192
0
VERTEX
8
OBJECT__25
10
159.919998
20
-7.961000
30
236.977997
70
192
0
VERTEX
8
OBJECT__25
10
159.919998
20
-11.034000
30
241.759995
70
192
0
VERTEX
8
OBJECT__25
10
91.220001
20
-11.500000
30
245.000000
70
192
0
VERTEX
8
OBJECT__25
10
91.220001
20
-8.132000
30
253.132004
70
192
0
VERTEX
8
OBJECT__25
10
159.919998
20
-11.034000
30
248.240005
70
192
0
VERTEX
8
OBJECT__25
10
159.919998
20
-11.034000
30
245.000000
70
192
0
VERTEX
8
OBJECT__25
10
159.919998
20
-7.531000
30
253.690994
70
192
0
VERTEX
8
OBJECT__25
10
159.919998
20
-1.637000
30
256.382996
70
192
0
VERTEX
8
OBJECT__25
10
159.919998
20
-7.961000
30
253.022003
70
192
0
VERTEX
8
OBJECT__25
10
0
20
0
30
0
70
128
71
1
72
2
73
3
0
VERTEX
8
OBJECT__25
10
0
20
0
30
0
70
128
71
3
72
4
73
1
0
VERTEX
8
OBJECT__25
10
0
20
0
30
0
70
128
71
5
72
4
73
6
0
VERTEX
8
OBJECT__25
10
0
20
0
30
0
70
128
71
4
72
7
73
6
0
VERTEX
8
OBJECT__25
10
0
20
0
30
0
70
128
71
5
72
8
73
9
0
VERTEX
8
OBJECT__25
10
0
20
0
30
0
70
128
71
9
72
10
73
5
0
VERTEX
8
OBJECT__25
10
0
20
0
30
0
70
128
71
11
72
10
73
12
0
VERTEX
8
OBJECT__25
10
0
20
0
30
0
70
128
71
10
72
13
73
12
0
VERTEX
8
OBJECT__25
10
0
20
0
30
0
70
128
71
14
72
11
73
15
0
VERTEX
8
OBJECT__25
10
0
20
0
30
0
70
128
71
15
72
16
73
14
0
VERTEX
8
OBJECT__25
10
0
20
0
30
0
70
128
71
11
72
17
73
15
0
VERTEX
8
OBJECT__25
10
0
20
0
30
0
70
128
71
14
72
18
73
19
0
VERTEX
8
OBJECT__25
10
0
20
0
30
0
70
128
71
19
72
20
73
14
0
VERTEX
8
OBJECT__25
10
0
20
0
30
0
70
128
71
21
72
20
73
22
0
VERTEX
8
OBJECT__25
10
0
20
0
30
0
70
128
71
20
72
23
73
22
0
VERTEX
8
OBJECT__25
10
0
20
0
30
0
70
128
71
21
72
24
73
25
0
VERTEX
8
OBJECT__25
10
0
20
0
30
0
70
128
71
25
72
1
73
21
0
VERTEX
8
OBJECT__25
10
0
20
0
30
0
70
128
71
21
72
26
73
24
0
VERTEX
8
OBJECT__25
10
0
20
0
30
0
70
128
71
25
72
2
73
1
0
VERTEX
8
OBJECT__25
10
0
20
0
30
0
70
128
71
22
72
26
73
21
0
VERTEX
8
OBJECT__25
10
0
20
0
30
0
70
128
71
19
72
23
73
20
0
VERTEX
8
OBJECT__25
10
0
20
0
30
0
70
128
71
16
72
18
73
14
0
VERTEX
8
OBJECT__25
10
0
20
0
30
0
70
128
71
12
72
17
73
11
0
VERTEX
8
OBJECT__25
10
0
20
0
30
0
70
128
71
9
72
13
73
10
0
VERTEX
8
OBJECT__25
10
0
20
0
30
0
70
128
71
6
72
8
73
5
0
VERTEX
8
OBJECT__25
10
0
20
0
30
0
70
128
71
3
72
7
73
4
0
SEQEND
8
OBJECT__25
0
POLYLINE
8
OBJECT__27
66
1
70
64
71
26
72
26
62
253
0
VERTEX
8
OBJECT__27
10
91.220001
20
-8.132000
30
253.132004
70
192
0
VERTEX
8
OBJECT__27
10
91.220001
20
0.000000
30
256.500000
70
192
0
VERTEX
8
OBJECT__27
10
159.919998
20
-1.637000
30
256.382996
70
192
0
VERTEX
8
OBJECT__27
10
159.919998
20
-7.531000
30
253.690994
70
192
0
VERTEX
8
OBJECT__27
10
159.919998
20
-0.050000
30
256.154999
70
192
0
VERTEX
8
OBJECT__27
10
159.919998
20
-7.961000
30
253.022003
70
192
0
VERTEX
8
OBJECT__27
10
159.919998
20
-11.034000
30
248.240005
70
192
0
VERTEX
8
OBJECT__27
10
91.220001
20
-11.500000
30
245.000000
70
192
0
VERTEX
8
OBJECT__27
10
91.220001
20
-8.132000
30
236.867996
70
192
0
VERTEX
8
OBJECT__27
10
159.919998
20
-11.034000
30
241.759995
70
192
0
VERTEX
8
OBJECT__27
10
159.919998
20
-11.034000
30
245.000000
70
192
0
VERTEX
8
OBJECT__27
10
159.919998
20
-7.531000
30
236.309006
70
192
0
VERTEX
8
OBJECT__27
10
159.919998
20
-1.637000
30
233.617004
70
192
0
VERTEX
8
OBJECT__27
10
91.220001
20
0.000000
30
233.500000
70
192
0
VERTEX
8
OBJECT__27
10
159.919998
20
-7.961000
30
236.977997
70
192
0
VERTEX
8
OBJECT__27
10
159.919998
20
-0.050000
30
233.845001
70
192
0
VERTEX
8
OBJECT__27
10
159.919998
20
4.777000
30
234.539001
70
192
0
VERTEX
8
OBJECT__27
10
91.220001
20
8.132000
30
236.867996
70
192
0
VERTEX
8
OBJECT__27
10
91.220001
20
11.500000
30
245.000000
70
192
0
VERTEX
8
OBJECT__27
10
159.919998
20
9.674000
30
238.783005
70
192
0
VERTEX
8
OBJECT__27
10
159.919998
20
7.846000
30
237.197998
70
192
0
VERTEX
8
OBJECT__27
10
159.919998
20
11.500000
30
245.000000
70
192
0
VERTEX
8
OBJECT__27
10
159.919998
20
9.674000
30
251.216995
70
192
0
VERTEX
8
OBJECT__27
10
91.220001
20
8.132000
30
253.132004
70
192
0
VERTEX
8
OBJECT__27
10
159.919998
20
4.777000
30
255.460999
70
192
0
VERTEX
8
OBJECT__27
10
159.919998
20
7.846000
30
252.802002
70
192
0
VERTEX
8
OBJECT__27
10
0
20
0
30
0
70
128
71
1
72
2
73
3
0
VERTEX
8
OBJECT__27
10
0
20
0
30
0
70
128
71
3
72
4
73
1
0
VERTEX
8
OBJECT__27
10
0
20
0
30
0
70
128
71
2
72
5
73
3
0
VERTEX
8
OBJECT__27
10
0
20
0
30
0
70
128
71
1
72
6
73
7
0
VERTEX
8
OBJECT__27
10
0
20
0
30
0
70
128
71
7
72
8
73
1
0
VERTEX
8
OBJECT__27
10
0
20
0
30
0
70
128
71
9
72
8
73
10
0
VERTEX
8
OBJECT__27
10
0
20
0
30
0
70
128
71
8
72
11
73
10
0
VERTEX
8
OBJECT__27
10
0
20
0
30
0
70
128
71
9
72
12
73
13
0
VERTEX
8
OBJECT__27
10
0
20
0
30
0
70
128
71
13
72
14
73
9
0
VERTEX
8
OBJECT__27
10
0
20
0
30
0
70
128
71
9
72
15
73
12
0
VERTEX
8
OBJECT__27
10
0
20
0
30
0
70
128
71
14
72
16
73
17
0
VERTEX
8
OBJECT__27
10
0
20
0
30
0
70
128
71
17
72
18
73
14
0
VERTEX
8
OBJECT__27
10
0
20
0
30
0
70
128
71
19
72
18
73
20
0
VERTEX
8
OBJECT__27
10
0
20
0
30
0
70
128
71
18
72
21
73
20
0
VERTEX
8
OBJECT__27
10
0
20
0
30
0
70
128
71
19
72
22
73
23
0
VERTEX
8
OBJECT__27
10
0
20
0
30
0
70
128
71
23
72
24
73
19
0
VERTEX
8
OBJECT__27
10
0
20
0
30
0
70
128
71
2
72
24
73
25
0
VERTEX
8
OBJECT__27
10
0
20
0
30
0
70
128
71
24
72
26
73
25
0
VERTEX
8
OBJECT__27
10
0
20
0
30
0
70
128
71
25
72
5
73
2
0
VERTEX
8
OBJECT__27
10
0
20
0
30
0
70
128
71
23
72
26
73
24
0
VERTEX
8
OBJECT__27
10
0
20
0
30
0
70
128
71
20
72
22
73
19
0
VERTEX
8
OBJECT__27
10
0
20
0
30
0
70
128
71
17
72
21
73
18
0
VERTEX
8
OBJECT__27
10
0
20
0
30
0
70
128
71
13
72
16
73
14
0
VERTEX
8
OBJECT__27
10
0
20
0
30
0
70
128
71
10
72
15
73
9
0
VERTEX
8
OBJECT__27
10
0
20
0
30
0
70
128
71
7
72
11
73
8
0
VERTEX
8
OBJECT__27
10
0
20
0
30
0
70
128
71
4
72
6
73
1
0
SEQEND
8
OBJECT__27
0
POLYLINE
8
OBJECT__28
66
1
70
64
71
19
72
18
62
253
0
VERTEX
8
OBJECT__28
10
160.003006
20
0.000000
30
245.000000
70
192
0
VERTEX
8
OBJECT__28
10
159.919998
20
9.674000
30
238.783005
70
192
0
VERTEX
8
OBJECT__28
10
159.919998
20
7.846000
30
237.197998
70
192
0
VERTEX
8
OBJECT__28
10
159.919998
20
4.777000
30
234.539001
70
192
0
VERTEX
8
OBJECT__28
10
159.919998
20
-0.050000
30
233.845001
70
192
0
VERTEX
8
OBJECT__28
10
159.919998
20
-7.531000
30
236.309006
70
192
0
VERTEX
8
OBJECT__28
10
159.919998
20
-7.961000
30
236.977997
70
192
0
VERTEX
8
OBJECT__28
10
159.919998
20
-11.034000
30
241.759995
70
192
0
VERTEX
8
OBJECT__28
10
159.919998
20
-11.034000
30
245.000000
70
192
0
VERTEX
8
OBJECT__28
10
159.919998
20
-11.034000
30
248.240005
70
192
0
VERTEX
8
OBJECT__28
10
159.919998
20
-7.961000
30
253.022003
70
192
0
VERTEX
8
OBJECT__28
10
159.919998
20
-1.637000
30
256.382996
70
192
0
VERTEX
8
OBJECT__28
10
159.919998
20
-0.050000
30
256.154999
70
192
0
VERTEX
8
OBJECT__28
10
159.919998
20
4.777000
30
255.460999
70
192
0
VERTEX
8
OBJECT__28
10
159.919998
20
7.846000
30
252.802002
70
192
0
VERTEX
8
OBJECT__28
10
159.919998
20
9.674000
30
251.216995
70
192
0
VERTEX
8
OBJECT__28
10
159.919998
20
11.500000
30
245.000000
70
192
0
VERTEX
8
OBJECT__28
10
159.919998
20
-7.531000
30
253.690994
70
192
0
VERTEX
8
OBJECT__28
10
159.919998
20
-1.637000
30
233.617004
70
192
0
VERTEX
8
OBJECT__28
10
0
20
0
30
0
70
128
71
1
72
2
73
3
0
VERTEX
8
OBJECT__28
10
0
20
0
30
0
70
128
71
1
72
4
73
5
0
VERTEX
8
OBJECT__28
10
0
20
0
30
0
70
128
71
1
72
6
73
7
0
VERTEX
8
OBJECT__28
10
0
20
0
30
0
70
128
71
1
72
8
73
9
0
VERTEX
8
OBJECT__28
10
0
20
0
30
0
70
128
71
1
72
10
73
11
0
VERTEX
8
OBJECT__28
10
0
20
0
30
0
70
128
71
1
72
12
73
13
0
VERTEX
8
OBJECT__28
10
0
20
0
30
0
70
128
71
1
72
14
73
15
0
VERTEX
8
OBJECT__28
10
0
20
0
30
0
70
128
71
1
72
16
73
17
0
VERTEX
8
OBJECT__28
10
0
20
0
30
0
70
128
71
15
72
16
73
1
0
VERTEX
8
OBJECT__28
10
0
20
0
30
0
70
128
71
13
72
14
73
1
0
VERTEX
8
OBJECT__28
10
0
20
0
30
0
70
128
71
1
72
18
73
12
0
VERTEX
8
OBJECT__28
10
0
20
0
30
0
70
128
71
11
72
18
73
1
0
VERTEX
8
OBJECT__28
10
0
20
0
30
0
70
128
71
9
72
10
73
1
0
VERTEX
8
OBJECT__28
10
0
20
0
30
0
70
128
71
7
72
8
73
1
0
VERTEX
8
OBJECT__28
10
0
20
0
30
0
70
128
71
1
72
19
73
6
0
VERTEX
8
OBJECT__28
10
0
20
0
30
0
70
128
71
5
72
19
73
1
0
VERTEX
8
OBJECT__28
10
0
20
0
30
0
70
128
71
3
72
4
73
1
0
VERTEX
8
OBJECT__28
10
0
20
0
30
0
70
128
71
1
72
17
73
2
0
SEQEND
8
OBJECT__28
0
POLYLINE
8
OBJECT__29
66
1
70
64
71
12
72
12
62
253
0
VERTEX
8
OBJECT__29
10
-4.500000
20
15.050000
30
36.000000
70
192
0
VERTEX
8
OBJECT__29
10
-7.500000
20
15.050000
30
30.804001
70
192
0
VERTEX
8
OBJECT__29
10
-7.500000
20
30.850000
30
30.804001
70
192
0
VERTEX
8
OBJECT__29
10
-4.500000
20
30.850000
30
36.000000
70
192
0
VERTEX
8
OBJECT__29
10
-13.500000
20
15.050000
30
30.804001
70
192
0
VERTEX
8
OBJECT__29
10
-13.500000
20
30.850000
30
30.804001
70
192
0
VERTEX
8
OBJECT__29
10
-16.500000
20
15.050000
30
36.000000
70
192
0
VERTEX
8
OBJECT__29
10
-16.500000
20
30.850000
30
36.000000
70
192
0
VERTEX
8
OBJECT__29
10
-13.500000
20
15.050000
30
41.195999
70
192
0
VERTEX
8
OBJECT__29
10
-13.500000
20
30.850000
30
41.195999
70
192
0
VERTEX
8
OBJECT__29
10
-7.500000
20
15.050000
30
41.195999
70
192
0
VERTEX
8
OBJECT__29
10
-7.500000
20
30.850000
30
41.195999
70
192
0
VERTEX
8
OBJECT__29
10
0
20
0
30
0
70
128
71
1
72
2
73
3
0
VERTEX
8
OBJECT__29
10
0
20
0
30
0
70
128
71
1
72
3
73
4
0
VERTEX
8
OBJECT__29
10
0
20
0
30
0
70
128
71
2
72
5
73
6
0
VERTEX
8
OBJECT__29
10
0
20
0
30
0
70
128
71
2
72
6
73
3
0
VERTEX
8
OBJECT__29
10
0
20
0
30
0
70
128
71
5
72
7
73
8
0
VERTEX
8
OBJECT__29
10
0
20
0
30
0
70
128
71
5
72
8
73
6
0
VERTEX
8
OBJECT__29
10
0
20
0
30
0
70
128
71
7
72
9
73
10
0
VERTEX
8
OBJECT__29
10
0
20
0
30
0
70
128
71
7
72
10
73
8
0
VERTEX
8
OBJECT__29
10
0
20
0
30
0
70
128
71
9
72
11
73
12
0
VERTEX
8
OBJECT__29
10
0
20
0
30
0
70
128
71
9
72
12
73
10
0
VERTEX
8
OBJECT__29
10
0
20
0
30
0
70
128
71
11
72
1
73
4
0
VERTEX
8
OBJECT__29
10
0
20
0
30
0
70
128
71
11
72
4
73
12
0
SEQEND
8
OBJECT__29
0
POLYLINE
8
OBJECT__31
66
1
70
64
71
12
72
10
62
253
0
VERTEX
8
OBJECT__31
10
22.517000
20
-13.000000
30
0.000000
70
192
0
VERTEX
8
OBJECT__31
10
13.000000
20
22.517000
30
0.000000
70
192
0
VERTEX
8
OBJECT__31
10
22.517000
20
13.000000
30
0.000000
70
192
0
VERTEX
8
OBJECT__31
10
-22.517000
20
13.000000
30
0.000000
70
192
0
VERTEX
8
OBJECT__31
10
-13.000000
20
-22.517000
30
0.000000
70
192
0
VERTEX
8
OBJECT__31
10
-22.517000
20
-13.000000
30
0.000000
70
192
0
VERTEX
8
OBJECT__31
10
13.000000
20
-22.517000
30
0.000000
70
192
0
VERTEX
8
OBJECT__31
10
0.000000
20
-26.000000
30
0.000000
70
192
0
VERTEX
8
OBJECT__31
10
0.000000
20
26.000000
30
0.000000
70
192
0
VERTEX
8
OBJECT__31
10
-13.000000
20
22.517000
30
0.000000
70
192
0
VERTEX
8
OBJECT__31
10
26.000000
20
0.000000
30
0.000000
70
192
0
VERTEX
8
OBJECT__31
10
-26.000000
20
0.000000
30
0.000000
70
192
0
VERTEX
8
OBJECT__31
10
0
20
0
30
0
70
128
71
1
72
2
73
3
0
VERTEX
8
OBJECT__31
10
0
20
0
30
0
70
128
71
4
72
5
73
6
0
VERTEX
8
OBJECT__31
10
0
20
0
30
0
70
128
71
4
72
7
73
8
0
VERTEX
8
OBJECT__31
10
0
20
0
30
0
70
128
71
1
72
9
73
2
0
VERTEX
8
OBJECT__31
10
0
20
0
30
0
70
128
71
8
72
5
73
4
0
VERTEX
8
OBJECT__31
10
0
20
0
30
0
70
128
71
1
72
10
73
9
0
VERTEX
8
OBJECT__31
10
0
20
0
30
0
70
128
71
4
72
1
73
7
0
VERTEX
8
OBJECT__31
10
0
20
0
30
0
70
128
71
1
72
4
73
10
0
VERTEX
8
OBJECT__31
10
0
20
0
30
0
70
128
71
3
72
11
73
1
0
VERTEX
8
OBJECT__31
10
0
20
0
30
0
70
128
71
6
72
12
73
4
0
SEQEND
8
OBJECT__31
0
POLYLINE
8
OBJECT__32
66
1
70
64
71
24
72
24
62
253
0
VERTEX
8
OBJECT__32
10
-22.517000
20
13.000000
30
44.000000
70
192
0
VERTEX
8
OBJECT__32
10
-22.517000
20
13.000000
30
0.000000
70
192
0
VERTEX
8
OBJECT__32
10
-26.000000
20
0.000000
30
0.000000
70
192
0
VERTEX
8
OBJECT__32
10
-13.000000
20
22.517000
30
44.000000
70
192
0
VERTEX
8
OBJECT__32
10
-13.000000
20
22.517000
30
0.000000
70
192
0
VERTEX
8
OBJECT__32
10
0.000000
20
26.000000
30
44.000000
70
192
0
VERTEX
8
OBJECT__32
10
0.000000
20
26.000000
30
0.000000
70
192
0
VERTEX
8
OBJECT__32
10
13.000000
20
22.517000
30
44.000000
70
192
0
VERTEX
8
OBJECT__32
10
13.000000
20
22.517000
30
0.000000
70
192
0
VERTEX
8
OBJECT__32
10
22.517000
20
13.000000
30
44.000000
70
192
0
VERTEX
8
OBJECT__32
10
22.517000
20
13.000000
30
0.000000
70
192
0
VERTEX
8
OBJECT__32
10
26.000000
20
0.000000
30
44.000000
70
192
0
VERTEX
8
OBJECT__32
10
26.000000
20
0.000000
30
0.000000
70
192
0
VERTEX
8
OBJECT__32
10
22.517000
20
-13.000000
30
44.000000
70
192
0
VERTEX
8
OBJECT__32
10
22.517000
20
-13.000000
30
0.000000
70
192
0
VERTEX
8
OBJECT__32
10
13.000000
20
-22.517000
30
44.000000
70
192
0
VERTEX
8
OBJECT__32
10
13.000000
20
-22.517000
30
0.000000
70
192
0
VERTEX
8
OBJECT__32
10
0.000000
20
-26.000000
30
44.000000
70
192
0
VERTEX
8
OBJECT__32
10
0.000000
20
-26.000000
30
0.000000
70
192
0
VERTEX
8
OBJECT__32
10
-13.000000
20
-22.517000
30
44.000000
70
192
0
VERTEX
8
OBJECT__32
10
-13.000000
20
-22.517000
30
0.000000
70
192
0
VERTEX
8
OBJECT__32
10
-22.517000
20
-13.000000
30
44.000000
70
192
0
VERTEX
8
OBJECT__32
10
-22.517000
20
-13.000000
30
0.000000
70
192
0
VERTEX
8
OBJECT__32
10
-26.000000
20
0.000000
30
44.000000
70
192
0
VERTEX
8
OBJECT__32
10
0
20
0
30
0
70
128
71
1
72
2
73
3
0
VERTEX
8
OBJECT__32
10
0
20
0
30
0
70
128
71
4
72
5
73
2
0
VERTEX
8
OBJECT__32
10
0
20
0
30
0
70
128
71
6
72
7
73
5
0
VERTEX
8
OBJECT__32
10
0
20
0
30
0
70
128
71
8
72
9
73
7
0
VERTEX
8
OBJECT__32
10
0
20
0
30
0
70
128
71
10
72
11
73
9
0
VERTEX
8
OBJECT__32
10
0
20
0
30
0
70
128
71
12
72
13
73
11
0
VERTEX
8
OBJECT__32
10
0
20
0
30
0
70
128
71
14
72
15
73
13
0
VERTEX
8
OBJECT__32
10
0
20
0
30
0
70
128
71
16
72
17
73
15
0
VERTEX
8
OBJECT__32
10
0
20
0
30
0
70
128
71
18
72
19
73
17
0
VERTEX
8
OBJECT__32
10
0
20
0
30
0
70
128
71
20
72
21
73
19
0
VERTEX
8
OBJECT__32
10
0
20
0
30
0
70
128
71
22
72
23
73
21
0
VERTEX
8
OBJECT__32
10
0
20
0
30
0
70
128
71
24
72
3
73
23
0
VERTEX
8
OBJECT__32
10
0
20
0
30
0
70
128
71
23
72
22
73
24
0
VERTEX
8
OBJECT__32
10
0
20
0
30
0
70
128
71
21
72
20
73
22
0
VERTEX
8
OBJECT__32
10
0
20
0
30
0
70
128
71
19
72
18
73
20
0
VERTEX
8
OBJECT__32
10
0
20
0
30
0
70
128
71
17
72
16
73
18
0
VERTEX
8
OBJECT__32
10
0
20
0
30
0
70
128
71
15
72
14
73
16
0
VERTEX
8
OBJECT__32
10
0
20
0
30
0
70
128
71
13
72
12
73
14
0
VERTEX
8
OBJECT__32
10
0
20
0
30
0
70
128
71
11
72
10
73
12
0
VERTEX
8
OBJECT__32
10
0
20
0
30
0
70
128
71
9
72
8
73
10
0
VERTEX
8
OBJECT__32
10
0
20
0
30
0
70
128
71
7
72
6
73
8
0
VERTEX
8
OBJECT__32
10
0
20
0
30
0
70
128
71
5
72
4
73
6
0
VERTEX
8
OBJECT__32
10
0
20
0
30
0
70
128
71
2
72
1
73
4
0
VERTEX
8
OBJECT__32
10
0
20
0
30
0
70
128
71
3
72
24
73
1
0
SEQEND
8
OBJECT__32
0
POLYLINE
8
OBJECT__34
66
1
70
64
71
26
72
26
62
253
0
VERTEX
8
OBJECT__34
10
26.000000
20
0.000000
30
44.000000
70
192
0
VERTEX
8
OBJECT__34
10
22.517000
20
13.000000
30
44.000000
70
192
0
VERTEX
8
OBJECT__34
10
21.511000
20
10.359000
30
44.000000
70
192
0
VERTEX
8
OBJECT__34
10
13.000000
20
22.517000
30
44.000000
70
192
0
VERTEX
8
OBJECT__34
10
14.886000
20
18.666000
30
44.000000
70
192
0
VERTEX
8
OBJECT__34
10
0.000000
20
26.000000
30
44.000000
70
192
0
VERTEX
8
OBJECT__34
10
5.313000
20
23.275999
30
44.000000
70
192
0
VERTEX
8
OBJECT__34
10
-13.000000
20
22.517000
30
44.000000
70
192
0
VERTEX
8
OBJECT__34
10
-14.886000
20
18.666000
30
44.000000
70
192
0
VERTEX
8
OBJECT__34
10
-5.313000
20
23.275999
30
44.000000
70
192
0
VERTEX
8
OBJECT__34
10
-22.517000
20
13.000000
30
44.000000
70
192
0
VERTEX
8
OBJECT__34
10
-21.511000
20
10.359000
30
44.000000
70
192
0
VERTEX
8
OBJECT__34
10
-26.000000
20
0.000000
30
44.000000
70
192
0
VERTEX
8
OBJECT__34
10
-23.875000
20
0.000000
30
44.000000
70
192
0
VERTEX
8
OBJECT__34
10
-22.517000
20
-13.000000
30
44.000000
70
192
0
VERTEX
8
OBJECT__34
10
-21.511000
20
-10.359000
30
44.000000
70
192
0
VERTEX
8
OBJECT__34
10
-13.000000
20
-22.517000
30
44.000000
70
192
0
VERTEX
8
OBJECT__34
10
0.000000
20
-26.000000
30
44.000000
70
192
0
VERTEX
8
OBJECT__34
10
-5.313000
20
-23.275999
30
44.000000
70
192
0
VERTEX
8
OBJECT__34
10
13.000000
20
-22.517000
30
44.000000
70
192
0
VERTEX
8
OBJECT__34
10
14.886000
20
-18.666000
30
44.000000
70
192
0
VERTEX
8
OBJECT__34
10
5.313000
20
-23.275999
30
44.000000
70
192
0
VERTEX
8
OBJECT__34
10
22.517000
20
-13.000000
30
44.000000
70
192
0
VERTEX
8
OBJECT__34
10
21.511000
20
-10.359000
30
44.000000
70
192
0
VERTEX
8
OBJECT__34
10
-14.886000
20
-18.666000
30
44.000000
70
192
0
VERTEX
8
OBJECT__34
10
23.875000
20
0.000000
30
44.000000
70
192
0
VERTEX
8
OBJECT__34
10
0
20
0
30
0
70
128
71
1
72
2
73
3
0
VERTEX
8
OBJECT__34
10
0
20
0
30
0
70
128
71
2
72
4
73
5
0
VERTEX
8
OBJECT__34
10
0
20
0
30
0
70
128
71
5
72
3
73
2
0
VERTEX
8
OBJECT__34
10
0
20
0
30
0
70
128
71
4
72
6
73
7
0
VERTEX
8
OBJECT__34
10
0
20
0
30
0
70
128
71
8
72
9
73
10
0
VERTEX
8
OBJECT__34
10
0
20
0
30
0
70
128
71
11
72
12
73
9
0
VERTEX
8
OBJECT__34
10
0
20
0
30
0
70
128
71
13
72
14
73
12
0
VERTEX
8
OBJECT__34
10
0
20
0
30
0
70
128
71
13
72
15
73
16
0
VERTEX
8
OBJECT__34
10
0
20
0
30
0
70
128
71
17
72
18
73
19
0
VERTEX
8
OBJECT__34
10
0
20
0
30
0
70
128
71
20
72
21
73
22
0
VERTEX
8
OBJECT__34
10
0
20
0
30
0
70
128
71
23
72
24
73
21
0
VERTEX
8
OBJECT__34
10
0
20
0
30
0
70
128
71
7
72
5
73
4
0
VERTEX
8
OBJECT__34
10
0
20
0
30
0
70
128
71
9
72
8
73
11
0
VERTEX
8
OBJECT__34
10
0
20
0
30
0
70
128
71
16
72
14
73
13
0
VERTEX
8
OBJECT__34
10
0
20
0
30
0
70
128
71
15
72
17
73
25
0
VERTEX
8
OBJECT__34
10
0
20
0
30
0
70
128
71
18
72
22
73
19
0
VERTEX
8
OBJECT__34
10
0
20
0
30
0
70
128
71
21
72
20
73
23
0
VERTEX
8
OBJECT__34
10
0
20
0
30
0
70
128
71
1
72
26
73
24
0
VERTEX
8
OBJECT__34
10
0
20
0
30
0
70
128
71
6
72
10
73
7
0
VERTEX
8
OBJECT__34
10
0
20
0
30
0
70
128
71
12
72
11
73
13
0
VERTEX
8
OBJECT__34
10
0
20
0
30
0
70
128
71
19
72
25
73
17
0
VERTEX
8
OBJECT__34
10
0
20
0
30
0
70
128
71
24
72
23
73
1
0
VERTEX
8
OBJECT__34
10
0
20
0
30
0
70
128
71
10
72
6
73
8
0
VERTEX
8
OBJECT__34
10
0
20
0
30
0
70
128
71
22
72
18
73
20
0
VERTEX
8
OBJECT__34
10
0
20
0
30
0
70
128
71
25
72
16
73
15
0
VERTEX
8
OBJECT__34
10
0
20
0
30
0
70
128
71
3
72
26
73
1
0
SEQEND
8
OBJECT__34
0
POLYLINE
8
OBJECT__35
66
1
70
64
71
26
72
26
62
253
0
VERTEX
8
OBJECT__35
10
93.419998
20
0.000000
30
233.500000
70
192
0
VERTEX
8
OBJECT__35
10
42.000000
20
0.000000
30
233.500000
70
192
0
VERTEX
8
OBJECT__35
10
42.000000
20
6.217000
30
235.326004
70
192
0
VERTEX
8
OBJECT__35
10
93.419998
20
8.132000
30
236.867996
70
192
0
VERTEX
8
OBJECT__35
10
93.419998
20
11.500000
30
245.000000
70
192
0
VERTEX
8
OBJECT__35
10
42.000000
20
10.461000
30
240.223007
70
192
0
VERTEX
8
OBJECT__35
10
42.000000
20
7.802000
30
237.154007
70
192
0
VERTEX
8
OBJECT__35
10
93.419998
20
8.132000
30
253.132004
70
192
0
VERTEX
8
OBJECT__35
10
42.000000
20
11.383000
30
246.636993
70
192
0
VERTEX
8
OBJECT__35
10
42.000000
20
8.691000
30
252.531006
70
192
0
VERTEX
8
OBJECT__35
10
42.000000
20
11.155000
30
245.050003
70
192
0
VERTEX
8
OBJECT__35
10
42.000000
20
8.022000
30
252.960999
70
192
0
VERTEX
8
OBJECT__35
10
42.000000
20
3.240000
30
256.033997
70
192
0
VERTEX
8
OBJECT__35
10
93.419998
20
0.000000
30
256.500000
70
192
0
VERTEX
8
OBJECT__35
10
93.419998
20
-8.132000
30
253.132004
70
192
0
VERTEX
8
OBJECT__35
10
42.000000
20
-3.240000
30
256.033997
70
192
0
VERTEX
8
OBJECT__35
10
42.000000
20
0.000000
30
256.033997
70
192
0
VERTEX
8
OBJECT__35
10
42.000000
20
-8.691000
30
252.531006
70
192
0
VERTEX
8
OBJECT__35
10
42.000000
20
-11.383000
30
246.636993
70
192
0
VERTEX
8
OBJECT__35
10
93.419998
20
-11.500000
30
245.000000
70
192
0
VERTEX
8
OBJECT__35
10
42.000000
20
-8.022000
30
252.960999
70
192
0
VERTEX
8
OBJECT__35
10
42.000000
20
-11.155000
30
245.050003
70
192
0
VERTEX
8
OBJECT__35
10
42.000000
20
-10.461000
30
240.223007
70
192
0
VERTEX
8
OBJECT__35
10
93.419998
20
-8.132000
30
236.867996
70
192
0
VERTEX
8
OBJECT__35
10
42.000000
20
-6.217000
30
235.326004
70
192
0
VERTEX
8
OBJECT__35
10
42.000000
20
-7.802000
30
237.154007
70
192
0
VERTEX
8
OBJECT__35
10
0
20
0
30
0
70
128
71
1
72
2
73
3
0
VERTEX
8
OBJECT__35
10
0
20
0
30
0
70
128
71
3
72
4
73
1
0
VERTEX
8
OBJECT__35
10
0
20
0
30
0
70
128
71
5
72
4
73
6
0
VERTEX
8
OBJECT__35
10
0
20
0
30
0
70
128
71
4
72
7
73
6
0
VERTEX
8
OBJECT__35
10
0
20
0
30
0
70
128
71
8
72
5
73
9
0
VERTEX
8
OBJECT__35
10
0
20
0
30
0
70
128
71
9
72
10
73
8
0
VERTEX
8
OBJECT__35
10
0
20
0
30
0
70
128
71
5
72
11
73
9
0
VERTEX
8
OBJECT__35
10
0
20
0
30
0
70
128
71
8
72
12
73
13
0
VERTEX
8
OBJECT__35
10
0
20
0
30
0
70
128
71
13
72
14
73
8
0
VERTEX
8
OBJECT__35
10
0
20
0
30
0
70
128
71
15
72
14
73
16
0
VERTEX
8
OBJECT__35
10
0
20
0
30
0
70
128
71
14
72
17
73
16
0
VERTEX
8
OBJECT__35
10
0
20
0
30
0
70
128
71
15
72
18
73
19
0
VERTEX
8
OBJECT__35
10
0
20
0
30
0
70
128
71
19
72
20
73
15
0
VERTEX
8
OBJECT__35
10
0
20
0
30
0
70
128
71
15
72
21
73
18
0
VERTEX
8
OBJECT__35
10
0
20
0
30
0
70
128
71
20
72
22
73
23
0
VERTEX
8
OBJECT__35
10
0
20
0
30
0
70
128
71
23
72
24
73
20
0
VERTEX
8
OBJECT__35
10
0
20
0
30
0
70
128
71
1
72
24
73
25
0
VERTEX
8
OBJECT__35
10
0
20
0
30
0
70
128
71
24
72
26
73
25
0
VERTEX
8
OBJECT__35
10
0
20
0
30
0
70
128
71
25
72
2
73
1
0
VERTEX
8
OBJECT__35
10
0
20
0
30
0
70
128
71
23
72
26
73
24
0
VERTEX
8
OBJECT__35
10
0
20
0
30
0
70
128
71
19
72
22
73
20
0
VERTEX
8
OBJECT__35
10
0
20
0
30
0
70
128
71
16
72
21
73
15
0
VERTEX
8
OBJECT__35
10
0
20
0
30
0
70
128
71
13
72
17
73
14
0
VERTEX
8
OBJECT__35
10
0
20
0
30
0
70
128
71
10
72
12
73
8
0
VERTEX
8
OBJECT__35
10
0
20
0
30
0
70
128
71
6
72
11
73
5
0
VERTEX
8
OBJECT__35
10
0
20
0
30
0
70
128
71
3
72
7
73
4
0
SEQEND
8
OBJECT__35
0
POLYLINE
8
OBJECT__36
66
1
70
64
71
91
72
146
62
253
0
VERTEX
8
OBJECT__36
10
9.674000
20
-6.217000
30
203.000000
70
192
0
VERTEX
8
OBJECT__36
10
11.500000
20
0.000000
30
203.000000
70
192
0
VERTEX
8
OBJECT__36
10
12.539000
20
0.000000
30
210.893997
70
192
0
VERTEX
8
OBJECT__36
10
15.586000
20
0.000000
30
218.250000
70
192
0
VERTEX
8
OBJECT__36
10
14.005000
20
-6.217000
30
219.162994
70
192
0
VERTEX
8
OBJECT__36
10
20.433001
20
0.000000
30
224.567001
70
192
0
VERTEX
8
OBJECT__36
10
19.142000
20
-6.217000
30
225.858002
70
192
0
VERTEX
8
OBJECT__36
10
26.750000
20
0.000000
30
229.414001
70
192
0
VERTEX
8
OBJECT__36
10
25.837000
20
-6.217000
30
230.994995
70
192
0
VERTEX
8
OBJECT__36
10
34.105999
20
0.000000
30
232.460999
70
192
0
VERTEX
8
OBJECT__36
10
33.633999
20
-6.217000
30
234.223999
70
192
0
VERTEX
8
OBJECT__36
10
42.000000
20
-6.217000
30
235.326004
70
192
0
VERTEX
8
OBJECT__36
10
10.776000
20
-6.217000
30
211.365997
70
192
0
VERTEX
8
OBJECT__36
10
6.046000
20
-10.461000
30
212.634003
70
192
0
VERTEX
8
OBJECT__36
10
7.846000
20
-7.802000
30
203.000000
70
192
0
VERTEX
8
OBJECT__36
10
4.777000
20
-10.461000
30
203.000000
70
192
0
VERTEX
8
OBJECT__36
10
9.764000
20
-10.461000
30
221.610992
70
192
0
VERTEX
8
OBJECT__36
10
15.680000
20
-10.461000
30
229.320007
70
192
0
VERTEX
8
OBJECT__36
10
23.389000
20
-10.461000
30
235.235992
70
192
0
VERTEX
8
OBJECT__36
10
32.366001
20
-10.461000
30
238.953995
70
192
0
VERTEX
8
OBJECT__36
10
42.000000
20
-7.802000
30
237.154007
70
192
0
VERTEX
8
OBJECT__36
10
-0.050000
20
-11.155000
30
203.000000
70
192
0
VERTEX
8
OBJECT__36
10
-0.150000
20
-11.383000
30
214.294006
70
192
0
VERTEX
8
OBJECT__36
10
-1.637000
20
-11.383000
30
203.000000
70
192
0
VERTEX
8
OBJECT__36
10
4.210000
20
-11.383000
30
224.817993
70
192
0
VERTEX
8
OBJECT__36
10
11.144000
20
-11.383000
30
233.856003
70
192
0
VERTEX
8
OBJECT__36
10
20.181999
20
-11.383000
30
240.789993
70
192
0
VERTEX
8
OBJECT__36
10
30.705999
20
-11.383000
30
245.149994
70
192
0
VERTEX
8
OBJECT__36
10
42.000000
20
-11.155000
30
245.050003
70
192
0
VERTEX
8
OBJECT__36
10
42.000000
20
-10.461000
30
240.223007
70
192
0
VERTEX
8
OBJECT__36
10
-5.843000
20
-8.691000
30
215.820007
70
192
0
VERTEX
8
OBJECT__36
10
-7.531000
20
-8.691000
30
203.000000
70
192
0
VERTEX
8
OBJECT__36
10
-0.895000
20
-8.691000
30
227.764999
70
192
0
VERTEX
8
OBJECT__36
10
6.976000
20
-8.691000
30
238.024002
70
192
0
VERTEX
8
OBJECT__36
10
17.235001
20
-8.691000
30
245.895004
70
192
0
VERTEX
8
OBJECT__36
10
29.180000
20
-8.691000
30
250.843002
70
192
0
VERTEX
8
OBJECT__36
10
42.000000
20
-8.691000
30
252.531006
70
192
0
VERTEX
8
OBJECT__36
10
-9.227000
20
-3.240000
30
216.725998
70
192
0
VERTEX
8
OBJECT__36
10
-11.034000
20
-3.240000
30
203.000000
70
192
0
VERTEX
8
OBJECT__36
10
-7.961000
20
-8.022000
30
203.000000
70
192
0
VERTEX
8
OBJECT__36
10
-3.929000
20
-3.240000
30
229.516998
70
192
0
VERTEX
8
OBJECT__36
10
4.499000
20
-3.240000
30
240.501007
70
192
0
VERTEX
8
OBJECT__36
10
15.483000
20
-3.240000
30
248.929001
70
192
0
VERTEX
8
OBJECT__36
10
28.274000
20
-3.240000
30
254.227005
70
192
0
VERTEX
8
OBJECT__36
10
42.000000
20
-8.022000
30
252.960999
70
192
0
VERTEX
8
OBJECT__36
10
-9.227000
20
3.240000
30
216.725998
70
192
0
VERTEX
8
OBJECT__36
10
-11.034000
20
0.000000
30
203.000000
70
192
0
VERTEX
8
OBJECT__36
10
-11.034000
20
3.240000
30
203.000000
70
192
0
VERTEX
8
OBJECT__36
10
-3.929000
20
3.240000
30
229.516998
70
192
0
VERTEX
8
OBJECT__36
10
4.499000
20
3.240000
30
240.501007
70
192
0
VERTEX
8
OBJECT__36
10
15.483000
20
3.240000
30
248.929001
70
192
0
VERTEX
8
OBJECT__36
10
28.274000
20
3.240000
30
254.227005
70
192
0
VERTEX
8
OBJECT__36
10
42.000000
20
-3.240000
30
256.033997
70
192
0
VERTEX
8
OBJECT__36
10
42.000000
20
0.000000
30
256.033997
70
192
0
VERTEX
8
OBJECT__36
10
-5.843000
20
8.691000
30
215.820007
70
192
0
VERTEX
8
OBJECT__36
10
-7.961000
20
8.022000
30
203.000000
70
192
0
VERTEX
8
OBJECT__36
10
-7.531000
20
8.691000
30
203.000000
70
192
0
VERTEX
8
OBJECT__36
10
-0.895000
20
8.691000
30
227.764999
70
192
0
VERTEX
8
OBJECT__36
10
6.976000
20
8.691000
30
238.024002
70
192
0
VERTEX
8
OBJECT__36
10
17.235001
20
8.691000
30
245.895004
70
192
0
VERTEX
8
OBJECT__36
10
29.180000
20
8.691000
30
250.843002
70
192
0
VERTEX
8
OBJECT__36
10
42.000000
20
3.240000
30
256.033997
70
192
0
VERTEX
8
OBJECT__36
10
42.000000
20
8.022000
30
252.960999
70
192
0
VERTEX
8
OBJECT__36
10
-0.150000
20
11.383000
30
214.294006
70
192
0
VERTEX
8
OBJECT__36
10
-1.637000
20
11.383000
30
203.000000
70
192
0
VERTEX
8
OBJECT__36
10
4.210000
20
11.383000
30
224.817993
70
192
0
VERTEX
8
OBJECT__36
10
11.144000
20
11.383000
30
233.856003
70
192
0
VERTEX
8
OBJECT__36
10
20.181999
20
11.383000
30
240.789993
70
192
0
VERTEX
8
OBJECT__36
10
30.705999
20
11.383000
30
245.149994
70
192
0
VERTEX
8
OBJECT__36
10
42.000000
20
8.691000
30
252.531006
70
192
0
VERTEX
8
OBJECT__36
10
42.000000
20
11.383000
30
246.636993
70
192
0
VERTEX
8
OBJECT__36
10
-0.050000
20
11.155000
30
203.000000
70
192
0
VERTEX
8
OBJECT__36
10
6.046000
20
10.461000
30
212.634003
70
192
0
VERTEX
8
OBJECT__36
10
4.777000
20
10.461000
30
203.000000
70
192
0
VERTEX
8
OBJECT__36
10
9.764000
20
10.461000
30
221.610992
70
192
0
VERTEX
8
OBJECT__36
10
15.680000
20
10.461000
30
229.320007
70
192
0
VERTEX
8
OBJECT__36
10
23.389000
20
10.461000
30
235.235992
70
192
0
VERTEX
8
OBJECT__36
10
32.366001
20
10.461000
30
238.953995
70
192
0
VERTEX
8
OBJECT__36
10
42.000000
20
11.155000
30
245.050003
70
192
0
VERTEX
8
OBJECT__36
10
42.000000
20
10.461000
30
240.223007
70
192
0
VERTEX
8
OBJECT__36
10
10.776000
20
6.217000
30
211.365997
70
192
0
VERTEX
8
OBJECT__36
10
9.674000
20
6.217000
30
203.000000
70
192
0
VERTEX
8
OBJECT__36
10
7.846000
20
7.802000
30
203.000000
70
192
0
VERTEX
8
OBJECT__36
10
14.005000
20
6.217000
30
219.162994
70
192
0
VERTEX
8
OBJECT__36
10
19.142000
20
6.217000
30
225.858002
70
192
0
VERTEX
8
OBJECT__36
10
25.837000
20
6.217000
30
230.994995
70
192
0
VERTEX
8
OBJECT__36
10
33.633999
20
6.217000
30
234.223999
70
192
0
VERTEX
8
OBJECT__36
10
42.000000
20
7.802000
30
237.154007
70
192
0
VERTEX
8
OBJECT__36
10
42.000000
20
6.217000
30
235.326004
70
192
0
VERTEX
8
OBJECT__36
10
42.000000
20
0.000000
30
233.500000
70
192
0
VERTEX
8
OBJECT__36
10
42.000000
20
-11.383000
30
246.636993
70
192
0
VERTEX
8
OBJECT__36
10
0
20
0
30
0
70
128
71
1
72
2
73
3
0
VERTEX
8
OBJECT__36
10
0
20
0
30
0
70
128
71
3
72
4
73
5
0
VERTEX
8
OBJECT__36
10
0
20
0
30
0
70
128
71
4
72
6
73
7
0
VERTEX
8
OBJECT__36
10
0
20
0
30
0
70
128
71
6
72
8
73
9
0
VERTEX
8
OBJECT__36
10
0
20
0
30
0
70
128
71
8
72
10
73
11
0
VERTEX
8
OBJECT__36
10
0
20
0
30
0
70
128
71
12
72
11
73
10
0
VERTEX
8
OBJECT__36
10
0
20
0
30
0
70
128
71
13
72
14
73
15
0
VERTEX
8
OBJECT__36
10
0
20
0
30
0
70
128
71
14
72
16
73
15
0
VERTEX
8
OBJECT__36
10
0
20
0
30
0
70
128
71
13
72
5
73
17
0
VERTEX
8
OBJECT__36
10
0
20
0
30
0
70
128
71
5
72
7
73
18
0
VERTEX
8
OBJECT__36
10
0
20
0
30
0
70
128
71
7
72
9
73
19
0
VERTEX
8
OBJECT__36
10
0
20
0
30
0
70
128
71
9
72
11
73
20
0
VERTEX
8
OBJECT__36
10
0
20
0
30
0
70
128
71
11
72
12
73
21
0
VERTEX
8
OBJECT__36
10
0
20
0
30
0
70
128
71
21
72
20
73
11
0
VERTEX
8
OBJECT__36
10
0
20
0
30
0
70
128
71
22
72
16
73
14
0
VERTEX
8
OBJECT__36
10
0
20
0
30
0
70
128
71
23
72
24
73
22
0
VERTEX
8
OBJECT__36
10
0
20
0
30
0
70
128
71
14
72
17
73
25
0
VERTEX
8
OBJECT__36
10
0
20
0
30
0
70
128
71
17
72
18
73
26
0
VERTEX
8
OBJECT__36
10
0
20
0
30
0
70
128
71
18
72
19
73
27
0
VERTEX
8
OBJECT__36
10
0
20
0
30
0
70
128
71
19
72
20
73
28
0
VERTEX
8
OBJECT__36
10
0
20
0
30
0
70
128
71
29
72
28
73
20
0
VERTEX
8
OBJECT__36
10
0
20
0
30
0
70
128
71
20
72
30
73
29
0
VERTEX
8
OBJECT__36
10
0
20
0
30
0
70
128
71
31
72
32
73
24
0
VERTEX
8
OBJECT__36
10
0
20
0
30
0
70
128
71
23
72
25
73
33
0
VERTEX
8
OBJECT__36
10
0
20
0
30
0
70
128
71
25
72
26
73
34
0
VERTEX
8
OBJECT__36
10
0
20
0
30
0
70
128
71
26
72
27
73
35
0
VERTEX
8
OBJECT__36
10
0
20
0
30
0
70
128
71
27
72
28
73
36
0
VERTEX
8
OBJECT__36
10
0
20
0
30
0
70
128
71
37
72
36
73
28
0
VERTEX
8
OBJECT__36
10
0
20
0
30
0
70
128
71
38
72
39
73
40
0
VERTEX
8
OBJECT__36
10
0
20
0
30
0
70
128
71
40
72
31
73
38
0
VERTEX
8
OBJECT__36
10
0
20
0
30
0
70
128
71
31
72
33
73
41
0
VERTEX
8
OBJECT__36
10
0
20
0
30
0
70
128
71
33
72
34
73
42
0
VERTEX
8
OBJECT__36
10
0
20
0
30
0
70
128
71
34
72
35
73
43
0
VERTEX
8
OBJECT__36
10
0
20
0
30
0
70
128
71
35
72
36
73
44
0
VERTEX
8
OBJECT__36
10
0
20
0
30
0
70
128
71
44
72
36
73
45
0
VERTEX
8
OBJECT__36
10
0
20
0
30
0
70
128
71
36
72
37
73
45
0
VERTEX
8
OBJECT__36
10
0
20
0
30
0
70
128
71
38
72
46
73
47
0
VERTEX
8
OBJECT__36
10
0
20
0
30
0
70
128
71
46
72
48
73
47
0
VERTEX
8
OBJECT__36
10
0
20
0
30
0
70
128
71
38
72
41
73
49
0
VERTEX
8
OBJECT__36
10
0
20
0
30
0
70
128
71
41
72
42
73
50
0
VERTEX
8
OBJECT__36
10
0
20
0
30
0
70
128
71
42
72
43
73
51
0
VERTEX
8
OBJECT__36
10
0
20
0
30
0
70
128
71
43
72
44
73
52
0
VERTEX
8
OBJECT__36
10
0
20
0
30
0
70
128
71
44
72
53
73
54
0
VERTEX
8
OBJECT__36
10
0
20
0
30
0
70
128
71
54
72
52
73
44
0
VERTEX
8
OBJECT__36
10
0
20
0
30
0
70
128
71
46
72
55
73
56
0
VERTEX
8
OBJECT__36
10
0
20
0
30
0
70
128
71
55
72
57
73
56
0
VERTEX
8
OBJECT__36
10
0
20
0
30
0
70
128
71
46
72
49
73
58
0
VERTEX
8
OBJECT__36
10
0
20
0
30
0
70
128
71
49
72
50
73
59
0
VERTEX
8
OBJECT__36
10
0
20
0
30
0
70
128
71
50
72
51
73
60
0
VERTEX
8
OBJECT__36
10
0
20
0
30
0
70
128
71
51
72
52
73
61
0
VERTEX
8
OBJECT__36
10
0
20
0
30
0
70
128
71
52
72
62
73
63
0
VERTEX
8
OBJECT__36
10
0
20
0
30
0
70
128
71
63
72
61
73
52
0
VERTEX
8
OBJECT__36
10
0
20
0
30
0
70
128
71
55
72
64
73
65
0
VERTEX
8
OBJECT__36
10
0
20
0
30
0
70
128
71
55
72
58
73
66
0
VERTEX
8
OBJECT__36
10
0
20
0
30
0
70
128
71
58
72
59
73
67
0
VERTEX
8
OBJECT__36
10
0
20
0
30
0
70
128
71
59
72
60
73
68
0
VERTEX
8
OBJECT__36
10
0
20
0
30
0
70
128
71
60
72
61
73
69
0
VERTEX
8
OBJECT__36
10
0
20
0
30
0
70
128
71
70
72
71
73
69
0
VERTEX
8
OBJECT__36
10
0
20
0
30
0
70
128
71
72
72
64
73
73
0
VERTEX
8
OBJECT__36
10
0
20
0
30
0
70
128
71
73
72
74
73
72
0
VERTEX
8
OBJECT__36
10
0
20
0
30
0
70
128
71
64
72
66
73
75
0
VERTEX
8
OBJECT__36
10
0
20
0
30
0
70
128
71
66
72
67
73
76
0
VERTEX
8
OBJECT__36
10
0
20
0
30
0
70
128
71
67
72
68
73
77
0
VERTEX
8
OBJECT__36
10
0
20
0
30
0
70
128
71
68
72
69
73
78
0
VERTEX
8
OBJECT__36
10
0
20
0
30
0
70
128
71
79
72
80
73
78
0
VERTEX
8
OBJECT__36
10
0
20
0
30
0
70
128
71
69
72
71
73
79
0
VERTEX
8
OBJECT__36
10
0
20
0
30
0
70
128
71
81
72
82
73
83
0
VERTEX
8
OBJECT__36
10
0
20
0
30
0
70
128
71
83
72
73
73
81
0
VERTEX
8
OBJECT__36
10
0
20
0
30
0
70
128
71
73
72
75
73
84
0
VERTEX
8
OBJECT__36
10
0
20
0
30
0
70
128
71
75
72
76
73
85
0
VERTEX
8
OBJECT__36
10
0
20
0
30
0
70
128
71
76
72
77
73
86
0
VERTEX
8
OBJECT__36
10
0
20
0
30
0
70
128
71
77
72
78
73
87
0
VERTEX
8
OBJECT__36
10
0
20
0
30
0
70
128
71
87
72
78
73
88
0
VERTEX
8
OBJECT__36
10
0
20
0
30
0
70
128
71
78
72
80
73
88
0
VERTEX
8
OBJECT__36
10
0
20
0
30
0
70
128
71
82
72
81
73
3
0
VERTEX
8
OBJECT__36
10
0
20
0
30
0
70
128
71
81
72
84
73
4
0
VERTEX
8
OBJECT__36
10
0
20
0
30
0
70
128
71
84
72
85
73
6
0
VERTEX
8
OBJECT__36
10
0
20
0
30
0
70
128
71
85
72
86
73
8
0
VERTEX
8
OBJECT__36
10
0
20
0
30
0
70
128
71
86
72
87
73
10
0
VERTEX
8
OBJECT__36
10
0
20
0
30
0
70
128
71
89
72
90
73
10
0
VERTEX
8
OBJECT__36
10
0
20
0
30
0
70
128
71
10
72
87
73
89
0
VERTEX
8
OBJECT__36
10
0
20
0
30
0
70
128
71
10
72
8
73
86
0
VERTEX
8
OBJECT__36
10
0
20
0
30
0
70
128
71
8
72
6
73
85
0
VERTEX
8
OBJECT__36
10
0
20
0
30
0
70
128
71
6
72
4
73
84
0
VERTEX
8
OBJECT__36
10
0
20
0
30
0
70
128
71
4
72
3
73
81
0
VERTEX
8
OBJECT__36
10
0
20
0
30
0
70
128
71
3
72
2
73
82
0
VERTEX
8
OBJECT__36
10
0
20
0
30
0
70
128
71
88
72
89
73
87
0
VERTEX
8
OBJECT__36
10
0
20
0
30
0
70
128
71
87
72
86
73
77
0
VERTEX
8
OBJECT__36
10
0
20
0
30
0
70
128
71
86
72
85
73
76
0
VERTEX
8
OBJECT__36
10
0
20
0
30
0
70
128
71
85
72
84
73
75
0
VERTEX
8
OBJECT__36
10
0
20
0
30
0
70
128
71
84
72
81
73
73
0
VERTEX
8
OBJECT__36
10
0
20
0
30
0
70
128
71
83
72
74
73
73
0
VERTEX
8
OBJECT__36
10
0
20
0
30
0
70
128
71
78
72
69
73
79
0
VERTEX
8
OBJECT__36
10
0
20
0
30
0
70
128
71
78
72
77
73
68
0
VERTEX
8
OBJECT__36
10
0
20
0
30
0
70
128
71
77
72
76
73
67
0
VERTEX
8
OBJECT__36
10
0
20
0
30
0
70
128
71
76
72
75
73
66
0
VERTEX
8
OBJECT__36
10
0
20
0
30
0
70
128
71
75
72
73
73
64
0
VERTEX
8
OBJECT__36
10
0
20
0
30
0
70
128
71
72
72
65
73
64
0
VERTEX
8
OBJECT__36
10
0
20
0
30
0
70
128
71
69
72
61
73
70
0
VERTEX
8
OBJECT__36
10
0
20
0
30
0
70
128
71
69
72
68
73
60
0
VERTEX
8
OBJECT__36
10
0
20
0
30
0
70
128
71
68
72
67
73
59
0
VERTEX
8
OBJECT__36
10
0
20
0
30
0
70
128
71
67
72
66
73
58
0
VERTEX
8
OBJECT__36
10
0
20
0
30
0
70
128
71
66
72
64
73
55
0
VERTEX
8
OBJECT__36
10
0
20
0
30
0
70
128
71
65
72
57
73
55
0
VERTEX
8
OBJECT__36
10
0
20
0
30
0
70
128
71
63
72
70
73
61
0
VERTEX
8
OBJECT__36
10
0
20
0
30
0
70
128
71
61
72
60
73
51
0
VERTEX
8
OBJECT__36
10
0
20
0
30
0
70
128
71
60
72
59
73
50
0
VERTEX
8
OBJECT__36
10
0
20
0
30
0
70
128
71
59
72
58
73
49
0
VERTEX
8
OBJECT__36
10
0
20
0
30
0
70
128
71
58
72
55
73
46
0
VERTEX
8
OBJECT__36
10
0
20
0
30
0
70
128
71
56
72
48
73
46
0
VERTEX
8
OBJECT__36
10
0
20
0
30
0
70
128
71
54
72
62
73
52
0
VERTEX
8
OBJECT__36
10
0
20
0
30
0
70
128
71
52
72
51
73
43
0
VERTEX
8
OBJECT__36
10
0
20
0
30
0
70
128
71
51
72
50
73
42
0
VERTEX
8
OBJECT__36
10
0
20
0
30
0
70
128
71
50
72
49
73
41
0
VERTEX
8
OBJECT__36
10
0
20
0
30
0
70
128
71
49
72
46
73
38
0
VERTEX
8
OBJECT__36
10
0
20
0
30
0
70
128
71
47
72
39
73
38
0
VERTEX
8
OBJECT__36
10
0
20
0
30
0
70
128
71
45
72
53
73
44
0
VERTEX
8
OBJECT__36
10
0
20
0
30
0
70
128
71
44
72
43
73
35
0
VERTEX
8
OBJECT__36
10
0
20
0
30
0
70
128
71
43
72
42
73
34
0
VERTEX
8
OBJECT__36
10
0
20
0
30
0
70
128
71
42
72
41
73
33
0
VERTEX
8
OBJECT__36
10
0
20
0
30
0
70
128
71
41
72
38
73
31
0
VERTEX
8
OBJECT__36
10
0
20
0
30
0
70
128
71
40
72
32
73
31
0
VERTEX
8
OBJECT__36
10
0
20
0
30
0
70
128
71
28
72
91
73
37
0
VERTEX
8
OBJECT__36
10
0
20
0
30
0
70
128
71
36
72
35
73
27
0
VERTEX
8
OBJECT__36
10
0
20
0
30
0
70
128
71
35
72
34
73
26
0
VERTEX
8
OBJECT__36
10
0
20
0
30
0
70
128
71
34
72
33
73
25
0
VERTEX
8
OBJECT__36
10
0
20
0
30
0
70
128
71
33
72
31
73
23
0
VERTEX
8
OBJECT__36
10
0
20
0
30
0
70
128
71
24
72
23
73
31
0
VERTEX
8
OBJECT__36
10
0
20
0
30
0
70
128
71
29
72
91
73
28
0
VERTEX
8
OBJECT__36
10
0
20
0
30
0
70
128
71
28
72
27
73
19
0
VERTEX
8
OBJECT__36
10
0
20
0
30
0
70
128
71
27
72
26
73
18
0
VERTEX
8
OBJECT__36
10
0
20
0
30
0
70
128
71
26
72
25
73
17
0
VERTEX
8
OBJECT__36
10
0
20
0
30
0
70
128
71
25
72
23
73
14
0
VERTEX
8
OBJECT__36
10
0
20
0
30
0
70
128
71
14
72
23
73
22
0
VERTEX
8
OBJECT__36
10
0
20
0
30
0
70
128
71
21
72
30
73
20
0
VERTEX
8
OBJECT__36
10
0
20
0
30
0
70
128
71
20
72
19
73
9
0
VERTEX
8
OBJECT__36
10
0
20
0
30
0
70
128
71
19
72
18
73
7
0
VERTEX
8
OBJECT__36
10
0
20
0
30
0
70
128
71
18
72
17
73
5
0
VERTEX
8
OBJECT__36
10
0
20
0
30
0
70
128
71
17
72
14
73
13
0
VERTEX
8
OBJECT__36
10
0
20
0
30
0
70
128
71
15
72
1
73
13
0
VERTEX
8
OBJECT__36
10
0
20
0
30
0
70
128
71
10
72
90
73
12
0
VERTEX
8
OBJECT__36
10
0
20
0
30
0
70
128
71
11
72
9
73
8
0
VERTEX
8
OBJECT__36
10
0
20
0
30
0
70
128
71
9
72
7
73
6
0
VERTEX
8
OBJECT__36
10
0
20
0
30
0
70
128
71
7
72
5
73
4
0
VERTEX
8
OBJECT__36
10
0
20
0
30
0
70
128
71
5
72
13
73
3
0
VERTEX
8
OBJECT__36
10
0
20
0
30
0
70
128
71
3
72
13
73
1
0
SEQEND
8
OBJECT__36
0
POLYLINE
8
OBJECT__38
66
1
70
64
71
26
72
26
62
253
0
VERTEX
8
OBJECT__38
10
11.500000
20
0.000000
30
153.000000
70
192
0
VERTEX
8
OBJECT__38
10
8.132000
20
8.132000
30
153.000000
70
192
0
VERTEX
8
OBJECT__38
10
9.674000
20
6.217000
30
203.000000
70
192
0
VERTEX
8
OBJECT__38
10
7.846000
20
7.802000
30
203.000000
70
192
0
VERTEX
8
OBJECT__38
10
0.000000
20
11.500000
30
153.000000
70
192
0
VERTEX
8
OBJECT__38
10
-0.050000
20
11.155000
30
203.000000
70
192
0
VERTEX
8
OBJECT__38
10
4.777000
20
10.461000
30
203.000000
70
192
0
VERTEX
8
OBJECT__38
10
-8.132000
20
8.132000
30
153.000000
70
192
0
VERTEX
8
OBJECT__38
10
-7.531000
20
8.691000
30
203.000000
70
192
0
VERTEX
8
OBJECT__38
10
-1.637000
20
11.383000
30
203.000000
70
192
0
VERTEX
8
OBJECT__38
10
-7.961000
20
8.022000
30
203.000000
70
192
0
VERTEX
8
OBJECT__38
10
-11.500000
20
0.000000
30
153.000000
70
192
0
VERTEX
8
OBJECT__38
10
-11.034000
20
3.240000
30
203.000000
70
192
0
VERTEX
8
OBJECT__38
10
-11.034000
20
0.000000
30
203.000000
70
192
0
VERTEX
8
OBJECT__38
10
-8.132000
20
-8.132000
30
153.000000
70
192
0
VERTEX
8
OBJECT__38
10
-7.961000
20
-8.022000
30
203.000000
70
192
0
VERTEX
8
OBJECT__38
10
-11.034000
20
-3.240000
30
203.000000
70
192
0
VERTEX
8
OBJECT__38
10
0.000000
20
-11.500000
30
153.000000
70
192
0
VERTEX
8
OBJECT__38
10
-1.637000
20
-11.383000
30
203.000000
70
192
0
VERTEX
8
OBJECT__38
10
-7.531000
20
-8.691000
30
203.000000
70
192
0
VERTEX
8
OBJECT__38
10
-0.050000
20
-11.155000
30
203.000000
70
192
0
VERTEX
8
OBJECT__38
10
8.132000
20
-8.132000
30
153.000000
70
192
0
VERTEX
8
OBJECT__38
10
4.777000
20
-10.461000
30
203.000000
70
192
0
VERTEX
8
OBJECT__38
10
7.846000
20
-7.802000
30
203.000000
70
192
0
VERTEX
8
OBJECT__38
10
11.500000
20
0.000000
30
203.000000
70
192
0
VERTEX
8
OBJECT__38
10
9.674000
20
-6.217000
30
203.000000
70
192
0
VERTEX
8
OBJECT__38
10
0
20
0
30
0
70
128
71
1
72
2
73
3
0
VERTEX
8
OBJECT__38
10
0
20
0
30
0
70
128
71
2
72
4
73
3
0
VERTEX
8
OBJECT__38
10
0
20
0
30
0
70
128
71
5
72
6
73
7
0
VERTEX
8
OBJECT__38
10
0
20
0
30
0
70
128
71
7
72
2
73
5
0
VERTEX
8
OBJECT__38
10
0
20
0
30
0
70
128
71
8
72
9
73
10
0
VERTEX
8
OBJECT__38
10
0
20
0
30
0
70
128
71
10
72
5
73
8
0
VERTEX
8
OBJECT__38
10
0
20
0
30
0
70
128
71
8
72
11
73
9
0
VERTEX
8
OBJECT__38
10
0
20
0
30
0
70
128
71
8
72
12
73
13
0
VERTEX
8
OBJECT__38
10
0
20
0
30
0
70
128
71
12
72
14
73
13
0
VERTEX
8
OBJECT__38
10
0
20
0
30
0
70
128
71
15
72
16
73
17
0
VERTEX
8
OBJECT__38
10
0
20
0
30
0
70
128
71
17
72
12
73
15
0
VERTEX
8
OBJECT__38
10
0
20
0
30
0
70
128
71
15
72
18
73
19
0
VERTEX
8
OBJECT__38
10
0
20
0
30
0
70
128
71
19
72
20
73
15
0
VERTEX
8
OBJECT__38
10
0
20
0
30
0
70
128
71
18
72
21
73
19
0
VERTEX
8
OBJECT__38
10
0
20
0
30
0
70
128
71
18
72
22
73
23
0
VERTEX
8
OBJECT__38
10
0
20
0
30
0
70
128
71
22
72
24
73
23
0
VERTEX
8
OBJECT__38
10
0
20
0
30
0
70
128
71
1
72
25
73
26
0
VERTEX
8
OBJECT__38
10
0
20
0
30
0
70
128
71
26
72
22
73
1
0
VERTEX
8
OBJECT__38
10
0
20
0
30
0
70
128
71
26
72
24
73
22
0
VERTEX
8
OBJECT__38
10
0
20
0
30
0
70
128
71
23
72
21
73
18
0
VERTEX
8
OBJECT__38
10
0
20
0
30
0
70
128
71
20
72
16
73
15
0
VERTEX
8
OBJECT__38
10
0
20
0
30
0
70
128
71
17
72
14
73
12
0
VERTEX
8
OBJECT__38
10
0
20
0
30
0
70
128
71
13
72
11
73
8
0
VERTEX
8
OBJECT__38
10
0
20
0
30
0
70
128
71
10
72
6
73
5
0
VERTEX
8
OBJECT__38
10
0
20
0
30
0
70
128
71
7
72
4
73
2
0
VERTEX
8
OBJECT__38
10
0
20
0
30
0
70
128
71
3
72
25
73
1
0
SEQEND
8
OBJECT__38
0
POLYLINE
8
OBJECT__39
66
1
70
64
71
16
72
16
62
253
0
VERTEX
8
OBJECT__39
10
8.132000
20
8.132000
30
152.000000
70
192
0
VERTEX
8
OBJECT__39
10
8.132000
20
8.132000
30
153.000000
70
192
0
VERTEX
8
OBJECT__39
10
11.500000
20
0.000000
30
153.000000
70
192
0
VERTEX
8
OBJECT__39
10
0.000000
20
11.500000
30
152.000000
70
192
0
VERTEX
8
OBJECT__39
10
0.000000
20
11.500000
30
153.000000
70
192
0
VERTEX
8
OBJECT__39
10
-8.132000
20
8.132000
30
152.000000
70
192
0
VERTEX
8
OBJECT__39
10
-8.132000
20
8.132000
30
153.000000
70
192
0
VERTEX
8
OBJECT__39
10
-11.500000
20
0.000000
30
152.000000
70
192
0
VERTEX
8
OBJECT__39
10
-11.500000
20
0.000000
30
153.000000
70
192
0
VERTEX
8
OBJECT__39
10
-8.132000
20
-8.132000
30
152.000000
70
192
0
VERTEX
8
OBJECT__39
10
-8.132000
20
-8.132000
30
153.000000
70
192
0
VERTEX
8
OBJECT__39
10
0.000000
20
-11.500000
30
152.000000
70
192
0
VERTEX
8
OBJECT__39
10
0.000000
20
-11.500000
30
153.000000
70
192
0
VERTEX
8
OBJECT__39
10
8.132000
20
-8.132000
30
152.000000
70
192
0
VERTEX
8
OBJECT__39
10
8.132000
20
-8.132000
30
153.000000
70
192
0
VERTEX
8
OBJECT__39
10
11.500000
20
0.000000
30
152.000000
70
192
0
VERTEX
8
OBJECT__39
10
0
20
0
30
0
70
128
71
1
72
2
73
3
0
VERTEX
8
OBJECT__39
10
0
20
0
30
0
70
128
71
4
72
5
73
2
0
VERTEX
8
OBJECT__39
10
0
20
0
30
0
70
128
71
6
72
7
73
5
0
VERTEX
8
OBJECT__39
10
0
20
0
30
0
70
128
71
8
72
9
73
7
0
VERTEX
8
OBJECT__39
10
0
20
0
30
0
70
128
71
10
72
11
73
9
0
VERTEX
8
OBJECT__39
10
0
20
0
30
0
70
128
71
12
72
13
73
11
0
VERTEX
8
OBJECT__39
10
0
20
0
30
0
70
128
71
14
72
15
73
13
0
VERTEX
8
OBJECT__39
10
0
20
0
30
0
70
128
71
16
72
3
73
15
0
VERTEX
8
OBJECT__39
10
0
20
0
30
0
70
128
71
15
72
14
73
16
0
VERTEX
8
OBJECT__39
10
0
20
0
30
0
70
128
71
13
72
12
73
14
0
VERTEX
8
OBJECT__39
10
0
20
0
30
0
70
128
71
11
72
10
73
12
0
VERTEX
8
OBJECT__39
10
0
20
0
30
0
70
128
71
9
72
8
73
10
0
VERTEX
8
OBJECT__39
10
0
20
0
30
0
70
128
71
7
72
6
73
8
0
VERTEX
8
OBJECT__39
10
0
20
0
30
0
70
128
71
5
72
4
73
6
0
VERTEX
8
OBJECT__39
10
0
20
0
30
0
70
128
71
2
72
1
73
4
0
VERTEX
8
OBJECT__39
10
0
20
0
30
0
70
128
71
3
72
16
73
1
0
SEQEND
8
OBJECT__39
0
POLYLINE
8
OBJECT__40
66
1
70
64
71
17
72
17
62
253
0
VERTEX
8
OBJECT__40
10
11.491000
20
9.642000
30
152.000000
70
192
0
VERTEX
8
OBJECT__40
10
8.132000
20
8.132000
30
152.000000
70
192
0
VERTEX
8
OBJECT__40
10
11.500000
20
0.000000
30
152.000000
70
192
0
VERTEX
8
OBJECT__40
10
2.605000
20
14.772000
30
152.000000
70
192
0
VERTEX
8
OBJECT__40
10
0.000000
20
11.500000
30
152.000000
70
192
0
VERTEX
8
OBJECT__40
10
-7.500000
20
12.990000
30
152.000000
70
192
0
VERTEX
8
OBJECT__40
10
-8.132000
20
8.132000
30
152.000000
70
192
0
VERTEX
8
OBJECT__40
10
-14.095000
20
5.130000
30
152.000000
70
192
0
VERTEX
8
OBJECT__40
10
-11.500000
20
0.000000
30
152.000000
70
192
0
VERTEX
8
OBJECT__40
10
-14.095000
20
-5.130000
30
152.000000
70
192
0
VERTEX
8
OBJECT__40
10
-7.500000
20
-12.990000
30
152.000000
70
192
0
VERTEX
8
OBJECT__40
10
-8.132000
20
-8.132000
30
152.000000
70
192
0
VERTEX
8
OBJECT__40
10
2.605000
20
-14.772000
30
152.000000
70
192
0
VERTEX
8
OBJECT__40
10
0.000000
20
-11.500000
30
152.000000
70
192
0
VERTEX
8
OBJECT__40
10
11.491000
20
-9.642000
30
152.000000
70
192
0
VERTEX
8
OBJECT__40
10
8.132000
20
-8.132000
30
152.000000
70
192
0
VERTEX
8
OBJECT__40
10
15.000000
20
0.000000
30
152.000000
70
192
0
VERTEX
8
OBJECT__40
10
0
20
0
30
0
70
128
71
1
72
2
73
3
0
VERTEX
8
OBJECT__40
10
0
20
0
30
0
70
128
71
4
72
5
73
2
0
VERTEX
8
OBJECT__40
10
0
20
0
30
0
70
128
71
2
72
1
73
4
0
VERTEX
8
OBJECT__40
10
0
20
0
30
0
70
128
71
6
72
7
73
5
0
VERTEX
8
OBJECT__40
10
0
20
0
30
0
70
128
71
8
72
9
73
7
0
VERTEX
8
OBJECT__40
10
0
20
0
30
0
70
128
71
10
72
11
73
12
0
VERTEX
8
OBJECT__40
10
0
20
0
30
0
70
128
71
11
72
13
73
14
0
VERTEX
8
OBJECT__40
10
0
20
0
30
0
70
128
71
5
72
4
73
6
0
VERTEX
8
OBJECT__40
10
0
20
0
30
0
70
128
71
8
72
10
73
9
0
VERTEX
8
OBJECT__40
10
0
20
0
30
0
70
128
71
14
72
12
73
11
0
VERTEX
8
OBJECT__40
10
0
20
0
30
0
70
128
71
13
72
15
73
16
0
VERTEX
8
OBJECT__40
10
0
20
0
30
0
70
128
71
7
72
6
73
8
0
VERTEX
8
OBJECT__40
10
0
20
0
30
0
70
128
71
16
72
14
73
13
0
VERTEX
8
OBJECT__40
10
0
20
0
30
0
70
128
71
12
72
9
73
10
0
VERTEX
8
OBJECT__40
10
0
20
0
30
0
70
128
71
15
72
17
73
3
0
VERTEX
8
OBJECT__40
10
0
20
0
30
0
70
128
71
3
72
16
73
15
0
VERTEX
8
OBJECT__40
10
0
20
0
30
0
70
128
71
3
72
17
73
1
0
SEQEND
8
OBJECT__40
0
POLYLINE
8
OBJECT__41
66
1
70
64
71
18
72
18
62
253
0
VERTEX
8
OBJECT__41
10
11.491000
20
9.642000
30
144.500000
70
192
0
VERTEX
8
OBJECT__41
10
11.491000
20
9.642000
30
152.000000
70
192
0
VERTEX
8
OBJECT__41
10
15.000000
20
0.000000
30
152.000000
70
192
0
VERTEX
8
OBJECT__41
10
2.605000
20
14.772000
30
144.500000
70
192
0
VERTEX
8
OBJECT__41
10
2.605000
20
14.772000
30
152.000000
70
192
0
VERTEX
8
OBJECT__41
10
-7.500000
20
12.990000
30
144.500000
70
192
0
VERTEX
8
OBJECT__41
10
-7.500000
20
12.990000
30
152.000000
70
192
0
VERTEX
8
OBJECT__41
10
-14.095000
20
5.130000
30
144.500000
70
192
0
VERTEX
8
OBJECT__41
10
-14.095000
20
5.130000
30
152.000000
70
192
0
VERTEX
8
OBJECT__41
10
-14.095000
20
-5.130000
30
144.500000
70
192
0
VERTEX
8
OBJECT__41
10
-14.095000
20
-5.130000
30
152.000000
70
192
0
VERTEX
8
OBJECT__41
10
-7.500000
20
-12.990000
30
144.500000
70
192
0
VERTEX
8
OBJECT__41
10
-7.500000
20
-12.990000
30
152.000000
70
192
0
VERTEX
8
OBJECT__41
10
2.605000
20
-14.772000
30
144.500000
70
192
0
VERTEX
8
OBJECT__41
10
2.605000
20
-14.772000
30
152.000000
70
192
0
VERTEX
8
OBJECT__41
10
11.491000
20
-9.642000
30
144.500000
70
192
0
VERTEX
8
OBJECT__41
10
11.491000
20
-9.642000
30
152.000000
70
192
0
VERTEX
8
OBJECT__41
10
15.000000
20
0.000000
30
144.500000
70
192
0
VERTEX
8
OBJECT__41
10
0
20
0
30
0
70
128
71
1
72
2
73
3
0
VERTEX
8
OBJECT__41
10
0
20
0
30
0
70
128
71
4
72
5
73
2
0
VERTEX
8
OBJECT__41
10
0
20
0
30
0
70
128
71
6
72
7
73
5
0
VERTEX
8
OBJECT__41
10
0
20
0
30
0
70
128
71
8
72
9
73
7
0
VERTEX
8
OBJECT__41
10
0
20
0
30
0
70
128
71
10
72
11
73
9
0
VERTEX
8
OBJECT__41
10
0
20
0
30
0
70
128
71
12
72
13
73
11
0
VERTEX
8
OBJECT__41
10
0
20
0
30
0
70
128
71
14
72
15
73
13
0
VERTEX
8
OBJECT__41
10
0
20
0
30
0
70
128
71
16
72
17
73
15
0
VERTEX
8
OBJECT__41
10
0
20
0
30
0
70
128
71
18
72
3
73
17
0
VERTEX
8
OBJECT__41
10
0
20
0
30
0
70
128
71
17
72
16
73
18
0
VERTEX
8
OBJECT__41
10
0
20
0
30
0
70
128
71
15
72
14
73
16
0
VERTEX
8
OBJECT__41
10
0
20
0
30
0
70
128
71
13
72
12
73
14
0
VERTEX
8
OBJECT__41
10
0
20
0
30
0
70
128
71
11
72
10
73
12
0
VERTEX
8
OBJECT__41
10
0
20
0
30
0
70
128
71
9
72
8
73
10
0
VERTEX
8
OBJECT__41
10
0
20
0
30
0
70
128
71
7
72
6
73
8
0
VERTEX
8
OBJECT__41
10
0
20
0
30
0
70
128
71
5
72
4
73
6
0
VERTEX
8
OBJECT__41
10
0
20
0
30
0
70
128
71
2
72
1
73
4
0
VERTEX
8
OBJECT__41
10
0
20
0
30
0
70
128
71
3
72
18
73
1
0
SEQEND
8
OBJECT__41
0
POLYLINE
8
OBJECT__42
66
1
70
64
71
14
72
12
62
253
0
VERTEX
8
OBJECT__42
10
12.769000
20
-22.530001
30
24.427000
70
192
0
VERTEX
8
OBJECT__42
10
12.769000
20
-22.530001
30
-0.027000
70
192
0
VERTEX
8
OBJECT__42
10
-0.400000
20
-25.740000
30
-0.027000
70
192
0
VERTEX
8
OBJECT__42
10
22.483000
20
-13.077000
30
24.427000
70
192
0
VERTEX
8
OBJECT__42
10
22.483000
20
-13.077000
30
-0.027000
70
192
0
VERTEX
8
OBJECT__42
10
26.049999
20
0.000000
30
-0.027000
70
192
0
VERTEX
8
OBJECT__42
10
22.483000
20
13.077000
30
24.427000
70
192
0
VERTEX
8
OBJECT__42
10
22.483000
20
13.077000
30
-0.027000
70
192
0
VERTEX
8
OBJECT__42
10
12.769000
20
22.530001
30
24.427000
70
192
0
VERTEX
8
OBJECT__42
10
12.769000
20
22.530001
30
-0.027000
70
192
0
VERTEX
8
OBJECT__42
10
-0.400000
20
25.740000
30
-0.027000
70
192
0
VERTEX
8
OBJECT__42
10
-0.400000
20
25.740000
30
24.427000
70
192
0
VERTEX
8
OBJECT__42
10
26.049999
20
0.000000
30
24.427000
70
192
0
VERTEX
8
OBJECT__42
10
-0.400000
20
-25.740000
30
24.427000
70
192
0
VERTEX
8
OBJECT__42
10
0
20
0
30
0
70
128
71
1
72
2
73
3
0
VERTEX
8
OBJECT__42
10
0
20
0
30
0
70
128
71
4
72
5
73
2
0
VERTEX
8
OBJECT__42
10
0
20
0
30
0
70
128
71
6
72
5
73
4
0
VERTEX
8
OBJECT__42
10
0
20
0
30
0
70
128
71
7
72
8
73
6
0
VERTEX
8
OBJECT__42
10
0
20
0
30
0
70
128
71
9
72
10
73
8
0
VERTEX
8
OBJECT__42
10
0
20
0
30
0
70
128
71
11
72
10
73
9
0
VERTEX
8
OBJECT__42
10
0
20
0
30
0
70
128
71
9
72
12
73
11
0
VERTEX
8
OBJECT__42
10
0
20
0
30
0
70
128
71
8
72
7
73
9
0
VERTEX
8
OBJECT__42
10
0
20
0
30
0
70
128
71
6
72
13
73
7
0
VERTEX
8
OBJECT__42
10
0
20
0
30
0
70
128
71
4
72
13
73
6
0
VERTEX
8
OBJECT__42
10
0
20
0
30
0
70
128
71
2
72
1
73
4
0
VERTEX
8
OBJECT__42
10
0
20
0
30
0
70
128
71
3
72
14
73
1
0
SEQEND
8
OBJECT__42
0
POLYLINE
8
OBJECT__43
66
1
70
64
71
6
72
4
62
253
0
VERTEX
8
OBJECT__43
10
-15.154000
20
21.577000
30
24.427000
70
192
0
VERTEX
8
OBJECT__43
10
-15.154000
20
21.577000
30
-0.027000
70
192
0
VERTEX
8
OBJECT__43
10
-8.094000
20
24.782000
30
-0.027000
70
192
0
VERTEX
8
OBJECT__43
10
-0.400000
20
25.740000
30
-0.027000
70
192
0
VERTEX
8
OBJECT__43
10
-0.400000
20
25.740000
30
24.427000
70
192
0
VERTEX
8
OBJECT__43
10
-8.094000
20
24.782000
30
24.427000
70
192
0
VERTEX
8
OBJECT__43
10
0
20
0
30
0
70
128
71
1
72
2
73
3
0
VERTEX
8
OBJECT__43
10
0
20
0
30
0
70
128
71
3
72
4
73
5
0
VERTEX
8
OBJECT__43
10
0
20
0
30
0
70
128
71
5
72
6
73
3
0
VERTEX
8
OBJECT__43
10
0
20
0
30
0
70
128
71
3
72
6
73
1
0
SEQEND
8
OBJECT__43
0
POLYLINE
8
OBJECT__45
66
1
70
64
71
6
72
4
62
253
0
VERTEX
8
OBJECT__45
10
-8.094000
20
-24.782000
30
-0.027000
70
192
0
VERTEX
8
OBJECT__45
10
-8.094000
20
-24.782000
30
24.427000
70
192
0
VERTEX
8
OBJECT__45
10
-0.400000
20
-25.740000
30
24.427000
70
192
0
VERTEX
8
OBJECT__45
10
-15.154000
20
-21.577000
30
-0.027000
70
192
0
VERTEX
8
OBJECT__45
10
-15.154000
20
-21.577000
30
24.427000
70
192
0
VERTEX
8
OBJECT__45
10
-0.400000
20
-25.740000
30
-0.027000
70
192
0
VERTEX
8
OBJECT__45
10
0
20
0
30
0
70
128
71
1
72
2
73
3
0
VERTEX
8
OBJECT__45
10
0
20
0
30
0
70
128
71
4
72
5
73
2
0
VERTEX
8
OBJECT__45
10
0
20
0
30
0
70
128
71
2
72
1
73
4
0
VERTEX
8
OBJECT__45
10
0
20
0
30
0
70
128
71
3
72
6
73
1
0
SEQEND
8
OBJECT__45
0
POLYLINE
8
OBJECT__46
66
1
70
64
71
4
72
2
62
253
0
VERTEX
8
OBJECT__46
10
-15.154000
20
21.577000
30
24.427000
70
192
0
VERTEX
8
OBJECT__46
10
-16.320000
20
22.603001
30
24.427000
70
192
0
VERTEX
8
OBJECT__46
10
-16.320000
20
22.603001
30
-0.027000
70
192
0
VERTEX
8
OBJECT__46
10
-15.154000
20
21.577000
30
-0.027000
70
192
0
VERTEX
8
OBJECT__46
10
0
20
0
30
0
70
128
71
1
72
2
73
3
0
VERTEX
8
OBJECT__46
10
0
20
0
30
0
70
128
71
3
72
4
73
1
0
SEQEND
8
OBJECT__46
0
POLYLINE
8
OBJECT__47
66
1
70
64
71
4
72
2
62
253
0
VERTEX
8
OBJECT__47
10
-16.320000
20
22.603001
30
24.427000
70
192
0
VERTEX
8
OBJECT__47
10
-16.320000
20
23.104000
30
24.427000
70
192
0
VERTEX
8
OBJECT__47
10
-16.320000
20
23.104000
30
-0.027000
70
192
0
VERTEX
8
OBJECT__47
10
-16.320000
20
22.603001
30
-0.027000
70
192
0
VERTEX
8
OBJECT__47
10
0
20
0
30
0
70
128
71
1
72
2
73
3
0
VERTEX
8
OBJECT__47
10
0
20
0
30
0
70
128
71
3
72
4
73
1
0
SEQEND
8
OBJECT__47
0
POLYLINE
8
OBJECT__48
66
1
70
64
71
4
72
2
62
253
0
VERTEX
8
OBJECT__48
10
-16.320000
20
23.104000
30
24.427000
70
192
0
VERTEX
8
OBJECT__48
10
-15.762000
20
24.146000
30
24.427000
70
192
0
VERTEX
8
OBJECT__48
10
-15.762000
20
24.146000
30
-0.027000
70
192
0
VERTEX
8
OBJECT__48
10
-16.320000
20
23.104000
30
-0.027000
70
192
0
VERTEX
8
OBJECT__48
10
0
20
0
30
0
70
128
71
1
72
2
73
3
0
VERTEX
8
OBJECT__48
10
0
20
0
30
0
70
128
71
3
72
4
73
1
0
SEQEND
8
OBJECT__48
0
POLYLINE
8
OBJECT__49
66
1
70
64
71
4
72
2
62
253
0
VERTEX
8
OBJECT__49
10
-16.320000
20
-22.603001
30
24.427000
70
192
0
VERTEX
8
OBJECT__49
10
-15.154000
20
-21.577000
30
24.427000
70
192
0
VERTEX
8
OBJECT__49
10
-15.154000
20
-21.577000
30
-0.027000
70
192
0
VERTEX
8
OBJECT__49
10
-16.320000
20
-22.603001
30
-0.027000
70
192
0
VERTEX
8
OBJECT__49
10
0
20
0
30
0
70
128
71
1
72
2
73
3
0
VERTEX
8
OBJECT__49
10
0
20
0
30
0
70
128
71
3
72
4
73
1
0
SEQEND
8
OBJECT__49
0
POLYLINE
8
OBJECT__50
66
1
70
64
71
25
72
23
62
253
0
VERTEX
8
OBJECT__50
10
-8.094000
20
24.782000
30
24.427000
70
192
0
VERTEX
8
OBJECT__50
10
-16.320000
20
23.104000
30
24.427000
70
192
0
VERTEX
8
OBJECT__50
10
-16.320000
20
22.603001
30
24.427000
70
192
0
VERTEX
8
OBJECT__50
10
-8.094000
20
-24.782000
30
24.427000
70
192
0
VERTEX
8
OBJECT__50
10
-15.154000
20
-21.577000
30
24.427000
70
192
0
VERTEX
8
OBJECT__50
10
-16.320000
20
-22.603001
30
24.427000
70
192
0
VERTEX
8
OBJECT__50
10
-15.762000
20
24.146000
30
24.427000
70
192
0
VERTEX
8
OBJECT__50
10
-16.320000
20
-23.105000
30
24.427000
70
192
0
VERTEX
8
OBJECT__50
10
-15.154000
20
21.577000
30
24.427000
70
192
0
VERTEX
8
OBJECT__50
10
-15.762000
20
-24.145000
30
24.427000
70
192
0
VERTEX
8
OBJECT__50
10
-2.811000
20
-28.833000
30
24.427000
70
192
0
VERTEX
8
OBJECT__50
10
28.469999
20
-6.887000
30
24.427000
70
192
0
VERTEX
8
OBJECT__50
10
26.049999
20
0.000000
30
24.427000
70
192
0
VERTEX
8
OBJECT__50
10
22.483000
20
-13.077000
30
24.427000
70
192
0
VERTEX
8
OBJECT__50
10
10.842000
20
27.016001
30
24.427000
70
192
0
VERTEX
8
OBJECT__50
10
-2.811000
20
28.833000
30
24.427000
70
192
0
VERTEX
8
OBJECT__50
10
-0.400000
20
25.740000
30
24.427000
70
192
0
VERTEX
8
OBJECT__50
10
-0.400000
20
-25.740000
30
24.427000
70
192
0
VERTEX
8
OBJECT__50
10
10.841000
20
-27.016001
30
24.427000
70
192
0
VERTEX
8
OBJECT__50
10
12.769000
20
-22.530001
30
24.427000
70
192
0
VERTEX
8
OBJECT__50
10
22.115999
20
-19.106001
30
24.427000
70
192
0
VERTEX
8
OBJECT__50
10
28.471001
20
6.886000
30
24.427000
70
192
0
VERTEX
8
OBJECT__50
10
22.117001
20
19.106001
30
24.427000
70
192
0
VERTEX
8
OBJECT__50
10
12.769000
20
22.530001
30
24.427000
70
192
0
VERTEX
8
OBJECT__50
10
22.483000
20
13.077000
30
24.427000
70
192
0
VERTEX
8
OBJECT__50
10
0
20
0
30
0
70
128
71
1
72
2
73
3
0
VERTEX
8
OBJECT__50
10
0
20
0
30
0
70
128
71
4
72
5
73
6
0
VERTEX
8
OBJECT__50
10
0
20
0
30
0
70
128
71
1
72
7
73
2
0
VERTEX
8
OBJECT__50
10
0
20
0
30
0
70
128
71
6
72
8
73
4
0
VERTEX
8
OBJECT__50
10
0
20
0
30
0
70
128
71
3
72
9
73
1
0
VERTEX
8
OBJECT__50
10
0
20
0
30
0
70
128
71
10
72
11
73
4
0
VERTEX
8
OBJECT__50
10
0
20
0
30
0
70
128
71
12
72
13
73
14
0
VERTEX
8
OBJECT__50
10
0
20
0
30
0
70
128
71
15
72
16
73
17
0
VERTEX
8
OBJECT__50
10
0
20
0
30
0
70
128
71
1
72
16
73
7
0
VERTEX
8
OBJECT__50
10
0
20
0
30
0
70
128
71
11
72
18
73
4
0
VERTEX
8
OBJECT__50
10
0
20
0
30
0
70
128
71
19
72
20
73
18
0
VERTEX
8
OBJECT__50
10
0
20
0
30
0
70
128
71
21
72
14
73
20
0
VERTEX
8
OBJECT__50
10
0
20
0
30
0
70
128
71
12
72
22
73
13
0
VERTEX
8
OBJECT__50
10
0
20
0
30
0
70
128
71
23
72
15
73
24
0
VERTEX
8
OBJECT__50
10
0
20
0
30
0
70
128
71
1
72
17
73
16
0
VERTEX
8
OBJECT__50
10
0
20
0
30
0
70
128
71
18
72
11
73
19
0
VERTEX
8
OBJECT__50
10
0
20
0
30
0
70
128
71
14
72
21
73
12
0
VERTEX
8
OBJECT__50
10
0
20
0
30
0
70
128
71
22
72
23
73
25
0
VERTEX
8
OBJECT__50
10
0
20
0
30
0
70
128
71
17
72
24
73
15
0
VERTEX
8
OBJECT__50
10
0
20
0
30
0
70
128
71
20
72
19
73
21
0
VERTEX
8
OBJECT__50
10
0
20
0
30
0
70
128
71
24
72
25
73
23
0
VERTEX
8
OBJECT__50
10
0
20
0
30
0
70
128
71
25
72
13
73
22
0
VERTEX
8
OBJECT__50
10
0
20
0
30
0
70
128
71
8
72
10
73
4
0
SEQEND
8
OBJECT__50
0
POLYLINE
8
OBJECT__51
66
1
70
64
71
25
72
23
62
253
0
VERTEX
8
OBJECT__51
10
-8.094000
20
24.782000
30
-0.027000
70
192
0
VERTEX
8
OBJECT__51
10
-15.154000
20
21.577000
30
-0.027000
70
192
0
VERTEX
8
OBJECT__51
10
-16.320000
20
22.603001
30
-0.027000
70
192
0
VERTEX
8
OBJECT__51
10
-16.320000
20
23.104000
30
-0.027000
70
192
0
VERTEX
8
OBJECT__51
10
-15.762000
20
24.146000
30
-0.027000
70
192
0
VERTEX
8
OBJECT__51
10
-2.811000
20
28.833000
30
-0.027000
70
192
0
VERTEX
8
OBJECT__51
10
-0.400000
20
25.740000
30
-0.027000
70
192
0
VERTEX
8
OBJECT__51
10
10.842000
20
27.016001
30
-0.027000
70
192
0
VERTEX
8
OBJECT__51
10
12.769000
20
22.530001
30
-0.027000
70
192
0
VERTEX
8
OBJECT__51
10
-8.094000
20
-24.782000
30
-0.027000
70
192
0
VERTEX
8
OBJECT__51
10
-16.320000
20
-23.105000
30
-0.027000
70
192
0
VERTEX
8
OBJECT__51
10
-16.320000
20
-22.603001
30
-0.027000
70
192
0
VERTEX
8
OBJECT__51
10
22.117001
20
19.106001
30
-0.027000
70
192
0
VERTEX
8
OBJECT__51
10
22.483000
20
13.077000
30
-0.027000
70
192
0
VERTEX
8
OBJECT__51
10
28.469999
20
-6.887000
30
-0.027000
70
192
0
VERTEX
8
OBJECT__51
10
22.115999
20
-19.106001
30
-0.027000
70
192
0
VERTEX
8
OBJECT__51
10
22.483000
20
-13.077000
30
-0.027000
70
192
0
VERTEX
8
OBJECT__51
10
-15.762000
20
-24.145000
30
-0.027000
70
192
0
VERTEX
8
OBJECT__51
10
28.471001
20
6.886000
30
-0.027000
70
192
0
VERTEX
8
OBJECT__51
10
26.049999
20
0.000000
30
-0.027000
70
192
0
VERTEX
8
OBJECT__51
10
10.841000
20
-27.016001
30
-0.027000
70
192
0
VERTEX
8
OBJECT__51
10
12.769000
20
-22.530001
30
-0.027000
70
192
0
VERTEX
8
OBJECT__51
10
-15.154000
20
-21.577000
30
-0.027000
70
192
0
VERTEX
8
OBJECT__51
10
-2.811000
20
-28.833000
30
-0.027000
70
192
0
VERTEX
8
OBJECT__51
10
-0.400000
20
-25.740000
30
-0.027000
70
192
0
VERTEX
8
OBJECT__51
10
0
20
0
30
0
70
128
71
1
72
2
73
3
0
VERTEX
8
OBJECT__51
10
0
20
0
30
0
70
128
71
3
72
4
73
1
0
VERTEX
8
OBJECT__51
10
0
20
0
30
0
70
128
71
5
72
6
73
1
0
VERTEX
8
OBJECT__51
10
0
20
0
30
0
70
128
71
6
72
7
73
1
0
VERTEX
8
OBJECT__51
10
0
20
0
30
0
70
128
71
8
72
9
73
7
0
VERTEX
8
OBJECT__51
10
0
20
0
30
0
70
128
71
10
72
11
73
12
0
VERTEX
8
OBJECT__51
10
0
20
0
30
0
70
128
71
7
72
6
73
8
0
VERTEX
8
OBJECT__51
10
0
20
0
30
0
70
128
71
13
72
14
73
9
0
VERTEX
8
OBJECT__51
10
0
20
0
30
0
70
128
71
15
72
16
73
17
0
VERTEX
8
OBJECT__51
10
0
20
0
30
0
70
128
71
10
72
18
73
11
0
VERTEX
8
OBJECT__51
10
0
20
0
30
0
70
128
71
9
72
8
73
13
0
VERTEX
8
OBJECT__51
10
0
20
0
30
0
70
128
71
19
72
20
73
14
0
VERTEX
8
OBJECT__51
10
0
20
0
30
0
70
128
71
17
72
20
73
15
0
VERTEX
8
OBJECT__51
10
0
20
0
30
0
70
128
71
16
72
21
73
22
0
VERTEX
8
OBJECT__51
10
0
20
0
30
0
70
128
71
12
72
23
73
10
0
VERTEX
8
OBJECT__51
10
0
20
0
30
0
70
128
71
14
72
13
73
19
0
VERTEX
8
OBJECT__51
10
0
20
0
30
0
70
128
71
22
72
17
73
16
0
VERTEX
8
OBJECT__51
10
0
20
0
30
0
70
128
71
21
72
24
73
25
0
VERTEX
8
OBJECT__51
10
0
20
0
30
0
70
128
71
10
72
24
73
18
0
VERTEX
8
OBJECT__51
10
0
20
0
30
0
70
128
71
20
72
19
73
15
0
VERTEX
8
OBJECT__51
10
0
20
0
30
0
70
128
71
10
72
25
73
24
0
VERTEX
8
OBJECT__51
10
0
20
0
30
0
70
128
71
25
72
22
73
21
0
VERTEX
8
OBJECT__51
10
0
20
0
30
0
70
128
71
4
72
5
73
1
0
SEQEND
8
OBJECT__51
0
POLYLINE
8
OBJECT__52
66
1
70
64
71
4
72
2
62
253
0
VERTEX
8
OBJECT__52
10
-16.320000
20
-23.105000
30
24.427000
70
192
0
VERTEX
8
OBJECT__52
10
-16.320000
20
-22.603001
30
24.427000
70
192
0
VERTEX
8
OBJECT__52
10
-16.320000
20
-22.603001
30
-0.027000
70
192
0
VERTEX
8
OBJECT__52
10
-16.320000
20
-23.105000
30
-0.027000
70
192
0
VERTEX
8
OBJECT__52
10
0
20
0
30
0
70
128
71
1
72
2
73
3
0
VERTEX
8
OBJECT__52
10
0
20
0
30
0
70
128
71
3
72
4
73
1
0
SEQEND
8
OBJECT__52
0
POLYLINE
8
OBJECT__53
66
1
70
64
71
6
72
4
62
253
0
VERTEX
8
OBJECT__53
10
-16.320000
20
-23.105000
30
24.427000
70
192
0
VERTEX
8
OBJECT__53
10
-16.320000
20
-23.105000
30
-0.027000
70
192
0
VERTEX
8
OBJECT__53
10
-15.762000
20
-24.145000
30
22.973000
70
192
0
VERTEX
8
OBJECT__53
10
-15.762000
20
-24.146000
30
1.427000
70
192
0
VERTEX
8
OBJECT__53
10
-15.762000
20
-24.145000
30
-0.027000
70
192
0
VERTEX
8
OBJECT__53
10
-15.762000
20
-24.145000
30
24.427000
70
192
0
VERTEX
8
OBJECT__53
10
0
20
0
30
0
70
128
71
1
72
2
73
3
0
VERTEX
8
OBJECT__53
10
0
20
0
30
0
70
128
71
2
72
5
73
4
0
VERTEX
8
OBJECT__53
10
0
20
0
30
0
70
128
71
4
72
3
73
2
0
VERTEX
8
OBJECT__53
10
0
20
0
30
0
70
128
71
3
72
6
73
1
0
SEQEND
8
OBJECT__53
0
POLYLINE
8
OBJECT__54
66
1
70
64
71
58
72
58
62
253
0
VERTEX
8
OBJECT__54
10
-2.811000
20
28.833000
30
-0.027000
70
192
0
VERTEX
8
OBJECT__54
10
-2.813000
20
28.816000
30
1.427000
70
192
0
VERTEX
8
OBJECT__54
10
10.794000
20
27.035000
30
1.427000
70
192
0
VERTEX
8
OBJECT__54
10
10.842000
20
27.016001
30
-0.027000
70
192
0
VERTEX
8
OBJECT__54
10
10.835000
20
27.006001
30
1.427000
70
192
0
VERTEX
8
OBJECT__54
10
22.096001
20
19.129000
30
1.427000
70
192
0
VERTEX
8
OBJECT__54
10
22.117001
20
19.106001
30
-0.027000
70
192
0
VERTEX
8
OBJECT__54
10
22.110001
20
19.103001
30
1.427000
70
192
0
VERTEX
8
OBJECT__54
10
28.468000
20
6.896000
30
1.427000
70
192
0
VERTEX
8
OBJECT__54
10
28.471001
20
6.886000
30
-0.027000
70
192
0
VERTEX
8
OBJECT__54
10
28.469999
20
-6.887000
30
-0.027000
70
192
0
VERTEX
8
OBJECT__54
10
28.468000
20
6.886000
30
1.427000
70
192
0
VERTEX
8
OBJECT__54
10
22.115999
20
-19.106001
30
-0.027000
70
192
0
VERTEX
8
OBJECT__54
10
28.468000
20
-6.896000
30
1.427000
70
192
0
VERTEX
8
OBJECT__54
10
28.468000
20
-6.887000
30
1.427000
70
192
0
VERTEX
8
OBJECT__54
10
10.841000
20
-27.016001
30
-0.027000
70
192
0
VERTEX
8
OBJECT__54
10
22.096001
20
-19.129000
30
1.427000
70
192
0
VERTEX
8
OBJECT__54
10
22.110001
20
-19.103001
30
1.427000
70
192
0
VERTEX
8
OBJECT__54
10
-2.811000
20
-28.833000
30
-0.027000
70
192
0
VERTEX
8
OBJECT__54
10
10.794000
20
-27.035000
30
1.427000
70
192
0
VERTEX
8
OBJECT__54
10
10.834000
20
-27.006001
30
1.427000
70
192
0
VERTEX
8
OBJECT__54
10
-2.811000
20
-28.833000
30
24.427000
70
192
0
VERTEX
8
OBJECT__54
10
-15.762000
20
-24.145000
30
24.427000
70
192
0
VERTEX
8
OBJECT__54
10
-15.216000
20
-24.500000
30
22.973000
70
192
0
VERTEX
8
OBJECT__54
10
-2.882000
20
-28.825001
30
22.973000
70
192
0
VERTEX
8
OBJECT__54
10
-15.762000
20
-24.145000
30
-0.027000
70
192
0
VERTEX
8
OBJECT__54
10
-15.762000
20
-24.146000
30
1.427000
70
192
0
VERTEX
8
OBJECT__54
10
-15.216000
20
-24.500000
30
1.427000
70
192
0
VERTEX
8
OBJECT__54
10
-15.762000
20
-24.146000
30
22.973000
70
192
0
VERTEX
8
OBJECT__54
10
-2.882000
20
-28.825001
30
1.427000
70
192
0
VERTEX
8
OBJECT__54
10
-2.814000
20
-28.816000
30
1.427000
70
192
0
VERTEX
8
OBJECT__54
10
-2.814000
20
-28.816000
30
22.973000
70
192
0
VERTEX
8
OBJECT__54
10
10.794000
20
-27.035000
30
22.973000
70
192
0
VERTEX
8
OBJECT__54
10
10.841000
20
-27.016001
30
24.427000
70
192
0
VERTEX
8
OBJECT__54
10
10.834000
20
-27.006001
30
22.973000
70
192
0
VERTEX
8
OBJECT__54
10
22.096001
20
-19.129000
30
22.973000
70
192
0
VERTEX
8
OBJECT__54
10
22.115999
20
-19.106001
30
24.427000
70
192
0
VERTEX
8
OBJECT__54
10
22.110001
20
-19.103001
30
22.973000
70
192
0
VERTEX
8
OBJECT__54
10
28.468000
20
-6.896000
30
22.973000
70
192
0
VERTEX
8
OBJECT__54
10
28.469999
20
-6.887000
30
24.427000
70
192
0
VERTEX
8
OBJECT__54
10
28.468000
20
-6.887000
30
22.973000
70
192
0
VERTEX
8
OBJECT__54
10
28.468000
20
6.886000
30
22.973000
70
192
0
VERTEX
8
OBJECT__54
10
22.117001
20
19.106001
30
24.427000
70
192
0
VERTEX
8
OBJECT__54
10
28.471001
20
6.886000
30
24.427000
70
192
0
VERTEX
8
OBJECT__54
10
28.468000
20
6.896000
30
22.973000
70
192
0
VERTEX
8
OBJECT__54
10
10.842000
20
27.016001
30
24.427000
70
192
0
VERTEX
8
OBJECT__54
10
22.096001
20
19.129000
30
22.973000
70
192
0
VERTEX
8
OBJECT__54
10
22.110001
20
19.103001
30
22.973000
70
192
0
VERTEX
8
OBJECT__54
10
-2.811000
20
28.833000
30
24.427000
70
192
0
VERTEX
8
OBJECT__54
10
10.794000
20
27.035000
30
22.973000
70
192
0
VERTEX
8
OBJECT__54
10
10.835000
20
27.006001
30
22.973000
70
192
0
VERTEX
8
OBJECT__54
10
-15.762000
20
24.146000
30
-0.027000
70
192
0
VERTEX
8
OBJECT__54
10
-15.216000
20
24.500000
30
1.427000
70
192
0
VERTEX
8
OBJECT__54
10
-2.882000
20
28.825001
30
1.427000
70
192
0
VERTEX
8
OBJECT__54
10
-15.762000
20
24.146000
30
24.427000
70
192
0
VERTEX
8
OBJECT__54
10
-15.216000
20
24.500000
30
22.973000
70
192
0
VERTEX
8
OBJECT__54
10
-2.882000
20
28.825001
30
22.973000
70
192
0
VERTEX
8
OBJECT__54
10
-2.813000
20
28.816000
30
22.973000
70
192
0
VERTEX
8
OBJECT__54
10
0
20
0
30
0
70
128
71
1
72
2
73
3
0
VERTEX
8
OBJECT__54
10
0
20
0
30
0
70
128
71
3
72
4
73
1
0
VERTEX
8
OBJECT__54
10
0
20
0
30
0
70
128
71
4
72
5
73
6
0
VERTEX
8
OBJECT__54
10
0
20
0
30
0
70
128
71
6
72
7
73
4
0
VERTEX
8
OBJECT__54
10
0
20
0
30
0
70
128
71
7
72
8
73
9
0
VERTEX
8
OBJECT__54
10
0
20
0
30
0
70
128
71
9
72
10
73
7
0
VERTEX
8
OBJECT__54
10
0
20
0
30
0
70
128
71
11
72
10
73
12
0
VERTEX
8
OBJECT__54
10
0
20
0
30
0
70
128
71
13
72
11
73
14
0
VERTEX
8
OBJECT__54
10
0
20
0
30
0
70
128
71
11
72
15
73
14
0
VERTEX
8
OBJECT__54
10
0
20
0
30
0
70
128
71
16
72
13
73
17
0
VERTEX
8
OBJECT__54
10
0
20
0
30
0
70
128
71
13
72
18
73
17
0
VERTEX
8
OBJECT__54
10
0
20
0
30
0
70
128
71
19
72
16
73
20
0
VERTEX
8
OBJECT__54
10
0
20
0
30
0
70
128
71
16
72
21
73
20
0
VERTEX
8
OBJECT__54
10
0
20
0
30
0
70
128
71
22
72
23
73
24
0
VERTEX
8
OBJECT__54
10
0
20
0
30
0
70
128
71
24
72
25
73
22
0
VERTEX
8
OBJECT__54
10
0
20
0
30
0
70
128
71
26
72
19
73
27
0
VERTEX
8
OBJECT__54
10
0
20
0
30
0
70
128
71
28
72
24
73
29
0
VERTEX
8
OBJECT__54
10
0
20
0
30
0
70
128
71
19
72
30
73
28
0
VERTEX
8
OBJECT__54
10
0
20
0
30
0
70
128
71
19
72
31
73
30
0
VERTEX
8
OBJECT__54
10
0
20
0
30
0
70
128
71
28
72
27
73
19
0
VERTEX
8
OBJECT__54
10
0
20
0
30
0
70
128
71
29
72
27
73
28
0
VERTEX
8
OBJECT__54
10
0
20
0
30
0
70
128
71
29
72
24
73
23
0
VERTEX
8
OBJECT__54
10
0
20
0
30
0
70
128
71
22
72
32
73
33
0
VERTEX
8
OBJECT__54
10
0
20
0
30
0
70
128
71
33
72
34
73
22
0
VERTEX
8
OBJECT__54
10
0
20
0
30
0
70
128
71
34
72
35
73
36
0
VERTEX
8
OBJECT__54
10
0
20
0
30
0
70
128
71
36
72
37
73
34
0
VERTEX
8
OBJECT__54
10
0
20
0
30
0
70
128
71
37
72
38
73
39
0
VERTEX
8
OBJECT__54
10
0
20
0
30
0
70
128
71
39
72
40
73
37
0
VERTEX
8
OBJECT__54
10
0
20
0
30
0
70
128
71
40
72
41
73
42
0
VERTEX
8
OBJECT__54
10
0
20
0
30
0
70
128
71
43
72
44
73
45
0
VERTEX
8
OBJECT__54
10
0
20
0
30
0
70
128
71
44
72
42
73
45
0
VERTEX
8
OBJECT__54
10
0
20
0
30
0
70
128
71
46
72
43
73
47
0
VERTEX
8
OBJECT__54
10
0
20
0
30
0
70
128
71
43
72
48
73
47
0
VERTEX
8
OBJECT__54
10
0
20
0
30
0
70
128
71
49
72
46
73
50
0
VERTEX
8
OBJECT__54
10
0
20
0
30
0
70
128
71
46
72
51
73
50
0
VERTEX
8
OBJECT__54
10
0
20
0
30
0
70
128
71
1
72
52
73
53
0
VERTEX
8
OBJECT__54
10
0
20
0
30
0
70
128
71
53
72
54
73
1
0
VERTEX
8
OBJECT__54
10
0
20
0
30
0
70
128
71
55
72
56
73
53
0
VERTEX
8
OBJECT__54
10
0
20
0
30
0
70
128
71
53
72
52
73
55
0
VERTEX
8
OBJECT__54
10
0
20
0
30
0
70
128
71
49
72
57
73
56
0
VERTEX
8
OBJECT__54
10
0
20
0
30
0
70
128
71
49
72
58
73
57
0
VERTEX
8
OBJECT__54
10
0
20
0
30
0
70
128
71
56
72
55
73
49
0
VERTEX
8
OBJECT__54
10
0
20
0
30
0
70
128
71
54
72
2
73
1
0
VERTEX
8
OBJECT__54
10
0
20
0
30
0
70
128
71
50
72
58
73
49
0
VERTEX
8
OBJECT__54
10
0
20
0
30
0
70
128
71
47
72
51
73
46
0
VERTEX
8
OBJECT__54
10
0
20
0
30
0
70
128
71
45
72
48
73
43
0
VERTEX
8
OBJECT__54
10
0
20
0
30
0
70
128
71
42
72
44
73
40
0
VERTEX
8
OBJECT__54
10
0
20
0
30
0
70
128
71
39
72
41
73
40
0
VERTEX
8
OBJECT__54
10
0
20
0
30
0
70
128
71
36
72
38
73
37
0
VERTEX
8
OBJECT__54
10
0
20
0
30
0
70
128
71
33
72
35
73
34
0
VERTEX
8
OBJECT__54
10
0
20
0
30
0
70
128
71
25
72
32
73
22
0
VERTEX
8
OBJECT__54
10
0
20
0
30
0
70
128
71
20
72
31
73
19
0
VERTEX
8
OBJECT__54
10
0
20
0
30
0
70
128
71
17
72
21
73
16
0
VERTEX
8
OBJECT__54
10
0
20
0
30
0
70
128
71
14
72
18
73
13
0
VERTEX
8
OBJECT__54
10
0
20
0
30
0
70
128
71
12
72
15
73
11
0
VERTEX
8
OBJECT__54
10
0
20
0
30
0
70
128
71
9
72
12
73
10
0
VERTEX
8
OBJECT__54
10
0
20
0
30
0
70
128
71
6
72
8
73
7
0
VERTEX
8
OBJECT__54
10
0
20
0
30
0
70
128
71
3
72
5
73
4
0
SEQEND
8
OBJECT__54
0
POLYLINE
8
OBJECT__55
66
1
70
64
71
60
72
58
62
253
0
VERTEX
8
OBJECT__55
10
-14.942000
20
-24.500000
30
22.969000
70
192
0
VERTEX
8
OBJECT__55
10
-13.029000
20
-24.500000
30
22.944000
70
192
0
VERTEX
8
OBJECT__55
10
-9.539000
20
-25.910000
30
22.938999
70
192
0
VERTEX
8
OBJECT__55
10
-2.882000
20
-28.825001
30
22.973000
70
192
0
VERTEX
8
OBJECT__55
10
-15.216000
20
-24.500000
30
22.973000
70
192
0
VERTEX
8
OBJECT__55
10
-4.263000
20
-27.066000
30
22.931999
70
192
0
VERTEX
8
OBJECT__55
10
-2.814000
20
-28.816000
30
22.973000
70
192
0
VERTEX
8
OBJECT__55
10
0.331000
20
-27.143000
30
22.926001
70
192
0
VERTEX
8
OBJECT__55
10
4.874000
20
-26.587000
30
22.920000
70
192
0
VERTEX
8
OBJECT__55
10
-0.487000
20
-27.243000
30
22.927000
70
192
0
VERTEX
8
OBJECT__55
10
-2.700000
20
-27.139000
30
22.930000
70
192
0
VERTEX
8
OBJECT__55
10
10.794000
20
-27.035000
30
22.973000
70
192
0
VERTEX
8
OBJECT__55
10
8.496000
20
-25.504999
30
22.915001
70
192
0
VERTEX
8
OBJECT__55
10
10.834000
20
-27.006001
30
22.973000
70
192
0
VERTEX
8
OBJECT__55
10
13.338000
20
-23.111000
30
22.908001
70
192
0
VERTEX
8
OBJECT__55
10
13.347000
20
-23.104000
30
22.908001
70
192
0
VERTEX
8
OBJECT__55
10
22.096001
20
-19.129000
30
22.973000
70
192
0
VERTEX
8
OBJECT__55
10
16.396999
20
-20.891001
30
22.903999
70
192
0
VERTEX
8
OBJECT__55
10
9.916000
20
-24.802000
30
22.913000
70
192
0
VERTEX
8
OBJECT__55
10
28.468000
20
-6.896000
30
22.973000
70
192
0
VERTEX
8
OBJECT__55
10
22.110001
20
-19.103001
30
22.973000
70
192
0
VERTEX
8
OBJECT__55
10
22.673000
20
-13.178000
30
22.895000
70
192
0
VERTEX
8
OBJECT__55
10
22.326000
20
-13.921000
30
22.896000
70
192
0
VERTEX
8
OBJECT__55
10
20.174000
20
-17.028999
30
22.899000
70
192
0
VERTEX
8
OBJECT__55
10
24.611000
20
-9.027000
30
22.893000
70
192
0
VERTEX
8
OBJECT__55
10
19.958000
20
-17.250000
30
22.899000
70
192
0
VERTEX
8
OBJECT__55
10
25.316000
20
6.125000
30
22.892000
70
192
0
VERTEX
8
OBJECT__55
10
28.468000
20
6.896000
30
22.973000
70
192
0
VERTEX
8
OBJECT__55
10
28.468000
20
6.886000
30
22.973000
70
192
0
VERTEX
8
OBJECT__55
10
28.468000
20
-6.887000
30
22.973000
70
192
0
VERTEX
8
OBJECT__55
10
26.150000
20
-0.008000
30
22.889999
70
192
0
VERTEX
8
OBJECT__55
10
26.149000
20
0.000000
30
22.889999
70
192
0
VERTEX
8
OBJECT__55
10
25.613001
20
-5.383000
30
22.891001
70
192
0
VERTEX
8
OBJECT__55
10
25.889000
20
3.763000
30
22.891001
70
192
0
VERTEX
8
OBJECT__55
10
25.403999
20
-6.145000
30
22.891001
70
192
0
VERTEX
8
OBJECT__55
10
19.962999
20
17.256001
30
22.899000
70
192
0
VERTEX
8
OBJECT__55
10
22.096001
20
19.129000
30
22.973000
70
192
0
VERTEX
8
OBJECT__55
10
22.110001
20
19.103001
30
22.973000
70
192
0
VERTEX
8
OBJECT__55
10
23.122000
20
12.484000
30
22.895000
70
192
0
VERTEX
8
OBJECT__55
10
22.677999
20
13.170000
30
22.895000
70
192
0
VERTEX
8
OBJECT__55
10
24.615999
20
9.013000
30
22.893000
70
192
0
VERTEX
8
OBJECT__55
10
20.184000
20
17.017000
30
22.899000
70
192
0
VERTEX
8
OBJECT__55
10
9.964000
20
24.896999
30
22.913000
70
192
0
VERTEX
8
OBJECT__55
10
10.794000
20
27.035000
30
22.973000
70
192
0
VERTEX
8
OBJECT__55
10
10.835000
20
27.006001
30
22.973000
70
192
0
VERTEX
8
OBJECT__55
10
13.351000
20
23.103001
30
22.908001
70
192
0
VERTEX
8
OBJECT__55
10
13.348000
20
23.104000
30
22.908001
70
192
0
VERTEX
8
OBJECT__55
10
17.624001
20
19.798000
30
22.902000
70
192
0
VERTEX
8
OBJECT__55
10
10.015000
20
24.879999
30
22.913000
70
192
0
VERTEX
8
OBJECT__55
10
-2.702000
20
27.093000
30
22.930000
70
192
0
VERTEX
8
OBJECT__55
10
-2.882000
20
28.825001
30
22.973000
70
192
0
VERTEX
8
OBJECT__55
10
-2.813000
20
28.816000
30
22.973000
70
192
0
VERTEX
8
OBJECT__55
10
1.153000
20
27.157000
30
22.924999
70
192
0
VERTEX
8
OBJECT__55
10
0.341000
20
27.143000
30
22.926001
70
192
0
VERTEX
8
OBJECT__55
10
4.889000
20
26.584000
30
22.920000
70
192
0
VERTEX
8
OBJECT__55
10
-14.942000
20
24.500000
30
22.969000
70
192
0
VERTEX
8
OBJECT__55
10
-7.962000
20
26.372000
30
22.937000
70
192
0
VERTEX
8
OBJECT__55
10
-13.029000
20
24.500000
30
22.944000
70
192
0
VERTEX
8
OBJECT__55
10
-4.248000
20
27.068001
30
22.931999
70
192
0
VERTEX
8
OBJECT__55
10
-15.216000
20
24.500000
30
22.973000
70
192
0
VERTEX
8
OBJECT__55
10
0
20
0
30
0
70
128
71
1
72
2
73
3
0
VERTEX
8
OBJECT__55
10
0
20
0
30
0
70
128
71
4
72
5
73
1
0
VERTEX
8
OBJECT__55
10
0
20
0
30
0
70
128
71
3
72
4
73
1
0
VERTEX
8
OBJECT__55
10
0
20
0
30
0
70
128
71
3
72
6
73
4
0
VERTEX
8
OBJECT__55
10
0
20
0
30
0
70
128
71
7
72
8
73
9
0
VERTEX
8
OBJECT__55
10
0
20
0
30
0
70
128
71
7
72
10
73
8
0
VERTEX
8
OBJECT__55
10
0
20
0
30
0
70
128
71
11
72
10
73
7
0
VERTEX
8
OBJECT__55
10
0
20
0
30
0
70
128
71
7
72
4
73
11
0
VERTEX
8
OBJECT__55
10
0
20
0
30
0
70
128
71
9
72
12
73
7
0
VERTEX
8
OBJECT__55
10
0
20
0
30
0
70
128
71
9
72
13
73
12
0
VERTEX
8
OBJECT__55
10
0
20
0
30
0
70
128
71
14
72
15
73
16
0
VERTEX
8
OBJECT__55
10
0
20
0
30
0
70
128
71
16
72
17
73
14
0
VERTEX
8
OBJECT__55
10
0
20
0
30
0
70
128
71
16
72
18
73
17
0
VERTEX
8
OBJECT__55
10
0
20
0
30
0
70
128
71
19
72
15
73
14
0
VERTEX
8
OBJECT__55
10
0
20
0
30
0
70
128
71
14
72
12
73
19
0
VERTEX
8
OBJECT__55
10
0
20
0
30
0
70
128
71
20
72
21
73
22
0
VERTEX
8
OBJECT__55
10
0
20
0
30
0
70
128
71
21
72
23
73
22
0
VERTEX
8
OBJECT__55
10
0
20
0
30
0
70
128
71
21
72
24
73
23
0
VERTEX
8
OBJECT__55
10
0
20
0
30
0
70
128
71
22
72
25
73
20
0
VERTEX
8
OBJECT__55
10
0
20
0
30
0
70
128
71
26
72
24
73
21
0
VERTEX
8
OBJECT__55
10
0
20
0
30
0
70
128
71
21
72
17
73
26
0
VERTEX
8
OBJECT__55
10
0
20
0
30
0
70
128
71
27
72
28
73
29
0
VERTEX
8
OBJECT__55
10
0
20
0
30
0
70
128
71
29
72
30
73
31
0
VERTEX
8
OBJECT__55
10
0
20
0
30
0
70
128
71
31
72
32
73
29
0
VERTEX
8
OBJECT__55
10
0
20
0
30
0
70
128
71
30
72
33
73
31
0
VERTEX
8
OBJECT__55
10
0
20
0
30
0
70
128
71
32
72
34
73
29
0
VERTEX
8
OBJECT__55
10
0
20
0
30
0
70
128
71
35
72
33
73
30
0
VERTEX
8
OBJECT__55
10
0
20
0
30
0
70
128
71
30
72
20
73
35
0
VERTEX
8
OBJECT__55
10
0
20
0
30
0
70
128
71
36
72
37
73
38
0
VERTEX
8
OBJECT__55
10
0
20
0
30
0
70
128
71
38
72
39
73
40
0
VERTEX
8
OBJECT__55
10
0
20
0
30
0
70
128
71
28
72
41
73
39
0
VERTEX
8
OBJECT__55
10
0
20
0
30
0
70
128
71
39
72
38
73
28
0
VERTEX
8
OBJECT__55
10
0
20
0
30
0
70
128
71
28
72
27
73
41
0
VERTEX
8
OBJECT__55
10
0
20
0
30
0
70
128
71
40
72
42
73
38
0
VERTEX
8
OBJECT__55
10
0
20
0
30
0
70
128
71
43
72
44
73
45
0
VERTEX
8
OBJECT__55
10
0
20
0
30
0
70
128
71
45
72
46
73
47
0
VERTEX
8
OBJECT__55
10
0
20
0
30
0
70
128
71
37
72
48
73
46
0
VERTEX
8
OBJECT__55
10
0
20
0
30
0
70
128
71
46
72
45
73
37
0
VERTEX
8
OBJECT__55
10
0
20
0
30
0
70
128
71
37
72
36
73
48
0
VERTEX
8
OBJECT__55
10
0
20
0
30
0
70
128
71
47
72
49
73
45
0
VERTEX
8
OBJECT__55
10
0
20
0
30
0
70
128
71
50
72
51
73
52
0
VERTEX
8
OBJECT__55
10
0
20
0
30
0
70
128
71
52
72
53
73
54
0
VERTEX
8
OBJECT__55
10
0
20
0
30
0
70
128
71
52
72
44
73
55
0
VERTEX
8
OBJECT__55
10
0
20
0
30
0
70
128
71
44
72
43
73
55
0
VERTEX
8
OBJECT__55
10
0
20
0
30
0
70
128
71
55
72
53
73
52
0
VERTEX
8
OBJECT__55
10
0
20
0
30
0
70
128
71
56
72
51
73
57
0
VERTEX
8
OBJECT__55
10
0
20
0
30
0
70
128
71
57
72
58
73
56
0
VERTEX
8
OBJECT__55
10
0
20
0
30
0
70
128
71
51
72
59
73
57
0
VERTEX
8
OBJECT__55
10
0
20
0
30
0
70
128
71
51
72
50
73
59
0
VERTEX
8
OBJECT__55
10
0
20
0
30
0
70
128
71
56
72
60
73
51
0
VERTEX
8
OBJECT__55
10
0
20
0
30
0
70
128
71
52
72
54
73
50
0
VERTEX
8
OBJECT__55
10
0
20
0
30
0
70
128
71
45
72
49
73
43
0
VERTEX
8
OBJECT__55
10
0
20
0
30
0
70
128
71
38
72
42
73
36
0
VERTEX
8
OBJECT__55
10
0
20
0
30
0
70
128
71
29
72
34
73
27
0
VERTEX
8
OBJECT__55
10
0
20
0
30
0
70
128
71
25
72
35
73
20
0
VERTEX
8
OBJECT__55
10
0
20
0
30
0
70
128
71
18
72
26
73
17
0
VERTEX
8
OBJECT__55
10
0
20
0
30
0
70
128
71
13
72
19
73
12
0
VERTEX
8
OBJECT__55
10
0
20
0
30
0
70
128
71
6
72
11
73
4
0
SEQEND
8
OBJECT__55
0
POLYLINE
8
OBJECT__56
66
1
70
64
71
6
72
4
62
253
0
VERTEX
8
OBJECT__56
10
-14.942000
20
-24.500000
30
1.431000
70
192
0
VERTEX
8
OBJECT__56
10
-13.029000
20
-24.500000
30
1.456000
70
192
0
VERTEX
8
OBJECT__56
10
-13.029000
20
-24.500000
30
22.944000
70
192
0
VERTEX
8
OBJECT__56
10
-14.942000
20
-24.500000
30
22.969000
70
192
0
VERTEX
8
OBJECT__56
10
-15.216000
20
-24.500000
30
22.973000
70
192
0
VERTEX
8
OBJECT__56
10
-15.216000
20
-24.500000
30
1.427000
70
192
0
VERTEX
8
OBJECT__56
10
0
20
0
30
0
70
128
71
1
72
2
73
3
0
VERTEX
8
OBJECT__56
10
0
20
0
30
0
70
128
71
3
72
4
73
1
0
VERTEX
8
OBJECT__56
10
0
20
0
30
0
70
128
71
5
72
6
73
1
0
VERTEX
8
OBJECT__56
10
0
20
0
30
0
70
128
71
4
72
5
73
1
0
SEQEND
8
OBJECT__56
0
POLYLINE
8
OBJECT__57
66
1
70
64
71
80
72
78
62
253
0
VERTEX
8
OBJECT__57
10
-13.029000
20
24.500000
30
1.456000
70
192
0
VERTEX
8
OBJECT__57
10
-13.029000
20
24.500000
30
22.944000
70
192
0
VERTEX
8
OBJECT__57
10
-7.962000
20
26.372000
30
22.937000
70
192
0
VERTEX
8
OBJECT__57
10
-4.248000
20
27.068001
30
22.931999
70
192
0
VERTEX
8
OBJECT__57
10
-2.702000
20
27.093000
30
22.930000
70
192
0
VERTEX
8
OBJECT__57
10
-2.702000
20
27.093000
30
1.470000
70
192
0
VERTEX
8
OBJECT__57
10
-7.962000
20
26.372000
30
1.463000
70
192
0
VERTEX
8
OBJECT__57
10
-4.248000
20
27.068001
30
1.468000
70
192
0
VERTEX
8
OBJECT__57
10
0.341000
20
27.143000
30
22.926001
70
192
0
VERTEX
8
OBJECT__57
10
0.341000
20
27.143000
30
1.474000
70
192
0
VERTEX
8
OBJECT__57
10
1.153000
20
27.157000
30
22.924999
70
192
0
VERTEX
8
OBJECT__57
10
1.153000
20
27.157000
30
1.475000
70
192
0
VERTEX
8
OBJECT__57
10
4.889000
20
26.584000
30
22.920000
70
192
0
VERTEX
8
OBJECT__57
10
4.889000
20
26.584000
30
1.480000
70
192
0
VERTEX
8
OBJECT__57
10
9.964000
20
24.896999
30
22.913000
70
192
0
VERTEX
8
OBJECT__57
10
10.015000
20
24.879999
30
1.487000
70
192
0
VERTEX
8
OBJECT__57
10
9.964000
20
24.896999
30
1.487000
70
192
0
VERTEX
8
OBJECT__57
10
10.015000
20
24.879999
30
22.913000
70
192
0
VERTEX
8
OBJECT__57
10
13.348000
20
23.104000
30
1.492000
70
192
0
VERTEX
8
OBJECT__57
10
13.348000
20
23.104000
30
22.908001
70
192
0
VERTEX
8
OBJECT__57
10
20.184000
20
17.017000
30
1.501000
70
192
0
VERTEX
8
OBJECT__57
10
17.624001
20
19.798000
30
22.902000
70
192
0
VERTEX
8
OBJECT__57
10
19.962999
20
17.256001
30
22.899000
70
192
0
VERTEX
8
OBJECT__57
10
13.351000
20
23.103001
30
22.908001
70
192
0
VERTEX
8
OBJECT__57
10
13.351000
20
23.103001
30
1.492000
70
192
0
VERTEX
8
OBJECT__57
10
19.962999
20
17.256001
30
1.501000
70
192
0
VERTEX
8
OBJECT__57
10
17.624001
20
19.798000
30
1.498000
70
192
0
VERTEX
8
OBJECT__57
10
20.184000
20
17.017000
30
22.899000
70
192
0
VERTEX
8
OBJECT__57
10
22.677999
20
13.170000
30
22.895000
70
192
0
VERTEX
8
OBJECT__57
10
22.677999
20
13.170000
30
1.505000
70
192
0
VERTEX
8
OBJECT__57
10
23.122000
20
12.484000
30
22.895000
70
192
0
VERTEX
8
OBJECT__57
10
24.615999
20
9.013000
30
22.893000
70
192
0
VERTEX
8
OBJECT__57
10
25.316000
20
6.125000
30
22.892000
70
192
0
VERTEX
8
OBJECT__57
10
25.316000
20
6.125000
30
1.508000
70
192
0
VERTEX
8
OBJECT__57
10
25.889000
20
3.763000
30
22.891001
70
192
0
VERTEX
8
OBJECT__57
10
25.889000
20
3.763000
30
1.509000
70
192
0
VERTEX
8
OBJECT__57
10
23.122000
20
12.484000
30
1.505000
70
192
0
VERTEX
8
OBJECT__57
10
24.615999
20
9.013000
30
1.507000
70
192
0
VERTEX
8
OBJECT__57
10
26.149000
20
0.000000
30
22.889999
70
192
0
VERTEX
8
OBJECT__57
10
26.149000
20
0.000000
30
1.510000
70
192
0
VERTEX
8
OBJECT__57
10
22.673000
20
-13.178000
30
1.505000
70
192
0
VERTEX
8
OBJECT__57
10
24.611000
20
-9.027000
30
1.507000
70
192
0
VERTEX
8
OBJECT__57
10
24.611000
20
-9.027000
30
22.893000
70
192
0
VERTEX
8
OBJECT__57
10
25.613001
20
-5.383000
30
1.509000
70
192
0
VERTEX
8
OBJECT__57
10
26.150000
20
-0.008000
30
1.510000
70
192
0
VERTEX
8
OBJECT__57
10
26.150000
20
-0.008000
30
22.889999
70
192
0
VERTEX
8
OBJECT__57
10
25.403999
20
-6.145000
30
1.509000
70
192
0
VERTEX
8
OBJECT__57
10
25.613001
20
-5.383000
30
22.891001
70
192
0
VERTEX
8
OBJECT__57
10
25.403999
20
-6.145000
30
22.891001
70
192
0
VERTEX
8
OBJECT__57
10
20.174000
20
-17.028999
30
22.899000
70
192
0
VERTEX
8
OBJECT__57
10
20.174000
20
-17.028999
30
1.501000
70
192
0
VERTEX
8
OBJECT__57
10
22.326000
20
-13.921000
30
1.504000
70
192
0
VERTEX
8
OBJECT__57
10
16.396999
20
-20.891001
30
22.903999
70
192
0
VERTEX
8
OBJECT__57
10
16.396999
20
-20.891001
30
1.496000
70
192
0
VERTEX
8
OBJECT__57
10
19.958000
20
-17.250000
30
1.501000
70
192
0
VERTEX
8
OBJECT__57
10
19.958000
20
-17.250000
30
22.899000
70
192
0
VERTEX
8
OBJECT__57
10
13.347000
20
-23.104000
30
22.908001
70
192
0
VERTEX
8
OBJECT__57
10
13.347000
20
-23.104000
30
1.492000
70
192
0
VERTEX
8
OBJECT__57
10
22.326000
20
-13.921000
30
22.896000
70
192
0
VERTEX
8
OBJECT__57
10
22.673000
20
-13.178000
30
22.895000
70
192
0
VERTEX
8
OBJECT__57
10
9.916000
20
-24.802000
30
1.487000
70
192
0
VERTEX
8
OBJECT__57
10
13.338000
20
-23.111000
30
1.492000
70
192
0
VERTEX
8
OBJECT__57
10
13.338000
20
-23.111000
30
22.908001
70
192
0
VERTEX
8
OBJECT__57
10
8.496000
20
-25.504999
30
22.915001
70
192
0
VERTEX
8
OBJECT__57
10
8.496000
20
-25.504999
30
1.485000
70
192
0
VERTEX
8
OBJECT__57
10
9.916000
20
-24.802000
30
22.913000
70
192
0
VERTEX
8
OBJECT__57
10
0.331000
20
-27.143000
30
1.474000
70
192
0
VERTEX
8
OBJECT__57
10
4.874000
20
-26.587000
30
1.480000
70
192
0
VERTEX
8
OBJECT__57
10
4.874000
20
-26.587000
30
22.920000
70
192
0
VERTEX
8
OBJECT__57
10
0.331000
20
-27.143000
30
22.926001
70
192
0
VERTEX
8
OBJECT__57
10
-2.700000
20
-27.139000
30
1.470000
70
192
0
VERTEX
8
OBJECT__57
10
-0.487000
20
-27.243000
30
1.473000
70
192
0
VERTEX
8
OBJECT__57
10
-0.487000
20
-27.243000
30
22.927000
70
192
0
VERTEX
8
OBJECT__57
10
-9.539000
20
-25.910000
30
1.461000
70
192
0
VERTEX
8
OBJECT__57
10
-4.263000
20
-27.066000
30
1.468000
70
192
0
VERTEX
8
OBJECT__57
10
-4.263000
20
-27.066000
30
22.931999
70
192
0
VERTEX
8
OBJECT__57
10
-2.700000
20
-27.139000
30
22.930000
70
192
0
VERTEX
8
OBJECT__57
10
-13.029000
20
-24.500000
30
22.944000
70
192
0
VERTEX
8
OBJECT__57
10
-13.029000
20
-24.500000
30
1.456000
70
192
0
VERTEX
8
OBJECT__57
10
-9.539000
20
-25.910000
30
22.938999
70
192
0
VERTEX
8
OBJECT__57
10
0
20
0
30
0
70
128
71
1
72
2
73
3
0
VERTEX
8
OBJECT__57
10
0
20
0
30
0
70
128
71
4
72
5
73
6
0
VERTEX
8
OBJECT__57
10
0
20
0
30
0
70
128
71
7
72
3
73
4
0
VERTEX
8
OBJECT__57
10
0
20
0
30
0
70
128
71
4
72
8
73
7
0
VERTEX
8
OBJECT__57
10
0
20
0
30
0
70
128
71
6
72
8
73
4
0
VERTEX
8
OBJECT__57
10
0
20
0
30
0
70
128
71
5
72
9
73
10
0
VERTEX
8
OBJECT__57
10
0
20
0
30
0
70
128
71
10
72
6
73
5
0
VERTEX
8
OBJECT__57
10
0
20
0
30
0
70
128
71
9
72
11
73
12
0
VERTEX
8
OBJECT__57
10
0
20
0
30
0
70
128
71
11
72
13
73
14
0
VERTEX
8
OBJECT__57
10
0
20
0
30
0
70
128
71
15
72
16
73
17
0
VERTEX
8
OBJECT__57
10
0
20
0
30
0
70
128
71
17
72
13
73
15
0
VERTEX
8
OBJECT__57
10
0
20
0
30
0
70
128
71
17
72
14
73
13
0
VERTEX
8
OBJECT__57
10
0
20
0
30
0
70
128
71
14
72
12
73
11
0
VERTEX
8
OBJECT__57
10
0
20
0
30
0
70
128
71
16
72
15
73
18
0
VERTEX
8
OBJECT__57
10
0
20
0
30
0
70
128
71
18
72
19
73
16
0
VERTEX
8
OBJECT__57
10
0
20
0
30
0
70
128
71
18
72
20
73
19
0
VERTEX
8
OBJECT__57
10
0
20
0
30
0
70
128
71
21
72
22
73
23
0
VERTEX
8
OBJECT__57
10
0
20
0
30
0
70
128
71
21
72
24
73
22
0
VERTEX
8
OBJECT__57
10
0
20
0
30
0
70
128
71
25
72
20
73
24
0
VERTEX
8
OBJECT__57
10
0
20
0
30
0
70
128
71
24
72
21
73
26
0
VERTEX
8
OBJECT__57
10
0
20
0
30
0
70
128
71
26
72
27
73
24
0
VERTEX
8
OBJECT__57
10
0
20
0
30
0
70
128
71
24
72
27
73
25
0
VERTEX
8
OBJECT__57
10
0
20
0
30
0
70
128
71
23
72
28
73
21
0
VERTEX
8
OBJECT__57
10
0
20
0
30
0
70
128
71
21
72
28
73
29
0
VERTEX
8
OBJECT__57
10
0
20
0
30
0
70
128
71
29
72
30
73
21
0
VERTEX
8
OBJECT__57
10
0
20
0
30
0
70
128
71
30
72
29
73
31
0
VERTEX
8
OBJECT__57
10
0
20
0
30
0
70
128
71
32
72
33
73
34
0
VERTEX
8
OBJECT__57
10
0
20
0
30
0
70
128
71
33
72
35
73
36
0
VERTEX
8
OBJECT__57
10
0
20
0
30
0
70
128
71
36
72
34
73
33
0
VERTEX
8
OBJECT__57
10
0
20
0
30
0
70
128
71
37
72
31
73
32
0
VERTEX
8
OBJECT__57
10
0
20
0
30
0
70
128
71
32
72
38
73
37
0
VERTEX
8
OBJECT__57
10
0
20
0
30
0
70
128
71
36
72
35
73
39
0
VERTEX
8
OBJECT__57
10
0
20
0
30
0
70
128
71
39
72
40
73
36
0
VERTEX
8
OBJECT__57
10
0
20
0
30
0
70
128
71
34
72
38
73
32
0
VERTEX
8
OBJECT__57
10
0
20
0
30
0
70
128
71
41
72
42
73
43
0
VERTEX
8
OBJECT__57
10
0
20
0
30
0
70
128
71
44
72
45
73
46
0
VERTEX
8
OBJECT__57
10
0
20
0
30
0
70
128
71
47
72
44
73
48
0
VERTEX
8
OBJECT__57
10
0
20
0
30
0
70
128
71
43
72
42
73
47
0
VERTEX
8
OBJECT__57
10
0
20
0
30
0
70
128
71
47
72
49
73
43
0
VERTEX
8
OBJECT__57
10
0
20
0
30
0
70
128
71
48
72
49
73
47
0
VERTEX
8
OBJECT__57
10
0
20
0
30
0
70
128
71
46
72
48
73
44
0
VERTEX
8
OBJECT__57
10
0
20
0
30
0
70
128
71
40
72
39
73
46
0
VERTEX
8
OBJECT__57
10
0
20
0
30
0
70
128
71
46
72
45
73
40
0
VERTEX
8
OBJECT__57
10
0
20
0
30
0
70
128
71
50
72
51
73
52
0
VERTEX
8
OBJECT__57
10
0
20
0
30
0
70
128
71
53
72
54
73
55
0
VERTEX
8
OBJECT__57
10
0
20
0
30
0
70
128
71
56
72
55
73
51
0
VERTEX
8
OBJECT__57
10
0
20
0
30
0
70
128
71
51
72
50
73
56
0
VERTEX
8
OBJECT__57
10
0
20
0
30
0
70
128
71
55
72
56
73
53
0
VERTEX
8
OBJECT__57
10
0
20
0
30
0
70
128
71
57
72
58
73
54
0
VERTEX
8
OBJECT__57
10
0
20
0
30
0
70
128
71
54
72
53
73
57
0
VERTEX
8
OBJECT__57
10
0
20
0
30
0
70
128
71
59
72
52
73
41
0
VERTEX
8
OBJECT__57
10
0
20
0
30
0
70
128
71
41
72
60
73
59
0
VERTEX
8
OBJECT__57
10
0
20
0
30
0
70
128
71
61
72
62
73
63
0
VERTEX
8
OBJECT__57
10
0
20
0
30
0
70
128
71
64
72
65
73
61
0
VERTEX
8
OBJECT__57
10
0
20
0
30
0
70
128
71
61
72
66
73
64
0
VERTEX
8
OBJECT__57
10
0
20
0
30
0
70
128
71
67
72
68
73
69
0
VERTEX
8
OBJECT__57
10
0
20
0
30
0
70
128
71
69
72
68
73
65
0
VERTEX
8
OBJECT__57
10
0
20
0
30
0
70
128
71
65
72
64
73
69
0
VERTEX
8
OBJECT__57
10
0
20
0
30
0
70
128
71
69
72
70
73
67
0
VERTEX
8
OBJECT__57
10
0
20
0
30
0
70
128
71
63
72
62
73
58
0
VERTEX
8
OBJECT__57
10
0
20
0
30
0
70
128
71
58
72
57
73
63
0
VERTEX
8
OBJECT__57
10
0
20
0
30
0
70
128
71
71
72
72
73
73
0
VERTEX
8
OBJECT__57
10
0
20
0
30
0
70
128
71
72
72
67
73
70
0
VERTEX
8
OBJECT__57
10
0
20
0
30
0
70
128
71
70
72
73
73
72
0
VERTEX
8
OBJECT__57
10
0
20
0
30
0
70
128
71
74
72
75
73
76
0
VERTEX
8
OBJECT__57
10
0
20
0
30
0
70
128
71
76
72
75
73
71
0
VERTEX
8
OBJECT__57
10
0
20
0
30
0
70
128
71
71
72
77
73
76
0
VERTEX
8
OBJECT__57
10
0
20
0
30
0
70
128
71
78
72
79
73
74
0
VERTEX
8
OBJECT__57
10
0
20
0
30
0
70
128
71
74
72
80
73
78
0
VERTEX
8
OBJECT__57
10
0
20
0
30
0
70
128
71
76
72
80
73
74
0
VERTEX
8
OBJECT__57
10
0
20
0
30
0
70
128
71
73
72
77
73
71
0
VERTEX
8
OBJECT__57
10
0
20
0
30
0
70
128
71
63
72
66
73
61
0
VERTEX
8
OBJECT__57
10
0
20
0
30
0
70
128
71
52
72
59
73
50
0
VERTEX
8
OBJECT__57
10
0
20
0
30
0
70
128
71
43
72
60
73
41
0
VERTEX
8
OBJECT__57
10
0
20
0
30
0
70
128
71
31
72
37
73
30
0
VERTEX
8
OBJECT__57
10
0
20
0
30
0
70
128
71
25
72
19
73
20
0
VERTEX
8
OBJECT__57
10
0
20
0
30
0
70
128
71
12
72
10
73
9
0
VERTEX
8
OBJECT__57
10
0
20
0
30
0
70
128
71
3
72
7
73
1
0
SEQEND
8
OBJECT__57
0
POLYLINE
8
OBJECT__58
66
1
70
64
71
6
72
4
62
253
0
VERTEX
8
OBJECT__58
10
-14.942000
20
24.500000
30
1.431000
70
192
0
VERTEX
8
OBJECT__58
10
-14.942000
20
24.500000
30
22.969000
70
192
0
VERTEX
8
OBJECT__58
10
-13.029000
20
24.500000
30
22.944000
70
192
0
VERTEX
8
OBJECT__58
10
-15.216000
20
24.500000
30
22.973000
70
192
0
VERTEX
8
OBJECT__58
10
-13.029000
20
24.500000
30
1.456000
70
192
0
VERTEX
8
OBJECT__58
10
-15.216000
20
24.500000
30
1.427000
70
192
0
VERTEX
8
OBJECT__58
10
0
20
0
30
0
70
128
71
1
72
2
73
3
0
VERTEX
8
OBJECT__58
10
0
20
0
30
0
70
128
71
1
72
4
73
2
0
VERTEX
8
OBJECT__58
10
0
20
0
30
0
70
128
71
3
72
5
73
1
0
VERTEX
8
OBJECT__58
10
0
20
0
30
0
70
128
71
1
72
6
73
4
0
SEQEND
8
OBJECT__58
0
POLYLINE
8
OBJECT__59
66
1
70
64
71
60
72
58
62
253
0
VERTEX
8
OBJECT__59
10
-2.813000
20
28.816000
30
1.427000
70
192
0
VERTEX
8
OBJECT__59
10
1.153000
20
27.157000
30
1.475000
70
192
0
VERTEX
8
OBJECT__59
10
4.889000
20
26.584000
30
1.480000
70
192
0
VERTEX
8
OBJECT__59
10
10.794000
20
27.035000
30
1.427000
70
192
0
VERTEX
8
OBJECT__59
10
-2.702000
20
27.093000
30
1.470000
70
192
0
VERTEX
8
OBJECT__59
10
0.341000
20
27.143000
30
1.474000
70
192
0
VERTEX
8
OBJECT__59
10
-2.882000
20
28.825001
30
1.427000
70
192
0
VERTEX
8
OBJECT__59
10
22.096001
20
19.129000
30
1.427000
70
192
0
VERTEX
8
OBJECT__59
10
10.835000
20
27.006001
30
1.427000
70
192
0
VERTEX
8
OBJECT__59
10
13.351000
20
23.103001
30
1.492000
70
192
0
VERTEX
8
OBJECT__59
10
10.015000
20
24.879999
30
1.487000
70
192
0
VERTEX
8
OBJECT__59
10
13.348000
20
23.104000
30
1.492000
70
192
0
VERTEX
8
OBJECT__59
10
17.624001
20
19.798000
30
1.498000
70
192
0
VERTEX
8
OBJECT__59
10
9.964000
20
24.896999
30
1.487000
70
192
0
VERTEX
8
OBJECT__59
10
28.468000
20
6.896000
30
1.427000
70
192
0
VERTEX
8
OBJECT__59
10
22.110001
20
19.103001
30
1.427000
70
192
0
VERTEX
8
OBJECT__59
10
23.122000
20
12.484000
30
1.505000
70
192
0
VERTEX
8
OBJECT__59
10
20.184000
20
17.017000
30
1.501000
70
192
0
VERTEX
8
OBJECT__59
10
22.677999
20
13.170000
30
1.505000
70
192
0
VERTEX
8
OBJECT__59
10
24.615999
20
9.013000
30
1.507000
70
192
0
VERTEX
8
OBJECT__59
10
19.962999
20
17.256001
30
1.501000
70
192
0
VERTEX
8
OBJECT__59
10
25.403999
20
-6.145000
30
1.509000
70
192
0
VERTEX
8
OBJECT__59
10
28.468000
20
-6.896000
30
1.427000
70
192
0
VERTEX
8
OBJECT__59
10
28.468000
20
-6.887000
30
1.427000
70
192
0
VERTEX
8
OBJECT__59
10
28.468000
20
6.886000
30
1.427000
70
192
0
VERTEX
8
OBJECT__59
10
26.149000
20
0.000000
30
1.510000
70
192
0
VERTEX
8
OBJECT__59
10
26.150000
20
-0.008000
30
1.510000
70
192
0
VERTEX
8
OBJECT__59
10
25.889000
20
3.763000
30
1.509000
70
192
0
VERTEX
8
OBJECT__59
10
25.316000
20
6.125000
30
1.508000
70
192
0
VERTEX
8
OBJECT__59
10
25.613001
20
-5.383000
30
1.509000
70
192
0
VERTEX
8
OBJECT__59
10
19.958000
20
-17.250000
30
1.501000
70
192
0
VERTEX
8
OBJECT__59
10
22.096001
20
-19.129000
30
1.427000
70
192
0
VERTEX
8
OBJECT__59
10
22.110001
20
-19.103001
30
1.427000
70
192
0
VERTEX
8
OBJECT__59
10
24.611000
20
-9.027000
30
1.507000
70
192
0
VERTEX
8
OBJECT__59
10
22.673000
20
-13.178000
30
1.505000
70
192
0
VERTEX
8
OBJECT__59
10
22.326000
20
-13.921000
30
1.504000
70
192
0
VERTEX
8
OBJECT__59
10
20.174000
20
-17.028999
30
1.501000
70
192
0
VERTEX
8
OBJECT__59
10
9.916000
20
-24.802000
30
1.487000
70
192
0
VERTEX
8
OBJECT__59
10
10.794000
20
-27.035000
30
1.427000
70
192
0
VERTEX
8
OBJECT__59
10
10.834000
20
-27.006001
30
1.427000
70
192
0
VERTEX
8
OBJECT__59
10
16.396999
20
-20.891001
30
1.496000
70
192
0
VERTEX
8
OBJECT__59
10
13.347000
20
-23.104000
30
1.492000
70
192
0
VERTEX
8
OBJECT__59
10
13.338000
20
-23.111000
30
1.492000
70
192
0
VERTEX
8
OBJECT__59
10
-2.700000
20
-27.139000
30
1.470000
70
192
0
VERTEX
8
OBJECT__59
10
-2.882000
20
-28.825001
30
1.427000
70
192
0
VERTEX
8
OBJECT__59
10
-2.814000
20
-28.816000
30
1.427000
70
192
0
VERTEX
8
OBJECT__59
10
4.874000
20
-26.587000
30
1.480000
70
192
0
VERTEX
8
OBJECT__59
10
0.331000
20
-27.143000
30
1.474000
70
192
0
VERTEX
8
OBJECT__59
10
8.496000
20
-25.504999
30
1.485000
70
192
0
VERTEX
8
OBJECT__59
10
-0.487000
20
-27.243000
30
1.473000
70
192
0
VERTEX
8
OBJECT__59
10
-14.942000
20
-24.500000
30
1.431000
70
192
0
VERTEX
8
OBJECT__59
10
-9.539000
20
-25.910000
30
1.461000
70
192
0
VERTEX
8
OBJECT__59
10
-13.029000
20
-24.500000
30
1.456000
70
192
0
VERTEX
8
OBJECT__59
10
-4.263000
20
-27.066000
30
1.468000
70
192
0
VERTEX
8
OBJECT__59
10
-14.942000
20
24.500000
30
1.431000
70
192
0
VERTEX
8
OBJECT__59
10
-13.029000
20
24.500000
30
1.456000
70
192
0
VERTEX
8
OBJECT__59
10
-7.962000
20
26.372000
30
1.463000
70
192
0
VERTEX
8
OBJECT__59
10
-15.216000
20
24.500000
30
1.427000
70
192
0
VERTEX
8
OBJECT__59
10
-4.248000
20
27.068001
30
1.468000
70
192
0
VERTEX
8
OBJECT__59
10
-15.216000
20
-24.500000
30
1.427000
70
192
0
VERTEX
8
OBJECT__59
10
0
20
0
30
0
70
128
71
1
72
2
73
3
0
VERTEX
8
OBJECT__59
10
0
20
0
30
0
70
128
71
3
72
4
73
1
0
VERTEX
8
OBJECT__59
10
0
20
0
30
0
70
128
71
5
72
6
73
1
0
VERTEX
8
OBJECT__59
10
0
20
0
30
0
70
128
71
1
72
7
73
5
0
VERTEX
8
OBJECT__59
10
0
20
0
30
0
70
128
71
6
72
2
73
1
0
VERTEX
8
OBJECT__59
10
0
20
0
30
0
70
128
71
8
72
9
73
10
0
VERTEX
8
OBJECT__59
10
0
20
0
30
0
70
128
71
9
72
11
73
12
0
VERTEX
8
OBJECT__59
10
0
20
0
30
0
70
128
71
12
72
10
73
9
0
VERTEX
8
OBJECT__59
10
0
20
0
30
0
70
128
71
10
72
13
73
8
0
VERTEX
8
OBJECT__59
10
0
20
0
30
0
70
128
71
14
72
11
73
9
0
VERTEX
8
OBJECT__59
10
0
20
0
30
0
70
128
71
9
72
4
73
14
0
VERTEX
8
OBJECT__59
10
0
20
0
30
0
70
128
71
15
72
16
73
17
0
VERTEX
8
OBJECT__59
10
0
20
0
30
0
70
128
71
16
72
18
73
19
0
VERTEX
8
OBJECT__59
10
0
20
0
30
0
70
128
71
19
72
17
73
16
0
VERTEX
8
OBJECT__59
10
0
20
0
30
0
70
128
71
17
72
20
73
15
0
VERTEX
8
OBJECT__59
10
0
20
0
30
0
70
128
71
21
72
18
73
16
0
VERTEX
8
OBJECT__59
10
0
20
0
30
0
70
128
71
16
72
8
73
21
0
VERTEX
8
OBJECT__59
10
0
20
0
30
0
70
128
71
22
72
23
73
24
0
VERTEX
8
OBJECT__59
10
0
20
0
30
0
70
128
71
25
72
26
73
27
0
VERTEX
8
OBJECT__59
10
0
20
0
30
0
70
128
71
25
72
28
73
26
0
VERTEX
8
OBJECT__59
10
0
20
0
30
0
70
128
71
27
72
24
73
25
0
VERTEX
8
OBJECT__59
10
0
20
0
30
0
70
128
71
29
72
28
73
25
0
VERTEX
8
OBJECT__59
10
0
20
0
30
0
70
128
71
25
72
15
73
29
0
VERTEX
8
OBJECT__59
10
0
20
0
30
0
70
128
71
27
72
30
73
24
0
VERTEX
8
OBJECT__59
10
0
20
0
30
0
70
128
71
31
72
32
73
33
0
VERTEX
8
OBJECT__59
10
0
20
0
30
0
70
128
71
23
72
34
73
35
0
VERTEX
8
OBJECT__59
10
0
20
0
30
0
70
128
71
35
72
33
73
23
0
VERTEX
8
OBJECT__59
10
0
20
0
30
0
70
128
71
35
72
36
73
33
0
VERTEX
8
OBJECT__59
10
0
20
0
30
0
70
128
71
23
72
22
73
34
0
VERTEX
8
OBJECT__59
10
0
20
0
30
0
70
128
71
36
72
37
73
33
0
VERTEX
8
OBJECT__59
10
0
20
0
30
0
70
128
71
38
72
39
73
40
0
VERTEX
8
OBJECT__59
10
0
20
0
30
0
70
128
71
40
72
32
73
41
0
VERTEX
8
OBJECT__59
10
0
20
0
30
0
70
128
71
41
72
42
73
40
0
VERTEX
8
OBJECT__59
10
0
20
0
30
0
70
128
71
32
72
31
73
41
0
VERTEX
8
OBJECT__59
10
0
20
0
30
0
70
128
71
42
72
43
73
40
0
VERTEX
8
OBJECT__59
10
0
20
0
30
0
70
128
71
44
72
45
73
46
0
VERTEX
8
OBJECT__59
10
0
20
0
30
0
70
128
71
46
72
39
73
47
0
VERTEX
8
OBJECT__59
10
0
20
0
30
0
70
128
71
47
72
48
73
46
0
VERTEX
8
OBJECT__59
10
0
20
0
30
0
70
128
71
39
72
49
73
47
0
VERTEX
8
OBJECT__59
10
0
20
0
30
0
70
128
71
48
72
50
73
46
0
VERTEX
8
OBJECT__59
10
0
20
0
30
0
70
128
71
39
72
38
73
49
0
VERTEX
8
OBJECT__59
10
0
20
0
30
0
70
128
71
51
72
45
73
52
0
VERTEX
8
OBJECT__59
10
0
20
0
30
0
70
128
71
52
72
53
73
51
0
VERTEX
8
OBJECT__59
10
0
20
0
30
0
70
128
71
45
72
54
73
52
0
VERTEX
8
OBJECT__59
10
0
20
0
30
0
70
128
71
45
72
44
73
54
0
VERTEX
8
OBJECT__59
10
0
20
0
30
0
70
128
71
55
72
56
73
57
0
VERTEX
8
OBJECT__59
10
0
20
0
30
0
70
128
71
7
72
58
73
55
0
VERTEX
8
OBJECT__59
10
0
20
0
30
0
70
128
71
57
72
7
73
55
0
VERTEX
8
OBJECT__59
10
0
20
0
30
0
70
128
71
57
72
59
73
7
0
VERTEX
8
OBJECT__59
10
0
20
0
30
0
70
128
71
59
72
5
73
7
0
VERTEX
8
OBJECT__59
10
0
20
0
30
0
70
128
71
51
72
60
73
45
0
VERTEX
8
OBJECT__59
10
0
20
0
30
0
70
128
71
46
72
50
73
44
0
VERTEX
8
OBJECT__59
10
0
20
0
30
0
70
128
71
40
72
43
73
38
0
VERTEX
8
OBJECT__59
10
0
20
0
30
0
70
128
71
33
72
37
73
31
0
VERTEX
8
OBJECT__59
10
0
20
0
30
0
70
128
71
24
72
30
73
22
0
VERTEX
8
OBJECT__59
10
0
20
0
30
0
70
128
71
20
72
29
73
15
0
VERTEX
8
OBJECT__59
10
0
20
0
30
0
70
128
71
13
72
21
73
8
0
VERTEX
8
OBJECT__59
10
0
20
0
30
0
70
128
71
3
72
14
73
4
0
SEQEND
8
OBJECT__59
0
ENDSEC
0
EOF
