999
Converted by 3D Exploration 
999
XDimension Software, LLC
999
http://www.xdsoft.com/explorer/
0
SECTION
2
HEADER
9
$ACADVER
1
AC1008
9
$UCSORG
10
0.0
20
0.0
30
0.0
9
$UCSXDIR
10
1.0
20
0.0
30
0.0
9
$TILEMODE
70
1
9
$UCSYDIR
10
0.0
20
1.0
30
0.0
9
$EXTMIN
10
-35.000000
20
-35.000000
30
-35.000000
9
$EXTMAX
10
146.404999
20
45.404999
30
229.503006
0
ENDSEC
0
SECTION
2
TABLES
0
TABLE
2
LTYPE
70
1
0
LTYPE
2
CONTINUOUS
70
64
3
Solid line
72
65
73
0
40
0.0
0
ENDTAB
0
TABLE
2
LAYER
70
66
0
LAYER
2
OBJECT__0
70
0
62
253
6
CONTINUOUS
0
LAYER
2
OBJECT__2
70
0
62
253
6
CONTINUOUS
0
LAYER
2
OBJECT__3
70
0
62
253
6
CONTINUOUS
0
LAYER
2
OBJECT__5
70
0
62
253
6
CONTINUOUS
0
LAYER
2
OBJECT__6
70
0
62
253
6
CONTINUOUS
0
LAYER
2
OBJECT__7
70
0
62
253
6
CONTINUOUS
0
LAYER
2
OBJECT__8
70
0
62
253
6
CONTINUOUS
0
LAYER
2
OBJECT__9
70
0
62
253
6
CONTINUOUS
0
LAYER
2
OBJECT__10
70
0
62
253
6
CONTINUOUS
0
LAYER
2
OBJECT__11
70
0
62
253
6
CONTINUOUS
0
LAYER
2
OBJECT__12
70
0
62
253
6
CONTINUOUS
0
LAYER
2
OBJECT__13
70
0
62
253
6
CONTINUOUS
0
LAYER
2
OBJECT__14
70
0
62
253
6
CONTINUOUS
0
LAYER
2
OBJECT__15
70
0
62
253
6
CONTINUOUS
0
LAYER
2
OBJECT__16
70
0
62
253
6
CONTINUOUS
0
LAYER
2
OBJECT__17
70
0
62
253
6
CONTINUOUS
0
LAYER
2
OBJECT__18
70
0
62
253
6
CONTINUOUS
0
LAYER
2
OBJECT__20
70
0
62
253
6
CONTINUOUS
0
LAYER
2
OBJECT__21
70
0
62
253
6
CONTINUOUS
0
LAYER
2
OBJECT__22
70
0
62
253
6
CONTINUOUS
0
LAYER
2
OBJECT__23
70
0
62
253
6
CONTINUOUS
0
LAYER
2
OBJECT__24
70
0
62
253
6
CONTINUOUS
0
LAYER
2
OBJECT__25
70
0
62
253
6
CONTINUOUS
0
LAYER
2
OBJECT__26
70
0
62
253
6
CONTINUOUS
0
LAYER
2
OBJECT__27
70
0
62
253
6
CONTINUOUS
0
LAYER
2
OBJECT__28
70
0
62
253
6
CONTINUOUS
0
LAYER
2
OBJECT__29
70
0
62
253
6
CONTINUOUS
0
LAYER
2
OBJECT__30
70
0
62
253
6
CONTINUOUS
0
LAYER
2
OBJECT__31
70
0
62
253
6
CONTINUOUS
0
LAYER
2
OBJECT__32
70
0
62
253
6
CONTINUOUS
0
LAYER
2
OBJECT__33
70
0
62
253
6
CONTINUOUS
0
LAYER
2
OBJECT__35
70
0
62
253
6
CONTINUOUS
0
LAYER
2
OBJECT__36
70
0
62
253
6
CONTINUOUS
0
LAYER
2
OBJECT__37
70
0
62
253
6
CONTINUOUS
0
LAYER
2
OBJECT__38
70
0
62
253
6
CONTINUOUS
0
LAYER
2
OBJECT__39
70
0
62
253
6
CONTINUOUS
0
LAYER
2
OBJECT__40
70
0
62
253
6
CONTINUOUS
0
LAYER
2
OBJECT__42
70
0
62
253
6
CONTINUOUS
0
LAYER
2
OBJECT__43
70
0
62
253
6
CONTINUOUS
0
LAYER
2
OBJECT__44
70
0
62
253
6
CONTINUOUS
0
LAYER
2
OBJECT__45
70
0
62
253
6
CONTINUOUS
0
LAYER
2
OBJECT__46
70
0
62
253
6
CONTINUOUS
0
LAYER
2
OBJECT__47
70
0
62
253
6
CONTINUOUS
0
LAYER
2
OBJECT__48
70
0
62
253
6
CONTINUOUS
0
LAYER
2
OBJECT__49
70
0
62
253
6
CONTINUOUS
0
LAYER
2
OBJECT__50
70
0
62
253
6
CONTINUOUS
0
LAYER
2
OBJECT__52
70
0
62
253
6
CONTINUOUS
0
LAYER
2
OBJECT__53
70
0
62
253
6
CONTINUOUS
0
LAYER
2
OBJECT__55
70
0
62
253
6
CONTINUOUS
0
LAYER
2
OBJECT__56
70
0
62
253
6
CONTINUOUS
0
LAYER
2
OBJECT__57
70
0
62
253
6
CONTINUOUS
0
LAYER
2
OBJECT__58
70
0
62
253
6
CONTINUOUS
0
LAYER
2
OBJECT__59
70
0
62
253
6
CONTINUOUS
0
LAYER
2
OBJECT__60
70
0
62
253
6
CONTINUOUS
0
LAYER
2
OBJECT__61
70
0
62
253
6
CONTINUOUS
0
LAYER
2
OBJECT__62
70
0
62
253
6
CONTINUOUS
0
LAYER
2
OBJECT__63
70
0
62
253
6
CONTINUOUS
0
LAYER
2
OBJECT__64
70
0
62
253
6
CONTINUOUS
0
LAYER
2
OBJECT__65
70
0
62
253
6
CONTINUOUS
0
ENDTAB
0
TABLE
2
STYLE
70
1
0
STYLE
2
STANDARD
70
0
40
0.0
41
1.0
50
0.0
71
0
42
0.2
3
txt
4
1
0
ENDTAB
0
TABLE
2
UCS
70
0
0
ENDTAB
0
ENDSEC
0
SECTION
2
ENTITIES
0
POLYLINE
8
OBJECT__0
66
1
70
64
71
16
72
16
62
253
0
VERTEX
8
OBJECT__0
10
-4.500000
20
30.350000
30
36.000000
70
192
0
VERTEX
8
OBJECT__0
10
-7.500000
20
30.350000
30
41.195999
70
192
0
VERTEX
8
OBJECT__0
10
-5.412000
20
18.049999
30
39.180000
70
192
0
VERTEX
8
OBJECT__0
10
-7.500000
20
15.850000
30
41.195999
70
192
0
VERTEX
8
OBJECT__0
10
-5.412000
20
15.850000
30
39.180000
70
192
0
VERTEX
8
OBJECT__0
10
-4.500000
20
18.049999
30
36.000000
70
192
0
VERTEX
8
OBJECT__0
10
-7.500000
20
18.049999
30
30.804001
70
192
0
VERTEX
8
OBJECT__0
10
-7.500000
20
30.350000
30
30.804001
70
192
0
VERTEX
8
OBJECT__0
10
-13.500000
20
18.049999
30
30.804001
70
192
0
VERTEX
8
OBJECT__0
10
-13.500000
20
30.350000
30
30.804001
70
192
0
VERTEX
8
OBJECT__0
10
-16.500000
20
18.049999
30
36.000000
70
192
0
VERTEX
8
OBJECT__0
10
-16.500000
20
30.350000
30
36.000000
70
192
0
VERTEX
8
OBJECT__0
10
-13.500000
20
18.049999
30
41.195999
70
192
0
VERTEX
8
OBJECT__0
10
-9.000000
20
18.049999
30
41.808998
70
192
0
VERTEX
8
OBJECT__0
10
-13.500000
20
30.350000
30
41.195999
70
192
0
VERTEX
8
OBJECT__0
10
-9.000000
20
15.850000
30
41.808998
70
192
0
VERTEX
8
OBJECT__0
10
0
20
0
30
0
70
128
71
1
72
2
73
3
0
VERTEX
8
OBJECT__0
10
0
20
0
30
0
70
128
71
4
72
5
73
3
0
VERTEX
8
OBJECT__0
10
0
20
0
30
0
70
128
71
3
72
2
73
4
0
VERTEX
8
OBJECT__0
10
0
20
0
30
0
70
128
71
6
72
7
73
8
0
VERTEX
8
OBJECT__0
10
0
20
0
30
0
70
128
71
7
72
9
73
10
0
VERTEX
8
OBJECT__0
10
0
20
0
30
0
70
128
71
9
72
11
73
12
0
VERTEX
8
OBJECT__0
10
0
20
0
30
0
70
128
71
12
72
11
73
13
0
VERTEX
8
OBJECT__0
10
0
20
0
30
0
70
128
71
4
72
2
73
14
0
VERTEX
8
OBJECT__0
10
0
20
0
30
0
70
128
71
15
72
13
73
14
0
VERTEX
8
OBJECT__0
10
0
20
0
30
0
70
128
71
14
72
2
73
15
0
VERTEX
8
OBJECT__0
10
0
20
0
30
0
70
128
71
14
72
16
73
4
0
VERTEX
8
OBJECT__0
10
0
20
0
30
0
70
128
71
13
72
15
73
12
0
VERTEX
8
OBJECT__0
10
0
20
0
30
0
70
128
71
12
72
10
73
9
0
VERTEX
8
OBJECT__0
10
0
20
0
30
0
70
128
71
10
72
8
73
7
0
VERTEX
8
OBJECT__0
10
0
20
0
30
0
70
128
71
8
72
1
73
6
0
VERTEX
8
OBJECT__0
10
0
20
0
30
0
70
128
71
3
72
6
73
1
0
SEQEND
8
OBJECT__0
0
POLYLINE
8
OBJECT__2
66
1
70
64
71
18
72
18
62
253
0
VERTEX
8
OBJECT__2
10
-5.621000
20
-5.621000
30
144.500000
70
192
0
VERTEX
8
OBJECT__2
10
-3.536000
20
-6.036000
30
144.500000
70
192
0
VERTEX
8
OBJECT__2
10
-5.000000
20
-2.500000
30
144.500000
70
192
0
VERTEX
8
OBJECT__2
10
-5.621000
20
5.621000
30
144.500000
70
192
0
VERTEX
8
OBJECT__2
10
-7.950000
20
0.000000
30
144.500000
70
192
0
VERTEX
8
OBJECT__2
10
-5.000000
20
2.500000
30
144.500000
70
192
0
VERTEX
8
OBJECT__2
10
0.000000
20
7.950000
30
144.500000
70
192
0
VERTEX
8
OBJECT__2
10
-3.536000
20
6.036000
30
144.500000
70
192
0
VERTEX
8
OBJECT__2
10
0.000000
20
-7.950000
30
144.500000
70
192
0
VERTEX
8
OBJECT__2
10
0.000000
20
-7.500000
30
144.500000
70
192
0
VERTEX
8
OBJECT__2
10
0.000000
20
7.500000
30
144.500000
70
192
0
VERTEX
8
OBJECT__2
10
3.536000
20
6.036000
30
144.500000
70
192
0
VERTEX
8
OBJECT__2
10
5.621000
20
-5.621000
30
144.500000
70
192
0
VERTEX
8
OBJECT__2
10
3.536000
20
-6.036000
30
144.500000
70
192
0
VERTEX
8
OBJECT__2
10
7.950000
20
0.000000
30
144.500000
70
192
0
VERTEX
8
OBJECT__2
10
5.000000
20
-2.500000
30
144.500000
70
192
0
VERTEX
8
OBJECT__2
10
5.000000
20
2.500000
30
144.500000
70
192
0
VERTEX
8
OBJECT__2
10
5.621000
20
5.621000
30
144.500000
70
192
0
VERTEX
8
OBJECT__2
10
0
20
0
30
0
70
128
71
1
72
2
73
3
0
VERTEX
8
OBJECT__2
10
0
20
0
30
0
70
128
71
4
72
5
73
6
0
VERTEX
8
OBJECT__2
10
0
20
0
30
0
70
128
71
3
72
5
73
1
0
VERTEX
8
OBJECT__2
10
0
20
0
30
0
70
128
71
7
72
4
73
8
0
VERTEX
8
OBJECT__2
10
0
20
0
30
0
70
128
71
3
72
6
73
5
0
VERTEX
8
OBJECT__2
10
0
20
0
30
0
70
128
71
6
72
8
73
4
0
VERTEX
8
OBJECT__2
10
0
20
0
30
0
70
128
71
9
72
10
73
2
0
VERTEX
8
OBJECT__2
10
0
20
0
30
0
70
128
71
7
72
11
73
12
0
VERTEX
8
OBJECT__2
10
0
20
0
30
0
70
128
71
2
72
1
73
9
0
VERTEX
8
OBJECT__2
10
0
20
0
30
0
70
128
71
8
72
11
73
7
0
VERTEX
8
OBJECT__2
10
0
20
0
30
0
70
128
71
9
72
13
73
14
0
VERTEX
8
OBJECT__2
10
0
20
0
30
0
70
128
71
13
72
15
73
16
0
VERTEX
8
OBJECT__2
10
0
20
0
30
0
70
128
71
14
72
10
73
9
0
VERTEX
8
OBJECT__2
10
0
20
0
30
0
70
128
71
15
72
17
73
16
0
VERTEX
8
OBJECT__2
10
0
20
0
30
0
70
128
71
18
72
12
73
17
0
VERTEX
8
OBJECT__2
10
0
20
0
30
0
70
128
71
16
72
14
73
13
0
VERTEX
8
OBJECT__2
10
0
20
0
30
0
70
128
71
12
72
18
73
7
0
VERTEX
8
OBJECT__2
10
0
20
0
30
0
70
128
71
17
72
15
73
18
0
SEQEND
8
OBJECT__2
0
POLYLINE
8
OBJECT__3
66
1
70
64
71
56
72
56
62
253
0
VERTEX
8
OBJECT__3
10
5.621000
20
5.621000
30
144.500000
70
192
0
VERTEX
8
OBJECT__3
10
23.743999
20
9.851000
30
144.500000
70
192
0
VERTEX
8
OBJECT__3
10
23.608999
20
10.405000
30
144.500000
70
192
0
VERTEX
8
OBJECT__3
10
7.950000
20
0.000000
30
144.500000
70
192
0
VERTEX
8
OBJECT__3
10
24.941999
20
4.945000
30
144.500000
70
192
0
VERTEX
8
OBJECT__3
10
25.747000
20
1.648000
30
144.500000
70
192
0
VERTEX
8
OBJECT__3
10
21.089001
20
14.086000
30
144.500000
70
192
0
VERTEX
8
OBJECT__3
10
0.000000
20
7.950000
30
144.500000
70
192
0
VERTEX
8
OBJECT__3
10
4.935000
20
24.955000
30
144.500000
70
192
0
VERTEX
8
OBJECT__3
10
2.303000
20
25.697001
30
144.500000
70
192
0
VERTEX
8
OBJECT__3
10
9.802000
20
23.584000
30
144.500000
70
192
0
VERTEX
8
OBJECT__3
10
14.143000
20
21.187000
30
144.500000
70
192
0
VERTEX
8
OBJECT__3
10
11.452000
20
23.118999
30
144.500000
70
192
0
VERTEX
8
OBJECT__3
10
18.243000
20
18.243000
30
144.500000
70
192
0
VERTEX
8
OBJECT__3
10
0.031000
20
25.479000
30
144.500000
70
192
0
VERTEX
8
OBJECT__3
10
-5.621000
20
5.621000
30
144.500000
70
192
0
VERTEX
8
OBJECT__3
10
-14.225000
20
21.235001
30
144.500000
70
192
0
VERTEX
8
OBJECT__3
10
-15.620000
20
20.534000
30
144.500000
70
192
0
VERTEX
8
OBJECT__3
10
-5.004000
20
24.996000
30
144.500000
70
192
0
VERTEX
8
OBJECT__3
10
-7.147000
20
24.790001
30
144.500000
70
192
0
VERTEX
8
OBJECT__3
10
-9.707000
20
23.504999
30
144.500000
70
192
0
VERTEX
8
OBJECT__3
10
-18.190001
20
18.184999
30
144.500000
70
192
0
VERTEX
8
OBJECT__3
10
-7.950000
20
0.000000
30
144.500000
70
192
0
VERTEX
8
OBJECT__3
10
-23.749001
20
9.819000
30
144.500000
70
192
0
VERTEX
8
OBJECT__3
10
-24.056000
20
9.326000
30
144.500000
70
192
0
VERTEX
8
OBJECT__3
10
-21.089001
20
14.109000
30
144.500000
70
192
0
VERTEX
8
OBJECT__3
10
-24.874001
20
4.953000
30
144.500000
70
192
0
VERTEX
8
OBJECT__3
10
-19.046000
20
17.403999
30
144.500000
70
192
0
VERTEX
8
OBJECT__3
10
-25.799999
20
0.000000
30
144.500000
70
192
0
VERTEX
8
OBJECT__3
10
-5.621000
20
-5.621000
30
144.500000
70
192
0
VERTEX
8
OBJECT__3
10
-23.743999
20
-9.851000
30
144.500000
70
192
0
VERTEX
8
OBJECT__3
10
-23.608999
20
-10.405000
30
144.500000
70
192
0
VERTEX
8
OBJECT__3
10
-24.941999
20
-4.945000
30
144.500000
70
192
0
VERTEX
8
OBJECT__3
10
-21.089001
20
-14.086000
30
144.500000
70
192
0
VERTEX
8
OBJECT__3
10
-25.747000
20
-1.646000
30
144.500000
70
192
0
VERTEX
8
OBJECT__3
10
0.000000
20
-7.950000
30
144.500000
70
192
0
VERTEX
8
OBJECT__3
10
-4.935000
20
-24.955999
30
144.500000
70
192
0
VERTEX
8
OBJECT__3
10
-2.308000
20
-25.697001
30
144.500000
70
192
0
VERTEX
8
OBJECT__3
10
-9.802000
20
-23.583000
30
144.500000
70
192
0
VERTEX
8
OBJECT__3
10
-14.144000
20
-21.187000
30
144.500000
70
192
0
VERTEX
8
OBJECT__3
10
-11.457000
20
-23.117001
30
144.500000
70
192
0
VERTEX
8
OBJECT__3
10
-18.243000
20
-18.243000
30
144.500000
70
192
0
VERTEX
8
OBJECT__3
10
-0.031000
20
-25.478001
30
144.500000
70
192
0
VERTEX
8
OBJECT__3
10
5.621000
20
-5.621000
30
144.500000
70
192
0
VERTEX
8
OBJECT__3
10
14.225000
20
-21.236000
30
144.500000
70
192
0
VERTEX
8
OBJECT__3
10
15.615000
20
-20.538000
30
144.500000
70
192
0
VERTEX
8
OBJECT__3
10
9.707000
20
-23.504000
30
144.500000
70
192
0
VERTEX
8
OBJECT__3
10
5.004000
20
-24.996000
30
144.500000
70
192
0
VERTEX
8
OBJECT__3
10
7.142000
20
-24.792000
30
144.500000
70
192
0
VERTEX
8
OBJECT__3
10
23.749001
20
-9.819000
30
144.500000
70
192
0
VERTEX
8
OBJECT__3
10
24.056000
20
-9.325000
30
144.500000
70
192
0
VERTEX
8
OBJECT__3
10
24.874001
20
-4.953000
30
144.500000
70
192
0
VERTEX
8
OBJECT__3
10
18.190001
20
-18.184999
30
144.500000
70
192
0
VERTEX
8
OBJECT__3
10
19.047001
20
-17.402000
30
144.500000
70
192
0
VERTEX
8
OBJECT__3
10
21.089001
20
-14.109000
30
144.500000
70
192
0
VERTEX
8
OBJECT__3
10
25.799999
20
0.000000
30
144.500000
70
192
0
VERTEX
8
OBJECT__3
10
0
20
0
30
0
70
128
71
1
72
2
73
3
0
VERTEX
8
OBJECT__3
10
0
20
0
30
0
70
128
71
2
72
1
73
4
0
VERTEX
8
OBJECT__3
10
0
20
0
30
0
70
128
71
4
72
5
73
2
0
VERTEX
8
OBJECT__3
10
0
20
0
30
0
70
128
71
4
72
6
73
5
0
VERTEX
8
OBJECT__3
10
0
20
0
30
0
70
128
71
3
72
7
73
1
0
VERTEX
8
OBJECT__3
10
0
20
0
30
0
70
128
71
8
72
9
73
10
0
VERTEX
8
OBJECT__3
10
0
20
0
30
0
70
128
71
11
72
9
73
8
0
VERTEX
8
OBJECT__3
10
0
20
0
30
0
70
128
71
8
72
1
73
11
0
VERTEX
8
OBJECT__3
10
0
20
0
30
0
70
128
71
1
72
12
73
13
0
VERTEX
8
OBJECT__3
10
0
20
0
30
0
70
128
71
13
72
11
73
1
0
VERTEX
8
OBJECT__3
10
0
20
0
30
0
70
128
71
1
72
14
73
12
0
VERTEX
8
OBJECT__3
10
0
20
0
30
0
70
128
71
10
72
15
73
8
0
VERTEX
8
OBJECT__3
10
0
20
0
30
0
70
128
71
16
72
17
73
18
0
VERTEX
8
OBJECT__3
10
0
20
0
30
0
70
128
71
16
72
19
73
20
0
VERTEX
8
OBJECT__3
10
0
20
0
30
0
70
128
71
20
72
21
73
16
0
VERTEX
8
OBJECT__3
10
0
20
0
30
0
70
128
71
19
72
16
73
8
0
VERTEX
8
OBJECT__3
10
0
20
0
30
0
70
128
71
8
72
15
73
19
0
VERTEX
8
OBJECT__3
10
0
20
0
30
0
70
128
71
21
72
17
73
16
0
VERTEX
8
OBJECT__3
10
0
20
0
30
0
70
128
71
18
72
22
73
16
0
VERTEX
8
OBJECT__3
10
0
20
0
30
0
70
128
71
23
72
24
73
25
0
VERTEX
8
OBJECT__3
10
0
20
0
30
0
70
128
71
24
72
23
73
16
0
VERTEX
8
OBJECT__3
10
0
20
0
30
0
70
128
71
16
72
26
73
24
0
VERTEX
8
OBJECT__3
10
0
20
0
30
0
70
128
71
25
72
27
73
23
0
VERTEX
8
OBJECT__3
10
0
20
0
30
0
70
128
71
16
72
22
73
28
0
VERTEX
8
OBJECT__3
10
0
20
0
30
0
70
128
71
28
72
26
73
16
0
VERTEX
8
OBJECT__3
10
0
20
0
30
0
70
128
71
27
72
29
73
23
0
VERTEX
8
OBJECT__3
10
0
20
0
30
0
70
128
71
30
72
31
73
32
0
VERTEX
8
OBJECT__3
10
0
20
0
30
0
70
128
71
31
72
30
73
23
0
VERTEX
8
OBJECT__3
10
0
20
0
30
0
70
128
71
23
72
33
73
31
0
VERTEX
8
OBJECT__3
10
0
20
0
30
0
70
128
71
32
72
34
73
30
0
VERTEX
8
OBJECT__3
10
0
20
0
30
0
70
128
71
23
72
29
73
35
0
VERTEX
8
OBJECT__3
10
0
20
0
30
0
70
128
71
35
72
33
73
23
0
VERTEX
8
OBJECT__3
10
0
20
0
30
0
70
128
71
36
72
37
73
38
0
VERTEX
8
OBJECT__3
10
0
20
0
30
0
70
128
71
39
72
37
73
36
0
VERTEX
8
OBJECT__3
10
0
20
0
30
0
70
128
71
36
72
30
73
39
0
VERTEX
8
OBJECT__3
10
0
20
0
30
0
70
128
71
30
72
40
73
41
0
VERTEX
8
OBJECT__3
10
0
20
0
30
0
70
128
71
30
72
42
73
40
0
VERTEX
8
OBJECT__3
10
0
20
0
30
0
70
128
71
41
72
39
73
30
0
VERTEX
8
OBJECT__3
10
0
20
0
30
0
70
128
71
38
72
43
73
36
0
VERTEX
8
OBJECT__3
10
0
20
0
30
0
70
128
71
44
72
45
73
46
0
VERTEX
8
OBJECT__3
10
0
20
0
30
0
70
128
71
44
72
47
73
45
0
VERTEX
8
OBJECT__3
10
0
20
0
30
0
70
128
71
44
72
48
73
49
0
VERTEX
8
OBJECT__3
10
0
20
0
30
0
70
128
71
49
72
47
73
44
0
VERTEX
8
OBJECT__3
10
0
20
0
30
0
70
128
71
48
72
44
73
36
0
VERTEX
8
OBJECT__3
10
0
20
0
30
0
70
128
71
36
72
43
73
48
0
VERTEX
8
OBJECT__3
10
0
20
0
30
0
70
128
71
4
72
50
73
51
0
VERTEX
8
OBJECT__3
10
0
20
0
30
0
70
128
71
51
72
52
73
4
0
VERTEX
8
OBJECT__3
10
0
20
0
30
0
70
128
71
50
72
4
73
44
0
VERTEX
8
OBJECT__3
10
0
20
0
30
0
70
128
71
44
72
53
73
54
0
VERTEX
8
OBJECT__3
10
0
20
0
30
0
70
128
71
54
72
55
73
44
0
VERTEX
8
OBJECT__3
10
0
20
0
30
0
70
128
71
44
72
55
73
50
0
VERTEX
8
OBJECT__3
10
0
20
0
30
0
70
128
71
52
72
56
73
4
0
VERTEX
8
OBJECT__3
10
0
20
0
30
0
70
128
71
46
72
53
73
44
0
VERTEX
8
OBJECT__3
10
0
20
0
30
0
70
128
71
34
72
42
73
30
0
VERTEX
8
OBJECT__3
10
0
20
0
30
0
70
128
71
7
72
14
73
1
0
VERTEX
8
OBJECT__3
10
0
20
0
30
0
70
128
71
4
72
56
73
6
0
SEQEND
8
OBJECT__3
0
POLYLINE
8
OBJECT__5
66
1
70
64
71
50
72
48
62
253
0
VERTEX
8
OBJECT__5
10
-5.072000
20
-25.386000
30
144.300003
70
192
0
VERTEX
8
OBJECT__5
10
0.000000
20
-25.386000
30
144.300003
70
192
0
VERTEX
8
OBJECT__5
10
-2.308000
20
-25.697001
30
144.500000
70
192
0
VERTEX
8
OBJECT__5
10
-4.935000
20
-24.955999
30
144.500000
70
192
0
VERTEX
8
OBJECT__5
10
-0.031000
20
-25.478001
30
144.500000
70
192
0
VERTEX
8
OBJECT__5
10
25.799999
20
0.000000
30
144.500000
70
192
0
VERTEX
8
OBJECT__5
10
24.874001
20
-4.953000
30
144.500000
70
192
0
VERTEX
8
OBJECT__5
10
24.868999
20
-4.928000
30
144.300003
70
192
0
VERTEX
8
OBJECT__5
10
26.000000
20
0.000000
30
144.300003
70
192
0
VERTEX
8
OBJECT__5
10
25.941000
20
0.000000
30
144.440994
70
192
0
VERTEX
8
OBJECT__5
10
-21.089001
20
-14.086000
30
144.500000
70
192
0
VERTEX
8
OBJECT__5
10
-21.181000
20
-14.097000
30
144.300003
70
192
0
VERTEX
8
OBJECT__5
10
-18.007000
20
-18.084000
30
144.300003
70
192
0
VERTEX
8
OBJECT__5
10
-14.268000
20
-21.247999
30
144.300003
70
192
0
VERTEX
8
OBJECT__5
10
-9.674000
20
-23.445000
30
144.300003
70
192
0
VERTEX
8
OBJECT__5
10
-11.457000
20
-23.117001
30
144.500000
70
192
0
VERTEX
8
OBJECT__5
10
-14.144000
20
-21.187000
30
144.500000
70
192
0
VERTEX
8
OBJECT__5
10
-9.802000
20
-23.583000
30
144.500000
70
192
0
VERTEX
8
OBJECT__5
10
-5.618000
20
-25.386000
30
144.300003
70
192
0
VERTEX
8
OBJECT__5
10
-16.239000
20
-20.305000
30
144.300003
70
192
0
VERTEX
8
OBJECT__5
10
-18.243000
20
-18.243000
30
144.500000
70
192
0
VERTEX
8
OBJECT__5
10
-24.875999
20
-4.930000
30
144.300003
70
192
0
VERTEX
8
OBJECT__5
10
-23.745001
20
-9.887000
30
144.300003
70
192
0
VERTEX
8
OBJECT__5
10
-23.743999
20
-9.851000
30
144.500000
70
192
0
VERTEX
8
OBJECT__5
10
-23.430000
20
-11.272000
30
144.300003
70
192
0
VERTEX
8
OBJECT__5
10
-23.608999
20
-10.405000
30
144.500000
70
192
0
VERTEX
8
OBJECT__5
10
-25.747000
20
-1.646000
30
144.500000
70
192
0
VERTEX
8
OBJECT__5
10
-25.799999
20
0.000000
30
144.500000
70
192
0
VERTEX
8
OBJECT__5
10
-25.941000
20
0.000000
30
144.440994
70
192
0
VERTEX
8
OBJECT__5
10
-24.941999
20
-4.945000
30
144.500000
70
192
0
VERTEX
8
OBJECT__5
10
-26.000000
20
0.000000
30
144.300003
70
192
0
VERTEX
8
OBJECT__5
10
14.272000
20
-21.257000
30
144.300003
70
192
0
VERTEX
8
OBJECT__5
10
16.198000
20
-20.337999
30
144.300003
70
192
0
VERTEX
8
OBJECT__5
10
15.615000
20
-20.538000
30
144.500000
70
192
0
VERTEX
8
OBJECT__5
10
18.004000
20
-18.080000
30
144.300003
70
192
0
VERTEX
8
OBJECT__5
10
18.190001
20
-18.184999
30
144.500000
70
192
0
VERTEX
8
OBJECT__5
10
21.089001
20
-14.109000
30
144.500000
70
192
0
VERTEX
8
OBJECT__5
10
21.187000
20
-14.100000
30
144.300003
70
192
0
VERTEX
8
OBJECT__5
10
23.398001
20
-11.336000
30
144.300003
70
192
0
VERTEX
8
OBJECT__5
10
23.749001
20
-9.819000
30
144.500000
70
192
0
VERTEX
8
OBJECT__5
10
24.056000
20
-9.325000
30
144.500000
70
192
0
VERTEX
8
OBJECT__5
10
23.732000
20
-9.883000
30
144.300003
70
192
0
VERTEX
8
OBJECT__5
10
19.047001
20
-17.402000
30
144.500000
70
192
0
VERTEX
8
OBJECT__5
10
5.618000
20
-25.386000
30
144.300003
70
192
0
VERTEX
8
OBJECT__5
10
9.677000
20
-23.448999
30
144.300003
70
192
0
VERTEX
8
OBJECT__5
10
7.142000
20
-24.792000
30
144.500000
70
192
0
VERTEX
8
OBJECT__5
10
5.072000
20
-25.386000
30
144.300003
70
192
0
VERTEX
8
OBJECT__5
10
5.004000
20
-24.996000
30
144.500000
70
192
0
VERTEX
8
OBJECT__5
10
9.707000
20
-23.504000
30
144.500000
70
192
0
VERTEX
8
OBJECT__5
10
14.225000
20
-21.236000
30
144.500000
70
192
0
VERTEX
8
OBJECT__5
10
0
20
0
30
0
70
128
71
1
72
2
73
3
0
VERTEX
8
OBJECT__5
10
0
20
0
30
0
70
128
71
3
72
4
73
1
0
VERTEX
8
OBJECT__5
10
0
20
0
30
0
70
128
71
2
72
5
73
3
0
VERTEX
8
OBJECT__5
10
0
20
0
30
0
70
128
71
6
72
7
73
8
0
VERTEX
8
OBJECT__5
10
0
20
0
30
0
70
128
71
8
72
9
73
10
0
VERTEX
8
OBJECT__5
10
0
20
0
30
0
70
128
71
11
72
12
73
13
0
VERTEX
8
OBJECT__5
10
0
20
0
30
0
70
128
71
14
72
15
73
16
0
VERTEX
8
OBJECT__5
10
0
20
0
30
0
70
128
71
16
72
17
73
14
0
VERTEX
8
OBJECT__5
10
0
20
0
30
0
70
128
71
18
72
15
73
19
0
VERTEX
8
OBJECT__5
10
0
20
0
30
0
70
128
71
19
72
4
73
18
0
VERTEX
8
OBJECT__5
10
0
20
0
30
0
70
128
71
20
72
17
73
21
0
VERTEX
8
OBJECT__5
10
0
20
0
30
0
70
128
71
21
72
13
73
20
0
VERTEX
8
OBJECT__5
10
0
20
0
30
0
70
128
71
20
72
14
73
17
0
VERTEX
8
OBJECT__5
10
0
20
0
30
0
70
128
71
22
72
23
73
24
0
VERTEX
8
OBJECT__5
10
0
20
0
30
0
70
128
71
23
72
25
73
26
0
VERTEX
8
OBJECT__5
10
0
20
0
30
0
70
128
71
11
72
26
73
25
0
VERTEX
8
OBJECT__5
10
0
20
0
30
0
70
128
71
25
72
12
73
11
0
VERTEX
8
OBJECT__5
10
0
20
0
30
0
70
128
71
27
72
28
73
29
0
VERTEX
8
OBJECT__5
10
0
20
0
30
0
70
128
71
22
72
30
73
27
0
VERTEX
8
OBJECT__5
10
0
20
0
30
0
70
128
71
27
72
31
73
22
0
VERTEX
8
OBJECT__5
10
0
20
0
30
0
70
128
71
32
72
33
73
34
0
VERTEX
8
OBJECT__5
10
0
20
0
30
0
70
128
71
33
72
35
73
36
0
VERTEX
8
OBJECT__5
10
0
20
0
30
0
70
128
71
36
72
34
73
33
0
VERTEX
8
OBJECT__5
10
0
20
0
30
0
70
128
71
37
72
38
73
39
0
VERTEX
8
OBJECT__5
10
0
20
0
30
0
70
128
71
39
72
40
73
37
0
VERTEX
8
OBJECT__5
10
0
20
0
30
0
70
128
71
8
72
7
73
41
0
VERTEX
8
OBJECT__5
10
0
20
0
30
0
70
128
71
41
72
42
73
8
0
VERTEX
8
OBJECT__5
10
0
20
0
30
0
70
128
71
35
72
37
73
43
0
VERTEX
8
OBJECT__5
10
0
20
0
30
0
70
128
71
43
72
36
73
35
0
VERTEX
8
OBJECT__5
10
0
20
0
30
0
70
128
71
44
72
45
73
46
0
VERTEX
8
OBJECT__5
10
0
20
0
30
0
70
128
71
46
72
47
73
44
0
VERTEX
8
OBJECT__5
10
0
20
0
30
0
70
128
71
46
72
48
73
47
0
VERTEX
8
OBJECT__5
10
0
20
0
30
0
70
128
71
45
72
49
73
46
0
VERTEX
8
OBJECT__5
10
0
20
0
30
0
70
128
71
45
72
32
73
50
0
VERTEX
8
OBJECT__5
10
0
20
0
30
0
70
128
71
48
72
5
73
2
0
VERTEX
8
OBJECT__5
10
0
20
0
30
0
70
128
71
2
72
47
73
48
0
VERTEX
8
OBJECT__5
10
0
20
0
30
0
70
128
71
50
72
49
73
45
0
VERTEX
8
OBJECT__5
10
0
20
0
30
0
70
128
71
35
72
38
73
37
0
VERTEX
8
OBJECT__5
10
0
20
0
30
0
70
128
71
41
72
40
73
42
0
VERTEX
8
OBJECT__5
10
0
20
0
30
0
70
128
71
39
72
42
73
40
0
VERTEX
8
OBJECT__5
10
0
20
0
30
0
70
128
71
34
72
50
73
32
0
VERTEX
8
OBJECT__5
10
0
20
0
30
0
70
128
71
29
72
31
73
27
0
VERTEX
8
OBJECT__5
10
0
20
0
30
0
70
128
71
26
72
24
73
23
0
VERTEX
8
OBJECT__5
10
0
20
0
30
0
70
128
71
24
72
30
73
22
0
VERTEX
8
OBJECT__5
10
0
20
0
30
0
70
128
71
19
72
1
73
4
0
VERTEX
8
OBJECT__5
10
0
20
0
30
0
70
128
71
15
72
18
73
16
0
VERTEX
8
OBJECT__5
10
0
20
0
30
0
70
128
71
13
72
21
73
11
0
VERTEX
8
OBJECT__5
10
0
20
0
30
0
70
128
71
8
72
10
73
6
0
SEQEND
8
OBJECT__5
0
POLYLINE
8
OBJECT__6
66
1
70
64
71
52
72
50
62
253
0
VERTEX
8
OBJECT__6
10
5.072000
20
25.402000
30
144.300003
70
192
0
VERTEX
8
OBJECT__6
10
0.000000
20
25.402000
30
144.300003
70
192
0
VERTEX
8
OBJECT__6
10
2.303000
20
25.697001
30
144.500000
70
192
0
VERTEX
8
OBJECT__6
10
4.935000
20
24.955000
30
144.500000
70
192
0
VERTEX
8
OBJECT__6
10
0.031000
20
25.479000
30
144.500000
70
192
0
VERTEX
8
OBJECT__6
10
-24.874001
20
4.953000
30
144.500000
70
192
0
VERTEX
8
OBJECT__6
10
-25.011999
20
4.943000
30
144.300003
70
192
0
VERTEX
8
OBJECT__6
10
-25.966000
20
1.337000
30
144.300003
70
192
0
VERTEX
8
OBJECT__6
10
-25.799999
20
0.000000
30
144.500000
70
192
0
VERTEX
8
OBJECT__6
10
-26.000000
20
0.000000
30
144.300003
70
192
0
VERTEX
8
OBJECT__6
10
-25.941000
20
0.000000
30
144.440994
70
192
0
VERTEX
8
OBJECT__6
10
21.089001
20
14.086000
30
144.500000
70
192
0
VERTEX
8
OBJECT__6
10
21.263000
20
14.140000
30
144.300003
70
192
0
VERTEX
8
OBJECT__6
10
17.943001
20
18.004999
30
144.300003
70
192
0
VERTEX
8
OBJECT__6
10
18.243000
20
18.243000
30
144.500000
70
192
0
VERTEX
8
OBJECT__6
10
14.352000
20
21.412001
30
144.300003
70
192
0
VERTEX
8
OBJECT__6
10
9.719000
20
23.511000
30
144.300003
70
192
0
VERTEX
8
OBJECT__6
10
11.452000
20
23.118999
30
144.500000
70
192
0
VERTEX
8
OBJECT__6
10
14.143000
20
21.187000
30
144.500000
70
192
0
VERTEX
8
OBJECT__6
10
9.802000
20
23.584000
30
144.500000
70
192
0
VERTEX
8
OBJECT__6
10
5.545000
20
25.402000
30
144.300003
70
192
0
VERTEX
8
OBJECT__6
10
15.439000
20
20.920000
30
144.300003
70
192
0
VERTEX
8
OBJECT__6
10
25.023001
20
4.938000
30
144.300003
70
192
0
VERTEX
8
OBJECT__6
10
23.645000
20
9.844000
30
144.300003
70
192
0
VERTEX
8
OBJECT__6
10
23.743999
20
9.851000
30
144.500000
70
192
0
VERTEX
8
OBJECT__6
10
23.608999
20
10.405000
30
144.500000
70
192
0
VERTEX
8
OBJECT__6
10
23.010000
20
12.105000
30
144.300003
70
192
0
VERTEX
8
OBJECT__6
10
25.747000
20
1.648000
30
144.500000
70
192
0
VERTEX
8
OBJECT__6
10
25.799999
20
0.000000
30
144.500000
70
192
0
VERTEX
8
OBJECT__6
10
25.941000
20
0.000000
30
144.440994
70
192
0
VERTEX
8
OBJECT__6
10
25.948000
20
1.642000
30
144.300003
70
192
0
VERTEX
8
OBJECT__6
10
24.941999
20
4.945000
30
144.500000
70
192
0
VERTEX
8
OBJECT__6
10
-14.312000
20
21.332001
30
144.300003
70
192
0
VERTEX
8
OBJECT__6
10
-15.823000
20
20.631001
30
144.300003
70
192
0
VERTEX
8
OBJECT__6
10
-15.620000
20
20.534000
30
144.500000
70
192
0
VERTEX
8
OBJECT__6
10
-17.966999
20
18.039000
30
144.300003
70
192
0
VERTEX
8
OBJECT__6
10
-18.190001
20
18.184999
30
144.500000
70
192
0
VERTEX
8
OBJECT__6
10
-21.089001
20
14.109000
30
144.500000
70
192
0
VERTEX
8
OBJECT__6
10
-21.216000
20
14.112000
30
144.300003
70
192
0
VERTEX
8
OBJECT__6
10
-23.230000
20
11.678000
30
144.300003
70
192
0
VERTEX
8
OBJECT__6
10
-23.749001
20
9.819000
30
144.500000
70
192
0
VERTEX
8
OBJECT__6
10
-24.056000
20
9.326000
30
144.500000
70
192
0
VERTEX
8
OBJECT__6
10
-23.709000
20
9.867000
30
144.300003
70
192
0
VERTEX
8
OBJECT__6
10
-19.046000
20
17.403999
30
144.500000
70
192
0
VERTEX
8
OBJECT__6
10
-5.545000
20
25.402000
30
144.300003
70
192
0
VERTEX
8
OBJECT__6
10
-9.696000
20
23.475000
30
144.300003
70
192
0
VERTEX
8
OBJECT__6
10
-7.147000
20
24.790001
30
144.500000
70
192
0
VERTEX
8
OBJECT__6
10
-5.072000
20
25.402000
30
144.300003
70
192
0
VERTEX
8
OBJECT__6
10
-5.004000
20
24.996000
30
144.500000
70
192
0
VERTEX
8
OBJECT__6
10
-9.707000
20
23.504999
30
144.500000
70
192
0
VERTEX
8
OBJECT__6
10
-14.225000
20
21.235001
30
144.500000
70
192
0
VERTEX
8
OBJECT__6
10
26.000000
20
0.000000
30
144.300003
70
192
0
VERTEX
8
OBJECT__6
10
0
20
0
30
0
70
128
71
1
72
2
73
3
0
VERTEX
8
OBJECT__6
10
0
20
0
30
0
70
128
71
3
72
4
73
1
0
VERTEX
8
OBJECT__6
10
0
20
0
30
0
70
128
71
2
72
5
73
3
0
VERTEX
8
OBJECT__6
10
0
20
0
30
0
70
128
71
6
72
7
73
8
0
VERTEX
8
OBJECT__6
10
0
20
0
30
0
70
128
71
8
72
9
73
6
0
VERTEX
8
OBJECT__6
10
0
20
0
30
0
70
128
71
8
72
10
73
11
0
VERTEX
8
OBJECT__6
10
0
20
0
30
0
70
128
71
12
72
13
73
14
0
VERTEX
8
OBJECT__6
10
0
20
0
30
0
70
128
71
14
72
15
73
12
0
VERTEX
8
OBJECT__6
10
0
20
0
30
0
70
128
71
16
72
17
73
18
0
VERTEX
8
OBJECT__6
10
0
20
0
30
0
70
128
71
18
72
19
73
16
0
VERTEX
8
OBJECT__6
10
0
20
0
30
0
70
128
71
17
72
20
73
18
0
VERTEX
8
OBJECT__6
10
0
20
0
30
0
70
128
71
4
72
20
73
17
0
VERTEX
8
OBJECT__6
10
0
20
0
30
0
70
128
71
17
72
21
73
4
0
VERTEX
8
OBJECT__6
10
0
20
0
30
0
70
128
71
22
72
19
73
15
0
VERTEX
8
OBJECT__6
10
0
20
0
30
0
70
128
71
15
72
14
73
22
0
VERTEX
8
OBJECT__6
10
0
20
0
30
0
70
128
71
23
72
24
73
25
0
VERTEX
8
OBJECT__6
10
0
20
0
30
0
70
128
71
26
72
24
73
27
0
VERTEX
8
OBJECT__6
10
0
20
0
30
0
70
128
71
27
72
13
73
26
0
VERTEX
8
OBJECT__6
10
0
20
0
30
0
70
128
71
26
72
25
73
24
0
VERTEX
8
OBJECT__6
10
0
20
0
30
0
70
128
71
13
72
12
73
26
0
VERTEX
8
OBJECT__6
10
0
20
0
30
0
70
128
71
28
72
29
73
30
0
VERTEX
8
OBJECT__6
10
0
20
0
30
0
70
128
71
30
72
31
73
28
0
VERTEX
8
OBJECT__6
10
0
20
0
30
0
70
128
71
23
72
32
73
28
0
VERTEX
8
OBJECT__6
10
0
20
0
30
0
70
128
71
28
72
31
73
23
0
VERTEX
8
OBJECT__6
10
0
20
0
30
0
70
128
71
33
72
34
73
35
0
VERTEX
8
OBJECT__6
10
0
20
0
30
0
70
128
71
34
72
36
73
37
0
VERTEX
8
OBJECT__6
10
0
20
0
30
0
70
128
71
37
72
35
73
34
0
VERTEX
8
OBJECT__6
10
0
20
0
30
0
70
128
71
38
72
39
73
40
0
VERTEX
8
OBJECT__6
10
0
20
0
30
0
70
128
71
40
72
41
73
38
0
VERTEX
8
OBJECT__6
10
0
20
0
30
0
70
128
71
7
72
6
73
42
0
VERTEX
8
OBJECT__6
10
0
20
0
30
0
70
128
71
42
72
43
73
7
0
VERTEX
8
OBJECT__6
10
0
20
0
30
0
70
128
71
39
72
38
73
44
0
VERTEX
8
OBJECT__6
10
0
20
0
30
0
70
128
71
44
72
36
73
39
0
VERTEX
8
OBJECT__6
10
0
20
0
30
0
70
128
71
44
72
37
73
36
0
VERTEX
8
OBJECT__6
10
0
20
0
30
0
70
128
71
45
72
46
73
47
0
VERTEX
8
OBJECT__6
10
0
20
0
30
0
70
128
71
47
72
48
73
45
0
VERTEX
8
OBJECT__6
10
0
20
0
30
0
70
128
71
47
72
49
73
48
0
VERTEX
8
OBJECT__6
10
0
20
0
30
0
70
128
71
46
72
50
73
47
0
VERTEX
8
OBJECT__6
10
0
20
0
30
0
70
128
71
46
72
33
73
51
0
VERTEX
8
OBJECT__6
10
0
20
0
30
0
70
128
71
49
72
5
73
2
0
VERTEX
8
OBJECT__6
10
0
20
0
30
0
70
128
71
2
72
48
73
49
0
VERTEX
8
OBJECT__6
10
0
20
0
30
0
70
128
71
51
72
50
73
46
0
VERTEX
8
OBJECT__6
10
0
20
0
30
0
70
128
71
42
72
41
73
43
0
VERTEX
8
OBJECT__6
10
0
20
0
30
0
70
128
71
40
72
43
73
41
0
VERTEX
8
OBJECT__6
10
0
20
0
30
0
70
128
71
35
72
51
73
33
0
VERTEX
8
OBJECT__6
10
0
20
0
30
0
70
128
71
30
72
52
73
31
0
VERTEX
8
OBJECT__6
10
0
20
0
30
0
70
128
71
25
72
32
73
23
0
VERTEX
8
OBJECT__6
10
0
20
0
30
0
70
128
71
22
72
16
73
19
0
VERTEX
8
OBJECT__6
10
0
20
0
30
0
70
128
71
21
72
1
73
4
0
VERTEX
8
OBJECT__6
10
0
20
0
30
0
70
128
71
8
72
11
73
9
0
SEQEND
8
OBJECT__6
0
POLYLINE
8
OBJECT__7
66
1
70
64
71
83
72
81
62
253
0
VERTEX
8
OBJECT__7
10
-5.545000
20
25.402000
30
44.200001
70
192
0
VERTEX
8
OBJECT__7
10
-9.696000
20
23.475000
30
44.200001
70
192
0
VERTEX
8
OBJECT__7
10
-9.696000
20
23.475000
30
144.300003
70
192
0
VERTEX
8
OBJECT__7
10
-15.823000
20
20.631001
30
144.300003
70
192
0
VERTEX
8
OBJECT__7
10
-14.312000
20
21.332001
30
144.300003
70
192
0
VERTEX
8
OBJECT__7
10
-14.312000
20
21.332001
30
44.200001
70
192
0
VERTEX
8
OBJECT__7
10
-15.823000
20
20.631001
30
44.200001
70
192
0
VERTEX
8
OBJECT__7
10
0.000000
20
25.402000
30
44.200001
70
192
0
VERTEX
8
OBJECT__7
10
-5.072000
20
25.402000
30
44.200001
70
192
0
VERTEX
8
OBJECT__7
10
-5.072000
20
25.402000
30
144.300003
70
192
0
VERTEX
8
OBJECT__7
10
0.000000
20
25.402000
30
144.300003
70
192
0
VERTEX
8
OBJECT__7
10
5.072000
20
25.402000
30
144.300003
70
192
0
VERTEX
8
OBJECT__7
10
5.072000
20
25.402000
30
44.200001
70
192
0
VERTEX
8
OBJECT__7
10
5.545000
20
25.402000
30
44.200001
70
192
0
VERTEX
8
OBJECT__7
10
5.545000
20
25.402000
30
144.300003
70
192
0
VERTEX
8
OBJECT__7
10
-5.545000
20
25.402000
30
144.300003
70
192
0
VERTEX
8
OBJECT__7
10
9.719000
20
23.511000
30
144.300003
70
192
0
VERTEX
8
OBJECT__7
10
14.352000
20
21.412001
30
144.300003
70
192
0
VERTEX
8
OBJECT__7
10
14.352000
20
21.412001
30
44.200001
70
192
0
VERTEX
8
OBJECT__7
10
9.719000
20
23.511000
30
44.200001
70
192
0
VERTEX
8
OBJECT__7
10
15.439000
20
20.920000
30
44.200001
70
192
0
VERTEX
8
OBJECT__7
10
15.439000
20
20.920000
30
144.300003
70
192
0
VERTEX
8
OBJECT__7
10
23.010000
20
12.105000
30
44.200001
70
192
0
VERTEX
8
OBJECT__7
10
21.263000
20
14.140000
30
44.200001
70
192
0
VERTEX
8
OBJECT__7
10
21.263000
20
14.140000
30
144.300003
70
192
0
VERTEX
8
OBJECT__7
10
17.943001
20
18.004999
30
144.300003
70
192
0
VERTEX
8
OBJECT__7
10
17.943001
20
18.004999
30
44.200001
70
192
0
VERTEX
8
OBJECT__7
10
23.010000
20
12.105000
30
144.300003
70
192
0
VERTEX
8
OBJECT__7
10
23.645000
20
9.844000
30
144.300003
70
192
0
VERTEX
8
OBJECT__7
10
23.645000
20
9.844000
30
44.200001
70
192
0
VERTEX
8
OBJECT__7
10
25.023001
20
4.938000
30
144.300003
70
192
0
VERTEX
8
OBJECT__7
10
25.023001
20
4.938000
30
44.200001
70
192
0
VERTEX
8
OBJECT__7
10
25.948000
20
1.642000
30
44.200001
70
192
0
VERTEX
8
OBJECT__7
10
25.948000
20
1.642000
30
144.300003
70
192
0
VERTEX
8
OBJECT__7
10
26.000000
20
0.000000
30
144.300003
70
192
0
VERTEX
8
OBJECT__7
10
26.000000
20
0.000000
30
44.200001
70
192
0
VERTEX
8
OBJECT__7
10
-23.230000
20
11.678000
30
44.200001
70
192
0
VERTEX
8
OBJECT__7
10
-24.695999
20
8.129000
30
69.436996
70
192
0
VERTEX
8
OBJECT__7
10
-24.038000
20
9.793000
30
71.026001
70
192
0
VERTEX
8
OBJECT__7
10
-25.584999
20
4.631000
30
67.630997
70
192
0
VERTEX
8
OBJECT__7
10
-25.399000
20
5.360000
30
68.008003
70
192
0
VERTEX
8
OBJECT__7
10
-25.011999
20
4.943000
30
44.200001
70
192
0
VERTEX
8
OBJECT__7
10
-25.966000
20
1.337000
30
44.200001
70
192
0
VERTEX
8
OBJECT__7
10
-25.934000
20
1.334000
30
66.973000
70
192
0
VERTEX
8
OBJECT__7
10
-23.709000
20
9.867000
30
44.200001
70
192
0
VERTEX
8
OBJECT__7
10
-23.565001
20
10.986000
30
72.167000
70
192
0
VERTEX
8
OBJECT__7
10
-22.583000
20
12.866000
30
130.837997
70
192
0
VERTEX
8
OBJECT__7
10
-21.216000
20
14.112000
30
144.300003
70
192
0
VERTEX
8
OBJECT__7
10
-17.966999
20
18.039000
30
144.300003
70
192
0
VERTEX
8
OBJECT__7
10
-23.212999
20
11.671000
30
133.022003
70
192
0
VERTEX
8
OBJECT__7
10
-23.230000
20
11.678000
30
144.300003
70
192
0
VERTEX
8
OBJECT__7
10
-22.466000
20
13.088000
30
130.432007
70
192
0
VERTEX
8
OBJECT__7
10
-21.907000
20
14.003000
30
118.887001
70
192
0
VERTEX
8
OBJECT__7
10
-21.945000
20
13.944000
30
125.431999
70
192
0
VERTEX
8
OBJECT__7
10
-21.907000
20
14.003000
30
92.591003
70
192
0
VERTEX
8
OBJECT__7
10
-21.907000
20
14.003000
30
103.000000
70
192
0
VERTEX
8
OBJECT__7
10
-21.907000
20
14.003000
30
84.646004
70
192
0
VERTEX
8
OBJECT__7
10
-21.969999
20
13.904000
30
79.307999
70
192
0
VERTEX
8
OBJECT__7
10
-21.952999
20
13.931000
30
80.765999
70
192
0
VERTEX
8
OBJECT__7
10
-21.952999
20
13.931000
30
126.795998
70
192
0
VERTEX
8
OBJECT__7
10
-22.537001
20
12.965000
30
75.601997
70
192
0
VERTEX
8
OBJECT__7
10
-21.216000
20
14.112000
30
44.200001
70
192
0
VERTEX
8
OBJECT__7
10
-23.209999
20
11.670000
30
73.352997
70
192
0
VERTEX
8
OBJECT__7
10
-22.599001
20
12.846000
30
75.393997
70
192
0
VERTEX
8
OBJECT__7
10
-17.966999
20
18.039000
30
44.200001
70
192
0
VERTEX
8
OBJECT__7
10
-25.011999
20
4.943000
30
144.300003
70
192
0
VERTEX
8
OBJECT__7
10
-25.632000
20
4.358000
30
138.811005
70
192
0
VERTEX
8
OBJECT__7
10
-25.920000
20
1.333000
30
139.350998
70
192
0
VERTEX
8
OBJECT__7
10
-23.709000
20
9.867000
30
144.300003
70
192
0
VERTEX
8
OBJECT__7
10
-25.386999
20
5.387000
30
138.319000
70
192
0
VERTEX
8
OBJECT__7
10
-24.843000
20
7.668000
30
137.227997
70
192
0
VERTEX
8
OBJECT__7
10
-23.483999
20
11.158000
30
133.959000
70
192
0
VERTEX
8
OBJECT__7
10
-24.028999
20
9.906000
30
135.358994
70
192
0
VERTEX
8
OBJECT__7
10
-24.171000
20
9.580000
30
135.723999
70
192
0
VERTEX
8
OBJECT__7
10
-26.000000
20
0.007000
30
139.500000
70
192
0
VERTEX
8
OBJECT__7
10
-26.000000
20
0.000000
30
139.500000
70
192
0
VERTEX
8
OBJECT__7
10
-26.000000
20
0.000000
30
141.899994
70
192
0
VERTEX
8
OBJECT__7
10
-26.000000
20
0.000000
30
144.300003
70
192
0
VERTEX
8
OBJECT__7
10
-25.966000
20
1.337000
30
144.300003
70
192
0
VERTEX
8
OBJECT__7
10
-25.993999
20
0.556000
30
139.488998
70
192
0
VERTEX
8
OBJECT__7
10
-26.000000
20
0.000000
30
44.200001
70
192
0
VERTEX
8
OBJECT__7
10
-26.000000
20
0.000000
30
66.849998
70
192
0
VERTEX
8
OBJECT__7
10
-25.986000
20
0.846000
30
66.875000
70
192
0
VERTEX
8
OBJECT__7
10
0
20
0
30
0
70
128
71
1
72
2
73
3
0
VERTEX
8
OBJECT__7
10
0
20
0
30
0
70
128
71
4
72
5
73
6
0
VERTEX
8
OBJECT__7
10
0
20
0
30
0
70
128
71
5
72
3
73
2
0
VERTEX
8
OBJECT__7
10
0
20
0
30
0
70
128
71
2
72
6
73
5
0
VERTEX
8
OBJECT__7
10
0
20
0
30
0
70
128
71
6
72
7
73
4
0
VERTEX
8
OBJECT__7
10
0
20
0
30
0
70
128
71
8
72
9
73
10
0
VERTEX
8
OBJECT__7
10
0
20
0
30
0
70
128
71
11
72
12
73
13
0
VERTEX
8
OBJECT__7
10
0
20
0
30
0
70
128
71
13
72
8
73
11
0
VERTEX
8
OBJECT__7
10
0
20
0
30
0
70
128
71
14
72
13
73
12
0
VERTEX
8
OBJECT__7
10
0
20
0
30
0
70
128
71
12
72
15
73
14
0
VERTEX
8
OBJECT__7
10
0
20
0
30
0
70
128
71
16
72
10
73
9
0
VERTEX
8
OBJECT__7
10
0
20
0
30
0
70
128
71
9
72
1
73
16
0
VERTEX
8
OBJECT__7
10
0
20
0
30
0
70
128
71
17
72
18
73
19
0
VERTEX
8
OBJECT__7
10
0
20
0
30
0
70
128
71
15
72
17
73
20
0
VERTEX
8
OBJECT__7
10
0
20
0
30
0
70
128
71
20
72
14
73
15
0
VERTEX
8
OBJECT__7
10
0
20
0
30
0
70
128
71
21
72
19
73
18
0
VERTEX
8
OBJECT__7
10
0
20
0
30
0
70
128
71
18
72
22
73
21
0
VERTEX
8
OBJECT__7
10
0
20
0
30
0
70
128
71
23
72
24
73
25
0
VERTEX
8
OBJECT__7
10
0
20
0
30
0
70
128
71
26
72
25
73
24
0
VERTEX
8
OBJECT__7
10
0
20
0
30
0
70
128
71
24
72
27
73
26
0
VERTEX
8
OBJECT__7
10
0
20
0
30
0
70
128
71
22
72
26
73
27
0
VERTEX
8
OBJECT__7
10
0
20
0
30
0
70
128
71
27
72
21
73
22
0
VERTEX
8
OBJECT__7
10
0
20
0
30
0
70
128
71
28
72
29
73
30
0
VERTEX
8
OBJECT__7
10
0
20
0
30
0
70
128
71
29
72
31
73
32
0
VERTEX
8
OBJECT__7
10
0
20
0
30
0
70
128
71
32
72
30
73
29
0
VERTEX
8
OBJECT__7
10
0
20
0
30
0
70
128
71
33
72
32
73
31
0
VERTEX
8
OBJECT__7
10
0
20
0
30
0
70
128
71
31
72
34
73
33
0
VERTEX
8
OBJECT__7
10
0
20
0
30
0
70
128
71
34
72
35
73
36
0
VERTEX
8
OBJECT__7
10
0
20
0
30
0
70
128
71
37
72
38
73
39
0
VERTEX
8
OBJECT__7
10
0
20
0
30
0
70
128
71
37
72
40
73
41
0
VERTEX
8
OBJECT__7
10
0
20
0
30
0
70
128
71
41
72
38
73
37
0
VERTEX
8
OBJECT__7
10
0
20
0
30
0
70
128
71
42
72
43
73
44
0
VERTEX
8
OBJECT__7
10
0
20
0
30
0
70
128
71
40
72
45
73
42
0
VERTEX
8
OBJECT__7
10
0
20
0
30
0
70
128
71
40
72
37
73
45
0
VERTEX
8
OBJECT__7
10
0
20
0
30
0
70
128
71
44
72
40
73
42
0
VERTEX
8
OBJECT__7
10
0
20
0
30
0
70
128
71
39
72
46
73
37
0
VERTEX
8
OBJECT__7
10
0
20
0
30
0
70
128
71
47
72
48
73
49
0
VERTEX
8
OBJECT__7
10
0
20
0
30
0
70
128
71
48
72
47
73
50
0
VERTEX
8
OBJECT__7
10
0
20
0
30
0
70
128
71
50
72
51
73
48
0
VERTEX
8
OBJECT__7
10
0
20
0
30
0
70
128
71
4
72
52
73
47
0
VERTEX
8
OBJECT__7
10
0
20
0
30
0
70
128
71
4
72
53
73
54
0
VERTEX
8
OBJECT__7
10
0
20
0
30
0
70
128
71
4
72
7
73
55
0
VERTEX
8
OBJECT__7
10
0
20
0
30
0
70
128
71
55
72
56
73
4
0
VERTEX
8
OBJECT__7
10
0
20
0
30
0
70
128
71
7
72
57
73
55
0
VERTEX
8
OBJECT__7
10
0
20
0
30
0
70
128
71
56
72
53
73
4
0
VERTEX
8
OBJECT__7
10
0
20
0
30
0
70
128
71
7
72
58
73
59
0
VERTEX
8
OBJECT__7
10
0
20
0
30
0
70
128
71
59
72
57
73
7
0
VERTEX
8
OBJECT__7
10
0
20
0
30
0
70
128
71
54
72
60
73
4
0
VERTEX
8
OBJECT__7
10
0
20
0
30
0
70
128
71
7
72
61
73
58
0
VERTEX
8
OBJECT__7
10
0
20
0
30
0
70
128
71
62
72
37
73
63
0
VERTEX
8
OBJECT__7
10
0
20
0
30
0
70
128
71
64
72
65
73
62
0
VERTEX
8
OBJECT__7
10
0
20
0
30
0
70
128
71
64
72
7
73
65
0
VERTEX
8
OBJECT__7
10
0
20
0
30
0
70
128
71
63
72
64
73
62
0
VERTEX
8
OBJECT__7
10
0
20
0
30
0
70
128
71
64
72
61
73
7
0
VERTEX
8
OBJECT__7
10
0
20
0
30
0
70
128
71
60
72
52
73
4
0
VERTEX
8
OBJECT__7
10
0
20
0
30
0
70
128
71
66
72
67
73
68
0
VERTEX
8
OBJECT__7
10
0
20
0
30
0
70
128
71
69
72
70
73
67
0
VERTEX
8
OBJECT__7
10
0
20
0
30
0
70
128
71
69
72
71
73
70
0
VERTEX
8
OBJECT__7
10
0
20
0
30
0
70
128
71
67
72
66
73
69
0
VERTEX
8
OBJECT__7
10
0
20
0
30
0
70
128
71
51
72
72
73
73
0
VERTEX
8
OBJECT__7
10
0
20
0
30
0
70
128
71
73
72
74
73
51
0
VERTEX
8
OBJECT__7
10
0
20
0
30
0
70
128
71
74
72
71
73
51
0
VERTEX
8
OBJECT__7
10
0
20
0
30
0
70
128
71
51
72
50
73
72
0
VERTEX
8
OBJECT__7
10
0
20
0
30
0
70
128
71
69
72
51
73
71
0
VERTEX
8
OBJECT__7
10
0
20
0
30
0
70
128
71
75
72
76
73
77
0
VERTEX
8
OBJECT__7
10
0
20
0
30
0
70
128
71
78
72
79
73
80
0
VERTEX
8
OBJECT__7
10
0
20
0
30
0
70
128
71
80
72
75
73
78
0
VERTEX
8
OBJECT__7
10
0
20
0
30
0
70
128
71
79
72
68
73
80
0
VERTEX
8
OBJECT__7
10
0
20
0
30
0
70
128
71
43
72
81
73
82
0
VERTEX
8
OBJECT__7
10
0
20
0
30
0
70
128
71
82
72
83
73
43
0
VERTEX
8
OBJECT__7
10
0
20
0
30
0
70
128
71
83
72
44
73
43
0
VERTEX
8
OBJECT__7
10
0
20
0
30
0
70
128
71
77
72
78
73
75
0
VERTEX
8
OBJECT__7
10
0
20
0
30
0
70
128
71
68
72
79
73
66
0
VERTEX
8
OBJECT__7
10
0
20
0
30
0
70
128
71
49
72
4
73
47
0
VERTEX
8
OBJECT__7
10
0
20
0
30
0
70
128
71
46
72
63
73
37
0
VERTEX
8
OBJECT__7
10
0
20
0
30
0
70
128
71
36
72
33
73
34
0
VERTEX
8
OBJECT__7
10
0
20
0
30
0
70
128
71
30
72
23
73
28
0
VERTEX
8
OBJECT__7
10
0
20
0
30
0
70
128
71
25
72
28
73
23
0
VERTEX
8
OBJECT__7
10
0
20
0
30
0
70
128
71
19
72
20
73
17
0
VERTEX
8
OBJECT__7
10
0
20
0
30
0
70
128
71
10
72
11
73
8
0
VERTEX
8
OBJECT__7
10
0
20
0
30
0
70
128
71
3
72
16
73
1
0
SEQEND
8
OBJECT__7
0
POLYLINE
8
OBJECT__8
66
1
70
64
71
52
72
50
62
253
0
VERTEX
8
OBJECT__8
10
-5.072000
20
25.402000
30
44.200001
70
192
0
VERTEX
8
OBJECT__8
10
0.000000
20
25.402000
30
44.200001
70
192
0
VERTEX
8
OBJECT__8
10
-2.308000
20
25.697001
30
44.000000
70
192
0
VERTEX
8
OBJECT__8
10
-4.935000
20
24.955999
30
44.000000
70
192
0
VERTEX
8
OBJECT__8
10
-0.031000
20
25.478001
30
44.000000
70
192
0
VERTEX
8
OBJECT__8
10
24.874001
20
4.953000
30
44.000000
70
192
0
VERTEX
8
OBJECT__8
10
25.023001
20
4.938000
30
44.200001
70
192
0
VERTEX
8
OBJECT__8
10
25.948000
20
1.642000
30
44.200001
70
192
0
VERTEX
8
OBJECT__8
10
25.799999
20
0.000000
30
44.000000
70
192
0
VERTEX
8
OBJECT__8
10
26.000000
20
0.000000
30
44.200001
70
192
0
VERTEX
8
OBJECT__8
10
25.941000
20
0.000000
30
44.058998
70
192
0
VERTEX
8
OBJECT__8
10
-21.089001
20
14.086000
30
44.000000
70
192
0
VERTEX
8
OBJECT__8
10
-21.216000
20
14.112000
30
44.200001
70
192
0
VERTEX
8
OBJECT__8
10
-17.966999
20
18.039000
30
44.200001
70
192
0
VERTEX
8
OBJECT__8
10
-14.312000
20
21.332001
30
44.200001
70
192
0
VERTEX
8
OBJECT__8
10
-9.696000
20
23.475000
30
44.200001
70
192
0
VERTEX
8
OBJECT__8
10
-11.457000
20
23.117001
30
44.000000
70
192
0
VERTEX
8
OBJECT__8
10
-14.144000
20
21.187000
30
44.000000
70
192
0
VERTEX
8
OBJECT__8
10
-9.802000
20
23.583000
30
44.000000
70
192
0
VERTEX
8
OBJECT__8
10
-5.545000
20
25.402000
30
44.200001
70
192
0
VERTEX
8
OBJECT__8
10
-15.823000
20
20.631001
30
44.200001
70
192
0
VERTEX
8
OBJECT__8
10
-18.243000
20
18.243000
30
44.000000
70
192
0
VERTEX
8
OBJECT__8
10
-25.011999
20
4.943000
30
44.200001
70
192
0
VERTEX
8
OBJECT__8
10
-23.709000
20
9.867000
30
44.200001
70
192
0
VERTEX
8
OBJECT__8
10
-23.743999
20
9.851000
30
44.000000
70
192
0
VERTEX
8
OBJECT__8
10
-23.230000
20
11.678000
30
44.200001
70
192
0
VERTEX
8
OBJECT__8
10
-23.608999
20
10.405000
30
44.000000
70
192
0
VERTEX
8
OBJECT__8
10
14.225000
20
21.236000
30
44.000000
70
192
0
VERTEX
8
OBJECT__8
10
14.352000
20
21.412001
30
44.200001
70
192
0
VERTEX
8
OBJECT__8
10
15.439000
20
20.920000
30
44.200001
70
192
0
VERTEX
8
OBJECT__8
10
15.615000
20
20.538000
30
44.000000
70
192
0
VERTEX
8
OBJECT__8
10
17.943001
20
18.004999
30
44.200001
70
192
0
VERTEX
8
OBJECT__8
10
18.190001
20
18.184999
30
44.000000
70
192
0
VERTEX
8
OBJECT__8
10
23.749001
20
9.819000
30
44.000000
70
192
0
VERTEX
8
OBJECT__8
10
21.089001
20
14.109000
30
44.000000
70
192
0
VERTEX
8
OBJECT__8
10
23.010000
20
12.105000
30
44.200001
70
192
0
VERTEX
8
OBJECT__8
10
23.645000
20
9.844000
30
44.200001
70
192
0
VERTEX
8
OBJECT__8
10
21.263000
20
14.140000
30
44.200001
70
192
0
VERTEX
8
OBJECT__8
10
24.056000
20
9.325000
30
44.000000
70
192
0
VERTEX
8
OBJECT__8
10
19.047001
20
17.402000
30
44.000000
70
192
0
VERTEX
8
OBJECT__8
10
5.004000
20
24.996000
30
44.000000
70
192
0
VERTEX
8
OBJECT__8
10
5.072000
20
25.402000
30
44.200001
70
192
0
VERTEX
8
OBJECT__8
10
5.545000
20
25.402000
30
44.200001
70
192
0
VERTEX
8
OBJECT__8
10
9.719000
20
23.511000
30
44.200001
70
192
0
VERTEX
8
OBJECT__8
10
9.707000
20
23.504000
30
44.000000
70
192
0
VERTEX
8
OBJECT__8
10
7.142000
20
24.792000
30
44.000000
70
192
0
VERTEX
8
OBJECT__8
10
-25.799999
20
0.000000
30
44.000000
70
192
0
VERTEX
8
OBJECT__8
10
-25.941000
20
0.000000
30
44.058998
70
192
0
VERTEX
8
OBJECT__8
10
-25.966000
20
1.337000
30
44.200001
70
192
0
VERTEX
8
OBJECT__8
10
-25.747000
20
1.646000
30
44.000000
70
192
0
VERTEX
8
OBJECT__8
10
-24.941999
20
4.945000
30
44.000000
70
192
0
VERTEX
8
OBJECT__8
10
-26.000000
20
0.000000
30
44.200001
70
192
0
VERTEX
8
OBJECT__8
10
0
20
0
30
0
70
128
71
1
72
2
73
3
0
VERTEX
8
OBJECT__8
10
0
20
0
30
0
70
128
71
3
72
4
73
1
0
VERTEX
8
OBJECT__8
10
0
20
0
30
0
70
128
71
2
72
5
73
3
0
VERTEX
8
OBJECT__8
10
0
20
0
30
0
70
128
71
6
72
7
73
8
0
VERTEX
8
OBJECT__8
10
0
20
0
30
0
70
128
71
8
72
9
73
6
0
VERTEX
8
OBJECT__8
10
0
20
0
30
0
70
128
71
8
72
10
73
11
0
VERTEX
8
OBJECT__8
10
0
20
0
30
0
70
128
71
12
72
13
73
14
0
VERTEX
8
OBJECT__8
10
0
20
0
30
0
70
128
71
15
72
16
73
17
0
VERTEX
8
OBJECT__8
10
0
20
0
30
0
70
128
71
17
72
18
73
15
0
VERTEX
8
OBJECT__8
10
0
20
0
30
0
70
128
71
4
72
19
73
16
0
VERTEX
8
OBJECT__8
10
0
20
0
30
0
70
128
71
16
72
20
73
4
0
VERTEX
8
OBJECT__8
10
0
20
0
30
0
70
128
71
21
72
18
73
22
0
VERTEX
8
OBJECT__8
10
0
20
0
30
0
70
128
71
22
72
14
73
21
0
VERTEX
8
OBJECT__8
10
0
20
0
30
0
70
128
71
23
72
24
73
25
0
VERTEX
8
OBJECT__8
10
0
20
0
30
0
70
128
71
24
72
26
73
27
0
VERTEX
8
OBJECT__8
10
0
20
0
30
0
70
128
71
12
72
27
73
26
0
VERTEX
8
OBJECT__8
10
0
20
0
30
0
70
128
71
26
72
13
73
12
0
VERTEX
8
OBJECT__8
10
0
20
0
30
0
70
128
71
28
72
29
73
30
0
VERTEX
8
OBJECT__8
10
0
20
0
30
0
70
128
71
31
72
30
73
32
0
VERTEX
8
OBJECT__8
10
0
20
0
30
0
70
128
71
32
72
33
73
31
0
VERTEX
8
OBJECT__8
10
0
20
0
30
0
70
128
71
34
72
35
73
36
0
VERTEX
8
OBJECT__8
10
0
20
0
30
0
70
128
71
36
72
37
73
34
0
VERTEX
8
OBJECT__8
10
0
20
0
30
0
70
128
71
35
72
38
73
36
0
VERTEX
8
OBJECT__8
10
0
20
0
30
0
70
128
71
7
72
6
73
39
0
VERTEX
8
OBJECT__8
10
0
20
0
30
0
70
128
71
39
72
37
73
7
0
VERTEX
8
OBJECT__8
10
0
20
0
30
0
70
128
71
38
72
35
73
40
0
VERTEX
8
OBJECT__8
10
0
20
0
30
0
70
128
71
40
72
32
73
38
0
VERTEX
8
OBJECT__8
10
0
20
0
30
0
70
128
71
40
72
33
73
32
0
VERTEX
8
OBJECT__8
10
0
20
0
30
0
70
128
71
41
72
42
73
43
0
VERTEX
8
OBJECT__8
10
0
20
0
30
0
70
128
71
44
72
45
73
46
0
VERTEX
8
OBJECT__8
10
0
20
0
30
0
70
128
71
46
72
43
73
44
0
VERTEX
8
OBJECT__8
10
0
20
0
30
0
70
128
71
44
72
29
73
28
0
VERTEX
8
OBJECT__8
10
0
20
0
30
0
70
128
71
41
72
5
73
2
0
VERTEX
8
OBJECT__8
10
0
20
0
30
0
70
128
71
47
72
48
73
49
0
VERTEX
8
OBJECT__8
10
0
20
0
30
0
70
128
71
49
72
50
73
47
0
VERTEX
8
OBJECT__8
10
0
20
0
30
0
70
128
71
23
72
51
73
50
0
VERTEX
8
OBJECT__8
10
0
20
0
30
0
70
128
71
50
72
49
73
23
0
VERTEX
8
OBJECT__8
10
0
20
0
30
0
70
128
71
48
72
52
73
49
0
VERTEX
8
OBJECT__8
10
0
20
0
30
0
70
128
71
2
72
42
73
41
0
VERTEX
8
OBJECT__8
10
0
20
0
30
0
70
128
71
28
72
45
73
44
0
VERTEX
8
OBJECT__8
10
0
20
0
30
0
70
128
71
43
72
46
73
41
0
VERTEX
8
OBJECT__8
10
0
20
0
30
0
70
128
71
39
72
34
73
37
0
VERTEX
8
OBJECT__8
10
0
20
0
30
0
70
128
71
30
72
31
73
28
0
VERTEX
8
OBJECT__8
10
0
20
0
30
0
70
128
71
27
72
25
73
24
0
VERTEX
8
OBJECT__8
10
0
20
0
30
0
70
128
71
25
72
51
73
23
0
VERTEX
8
OBJECT__8
10
0
20
0
30
0
70
128
71
21
72
15
73
18
0
VERTEX
8
OBJECT__8
10
0
20
0
30
0
70
128
71
20
72
1
73
4
0
VERTEX
8
OBJECT__8
10
0
20
0
30
0
70
128
71
16
72
19
73
17
0
VERTEX
8
OBJECT__8
10
0
20
0
30
0
70
128
71
14
72
22
73
12
0
VERTEX
8
OBJECT__8
10
0
20
0
30
0
70
128
71
8
72
11
73
9
0
SEQEND
8
OBJECT__8
0
POLYLINE
8
OBJECT__9
66
1
70
64
71
50
72
48
62
253
0
VERTEX
8
OBJECT__9
10
4.991000
20
-24.947001
30
44.000000
70
192
0
VERTEX
8
OBJECT__9
10
5.072000
20
-25.386000
30
44.200001
70
192
0
VERTEX
8
OBJECT__9
10
0.000000
20
-25.386000
30
44.200001
70
192
0
VERTEX
8
OBJECT__9
10
-0.031000
20
-25.541000
30
44.000000
70
192
0
VERTEX
8
OBJECT__9
10
-25.799999
20
0.000000
30
44.000000
70
192
0
VERTEX
8
OBJECT__9
10
-25.195999
20
-5.020000
30
44.000000
70
192
0
VERTEX
8
OBJECT__9
10
-24.875999
20
-4.930000
30
44.200001
70
192
0
VERTEX
8
OBJECT__9
10
-26.000000
20
0.000000
30
44.200001
70
192
0
VERTEX
8
OBJECT__9
10
18.017000
20
-18.033001
30
44.000000
70
192
0
VERTEX
8
OBJECT__9
10
21.452000
20
-14.334000
30
44.000000
70
192
0
VERTEX
8
OBJECT__9
10
21.188000
20
-14.100000
30
44.200001
70
192
0
VERTEX
8
OBJECT__9
10
9.677000
20
-23.448999
30
44.200001
70
192
0
VERTEX
8
OBJECT__9
10
9.727000
20
-23.558001
30
44.000000
70
192
0
VERTEX
8
OBJECT__9
10
14.207000
20
-21.209999
30
44.000000
70
192
0
VERTEX
8
OBJECT__9
10
5.618000
20
-25.386000
30
44.200001
70
192
0
VERTEX
8
OBJECT__9
10
7.686000
20
-24.629000
30
44.000000
70
192
0
VERTEX
8
OBJECT__9
10
18.004000
20
-18.080000
30
44.200001
70
192
0
VERTEX
8
OBJECT__9
10
16.198000
20
-20.337999
30
44.200001
70
192
0
VERTEX
8
OBJECT__9
10
14.272000
20
-21.257000
30
44.200001
70
192
0
VERTEX
8
OBJECT__9
10
15.886000
20
-20.329000
30
44.000000
70
192
0
VERTEX
8
OBJECT__9
10
23.732000
20
-9.883000
30
44.200001
70
192
0
VERTEX
8
OBJECT__9
10
23.431999
20
-9.701000
30
44.000000
70
192
0
VERTEX
8
OBJECT__9
10
25.184999
20
-5.600000
30
44.000000
70
192
0
VERTEX
8
OBJECT__9
10
24.868999
20
-4.927000
30
44.200001
70
192
0
VERTEX
8
OBJECT__9
10
25.247999
20
-5.027000
30
44.000000
70
192
0
VERTEX
8
OBJECT__9
10
23.398001
20
-11.336000
30
44.200001
70
192
0
VERTEX
8
OBJECT__9
10
25.799999
20
0.000000
30
44.000000
70
192
0
VERTEX
8
OBJECT__9
10
26.000000
20
0.000000
30
44.200001
70
192
0
VERTEX
8
OBJECT__9
10
-14.777000
20
-21.149000
30
44.000000
70
192
0
VERTEX
8
OBJECT__9
10
-14.268000
20
-21.247999
30
44.200001
70
192
0
VERTEX
8
OBJECT__9
10
-16.239000
20
-20.305000
30
44.200001
70
192
0
VERTEX
8
OBJECT__9
10
-18.007000
20
-18.084000
30
44.200001
70
192
0
VERTEX
8
OBJECT__9
10
-14.295000
20
-21.367001
30
44.000000
70
192
0
VERTEX
8
OBJECT__9
10
-17.962999
20
-17.962999
30
44.000000
70
192
0
VERTEX
8
OBJECT__9
10
-23.447001
20
-9.697000
30
44.000000
70
192
0
VERTEX
8
OBJECT__9
10
-21.367001
20
-14.295000
30
44.000000
70
192
0
VERTEX
8
OBJECT__9
10
-21.181000
20
-14.097000
30
44.200001
70
192
0
VERTEX
8
OBJECT__9
10
-23.745001
20
-9.887000
30
44.200001
70
192
0
VERTEX
8
OBJECT__9
10
-23.430000
20
-11.272000
30
44.200001
70
192
0
VERTEX
8
OBJECT__9
10
-25.063000
20
-6.124000
30
44.000000
70
192
0
VERTEX
8
OBJECT__9
10
-21.149000
20
-14.777000
30
44.000000
70
192
0
VERTEX
8
OBJECT__9
10
-5.022000
20
-25.233000
30
44.000000
70
192
0
VERTEX
8
OBJECT__9
10
-5.072000
20
-25.386000
30
44.200001
70
192
0
VERTEX
8
OBJECT__9
10
-5.618000
20
-25.386000
30
44.200001
70
192
0
VERTEX
8
OBJECT__9
10
-9.674000
20
-23.445000
30
44.200001
70
192
0
VERTEX
8
OBJECT__9
10
-9.697000
20
-23.445999
30
44.000000
70
192
0
VERTEX
8
OBJECT__9
10
-6.118000
20
-25.063999
30
44.000000
70
192
0
VERTEX
8
OBJECT__9
10
-1.731000
20
-25.742001
30
44.000000
70
192
0
VERTEX
8
OBJECT__9
10
25.941000
20
0.000000
30
44.058998
70
192
0
VERTEX
8
OBJECT__9
10
-25.941000
20
0.000000
30
44.058998
70
192
0
VERTEX
8
OBJECT__9
10
0
20
0
30
0
70
128
71
1
72
2
73
3
0
VERTEX
8
OBJECT__9
10
0
20
0
30
0
70
128
71
3
72
4
73
1
0
VERTEX
8
OBJECT__9
10
0
20
0
30
0
70
128
71
5
72
6
73
7
0
VERTEX
8
OBJECT__9
10
0
20
0
30
0
70
128
71
7
72
8
73
5
0
VERTEX
8
OBJECT__9
10
0
20
0
30
0
70
128
71
9
72
10
73
11
0
VERTEX
8
OBJECT__9
10
0
20
0
30
0
70
128
71
12
72
13
73
14
0
VERTEX
8
OBJECT__9
10
0
20
0
30
0
70
128
71
15
72
1
73
16
0
VERTEX
8
OBJECT__9
10
0
20
0
30
0
70
128
71
16
72
12
73
15
0
VERTEX
8
OBJECT__9
10
0
20
0
30
0
70
128
71
16
72
13
73
12
0
VERTEX
8
OBJECT__9
10
0
20
0
30
0
70
128
71
9
72
17
73
18
0
VERTEX
8
OBJECT__9
10
0
20
0
30
0
70
128
71
19
72
14
73
20
0
VERTEX
8
OBJECT__9
10
0
20
0
30
0
70
128
71
20
72
18
73
19
0
VERTEX
8
OBJECT__9
10
0
20
0
30
0
70
128
71
21
72
22
73
23
0
VERTEX
8
OBJECT__9
10
0
20
0
30
0
70
128
71
23
72
24
73
21
0
VERTEX
8
OBJECT__9
10
0
20
0
30
0
70
128
71
23
72
25
73
24
0
VERTEX
8
OBJECT__9
10
0
20
0
30
0
70
128
71
26
72
11
73
10
0
VERTEX
8
OBJECT__9
10
0
20
0
30
0
70
128
71
10
72
22
73
26
0
VERTEX
8
OBJECT__9
10
0
20
0
30
0
70
128
71
27
72
28
73
24
0
VERTEX
8
OBJECT__9
10
0
20
0
30
0
70
128
71
24
72
25
73
27
0
VERTEX
8
OBJECT__9
10
0
20
0
30
0
70
128
71
29
72
30
73
31
0
VERTEX
8
OBJECT__9
10
0
20
0
30
0
70
128
71
31
72
32
73
29
0
VERTEX
8
OBJECT__9
10
0
20
0
30
0
70
128
71
29
72
33
73
30
0
VERTEX
8
OBJECT__9
10
0
20
0
30
0
70
128
71
32
72
34
73
29
0
VERTEX
8
OBJECT__9
10
0
20
0
30
0
70
128
71
35
72
36
73
37
0
VERTEX
8
OBJECT__9
10
0
20
0
30
0
70
128
71
37
72
38
73
35
0
VERTEX
8
OBJECT__9
10
0
20
0
30
0
70
128
71
37
72
39
73
38
0
VERTEX
8
OBJECT__9
10
0
20
0
30
0
70
128
71
38
72
7
73
40
0
VERTEX
8
OBJECT__9
10
0
20
0
30
0
70
128
71
40
72
35
73
38
0
VERTEX
8
OBJECT__9
10
0
20
0
30
0
70
128
71
32
72
37
73
41
0
VERTEX
8
OBJECT__9
10
0
20
0
30
0
70
128
71
41
72
34
73
32
0
VERTEX
8
OBJECT__9
10
0
20
0
30
0
70
128
71
42
72
43
73
44
0
VERTEX
8
OBJECT__9
10
0
20
0
30
0
70
128
71
45
72
46
73
47
0
VERTEX
8
OBJECT__9
10
0
20
0
30
0
70
128
71
47
72
44
73
45
0
VERTEX
8
OBJECT__9
10
0
20
0
30
0
70
128
71
45
72
30
73
33
0
VERTEX
8
OBJECT__9
10
0
20
0
30
0
70
128
71
43
72
42
73
48
0
VERTEX
8
OBJECT__9
10
0
20
0
30
0
70
128
71
48
72
3
73
43
0
VERTEX
8
OBJECT__9
10
0
20
0
30
0
70
128
71
48
72
4
73
3
0
VERTEX
8
OBJECT__9
10
0
20
0
30
0
70
128
71
33
72
46
73
45
0
VERTEX
8
OBJECT__9
10
0
20
0
30
0
70
128
71
44
72
47
73
42
0
VERTEX
8
OBJECT__9
10
0
20
0
30
0
70
128
71
37
72
36
73
41
0
VERTEX
8
OBJECT__9
10
0
20
0
30
0
70
128
71
7
72
6
73
40
0
VERTEX
8
OBJECT__9
10
0
20
0
30
0
70
128
71
27
72
49
73
28
0
VERTEX
8
OBJECT__9
10
0
20
0
30
0
70
128
71
22
72
21
73
26
0
VERTEX
8
OBJECT__9
10
0
20
0
30
0
70
128
71
18
72
20
73
9
0
VERTEX
8
OBJECT__9
10
0
20
0
30
0
70
128
71
15
72
2
73
1
0
VERTEX
8
OBJECT__9
10
0
20
0
30
0
70
128
71
14
72
19
73
12
0
VERTEX
8
OBJECT__9
10
0
20
0
30
0
70
128
71
11
72
17
73
9
0
VERTEX
8
OBJECT__9
10
0
20
0
30
0
70
128
71
8
72
50
73
5
0
SEQEND
8
OBJECT__9
0
POLYLINE
8
OBJECT__10
66
1
70
64
71
76
72
74
62
253
0
VERTEX
8
OBJECT__10
10
26.000000
20
0.000000
30
144.300003
70
192
0
VERTEX
8
OBJECT__10
10
24.868999
20
-4.928000
30
144.300003
70
192
0
VERTEX
8
OBJECT__10
10
24.868999
20
-4.927000
30
44.200001
70
192
0
VERTEX
8
OBJECT__10
10
23.398001
20
-11.336000
30
44.200001
70
192
0
VERTEX
8
OBJECT__10
10
23.732000
20
-9.883000
30
44.200001
70
192
0
VERTEX
8
OBJECT__10
10
23.732000
20
-9.883000
30
144.300003
70
192
0
VERTEX
8
OBJECT__10
10
23.398001
20
-11.336000
30
144.300003
70
192
0
VERTEX
8
OBJECT__10
10
16.198000
20
-20.337999
30
44.200001
70
192
0
VERTEX
8
OBJECT__10
10
18.004000
20
-18.080000
30
44.200001
70
192
0
VERTEX
8
OBJECT__10
10
18.004000
20
-18.080000
30
144.300003
70
192
0
VERTEX
8
OBJECT__10
10
21.188000
20
-14.100000
30
44.200001
70
192
0
VERTEX
8
OBJECT__10
10
21.187000
20
-14.100000
30
144.300003
70
192
0
VERTEX
8
OBJECT__10
10
5.618000
20
-25.386000
30
44.200001
70
192
0
VERTEX
8
OBJECT__10
10
9.677000
20
-23.448999
30
44.200001
70
192
0
VERTEX
8
OBJECT__10
10
9.677000
20
-23.448999
30
144.300003
70
192
0
VERTEX
8
OBJECT__10
10
14.272000
20
-21.257000
30
44.200001
70
192
0
VERTEX
8
OBJECT__10
10
14.272000
20
-21.257000
30
144.300003
70
192
0
VERTEX
8
OBJECT__10
10
16.198000
20
-20.337999
30
144.300003
70
192
0
VERTEX
8
OBJECT__10
10
0.000000
20
-25.386000
30
144.300003
70
192
0
VERTEX
8
OBJECT__10
10
-5.072000
20
-25.386000
30
144.300003
70
192
0
VERTEX
8
OBJECT__10
10
-5.072000
20
-25.386000
30
44.200001
70
192
0
VERTEX
8
OBJECT__10
10
0.000000
20
-25.386000
30
44.200001
70
192
0
VERTEX
8
OBJECT__10
10
5.072000
20
-25.386000
30
44.200001
70
192
0
VERTEX
8
OBJECT__10
10
5.072000
20
-25.386000
30
144.300003
70
192
0
VERTEX
8
OBJECT__10
10
-5.618000
20
-25.386000
30
44.200001
70
192
0
VERTEX
8
OBJECT__10
10
-5.618000
20
-25.386000
30
144.300003
70
192
0
VERTEX
8
OBJECT__10
10
5.618000
20
-25.386000
30
144.300003
70
192
0
VERTEX
8
OBJECT__10
10
-16.239000
20
-20.305000
30
44.200001
70
192
0
VERTEX
8
OBJECT__10
10
-14.268000
20
-21.247999
30
44.200001
70
192
0
VERTEX
8
OBJECT__10
10
-14.268000
20
-21.247999
30
144.300003
70
192
0
VERTEX
8
OBJECT__10
10
-9.674000
20
-23.445000
30
44.200001
70
192
0
VERTEX
8
OBJECT__10
10
-9.674000
20
-23.445000
30
144.300003
70
192
0
VERTEX
8
OBJECT__10
10
-23.430000
20
-11.272000
30
144.300003
70
192
0
VERTEX
8
OBJECT__10
10
-24.695999
20
-8.131000
30
136.912003
70
192
0
VERTEX
8
OBJECT__10
10
-24.011999
20
-9.858000
30
135.261993
70
192
0
VERTEX
8
OBJECT__10
10
-23.745001
20
-9.887000
30
144.300003
70
192
0
VERTEX
8
OBJECT__10
10
-24.875999
20
-4.930000
30
144.300003
70
192
0
VERTEX
8
OBJECT__10
10
-25.591000
20
-4.592000
30
138.731995
70
192
0
VERTEX
8
OBJECT__10
10
-25.385000
20
-5.408000
30
138.313004
70
192
0
VERTEX
8
OBJECT__10
10
-26.000000
20
0.000000
30
144.300003
70
192
0
VERTEX
8
OBJECT__10
10
-25.983000
20
-0.929000
30
139.470001
70
192
0
VERTEX
8
OBJECT__10
10
-26.000000
20
0.000000
30
141.899994
70
192
0
VERTEX
8
OBJECT__10
10
-26.000000
20
0.000000
30
139.500000
70
192
0
VERTEX
8
OBJECT__10
10
-26.000000
20
-0.007000
30
139.500000
70
192
0
VERTEX
8
OBJECT__10
10
-23.563000
20
-10.989000
30
134.179993
70
192
0
VERTEX
8
OBJECT__10
10
-22.933001
20
-12.250000
30
74.084000
70
192
0
VERTEX
8
OBJECT__10
10
-21.181000
20
-14.097000
30
44.200001
70
192
0
VERTEX
8
OBJECT__10
10
-18.007000
20
-18.084000
30
44.200001
70
192
0
VERTEX
8
OBJECT__10
10
-23.400000
20
-11.257000
30
72.761002
70
192
0
VERTEX
8
OBJECT__10
10
-23.430000
20
-11.272000
30
44.200001
70
192
0
VERTEX
8
OBJECT__10
10
-22.132000
20
-13.645000
30
77.785004
70
192
0
VERTEX
8
OBJECT__10
10
-22.648001
20
-12.747000
30
75.403000
70
192
0
VERTEX
8
OBJECT__10
10
-21.907000
20
-14.003000
30
81.582001
70
192
0
VERTEX
8
OBJECT__10
10
-21.955000
20
-13.926000
30
80.766998
70
192
0
VERTEX
8
OBJECT__10
10
-16.239000
20
-20.305000
30
144.300003
70
192
0
VERTEX
8
OBJECT__10
10
-21.907000
20
-14.003000
30
98.299004
70
192
0
VERTEX
8
OBJECT__10
10
-21.907000
20
-14.003000
30
113.726997
70
192
0
VERTEX
8
OBJECT__10
10
-21.907000
20
-14.003000
30
103.000000
70
192
0
VERTEX
8
OBJECT__10
10
-21.907000
20
-14.003000
30
121.855003
70
192
0
VERTEX
8
OBJECT__10
10
-21.969999
20
-13.904000
30
127.042999
70
192
0
VERTEX
8
OBJECT__10
10
-21.950001
20
-13.935000
30
125.420998
70
192
0
VERTEX
8
OBJECT__10
10
-22.538000
20
-12.963000
30
130.757004
70
192
0
VERTEX
8
OBJECT__10
10
-21.181000
20
-14.097000
30
144.300003
70
192
0
VERTEX
8
OBJECT__10
10
-23.420000
20
-11.266000
30
133.699997
70
192
0
VERTEX
8
OBJECT__10
10
-22.565001
20
-12.911000
30
130.847000
70
192
0
VERTEX
8
OBJECT__10
10
-18.007000
20
-18.084000
30
144.300003
70
192
0
VERTEX
8
OBJECT__10
10
-24.875999
20
-4.930000
30
44.200001
70
192
0
VERTEX
8
OBJECT__10
10
-25.724001
20
-3.775000
30
67.363998
70
192
0
VERTEX
8
OBJECT__10
10
-26.000000
20
0.000000
30
66.849998
70
192
0
VERTEX
8
OBJECT__10
10
-26.000000
20
0.000000
30
44.200001
70
192
0
VERTEX
8
OBJECT__10
10
-25.391001
20
-5.357000
30
68.019997
70
192
0
VERTEX
8
OBJECT__10
10
-23.745001
20
-9.887000
30
44.200001
70
192
0
VERTEX
8
OBJECT__10
10
-25.063000
20
-6.919000
30
68.666000
70
192
0
VERTEX
8
OBJECT__10
10
-24.059999
20
-9.856000
30
70.892998
70
192
0
VERTEX
8
OBJECT__10
10
-24.056000
20
-9.864000
30
70.904999
70
192
0
VERTEX
8
OBJECT__10
10
26.000000
20
0.000000
30
44.200001
70
192
0
VERTEX
8
OBJECT__10
10
0
20
0
30
0
70
128
71
1
72
2
73
3
0
VERTEX
8
OBJECT__10
10
0
20
0
30
0
70
128
71
4
72
5
73
6
0
VERTEX
8
OBJECT__10
10
0
20
0
30
0
70
128
71
5
72
3
73
2
0
VERTEX
8
OBJECT__10
10
0
20
0
30
0
70
128
71
2
72
6
73
5
0
VERTEX
8
OBJECT__10
10
0
20
0
30
0
70
128
71
6
72
7
73
4
0
VERTEX
8
OBJECT__10
10
0
20
0
30
0
70
128
71
8
72
9
73
10
0
VERTEX
8
OBJECT__10
10
0
20
0
30
0
70
128
71
9
72
11
73
12
0
VERTEX
8
OBJECT__10
10
0
20
0
30
0
70
128
71
12
72
10
73
9
0
VERTEX
8
OBJECT__10
10
0
20
0
30
0
70
128
71
7
72
12
73
11
0
VERTEX
8
OBJECT__10
10
0
20
0
30
0
70
128
71
11
72
4
73
7
0
VERTEX
8
OBJECT__10
10
0
20
0
30
0
70
128
71
13
72
14
73
15
0
VERTEX
8
OBJECT__10
10
0
20
0
30
0
70
128
71
14
72
16
73
17
0
VERTEX
8
OBJECT__10
10
0
20
0
30
0
70
128
71
17
72
15
73
14
0
VERTEX
8
OBJECT__10
10
0
20
0
30
0
70
128
71
18
72
17
73
16
0
VERTEX
8
OBJECT__10
10
0
20
0
30
0
70
128
71
16
72
8
73
18
0
VERTEX
8
OBJECT__10
10
0
20
0
30
0
70
128
71
19
72
20
73
21
0
VERTEX
8
OBJECT__10
10
0
20
0
30
0
70
128
71
22
72
23
73
24
0
VERTEX
8
OBJECT__10
10
0
20
0
30
0
70
128
71
24
72
19
73
22
0
VERTEX
8
OBJECT__10
10
0
20
0
30
0
70
128
71
25
72
21
73
20
0
VERTEX
8
OBJECT__10
10
0
20
0
30
0
70
128
71
20
72
26
73
25
0
VERTEX
8
OBJECT__10
10
0
20
0
30
0
70
128
71
27
72
24
73
23
0
VERTEX
8
OBJECT__10
10
0
20
0
30
0
70
128
71
23
72
13
73
27
0
VERTEX
8
OBJECT__10
10
0
20
0
30
0
70
128
71
28
72
29
73
30
0
VERTEX
8
OBJECT__10
10
0
20
0
30
0
70
128
71
29
72
31
73
32
0
VERTEX
8
OBJECT__10
10
0
20
0
30
0
70
128
71
26
72
32
73
31
0
VERTEX
8
OBJECT__10
10
0
20
0
30
0
70
128
71
31
72
25
73
26
0
VERTEX
8
OBJECT__10
10
0
20
0
30
0
70
128
71
32
72
30
73
29
0
VERTEX
8
OBJECT__10
10
0
20
0
30
0
70
128
71
33
72
34
73
35
0
VERTEX
8
OBJECT__10
10
0
20
0
30
0
70
128
71
34
72
33
73
36
0
VERTEX
8
OBJECT__10
10
0
20
0
30
0
70
128
71
36
72
37
73
38
0
VERTEX
8
OBJECT__10
10
0
20
0
30
0
70
128
71
38
72
39
73
36
0
VERTEX
8
OBJECT__10
10
0
20
0
30
0
70
128
71
37
72
40
73
41
0
VERTEX
8
OBJECT__10
10
0
20
0
30
0
70
128
71
42
72
43
73
44
0
VERTEX
8
OBJECT__10
10
0
20
0
30
0
70
128
71
44
72
41
73
42
0
VERTEX
8
OBJECT__10
10
0
20
0
30
0
70
128
71
41
72
40
73
42
0
VERTEX
8
OBJECT__10
10
0
20
0
30
0
70
128
71
41
72
38
73
37
0
VERTEX
8
OBJECT__10
10
0
20
0
30
0
70
128
71
36
72
39
73
34
0
VERTEX
8
OBJECT__10
10
0
20
0
30
0
70
128
71
35
72
45
73
33
0
VERTEX
8
OBJECT__10
10
0
20
0
30
0
70
128
71
46
72
47
73
48
0
VERTEX
8
OBJECT__10
10
0
20
0
30
0
70
128
71
47
72
46
73
49
0
VERTEX
8
OBJECT__10
10
0
20
0
30
0
70
128
71
49
72
50
73
47
0
VERTEX
8
OBJECT__10
10
0
20
0
30
0
70
128
71
28
72
51
73
52
0
VERTEX
8
OBJECT__10
10
0
20
0
30
0
70
128
71
52
72
46
73
28
0
VERTEX
8
OBJECT__10
10
0
20
0
30
0
70
128
71
28
72
53
73
54
0
VERTEX
8
OBJECT__10
10
0
20
0
30
0
70
128
71
28
72
55
73
56
0
VERTEX
8
OBJECT__10
10
0
20
0
30
0
70
128
71
55
72
57
73
58
0
VERTEX
8
OBJECT__10
10
0
20
0
30
0
70
128
71
55
72
59
73
57
0
VERTEX
8
OBJECT__10
10
0
20
0
30
0
70
128
71
58
72
56
73
55
0
VERTEX
8
OBJECT__10
10
0
20
0
30
0
70
128
71
55
72
60
73
61
0
VERTEX
8
OBJECT__10
10
0
20
0
30
0
70
128
71
61
72
59
73
55
0
VERTEX
8
OBJECT__10
10
0
20
0
30
0
70
128
71
56
72
53
73
28
0
VERTEX
8
OBJECT__10
10
0
20
0
30
0
70
128
71
55
72
62
73
60
0
VERTEX
8
OBJECT__10
10
0
20
0
30
0
70
128
71
63
72
33
73
64
0
VERTEX
8
OBJECT__10
10
0
20
0
30
0
70
128
71
65
72
66
73
63
0
VERTEX
8
OBJECT__10
10
0
20
0
30
0
70
128
71
65
72
55
73
66
0
VERTEX
8
OBJECT__10
10
0
20
0
30
0
70
128
71
64
72
65
73
63
0
VERTEX
8
OBJECT__10
10
0
20
0
30
0
70
128
71
65
72
62
73
55
0
VERTEX
8
OBJECT__10
10
0
20
0
30
0
70
128
71
54
72
51
73
28
0
VERTEX
8
OBJECT__10
10
0
20
0
30
0
70
128
71
67
72
68
73
69
0
VERTEX
8
OBJECT__10
10
0
20
0
30
0
70
128
71
69
72
70
73
67
0
VERTEX
8
OBJECT__10
10
0
20
0
30
0
70
128
71
71
72
68
73
72
0
VERTEX
8
OBJECT__10
10
0
20
0
30
0
70
128
71
50
72
73
73
71
0
VERTEX
8
OBJECT__10
10
0
20
0
30
0
70
128
71
50
72
74
73
73
0
VERTEX
8
OBJECT__10
10
0
20
0
30
0
70
128
71
72
72
50
73
71
0
VERTEX
8
OBJECT__10
10
0
20
0
30
0
70
128
71
50
72
49
73
75
0
VERTEX
8
OBJECT__10
10
0
20
0
30
0
70
128
71
75
72
74
73
50
0
VERTEX
8
OBJECT__10
10
0
20
0
30
0
70
128
71
67
72
72
73
68
0
VERTEX
8
OBJECT__10
10
0
20
0
30
0
70
128
71
48
72
28
73
46
0
VERTEX
8
OBJECT__10
10
0
20
0
30
0
70
128
71
45
72
64
73
33
0
VERTEX
8
OBJECT__10
10
0
20
0
30
0
70
128
71
30
72
55
73
28
0
VERTEX
8
OBJECT__10
10
0
20
0
30
0
70
128
71
21
72
22
73
19
0
VERTEX
8
OBJECT__10
10
0
20
0
30
0
70
128
71
15
72
27
73
13
0
VERTEX
8
OBJECT__10
10
0
20
0
30
0
70
128
71
10
72
18
73
8
0
VERTEX
8
OBJECT__10
10
0
20
0
30
0
70
128
71
3
72
76
73
1
0
SEQEND
8
OBJECT__10
0
POLYLINE
8
OBJECT__11
66
1
70
64
71
39
72
37
62
253
0
VERTEX
8
OBJECT__11
10
-25.386999
20
5.387000
30
138.319000
70
192
0
VERTEX
8
OBJECT__11
10
-24.843000
20
7.668000
30
137.227997
70
192
0
VERTEX
8
OBJECT__11
10
-25.954000
20
6.714000
30
136.102005
70
192
0
VERTEX
8
OBJECT__11
10
-26.229000
20
5.480000
30
136.679993
70
192
0
VERTEX
8
OBJECT__11
10
-24.171000
20
9.580000
30
135.723999
70
192
0
VERTEX
8
OBJECT__11
10
-25.051001
20
9.205000
30
133.912994
70
192
0
VERTEX
8
OBJECT__11
10
-24.028999
20
9.906000
30
135.358994
70
192
0
VERTEX
8
OBJECT__11
10
-21.945000
20
13.944000
30
125.431999
70
192
0
VERTEX
8
OBJECT__11
10
-21.907000
20
14.003000
30
118.887001
70
192
0
VERTEX
8
OBJECT__11
10
-23.377001
20
12.831000
30
120.610001
70
192
0
VERTEX
8
OBJECT__11
10
-23.399000
20
12.740000
30
123.761002
70
192
0
VERTEX
8
OBJECT__11
10
-23.153000
20
12.961000
30
103.000000
70
192
0
VERTEX
8
OBJECT__11
10
-23.393999
20
12.886000
30
103.000000
70
192
0
VERTEX
8
OBJECT__11
10
-23.391001
20
12.877000
30
111.487000
70
192
0
VERTEX
8
OBJECT__11
10
-21.907000
20
14.003000
30
103.000000
70
192
0
VERTEX
8
OBJECT__11
10
-26.209000
20
0.005000
30
138.718002
70
192
0
VERTEX
8
OBJECT__11
10
-26.000000
20
0.007000
30
139.500000
70
192
0
VERTEX
8
OBJECT__11
10
-25.993999
20
0.556000
30
139.488998
70
192
0
VERTEX
8
OBJECT__11
10
-26.000000
20
0.000000
30
139.500000
70
192
0
VERTEX
8
OBJECT__11
10
-25.920000
20
1.333000
30
139.350998
70
192
0
VERTEX
8
OBJECT__11
10
-26.000000
20
-0.007000
30
139.500000
70
192
0
VERTEX
8
OBJECT__11
10
-25.632000
20
4.358000
30
138.811005
70
192
0
VERTEX
8
OBJECT__11
10
-26.792999
20
2.617000
30
137.882004
70
192
0
VERTEX
8
OBJECT__11
10
-26.882999
20
1.432000
30
138.102005
70
192
0
VERTEX
8
OBJECT__11
10
-26.754999
20
3.112000
30
137.789993
70
192
0
VERTEX
8
OBJECT__11
10
-26.952000
20
0.524000
30
138.270996
70
192
0
VERTEX
8
OBJECT__11
10
-26.990999
20
0.016000
30
138.365997
70
192
0
VERTEX
8
OBJECT__11
10
-26.329000
20
5.030000
30
136.891006
70
192
0
VERTEX
8
OBJECT__11
10
-23.483999
20
11.158000
30
133.959000
70
192
0
VERTEX
8
OBJECT__11
10
-24.863001
20
9.721000
30
133.460007
70
192
0
VERTEX
8
OBJECT__11
10
-23.959000
20
11.641000
30
130.447006
70
192
0
VERTEX
8
OBJECT__11
10
-23.212999
20
11.671000
30
133.022003
70
192
0
VERTEX
8
OBJECT__11
10
-22.583000
20
12.866000
30
130.837997
70
192
0
VERTEX
8
OBJECT__11
10
-23.822001
20
11.898000
30
129.580994
70
192
0
VERTEX
8
OBJECT__11
10
-22.466000
20
13.088000
30
130.432007
70
192
0
VERTEX
8
OBJECT__11
10
-23.722000
20
12.085000
30
128.951004
70
192
0
VERTEX
8
OBJECT__11
10
-21.952999
20
13.931000
30
126.795998
70
192
0
VERTEX
8
OBJECT__11
10
-23.422001
20
12.645000
30
127.060997
70
192
0
VERTEX
8
OBJECT__11
10
-23.403999
20
12.721000
30
124.406998
70
192
0
VERTEX
8
OBJECT__11
10
0
20
0
30
0
70
128
71
1
72
2
73
3
0
VERTEX
8
OBJECT__11
10
0
20
0
30
0
70
128
71
3
72
4
73
1
0
VERTEX
8
OBJECT__11
10
0
20
0
30
0
70
128
71
3
72
2
73
5
0
VERTEX
8
OBJECT__11
10
0
20
0
30
0
70
128
71
5
72
6
73
3
0
VERTEX
8
OBJECT__11
10
0
20
0
30
0
70
128
71
5
72
7
73
6
0
VERTEX
8
OBJECT__11
10
0
20
0
30
0
70
128
71
8
72
9
73
10
0
VERTEX
8
OBJECT__11
10
0
20
0
30
0
70
128
71
10
72
11
73
8
0
VERTEX
8
OBJECT__11
10
0
20
0
30
0
70
128
71
12
72
13
73
14
0
VERTEX
8
OBJECT__11
10
0
20
0
30
0
70
128
71
12
72
10
73
9
0
VERTEX
8
OBJECT__11
10
0
20
0
30
0
70
128
71
9
72
15
73
12
0
VERTEX
8
OBJECT__11
10
0
20
0
30
0
70
128
71
14
72
10
73
12
0
VERTEX
8
OBJECT__11
10
0
20
0
30
0
70
128
71
16
72
17
73
18
0
VERTEX
8
OBJECT__11
10
0
20
0
30
0
70
128
71
16
72
19
73
17
0
VERTEX
8
OBJECT__11
10
0
20
0
30
0
70
128
71
18
72
20
73
16
0
VERTEX
8
OBJECT__11
10
0
20
0
30
0
70
128
71
16
72
21
73
19
0
VERTEX
8
OBJECT__11
10
0
20
0
30
0
70
128
71
22
72
23
73
24
0
VERTEX
8
OBJECT__11
10
0
20
0
30
0
70
128
71
22
72
25
73
23
0
VERTEX
8
OBJECT__11
10
0
20
0
30
0
70
128
71
24
72
16
73
22
0
VERTEX
8
OBJECT__11
10
0
20
0
30
0
70
128
71
24
72
26
73
16
0
VERTEX
8
OBJECT__11
10
0
20
0
30
0
70
128
71
26
72
27
73
16
0
VERTEX
8
OBJECT__11
10
0
20
0
30
0
70
128
71
28
72
25
73
22
0
VERTEX
8
OBJECT__11
10
0
20
0
30
0
70
128
71
22
72
1
73
28
0
VERTEX
8
OBJECT__11
10
0
20
0
30
0
70
128
71
7
72
29
73
30
0
VERTEX
8
OBJECT__11
10
0
20
0
30
0
70
128
71
31
72
30
73
32
0
VERTEX
8
OBJECT__11
10
0
20
0
30
0
70
128
71
30
72
29
73
32
0
VERTEX
8
OBJECT__11
10
0
20
0
30
0
70
128
71
32
72
33
73
31
0
VERTEX
8
OBJECT__11
10
0
20
0
30
0
70
128
71
33
72
34
73
31
0
VERTEX
8
OBJECT__11
10
0
20
0
30
0
70
128
71
35
72
36
73
34
0
VERTEX
8
OBJECT__11
10
0
20
0
30
0
70
128
71
37
72
38
73
36
0
VERTEX
8
OBJECT__11
10
0
20
0
30
0
70
128
71
36
72
35
73
37
0
VERTEX
8
OBJECT__11
10
0
20
0
30
0
70
128
71
38
72
37
73
8
0
VERTEX
8
OBJECT__11
10
0
20
0
30
0
70
128
71
8
72
39
73
38
0
VERTEX
8
OBJECT__11
10
0
20
0
30
0
70
128
71
34
72
33
73
35
0
VERTEX
8
OBJECT__11
10
0
20
0
30
0
70
128
71
30
72
6
73
7
0
VERTEX
8
OBJECT__11
10
0
20
0
30
0
70
128
71
20
72
22
73
16
0
VERTEX
8
OBJECT__11
10
0
20
0
30
0
70
128
71
11
72
39
73
8
0
VERTEX
8
OBJECT__11
10
0
20
0
30
0
70
128
71
4
72
28
73
1
0
SEQEND
8
OBJECT__11
0
POLYLINE
8
OBJECT__12
66
1
70
64
71
32
72
30
62
253
0
VERTEX
8
OBJECT__12
10
-25.385000
20
-5.408000
30
138.313004
70
192
0
VERTEX
8
OBJECT__12
10
-26.209000
20
0.005000
30
138.718002
70
192
0
VERTEX
8
OBJECT__12
10
-26.889000
20
-1.403000
30
138.113998
70
192
0
VERTEX
8
OBJECT__12
10
-26.990999
20
0.016000
30
138.365997
70
192
0
VERTEX
8
OBJECT__12
10
-26.780001
20
-2.941000
30
137.841995
70
192
0
VERTEX
8
OBJECT__12
10
-25.591000
20
-4.592000
30
138.731995
70
192
0
VERTEX
8
OBJECT__12
10
-25.983000
20
-0.929000
30
139.470001
70
192
0
VERTEX
8
OBJECT__12
10
-26.000000
20
-0.007000
30
139.500000
70
192
0
VERTEX
8
OBJECT__12
10
-24.011999
20
-9.858000
30
135.261993
70
192
0
VERTEX
8
OBJECT__12
10
-25.054001
20
-9.267000
30
133.970001
70
192
0
VERTEX
8
OBJECT__12
10
-24.896000
20
-9.610000
30
133.472000
70
192
0
VERTEX
8
OBJECT__12
10
-23.420000
20
-11.266000
30
133.699997
70
192
0
VERTEX
8
OBJECT__12
10
-23.563000
20
-10.989000
30
134.179993
70
192
0
VERTEX
8
OBJECT__12
10
-24.014000
20
-11.533000
30
130.675995
70
192
0
VERTEX
8
OBJECT__12
10
-22.565001
20
-12.911000
30
130.847000
70
192
0
VERTEX
8
OBJECT__12
10
-24.695999
20
-8.131000
30
136.912003
70
192
0
VERTEX
8
OBJECT__12
10
-26.232000
20
-5.490000
30
136.688995
70
192
0
VERTEX
8
OBJECT__12
10
-26.007000
20
-6.537000
30
136.216003
70
192
0
VERTEX
8
OBJECT__12
10
-26.330999
20
-5.031000
30
136.897003
70
192
0
VERTEX
8
OBJECT__12
10
-23.420000
20
-12.649000
30
127.030998
70
192
0
VERTEX
8
OBJECT__12
10
-23.402000
20
-12.726000
30
124.362999
70
192
0
VERTEX
8
OBJECT__12
10
-21.950001
20
-13.935000
30
125.420998
70
192
0
VERTEX
8
OBJECT__12
10
-21.969999
20
-13.904000
30
127.042999
70
192
0
VERTEX
8
OBJECT__12
10
-22.538000
20
-12.963000
30
130.757004
70
192
0
VERTEX
8
OBJECT__12
10
-23.731001
20
-12.064000
30
128.942001
70
192
0
VERTEX
8
OBJECT__12
10
-23.830000
20
-11.878000
30
129.546997
70
192
0
VERTEX
8
OBJECT__12
10
-23.393999
20
-12.886000
30
103.000000
70
192
0
VERTEX
8
OBJECT__12
10
-21.907000
20
-14.003000
30
103.000000
70
192
0
VERTEX
8
OBJECT__12
10
-21.907000
20
-14.003000
30
113.726997
70
192
0
VERTEX
8
OBJECT__12
10
-23.377001
20
-12.830000
30
120.782997
70
192
0
VERTEX
8
OBJECT__12
10
-21.907000
20
-14.003000
30
121.855003
70
192
0
VERTEX
8
OBJECT__12
10
-23.396999
20
-12.744000
30
123.761002
70
192
0
VERTEX
8
OBJECT__12
10
0
20
0
30
0
70
128
71
1
72
2
73
3
0
VERTEX
8
OBJECT__12
10
0
20
0
30
0
70
128
71
2
72
4
73
3
0
VERTEX
8
OBJECT__12
10
0
20
0
30
0
70
128
71
3
72
5
73
1
0
VERTEX
8
OBJECT__12
10
0
20
0
30
0
70
128
71
2
72
1
73
6
0
VERTEX
8
OBJECT__12
10
0
20
0
30
0
70
128
71
6
72
7
73
2
0
VERTEX
8
OBJECT__12
10
0
20
0
30
0
70
128
71
7
72
8
73
2
0
VERTEX
8
OBJECT__12
10
0
20
0
30
0
70
128
71
9
72
10
73
11
0
VERTEX
8
OBJECT__12
10
0
20
0
30
0
70
128
71
11
72
12
73
13
0
VERTEX
8
OBJECT__12
10
0
20
0
30
0
70
128
71
12
72
11
73
14
0
VERTEX
8
OBJECT__12
10
0
20
0
30
0
70
128
71
14
72
15
73
12
0
VERTEX
8
OBJECT__12
10
0
20
0
30
0
70
128
71
11
72
13
73
9
0
VERTEX
8
OBJECT__12
10
0
20
0
30
0
70
128
71
10
72
9
73
16
0
VERTEX
8
OBJECT__12
10
0
20
0
30
0
70
128
71
1
72
17
73
18
0
VERTEX
8
OBJECT__12
10
0
20
0
30
0
70
128
71
1
72
19
73
17
0
VERTEX
8
OBJECT__12
10
0
20
0
30
0
70
128
71
18
72
16
73
1
0
VERTEX
8
OBJECT__12
10
0
20
0
30
0
70
128
71
20
72
21
73
22
0
VERTEX
8
OBJECT__12
10
0
20
0
30
0
70
128
71
23
72
24
73
25
0
VERTEX
8
OBJECT__12
10
0
20
0
30
0
70
128
71
24
72
15
73
26
0
VERTEX
8
OBJECT__12
10
0
20
0
30
0
70
128
71
26
72
25
73
24
0
VERTEX
8
OBJECT__12
10
0
20
0
30
0
70
128
71
25
72
20
73
23
0
VERTEX
8
OBJECT__12
10
0
20
0
30
0
70
128
71
27
72
28
73
29
0
VERTEX
8
OBJECT__12
10
0
20
0
30
0
70
128
71
29
72
30
73
27
0
VERTEX
8
OBJECT__12
10
0
20
0
30
0
70
128
71
31
72
22
73
32
0
VERTEX
8
OBJECT__12
10
0
20
0
30
0
70
128
71
22
72
21
73
32
0
VERTEX
8
OBJECT__12
10
0
20
0
30
0
70
128
71
32
72
30
73
31
0
VERTEX
8
OBJECT__12
10
0
20
0
30
0
70
128
71
29
72
31
73
30
0
VERTEX
8
OBJECT__12
10
0
20
0
30
0
70
128
71
22
72
23
73
20
0
VERTEX
8
OBJECT__12
10
0
20
0
30
0
70
128
71
16
72
18
73
10
0
VERTEX
8
OBJECT__12
10
0
20
0
30
0
70
128
71
14
72
26
73
15
0
VERTEX
8
OBJECT__12
10
0
20
0
30
0
70
128
71
5
72
19
73
1
0
SEQEND
8
OBJECT__12
0
POLYLINE
8
OBJECT__13
66
1
70
64
71
34
72
32
62
253
0
VERTEX
8
OBJECT__13
10
-23.862000
20
11.828000
30
76.334999
70
192
0
VERTEX
8
OBJECT__13
10
-22.599001
20
12.846000
30
75.393997
70
192
0
VERTEX
8
OBJECT__13
10
-23.209999
20
11.670000
30
73.352997
70
192
0
VERTEX
8
OBJECT__13
10
-24.868000
20
9.711000
30
72.876999
70
192
0
VERTEX
8
OBJECT__13
10
-24.038000
20
9.793000
30
71.026001
70
192
0
VERTEX
8
OBJECT__13
10
-25.076000
20
9.137000
30
72.374001
70
192
0
VERTEX
8
OBJECT__13
10
-23.565001
20
10.986000
30
72.167000
70
192
0
VERTEX
8
OBJECT__13
10
-24.695999
20
8.129000
30
69.436996
70
192
0
VERTEX
8
OBJECT__13
10
-25.399000
20
5.360000
30
68.008003
70
192
0
VERTEX
8
OBJECT__13
10
-26.240000
20
5.438000
30
69.647003
70
192
0
VERTEX
8
OBJECT__13
10
-25.955999
20
6.709000
30
70.245003
70
192
0
VERTEX
8
OBJECT__13
10
-26.340000
20
4.991000
30
69.436996
70
192
0
VERTEX
8
OBJECT__13
10
-23.409000
20
12.668000
30
79.464996
70
192
0
VERTEX
8
OBJECT__13
10
-23.396999
20
12.731000
30
81.810997
70
192
0
VERTEX
8
OBJECT__13
10
-21.952999
20
13.931000
30
80.765999
70
192
0
VERTEX
8
OBJECT__13
10
-21.969999
20
13.904000
30
79.307999
70
192
0
VERTEX
8
OBJECT__13
10
-22.537001
20
12.965000
30
75.601997
70
192
0
VERTEX
8
OBJECT__13
10
-23.730000
20
12.073000
30
77.248001
70
192
0
VERTEX
8
OBJECT__13
10
-23.816999
20
11.912000
30
76.646004
70
192
0
VERTEX
8
OBJECT__13
10
-26.209000
20
0.000000
30
67.633003
70
192
0
VERTEX
8
OBJECT__13
10
-26.878000
20
1.454000
30
68.259003
70
192
0
VERTEX
8
OBJECT__13
10
-26.990999
20
0.000000
30
67.986000
70
192
0
VERTEX
8
OBJECT__13
10
-26.746000
20
3.175000
30
68.581001
70
192
0
VERTEX
8
OBJECT__13
10
-25.934000
20
1.334000
30
66.973000
70
192
0
VERTEX
8
OBJECT__13
10
-25.986000
20
0.846000
30
66.875000
70
192
0
VERTEX
8
OBJECT__13
10
-25.584999
20
4.631000
30
67.630997
70
192
0
VERTEX
8
OBJECT__13
10
-26.000000
20
0.000000
30
66.849998
70
192
0
VERTEX
8
OBJECT__13
10
-23.153000
20
12.961000
30
103.000000
70
192
0
VERTEX
8
OBJECT__13
10
-21.907000
20
14.003000
30
103.000000
70
192
0
VERTEX
8
OBJECT__13
10
-21.907000
20
14.003000
30
92.591003
70
192
0
VERTEX
8
OBJECT__13
10
-23.377001
20
12.829000
30
85.529999
70
192
0
VERTEX
8
OBJECT__13
10
-23.393999
20
12.886000
30
103.000000
70
192
0
VERTEX
8
OBJECT__13
10
-21.907000
20
14.003000
30
84.646004
70
192
0
VERTEX
8
OBJECT__13
10
-23.393999
20
12.746000
30
82.393997
70
192
0
VERTEX
8
OBJECT__13
10
0
20
0
30
0
70
128
71
1
72
2
73
3
0
VERTEX
8
OBJECT__13
10
0
20
0
30
0
70
128
71
3
72
4
73
1
0
VERTEX
8
OBJECT__13
10
0
20
0
30
0
70
128
71
5
72
6
73
4
0
VERTEX
8
OBJECT__13
10
0
20
0
30
0
70
128
71
4
72
7
73
5
0
VERTEX
8
OBJECT__13
10
0
20
0
30
0
70
128
71
3
72
7
73
4
0
VERTEX
8
OBJECT__13
10
0
20
0
30
0
70
128
71
6
72
5
73
8
0
VERTEX
8
OBJECT__13
10
0
20
0
30
0
70
128
71
9
72
10
73
11
0
VERTEX
8
OBJECT__13
10
0
20
0
30
0
70
128
71
9
72
12
73
10
0
VERTEX
8
OBJECT__13
10
0
20
0
30
0
70
128
71
11
72
8
73
9
0
VERTEX
8
OBJECT__13
10
0
20
0
30
0
70
128
71
13
72
14
73
15
0
VERTEX
8
OBJECT__13
10
0
20
0
30
0
70
128
71
16
72
17
73
18
0
VERTEX
8
OBJECT__13
10
0
20
0
30
0
70
128
71
17
72
2
73
19
0
VERTEX
8
OBJECT__13
10
0
20
0
30
0
70
128
71
19
72
18
73
17
0
VERTEX
8
OBJECT__13
10
0
20
0
30
0
70
128
71
18
72
13
73
16
0
VERTEX
8
OBJECT__13
10
0
20
0
30
0
70
128
71
9
72
20
73
21
0
VERTEX
8
OBJECT__13
10
0
20
0
30
0
70
128
71
20
72
22
73
21
0
VERTEX
8
OBJECT__13
10
0
20
0
30
0
70
128
71
21
72
23
73
9
0
VERTEX
8
OBJECT__13
10
0
20
0
30
0
70
128
71
20
72
24
73
25
0
VERTEX
8
OBJECT__13
10
0
20
0
30
0
70
128
71
20
72
9
73
26
0
VERTEX
8
OBJECT__13
10
0
20
0
30
0
70
128
71
26
72
24
73
20
0
VERTEX
8
OBJECT__13
10
0
20
0
30
0
70
128
71
25
72
27
73
20
0
VERTEX
8
OBJECT__13
10
0
20
0
30
0
70
128
71
28
72
29
73
30
0
VERTEX
8
OBJECT__13
10
0
20
0
30
0
70
128
71
31
72
32
73
28
0
VERTEX
8
OBJECT__13
10
0
20
0
30
0
70
128
71
30
72
31
73
28
0
VERTEX
8
OBJECT__13
10
0
20
0
30
0
70
128
71
33
72
15
73
34
0
VERTEX
8
OBJECT__13
10
0
20
0
30
0
70
128
71
15
72
14
73
34
0
VERTEX
8
OBJECT__13
10
0
20
0
30
0
70
128
71
34
72
31
73
33
0
VERTEX
8
OBJECT__13
10
0
20
0
30
0
70
128
71
30
72
33
73
31
0
VERTEX
8
OBJECT__13
10
0
20
0
30
0
70
128
71
23
72
12
73
9
0
VERTEX
8
OBJECT__13
10
0
20
0
30
0
70
128
71
15
72
16
73
13
0
VERTEX
8
OBJECT__13
10
0
20
0
30
0
70
128
71
8
72
11
73
6
0
VERTEX
8
OBJECT__13
10
0
20
0
30
0
70
128
71
1
72
19
73
2
0
SEQEND
8
OBJECT__13
0
POLYLINE
8
OBJECT__14
66
1
70
64
71
36
72
34
62
253
0
VERTEX
8
OBJECT__14
10
-22.648001
20
-12.747000
30
75.403000
70
192
0
VERTEX
8
OBJECT__14
10
-22.132000
20
-13.645000
30
77.785004
70
192
0
VERTEX
8
OBJECT__14
10
-23.726000
20
-12.082000
30
77.246002
70
192
0
VERTEX
8
OBJECT__14
10
-23.414000
20
-12.659000
30
79.390999
70
192
0
VERTEX
8
OBJECT__14
10
-21.955000
20
-13.926000
30
80.766998
70
192
0
VERTEX
8
OBJECT__14
10
-23.393999
20
-12.740000
30
81.792999
70
192
0
VERTEX
8
OBJECT__14
10
-24.056000
20
-9.864000
30
70.904999
70
192
0
VERTEX
8
OBJECT__14
10
-23.400000
20
-11.257000
30
72.761002
70
192
0
VERTEX
8
OBJECT__14
10
-24.719999
20
-10.049000
30
73.292999
70
192
0
VERTEX
8
OBJECT__14
10
-24.910000
20
-9.554000
30
72.816002
70
192
0
VERTEX
8
OBJECT__14
10
-22.933001
20
-12.250000
30
74.084000
70
192
0
VERTEX
8
OBJECT__14
10
-23.850000
20
-11.852000
30
76.389999
70
192
0
VERTEX
8
OBJECT__14
10
-23.813999
20
-11.918000
30
76.636002
70
192
0
VERTEX
8
OBJECT__14
10
-26.236000
20
-5.429000
30
69.664001
70
192
0
VERTEX
8
OBJECT__14
10
-25.391001
20
-5.357000
30
68.019997
70
192
0
VERTEX
8
OBJECT__14
10
-25.063000
20
-6.919000
30
68.666000
70
192
0
VERTEX
8
OBJECT__14
10
-25.764999
20
-7.323000
30
70.667999
70
192
0
VERTEX
8
OBJECT__14
10
-24.059999
20
-9.856000
30
70.892998
70
192
0
VERTEX
8
OBJECT__14
10
-25.083000
20
-9.102000
30
72.380997
70
192
0
VERTEX
8
OBJECT__14
10
-26.209000
20
0.000000
30
67.633003
70
192
0
VERTEX
8
OBJECT__14
10
-26.000000
20
0.000000
30
66.849998
70
192
0
VERTEX
8
OBJECT__14
10
-25.724001
20
-3.775000
30
67.363998
70
192
0
VERTEX
8
OBJECT__14
10
-26.982000
20
-0.578000
30
68.015999
70
192
0
VERTEX
8
OBJECT__14
10
-26.985001
20
-0.377000
30
68.005997
70
192
0
VERTEX
8
OBJECT__14
10
-26.754999
20
-2.764000
30
68.541000
70
192
0
VERTEX
8
OBJECT__14
10
-26.650999
20
-3.764000
30
68.780998
70
192
0
VERTEX
8
OBJECT__14
10
-26.922001
20
-1.153000
30
68.154999
70
192
0
VERTEX
8
OBJECT__14
10
-26.346001
20
-4.989000
30
69.431000
70
192
0
VERTEX
8
OBJECT__14
10
-26.990999
20
0.000000
30
67.986000
70
192
0
VERTEX
8
OBJECT__14
10
-21.907000
20
-14.003000
30
81.582001
70
192
0
VERTEX
8
OBJECT__14
10
-23.389000
20
-12.760000
30
82.394997
70
192
0
VERTEX
8
OBJECT__14
10
-23.374001
20
-12.821000
30
84.209999
70
192
0
VERTEX
8
OBJECT__14
10
-21.907000
20
-14.003000
30
98.299004
70
192
0
VERTEX
8
OBJECT__14
10
-23.386999
20
-12.863000
30
91.140999
70
192
0
VERTEX
8
OBJECT__14
10
-23.393999
20
-12.886000
30
103.000000
70
192
0
VERTEX
8
OBJECT__14
10
-21.907000
20
-14.003000
30
103.000000
70
192
0
VERTEX
8
OBJECT__14
10
0
20
0
30
0
70
128
71
1
72
2
73
3
0
VERTEX
8
OBJECT__14
10
0
20
0
30
0
70
128
71
2
72
4
73
3
0
VERTEX
8
OBJECT__14
10
0
20
0
30
0
70
128
71
5
72
6
73
4
0
VERTEX
8
OBJECT__14
10
0
20
0
30
0
70
128
71
4
72
2
73
5
0
VERTEX
8
OBJECT__14
10
0
20
0
30
0
70
128
71
7
72
8
73
9
0
VERTEX
8
OBJECT__14
10
0
20
0
30
0
70
128
71
9
72
10
73
7
0
VERTEX
8
OBJECT__14
10
0
20
0
30
0
70
128
71
9
72
8
73
11
0
VERTEX
8
OBJECT__14
10
0
20
0
30
0
70
128
71
11
72
12
73
9
0
VERTEX
8
OBJECT__14
10
0
20
0
30
0
70
128
71
11
72
1
73
12
0
VERTEX
8
OBJECT__14
10
0
20
0
30
0
70
128
71
1
72
13
73
12
0
VERTEX
8
OBJECT__14
10
0
20
0
30
0
70
128
71
14
72
15
73
16
0
VERTEX
8
OBJECT__14
10
0
20
0
30
0
70
128
71
16
72
17
73
14
0
VERTEX
8
OBJECT__14
10
0
20
0
30
0
70
128
71
18
72
19
73
17
0
VERTEX
8
OBJECT__14
10
0
20
0
30
0
70
128
71
17
72
16
73
18
0
VERTEX
8
OBJECT__14
10
0
20
0
30
0
70
128
71
18
72
7
73
19
0
VERTEX
8
OBJECT__14
10
0
20
0
30
0
70
128
71
20
72
21
73
22
0
VERTEX
8
OBJECT__14
10
0
20
0
30
0
70
128
71
20
72
23
73
24
0
VERTEX
8
OBJECT__14
10
0
20
0
30
0
70
128
71
20
72
15
73
25
0
VERTEX
8
OBJECT__14
10
0
20
0
30
0
70
128
71
15
72
26
73
25
0
VERTEX
8
OBJECT__14
10
0
20
0
30
0
70
128
71
25
72
27
73
20
0
VERTEX
8
OBJECT__14
10
0
20
0
30
0
70
128
71
15
72
28
73
26
0
VERTEX
8
OBJECT__14
10
0
20
0
30
0
70
128
71
27
72
23
73
20
0
VERTEX
8
OBJECT__14
10
0
20
0
30
0
70
128
71
24
72
29
73
20
0
VERTEX
8
OBJECT__14
10
0
20
0
30
0
70
128
71
30
72
31
73
6
0
VERTEX
8
OBJECT__14
10
0
20
0
30
0
70
128
71
30
72
32
73
31
0
VERTEX
8
OBJECT__14
10
0
20
0
30
0
70
128
71
30
72
33
73
34
0
VERTEX
8
OBJECT__14
10
0
20
0
30
0
70
128
71
35
72
34
73
33
0
VERTEX
8
OBJECT__14
10
0
20
0
30
0
70
128
71
33
72
36
73
35
0
VERTEX
8
OBJECT__14
10
0
20
0
30
0
70
128
71
34
72
32
73
30
0
VERTEX
8
OBJECT__14
10
0
20
0
30
0
70
128
71
6
72
5
73
30
0
VERTEX
8
OBJECT__14
10
0
20
0
30
0
70
128
71
22
72
15
73
20
0
VERTEX
8
OBJECT__14
10
0
20
0
30
0
70
128
71
14
72
28
73
15
0
VERTEX
8
OBJECT__14
10
0
20
0
30
0
70
128
71
10
72
19
73
7
0
VERTEX
8
OBJECT__14
10
0
20
0
30
0
70
128
71
3
72
13
73
1
0
SEQEND
8
OBJECT__14
0
POLYLINE
8
OBJECT__15
66
1
70
64
71
80
72
109
62
253
0
VERTEX
8
OBJECT__15
10
-30.167999
20
-5.700000
30
131.811996
70
192
0
VERTEX
8
OBJECT__15
10
-27.729000
20
-8.039000
30
132.570999
70
192
0
VERTEX
8
OBJECT__15
10
-27.658001
20
-4.790000
30
136.354996
70
192
0
VERTEX
8
OBJECT__15
10
-31.695999
20
-2.957000
30
131.356003
70
192
0
VERTEX
8
OBJECT__15
10
-29.184999
20
-3.391000
30
135.936005
70
192
0
VERTEX
8
OBJECT__15
10
-30.139000
20
-1.757000
30
135.684006
70
192
0
VERTEX
8
OBJECT__15
10
-28.108000
20
-2.002000
30
137.524002
70
192
0
VERTEX
8
OBJECT__15
10
-28.881001
20
0.000000
30
137.376999
70
192
0
VERTEX
8
OBJECT__15
10
-30.464001
20
0.000000
30
135.600006
70
192
0
VERTEX
8
OBJECT__15
10
-32.217999
20
0.000000
30
131.203995
70
192
0
VERTEX
8
OBJECT__15
10
-32.189999
20
-3.751000
30
126.670998
70
192
0
VERTEX
8
OBJECT__15
10
-30.309000
20
-7.213000
30
127.149002
70
192
0
VERTEX
8
OBJECT__15
10
-27.320999
20
-10.130000
30
127.946999
70
192
0
VERTEX
8
OBJECT__15
10
-27.108000
20
-10.779000
30
122.918999
70
192
0
VERTEX
8
OBJECT__15
10
-30.221001
20
-7.741000
30
122.275002
70
192
0
VERTEX
8
OBJECT__15
10
-32.833000
20
0.000000
30
126.512001
70
192
0
VERTEX
8
OBJECT__15
10
-32.195000
20
-4.045000
30
121.889000
70
192
0
VERTEX
8
OBJECT__15
10
-31.695999
20
2.956000
30
131.356003
70
192
0
VERTEX
8
OBJECT__15
10
-32.195000
20
4.044000
30
121.889000
70
192
0
VERTEX
8
OBJECT__15
10
-32.873001
20
0.000000
30
121.760002
70
192
0
VERTEX
8
OBJECT__15
10
-32.189999
20
3.750000
30
126.670998
70
192
0
VERTEX
8
OBJECT__15
10
-30.139000
20
1.757000
30
135.684006
70
192
0
VERTEX
8
OBJECT__15
10
-28.684999
20
1.037000
30
137.414001
70
192
0
VERTEX
8
OBJECT__15
10
-29.184999
20
3.391000
30
135.936005
70
192
0
VERTEX
8
OBJECT__15
10
-30.167999
20
5.699000
30
131.811996
70
192
0
VERTEX
8
OBJECT__15
10
-30.221001
20
7.741000
30
122.275002
70
192
0
VERTEX
8
OBJECT__15
10
-30.309000
20
7.213000
30
127.149002
70
192
0
VERTEX
8
OBJECT__15
10
-27.730000
20
8.039000
30
132.570999
70
192
0
VERTEX
8
OBJECT__15
10
-27.658001
20
4.790000
30
136.354996
70
192
0
VERTEX
8
OBJECT__15
10
-27.108000
20
10.779000
30
122.918999
70
192
0
VERTEX
8
OBJECT__15
10
-27.009001
20
11.108000
30
103.000000
70
192
0
VERTEX
8
OBJECT__15
10
-29.805000
20
8.561000
30
103.000000
70
192
0
VERTEX
8
OBJECT__15
10
-30.093000
20
8.079000
30
103.000000
70
192
0
VERTEX
8
OBJECT__15
10
-31.856001
20
5.130000
30
103.000000
70
192
0
VERTEX
8
OBJECT__15
10
-32.071999
20
4.253000
30
103.000000
70
192
0
VERTEX
8
OBJECT__15
10
-32.808998
20
1.271000
30
103.000000
70
192
0
VERTEX
8
OBJECT__15
10
-32.770000
20
0.003000
30
103.000000
70
192
0
VERTEX
8
OBJECT__15
10
-32.707001
20
-2.084000
30
103.000000
70
192
0
VERTEX
8
OBJECT__15
10
-32.028000
20
-4.233000
30
103.000000
70
192
0
VERTEX
8
OBJECT__15
10
-31.485001
20
-5.953000
30
103.000000
70
192
0
VERTEX
8
OBJECT__15
10
-30.056000
20
-8.047000
30
103.000000
70
192
0
VERTEX
8
OBJECT__15
10
-29.336000
20
-9.103000
30
103.000000
70
192
0
VERTEX
8
OBJECT__15
10
-26.951000
20
-11.034000
30
103.000000
70
192
0
VERTEX
8
OBJECT__15
10
-26.209999
20
-11.634000
30
103.000000
70
192
0
VERTEX
8
OBJECT__15
10
-23.393999
20
-12.886000
30
103.000000
70
192
0
VERTEX
8
OBJECT__15
10
-23.377001
20
-12.830000
30
120.782997
70
192
0
VERTEX
8
OBJECT__15
10
-23.402000
20
-12.726000
30
124.362999
70
192
0
VERTEX
8
OBJECT__15
10
-23.420000
20
-12.649000
30
127.030998
70
192
0
VERTEX
8
OBJECT__15
10
-23.396999
20
-12.744000
30
123.761002
70
192
0
VERTEX
8
OBJECT__15
10
-24.014000
20
-11.533000
30
130.675995
70
192
0
VERTEX
8
OBJECT__15
10
-24.896000
20
-9.610000
30
133.472000
70
192
0
VERTEX
8
OBJECT__15
10
-23.830000
20
-11.878000
30
129.546997
70
192
0
VERTEX
8
OBJECT__15
10
-23.731001
20
-12.064000
30
128.942001
70
192
0
VERTEX
8
OBJECT__15
10
-26.007000
20
-6.537000
30
136.216003
70
192
0
VERTEX
8
OBJECT__15
10
-25.054001
20
-9.267000
30
133.970001
70
192
0
VERTEX
8
OBJECT__15
10
-26.780001
20
-2.941000
30
137.841995
70
192
0
VERTEX
8
OBJECT__15
10
-26.889000
20
-1.403000
30
138.113998
70
192
0
VERTEX
8
OBJECT__15
10
-26.330999
20
-5.031000
30
136.897003
70
192
0
VERTEX
8
OBJECT__15
10
-26.232000
20
-5.490000
30
136.688995
70
192
0
VERTEX
8
OBJECT__15
10
-26.990999
20
0.016000
30
138.365997
70
192
0
VERTEX
8
OBJECT__15
10
-26.952000
20
0.524000
30
138.270996
70
192
0
VERTEX
8
OBJECT__15
10
-26.882999
20
1.432000
30
138.102005
70
192
0
VERTEX
8
OBJECT__15
10
-26.792999
20
2.617000
30
137.882004
70
192
0
VERTEX
8
OBJECT__15
10
-26.754999
20
3.112000
30
137.789993
70
192
0
VERTEX
8
OBJECT__15
10
-26.329000
20
5.030000
30
136.891006
70
192
0
VERTEX
8
OBJECT__15
10
-26.229000
20
5.480000
30
136.679993
70
192
0
VERTEX
8
OBJECT__15
10
-25.954000
20
6.714000
30
136.102005
70
192
0
VERTEX
8
OBJECT__15
10
-25.051001
20
9.205000
30
133.912994
70
192
0
VERTEX
8
OBJECT__15
10
-27.320999
20
10.130000
30
127.945999
70
192
0
VERTEX
8
OBJECT__15
10
-24.863001
20
9.721000
30
133.460007
70
192
0
VERTEX
8
OBJECT__15
10
-23.959000
20
11.641000
30
130.447006
70
192
0
VERTEX
8
OBJECT__15
10
-23.822001
20
11.898000
30
129.580994
70
192
0
VERTEX
8
OBJECT__15
10
-23.422001
20
12.645000
30
127.060997
70
192
0
VERTEX
8
OBJECT__15
10
-23.403999
20
12.721000
30
124.406998
70
192
0
VERTEX
8
OBJECT__15
10
-23.722000
20
12.085000
30
128.951004
70
192
0
VERTEX
8
OBJECT__15
10
-23.391001
20
12.877000
30
111.487000
70
192
0
VERTEX
8
OBJECT__15
10
-23.393999
20
12.886000
30
103.000000
70
192
0
VERTEX
8
OBJECT__15
10
-26.926001
20
11.183000
30
103.000000
70
192
0
VERTEX
8
OBJECT__15
10
-23.377001
20
12.831000
30
120.610001
70
192
0
VERTEX
8
OBJECT__15
10
-23.399000
20
12.740000
30
123.761002
70
192
0
VERTEX
8
OBJECT__15
10
0
20
0
30
0
70
128
71
1
72
2
73
3
0
VERTEX
8
OBJECT__15
10
0
20
0
30
0
70
128
71
4
72
1
73
5
0
VERTEX
8
OBJECT__15
10
0
20
0
30
0
70
128
71
6
72
5
73
7
0
VERTEX
8
OBJECT__15
10
0
20
0
30
0
70
128
71
8
72
9
73
6
0
VERTEX
8
OBJECT__15
10
0
20
0
30
0
70
128
71
10
72
4
73
6
0
VERTEX
8
OBJECT__15
10
0
20
0
30
0
70
128
71
11
72
12
73
1
0
VERTEX
8
OBJECT__15
10
0
20
0
30
0
70
128
71
12
72
13
73
2
0
VERTEX
8
OBJECT__15
10
0
20
0
30
0
70
128
71
14
72
13
73
12
0
VERTEX
8
OBJECT__15
10
0
20
0
30
0
70
128
71
15
72
12
73
11
0
VERTEX
8
OBJECT__15
10
0
20
0
30
0
70
128
71
16
72
11
73
4
0
VERTEX
8
OBJECT__15
10
0
20
0
30
0
70
128
71
17
72
11
73
16
0
VERTEX
8
OBJECT__15
10
0
20
0
30
0
70
128
71
16
72
10
73
18
0
VERTEX
8
OBJECT__15
10
0
20
0
30
0
70
128
71
19
72
20
73
16
0
VERTEX
8
OBJECT__15
10
0
20
0
30
0
70
128
71
16
72
21
73
19
0
VERTEX
8
OBJECT__15
10
0
20
0
30
0
70
128
71
10
72
9
73
22
0
VERTEX
8
OBJECT__15
10
0
20
0
30
0
70
128
71
9
72
8
73
23
0
VERTEX
8
OBJECT__15
10
0
20
0
30
0
70
128
71
18
72
22
73
24
0
VERTEX
8
OBJECT__15
10
0
20
0
30
0
70
128
71
21
72
18
73
25
0
VERTEX
8
OBJECT__15
10
0
20
0
30
0
70
128
71
26
72
19
73
21
0
VERTEX
8
OBJECT__15
10
0
20
0
30
0
70
128
71
27
72
25
73
28
0
VERTEX
8
OBJECT__15
10
0
20
0
30
0
70
128
71
25
72
24
73
29
0
VERTEX
8
OBJECT__15
10
0
20
0
30
0
70
128
71
30
72
26
73
27
0
VERTEX
8
OBJECT__15
10
0
20
0
30
0
70
128
71
31
72
32
73
26
0
VERTEX
8
OBJECT__15
10
0
20
0
30
0
70
128
71
26
72
30
73
31
0
VERTEX
8
OBJECT__15
10
0
20
0
30
0
70
128
71
32
72
33
73
26
0
VERTEX
8
OBJECT__15
10
0
20
0
30
0
70
128
71
26
72
33
73
34
0
VERTEX
8
OBJECT__15
10
0
20
0
30
0
70
128
71
34
72
19
73
26
0
VERTEX
8
OBJECT__15
10
0
20
0
30
0
70
128
71
34
72
35
73
19
0
VERTEX
8
OBJECT__15
10
0
20
0
30
0
70
128
71
20
72
36
73
37
0
VERTEX
8
OBJECT__15
10
0
20
0
30
0
70
128
71
19
72
35
73
36
0
VERTEX
8
OBJECT__15
10
0
20
0
30
0
70
128
71
36
72
20
73
19
0
VERTEX
8
OBJECT__15
10
0
20
0
30
0
70
128
71
20
72
37
73
38
0
VERTEX
8
OBJECT__15
10
0
20
0
30
0
70
128
71
38
72
17
73
20
0
VERTEX
8
OBJECT__15
10
0
20
0
30
0
70
128
71
15
72
39
73
40
0
VERTEX
8
OBJECT__15
10
0
20
0
30
0
70
128
71
39
72
15
73
17
0
VERTEX
8
OBJECT__15
10
0
20
0
30
0
70
128
71
40
72
41
73
15
0
VERTEX
8
OBJECT__15
10
0
20
0
30
0
70
128
71
14
72
41
73
42
0
VERTEX
8
OBJECT__15
10
0
20
0
30
0
70
128
71
41
72
14
73
15
0
VERTEX
8
OBJECT__15
10
0
20
0
30
0
70
128
71
42
72
43
73
14
0
VERTEX
8
OBJECT__15
10
0
20
0
30
0
70
128
71
44
72
45
73
46
0
VERTEX
8
OBJECT__15
10
0
20
0
30
0
70
128
71
46
72
14
73
44
0
VERTEX
8
OBJECT__15
10
0
20
0
30
0
70
128
71
14
72
43
73
44
0
VERTEX
8
OBJECT__15
10
0
20
0
30
0
70
128
71
13
72
14
73
47
0
VERTEX
8
OBJECT__15
10
0
20
0
30
0
70
128
71
47
72
48
73
13
0
VERTEX
8
OBJECT__15
10
0
20
0
30
0
70
128
71
14
72
49
73
47
0
VERTEX
8
OBJECT__15
10
0
20
0
30
0
70
128
71
13
72
50
73
51
0
VERTEX
8
OBJECT__15
10
0
20
0
30
0
70
128
71
13
72
52
73
50
0
VERTEX
8
OBJECT__15
10
0
20
0
30
0
70
128
71
13
72
53
73
52
0
VERTEX
8
OBJECT__15
10
0
20
0
30
0
70
128
71
3
72
2
73
54
0
VERTEX
8
OBJECT__15
10
0
20
0
30
0
70
128
71
2
72
51
73
55
0
VERTEX
8
OBJECT__15
10
0
20
0
30
0
70
128
71
55
72
54
73
2
0
VERTEX
8
OBJECT__15
10
0
20
0
30
0
70
128
71
56
72
57
73
7
0
VERTEX
8
OBJECT__15
10
0
20
0
30
0
70
128
71
56
72
5
73
3
0
VERTEX
8
OBJECT__15
10
0
20
0
30
0
70
128
71
3
72
58
73
56
0
VERTEX
8
OBJECT__15
10
0
20
0
30
0
70
128
71
3
72
59
73
58
0
VERTEX
8
OBJECT__15
10
0
20
0
30
0
70
128
71
8
72
7
73
57
0
VERTEX
8
OBJECT__15
10
0
20
0
30
0
70
128
71
8
72
60
73
61
0
VERTEX
8
OBJECT__15
10
0
20
0
30
0
70
128
71
62
72
24
73
23
0
VERTEX
8
OBJECT__15
10
0
20
0
30
0
70
128
71
24
72
22
73
23
0
VERTEX
8
OBJECT__15
10
0
20
0
30
0
70
128
71
24
72
62
73
63
0
VERTEX
8
OBJECT__15
10
0
20
0
30
0
70
128
71
29
72
63
73
64
0
VERTEX
8
OBJECT__15
10
0
20
0
30
0
70
128
71
64
72
65
73
29
0
VERTEX
8
OBJECT__15
10
0
20
0
30
0
70
128
71
29
72
66
73
67
0
VERTEX
8
OBJECT__15
10
0
20
0
30
0
70
128
71
67
72
28
73
29
0
VERTEX
8
OBJECT__15
10
0
20
0
30
0
70
128
71
67
72
68
73
28
0
VERTEX
8
OBJECT__15
10
0
20
0
30
0
70
128
71
69
72
28
73
70
0
VERTEX
8
OBJECT__15
10
0
20
0
30
0
70
128
71
70
72
71
73
69
0
VERTEX
8
OBJECT__15
10
0
20
0
30
0
70
128
71
71
72
72
73
69
0
VERTEX
8
OBJECT__15
10
0
20
0
30
0
70
128
71
69
72
73
73
74
0
VERTEX
8
OBJECT__15
10
0
20
0
30
0
70
128
71
69
72
75
73
73
0
VERTEX
8
OBJECT__15
10
0
20
0
30
0
70
128
71
74
72
30
73
69
0
VERTEX
8
OBJECT__15
10
0
20
0
30
0
70
128
71
76
72
77
73
78
0
VERTEX
8
OBJECT__15
10
0
20
0
30
0
70
128
71
30
72
79
73
76
0
VERTEX
8
OBJECT__15
10
0
20
0
30
0
70
128
71
30
72
80
73
79
0
VERTEX
8
OBJECT__15
10
0
20
0
30
0
70
128
71
76
72
31
73
30
0
VERTEX
8
OBJECT__15
10
0
20
0
30
0
70
128
71
78
72
31
73
76
0
VERTEX
8
OBJECT__15
10
0
20
0
30
0
70
128
71
74
72
80
73
30
0
VERTEX
8
OBJECT__15
10
0
20
0
30
0
70
128
71
72
72
75
73
69
0
VERTEX
8
OBJECT__15
10
0
20
0
30
0
70
128
71
68
72
70
73
28
0
VERTEX
8
OBJECT__15
10
0
20
0
30
0
70
128
71
65
72
66
73
29
0
VERTEX
8
OBJECT__15
10
0
20
0
30
0
70
128
71
63
72
29
73
24
0
VERTEX
8
OBJECT__15
10
0
20
0
30
0
70
128
71
23
72
61
73
62
0
VERTEX
8
OBJECT__15
10
0
20
0
30
0
70
128
71
61
72
23
73
8
0
VERTEX
8
OBJECT__15
10
0
20
0
30
0
70
128
71
57
72
60
73
8
0
VERTEX
8
OBJECT__15
10
0
20
0
30
0
70
128
71
7
72
5
73
56
0
VERTEX
8
OBJECT__15
10
0
20
0
30
0
70
128
71
54
72
59
73
3
0
VERTEX
8
OBJECT__15
10
0
20
0
30
0
70
128
71
51
72
2
73
13
0
VERTEX
8
OBJECT__15
10
0
20
0
30
0
70
128
71
48
72
53
73
13
0
VERTEX
8
OBJECT__15
10
0
20
0
30
0
70
128
71
46
72
49
73
14
0
VERTEX
8
OBJECT__15
10
0
20
0
30
0
70
128
71
38
72
39
73
17
0
VERTEX
8
OBJECT__15
10
0
20
0
30
0
70
128
71
27
72
69
73
30
0
VERTEX
8
OBJECT__15
10
0
20
0
30
0
70
128
71
29
72
28
73
25
0
VERTEX
8
OBJECT__15
10
0
20
0
30
0
70
128
71
28
72
69
73
27
0
VERTEX
8
OBJECT__15
10
0
20
0
30
0
70
128
71
21
72
27
73
26
0
VERTEX
8
OBJECT__15
10
0
20
0
30
0
70
128
71
25
72
27
73
21
0
VERTEX
8
OBJECT__15
10
0
20
0
30
0
70
128
71
24
72
25
73
18
0
VERTEX
8
OBJECT__15
10
0
20
0
30
0
70
128
71
23
72
22
73
9
0
VERTEX
8
OBJECT__15
10
0
20
0
30
0
70
128
71
22
72
18
73
10
0
VERTEX
8
OBJECT__15
10
0
20
0
30
0
70
128
71
18
72
21
73
16
0
VERTEX
8
OBJECT__15
10
0
20
0
30
0
70
128
71
16
72
20
73
17
0
VERTEX
8
OBJECT__15
10
0
20
0
30
0
70
128
71
4
72
10
73
16
0
VERTEX
8
OBJECT__15
10
0
20
0
30
0
70
128
71
11
72
17
73
15
0
VERTEX
8
OBJECT__15
10
0
20
0
30
0
70
128
71
12
72
15
73
14
0
VERTEX
8
OBJECT__15
10
0
20
0
30
0
70
128
71
2
72
1
73
12
0
VERTEX
8
OBJECT__15
10
0
20
0
30
0
70
128
71
1
72
4
73
11
0
VERTEX
8
OBJECT__15
10
0
20
0
30
0
70
128
71
6
72
9
73
10
0
VERTEX
8
OBJECT__15
10
0
20
0
30
0
70
128
71
7
72
8
73
6
0
VERTEX
8
OBJECT__15
10
0
20
0
30
0
70
128
71
5
72
6
73
4
0
VERTEX
8
OBJECT__15
10
0
20
0
30
0
70
128
71
3
72
5
73
1
0
SEQEND
8
OBJECT__15
0
POLYLINE
8
OBJECT__16
66
1
70
64
71
82
72
111
62
253
0
VERTEX
8
OBJECT__16
10
-32.196999
20
4.040000
30
84.283997
70
192
0
VERTEX
8
OBJECT__16
10
-32.186001
20
3.735000
30
79.550003
70
192
0
VERTEX
8
OBJECT__16
10
-32.827999
20
0.000000
30
79.709999
70
192
0
VERTEX
8
OBJECT__16
10
-32.196999
20
0.000000
30
75.061996
70
192
0
VERTEX
8
OBJECT__16
10
-31.677999
20
2.938000
30
74.911003
70
192
0
VERTEX
8
OBJECT__16
10
-30.118999
20
1.744000
30
70.632004
70
192
0
VERTEX
8
OBJECT__16
10
-27.111000
20
10.772000
30
83.245003
70
192
0
VERTEX
8
OBJECT__16
10
-27.333000
20
10.091000
30
78.271004
70
192
0
VERTEX
8
OBJECT__16
10
-30.311001
20
7.184000
30
79.070999
70
192
0
VERTEX
8
OBJECT__16
10
-30.223000
20
7.733000
30
83.894997
70
192
0
VERTEX
8
OBJECT__16
10
-30.158001
20
5.664000
30
74.457001
70
192
0
VERTEX
8
OBJECT__16
10
-27.733999
20
7.990000
30
73.700996
70
192
0
VERTEX
8
OBJECT__16
10
-27.653999
20
4.755000
30
69.967003
70
192
0
VERTEX
8
OBJECT__16
10
-29.171000
20
3.366000
30
70.383003
70
192
0
VERTEX
8
OBJECT__16
10
-28.099001
20
1.988000
30
68.817001
70
192
0
VERTEX
8
OBJECT__16
10
-28.865999
20
0.000000
30
68.962997
70
192
0
VERTEX
8
OBJECT__16
10
-30.441999
20
0.000000
30
70.714996
70
192
0
VERTEX
8
OBJECT__16
10
-30.223000
20
-7.733000
30
83.894997
70
192
0
VERTEX
8
OBJECT__16
10
-32.196999
20
-4.039000
30
84.283997
70
192
0
VERTEX
8
OBJECT__16
10
-32.186001
20
-3.735000
30
79.551003
70
192
0
VERTEX
8
OBJECT__16
10
-27.111000
20
-10.772000
30
83.245003
70
192
0
VERTEX
8
OBJECT__16
10
-30.311001
20
-7.184000
30
79.070999
70
192
0
VERTEX
8
OBJECT__16
10
-30.158001
20
-5.664000
30
74.458000
70
192
0
VERTEX
8
OBJECT__16
10
-27.733999
20
-7.990000
30
73.702003
70
192
0
VERTEX
8
OBJECT__16
10
-29.171000
20
-3.366000
30
70.383003
70
192
0
VERTEX
8
OBJECT__16
10
-27.653999
20
-4.755000
30
69.967003
70
192
0
VERTEX
8
OBJECT__16
10
-31.677999
20
-2.938000
30
74.911003
70
192
0
VERTEX
8
OBJECT__16
10
-30.118999
20
-1.744000
30
70.632004
70
192
0
VERTEX
8
OBJECT__16
10
-32.874001
20
0.000000
30
84.414001
70
192
0
VERTEX
8
OBJECT__16
10
-28.671000
20
-1.030000
30
68.926003
70
192
0
VERTEX
8
OBJECT__16
10
-23.396999
20
12.731000
30
81.810997
70
192
0
VERTEX
8
OBJECT__16
10
-23.409000
20
12.668000
30
79.464996
70
192
0
VERTEX
8
OBJECT__16
10
-23.393999
20
12.746000
30
82.393997
70
192
0
VERTEX
8
OBJECT__16
10
-23.862000
20
11.828000
30
76.334999
70
192
0
VERTEX
8
OBJECT__16
10
-24.868000
20
9.711000
30
72.876999
70
192
0
VERTEX
8
OBJECT__16
10
-23.816999
20
11.912000
30
76.646004
70
192
0
VERTEX
8
OBJECT__16
10
-23.730000
20
12.073000
30
77.248001
70
192
0
VERTEX
8
OBJECT__16
10
-25.955999
20
6.709000
30
70.245003
70
192
0
VERTEX
8
OBJECT__16
10
-25.076000
20
9.137000
30
72.374001
70
192
0
VERTEX
8
OBJECT__16
10
-26.746000
20
3.175000
30
68.581001
70
192
0
VERTEX
8
OBJECT__16
10
-26.878000
20
1.454000
30
68.259003
70
192
0
VERTEX
8
OBJECT__16
10
-26.340000
20
4.991000
30
69.436996
70
192
0
VERTEX
8
OBJECT__16
10
-26.240000
20
5.438000
30
69.647003
70
192
0
VERTEX
8
OBJECT__16
10
-26.990999
20
0.000000
30
67.986000
70
192
0
VERTEX
8
OBJECT__16
10
-26.985001
20
-0.377000
30
68.005997
70
192
0
VERTEX
8
OBJECT__16
10
-26.982000
20
-0.578000
30
68.015999
70
192
0
VERTEX
8
OBJECT__16
10
-26.922001
20
-1.153000
30
68.154999
70
192
0
VERTEX
8
OBJECT__16
10
-26.754999
20
-2.764000
30
68.541000
70
192
0
VERTEX
8
OBJECT__16
10
-26.650999
20
-3.764000
30
68.780998
70
192
0
VERTEX
8
OBJECT__16
10
-26.346001
20
-4.989000
30
69.431000
70
192
0
VERTEX
8
OBJECT__16
10
-26.236000
20
-5.429000
30
69.664001
70
192
0
VERTEX
8
OBJECT__16
10
-25.764999
20
-7.323000
30
70.667999
70
192
0
VERTEX
8
OBJECT__16
10
-25.083000
20
-9.102000
30
72.380997
70
192
0
VERTEX
8
OBJECT__16
10
-27.333000
20
-10.092000
30
78.271004
70
192
0
VERTEX
8
OBJECT__16
10
-24.719999
20
-10.049000
30
73.292999
70
192
0
VERTEX
8
OBJECT__16
10
-23.850000
20
-11.852000
30
76.389999
70
192
0
VERTEX
8
OBJECT__16
10
-24.910000
20
-9.554000
30
72.816002
70
192
0
VERTEX
8
OBJECT__16
10
-23.813999
20
-11.918000
30
76.636002
70
192
0
VERTEX
8
OBJECT__16
10
-23.414000
20
-12.659000
30
79.390999
70
192
0
VERTEX
8
OBJECT__16
10
-23.393999
20
-12.740000
30
81.792999
70
192
0
VERTEX
8
OBJECT__16
10
-23.726000
20
-12.082000
30
77.246002
70
192
0
VERTEX
8
OBJECT__16
10
-26.209999
20
-11.634000
30
103.000000
70
192
0
VERTEX
8
OBJECT__16
10
-23.386999
20
-12.863000
30
91.140999
70
192
0
VERTEX
8
OBJECT__16
10
-23.393999
20
-12.886000
30
103.000000
70
192
0
VERTEX
8
OBJECT__16
10
-23.389000
20
-12.760000
30
82.394997
70
192
0
VERTEX
8
OBJECT__16
10
-23.374001
20
-12.821000
30
84.209999
70
192
0
VERTEX
8
OBJECT__16
10
-26.951000
20
-11.034000
30
103.000000
70
192
0
VERTEX
8
OBJECT__16
10
-29.336000
20
-9.103000
30
103.000000
70
192
0
VERTEX
8
OBJECT__16
10
-30.056000
20
-8.047000
30
103.000000
70
192
0
VERTEX
8
OBJECT__16
10
-31.485001
20
-5.953000
30
103.000000
70
192
0
VERTEX
8
OBJECT__16
10
-32.028000
20
-4.233000
30
103.000000
70
192
0
VERTEX
8
OBJECT__16
10
-32.707001
20
-2.084000
30
103.000000
70
192
0
VERTEX
8
OBJECT__16
10
-32.770000
20
0.003000
30
103.000000
70
192
0
VERTEX
8
OBJECT__16
10
-32.808998
20
1.271000
30
103.000000
70
192
0
VERTEX
8
OBJECT__16
10
-32.073002
20
4.252000
30
103.000000
70
192
0
VERTEX
8
OBJECT__16
10
-31.856001
20
5.130000
30
103.000000
70
192
0
VERTEX
8
OBJECT__16
10
-30.094000
20
8.078000
30
103.000000
70
192
0
VERTEX
8
OBJECT__16
10
-27.009001
20
11.108000
30
103.000000
70
192
0
VERTEX
8
OBJECT__16
10
-29.805000
20
8.561000
30
103.000000
70
192
0
VERTEX
8
OBJECT__16
10
-26.926001
20
11.183000
30
103.000000
70
192
0
VERTEX
8
OBJECT__16
10
-23.393999
20
12.886000
30
103.000000
70
192
0
VERTEX
8
OBJECT__16
10
-23.377001
20
12.829000
30
85.529999
70
192
0
VERTEX
8
OBJECT__16
10
0
20
0
30
0
70
128
71
1
72
2
73
3
0
VERTEX
8
OBJECT__16
10
0
20
0
30
0
70
128
71
4
72
5
73
6
0
VERTEX
8
OBJECT__16
10
0
20
0
30
0
70
128
71
7
72
8
73
9
0
VERTEX
8
OBJECT__16
10
0
20
0
30
0
70
128
71
3
72
2
73
5
0
VERTEX
8
OBJECT__16
10
0
20
0
30
0
70
128
71
10
72
9
73
2
0
VERTEX
8
OBJECT__16
10
0
20
0
30
0
70
128
71
2
72
9
73
11
0
VERTEX
8
OBJECT__16
10
0
20
0
30
0
70
128
71
9
72
8
73
12
0
VERTEX
8
OBJECT__16
10
0
20
0
30
0
70
128
71
11
72
12
73
13
0
VERTEX
8
OBJECT__16
10
0
20
0
30
0
70
128
71
6
72
14
73
15
0
VERTEX
8
OBJECT__16
10
0
20
0
30
0
70
128
71
16
72
17
73
6
0
VERTEX
8
OBJECT__16
10
0
20
0
30
0
70
128
71
5
72
11
73
14
0
VERTEX
8
OBJECT__16
10
0
20
0
30
0
70
128
71
18
72
19
73
20
0
VERTEX
8
OBJECT__16
10
0
20
0
30
0
70
128
71
21
72
18
73
22
0
VERTEX
8
OBJECT__16
10
0
20
0
30
0
70
128
71
22
72
23
73
24
0
VERTEX
8
OBJECT__16
10
0
20
0
30
0
70
128
71
23
72
25
73
26
0
VERTEX
8
OBJECT__16
10
0
20
0
30
0
70
128
71
27
72
28
73
25
0
VERTEX
8
OBJECT__16
10
0
20
0
30
0
70
128
71
3
72
4
73
27
0
VERTEX
8
OBJECT__16
10
0
20
0
30
0
70
128
71
19
72
29
73
3
0
VERTEX
8
OBJECT__16
10
0
20
0
30
0
70
128
71
3
72
20
73
19
0
VERTEX
8
OBJECT__16
10
0
20
0
30
0
70
128
71
20
72
27
73
23
0
VERTEX
8
OBJECT__16
10
0
20
0
30
0
70
128
71
4
72
17
73
28
0
VERTEX
8
OBJECT__16
10
0
20
0
30
0
70
128
71
17
72
16
73
30
0
VERTEX
8
OBJECT__16
10
0
20
0
30
0
70
128
71
8
72
7
73
31
0
VERTEX
8
OBJECT__16
10
0
20
0
30
0
70
128
71
31
72
32
73
8
0
VERTEX
8
OBJECT__16
10
0
20
0
30
0
70
128
71
7
72
33
73
31
0
VERTEX
8
OBJECT__16
10
0
20
0
30
0
70
128
71
8
72
34
73
35
0
VERTEX
8
OBJECT__16
10
0
20
0
30
0
70
128
71
8
72
36
73
34
0
VERTEX
8
OBJECT__16
10
0
20
0
30
0
70
128
71
8
72
37
73
36
0
VERTEX
8
OBJECT__16
10
0
20
0
30
0
70
128
71
13
72
12
73
38
0
VERTEX
8
OBJECT__16
10
0
20
0
30
0
70
128
71
12
72
39
73
38
0
VERTEX
8
OBJECT__16
10
0
20
0
30
0
70
128
71
12
72
35
73
39
0
VERTEX
8
OBJECT__16
10
0
20
0
30
0
70
128
71
40
72
41
73
15
0
VERTEX
8
OBJECT__16
10
0
20
0
30
0
70
128
71
40
72
14
73
13
0
VERTEX
8
OBJECT__16
10
0
20
0
30
0
70
128
71
13
72
42
73
40
0
VERTEX
8
OBJECT__16
10
0
20
0
30
0
70
128
71
13
72
43
73
42
0
VERTEX
8
OBJECT__16
10
0
20
0
30
0
70
128
71
16
72
15
73
41
0
VERTEX
8
OBJECT__16
10
0
20
0
30
0
70
128
71
16
72
44
73
45
0
VERTEX
8
OBJECT__16
10
0
20
0
30
0
70
128
71
30
72
46
73
47
0
VERTEX
8
OBJECT__16
10
0
20
0
30
0
70
128
71
25
72
28
73
30
0
VERTEX
8
OBJECT__16
10
0
20
0
30
0
70
128
71
30
72
45
73
46
0
VERTEX
8
OBJECT__16
10
0
20
0
30
0
70
128
71
25
72
47
73
48
0
VERTEX
8
OBJECT__16
10
0
20
0
30
0
70
128
71
26
72
48
73
49
0
VERTEX
8
OBJECT__16
10
0
20
0
30
0
70
128
71
49
72
50
73
26
0
VERTEX
8
OBJECT__16
10
0
20
0
30
0
70
128
71
24
72
26
73
51
0
VERTEX
8
OBJECT__16
10
0
20
0
30
0
70
128
71
51
72
52
73
24
0
VERTEX
8
OBJECT__16
10
0
20
0
30
0
70
128
71
52
72
53
73
24
0
VERTEX
8
OBJECT__16
10
0
20
0
30
0
70
128
71
54
72
24
73
55
0
VERTEX
8
OBJECT__16
10
0
20
0
30
0
70
128
71
55
72
56
73
54
0
VERTEX
8
OBJECT__16
10
0
20
0
30
0
70
128
71
24
72
57
73
55
0
VERTEX
8
OBJECT__16
10
0
20
0
30
0
70
128
71
56
72
58
73
54
0
VERTEX
8
OBJECT__16
10
0
20
0
30
0
70
128
71
54
72
59
73
60
0
VERTEX
8
OBJECT__16
10
0
20
0
30
0
70
128
71
54
72
61
73
59
0
VERTEX
8
OBJECT__16
10
0
20
0
30
0
70
128
71
60
72
21
73
54
0
VERTEX
8
OBJECT__16
10
0
20
0
30
0
70
128
71
62
72
21
73
63
0
VERTEX
8
OBJECT__16
10
0
20
0
30
0
70
128
71
63
72
64
73
62
0
VERTEX
8
OBJECT__16
10
0
20
0
30
0
70
128
71
21
72
65
73
66
0
VERTEX
8
OBJECT__16
10
0
20
0
30
0
70
128
71
66
72
63
73
21
0
VERTEX
8
OBJECT__16
10
0
20
0
30
0
70
128
71
21
72
67
73
68
0
VERTEX
8
OBJECT__16
10
0
20
0
30
0
70
128
71
68
72
18
73
21
0
VERTEX
8
OBJECT__16
10
0
20
0
30
0
70
128
71
19
72
69
73
70
0
VERTEX
8
OBJECT__16
10
0
20
0
30
0
70
128
71
69
72
19
73
18
0
VERTEX
8
OBJECT__16
10
0
20
0
30
0
70
128
71
70
72
71
73
19
0
VERTEX
8
OBJECT__16
10
0
20
0
30
0
70
128
71
29
72
19
73
72
0
VERTEX
8
OBJECT__16
10
0
20
0
30
0
70
128
71
72
72
73
73
29
0
VERTEX
8
OBJECT__16
10
0
20
0
30
0
70
128
71
71
72
72
73
19
0
VERTEX
8
OBJECT__16
10
0
20
0
30
0
70
128
71
1
72
29
73
74
0
VERTEX
8
OBJECT__16
10
0
20
0
30
0
70
128
71
74
72
75
73
1
0
VERTEX
8
OBJECT__16
10
0
20
0
30
0
70
128
71
29
72
73
73
74
0
VERTEX
8
OBJECT__16
10
0
20
0
30
0
70
128
71
10
72
1
73
76
0
VERTEX
8
OBJECT__16
10
0
20
0
30
0
70
128
71
1
72
75
73
76
0
VERTEX
8
OBJECT__16
10
0
20
0
30
0
70
128
71
76
72
77
73
10
0
VERTEX
8
OBJECT__16
10
0
20
0
30
0
70
128
71
78
72
7
73
10
0
VERTEX
8
OBJECT__16
10
0
20
0
30
0
70
128
71
10
72
77
73
79
0
VERTEX
8
OBJECT__16
10
0
20
0
30
0
70
128
71
10
72
79
73
78
0
VERTEX
8
OBJECT__16
10
0
20
0
30
0
70
128
71
80
72
81
73
82
0
VERTEX
8
OBJECT__16
10
0
20
0
30
0
70
128
71
82
72
7
73
80
0
VERTEX
8
OBJECT__16
10
0
20
0
30
0
70
128
71
7
72
78
73
80
0
VERTEX
8
OBJECT__16
10
0
20
0
30
0
70
128
71
82
72
33
73
7
0
VERTEX
8
OBJECT__16
10
0
20
0
30
0
70
128
71
68
72
69
73
18
0
VERTEX
8
OBJECT__16
10
0
20
0
30
0
70
128
71
62
72
67
73
21
0
VERTEX
8
OBJECT__16
10
0
20
0
30
0
70
128
71
60
72
65
73
21
0
VERTEX
8
OBJECT__16
10
0
20
0
30
0
70
128
71
58
72
61
73
54
0
VERTEX
8
OBJECT__16
10
0
20
0
30
0
70
128
71
53
72
57
73
24
0
VERTEX
8
OBJECT__16
10
0
20
0
30
0
70
128
71
50
72
51
73
26
0
VERTEX
8
OBJECT__16
10
0
20
0
30
0
70
128
71
48
72
26
73
25
0
VERTEX
8
OBJECT__16
10
0
20
0
30
0
70
128
71
47
72
25
73
30
0
VERTEX
8
OBJECT__16
10
0
20
0
30
0
70
128
71
45
72
30
73
16
0
VERTEX
8
OBJECT__16
10
0
20
0
30
0
70
128
71
41
72
44
73
16
0
VERTEX
8
OBJECT__16
10
0
20
0
30
0
70
128
71
15
72
14
73
40
0
VERTEX
8
OBJECT__16
10
0
20
0
30
0
70
128
71
38
72
43
73
13
0
VERTEX
8
OBJECT__16
10
0
20
0
30
0
70
128
71
35
72
12
73
8
0
VERTEX
8
OBJECT__16
10
0
20
0
30
0
70
128
71
32
72
37
73
8
0
VERTEX
8
OBJECT__16
10
0
20
0
30
0
70
128
71
30
72
28
73
17
0
VERTEX
8
OBJECT__16
10
0
20
0
30
0
70
128
71
28
72
27
73
4
0
VERTEX
8
OBJECT__16
10
0
20
0
30
0
70
128
71
23
72
22
73
20
0
VERTEX
8
OBJECT__16
10
0
20
0
30
0
70
128
71
27
72
20
73
3
0
VERTEX
8
OBJECT__16
10
0
20
0
30
0
70
128
71
25
72
23
73
27
0
VERTEX
8
OBJECT__16
10
0
20
0
30
0
70
128
71
26
72
24
73
23
0
VERTEX
8
OBJECT__16
10
0
20
0
30
0
70
128
71
24
72
54
73
22
0
VERTEX
8
OBJECT__16
10
0
20
0
30
0
70
128
71
22
72
54
73
21
0
VERTEX
8
OBJECT__16
10
0
20
0
30
0
70
128
71
20
72
22
73
18
0
VERTEX
8
OBJECT__16
10
0
20
0
30
0
70
128
71
14
72
6
73
5
0
VERTEX
8
OBJECT__16
10
0
20
0
30
0
70
128
71
15
72
16
73
6
0
VERTEX
8
OBJECT__16
10
0
20
0
30
0
70
128
71
13
72
14
73
11
0
VERTEX
8
OBJECT__16
10
0
20
0
30
0
70
128
71
12
72
11
73
9
0
VERTEX
8
OBJECT__16
10
0
20
0
30
0
70
128
71
11
72
5
73
2
0
VERTEX
8
OBJECT__16
10
0
20
0
30
0
70
128
71
2
72
1
73
10
0
VERTEX
8
OBJECT__16
10
0
20
0
30
0
70
128
71
5
72
4
73
3
0
VERTEX
8
OBJECT__16
10
0
20
0
30
0
70
128
71
9
72
10
73
7
0
VERTEX
8
OBJECT__16
10
0
20
0
30
0
70
128
71
6
72
17
73
4
0
VERTEX
8
OBJECT__16
10
0
20
0
30
0
70
128
71
3
72
29
73
1
0
SEQEND
8
OBJECT__16
0
POLYLINE
8
OBJECT__17
66
1
70
64
71
14
72
12
62
253
0
VERTEX
8
OBJECT__17
10
12.769000
20
-22.530001
30
24.427000
70
192
0
VERTEX
8
OBJECT__17
10
12.769000
20
-22.530001
30
-0.027000
70
192
0
VERTEX
8
OBJECT__17
10
-0.400000
20
-25.740000
30
-0.027000
70
192
0
VERTEX
8
OBJECT__17
10
22.483000
20
-13.077000
30
24.427000
70
192
0
VERTEX
8
OBJECT__17
10
22.483000
20
-13.077000
30
-0.027000
70
192
0
VERTEX
8
OBJECT__17
10
26.049999
20
0.000000
30
-0.027000
70
192
0
VERTEX
8
OBJECT__17
10
22.483000
20
13.077000
30
24.427000
70
192
0
VERTEX
8
OBJECT__17
10
22.483000
20
13.077000
30
-0.027000
70
192
0
VERTEX
8
OBJECT__17
10
12.769000
20
22.530001
30
24.427000
70
192
0
VERTEX
8
OBJECT__17
10
12.769000
20
22.530001
30
-0.027000
70
192
0
VERTEX
8
OBJECT__17
10
-0.400000
20
25.740000
30
-0.027000
70
192
0
VERTEX
8
OBJECT__17
10
-0.400000
20
25.740000
30
24.427000
70
192
0
VERTEX
8
OBJECT__17
10
26.049999
20
0.000000
30
24.427000
70
192
0
VERTEX
8
OBJECT__17
10
-0.400000
20
-25.740000
30
24.427000
70
192
0
VERTEX
8
OBJECT__17
10
0
20
0
30
0
70
128
71
1
72
2
73
3
0
VERTEX
8
OBJECT__17
10
0
20
0
30
0
70
128
71
4
72
5
73
2
0
VERTEX
8
OBJECT__17
10
0
20
0
30
0
70
128
71
6
72
5
73
4
0
VERTEX
8
OBJECT__17
10
0
20
0
30
0
70
128
71
7
72
8
73
6
0
VERTEX
8
OBJECT__17
10
0
20
0
30
0
70
128
71
9
72
10
73
8
0
VERTEX
8
OBJECT__17
10
0
20
0
30
0
70
128
71
11
72
10
73
9
0
VERTEX
8
OBJECT__17
10
0
20
0
30
0
70
128
71
9
72
12
73
11
0
VERTEX
8
OBJECT__17
10
0
20
0
30
0
70
128
71
8
72
7
73
9
0
VERTEX
8
OBJECT__17
10
0
20
0
30
0
70
128
71
6
72
13
73
7
0
VERTEX
8
OBJECT__17
10
0
20
0
30
0
70
128
71
4
72
13
73
6
0
VERTEX
8
OBJECT__17
10
0
20
0
30
0
70
128
71
2
72
1
73
4
0
VERTEX
8
OBJECT__17
10
0
20
0
30
0
70
128
71
3
72
14
73
1
0
SEQEND
8
OBJECT__17
0
POLYLINE
8
OBJECT__18
66
1
70
64
71
25
72
23
62
253
0
VERTEX
8
OBJECT__18
10
-8.094000
20
24.782000
30
24.427000
70
192
0
VERTEX
8
OBJECT__18
10
-16.320000
20
23.104000
30
24.427000
70
192
0
VERTEX
8
OBJECT__18
10
-16.320000
20
22.603001
30
24.427000
70
192
0
VERTEX
8
OBJECT__18
10
-8.094000
20
-24.782000
30
24.427000
70
192
0
VERTEX
8
OBJECT__18
10
-15.154000
20
-21.577000
30
24.427000
70
192
0
VERTEX
8
OBJECT__18
10
-16.320000
20
-22.603001
30
24.427000
70
192
0
VERTEX
8
OBJECT__18
10
-15.762000
20
24.146000
30
24.427000
70
192
0
VERTEX
8
OBJECT__18
10
-16.320000
20
-23.105000
30
24.427000
70
192
0
VERTEX
8
OBJECT__18
10
-15.154000
20
21.577000
30
24.427000
70
192
0
VERTEX
8
OBJECT__18
10
-15.762000
20
-24.145000
30
24.427000
70
192
0
VERTEX
8
OBJECT__18
10
-2.811000
20
-28.833000
30
24.427000
70
192
0
VERTEX
8
OBJECT__18
10
28.469999
20
-6.887000
30
24.427000
70
192
0
VERTEX
8
OBJECT__18
10
26.049999
20
0.000000
30
24.427000
70
192
0
VERTEX
8
OBJECT__18
10
22.483000
20
-13.077000
30
24.427000
70
192
0
VERTEX
8
OBJECT__18
10
10.842000
20
27.016001
30
24.427000
70
192
0
VERTEX
8
OBJECT__18
10
-2.811000
20
28.833000
30
24.427000
70
192
0
VERTEX
8
OBJECT__18
10
-0.400000
20
25.740000
30
24.427000
70
192
0
VERTEX
8
OBJECT__18
10
-0.400000
20
-25.740000
30
24.427000
70
192
0
VERTEX
8
OBJECT__18
10
10.841000
20
-27.016001
30
24.427000
70
192
0
VERTEX
8
OBJECT__18
10
12.769000
20
-22.530001
30
24.427000
70
192
0
VERTEX
8
OBJECT__18
10
22.115999
20
-19.106001
30
24.427000
70
192
0
VERTEX
8
OBJECT__18
10
28.471001
20
6.886000
30
24.427000
70
192
0
VERTEX
8
OBJECT__18
10
22.117001
20
19.106001
30
24.427000
70
192
0
VERTEX
8
OBJECT__18
10
12.769000
20
22.530001
30
24.427000
70
192
0
VERTEX
8
OBJECT__18
10
22.483000
20
13.077000
30
24.427000
70
192
0
VERTEX
8
OBJECT__18
10
0
20
0
30
0
70
128
71
1
72
2
73
3
0
VERTEX
8
OBJECT__18
10
0
20
0
30
0
70
128
71
4
72
5
73
6
0
VERTEX
8
OBJECT__18
10
0
20
0
30
0
70
128
71
1
72
7
73
2
0
VERTEX
8
OBJECT__18
10
0
20
0
30
0
70
128
71
6
72
8
73
4
0
VERTEX
8
OBJECT__18
10
0
20
0
30
0
70
128
71
3
72
9
73
1
0
VERTEX
8
OBJECT__18
10
0
20
0
30
0
70
128
71
10
72
11
73
4
0
VERTEX
8
OBJECT__18
10
0
20
0
30
0
70
128
71
12
72
13
73
14
0
VERTEX
8
OBJECT__18
10
0
20
0
30
0
70
128
71
15
72
16
73
17
0
VERTEX
8
OBJECT__18
10
0
20
0
30
0
70
128
71
1
72
16
73
7
0
VERTEX
8
OBJECT__18
10
0
20
0
30
0
70
128
71
11
72
18
73
4
0
VERTEX
8
OBJECT__18
10
0
20
0
30
0
70
128
71
19
72
20
73
18
0
VERTEX
8
OBJECT__18
10
0
20
0
30
0
70
128
71
21
72
14
73
20
0
VERTEX
8
OBJECT__18
10
0
20
0
30
0
70
128
71
12
72
22
73
13
0
VERTEX
8
OBJECT__18
10
0
20
0
30
0
70
128
71
23
72
15
73
24
0
VERTEX
8
OBJECT__18
10
0
20
0
30
0
70
128
71
1
72
17
73
16
0
VERTEX
8
OBJECT__18
10
0
20
0
30
0
70
128
71
18
72
11
73
19
0
VERTEX
8
OBJECT__18
10
0
20
0
30
0
70
128
71
14
72
21
73
12
0
VERTEX
8
OBJECT__18
10
0
20
0
30
0
70
128
71
22
72
23
73
25
0
VERTEX
8
OBJECT__18
10
0
20
0
30
0
70
128
71
17
72
24
73
15
0
VERTEX
8
OBJECT__18
10
0
20
0
30
0
70
128
71
20
72
19
73
21
0
VERTEX
8
OBJECT__18
10
0
20
0
30
0
70
128
71
24
72
25
73
23
0
VERTEX
8
OBJECT__18
10
0
20
0
30
0
70
128
71
25
72
13
73
22
0
VERTEX
8
OBJECT__18
10
0
20
0
30
0
70
128
71
8
72
10
73
4
0
SEQEND
8
OBJECT__18
0
POLYLINE
8
OBJECT__20
66
1
70
64
71
6
72
4
62
253
0
VERTEX
8
OBJECT__20
10
-16.320000
20
-23.105000
30
24.427000
70
192
0
VERTEX
8
OBJECT__20
10
-16.320000
20
-23.105000
30
-0.027000
70
192
0
VERTEX
8
OBJECT__20
10
-15.762000
20
-24.145000
30
22.973000
70
192
0
VERTEX
8
OBJECT__20
10
-15.762000
20
-24.146000
30
1.427000
70
192
0
VERTEX
8
OBJECT__20
10
-15.762000
20
-24.145000
30
-0.027000
70
192
0
VERTEX
8
OBJECT__20
10
-15.762000
20
-24.145000
30
24.427000
70
192
0
VERTEX
8
OBJECT__20
10
0
20
0
30
0
70
128
71
1
72
2
73
3
0
VERTEX
8
OBJECT__20
10
0
20
0
30
0
70
128
71
2
72
5
73
4
0
VERTEX
8
OBJECT__20
10
0
20
0
30
0
70
128
71
4
72
3
73
2
0
VERTEX
8
OBJECT__20
10
0
20
0
30
0
70
128
71
3
72
6
73
1
0
SEQEND
8
OBJECT__20
0
POLYLINE
8
OBJECT__21
66
1
70
64
71
4
72
2
62
253
0
VERTEX
8
OBJECT__21
10
-16.320000
20
-23.105000
30
24.427000
70
192
0
VERTEX
8
OBJECT__21
10
-16.320000
20
-22.603001
30
24.427000
70
192
0
VERTEX
8
OBJECT__21
10
-16.320000
20
-22.603001
30
-0.027000
70
192
0
VERTEX
8
OBJECT__21
10
-16.320000
20
-23.105000
30
-0.027000
70
192
0
VERTEX
8
OBJECT__21
10
0
20
0
30
0
70
128
71
1
72
2
73
3
0
VERTEX
8
OBJECT__21
10
0
20
0
30
0
70
128
71
3
72
4
73
1
0
SEQEND
8
OBJECT__21
0
POLYLINE
8
OBJECT__22
66
1
70
64
71
4
72
2
62
253
0
VERTEX
8
OBJECT__22
10
-16.320000
20
22.603001
30
24.427000
70
192
0
VERTEX
8
OBJECT__22
10
-16.320000
20
23.104000
30
24.427000
70
192
0
VERTEX
8
OBJECT__22
10
-16.320000
20
23.104000
30
-0.027000
70
192
0
VERTEX
8
OBJECT__22
10
-16.320000
20
22.603001
30
-0.027000
70
192
0
VERTEX
8
OBJECT__22
10
0
20
0
30
0
70
128
71
1
72
2
73
3
0
VERTEX
8
OBJECT__22
10
0
20
0
30
0
70
128
71
3
72
4
73
1
0
SEQEND
8
OBJECT__22
0
POLYLINE
8
OBJECT__23
66
1
70
64
71
4
72
2
62
253
0
VERTEX
8
OBJECT__23
10
-16.320000
20
23.104000
30
24.427000
70
192
0
VERTEX
8
OBJECT__23
10
-15.762000
20
24.146000
30
24.427000
70
192
0
VERTEX
8
OBJECT__23
10
-15.762000
20
24.146000
30
-0.027000
70
192
0
VERTEX
8
OBJECT__23
10
-16.320000
20
23.104000
30
-0.027000
70
192
0
VERTEX
8
OBJECT__23
10
0
20
0
30
0
70
128
71
1
72
2
73
3
0
VERTEX
8
OBJECT__23
10
0
20
0
30
0
70
128
71
3
72
4
73
1
0
SEQEND
8
OBJECT__23
0
POLYLINE
8
OBJECT__24
66
1
70
64
71
4
72
2
62
253
0
VERTEX
8
OBJECT__24
10
-16.320000
20
-22.603001
30
24.427000
70
192
0
VERTEX
8
OBJECT__24
10
-15.154000
20
-21.577000
30
24.427000
70
192
0
VERTEX
8
OBJECT__24
10
-15.154000
20
-21.577000
30
-0.027000
70
192
0
VERTEX
8
OBJECT__24
10
-16.320000
20
-22.603001
30
-0.027000
70
192
0
VERTEX
8
OBJECT__24
10
0
20
0
30
0
70
128
71
1
72
2
73
3
0
VERTEX
8
OBJECT__24
10
0
20
0
30
0
70
128
71
3
72
4
73
1
0
SEQEND
8
OBJECT__24
0
POLYLINE
8
OBJECT__25
66
1
70
64
71
4
72
2
62
253
0
VERTEX
8
OBJECT__25
10
-15.154000
20
21.577000
30
24.427000
70
192
0
VERTEX
8
OBJECT__25
10
-16.320000
20
22.603001
30
24.427000
70
192
0
VERTEX
8
OBJECT__25
10
-16.320000
20
22.603001
30
-0.027000
70
192
0
VERTEX
8
OBJECT__25
10
-15.154000
20
21.577000
30
-0.027000
70
192
0
VERTEX
8
OBJECT__25
10
0
20
0
30
0
70
128
71
1
72
2
73
3
0
VERTEX
8
OBJECT__25
10
0
20
0
30
0
70
128
71
3
72
4
73
1
0
SEQEND
8
OBJECT__25
0
POLYLINE
8
OBJECT__26
66
1
70
64
71
58
72
58
62
253
0
VERTEX
8
OBJECT__26
10
-2.811000
20
28.833000
30
-0.027000
70
192
0
VERTEX
8
OBJECT__26
10
-2.813000
20
28.816000
30
1.427000
70
192
0
VERTEX
8
OBJECT__26
10
10.794000
20
27.035000
30
1.427000
70
192
0
VERTEX
8
OBJECT__26
10
10.842000
20
27.016001
30
-0.027000
70
192
0
VERTEX
8
OBJECT__26
10
10.835000
20
27.006001
30
1.427000
70
192
0
VERTEX
8
OBJECT__26
10
22.096001
20
19.129000
30
1.427000
70
192
0
VERTEX
8
OBJECT__26
10
22.117001
20
19.106001
30
-0.027000
70
192
0
VERTEX
8
OBJECT__26
10
22.110001
20
19.103001
30
1.427000
70
192
0
VERTEX
8
OBJECT__26
10
28.468000
20
6.896000
30
1.427000
70
192
0
VERTEX
8
OBJECT__26
10
28.471001
20
6.886000
30
-0.027000
70
192
0
VERTEX
8
OBJECT__26
10
28.469999
20
-6.887000
30
-0.027000
70
192
0
VERTEX
8
OBJECT__26
10
28.468000
20
6.886000
30
1.427000
70
192
0
VERTEX
8
OBJECT__26
10
22.115999
20
-19.106001
30
-0.027000
70
192
0
VERTEX
8
OBJECT__26
10
28.468000
20
-6.896000
30
1.427000
70
192
0
VERTEX
8
OBJECT__26
10
28.468000
20
-6.887000
30
1.427000
70
192
0
VERTEX
8
OBJECT__26
10
10.841000
20
-27.016001
30
-0.027000
70
192
0
VERTEX
8
OBJECT__26
10
22.096001
20
-19.129000
30
1.427000
70
192
0
VERTEX
8
OBJECT__26
10
22.110001
20
-19.103001
30
1.427000
70
192
0
VERTEX
8
OBJECT__26
10
-2.811000
20
-28.833000
30
-0.027000
70
192
0
VERTEX
8
OBJECT__26
10
10.794000
20
-27.035000
30
1.427000
70
192
0
VERTEX
8
OBJECT__26
10
10.834000
20
-27.006001
30
1.427000
70
192
0
VERTEX
8
OBJECT__26
10
-2.811000
20
-28.833000
30
24.427000
70
192
0
VERTEX
8
OBJECT__26
10
-15.762000
20
-24.145000
30
24.427000
70
192
0
VERTEX
8
OBJECT__26
10
-15.216000
20
-24.500000
30
22.973000
70
192
0
VERTEX
8
OBJECT__26
10
-2.882000
20
-28.825001
30
22.973000
70
192
0
VERTEX
8
OBJECT__26
10
-15.762000
20
-24.145000
30
-0.027000
70
192
0
VERTEX
8
OBJECT__26
10
-15.762000
20
-24.146000
30
1.427000
70
192
0
VERTEX
8
OBJECT__26
10
-15.216000
20
-24.500000
30
1.427000
70
192
0
VERTEX
8
OBJECT__26
10
-15.762000
20
-24.146000
30
22.973000
70
192
0
VERTEX
8
OBJECT__26
10
-2.882000
20
-28.825001
30
1.427000
70
192
0
VERTEX
8
OBJECT__26
10
-2.814000
20
-28.816000
30
1.427000
70
192
0
VERTEX
8
OBJECT__26
10
-2.814000
20
-28.816000
30
22.973000
70
192
0
VERTEX
8
OBJECT__26
10
10.794000
20
-27.035000
30
22.973000
70
192
0
VERTEX
8
OBJECT__26
10
10.841000
20
-27.016001
30
24.427000
70
192
0
VERTEX
8
OBJECT__26
10
10.834000
20
-27.006001
30
22.973000
70
192
0
VERTEX
8
OBJECT__26
10
22.096001
20
-19.129000
30
22.973000
70
192
0
VERTEX
8
OBJECT__26
10
22.115999
20
-19.106001
30
24.427000
70
192
0
VERTEX
8
OBJECT__26
10
22.110001
20
-19.103001
30
22.973000
70
192
0
VERTEX
8
OBJECT__26
10
28.468000
20
-6.896000
30
22.973000
70
192
0
VERTEX
8
OBJECT__26
10
28.469999
20
-6.887000
30
24.427000
70
192
0
VERTEX
8
OBJECT__26
10
28.468000
20
-6.887000
30
22.973000
70
192
0
VERTEX
8
OBJECT__26
10
28.468000
20
6.886000
30
22.973000
70
192
0
VERTEX
8
OBJECT__26
10
22.117001
20
19.106001
30
24.427000
70
192
0
VERTEX
8
OBJECT__26
10
28.471001
20
6.886000
30
24.427000
70
192
0
VERTEX
8
OBJECT__26
10
28.468000
20
6.896000
30
22.973000
70
192
0
VERTEX
8
OBJECT__26
10
10.842000
20
27.016001
30
24.427000
70
192
0
VERTEX
8
OBJECT__26
10
22.096001
20
19.129000
30
22.973000
70
192
0
VERTEX
8
OBJECT__26
10
22.110001
20
19.103001
30
22.973000
70
192
0
VERTEX
8
OBJECT__26
10
-2.811000
20
28.833000
30
24.427000
70
192
0
VERTEX
8
OBJECT__26
10
10.794000
20
27.035000
30
22.973000
70
192
0
VERTEX
8
OBJECT__26
10
10.835000
20
27.006001
30
22.973000
70
192
0
VERTEX
8
OBJECT__26
10
-15.762000
20
24.146000
30
-0.027000
70
192
0
VERTEX
8
OBJECT__26
10
-15.216000
20
24.500000
30
1.427000
70
192
0
VERTEX
8
OBJECT__26
10
-2.882000
20
28.825001
30
1.427000
70
192
0
VERTEX
8
OBJECT__26
10
-15.762000
20
24.146000
30
24.427000
70
192
0
VERTEX
8
OBJECT__26
10
-15.216000
20
24.500000
30
22.973000
70
192
0
VERTEX
8
OBJECT__26
10
-2.882000
20
28.825001
30
22.973000
70
192
0
VERTEX
8
OBJECT__26
10
-2.813000
20
28.816000
30
22.973000
70
192
0
VERTEX
8
OBJECT__26
10
0
20
0
30
0
70
128
71
1
72
2
73
3
0
VERTEX
8
OBJECT__26
10
0
20
0
30
0
70
128
71
3
72
4
73
1
0
VERTEX
8
OBJECT__26
10
0
20
0
30
0
70
128
71
4
72
5
73
6
0
VERTEX
8
OBJECT__26
10
0
20
0
30
0
70
128
71
6
72
7
73
4
0
VERTEX
8
OBJECT__26
10
0
20
0
30
0
70
128
71
7
72
8
73
9
0
VERTEX
8
OBJECT__26
10
0
20
0
30
0
70
128
71
9
72
10
73
7
0
VERTEX
8
OBJECT__26
10
0
20
0
30
0
70
128
71
11
72
10
73
12
0
VERTEX
8
OBJECT__26
10
0
20
0
30
0
70
128
71
13
72
11
73
14
0
VERTEX
8
OBJECT__26
10
0
20
0
30
0
70
128
71
11
72
15
73
14
0
VERTEX
8
OBJECT__26
10
0
20
0
30
0
70
128
71
16
72
13
73
17
0
VERTEX
8
OBJECT__26
10
0
20
0
30
0
70
128
71
13
72
18
73
17
0
VERTEX
8
OBJECT__26
10
0
20
0
30
0
70
128
71
19
72
16
73
20
0
VERTEX
8
OBJECT__26
10
0
20
0
30
0
70
128
71
16
72
21
73
20
0
VERTEX
8
OBJECT__26
10
0
20
0
30
0
70
128
71
22
72
23
73
24
0
VERTEX
8
OBJECT__26
10
0
20
0
30
0
70
128
71
24
72
25
73
22
0
VERTEX
8
OBJECT__26
10
0
20
0
30
0
70
128
71
26
72
19
73
27
0
VERTEX
8
OBJECT__26
10
0
20
0
30
0
70
128
71
28
72
24
73
29
0
VERTEX
8
OBJECT__26
10
0
20
0
30
0
70
128
71
19
72
30
73
28
0
VERTEX
8
OBJECT__26
10
0
20
0
30
0
70
128
71
19
72
31
73
30
0
VERTEX
8
OBJECT__26
10
0
20
0
30
0
70
128
71
28
72
27
73
19
0
VERTEX
8
OBJECT__26
10
0
20
0
30
0
70
128
71
29
72
27
73
28
0
VERTEX
8
OBJECT__26
10
0
20
0
30
0
70
128
71
29
72
24
73
23
0
VERTEX
8
OBJECT__26
10
0
20
0
30
0
70
128
71
22
72
32
73
33
0
VERTEX
8
OBJECT__26
10
0
20
0
30
0
70
128
71
33
72
34
73
22
0
VERTEX
8
OBJECT__26
10
0
20
0
30
0
70
128
71
34
72
35
73
36
0
VERTEX
8
OBJECT__26
10
0
20
0
30
0
70
128
71
36
72
37
73
34
0
VERTEX
8
OBJECT__26
10
0
20
0
30
0
70
128
71
37
72
38
73
39
0
VERTEX
8
OBJECT__26
10
0
20
0
30
0
70
128
71
39
72
40
73
37
0
VERTEX
8
OBJECT__26
10
0
20
0
30
0
70
128
71
40
72
41
73
42
0
VERTEX
8
OBJECT__26
10
0
20
0
30
0
70
128
71
43
72
44
73
45
0
VERTEX
8
OBJECT__26
10
0
20
0
30
0
70
128
71
44
72
42
73
45
0
VERTEX
8
OBJECT__26
10
0
20
0
30
0
70
128
71
46
72
43
73
47
0
VERTEX
8
OBJECT__26
10
0
20
0
30
0
70
128
71
43
72
48
73
47
0
VERTEX
8
OBJECT__26
10
0
20
0
30
0
70
128
71
49
72
46
73
50
0
VERTEX
8
OBJECT__26
10
0
20
0
30
0
70
128
71
46
72
51
73
50
0
VERTEX
8
OBJECT__26
10
0
20
0
30
0
70
128
71
1
72
52
73
53
0
VERTEX
8
OBJECT__26
10
0
20
0
30
0
70
128
71
53
72
54
73
1
0
VERTEX
8
OBJECT__26
10
0
20
0
30
0
70
128
71
55
72
56
73
53
0
VERTEX
8
OBJECT__26
10
0
20
0
30
0
70
128
71
53
72
52
73
55
0
VERTEX
8
OBJECT__26
10
0
20
0
30
0
70
128
71
49
72
57
73
56
0
VERTEX
8
OBJECT__26
10
0
20
0
30
0
70
128
71
49
72
58
73
57
0
VERTEX
8
OBJECT__26
10
0
20
0
30
0
70
128
71
56
72
55
73
49
0
VERTEX
8
OBJECT__26
10
0
20
0
30
0
70
128
71
54
72
2
73
1
0
VERTEX
8
OBJECT__26
10
0
20
0
30
0
70
128
71
50
72
58
73
49
0
VERTEX
8
OBJECT__26
10
0
20
0
30
0
70
128
71
47
72
51
73
46
0
VERTEX
8
OBJECT__26
10
0
20
0
30
0
70
128
71
45
72
48
73
43
0
VERTEX
8
OBJECT__26
10
0
20
0
30
0
70
128
71
42
72
44
73
40
0
VERTEX
8
OBJECT__26
10
0
20
0
30
0
70
128
71
39
72
41
73
40
0
VERTEX
8
OBJECT__26
10
0
20
0
30
0
70
128
71
36
72
38
73
37
0
VERTEX
8
OBJECT__26
10
0
20
0
30
0
70
128
71
33
72
35
73
34
0
VERTEX
8
OBJECT__26
10
0
20
0
30
0
70
128
71
25
72
32
73
22
0
VERTEX
8
OBJECT__26
10
0
20
0
30
0
70
128
71
20
72
31
73
19
0
VERTEX
8
OBJECT__26
10
0
20
0
30
0
70
128
71
17
72
21
73
16
0
VERTEX
8
OBJECT__26
10
0
20
0
30
0
70
128
71
14
72
18
73
13
0
VERTEX
8
OBJECT__26
10
0
20
0
30
0
70
128
71
12
72
15
73
11
0
VERTEX
8
OBJECT__26
10
0
20
0
30
0
70
128
71
9
72
12
73
10
0
VERTEX
8
OBJECT__26
10
0
20
0
30
0
70
128
71
6
72
8
73
7
0
VERTEX
8
OBJECT__26
10
0
20
0
30
0
70
128
71
3
72
5
73
4
0
SEQEND
8
OBJECT__26
0
POLYLINE
8
OBJECT__27
66
1
70
64
71
60
72
58
62
253
0
VERTEX
8
OBJECT__27
10
-2.813000
20
28.816000
30
1.427000
70
192
0
VERTEX
8
OBJECT__27
10
1.123000
20
27.159000
30
1.475000
70
192
0
VERTEX
8
OBJECT__27
10
4.889000
20
26.584000
30
1.480000
70
192
0
VERTEX
8
OBJECT__27
10
10.794000
20
27.035000
30
1.427000
70
192
0
VERTEX
8
OBJECT__27
10
-2.701000
20
27.094000
30
1.470000
70
192
0
VERTEX
8
OBJECT__27
10
0.341000
20
27.146000
30
1.474000
70
192
0
VERTEX
8
OBJECT__27
10
-2.882000
20
28.825001
30
1.427000
70
192
0
VERTEX
8
OBJECT__27
10
22.096001
20
19.129000
30
1.427000
70
192
0
VERTEX
8
OBJECT__27
10
10.835000
20
27.006001
30
1.427000
70
192
0
VERTEX
8
OBJECT__27
10
13.351000
20
23.103001
30
1.492000
70
192
0
VERTEX
8
OBJECT__27
10
9.988000
20
24.892000
30
1.487000
70
192
0
VERTEX
8
OBJECT__27
10
13.348000
20
23.104000
30
1.492000
70
192
0
VERTEX
8
OBJECT__27
10
17.601999
20
19.819000
30
1.498000
70
192
0
VERTEX
8
OBJECT__27
10
9.965000
20
24.900000
30
1.487000
70
192
0
VERTEX
8
OBJECT__27
10
28.468000
20
6.896000
30
1.427000
70
192
0
VERTEX
8
OBJECT__27
10
22.110001
20
19.103001
30
1.427000
70
192
0
VERTEX
8
OBJECT__27
10
23.108000
20
12.511000
30
1.505000
70
192
0
VERTEX
8
OBJECT__27
10
20.184000
20
17.017000
30
1.501000
70
192
0
VERTEX
8
OBJECT__27
10
22.680000
20
13.171000
30
1.505000
70
192
0
VERTEX
8
OBJECT__27
10
24.615999
20
9.013000
30
1.507000
70
192
0
VERTEX
8
OBJECT__27
10
19.962999
20
17.256001
30
1.501000
70
192
0
VERTEX
8
OBJECT__27
10
25.402000
20
-6.144000
30
1.509000
70
192
0
VERTEX
8
OBJECT__27
10
28.468000
20
-6.896000
30
1.427000
70
192
0
VERTEX
8
OBJECT__27
10
28.468000
20
-6.887000
30
1.427000
70
192
0
VERTEX
8
OBJECT__27
10
28.468000
20
6.886000
30
1.427000
70
192
0
VERTEX
8
OBJECT__27
10
26.149000
20
0.000000
30
1.510000
70
192
0
VERTEX
8
OBJECT__27
10
26.150000
20
-0.008000
30
1.510000
70
192
0
VERTEX
8
OBJECT__27
10
25.885000
20
3.793000
30
1.509000
70
192
0
VERTEX
8
OBJECT__27
10
25.318001
20
6.125000
30
1.508000
70
192
0
VERTEX
8
OBJECT__27
10
25.618999
20
-5.353000
30
1.509000
70
192
0
VERTEX
8
OBJECT__27
10
19.958000
20
-17.250000
30
1.501000
70
192
0
VERTEX
8
OBJECT__27
10
22.096001
20
-19.129000
30
1.427000
70
192
0
VERTEX
8
OBJECT__27
10
22.110001
20
-19.103001
30
1.427000
70
192
0
VERTEX
8
OBJECT__27
10
24.611000
20
-9.027000
30
1.507000
70
192
0
VERTEX
8
OBJECT__27
10
22.674999
20
-13.179000
30
1.505000
70
192
0
VERTEX
8
OBJECT__27
10
22.341000
20
-13.895000
30
1.504000
70
192
0
VERTEX
8
OBJECT__27
10
20.174000
20
-17.028999
30
1.501000
70
192
0
VERTEX
8
OBJECT__27
10
9.917000
20
-24.804001
30
1.487000
70
192
0
VERTEX
8
OBJECT__27
10
10.794000
20
-27.035000
30
1.427000
70
192
0
VERTEX
8
OBJECT__27
10
10.834000
20
-27.006001
30
1.427000
70
192
0
VERTEX
8
OBJECT__27
10
16.420000
20
-20.871000
30
1.496000
70
192
0
VERTEX
8
OBJECT__27
10
13.347000
20
-23.104000
30
1.492000
70
192
0
VERTEX
8
OBJECT__27
10
13.338000
20
-23.111000
30
1.492000
70
192
0
VERTEX
8
OBJECT__27
10
-2.700000
20
-27.138000
30
1.470000
70
192
0
VERTEX
8
OBJECT__27
10
-2.882000
20
-28.825001
30
1.427000
70
192
0
VERTEX
8
OBJECT__27
10
-2.814000
20
-28.816000
30
1.427000
70
192
0
VERTEX
8
OBJECT__27
10
4.874000
20
-26.587000
30
1.480000
70
192
0
VERTEX
8
OBJECT__27
10
0.331000
20
-27.145000
30
1.474000
70
192
0
VERTEX
8
OBJECT__27
10
8.524000
20
-25.493999
30
1.485000
70
192
0
VERTEX
8
OBJECT__27
10
-0.457000
20
-27.242001
30
1.473000
70
192
0
VERTEX
8
OBJECT__27
10
-14.942000
20
-24.500000
30
1.431000
70
192
0
VERTEX
8
OBJECT__27
10
-9.511000
20
-25.920000
30
1.461000
70
192
0
VERTEX
8
OBJECT__27
10
-13.029000
20
-24.500000
30
1.456000
70
192
0
VERTEX
8
OBJECT__27
10
-4.263000
20
-27.066000
30
1.468000
70
192
0
VERTEX
8
OBJECT__27
10
-14.942000
20
24.500000
30
1.431000
70
192
0
VERTEX
8
OBJECT__27
10
-13.029000
20
24.500000
30
1.456000
70
192
0
VERTEX
8
OBJECT__27
10
-7.992000
20
26.364000
30
1.463000
70
192
0
VERTEX
8
OBJECT__27
10
-15.216000
20
24.500000
30
1.427000
70
192
0
VERTEX
8
OBJECT__27
10
-4.248000
20
27.068001
30
1.468000
70
192
0
VERTEX
8
OBJECT__27
10
-15.216000
20
-24.500000
30
1.427000
70
192
0
VERTEX
8
OBJECT__27
10
0
20
0
30
0
70
128
71
1
72
2
73
3
0
VERTEX
8
OBJECT__27
10
0
20
0
30
0
70
128
71
3
72
4
73
1
0
VERTEX
8
OBJECT__27
10
0
20
0
30
0
70
128
71
5
72
6
73
1
0
VERTEX
8
OBJECT__27
10
0
20
0
30
0
70
128
71
1
72
7
73
5
0
VERTEX
8
OBJECT__27
10
0
20
0
30
0
70
128
71
6
72
2
73
1
0
VERTEX
8
OBJECT__27
10
0
20
0
30
0
70
128
71
8
72
9
73
10
0
VERTEX
8
OBJECT__27
10
0
20
0
30
0
70
128
71
9
72
11
73
12
0
VERTEX
8
OBJECT__27
10
0
20
0
30
0
70
128
71
12
72
10
73
9
0
VERTEX
8
OBJECT__27
10
0
20
0
30
0
70
128
71
10
72
13
73
8
0
VERTEX
8
OBJECT__27
10
0
20
0
30
0
70
128
71
14
72
11
73
9
0
VERTEX
8
OBJECT__27
10
0
20
0
30
0
70
128
71
9
72
4
73
14
0
VERTEX
8
OBJECT__27
10
0
20
0
30
0
70
128
71
15
72
16
73
17
0
VERTEX
8
OBJECT__27
10
0
20
0
30
0
70
128
71
16
72
18
73
19
0
VERTEX
8
OBJECT__27
10
0
20
0
30
0
70
128
71
19
72
17
73
16
0
VERTEX
8
OBJECT__27
10
0
20
0
30
0
70
128
71
17
72
20
73
15
0
VERTEX
8
OBJECT__27
10
0
20
0
30
0
70
128
71
21
72
18
73
16
0
VERTEX
8
OBJECT__27
10
0
20
0
30
0
70
128
71
16
72
8
73
21
0
VERTEX
8
OBJECT__27
10
0
20
0
30
0
70
128
71
22
72
23
73
24
0
VERTEX
8
OBJECT__27
10
0
20
0
30
0
70
128
71
25
72
26
73
27
0
VERTEX
8
OBJECT__27
10
0
20
0
30
0
70
128
71
25
72
28
73
26
0
VERTEX
8
OBJECT__27
10
0
20
0
30
0
70
128
71
27
72
24
73
25
0
VERTEX
8
OBJECT__27
10
0
20
0
30
0
70
128
71
29
72
28
73
25
0
VERTEX
8
OBJECT__27
10
0
20
0
30
0
70
128
71
25
72
15
73
29
0
VERTEX
8
OBJECT__27
10
0
20
0
30
0
70
128
71
27
72
30
73
24
0
VERTEX
8
OBJECT__27
10
0
20
0
30
0
70
128
71
31
72
32
73
33
0
VERTEX
8
OBJECT__27
10
0
20
0
30
0
70
128
71
23
72
34
73
35
0
VERTEX
8
OBJECT__27
10
0
20
0
30
0
70
128
71
35
72
33
73
23
0
VERTEX
8
OBJECT__27
10
0
20
0
30
0
70
128
71
35
72
36
73
33
0
VERTEX
8
OBJECT__27
10
0
20
0
30
0
70
128
71
23
72
22
73
34
0
VERTEX
8
OBJECT__27
10
0
20
0
30
0
70
128
71
36
72
37
73
33
0
VERTEX
8
OBJECT__27
10
0
20
0
30
0
70
128
71
38
72
39
73
40
0
VERTEX
8
OBJECT__27
10
0
20
0
30
0
70
128
71
40
72
32
73
41
0
VERTEX
8
OBJECT__27
10
0
20
0
30
0
70
128
71
41
72
42
73
40
0
VERTEX
8
OBJECT__27
10
0
20
0
30
0
70
128
71
32
72
31
73
41
0
VERTEX
8
OBJECT__27
10
0
20
0
30
0
70
128
71
42
72
43
73
40
0
VERTEX
8
OBJECT__27
10
0
20
0
30
0
70
128
71
44
72
45
73
46
0
VERTEX
8
OBJECT__27
10
0
20
0
30
0
70
128
71
46
72
39
73
47
0
VERTEX
8
OBJECT__27
10
0
20
0
30
0
70
128
71
47
72
48
73
46
0
VERTEX
8
OBJECT__27
10
0
20
0
30
0
70
128
71
39
72
49
73
47
0
VERTEX
8
OBJECT__27
10
0
20
0
30
0
70
128
71
48
72
50
73
46
0
VERTEX
8
OBJECT__27
10
0
20
0
30
0
70
128
71
39
72
38
73
49
0
VERTEX
8
OBJECT__27
10
0
20
0
30
0
70
128
71
51
72
45
73
52
0
VERTEX
8
OBJECT__27
10
0
20
0
30
0
70
128
71
52
72
53
73
51
0
VERTEX
8
OBJECT__27
10
0
20
0
30
0
70
128
71
45
72
54
73
52
0
VERTEX
8
OBJECT__27
10
0
20
0
30
0
70
128
71
45
72
44
73
54
0
VERTEX
8
OBJECT__27
10
0
20
0
30
0
70
128
71
55
72
56
73
57
0
VERTEX
8
OBJECT__27
10
0
20
0
30
0
70
128
71
7
72
58
73
55
0
VERTEX
8
OBJECT__27
10
0
20
0
30
0
70
128
71
57
72
7
73
55
0
VERTEX
8
OBJECT__27
10
0
20
0
30
0
70
128
71
57
72
59
73
7
0
VERTEX
8
OBJECT__27
10
0
20
0
30
0
70
128
71
59
72
5
73
7
0
VERTEX
8
OBJECT__27
10
0
20
0
30
0
70
128
71
51
72
60
73
45
0
VERTEX
8
OBJECT__27
10
0
20
0
30
0
70
128
71
46
72
50
73
44
0
VERTEX
8
OBJECT__27
10
0
20
0
30
0
70
128
71
40
72
43
73
38
0
VERTEX
8
OBJECT__27
10
0
20
0
30
0
70
128
71
33
72
37
73
31
0
VERTEX
8
OBJECT__27
10
0
20
0
30
0
70
128
71
24
72
30
73
22
0
VERTEX
8
OBJECT__27
10
0
20
0
30
0
70
128
71
20
72
29
73
15
0
VERTEX
8
OBJECT__27
10
0
20
0
30
0
70
128
71
13
72
21
73
8
0
VERTEX
8
OBJECT__27
10
0
20
0
30
0
70
128
71
3
72
14
73
4
0
SEQEND
8
OBJECT__27
0
POLYLINE
8
OBJECT__28
66
1
70
64
71
6
72
4
62
253
0
VERTEX
8
OBJECT__28
10
-14.942000
20
24.500000
30
1.431000
70
192
0
VERTEX
8
OBJECT__28
10
-14.942000
20
24.500000
30
22.969000
70
192
0
VERTEX
8
OBJECT__28
10
-13.029000
20
24.500000
30
22.944000
70
192
0
VERTEX
8
OBJECT__28
10
-15.216000
20
24.500000
30
22.973000
70
192
0
VERTEX
8
OBJECT__28
10
-13.029000
20
24.500000
30
1.456000
70
192
0
VERTEX
8
OBJECT__28
10
-15.216000
20
24.500000
30
1.427000
70
192
0
VERTEX
8
OBJECT__28
10
0
20
0
30
0
70
128
71
1
72
2
73
3
0
VERTEX
8
OBJECT__28
10
0
20
0
30
0
70
128
71
1
72
4
73
2
0
VERTEX
8
OBJECT__28
10
0
20
0
30
0
70
128
71
3
72
5
73
1
0
VERTEX
8
OBJECT__28
10
0
20
0
30
0
70
128
71
1
72
6
73
4
0
SEQEND
8
OBJECT__28
0
POLYLINE
8
OBJECT__29
66
1
70
64
71
80
72
78
62
253
0
VERTEX
8
OBJECT__29
10
-13.029000
20
24.500000
30
1.456000
70
192
0
VERTEX
8
OBJECT__29
10
-13.029000
20
24.500000
30
22.944000
70
192
0
VERTEX
8
OBJECT__29
10
-7.992000
20
26.364000
30
22.937000
70
192
0
VERTEX
8
OBJECT__29
10
-4.248000
20
27.068001
30
22.931999
70
192
0
VERTEX
8
OBJECT__29
10
-2.701000
20
27.094000
30
22.930000
70
192
0
VERTEX
8
OBJECT__29
10
-2.701000
20
27.094000
30
1.470000
70
192
0
VERTEX
8
OBJECT__29
10
-7.992000
20
26.364000
30
1.463000
70
192
0
VERTEX
8
OBJECT__29
10
-4.248000
20
27.068001
30
1.468000
70
192
0
VERTEX
8
OBJECT__29
10
0.341000
20
27.146000
30
22.926001
70
192
0
VERTEX
8
OBJECT__29
10
0.341000
20
27.146000
30
1.474000
70
192
0
VERTEX
8
OBJECT__29
10
1.123000
20
27.159000
30
22.924999
70
192
0
VERTEX
8
OBJECT__29
10
1.123000
20
27.159000
30
1.475000
70
192
0
VERTEX
8
OBJECT__29
10
4.889000
20
26.584000
30
22.920000
70
192
0
VERTEX
8
OBJECT__29
10
4.889000
20
26.584000
30
1.480000
70
192
0
VERTEX
8
OBJECT__29
10
9.965000
20
24.900000
30
22.913000
70
192
0
VERTEX
8
OBJECT__29
10
9.988000
20
24.892000
30
1.487000
70
192
0
VERTEX
8
OBJECT__29
10
9.965000
20
24.900000
30
1.487000
70
192
0
VERTEX
8
OBJECT__29
10
9.988000
20
24.892000
30
22.913000
70
192
0
VERTEX
8
OBJECT__29
10
13.348000
20
23.104000
30
1.492000
70
192
0
VERTEX
8
OBJECT__29
10
13.348000
20
23.104000
30
22.908001
70
192
0
VERTEX
8
OBJECT__29
10
20.184000
20
17.017000
30
1.501000
70
192
0
VERTEX
8
OBJECT__29
10
17.601999
20
19.819000
30
22.902000
70
192
0
VERTEX
8
OBJECT__29
10
19.962999
20
17.256001
30
22.899000
70
192
0
VERTEX
8
OBJECT__29
10
13.351000
20
23.103001
30
22.908001
70
192
0
VERTEX
8
OBJECT__29
10
13.351000
20
23.103001
30
1.492000
70
192
0
VERTEX
8
OBJECT__29
10
19.962999
20
17.256001
30
1.501000
70
192
0
VERTEX
8
OBJECT__29
10
17.601999
20
19.819000
30
1.498000
70
192
0
VERTEX
8
OBJECT__29
10
20.184000
20
17.017000
30
22.899000
70
192
0
VERTEX
8
OBJECT__29
10
22.680000
20
13.171000
30
22.895000
70
192
0
VERTEX
8
OBJECT__29
10
22.680000
20
13.171000
30
1.505000
70
192
0
VERTEX
8
OBJECT__29
10
23.108000
20
12.511000
30
22.895000
70
192
0
VERTEX
8
OBJECT__29
10
24.615999
20
9.013000
30
22.893000
70
192
0
VERTEX
8
OBJECT__29
10
25.318001
20
6.125000
30
22.892000
70
192
0
VERTEX
8
OBJECT__29
10
25.318001
20
6.125000
30
1.508000
70
192
0
VERTEX
8
OBJECT__29
10
25.885000
20
3.793000
30
22.891001
70
192
0
VERTEX
8
OBJECT__29
10
25.885000
20
3.793000
30
1.509000
70
192
0
VERTEX
8
OBJECT__29
10
23.108000
20
12.511000
30
1.505000
70
192
0
VERTEX
8
OBJECT__29
10
24.615999
20
9.013000
30
1.507000
70
192
0
VERTEX
8
OBJECT__29
10
26.149000
20
0.000000
30
22.889999
70
192
0
VERTEX
8
OBJECT__29
10
26.149000
20
0.000000
30
1.510000
70
192
0
VERTEX
8
OBJECT__29
10
22.674999
20
-13.179000
30
1.505000
70
192
0
VERTEX
8
OBJECT__29
10
24.611000
20
-9.027000
30
1.507000
70
192
0
VERTEX
8
OBJECT__29
10
24.611000
20
-9.027000
30
22.893000
70
192
0
VERTEX
8
OBJECT__29
10
25.618999
20
-5.353000
30
1.509000
70
192
0
VERTEX
8
OBJECT__29
10
26.150000
20
-0.008000
30
1.510000
70
192
0
VERTEX
8
OBJECT__29
10
26.150000
20
-0.008000
30
22.889999
70
192
0
VERTEX
8
OBJECT__29
10
25.402000
20
-6.144000
30
1.509000
70
192
0
VERTEX
8
OBJECT__29
10
25.618999
20
-5.353000
30
22.891001
70
192
0
VERTEX
8
OBJECT__29
10
25.402000
20
-6.144000
30
22.891001
70
192
0
VERTEX
8
OBJECT__29
10
19.958000
20
-17.250000
30
1.501000
70
192
0
VERTEX
8
OBJECT__29
10
20.174000
20
-17.028999
30
1.501000
70
192
0
VERTEX
8
OBJECT__29
10
20.174000
20
-17.028999
30
22.899000
70
192
0
VERTEX
8
OBJECT__29
10
16.420000
20
-20.871000
30
22.903999
70
192
0
VERTEX
8
OBJECT__29
10
16.420000
20
-20.871000
30
1.496000
70
192
0
VERTEX
8
OBJECT__29
10
19.958000
20
-17.250000
30
22.899000
70
192
0
VERTEX
8
OBJECT__29
10
22.341000
20
-13.895000
30
1.504000
70
192
0
VERTEX
8
OBJECT__29
10
22.341000
20
-13.895000
30
22.896000
70
192
0
VERTEX
8
OBJECT__29
10
13.347000
20
-23.104000
30
22.908001
70
192
0
VERTEX
8
OBJECT__29
10
13.347000
20
-23.104000
30
1.492000
70
192
0
VERTEX
8
OBJECT__29
10
22.674999
20
-13.179000
30
22.895000
70
192
0
VERTEX
8
OBJECT__29
10
0.331000
20
-27.145000
30
1.474000
70
192
0
VERTEX
8
OBJECT__29
10
4.874000
20
-26.587000
30
1.480000
70
192
0
VERTEX
8
OBJECT__29
10
4.874000
20
-26.587000
30
22.920000
70
192
0
VERTEX
8
OBJECT__29
10
8.524000
20
-25.493999
30
1.485000
70
192
0
VERTEX
8
OBJECT__29
10
8.524000
20
-25.493999
30
22.915001
70
192
0
VERTEX
8
OBJECT__29
10
9.917000
20
-24.804001
30
1.487000
70
192
0
VERTEX
8
OBJECT__29
10
13.338000
20
-23.111000
30
1.492000
70
192
0
VERTEX
8
OBJECT__29
10
13.338000
20
-23.111000
30
22.908001
70
192
0
VERTEX
8
OBJECT__29
10
9.917000
20
-24.804001
30
22.913000
70
192
0
VERTEX
8
OBJECT__29
10
-2.700000
20
-27.138000
30
1.470000
70
192
0
VERTEX
8
OBJECT__29
10
-0.457000
20
-27.242001
30
1.473000
70
192
0
VERTEX
8
OBJECT__29
10
-0.457000
20
-27.242001
30
22.927000
70
192
0
VERTEX
8
OBJECT__29
10
0.331000
20
-27.145000
30
22.926001
70
192
0
VERTEX
8
OBJECT__29
10
-9.511000
20
-25.920000
30
1.461000
70
192
0
VERTEX
8
OBJECT__29
10
-4.263000
20
-27.066000
30
1.468000
70
192
0
VERTEX
8
OBJECT__29
10
-4.263000
20
-27.066000
30
22.931999
70
192
0
VERTEX
8
OBJECT__29
10
-2.700000
20
-27.138000
30
22.930000
70
192
0
VERTEX
8
OBJECT__29
10
-13.029000
20
-24.500000
30
22.944000
70
192
0
VERTEX
8
OBJECT__29
10
-13.029000
20
-24.500000
30
1.456000
70
192
0
VERTEX
8
OBJECT__29
10
-9.511000
20
-25.920000
30
22.938999
70
192
0
VERTEX
8
OBJECT__29
10
0
20
0
30
0
70
128
71
1
72
2
73
3
0
VERTEX
8
OBJECT__29
10
0
20
0
30
0
70
128
71
4
72
5
73
6
0
VERTEX
8
OBJECT__29
10
0
20
0
30
0
70
128
71
7
72
3
73
4
0
VERTEX
8
OBJECT__29
10
0
20
0
30
0
70
128
71
4
72
8
73
7
0
VERTEX
8
OBJECT__29
10
0
20
0
30
0
70
128
71
6
72
8
73
4
0
VERTEX
8
OBJECT__29
10
0
20
0
30
0
70
128
71
5
72
9
73
10
0
VERTEX
8
OBJECT__29
10
0
20
0
30
0
70
128
71
10
72
6
73
5
0
VERTEX
8
OBJECT__29
10
0
20
0
30
0
70
128
71
9
72
11
73
12
0
VERTEX
8
OBJECT__29
10
0
20
0
30
0
70
128
71
11
72
13
73
14
0
VERTEX
8
OBJECT__29
10
0
20
0
30
0
70
128
71
15
72
16
73
17
0
VERTEX
8
OBJECT__29
10
0
20
0
30
0
70
128
71
17
72
13
73
15
0
VERTEX
8
OBJECT__29
10
0
20
0
30
0
70
128
71
17
72
14
73
13
0
VERTEX
8
OBJECT__29
10
0
20
0
30
0
70
128
71
14
72
12
73
11
0
VERTEX
8
OBJECT__29
10
0
20
0
30
0
70
128
71
16
72
15
73
18
0
VERTEX
8
OBJECT__29
10
0
20
0
30
0
70
128
71
18
72
19
73
16
0
VERTEX
8
OBJECT__29
10
0
20
0
30
0
70
128
71
18
72
20
73
19
0
VERTEX
8
OBJECT__29
10
0
20
0
30
0
70
128
71
21
72
22
73
23
0
VERTEX
8
OBJECT__29
10
0
20
0
30
0
70
128
71
21
72
24
73
22
0
VERTEX
8
OBJECT__29
10
0
20
0
30
0
70
128
71
25
72
20
73
24
0
VERTEX
8
OBJECT__29
10
0
20
0
30
0
70
128
71
24
72
21
73
26
0
VERTEX
8
OBJECT__29
10
0
20
0
30
0
70
128
71
26
72
27
73
24
0
VERTEX
8
OBJECT__29
10
0
20
0
30
0
70
128
71
24
72
27
73
25
0
VERTEX
8
OBJECT__29
10
0
20
0
30
0
70
128
71
23
72
28
73
21
0
VERTEX
8
OBJECT__29
10
0
20
0
30
0
70
128
71
21
72
28
73
29
0
VERTEX
8
OBJECT__29
10
0
20
0
30
0
70
128
71
29
72
30
73
21
0
VERTEX
8
OBJECT__29
10
0
20
0
30
0
70
128
71
30
72
29
73
31
0
VERTEX
8
OBJECT__29
10
0
20
0
30
0
70
128
71
32
72
33
73
34
0
VERTEX
8
OBJECT__29
10
0
20
0
30
0
70
128
71
33
72
35
73
36
0
VERTEX
8
OBJECT__29
10
0
20
0
30
0
70
128
71
36
72
34
73
33
0
VERTEX
8
OBJECT__29
10
0
20
0
30
0
70
128
71
37
72
31
73
32
0
VERTEX
8
OBJECT__29
10
0
20
0
30
0
70
128
71
32
72
38
73
37
0
VERTEX
8
OBJECT__29
10
0
20
0
30
0
70
128
71
36
72
35
73
39
0
VERTEX
8
OBJECT__29
10
0
20
0
30
0
70
128
71
39
72
40
73
36
0
VERTEX
8
OBJECT__29
10
0
20
0
30
0
70
128
71
34
72
38
73
32
0
VERTEX
8
OBJECT__29
10
0
20
0
30
0
70
128
71
41
72
42
73
43
0
VERTEX
8
OBJECT__29
10
0
20
0
30
0
70
128
71
44
72
45
73
46
0
VERTEX
8
OBJECT__29
10
0
20
0
30
0
70
128
71
47
72
44
73
48
0
VERTEX
8
OBJECT__29
10
0
20
0
30
0
70
128
71
43
72
42
73
47
0
VERTEX
8
OBJECT__29
10
0
20
0
30
0
70
128
71
47
72
49
73
43
0
VERTEX
8
OBJECT__29
10
0
20
0
30
0
70
128
71
48
72
49
73
47
0
VERTEX
8
OBJECT__29
10
0
20
0
30
0
70
128
71
46
72
48
73
44
0
VERTEX
8
OBJECT__29
10
0
20
0
30
0
70
128
71
40
72
39
73
46
0
VERTEX
8
OBJECT__29
10
0
20
0
30
0
70
128
71
46
72
45
73
40
0
VERTEX
8
OBJECT__29
10
0
20
0
30
0
70
128
71
50
72
51
73
52
0
VERTEX
8
OBJECT__29
10
0
20
0
30
0
70
128
71
53
72
54
73
50
0
VERTEX
8
OBJECT__29
10
0
20
0
30
0
70
128
71
50
72
55
73
53
0
VERTEX
8
OBJECT__29
10
0
20
0
30
0
70
128
71
52
72
51
73
56
0
VERTEX
8
OBJECT__29
10
0
20
0
30
0
70
128
71
56
72
57
73
52
0
VERTEX
8
OBJECT__29
10
0
20
0
30
0
70
128
71
58
72
59
73
54
0
VERTEX
8
OBJECT__29
10
0
20
0
30
0
70
128
71
54
72
53
73
58
0
VERTEX
8
OBJECT__29
10
0
20
0
30
0
70
128
71
57
72
56
73
41
0
VERTEX
8
OBJECT__29
10
0
20
0
30
0
70
128
71
41
72
60
73
57
0
VERTEX
8
OBJECT__29
10
0
20
0
30
0
70
128
71
61
72
62
73
63
0
VERTEX
8
OBJECT__29
10
0
20
0
30
0
70
128
71
63
72
62
73
64
0
VERTEX
8
OBJECT__29
10
0
20
0
30
0
70
128
71
64
72
65
73
63
0
VERTEX
8
OBJECT__29
10
0
20
0
30
0
70
128
71
66
72
67
73
68
0
VERTEX
8
OBJECT__29
10
0
20
0
30
0
70
128
71
65
72
64
73
66
0
VERTEX
8
OBJECT__29
10
0
20
0
30
0
70
128
71
66
72
69
73
65
0
VERTEX
8
OBJECT__29
10
0
20
0
30
0
70
128
71
68
72
69
73
66
0
VERTEX
8
OBJECT__29
10
0
20
0
30
0
70
128
71
68
72
67
73
59
0
VERTEX
8
OBJECT__29
10
0
20
0
30
0
70
128
71
59
72
58
73
68
0
VERTEX
8
OBJECT__29
10
0
20
0
30
0
70
128
71
70
72
71
73
72
0
VERTEX
8
OBJECT__29
10
0
20
0
30
0
70
128
71
71
72
61
73
73
0
VERTEX
8
OBJECT__29
10
0
20
0
30
0
70
128
71
73
72
72
73
71
0
VERTEX
8
OBJECT__29
10
0
20
0
30
0
70
128
71
74
72
75
73
76
0
VERTEX
8
OBJECT__29
10
0
20
0
30
0
70
128
71
76
72
75
73
70
0
VERTEX
8
OBJECT__29
10
0
20
0
30
0
70
128
71
70
72
77
73
76
0
VERTEX
8
OBJECT__29
10
0
20
0
30
0
70
128
71
78
72
79
73
74
0
VERTEX
8
OBJECT__29
10
0
20
0
30
0
70
128
71
74
72
80
73
78
0
VERTEX
8
OBJECT__29
10
0
20
0
30
0
70
128
71
76
72
80
73
74
0
VERTEX
8
OBJECT__29
10
0
20
0
30
0
70
128
71
72
72
77
73
70
0
VERTEX
8
OBJECT__29
10
0
20
0
30
0
70
128
71
63
72
73
73
61
0
VERTEX
8
OBJECT__29
10
0
20
0
30
0
70
128
71
52
72
55
73
50
0
VERTEX
8
OBJECT__29
10
0
20
0
30
0
70
128
71
43
72
60
73
41
0
VERTEX
8
OBJECT__29
10
0
20
0
30
0
70
128
71
31
72
37
73
30
0
VERTEX
8
OBJECT__29
10
0
20
0
30
0
70
128
71
25
72
19
73
20
0
VERTEX
8
OBJECT__29
10
0
20
0
30
0
70
128
71
12
72
10
73
9
0
VERTEX
8
OBJECT__29
10
0
20
0
30
0
70
128
71
3
72
7
73
1
0
SEQEND
8
OBJECT__29
0
POLYLINE
8
OBJECT__30
66
1
70
64
71
6
72
4
62
253
0
VERTEX
8
OBJECT__30
10
-14.942000
20
-24.500000
30
1.431000
70
192
0
VERTEX
8
OBJECT__30
10
-13.029000
20
-24.500000
30
1.456000
70
192
0
VERTEX
8
OBJECT__30
10
-13.029000
20
-24.500000
30
22.944000
70
192
0
VERTEX
8
OBJECT__30
10
-14.942000
20
-24.500000
30
22.969000
70
192
0
VERTEX
8
OBJECT__30
10
-15.216000
20
-24.500000
30
22.973000
70
192
0
VERTEX
8
OBJECT__30
10
-15.216000
20
-24.500000
30
1.427000
70
192
0
VERTEX
8
OBJECT__30
10
0
20
0
30
0
70
128
71
1
72
2
73
3
0
VERTEX
8
OBJECT__30
10
0
20
0
30
0
70
128
71
3
72
4
73
1
0
VERTEX
8
OBJECT__30
10
0
20
0
30
0
70
128
71
5
72
6
73
1
0
VERTEX
8
OBJECT__30
10
0
20
0
30
0
70
128
71
4
72
5
73
1
0
SEQEND
8
OBJECT__30
0
POLYLINE
8
OBJECT__31
66
1
70
64
71
60
72
58
62
253
0
VERTEX
8
OBJECT__31
10
-14.942000
20
-24.500000
30
22.969000
70
192
0
VERTEX
8
OBJECT__31
10
-13.029000
20
-24.500000
30
22.944000
70
192
0
VERTEX
8
OBJECT__31
10
-9.511000
20
-25.920000
30
22.938999
70
192
0
VERTEX
8
OBJECT__31
10
-2.882000
20
-28.825001
30
22.973000
70
192
0
VERTEX
8
OBJECT__31
10
-15.216000
20
-24.500000
30
22.973000
70
192
0
VERTEX
8
OBJECT__31
10
-4.263000
20
-27.066000
30
22.931999
70
192
0
VERTEX
8
OBJECT__31
10
-2.814000
20
-28.816000
30
22.973000
70
192
0
VERTEX
8
OBJECT__31
10
0.331000
20
-27.145000
30
22.926001
70
192
0
VERTEX
8
OBJECT__31
10
4.874000
20
-26.587000
30
22.920000
70
192
0
VERTEX
8
OBJECT__31
10
-0.457000
20
-27.242001
30
22.927000
70
192
0
VERTEX
8
OBJECT__31
10
-2.700000
20
-27.138000
30
22.930000
70
192
0
VERTEX
8
OBJECT__31
10
10.794000
20
-27.035000
30
22.973000
70
192
0
VERTEX
8
OBJECT__31
10
8.524000
20
-25.493999
30
22.915001
70
192
0
VERTEX
8
OBJECT__31
10
10.834000
20
-27.006001
30
22.973000
70
192
0
VERTEX
8
OBJECT__31
10
13.338000
20
-23.111000
30
22.908001
70
192
0
VERTEX
8
OBJECT__31
10
13.347000
20
-23.104000
30
22.908001
70
192
0
VERTEX
8
OBJECT__31
10
22.096001
20
-19.129000
30
22.973000
70
192
0
VERTEX
8
OBJECT__31
10
16.420000
20
-20.871000
30
22.903999
70
192
0
VERTEX
8
OBJECT__31
10
9.917000
20
-24.804001
30
22.913000
70
192
0
VERTEX
8
OBJECT__31
10
28.468000
20
-6.896000
30
22.973000
70
192
0
VERTEX
8
OBJECT__31
10
22.110001
20
-19.103001
30
22.973000
70
192
0
VERTEX
8
OBJECT__31
10
22.674999
20
-13.179000
30
22.895000
70
192
0
VERTEX
8
OBJECT__31
10
22.341000
20
-13.895000
30
22.896000
70
192
0
VERTEX
8
OBJECT__31
10
20.174000
20
-17.028999
30
22.899000
70
192
0
VERTEX
8
OBJECT__31
10
24.611000
20
-9.027000
30
22.893000
70
192
0
VERTEX
8
OBJECT__31
10
19.958000
20
-17.250000
30
22.899000
70
192
0
VERTEX
8
OBJECT__31
10
25.318001
20
6.125000
30
22.892000
70
192
0
VERTEX
8
OBJECT__31
10
28.468000
20
6.896000
30
22.973000
70
192
0
VERTEX
8
OBJECT__31
10
28.468000
20
6.886000
30
22.973000
70
192
0
VERTEX
8
OBJECT__31
10
28.468000
20
-6.887000
30
22.973000
70
192
0
VERTEX
8
OBJECT__31
10
26.150000
20
-0.008000
30
22.889999
70
192
0
VERTEX
8
OBJECT__31
10
26.149000
20
0.000000
30
22.889999
70
192
0
VERTEX
8
OBJECT__31
10
25.618999
20
-5.353000
30
22.891001
70
192
0
VERTEX
8
OBJECT__31
10
25.885000
20
3.793000
30
22.891001
70
192
0
VERTEX
8
OBJECT__31
10
25.402000
20
-6.144000
30
22.891001
70
192
0
VERTEX
8
OBJECT__31
10
19.962999
20
17.256001
30
22.899000
70
192
0
VERTEX
8
OBJECT__31
10
22.096001
20
19.129000
30
22.973000
70
192
0
VERTEX
8
OBJECT__31
10
22.110001
20
19.103001
30
22.973000
70
192
0
VERTEX
8
OBJECT__31
10
23.108000
20
12.511000
30
22.895000
70
192
0
VERTEX
8
OBJECT__31
10
22.680000
20
13.171000
30
22.895000
70
192
0
VERTEX
8
OBJECT__31
10
24.615999
20
9.013000
30
22.893000
70
192
0
VERTEX
8
OBJECT__31
10
20.184000
20
17.017000
30
22.899000
70
192
0
VERTEX
8
OBJECT__31
10
9.965000
20
24.900000
30
22.913000
70
192
0
VERTEX
8
OBJECT__31
10
10.794000
20
27.035000
30
22.973000
70
192
0
VERTEX
8
OBJECT__31
10
10.835000
20
27.006001
30
22.973000
70
192
0
VERTEX
8
OBJECT__31
10
13.351000
20
23.103001
30
22.908001
70
192
0
VERTEX
8
OBJECT__31
10
13.348000
20
23.104000
30
22.908001
70
192
0
VERTEX
8
OBJECT__31
10
17.601999
20
19.819000
30
22.902000
70
192
0
VERTEX
8
OBJECT__31
10
9.988000
20
24.892000
30
22.913000
70
192
0
VERTEX
8
OBJECT__31
10
-2.701000
20
27.094000
30
22.930000
70
192
0
VERTEX
8
OBJECT__31
10
-2.882000
20
28.825001
30
22.973000
70
192
0
VERTEX
8
OBJECT__31
10
-2.813000
20
28.816000
30
22.973000
70
192
0
VERTEX
8
OBJECT__31
10
1.123000
20
27.159000
30
22.924999
70
192
0
VERTEX
8
OBJECT__31
10
0.341000
20
27.146000
30
22.926001
70
192
0
VERTEX
8
OBJECT__31
10
4.889000
20
26.584000
30
22.920000
70
192
0
VERTEX
8
OBJECT__31
10
-14.942000
20
24.500000
30
22.969000
70
192
0
VERTEX
8
OBJECT__31
10
-7.992000
20
26.364000
30
22.937000
70
192
0
VERTEX
8
OBJECT__31
10
-13.029000
20
24.500000
30
22.944000
70
192
0
VERTEX
8
OBJECT__31
10
-4.248000
20
27.068001
30
22.931999
70
192
0
VERTEX
8
OBJECT__31
10
-15.216000
20
24.500000
30
22.973000
70
192
0
VERTEX
8
OBJECT__31
10
0
20
0
30
0
70
128
71
1
72
2
73
3
0
VERTEX
8
OBJECT__31
10
0
20
0
30
0
70
128
71
4
72
5
73
1
0
VERTEX
8
OBJECT__31
10
0
20
0
30
0
70
128
71
3
72
4
73
1
0
VERTEX
8
OBJECT__31
10
0
20
0
30
0
70
128
71
3
72
6
73
4
0
VERTEX
8
OBJECT__31
10
0
20
0
30
0
70
128
71
7
72
8
73
9
0
VERTEX
8
OBJECT__31
10
0
20
0
30
0
70
128
71
7
72
10
73
8
0
VERTEX
8
OBJECT__31
10
0
20
0
30
0
70
128
71
11
72
10
73
7
0
VERTEX
8
OBJECT__31
10
0
20
0
30
0
70
128
71
7
72
4
73
11
0
VERTEX
8
OBJECT__31
10
0
20
0
30
0
70
128
71
9
72
12
73
7
0
VERTEX
8
OBJECT__31
10
0
20
0
30
0
70
128
71
9
72
13
73
12
0
VERTEX
8
OBJECT__31
10
0
20
0
30
0
70
128
71
14
72
15
73
16
0
VERTEX
8
OBJECT__31
10
0
20
0
30
0
70
128
71
16
72
17
73
14
0
VERTEX
8
OBJECT__31
10
0
20
0
30
0
70
128
71
16
72
18
73
17
0
VERTEX
8
OBJECT__31
10
0
20
0
30
0
70
128
71
19
72
15
73
14
0
VERTEX
8
OBJECT__31
10
0
20
0
30
0
70
128
71
14
72
12
73
19
0
VERTEX
8
OBJECT__31
10
0
20
0
30
0
70
128
71
20
72
21
73
22
0
VERTEX
8
OBJECT__31
10
0
20
0
30
0
70
128
71
21
72
23
73
22
0
VERTEX
8
OBJECT__31
10
0
20
0
30
0
70
128
71
21
72
24
73
23
0
VERTEX
8
OBJECT__31
10
0
20
0
30
0
70
128
71
22
72
25
73
20
0
VERTEX
8
OBJECT__31
10
0
20
0
30
0
70
128
71
26
72
24
73
21
0
VERTEX
8
OBJECT__31
10
0
20
0
30
0
70
128
71
21
72
17
73
26
0
VERTEX
8
OBJECT__31
10
0
20
0
30
0
70
128
71
27
72
28
73
29
0
VERTEX
8
OBJECT__31
10
0
20
0
30
0
70
128
71
29
72
30
73
31
0
VERTEX
8
OBJECT__31
10
0
20
0
30
0
70
128
71
31
72
32
73
29
0
VERTEX
8
OBJECT__31
10
0
20
0
30
0
70
128
71
30
72
33
73
31
0
VERTEX
8
OBJECT__31
10
0
20
0
30
0
70
128
71
32
72
34
73
29
0
VERTEX
8
OBJECT__31
10
0
20
0
30
0
70
128
71
35
72
33
73
30
0
VERTEX
8
OBJECT__31
10
0
20
0
30
0
70
128
71
30
72
20
73
35
0
VERTEX
8
OBJECT__31
10
0
20
0
30
0
70
128
71
36
72
37
73
38
0
VERTEX
8
OBJECT__31
10
0
20
0
30
0
70
128
71
38
72
39
73
40
0
VERTEX
8
OBJECT__31
10
0
20
0
30
0
70
128
71
28
72
41
73
39
0
VERTEX
8
OBJECT__31
10
0
20
0
30
0
70
128
71
39
72
38
73
28
0
VERTEX
8
OBJECT__31
10
0
20
0
30
0
70
128
71
28
72
27
73
41
0
VERTEX
8
OBJECT__31
10
0
20
0
30
0
70
128
71
40
72
42
73
38
0
VERTEX
8
OBJECT__31
10
0
20
0
30
0
70
128
71
43
72
44
73
45
0
VERTEX
8
OBJECT__31
10
0
20
0
30
0
70
128
71
45
72
46
73
47
0
VERTEX
8
OBJECT__31
10
0
20
0
30
0
70
128
71
37
72
48
73
46
0
VERTEX
8
OBJECT__31
10
0
20
0
30
0
70
128
71
46
72
45
73
37
0
VERTEX
8
OBJECT__31
10
0
20
0
30
0
70
128
71
37
72
36
73
48
0
VERTEX
8
OBJECT__31
10
0
20
0
30
0
70
128
71
47
72
49
73
45
0
VERTEX
8
OBJECT__31
10
0
20
0
30
0
70
128
71
50
72
51
73
52
0
VERTEX
8
OBJECT__31
10
0
20
0
30
0
70
128
71
52
72
53
73
54
0
VERTEX
8
OBJECT__31
10
0
20
0
30
0
70
128
71
52
72
44
73
55
0
VERTEX
8
OBJECT__31
10
0
20
0
30
0
70
128
71
44
72
43
73
55
0
VERTEX
8
OBJECT__31
10
0
20
0
30
0
70
128
71
55
72
53
73
52
0
VERTEX
8
OBJECT__31
10
0
20
0
30
0
70
128
71
56
72
51
73
57
0
VERTEX
8
OBJECT__31
10
0
20
0
30
0
70
128
71
57
72
58
73
56
0
VERTEX
8
OBJECT__31
10
0
20
0
30
0
70
128
71
51
72
59
73
57
0
VERTEX
8
OBJECT__31
10
0
20
0
30
0
70
128
71
51
72
50
73
59
0
VERTEX
8
OBJECT__31
10
0
20
0
30
0
70
128
71
56
72
60
73
51
0
VERTEX
8
OBJECT__31
10
0
20
0
30
0
70
128
71
52
72
54
73
50
0
VERTEX
8
OBJECT__31
10
0
20
0
30
0
70
128
71
45
72
49
73
43
0
VERTEX
8
OBJECT__31
10
0
20
0
30
0
70
128
71
38
72
42
73
36
0
VERTEX
8
OBJECT__31
10
0
20
0
30
0
70
128
71
29
72
34
73
27
0
VERTEX
8
OBJECT__31
10
0
20
0
30
0
70
128
71
25
72
35
73
20
0
VERTEX
8
OBJECT__31
10
0
20
0
30
0
70
128
71
18
72
26
73
17
0
VERTEX
8
OBJECT__31
10
0
20
0
30
0
70
128
71
13
72
19
73
12
0
VERTEX
8
OBJECT__31
10
0
20
0
30
0
70
128
71
6
72
11
73
4
0
SEQEND
8
OBJECT__31
0
POLYLINE
8
OBJECT__32
66
1
70
64
71
18
72
18
62
253
0
VERTEX
8
OBJECT__32
10
35.000000
20
35.000000
30
0.000000
70
192
0
VERTEX
8
OBJECT__32
10
-35.000000
20
35.000000
30
0.000000
70
192
0
VERTEX
8
OBJECT__32
10
0.000000
20
24.268999
30
0.000000
70
192
0
VERTEX
8
OBJECT__32
10
-10.530000
20
21.865000
30
0.000000
70
192
0
VERTEX
8
OBJECT__32
10
-35.000000
20
-35.000000
30
0.000000
70
192
0
VERTEX
8
OBJECT__32
10
-23.660000
20
-5.400000
30
0.000000
70
192
0
VERTEX
8
OBJECT__32
10
-23.660000
20
5.400000
30
0.000000
70
192
0
VERTEX
8
OBJECT__32
10
-18.974001
20
15.131000
30
0.000000
70
192
0
VERTEX
8
OBJECT__32
10
0.000000
20
-24.268999
30
0.000000
70
192
0
VERTEX
8
OBJECT__32
10
-10.530000
20
-21.865000
30
0.000000
70
192
0
VERTEX
8
OBJECT__32
10
-18.974001
20
-15.131000
30
0.000000
70
192
0
VERTEX
8
OBJECT__32
10
35.000000
20
-35.000000
30
0.000000
70
192
0
VERTEX
8
OBJECT__32
10
10.530000
20
-21.865000
30
0.000000
70
192
0
VERTEX
8
OBJECT__32
10
23.660000
20
5.400000
30
0.000000
70
192
0
VERTEX
8
OBJECT__32
10
10.530000
20
21.865000
30
0.000000
70
192
0
VERTEX
8
OBJECT__32
10
18.974001
20
15.131000
30
0.000000
70
192
0
VERTEX
8
OBJECT__32
10
18.974001
20
-15.131000
30
0.000000
70
192
0
VERTEX
8
OBJECT__32
10
23.660000
20
-5.400000
30
0.000000
70
192
0
VERTEX
8
OBJECT__32
10
0
20
0
30
0
70
128
71
1
72
2
73
3
0
VERTEX
8
OBJECT__32
10
0
20
0
30
0
70
128
71
2
72
4
73
3
0
VERTEX
8
OBJECT__32
10
0
20
0
30
0
70
128
71
5
72
6
73
7
0
VERTEX
8
OBJECT__32
10
0
20
0
30
0
70
128
71
2
72
8
73
4
0
VERTEX
8
OBJECT__32
10
0
20
0
30
0
70
128
71
7
72
2
73
5
0
VERTEX
8
OBJECT__32
10
0
20
0
30
0
70
128
71
5
72
9
73
10
0
VERTEX
8
OBJECT__32
10
0
20
0
30
0
70
128
71
7
72
8
73
2
0
VERTEX
8
OBJECT__32
10
0
20
0
30
0
70
128
71
10
72
11
73
5
0
VERTEX
8
OBJECT__32
10
0
20
0
30
0
70
128
71
12
72
13
73
9
0
VERTEX
8
OBJECT__32
10
0
20
0
30
0
70
128
71
12
72
1
73
14
0
VERTEX
8
OBJECT__32
10
0
20
0
30
0
70
128
71
1
72
15
73
16
0
VERTEX
8
OBJECT__32
10
0
20
0
30
0
70
128
71
11
72
6
73
5
0
VERTEX
8
OBJECT__32
10
0
20
0
30
0
70
128
71
12
72
17
73
13
0
VERTEX
8
OBJECT__32
10
0
20
0
30
0
70
128
71
14
72
18
73
12
0
VERTEX
8
OBJECT__32
10
0
20
0
30
0
70
128
71
3
72
15
73
1
0
VERTEX
8
OBJECT__32
10
0
20
0
30
0
70
128
71
18
72
17
73
12
0
VERTEX
8
OBJECT__32
10
0
20
0
30
0
70
128
71
9
72
5
73
12
0
VERTEX
8
OBJECT__32
10
0
20
0
30
0
70
128
71
16
72
14
73
1
0
SEQEND
8
OBJECT__32
0
POLYLINE
8
OBJECT__33
66
1
70
64
71
4
72
2
62
253
0
VERTEX
8
OBJECT__33
10
35.000000
20
-35.000000
30
-10.000000
70
192
0
VERTEX
8
OBJECT__33
10
35.000000
20
35.000000
30
-10.000000
70
192
0
VERTEX
8
OBJECT__33
10
35.000000
20
35.000000
30
0.000000
70
192
0
VERTEX
8
OBJECT__33
10
35.000000
20
-35.000000
30
0.000000
70
192
0
VERTEX
8
OBJECT__33
10
0
20
0
30
0
70
128
71
1
72
2
73
3
0
VERTEX
8
OBJECT__33
10
0
20
0
30
0
70
128
71
3
72
4
73
1
0
SEQEND
8
OBJECT__33
0
POLYLINE
8
OBJECT__35
66
1
70
64
71
4
72
2
62
253
0
VERTEX
8
OBJECT__35
10
-35.000000
20
-35.000000
30
-10.000000
70
192
0
VERTEX
8
OBJECT__35
10
35.000000
20
-35.000000
30
-10.000000
70
192
0
VERTEX
8
OBJECT__35
10
35.000000
20
-35.000000
30
0.000000
70
192
0
VERTEX
8
OBJECT__35
10
-35.000000
20
-35.000000
30
0.000000
70
192
0
VERTEX
8
OBJECT__35
10
0
20
0
30
0
70
128
71
1
72
2
73
3
0
VERTEX
8
OBJECT__35
10
0
20
0
30
0
70
128
71
3
72
4
73
1
0
SEQEND
8
OBJECT__35
0
POLYLINE
8
OBJECT__36
66
1
70
64
71
4
72
2
62
253
0
VERTEX
8
OBJECT__36
10
-35.000000
20
-35.000000
30
-10.000000
70
192
0
VERTEX
8
OBJECT__36
10
-35.000000
20
-35.000000
30
0.000000
70
192
0
VERTEX
8
OBJECT__36
10
-35.000000
20
35.000000
30
0.000000
70
192
0
VERTEX
8
OBJECT__36
10
-35.000000
20
35.000000
30
-10.000000
70
192
0
VERTEX
8
OBJECT__36
10
0
20
0
30
0
70
128
71
1
72
2
73
3
0
VERTEX
8
OBJECT__36
10
0
20
0
30
0
70
128
71
3
72
4
73
1
0
SEQEND
8
OBJECT__36
0
POLYLINE
8
OBJECT__37
66
1
70
64
71
4
72
2
62
253
0
VERTEX
8
OBJECT__37
10
35.000000
20
35.000000
30
-10.000000
70
192
0
VERTEX
8
OBJECT__37
10
-35.000000
20
35.000000
30
-10.000000
70
192
0
VERTEX
8
OBJECT__37
10
-35.000000
20
35.000000
30
0.000000
70
192
0
VERTEX
8
OBJECT__37
10
35.000000
20
35.000000
30
0.000000
70
192
0
VERTEX
8
OBJECT__37
10
0
20
0
30
0
70
128
71
1
72
2
73
3
0
VERTEX
8
OBJECT__37
10
0
20
0
30
0
70
128
71
3
72
4
73
1
0
SEQEND
8
OBJECT__37
0
POLYLINE
8
OBJECT__38
66
1
70
64
71
4
72
2
62
253
0
VERTEX
8
OBJECT__38
10
35.000000
20
35.000000
30
-10.000000
70
192
0
VERTEX
8
OBJECT__38
10
35.000000
20
-35.000000
30
-10.000000
70
192
0
VERTEX
8
OBJECT__38
10
-35.000000
20
-35.000000
30
-10.000000
70
192
0
VERTEX
8
OBJECT__38
10
-35.000000
20
35.000000
30
-10.000000
70
192
0
VERTEX
8
OBJECT__38
10
0
20
0
30
0
70
128
71
1
72
2
73
3
0
VERTEX
8
OBJECT__38
10
0
20
0
30
0
70
128
71
3
72
4
73
1
0
SEQEND
8
OBJECT__38
0
POLYLINE
8
OBJECT__39
66
1
70
64
71
8
72
6
62
253
0
VERTEX
8
OBJECT__39
10
-10.500000
20
27.055000
30
28.311001
70
192
0
VERTEX
8
OBJECT__39
10
-13.836000
20
27.055000
30
42.926998
70
192
0
VERTEX
8
OBJECT__39
10
-17.996000
20
27.055000
30
37.710999
70
192
0
VERTEX
8
OBJECT__39
10
-7.164000
20
27.055000
30
42.926998
70
192
0
VERTEX
8
OBJECT__39
10
-4.489000
20
27.055000
30
31.205999
70
192
0
VERTEX
8
OBJECT__39
10
-10.500000
20
27.055000
30
43.688999
70
192
0
VERTEX
8
OBJECT__39
10
-3.004000
20
27.055000
30
37.710999
70
192
0
VERTEX
8
OBJECT__39
10
-16.511000
20
27.055000
30
31.205999
70
192
0
VERTEX
8
OBJECT__39
10
0
20
0
30
0
70
128
71
1
72
2
73
3
0
VERTEX
8
OBJECT__39
10
0
20
0
30
0
70
128
71
4
72
1
73
5
0
VERTEX
8
OBJECT__39
10
0
20
0
30
0
70
128
71
1
72
6
73
2
0
VERTEX
8
OBJECT__39
10
0
20
0
30
0
70
128
71
5
72
7
73
4
0
VERTEX
8
OBJECT__39
10
0
20
0
30
0
70
128
71
4
72
6
73
1
0
VERTEX
8
OBJECT__39
10
0
20
0
30
0
70
128
71
3
72
8
73
1
0
SEQEND
8
OBJECT__39
0
POLYLINE
8
OBJECT__40
66
1
70
64
71
29
72
29
62
253
0
VERTEX
8
OBJECT__40
10
-16.511000
20
27.055000
30
31.205999
70
192
0
VERTEX
8
OBJECT__40
10
-16.649000
20
44.896000
30
31.150999
70
192
0
VERTEX
8
OBJECT__40
10
-13.053000
20
44.896000
30
28.417999
70
192
0
VERTEX
8
OBJECT__40
10
-10.500000
20
27.055000
30
28.311001
70
192
0
VERTEX
8
OBJECT__40
10
-17.996000
20
27.055000
30
37.710999
70
192
0
VERTEX
8
OBJECT__40
10
-18.489000
20
44.896000
30
36.426998
70
192
0
VERTEX
8
OBJECT__40
10
-17.118999
20
44.896000
30
31.507999
70
192
0
VERTEX
8
OBJECT__40
10
-17.997999
20
44.896000
30
37.660999
70
192
0
VERTEX
8
OBJECT__40
10
-13.836000
20
27.055000
30
42.926998
70
192
0
VERTEX
8
OBJECT__40
10
-16.603001
20
44.896000
30
41.173000
70
192
0
VERTEX
8
OBJECT__40
10
-13.798000
20
44.896000
30
42.931999
70
192
0
VERTEX
8
OBJECT__40
10
-3.004000
20
27.055000
30
37.710999
70
192
0
VERTEX
8
OBJECT__40
10
-3.002000
20
44.896000
30
37.660999
70
192
0
VERTEX
8
OBJECT__40
10
-4.397000
20
44.896000
30
41.173000
70
192
0
VERTEX
8
OBJECT__40
10
-7.164000
20
27.055000
30
42.926998
70
192
0
VERTEX
8
OBJECT__40
10
-4.489000
20
27.055000
30
31.205999
70
192
0
VERTEX
8
OBJECT__40
10
-3.881000
20
44.896000
30
31.507999
70
192
0
VERTEX
8
OBJECT__40
10
-2.511000
20
44.896000
30
36.426998
70
192
0
VERTEX
8
OBJECT__40
10
-4.351000
20
44.896000
30
31.150999
70
192
0
VERTEX
8
OBJECT__40
10
-7.947000
20
44.896000
30
28.417999
70
192
0
VERTEX
8
OBJECT__40
10
-10.500000
20
44.896000
30
28.417999
70
192
0
VERTEX
8
OBJECT__40
10
-12.500000
20
35.250000
30
43.571999
70
192
0
VERTEX
8
OBJECT__40
10
-12.500000
20
33.904999
30
43.548000
70
192
0
VERTEX
8
OBJECT__40
10
-8.500000
20
33.904999
30
43.548000
70
192
0
VERTEX
8
OBJECT__40
10
-10.500000
20
27.055000
30
43.688999
70
192
0
VERTEX
8
OBJECT__40
10
-7.202000
20
44.896000
30
42.931999
70
192
0
VERTEX
8
OBJECT__40
10
-8.500000
20
44.896000
30
43.745998
70
192
0
VERTEX
8
OBJECT__40
10
-8.500000
20
35.250000
30
43.571999
70
192
0
VERTEX
8
OBJECT__40
10
-12.500000
20
44.896000
30
43.745998
70
192
0
VERTEX
8
OBJECT__40
10
0
20
0
30
0
70
128
71
1
72
2
73
3
0
VERTEX
8
OBJECT__40
10
0
20
0
30
0
70
128
71
3
72
4
73
1
0
VERTEX
8
OBJECT__40
10
0
20
0
30
0
70
128
71
1
72
5
73
6
0
VERTEX
8
OBJECT__40
10
0
20
0
30
0
70
128
71
6
72
7
73
1
0
VERTEX
8
OBJECT__40
10
0
20
0
30
0
70
128
71
5
72
8
73
6
0
VERTEX
8
OBJECT__40
10
0
20
0
30
0
70
128
71
5
72
9
73
10
0
VERTEX
8
OBJECT__40
10
0
20
0
30
0
70
128
71
9
72
11
73
10
0
VERTEX
8
OBJECT__40
10
0
20
0
30
0
70
128
71
12
72
13
73
14
0
VERTEX
8
OBJECT__40
10
0
20
0
30
0
70
128
71
14
72
15
73
12
0
VERTEX
8
OBJECT__40
10
0
20
0
30
0
70
128
71
16
72
17
73
18
0
VERTEX
8
OBJECT__40
10
0
20
0
30
0
70
128
71
16
72
19
73
17
0
VERTEX
8
OBJECT__40
10
0
20
0
30
0
70
128
71
18
72
12
73
16
0
VERTEX
8
OBJECT__40
10
0
20
0
30
0
70
128
71
16
72
4
73
20
0
VERTEX
8
OBJECT__40
10
0
20
0
30
0
70
128
71
4
72
21
73
20
0
VERTEX
8
OBJECT__40
10
0
20
0
30
0
70
128
71
11
72
9
73
22
0
VERTEX
8
OBJECT__40
10
0
20
0
30
0
70
128
71
9
72
23
73
22
0
VERTEX
8
OBJECT__40
10
0
20
0
30
0
70
128
71
24
72
23
73
25
0
VERTEX
8
OBJECT__40
10
0
20
0
30
0
70
128
71
23
72
9
73
25
0
VERTEX
8
OBJECT__40
10
0
20
0
30
0
70
128
71
25
72
15
73
24
0
VERTEX
8
OBJECT__40
10
0
20
0
30
0
70
128
71
26
72
27
73
28
0
VERTEX
8
OBJECT__40
10
0
20
0
30
0
70
128
71
28
72
15
73
26
0
VERTEX
8
OBJECT__40
10
0
20
0
30
0
70
128
71
28
72
24
73
15
0
VERTEX
8
OBJECT__40
10
0
20
0
30
0
70
128
71
22
72
29
73
11
0
VERTEX
8
OBJECT__40
10
0
20
0
30
0
70
128
71
20
72
19
73
16
0
VERTEX
8
OBJECT__40
10
0
20
0
30
0
70
128
71
18
72
13
73
12
0
VERTEX
8
OBJECT__40
10
0
20
0
30
0
70
128
71
14
72
26
73
15
0
VERTEX
8
OBJECT__40
10
0
20
0
30
0
70
128
71
10
72
8
73
5
0
VERTEX
8
OBJECT__40
10
0
20
0
30
0
70
128
71
7
72
2
73
1
0
VERTEX
8
OBJECT__40
10
0
20
0
30
0
70
128
71
3
72
21
73
4
0
SEQEND
8
OBJECT__40
0
POLYLINE
8
OBJECT__42
66
1
70
64
71
39
72
45
62
253
0
VERTEX
8
OBJECT__42
10
-16.493000
20
45.255001
30
41.080002
70
192
0
VERTEX
8
OBJECT__42
10
-16.221001
20
45.404999
30
40.849998
70
192
0
VERTEX
8
OBJECT__42
10
-17.989000
20
45.404999
30
36.401001
70
192
0
VERTEX
8
OBJECT__42
10
-18.344999
20
45.255001
30
36.419998
70
192
0
VERTEX
8
OBJECT__42
10
-16.705999
20
45.404999
30
31.788000
70
192
0
VERTEX
8
OBJECT__42
10
-17.000999
20
45.255001
30
31.587999
70
192
0
VERTEX
8
OBJECT__42
10
-12.894000
20
45.404999
30
28.892000
70
192
0
VERTEX
8
OBJECT__42
10
-13.008000
20
45.255001
30
28.554001
70
192
0
VERTEX
8
OBJECT__42
10
-8.106000
20
45.404999
30
28.892000
70
192
0
VERTEX
8
OBJECT__42
10
-7.992000
20
45.255001
30
28.554001
70
192
0
VERTEX
8
OBJECT__42
10
-4.294000
20
45.404999
30
31.788000
70
192
0
VERTEX
8
OBJECT__42
10
-2.655000
20
45.255001
30
36.419998
70
192
0
VERTEX
8
OBJECT__42
10
-3.999000
20
45.255001
30
31.587999
70
192
0
VERTEX
8
OBJECT__42
10
-4.507000
20
45.255001
30
41.080002
70
192
0
VERTEX
8
OBJECT__42
10
-3.011000
20
45.404999
30
36.401001
70
192
0
VERTEX
8
OBJECT__42
10
-17.997999
20
44.896000
30
37.660999
70
192
0
VERTEX
8
OBJECT__42
10
-18.489000
20
44.896000
30
36.426998
70
192
0
VERTEX
8
OBJECT__42
10
-13.053000
20
44.896000
30
28.417999
70
192
0
VERTEX
8
OBJECT__42
10
-16.649000
20
44.896000
30
31.150999
70
192
0
VERTEX
8
OBJECT__42
10
-10.500000
20
44.896000
30
28.417999
70
192
0
VERTEX
8
OBJECT__42
10
-7.947000
20
44.896000
30
28.417999
70
192
0
VERTEX
8
OBJECT__42
10
-4.351000
20
44.896000
30
31.150999
70
192
0
VERTEX
8
OBJECT__42
10
-3.881000
20
44.896000
30
31.507999
70
192
0
VERTEX
8
OBJECT__42
10
-4.397000
20
44.896000
30
41.173000
70
192
0
VERTEX
8
OBJECT__42
10
-3.002000
20
44.896000
30
37.660999
70
192
0
VERTEX
8
OBJECT__42
10
-4.779000
20
45.404999
30
40.849998
70
192
0
VERTEX
8
OBJECT__42
10
-8.500000
20
45.404999
30
43.228001
70
192
0
VERTEX
8
OBJECT__42
10
-8.500000
20
45.383999
30
43.376999
70
192
0
VERTEX
8
OBJECT__42
10
-8.500000
20
45.199001
30
43.516998
70
192
0
VERTEX
8
OBJECT__42
10
-7.202000
20
44.896000
30
42.931999
70
192
0
VERTEX
8
OBJECT__42
10
-8.500000
20
44.896000
30
43.745998
70
192
0
VERTEX
8
OBJECT__42
10
-16.603001
20
44.896000
30
41.173000
70
192
0
VERTEX
8
OBJECT__42
10
-13.798000
20
44.896000
30
42.931999
70
192
0
VERTEX
8
OBJECT__42
10
-12.500000
20
45.199001
30
43.516998
70
192
0
VERTEX
8
OBJECT__42
10
-12.500000
20
45.383999
30
43.376999
70
192
0
VERTEX
8
OBJECT__42
10
-12.500000
20
45.404999
30
43.228001
70
192
0
VERTEX
8
OBJECT__42
10
-12.500000
20
44.896000
30
43.745998
70
192
0
VERTEX
8
OBJECT__42
10
-2.511000
20
44.896000
30
36.426998
70
192
0
VERTEX
8
OBJECT__42
10
-17.118999
20
44.896000
30
31.507999
70
192
0
VERTEX
8
OBJECT__42
10
0
20
0
30
0
70
128
71
1
72
2
73
3
0
VERTEX
8
OBJECT__42
10
0
20
0
30
0
70
128
71
4
72
3
73
5
0
VERTEX
8
OBJECT__42
10
0
20
0
30
0
70
128
71
6
72
5
73
7
0
VERTEX
8
OBJECT__42
10
0
20
0
30
0
70
128
71
8
72
7
73
9
0
VERTEX
8
OBJECT__42
10
0
20
0
30
0
70
128
71
10
72
9
73
11
0
VERTEX
8
OBJECT__42
10
0
20
0
30
0
70
128
71
12
72
13
73
11
0
VERTEX
8
OBJECT__42
10
0
20
0
30
0
70
128
71
14
72
12
73
15
0
VERTEX
8
OBJECT__42
10
0
20
0
30
0
70
128
71
1
72
4
73
16
0
VERTEX
8
OBJECT__42
10
0
20
0
30
0
70
128
71
4
72
17
73
16
0
VERTEX
8
OBJECT__42
10
0
20
0
30
0
70
128
71
17
72
4
73
6
0
VERTEX
8
OBJECT__42
10
0
20
0
30
0
70
128
71
8
72
18
73
19
0
VERTEX
8
OBJECT__42
10
0
20
0
30
0
70
128
71
19
72
6
73
8
0
VERTEX
8
OBJECT__42
10
0
20
0
30
0
70
128
71
8
72
10
73
20
0
VERTEX
8
OBJECT__42
10
0
20
0
30
0
70
128
71
10
72
21
73
20
0
VERTEX
8
OBJECT__42
10
0
20
0
30
0
70
128
71
10
72
13
73
22
0
VERTEX
8
OBJECT__42
10
0
20
0
30
0
70
128
71
13
72
23
73
22
0
VERTEX
8
OBJECT__42
10
0
20
0
30
0
70
128
71
23
72
13
73
12
0
VERTEX
8
OBJECT__42
10
0
20
0
30
0
70
128
71
14
72
24
73
25
0
VERTEX
8
OBJECT__42
10
0
20
0
30
0
70
128
71
25
72
12
73
14
0
VERTEX
8
OBJECT__42
10
0
20
0
30
0
70
128
71
14
72
26
73
27
0
VERTEX
8
OBJECT__42
10
0
20
0
30
0
70
128
71
27
72
28
73
14
0
VERTEX
8
OBJECT__42
10
0
20
0
30
0
70
128
71
14
72
29
73
30
0
VERTEX
8
OBJECT__42
10
0
20
0
30
0
70
128
71
29
72
31
73
30
0
VERTEX
8
OBJECT__42
10
0
20
0
30
0
70
128
71
1
72
32
73
33
0
VERTEX
8
OBJECT__42
10
0
20
0
30
0
70
128
71
33
72
34
73
1
0
VERTEX
8
OBJECT__42
10
0
20
0
30
0
70
128
71
1
72
35
73
36
0
VERTEX
8
OBJECT__42
10
0
20
0
30
0
70
128
71
1
72
34
73
35
0
VERTEX
8
OBJECT__42
10
0
20
0
30
0
70
128
71
36
72
2
73
1
0
VERTEX
8
OBJECT__42
10
0
20
0
30
0
70
128
71
33
72
37
73
34
0
VERTEX
8
OBJECT__42
10
0
20
0
30
0
70
128
71
30
72
24
73
14
0
VERTEX
8
OBJECT__42
10
0
20
0
30
0
70
128
71
28
72
29
73
14
0
VERTEX
8
OBJECT__42
10
0
20
0
30
0
70
128
71
25
72
38
73
12
0
VERTEX
8
OBJECT__42
10
0
20
0
30
0
70
128
71
12
72
38
73
23
0
VERTEX
8
OBJECT__42
10
0
20
0
30
0
70
128
71
22
72
21
73
10
0
VERTEX
8
OBJECT__42
10
0
20
0
30
0
70
128
71
20
72
18
73
8
0
VERTEX
8
OBJECT__42
10
0
20
0
30
0
70
128
71
19
72
39
73
6
0
VERTEX
8
OBJECT__42
10
0
20
0
30
0
70
128
71
6
72
39
73
17
0
VERTEX
8
OBJECT__42
10
0
20
0
30
0
70
128
71
16
72
32
73
1
0
VERTEX
8
OBJECT__42
10
0
20
0
30
0
70
128
71
15
72
26
73
14
0
VERTEX
8
OBJECT__42
10
0
20
0
30
0
70
128
71
11
72
15
73
12
0
VERTEX
8
OBJECT__42
10
0
20
0
30
0
70
128
71
11
72
13
73
10
0
VERTEX
8
OBJECT__42
10
0
20
0
30
0
70
128
71
9
72
10
73
8
0
VERTEX
8
OBJECT__42
10
0
20
0
30
0
70
128
71
7
72
8
73
6
0
VERTEX
8
OBJECT__42
10
0
20
0
30
0
70
128
71
5
72
6
73
4
0
VERTEX
8
OBJECT__42
10
0
20
0
30
0
70
128
71
3
72
4
73
1
0
SEQEND
8
OBJECT__42
0
POLYLINE
8
OBJECT__43
66
1
70
64
71
12
72
10
62
253
0
VERTEX
8
OBJECT__43
10
-17.989000
20
45.404999
30
36.401001
70
192
0
VERTEX
8
OBJECT__43
10
-4.294000
20
45.404999
30
31.788000
70
192
0
VERTEX
8
OBJECT__43
10
-8.106000
20
45.404999
30
28.892000
70
192
0
VERTEX
8
OBJECT__43
10
-12.894000
20
45.404999
30
28.892000
70
192
0
VERTEX
8
OBJECT__43
10
-3.011000
20
45.404999
30
36.401001
70
192
0
VERTEX
8
OBJECT__43
10
-12.500000
20
45.404999
30
43.228001
70
192
0
VERTEX
8
OBJECT__43
10
-8.500000
20
45.404999
30
43.228001
70
192
0
VERTEX
8
OBJECT__43
10
-8.500000
20
45.404999
30
64.000000
70
192
0
VERTEX
8
OBJECT__43
10
-16.221001
20
45.404999
30
40.849998
70
192
0
VERTEX
8
OBJECT__43
10
-16.705999
20
45.404999
30
31.788000
70
192
0
VERTEX
8
OBJECT__43
10
-12.500000
20
45.404999
30
64.000000
70
192
0
VERTEX
8
OBJECT__43
10
-4.779000
20
45.404999
30
40.849998
70
192
0
VERTEX
8
OBJECT__43
10
0
20
0
30
0
70
128
71
1
72
2
73
3
0
VERTEX
8
OBJECT__43
10
0
20
0
30
0
70
128
71
3
72
4
73
1
0
VERTEX
8
OBJECT__43
10
0
20
0
30
0
70
128
71
5
72
6
73
7
0
VERTEX
8
OBJECT__43
10
0
20
0
30
0
70
128
71
8
72
7
73
6
0
VERTEX
8
OBJECT__43
10
0
20
0
30
0
70
128
71
2
72
9
73
6
0
VERTEX
8
OBJECT__43
10
0
20
0
30
0
70
128
71
4
72
10
73
1
0
VERTEX
8
OBJECT__43
10
0
20
0
30
0
70
128
71
6
72
11
73
8
0
VERTEX
8
OBJECT__43
10
0
20
0
30
0
70
128
71
1
72
9
73
2
0
VERTEX
8
OBJECT__43
10
0
20
0
30
0
70
128
71
6
72
5
73
2
0
VERTEX
8
OBJECT__43
10
0
20
0
30
0
70
128
71
7
72
12
73
5
0
SEQEND
8
OBJECT__43
0
POLYLINE
8
OBJECT__44
66
1
70
64
71
9
72
7
62
253
0
VERTEX
8
OBJECT__44
10
-8.500000
20
44.904999
30
64.000000
70
192
0
VERTEX
8
OBJECT__44
10
-8.500000
20
33.904999
30
63.807999
70
192
0
VERTEX
8
OBJECT__44
10
-8.500000
20
35.250000
30
43.571999
70
192
0
VERTEX
8
OBJECT__44
10
-8.500000
20
44.896000
30
43.745998
70
192
0
VERTEX
8
OBJECT__44
10
-8.500000
20
45.404999
30
64.000000
70
192
0
VERTEX
8
OBJECT__44
10
-8.500000
20
45.199001
30
43.516998
70
192
0
VERTEX
8
OBJECT__44
10
-8.500000
20
33.904999
30
43.548000
70
192
0
VERTEX
8
OBJECT__44
10
-8.500000
20
45.383999
30
43.376999
70
192
0
VERTEX
8
OBJECT__44
10
-8.500000
20
45.404999
30
43.228001
70
192
0
VERTEX
8
OBJECT__44
10
0
20
0
30
0
70
128
71
1
72
2
73
3
0
VERTEX
8
OBJECT__44
10
0
20
0
30
0
70
128
71
4
72
5
73
1
0
VERTEX
8
OBJECT__44
10
0
20
0
30
0
70
128
71
5
72
4
73
6
0
VERTEX
8
OBJECT__44
10
0
20
0
30
0
70
128
71
2
72
7
73
3
0
VERTEX
8
OBJECT__44
10
0
20
0
30
0
70
128
71
3
72
4
73
1
0
VERTEX
8
OBJECT__44
10
0
20
0
30
0
70
128
71
6
72
8
73
5
0
VERTEX
8
OBJECT__44
10
0
20
0
30
0
70
128
71
8
72
9
73
5
0
SEQEND
8
OBJECT__44
0
POLYLINE
8
OBJECT__45
66
1
70
64
71
9
72
7
62
253
0
VERTEX
8
OBJECT__45
10
-12.500000
20
33.904999
30
63.807999
70
192
0
VERTEX
8
OBJECT__45
10
-12.500000
20
44.896000
30
43.745998
70
192
0
VERTEX
8
OBJECT__45
10
-12.500000
20
35.250000
30
43.571999
70
192
0
VERTEX
8
OBJECT__45
10
-12.500000
20
45.383999
30
43.376999
70
192
0
VERTEX
8
OBJECT__45
10
-12.500000
20
45.199001
30
43.516998
70
192
0
VERTEX
8
OBJECT__45
10
-12.500000
20
45.404999
30
64.000000
70
192
0
VERTEX
8
OBJECT__45
10
-12.500000
20
45.404999
30
43.228001
70
192
0
VERTEX
8
OBJECT__45
10
-12.500000
20
44.904999
30
64.000000
70
192
0
VERTEX
8
OBJECT__45
10
-12.500000
20
33.904999
30
43.548000
70
192
0
VERTEX
8
OBJECT__45
10
0
20
0
30
0
70
128
71
1
72
2
73
3
0
VERTEX
8
OBJECT__45
10
0
20
0
30
0
70
128
71
1
72
4
73
5
0
VERTEX
8
OBJECT__45
10
0
20
0
30
0
70
128
71
6
72
7
73
4
0
VERTEX
8
OBJECT__45
10
0
20
0
30
0
70
128
71
5
72
2
73
1
0
VERTEX
8
OBJECT__45
10
0
20
0
30
0
70
128
71
4
72
8
73
6
0
VERTEX
8
OBJECT__45
10
0
20
0
30
0
70
128
71
4
72
1
73
8
0
VERTEX
8
OBJECT__45
10
0
20
0
30
0
70
128
71
3
72
9
73
1
0
SEQEND
8
OBJECT__45
0
POLYLINE
8
OBJECT__46
66
1
70
64
71
4
72
2
62
253
0
VERTEX
8
OBJECT__46
10
-12.500000
20
45.404999
30
64.000000
70
192
0
VERTEX
8
OBJECT__46
10
-12.500000
20
44.904999
30
64.000000
70
192
0
VERTEX
8
OBJECT__46
10
-8.500000
20
44.904999
30
64.000000
70
192
0
VERTEX
8
OBJECT__46
10
-8.500000
20
45.404999
30
64.000000
70
192
0
VERTEX
8
OBJECT__46
10
0
20
0
30
0
70
128
71
1
72
2
73
3
0
VERTEX
8
OBJECT__46
10
0
20
0
30
0
70
128
71
3
72
4
73
1
0
SEQEND
8
OBJECT__46
0
POLYLINE
8
OBJECT__47
66
1
70
64
71
4
72
2
62
253
0
VERTEX
8
OBJECT__47
10
-12.500000
20
44.904999
30
64.000000
70
192
0
VERTEX
8
OBJECT__47
10
-12.500000
20
33.904999
30
63.807999
70
192
0
VERTEX
8
OBJECT__47
10
-8.500000
20
33.904999
30
63.807999
70
192
0
VERTEX
8
OBJECT__47
10
-8.500000
20
44.904999
30
64.000000
70
192
0
VERTEX
8
OBJECT__47
10
0
20
0
30
0
70
128
71
1
72
2
73
3
0
VERTEX
8
OBJECT__47
10
0
20
0
30
0
70
128
71
3
72
4
73
1
0
SEQEND
8
OBJECT__47
0
POLYLINE
8
OBJECT__48
66
1
70
64
71
4
72
2
62
253
0
VERTEX
8
OBJECT__48
10
-12.500000
20
33.904999
30
63.807999
70
192
0
VERTEX
8
OBJECT__48
10
-12.500000
20
33.904999
30
43.548000
70
192
0
VERTEX
8
OBJECT__48
10
-8.500000
20
33.904999
30
43.548000
70
192
0
VERTEX
8
OBJECT__48
10
-8.500000
20
33.904999
30
63.807999
70
192
0
VERTEX
8
OBJECT__48
10
0
20
0
30
0
70
128
71
1
72
2
73
3
0
VERTEX
8
OBJECT__48
10
0
20
0
30
0
70
128
71
3
72
4
73
1
0
SEQEND
8
OBJECT__48
0
POLYLINE
8
OBJECT__49
66
1
70
64
71
24
72
24
62
253
0
VERTEX
8
OBJECT__49
10
-22.517000
20
13.000000
30
44.000000
70
192
0
VERTEX
8
OBJECT__49
10
-22.517000
20
13.000000
30
0.000000
70
192
0
VERTEX
8
OBJECT__49
10
-26.000000
20
0.000000
30
0.000000
70
192
0
VERTEX
8
OBJECT__49
10
-13.000000
20
22.517000
30
44.000000
70
192
0
VERTEX
8
OBJECT__49
10
-13.000000
20
22.517000
30
0.000000
70
192
0
VERTEX
8
OBJECT__49
10
0.000000
20
26.000000
30
44.000000
70
192
0
VERTEX
8
OBJECT__49
10
0.000000
20
26.000000
30
0.000000
70
192
0
VERTEX
8
OBJECT__49
10
13.000000
20
22.517000
30
44.000000
70
192
0
VERTEX
8
OBJECT__49
10
13.000000
20
22.517000
30
0.000000
70
192
0
VERTEX
8
OBJECT__49
10
22.517000
20
13.000000
30
44.000000
70
192
0
VERTEX
8
OBJECT__49
10
22.517000
20
13.000000
30
0.000000
70
192
0
VERTEX
8
OBJECT__49
10
26.000000
20
0.000000
30
44.000000
70
192
0
VERTEX
8
OBJECT__49
10
26.000000
20
0.000000
30
0.000000
70
192
0
VERTEX
8
OBJECT__49
10
22.517000
20
-13.000000
30
44.000000
70
192
0
VERTEX
8
OBJECT__49
10
22.517000
20
-13.000000
30
0.000000
70
192
0
VERTEX
8
OBJECT__49
10
13.000000
20
-22.517000
30
44.000000
70
192
0
VERTEX
8
OBJECT__49
10
13.000000
20
-22.517000
30
0.000000
70
192
0
VERTEX
8
OBJECT__49
10
0.000000
20
-26.000000
30
44.000000
70
192
0
VERTEX
8
OBJECT__49
10
0.000000
20
-26.000000
30
0.000000
70
192
0
VERTEX
8
OBJECT__49
10
-13.000000
20
-22.517000
30
44.000000
70
192
0
VERTEX
8
OBJECT__49
10
-13.000000
20
-22.517000
30
0.000000
70
192
0
VERTEX
8
OBJECT__49
10
-22.517000
20
-13.000000
30
44.000000
70
192
0
VERTEX
8
OBJECT__49
10
-22.517000
20
-13.000000
30
0.000000
70
192
0
VERTEX
8
OBJECT__49
10
-26.000000
20
0.000000
30
44.000000
70
192
0
VERTEX
8
OBJECT__49
10
0
20
0
30
0
70
128
71
1
72
2
73
3
0
VERTEX
8
OBJECT__49
10
0
20
0
30
0
70
128
71
4
72
5
73
2
0
VERTEX
8
OBJECT__49
10
0
20
0
30
0
70
128
71
6
72
7
73
5
0
VERTEX
8
OBJECT__49
10
0
20
0
30
0
70
128
71
8
72
9
73
7
0
VERTEX
8
OBJECT__49
10
0
20
0
30
0
70
128
71
10
72
11
73
9
0
VERTEX
8
OBJECT__49
10
0
20
0
30
0
70
128
71
12
72
13
73
11
0
VERTEX
8
OBJECT__49
10
0
20
0
30
0
70
128
71
14
72
15
73
13
0
VERTEX
8
OBJECT__49
10
0
20
0
30
0
70
128
71
16
72
17
73
15
0
VERTEX
8
OBJECT__49
10
0
20
0
30
0
70
128
71
18
72
19
73
17
0
VERTEX
8
OBJECT__49
10
0
20
0
30
0
70
128
71
20
72
21
73
19
0
VERTEX
8
OBJECT__49
10
0
20
0
30
0
70
128
71
22
72
23
73
21
0
VERTEX
8
OBJECT__49
10
0
20
0
30
0
70
128
71
24
72
3
73
23
0
VERTEX
8
OBJECT__49
10
0
20
0
30
0
70
128
71
23
72
22
73
24
0
VERTEX
8
OBJECT__49
10
0
20
0
30
0
70
128
71
21
72
20
73
22
0
VERTEX
8
OBJECT__49
10
0
20
0
30
0
70
128
71
19
72
18
73
20
0
VERTEX
8
OBJECT__49
10
0
20
0
30
0
70
128
71
17
72
16
73
18
0
VERTEX
8
OBJECT__49
10
0
20
0
30
0
70
128
71
15
72
14
73
16
0
VERTEX
8
OBJECT__49
10
0
20
0
30
0
70
128
71
13
72
12
73
14
0
VERTEX
8
OBJECT__49
10
0
20
0
30
0
70
128
71
11
72
10
73
12
0
VERTEX
8
OBJECT__49
10
0
20
0
30
0
70
128
71
9
72
8
73
10
0
VERTEX
8
OBJECT__49
10
0
20
0
30
0
70
128
71
7
72
6
73
8
0
VERTEX
8
OBJECT__49
10
0
20
0
30
0
70
128
71
5
72
4
73
6
0
VERTEX
8
OBJECT__49
10
0
20
0
30
0
70
128
71
2
72
1
73
4
0
VERTEX
8
OBJECT__49
10
0
20
0
30
0
70
128
71
3
72
24
73
1
0
SEQEND
8
OBJECT__49
0
POLYLINE
8
OBJECT__50
66
1
70
64
71
26
72
26
62
253
0
VERTEX
8
OBJECT__50
10
26.000000
20
0.000000
30
44.000000
70
192
0
VERTEX
8
OBJECT__50
10
22.517000
20
13.000000
30
44.000000
70
192
0
VERTEX
8
OBJECT__50
10
21.511000
20
10.359000
30
44.000000
70
192
0
VERTEX
8
OBJECT__50
10
13.000000
20
22.517000
30
44.000000
70
192
0
VERTEX
8
OBJECT__50
10
14.886000
20
18.666000
30
44.000000
70
192
0
VERTEX
8
OBJECT__50
10
0.000000
20
26.000000
30
44.000000
70
192
0
VERTEX
8
OBJECT__50
10
5.313000
20
23.275999
30
44.000000
70
192
0
VERTEX
8
OBJECT__50
10
-13.000000
20
22.517000
30
44.000000
70
192
0
VERTEX
8
OBJECT__50
10
-14.886000
20
18.666000
30
44.000000
70
192
0
VERTEX
8
OBJECT__50
10
-5.313000
20
23.275999
30
44.000000
70
192
0
VERTEX
8
OBJECT__50
10
-22.517000
20
13.000000
30
44.000000
70
192
0
VERTEX
8
OBJECT__50
10
-21.511000
20
10.359000
30
44.000000
70
192
0
VERTEX
8
OBJECT__50
10
-26.000000
20
0.000000
30
44.000000
70
192
0
VERTEX
8
OBJECT__50
10
-23.875000
20
0.000000
30
44.000000
70
192
0
VERTEX
8
OBJECT__50
10
-22.517000
20
-13.000000
30
44.000000
70
192
0
VERTEX
8
OBJECT__50
10
-21.511000
20
-10.359000
30
44.000000
70
192
0
VERTEX
8
OBJECT__50
10
-13.000000
20
-22.517000
30
44.000000
70
192
0
VERTEX
8
OBJECT__50
10
0.000000
20
-26.000000
30
44.000000
70
192
0
VERTEX
8
OBJECT__50
10
-5.313000
20
-23.275999
30
44.000000
70
192
0
VERTEX
8
OBJECT__50
10
13.000000
20
-22.517000
30
44.000000
70
192
0
VERTEX
8
OBJECT__50
10
14.886000
20
-18.666000
30
44.000000
70
192
0
VERTEX
8
OBJECT__50
10
5.313000
20
-23.275999
30
44.000000
70
192
0
VERTEX
8
OBJECT__50
10
22.517000
20
-13.000000
30
44.000000
70
192
0
VERTEX
8
OBJECT__50
10
21.511000
20
-10.359000
30
44.000000
70
192
0
VERTEX
8
OBJECT__50
10
-14.886000
20
-18.666000
30
44.000000
70
192
0
VERTEX
8
OBJECT__50
10
23.875000
20
0.000000
30
44.000000
70
192
0
VERTEX
8
OBJECT__50
10
0
20
0
30
0
70
128
71
1
72
2
73
3
0
VERTEX
8
OBJECT__50
10
0
20
0
30
0
70
128
71
2
72
4
73
5
0
VERTEX
8
OBJECT__50
10
0
20
0
30
0
70
128
71
5
72
3
73
2
0
VERTEX
8
OBJECT__50
10
0
20
0
30
0
70
128
71
4
72
6
73
7
0
VERTEX
8
OBJECT__50
10
0
20
0
30
0
70
128
71
8
72
9
73
10
0
VERTEX
8
OBJECT__50
10
0
20
0
30
0
70
128
71
11
72
12
73
9
0
VERTEX
8
OBJECT__50
10
0
20
0
30
0
70
128
71
13
72
14
73
12
0
VERTEX
8
OBJECT__50
10
0
20
0
30
0
70
128
71
13
72
15
73
16
0
VERTEX
8
OBJECT__50
10
0
20
0
30
0
70
128
71
17
72
18
73
19
0
VERTEX
8
OBJECT__50
10
0
20
0
30
0
70
128
71
20
72
21
73
22
0
VERTEX
8
OBJECT__50
10
0
20
0
30
0
70
128
71
23
72
24
73
21
0
VERTEX
8
OBJECT__50
10
0
20
0
30
0
70
128
71
7
72
5
73
4
0
VERTEX
8
OBJECT__50
10
0
20
0
30
0
70
128
71
9
72
8
73
11
0
VERTEX
8
OBJECT__50
10
0
20
0
30
0
70
128
71
16
72
14
73
13
0
VERTEX
8
OBJECT__50
10
0
20
0
30
0
70
128
71
15
72
17
73
25
0
VERTEX
8
OBJECT__50
10
0
20
0
30
0
70
128
71
18
72
22
73
19
0
VERTEX
8
OBJECT__50
10
0
20
0
30
0
70
128
71
21
72
20
73
23
0
VERTEX
8
OBJECT__50
10
0
20
0
30
0
70
128
71
1
72
26
73
24
0
VERTEX
8
OBJECT__50
10
0
20
0
30
0
70
128
71
6
72
10
73
7
0
VERTEX
8
OBJECT__50
10
0
20
0
30
0
70
128
71
12
72
11
73
13
0
VERTEX
8
OBJECT__50
10
0
20
0
30
0
70
128
71
19
72
25
73
17
0
VERTEX
8
OBJECT__50
10
0
20
0
30
0
70
128
71
24
72
23
73
1
0
VERTEX
8
OBJECT__50
10
0
20
0
30
0
70
128
71
10
72
6
73
8
0
VERTEX
8
OBJECT__50
10
0
20
0
30
0
70
128
71
22
72
18
73
20
0
VERTEX
8
OBJECT__50
10
0
20
0
30
0
70
128
71
25
72
16
73
15
0
VERTEX
8
OBJECT__50
10
0
20
0
30
0
70
128
71
3
72
26
73
1
0
SEQEND
8
OBJECT__50
0
POLYLINE
8
OBJECT__52
66
1
70
64
71
4
72
2
62
253
0
VERTEX
8
OBJECT__52
10
6.500000
20
-15.000000
30
144.500000
70
192
0
VERTEX
8
OBJECT__52
10
6.500000
20
15.000000
30
144.500000
70
192
0
VERTEX
8
OBJECT__52
10
6.500000
20
15.000000
30
191.003006
70
192
0
VERTEX
8
OBJECT__52
10
6.500000
20
-15.000000
30
191.003006
70
192
0
VERTEX
8
OBJECT__52
10
0
20
0
30
0
70
128
71
1
72
2
73
3
0
VERTEX
8
OBJECT__52
10
0
20
0
30
0
70
128
71
3
72
4
73
1
0
SEQEND
8
OBJECT__52
0
POLYLINE
8
OBJECT__53
66
1
70
64
71
8
72
6
62
253
0
VERTEX
8
OBJECT__53
10
9.916000
20
15.000000
30
203.753006
70
192
0
VERTEX
8
OBJECT__53
10
9.916000
20
-15.000000
30
203.753006
70
192
0
VERTEX
8
OBJECT__53
10
6.500000
20
-15.000000
30
191.003006
70
192
0
VERTEX
8
OBJECT__53
10
19.250000
20
15.000000
30
213.085999
70
192
0
VERTEX
8
OBJECT__53
10
19.250000
20
-15.000000
30
213.085999
70
192
0
VERTEX
8
OBJECT__53
10
32.000000
20
15.000000
30
216.503006
70
192
0
VERTEX
8
OBJECT__53
10
32.000000
20
-15.000000
30
216.503006
70
192
0
VERTEX
8
OBJECT__53
10
6.500000
20
15.000000
30
191.003006
70
192
0
VERTEX
8
OBJECT__53
10
0
20
0
30
0
70
128
71
1
72
2
73
3
0
VERTEX
8
OBJECT__53
10
0
20
0
30
0
70
128
71
4
72
5
73
2
0
VERTEX
8
OBJECT__53
10
0
20
0
30
0
70
128
71
6
72
7
73
5
0
VERTEX
8
OBJECT__53
10
0
20
0
30
0
70
128
71
5
72
4
73
6
0
VERTEX
8
OBJECT__53
10
0
20
0
30
0
70
128
71
2
72
1
73
4
0
VERTEX
8
OBJECT__53
10
0
20
0
30
0
70
128
71
3
72
8
73
1
0
SEQEND
8
OBJECT__53
0
POLYLINE
8
OBJECT__55
66
1
70
64
71
4
72
2
62
253
0
VERTEX
8
OBJECT__55
10
32.000000
20
-15.000000
30
216.503006
70
192
0
VERTEX
8
OBJECT__55
10
32.000000
20
15.000000
30
216.503006
70
192
0
VERTEX
8
OBJECT__55
10
106.400002
20
15.000000
30
216.503006
70
192
0
VERTEX
8
OBJECT__55
10
106.400002
20
-15.000000
30
216.503006
70
192
0
VERTEX
8
OBJECT__55
10
0
20
0
30
0
70
128
71
1
72
2
73
3
0
VERTEX
8
OBJECT__55
10
0
20
0
30
0
70
128
71
3
72
4
73
1
0
SEQEND
8
OBJECT__55
0
POLYLINE
8
OBJECT__56
66
1
70
64
71
8
72
6
62
253
0
VERTEX
8
OBJECT__56
10
126.866997
20
15.000000
30
206.223999
70
192
0
VERTEX
8
OBJECT__56
10
131.528000
20
15.000000
30
195.417007
70
192
0
VERTEX
8
OBJECT__56
10
131.528000
20
-15.000000
30
195.417007
70
192
0
VERTEX
8
OBJECT__56
10
117.851997
20
-15.000000
30
213.789001
70
192
0
VERTEX
8
OBJECT__56
10
117.851997
20
15.000000
30
213.789001
70
192
0
VERTEX
8
OBJECT__56
10
106.400002
20
-15.000000
30
216.503006
70
192
0
VERTEX
8
OBJECT__56
10
106.400002
20
15.000000
30
216.503006
70
192
0
VERTEX
8
OBJECT__56
10
126.866997
20
-15.000000
30
206.223999
70
192
0
VERTEX
8
OBJECT__56
10
0
20
0
30
0
70
128
71
1
72
2
73
3
0
VERTEX
8
OBJECT__56
10
0
20
0
30
0
70
128
71
4
72
5
73
1
0
VERTEX
8
OBJECT__56
10
0
20
0
30
0
70
128
71
6
72
7
73
5
0
VERTEX
8
OBJECT__56
10
0
20
0
30
0
70
128
71
5
72
4
73
6
0
VERTEX
8
OBJECT__56
10
0
20
0
30
0
70
128
71
1
72
8
73
4
0
VERTEX
8
OBJECT__56
10
0
20
0
30
0
70
128
71
3
72
8
73
1
0
SEQEND
8
OBJECT__56
0
POLYLINE
8
OBJECT__57
66
1
70
64
71
4
72
2
62
253
0
VERTEX
8
OBJECT__57
10
133.209000
20
-15.000000
30
185.888000
70
192
0
VERTEX
8
OBJECT__57
10
131.528000
20
-15.000000
30
195.417007
70
192
0
VERTEX
8
OBJECT__57
10
131.528000
20
15.000000
30
195.417007
70
192
0
VERTEX
8
OBJECT__57
10
133.209000
20
15.000000
30
185.888000
70
192
0
VERTEX
8
OBJECT__57
10
0
20
0
30
0
70
128
71
1
72
2
73
3
0
VERTEX
8
OBJECT__57
10
0
20
0
30
0
70
128
71
3
72
4
73
1
0
SEQEND
8
OBJECT__57
0
POLYLINE
8
OBJECT__58
66
1
70
64
71
4
72
2
62
253
0
VERTEX
8
OBJECT__58
10
133.209000
20
-15.000000
30
185.888000
70
192
0
VERTEX
8
OBJECT__58
10
133.209000
20
15.000000
30
185.888000
70
192
0
VERTEX
8
OBJECT__58
10
146.404999
20
15.000000
30
188.214996
70
192
0
VERTEX
8
OBJECT__58
10
146.404999
20
-15.000000
30
188.214996
70
192
0
VERTEX
8
OBJECT__58
10
0
20
0
30
0
70
128
71
1
72
2
73
3
0
VERTEX
8
OBJECT__58
10
0
20
0
30
0
70
128
71
3
72
4
73
1
0
SEQEND
8
OBJECT__58
0
POLYLINE
8
OBJECT__59
66
1
70
64
71
4
72
2
62
253
0
VERTEX
8
OBJECT__59
10
146.404999
20
-15.000000
30
188.214996
70
192
0
VERTEX
8
OBJECT__59
10
146.404999
20
15.000000
30
188.214996
70
192
0
VERTEX
8
OBJECT__59
10
144.807999
20
15.000000
30
197.274994
70
192
0
VERTEX
8
OBJECT__59
10
144.807999
20
-15.000000
30
197.274994
70
192
0
VERTEX
8
OBJECT__59
10
0
20
0
30
0
70
128
71
1
72
2
73
3
0
VERTEX
8
OBJECT__59
10
0
20
0
30
0
70
128
71
3
72
4
73
1
0
SEQEND
8
OBJECT__59
0
POLYLINE
8
OBJECT__60
66
1
70
64
71
10
72
8
62
253
0
VERTEX
8
OBJECT__60
10
140.175003
20
-15.000000
30
210.003006
70
192
0
VERTEX
8
OBJECT__60
10
144.807999
20
-15.000000
30
197.274994
70
192
0
VERTEX
8
OBJECT__60
10
144.807999
20
15.000000
30
197.274994
70
192
0
VERTEX
8
OBJECT__60
10
131.468994
20
15.000000
30
220.378006
70
192
0
VERTEX
8
OBJECT__60
10
131.468994
20
-15.000000
30
220.378006
70
192
0
VERTEX
8
OBJECT__60
10
119.738998
20
15.000000
30
227.151001
70
192
0
VERTEX
8
OBJECT__60
10
119.738998
20
-15.000000
30
227.151001
70
192
0
VERTEX
8
OBJECT__60
10
106.400002
20
15.000000
30
229.503006
70
192
0
VERTEX
8
OBJECT__60
10
106.400002
20
-15.000000
30
229.503006
70
192
0
VERTEX
8
OBJECT__60
10
140.175003
20
15.000000
30
210.003006
70
192
0
VERTEX
8
OBJECT__60
10
0
20
0
30
0
70
128
71
1
72
2
73
3
0
VERTEX
8
OBJECT__60
10
0
20
0
30
0
70
128
71
4
72
5
73
1
0
VERTEX
8
OBJECT__60
10
0
20
0
30
0
70
128
71
6
72
7
73
5
0
VERTEX
8
OBJECT__60
10
0
20
0
30
0
70
128
71
8
72
9
73
7
0
VERTEX
8
OBJECT__60
10
0
20
0
30
0
70
128
71
7
72
6
73
8
0
VERTEX
8
OBJECT__60
10
0
20
0
30
0
70
128
71
5
72
4
73
6
0
VERTEX
8
OBJECT__60
10
0
20
0
30
0
70
128
71
1
72
10
73
4
0
VERTEX
8
OBJECT__60
10
0
20
0
30
0
70
128
71
3
72
10
73
1
0
SEQEND
8
OBJECT__60
0
POLYLINE
8
OBJECT__61
66
1
70
64
71
4
72
2
62
253
0
VERTEX
8
OBJECT__61
10
106.400002
20
-15.000000
30
229.503006
70
192
0
VERTEX
8
OBJECT__61
10
106.400002
20
15.000000
30
229.503006
70
192
0
VERTEX
8
OBJECT__61
10
32.000000
20
15.000000
30
229.503006
70
192
0
VERTEX
8
OBJECT__61
10
32.000000
20
-15.000000
30
229.503006
70
192
0
VERTEX
8
OBJECT__61
10
0
20
0
30
0
70
128
71
1
72
2
73
3
0
VERTEX
8
OBJECT__61
10
0
20
0
30
0
70
128
71
3
72
4
73
1
0
SEQEND
8
OBJECT__61
0
POLYLINE
8
OBJECT__62
66
1
70
64
71
22
72
20
62
253
0
VERTEX
8
OBJECT__62
10
106.400002
20
15.000000
30
216.503006
70
192
0
VERTEX
8
OBJECT__62
10
32.000000
20
15.000000
30
216.503006
70
192
0
VERTEX
8
OBJECT__62
10
32.000000
20
15.000000
30
229.503006
70
192
0
VERTEX
8
OBJECT__62
10
119.738998
20
15.000000
30
227.151001
70
192
0
VERTEX
8
OBJECT__62
10
117.851997
20
15.000000
30
213.789001
70
192
0
VERTEX
8
OBJECT__62
10
131.468994
20
15.000000
30
220.378006
70
192
0
VERTEX
8
OBJECT__62
10
126.866997
20
15.000000
30
206.223999
70
192
0
VERTEX
8
OBJECT__62
10
140.175003
20
15.000000
30
210.003006
70
192
0
VERTEX
8
OBJECT__62
10
144.807999
20
15.000000
30
197.274994
70
192
0
VERTEX
8
OBJECT__62
10
131.528000
20
15.000000
30
195.417007
70
192
0
VERTEX
8
OBJECT__62
10
133.209000
20
15.000000
30
185.888000
70
192
0
VERTEX
8
OBJECT__62
10
17.267000
20
15.000000
30
226.572006
70
192
0
VERTEX
8
OBJECT__62
10
106.400002
20
15.000000
30
229.503006
70
192
0
VERTEX
8
OBJECT__62
10
146.404999
20
15.000000
30
188.214996
70
192
0
VERTEX
8
OBJECT__62
10
4.776000
20
15.000000
30
218.225998
70
192
0
VERTEX
8
OBJECT__62
10
19.250000
20
15.000000
30
213.085999
70
192
0
VERTEX
8
OBJECT__62
10
6.500000
20
15.000000
30
144.500000
70
192
0
VERTEX
8
OBJECT__62
10
-6.500000
20
15.000000
30
144.500000
70
192
0
VERTEX
8
OBJECT__62
10
-6.500000
20
15.000000
30
191.003006
70
192
0
VERTEX
8
OBJECT__62
10
-3.569000
20
15.000000
30
205.735992
70
192
0
VERTEX
8
OBJECT__62
10
9.916000
20
15.000000
30
203.753006
70
192
0
VERTEX
8
OBJECT__62
10
6.500000
20
15.000000
30
191.003006
70
192
0
VERTEX
8
OBJECT__62
10
0
20
0
30
0
70
128
71
1
72
2
73
3
0
VERTEX
8
OBJECT__62
10
0
20
0
30
0
70
128
71
4
72
5
73
1
0
VERTEX
8
OBJECT__62
10
0
20
0
30
0
70
128
71
6
72
7
73
5
0
VERTEX
8
OBJECT__62
10
0
20
0
30
0
70
128
71
8
72
9
73
10
0
VERTEX
8
OBJECT__62
10
0
20
0
30
0
70
128
71
11
72
10
73
9
0
VERTEX
8
OBJECT__62
10
0
20
0
30
0
70
128
71
12
72
3
73
2
0
VERTEX
8
OBJECT__62
10
0
20
0
30
0
70
128
71
1
72
13
73
4
0
VERTEX
8
OBJECT__62
10
0
20
0
30
0
70
128
71
5
72
4
73
6
0
VERTEX
8
OBJECT__62
10
0
20
0
30
0
70
128
71
9
72
14
73
11
0
VERTEX
8
OBJECT__62
10
0
20
0
30
0
70
128
71
15
72
12
73
16
0
VERTEX
8
OBJECT__62
10
0
20
0
30
0
70
128
71
3
72
13
73
1
0
VERTEX
8
OBJECT__62
10
0
20
0
30
0
70
128
71
10
72
7
73
8
0
VERTEX
8
OBJECT__62
10
0
20
0
30
0
70
128
71
17
72
18
73
19
0
VERTEX
8
OBJECT__62
10
0
20
0
30
0
70
128
71
20
72
21
73
22
0
VERTEX
8
OBJECT__62
10
0
20
0
30
0
70
128
71
21
72
20
73
15
0
VERTEX
8
OBJECT__62
10
0
20
0
30
0
70
128
71
6
72
8
73
7
0
VERTEX
8
OBJECT__62
10
0
20
0
30
0
70
128
71
22
72
19
73
20
0
VERTEX
8
OBJECT__62
10
0
20
0
30
0
70
128
71
2
72
16
73
12
0
VERTEX
8
OBJECT__62
10
0
20
0
30
0
70
128
71
16
72
21
73
15
0
VERTEX
8
OBJECT__62
10
0
20
0
30
0
70
128
71
19
72
22
73
17
0
SEQEND
8
OBJECT__62
0
POLYLINE
8
OBJECT__63
66
1
70
64
71
22
72
20
62
253
0
VERTEX
8
OBJECT__63
10
119.738998
20
-15.000000
30
227.151001
70
192
0
VERTEX
8
OBJECT__63
10
106.400002
20
-15.000000
30
229.503006
70
192
0
VERTEX
8
OBJECT__63
10
106.400002
20
-15.000000
30
216.503006
70
192
0
VERTEX
8
OBJECT__63
10
32.000000
20
-15.000000
30
229.503006
70
192
0
VERTEX
8
OBJECT__63
10
32.000000
20
-15.000000
30
216.503006
70
192
0
VERTEX
8
OBJECT__63
10
131.468994
20
-15.000000
30
220.378006
70
192
0
VERTEX
8
OBJECT__63
10
117.851997
20
-15.000000
30
213.789001
70
192
0
VERTEX
8
OBJECT__63
10
17.267000
20
-15.000000
30
226.572006
70
192
0
VERTEX
8
OBJECT__63
10
19.250000
20
-15.000000
30
213.085999
70
192
0
VERTEX
8
OBJECT__63
10
133.209000
20
-15.000000
30
185.888000
70
192
0
VERTEX
8
OBJECT__63
10
146.404999
20
-15.000000
30
188.214996
70
192
0
VERTEX
8
OBJECT__63
10
144.807999
20
-15.000000
30
197.274994
70
192
0
VERTEX
8
OBJECT__63
10
140.175003
20
-15.000000
30
210.003006
70
192
0
VERTEX
8
OBJECT__63
10
126.866997
20
-15.000000
30
206.223999
70
192
0
VERTEX
8
OBJECT__63
10
131.528000
20
-15.000000
30
195.417007
70
192
0
VERTEX
8
OBJECT__63
10
4.776000
20
-15.000000
30
218.225998
70
192
0
VERTEX
8
OBJECT__63
10
9.916000
20
-15.000000
30
203.753006
70
192
0
VERTEX
8
OBJECT__63
10
-3.569000
20
-15.000000
30
205.735992
70
192
0
VERTEX
8
OBJECT__63
10
-6.500000
20
-15.000000
30
191.003006
70
192
0
VERTEX
8
OBJECT__63
10
6.500000
20
-15.000000
30
191.003006
70
192
0
VERTEX
8
OBJECT__63
10
-6.500000
20
-15.000000
30
144.500000
70
192
0
VERTEX
8
OBJECT__63
10
6.500000
20
-15.000000
30
144.500000
70
192
0
VERTEX
8
OBJECT__63
10
0
20
0
30
0
70
128
71
1
72
2
73
3
0
VERTEX
8
OBJECT__63
10
0
20
0
30
0
70
128
71
4
72
5
73
3
0
VERTEX
8
OBJECT__63
10
0
20
0
30
0
70
128
71
6
72
1
73
7
0
VERTEX
8
OBJECT__63
10
0
20
0
30
0
70
128
71
3
72
2
73
4
0
VERTEX
8
OBJECT__63
10
0
20
0
30
0
70
128
71
8
72
9
73
5
0
VERTEX
8
OBJECT__63
10
0
20
0
30
0
70
128
71
10
72
11
73
12
0
VERTEX
8
OBJECT__63
10
0
20
0
30
0
70
128
71
13
72
14
73
15
0
VERTEX
8
OBJECT__63
10
0
20
0
30
0
70
128
71
14
72
13
73
6
0
VERTEX
8
OBJECT__63
10
0
20
0
30
0
70
128
71
5
72
4
73
8
0
VERTEX
8
OBJECT__63
10
0
20
0
30
0
70
128
71
15
72
12
73
13
0
VERTEX
8
OBJECT__63
10
0
20
0
30
0
70
128
71
3
72
7
73
1
0
VERTEX
8
OBJECT__63
10
0
20
0
30
0
70
128
71
16
72
17
73
9
0
VERTEX
8
OBJECT__63
10
0
20
0
30
0
70
128
71
7
72
14
73
6
0
VERTEX
8
OBJECT__63
10
0
20
0
30
0
70
128
71
9
72
8
73
16
0
VERTEX
8
OBJECT__63
10
0
20
0
30
0
70
128
71
18
72
19
73
20
0
VERTEX
8
OBJECT__63
10
0
20
0
30
0
70
128
71
19
72
21
73
22
0
VERTEX
8
OBJECT__63
10
0
20
0
30
0
70
128
71
16
72
18
73
17
0
VERTEX
8
OBJECT__63
10
0
20
0
30
0
70
128
71
22
72
20
73
19
0
VERTEX
8
OBJECT__63
10
0
20
0
30
0
70
128
71
20
72
17
73
18
0
VERTEX
8
OBJECT__63
10
0
20
0
30
0
70
128
71
12
72
15
73
10
0
SEQEND
8
OBJECT__63
0
POLYLINE
8
OBJECT__64
66
1
70
64
71
10
72
8
62
253
0
VERTEX
8
OBJECT__64
10
17.267000
20
15.000000
30
226.572006
70
192
0
VERTEX
8
OBJECT__64
10
17.267000
20
-15.000000
30
226.572006
70
192
0
VERTEX
8
OBJECT__64
10
32.000000
20
-15.000000
30
229.503006
70
192
0
VERTEX
8
OBJECT__64
10
4.776000
20
15.000000
30
218.225998
70
192
0
VERTEX
8
OBJECT__64
10
4.776000
20
-15.000000
30
218.225998
70
192
0
VERTEX
8
OBJECT__64
10
-3.569000
20
15.000000
30
205.735992
70
192
0
VERTEX
8
OBJECT__64
10
-3.569000
20
-15.000000
30
205.735992
70
192
0
VERTEX
8
OBJECT__64
10
-6.500000
20
15.000000
30
191.003006
70
192
0
VERTEX
8
OBJECT__64
10
-6.500000
20
-15.000000
30
191.003006
70
192
0
VERTEX
8
OBJECT__64
10
32.000000
20
15.000000
30
229.503006
70
192
0
VERTEX
8
OBJECT__64
10
0
20
0
30
0
70
128
71
1
72
2
73
3
0
VERTEX
8
OBJECT__64
10
0
20
0
30
0
70
128
71
4
72
5
73
2
0
VERTEX
8
OBJECT__64
10
0
20
0
30
0
70
128
71
6
72
7
73
5
0
VERTEX
8
OBJECT__64
10
0
20
0
30
0
70
128
71
8
72
9
73
7
0
VERTEX
8
OBJECT__64
10
0
20
0
30
0
70
128
71
7
72
6
73
8
0
VERTEX
8
OBJECT__64
10
0
20
0
30
0
70
128
71
5
72
4
73
6
0
VERTEX
8
OBJECT__64
10
0
20
0
30
0
70
128
71
2
72
1
73
4
0
VERTEX
8
OBJECT__64
10
0
20
0
30
0
70
128
71
3
72
10
73
1
0
SEQEND
8
OBJECT__64
0
POLYLINE
8
OBJECT__65
66
1
70
64
71
4
72
2
62
253
0
VERTEX
8
OBJECT__65
10
-6.500000
20
-15.000000
30
191.003006
70
192
0
VERTEX
8
OBJECT__65
10
-6.500000
20
15.000000
30
191.003006
70
192
0
VERTEX
8
OBJECT__65
10
-6.500000
20
15.000000
30
144.500000
70
192
0
VERTEX
8
OBJECT__65
10
-6.500000
20
-15.000000
30
144.500000
70
192
0
VERTEX
8
OBJECT__65
10
0
20
0
30
0
70
128
71
1
72
2
73
3
0
VERTEX
8
OBJECT__65
10
0
20
0
30
0
70
128
71
3
72
4
73
1
0
SEQEND
8
OBJECT__65
0
ENDSEC
0
EOF
