  0
SECTION
  2
HEADER
  9
$ACADVER
  1
AC1015
  9
$ACADMAINTVER
 70
     6
  9
$DWGCODEPAGE
  3
ANSI_1252
  9
$INSBASE
 10
0.0
 20
0.0
 30
0.0
  9
$EXTMIN
 10
0.0
 20
0.0
 30
0.0
  9
$EXTMAX
 10
1682.0
 20
2378.0
 30
0.0
  9
$LIMMIN
 10
0.0
 20
0.0
  9
$LIMMAX
 10
1682.0
 20
2378.0
  9
$ORTHOMODE
 70
     0
  9
$REGENMODE
 70
     1
  9
$FILLMODE
 70
     1
  9
$QTEXTMODE
 70
     0
  9
$MIRRTEXT
 70
     1
  9
$LTSCALE
 40
1.0
  9
$ATTMODE
 70
     1
  9
$TEXTSIZE
 40
2.5
  9
$TRACEWID
 40
1.0
  9
$TEXTSTYLE
  7
Standard
  9
$CLAYER
  8
0
  9
$CELTYPE
  6
ByLayer
  9
$CECOLOR
 62
   256
  9
$CELTSCALE
 40
1.0
  9
$DISPSILH
 70
     0
  9
$DIMSCALE
 40
1.0
  9
$DIMASZ
 40
2.5
  9
$DIMEXO
 40
0.625
  9
$DIMDLI
 40
3.75
  9
$DIMRND
 40
0.0
  9
$DIMDLE
 40
0.0
  9
$DIMEXE
 40
1.25
  9
$DIMTP
 40
0.0
  9
$DIMTM
 40
0.0
  9
$DIMTXT
 40
2.5
  9
$DIMCEN
 40
2.5
  9
$DIMTSZ
 40
0.0
  9
$DIMTOL
 70
     0
  9
$DIMLIM
 70
     0
  9
$DIMTIH
 70
     0
  9
$DIMTOH
 70
     0
  9
$DIMSE1
 70
     0
  9
$DIMSE2
 70
     0
  9
$DIMTAD
 70
     1
  9
$DIMZIN
 70
     8
  9
$DIMBLK
  1

  9
$DIMASO
 70
     1
  9
$DIMSHO
 70
     1
  9
$DIMPOST
  1

  9
$DIMAPOST
  1

  9
$DIMALT
 70
     0
  9
$DIMALTD
 70
     3
  9
$DIMALTF
 40
0.0393700787
  9
$DIMLFAC
 40
1.0
  9
$DIMTOFL
 70
     1
  9
$DIMTVP
 40
0.0
  9
$DIMTIX
 70
     0
  9
$DIMSOXD
 70
     0
  9
$DIMSAH
 70
     0
  9
$DIMBLK1
  1

  9
$DIMBLK2
  1

  9
$DIMSTYLE
  2
ISO-25
  9
$DIMCLRD
 70
     0
  9
$DIMCLRE
 70
     0
  9
$DIMCLRT
 70
     0
  9
$DIMTFAC
 40
1.0
  9
$DIMGAP
 40
0.625
  9
$DIMJUST
 70
     0
  9
$DIMSD1
 70
     0
  9
$DIMSD2
 70
     0
  9
$DIMTOLJ
 70
     0
  9
$DIMTZIN
 70
     8
  9
$DIMALTZ
 70
     0
  9
$DIMALTTZ
 70
     0
  9
$DIMUPT
 70
     0
  9
$DIMDEC
 70
     2
  9
$DIMTDEC
 70
     2
  9
$DIMALTU
 70
     2
  9
$DIMALTTD
 70
     3
  9
$DIMTXSTY
  7
Standard
  9
$DIMAUNIT
 70
     0
  9
$DIMADEC
 70
     0
  9
$DIMALTRND
 40
0.0
  9
$DIMAZIN
 70
     0
  9
$DIMDSEP
 70
    44
  9
$DIMATFIT
 70
     3
  9
$DIMFRAC
 70
     0
  9
$DIMLDRBLK
  1

  9
$DIMLUNIT
 70
     2
  9
$DIMLWD
 70
    -2
  9
$DIMLWE
 70
    -2
  9
$DIMTMOVE
 70
     0
  9
$LUNITS
 70
     2
  9
$LUPREC
 70
     4
  9
$SKETCHINC
 40
1.0
  9
$FILLETRAD
 40
10.0
  9
$AUNITS
 70
     0
  9
$AUPREC
 70
     0
  9
$MENU
  1
.
  9
$ELEVATION
 40
0.0
  9
$PELEVATION
 40
0.0
  9
$THICKNESS
 40
0.0
  9
$LIMCHECK
 70
     0
  9
$CHAMFERA
 40
10.0
  9
$CHAMFERB
 40
10.0
  9
$CHAMFERC
 40
20.0
  9
$CHAMFERD
 40
0.0
  9
$SKPOLY
 70
     0
  9
$TDCREATE
 40
2455112.416349039
  9
$TDUCREATE
 40
2455112.333015706
  9
$TDUPDATE
 40
2455112.416349051
  9
$TDUUPDATE
 40
2455112.333015718
  9
$TDINDWG
 40
0.0000000116
  9
$TDUSRTIMER
 40
0.0000000116
  9
$USRTIMER
 70
     1
  9
$ANGBASE
 50
0.0
  9
$ANGDIR
 70
     0
  9
$PDMODE
 70
     0
  9
$PDSIZE
 40
0.0
  9
$PLINEWID
 40
0.0
  9
$SPLFRAME
 70
     0
  9
$SPLINETYPE
 70
     6
  9
$SPLINESEGS
 70
     8
  9
$HANDSEED
  5
105
  9
$SURFTAB1
 70
     6
  9
$SURFTAB2
 70
     6
  9
$SURFTYPE
 70
     6
  9
$SURFU
 70
     6
  9
$SURFV
 70
     6
  9
$UCSBASE
  2

  9
$UCSNAME
  2

  9
$UCSORG
 10
0.0
 20
0.0
 30
0.0
  9
$UCSXDIR
 10
1.0
 20
0.0
 30
0.0
  9
$UCSYDIR
 10
0.0
 20
1.0
 30
0.0
  9
$UCSORTHOREF
  2

  9
$UCSORTHOVIEW
 70
     0
  9
$UCSORGTOP
 10
0.0
 20
0.0
 30
0.0
  9
$UCSORGBOTTOM
 10
0.0
 20
0.0
 30
0.0
  9
$UCSORGLEFT
 10
0.0
 20
0.0
 30
0.0
  9
$UCSORGRIGHT
 10
0.0
 20
0.0
 30
0.0
  9
$UCSORGFRONT
 10
0.0
 20
0.0
 30
0.0
  9
$UCSORGBACK
 10
0.0
 20
0.0
 30
0.0
  9
$PUCSBASE
  2

  9
$PUCSNAME
  2

  9
$PUCSORG
 10
0.0
 20
0.0
 30
0.0
  9
$PUCSXDIR
 10
1.0
 20
0.0
 30
0.0
  9
$PUCSYDIR
 10
0.0
 20
1.0
 30
0.0
  9
$PUCSORTHOREF
  2

  9
$PUCSORTHOVIEW
 70
     0
  9
$PUCSORGTOP
 10
0.0
 20
0.0
 30
0.0
  9
$PUCSORGBOTTOM
 10
0.0
 20
0.0
 30
0.0
  9
$PUCSORGLEFT
 10
0.0
 20
0.0
 30
0.0
  9
$PUCSORGRIGHT
 10
0.0
 20
0.0
 30
0.0
  9
$PUCSORGFRONT
 10
0.0
 20
0.0
 30
0.0
  9
$PUCSORGBACK
 10
0.0
 20
0.0
 30
0.0
  9
$USERI1
 70
     0
  9
$USERI2
 70
     0
  9
$USERI3
 70
     0
  9
$USERI4
 70
     0
  9
$USERI5
 70
     0
  9
$USERR1
 40
0.0
  9
$USERR2
 40
0.0
  9
$USERR3
 40
0.0
  9
$USERR4
 40
0.0
  9
$USERR5
 40
0.0
  9
$WORLDVIEW
 70
     1
  9
$SHADEDGE
 70
     3
  9
$SHADEDIF
 70
    70
  9
$TILEMODE
 70
     1
  9
$MAXACTVP
 70
    64
  9
$PINSBASE
 10
0.0
 20
0.0
 30
0.0
  9
$PLIMCHECK
 70
     0
  9
$PEXTMIN
 10
0.0
 20
0.0
 30
0.0
  9
$PEXTMAX
 10
1682.0
 20
2378.0
 30
0.0
  9
$PLIMMIN
 10
0.0
 20
0.0
  9
$PLIMMAX
 10
1682.0
 20
2378.0
  9
$UNITMODE
 70
     0
  9
$VISRETAIN
 70
     1
  9
$PLINEGEN
 70
     0
  9
$PSLTSCALE
 70
     1
  9
$TREEDEPTH
 70
  3020
  9
$CMLSTYLE
  2
Standard
  9
$CMLJUST
 70
     0
  9
$CMLSCALE
 40
20.0
  9
$PROXYGRAPHICS
 70
     1
  9
$MEASUREMENT
 70
     1
  9
$CELWEIGHT
370
    -1
  9
$ENDCAPS
280
     0
  9
$JOINSTYLE
280
     0
  9
$LWDISPLAY
290
     0
  9
$INSUNITS
 70
     4
  9
$HYPERLINKBASE
  1

  9
$STYLESHEET
  1

  9
$XEDIT
290
     1
  9
$CEPSNTYPE
380
     0
  9
$PSTYLEMODE
290
     1
  9
$FINGERPRINTGUID
  2
{F1625740-70BC-4FF7-A325-F25D814D15A9}
  9
$VERSIONGUID
  2
{FAEB1C32-E019-11D5-929B-00C0DF256EC4}
  9
$EXTNAMES
290
     1
  9
$PSVPSCALE
 40
0.0
  9
$OLESTARTUP
290
     0
  0
ENDSEC
  0
SECTION
  2
CLASSES
  0
CLASS
  1
ACDBDICTIONARYWDFLT
  2
AcDbDictionaryWithDefault
  3
ObjectDBX Classes
 90
        0
280
     0
281
     0
  0
CLASS
  1
VISUALSTYLE
  2
AcDbVisualStyle
  3
ObjectDBX Classes
 90
     4095
280
     0
281
     0
  0
CLASS
  1
SCALE
  2
AcDbScale
  3
ObjectDBX Classes
 90
     1153
280
     0
281
     0
  0
CLASS
  1
DICTIONARYVAR
  2
AcDbDictionaryVar
  3
ObjectDBX Classes
 90
        0
280
     0
281
     0
  0
CLASS
  1
ACDBPLACEHOLDER
  2
AcDbPlaceHolder
  3
ObjectDBX Classes
 90
        0
280
     0
281
     0
  0
CLASS
  1
LAYOUT
  2
AcDbLayout
  3
ObjectDBX Classes
 90
        0
280
     0
281
     0
  0
ENDSEC
  0
SECTION
  2
TABLES
  0
TABLE
  2
VPORT
  5
8
330
0
100
AcDbSymbolTable
 70
     1
  0
VPORT
  5
29
330
8
100
AcDbSymbolTableRecord
100
AcDbViewportTableRecord
  2
*Active
 70
     0
 10
0.0
 20
0.0
 11
1.0
 21
1.0
 12
344.1869158879
 22
148.5
 13
0.0
 23
0.0
 14
10.0
 24
10.0
 15
10.0
 25
10.0
 16
0.0
 26
0.0
 36
1.0
 17
0.0
 27
0.0
 37
0.0
 40
297.0
 41
1.9729729729
 42
50.0
 43
0.0
 44
0.0
 50
0.0
 51
0.0
 71
     0
 72
   100
 73
     1
 74
     3
 75
     0
 76
     0
 77
     0
 78
     0
281
     0
 65
     1
110
0.0
120
0.0
130
0.0
111
1.0
121
0.0
131
0.0
112
0.0
122
1.0
132
0.0
 79
     0
146
0.0
  0
ENDTAB
  0
TABLE
  2
LTYPE
  5
5
330
0
100
AcDbSymbolTable
 70
     1
  0
LTYPE
  5
14
330
5
100
AcDbSymbolTableRecord
100
AcDbLinetypeTableRecord
  2
ByBlock
 70
     0
  3

 72
    65
 73
     0
 40
0.0
  0
LTYPE
  5
15
330
5
100
AcDbSymbolTableRecord
100
AcDbLinetypeTableRecord
  2
ByLayer
 70
     0
  3

 72
    65
 73
     0
 40
0.0
  0
LTYPE
  5
16
330
5
100
AcDbSymbolTableRecord
100
AcDbLinetypeTableRecord
  2
Continuous
 70
     0
  3
Solid line
 72
    65
 73
     0
 40
0.0
  0
ENDTAB
  0
TABLE
  2
LAYER
  5
2
330
0
100
AcDbSymbolTable
 70
     6
  0
LAYER
  5
10
330
2
100
AcDbSymbolTableRecord
100
AcDbLayerTableRecord
  2
0
 70
     0
 62
     7
  6
Continuous
370
    -3
390
F
  0
LAYER
  5
5D
330
2
100
AcDbSymbolTableRecord
100
AcDbLayerTableRecord
  2
Default
 70
     0
 62
     7
  6
Continuous
370
    -3
390
F
  0
LAYER
  5
60
330
2
100
AcDbSymbolTableRecord
100
AcDbLayerTableRecord
  2
$DDT_AUDIT_GENERATED_(60)
 70
     0
 62
     7
  6
Continuous
370
    -3
390
F
  0
LAYER
  5
6C
330
2
100
AcDbSymbolTableRecord
100
AcDbLayerTableRecord
  2
$DDT_AUDIT_GENERATED_(6C)
 70
     0
 62
     7
  6
Continuous
370
    -3
390
F
  0
LAYER
  5
92
330
2
100
AcDbSymbolTableRecord
100
AcDbLayerTableRecord
  2
$DDT_AUDIT_GENERATED_(92)
 70
     0
 62
     7
  6
Continuous
370
    -3
390
F
  0
LAYER
  5
B3
330
2
100
AcDbSymbolTableRecord
100
AcDbLayerTableRecord
  2
$DDT_AUDIT_GENERATED_(B3)
 70
     0
 62
     7
  6
Continuous
370
    -3
390
F
  0
ENDTAB
  0
TABLE
  2
STYLE
  5
3
330
0
100
AcDbSymbolTable
 70
     2
  0
STYLE
  5
11
330
3
100
AcDbSymbolTableRecord
100
AcDbTextStyleTableRecord
  2
Standard
 70
     0
 40
0.0
 41
1.0
 50
0.0
 71
     0
 42
2.5
  3
txt
  4

  0
STYLE
  5
F4
330
3
100
AcDbSymbolTableRecord
100
AcDbTextStyleTableRecord
  2
SEACAD_seiso_ttf
 70
     0
 40
0.0
 41
1.0
 50
0.0
 71
     0
 42
0.2
  3
seiso.ttf
  4

  0
ENDTAB
  0
TABLE
  2
VIEW
  5
6
330
0
100
AcDbSymbolTable
 70
     0
  0
ENDTAB
  0
TABLE
  2
UCS
  5
7
330
0
100
AcDbSymbolTable
 70
     0
  0
ENDTAB
  0
TABLE
  2
APPID
  5
9
330
0
100
AcDbSymbolTable
 70
     1
  0
APPID
  5
12
330
9
100
AcDbSymbolTableRecord
100
AcDbRegAppTableRecord
  2
ACAD
 70
     0
  0
ENDTAB
  0
TABLE
  2
DIMSTYLE
  5
A
330
0
100
AcDbSymbolTable
 70
     1
100
AcDbDimStyleTable
  0
DIMSTYLE
105
27
330
A
100
AcDbSymbolTableRecord
100
AcDbDimStyleTableRecord
  2
ISO-25
 70
     0
 41
2.5
 42
0.625
 43
3.75
 44
1.25
 73
     0
 74
     0
 77
     1
 78
     8
140
2.5
141
2.5
143
0.0393700787
147
0.625
171
     3
172
     1
271
     2
272
     2
274
     3
278
    44
283
     0
284
     8
340
11
  0
ENDTAB
  0
TABLE
  2
BLOCK_RECORD
  5
1
330
0
100
AcDbSymbolTable
 70
     4
  0
BLOCK_RECORD
  5
1F
330
1
100
AcDbSymbolTableRecord
100
AcDbBlockTableRecord
  2
*Model_Space
340
22
  0
BLOCK_RECORD
  5
1B
330
1
100
AcDbSymbolTableRecord
100
AcDbBlockTableRecord
  2
*Paper_Space
340
1E
  0
BLOCK_RECORD
  5
5E
330
1
100
AcDbSymbolTableRecord
100
AcDbBlockTableRecord
  2
SE
340
0
102
{BLKREFS
331
5F
102
}
  0
BLOCK_RECORD
  5
88
330
1
100
AcDbSymbolTableRecord
100
AcDbBlockTableRecord
  2
SE1
340
0
102
{BLKREFS
331
89
102
}
  0
BLOCK_RECORD
  5
B8
330
1
100
AcDbSymbolTableRecord
100
AcDbBlockTableRecord
  2
SE2
340
0
102
{BLKREFS
331
B9
102
}
  0
ENDTAB
  0
ENDSEC
  0
SECTION
  2
BLOCKS
  0
BLOCK
  5
20
330
1F
100
AcDbEntity
  8
0
100
AcDbBlockBegin
  2
*Model_Space
 70
     0
 10
0.0
 20
0.0
 30
0.0
  3
*Model_Space
  1

  0
ENDBLK
  5
21
330
1F
100
AcDbEntity
  8
0
100
AcDbBlockEnd
  0
BLOCK
  5
1C
330
1B
100
AcDbEntity
 67
     1
  8
0
100
AcDbBlockBegin
  2
*Paper_Space
 70
     0
 10
0.0
 20
0.0
 30
0.0
  3
*Paper_Space
  1

  0
ENDBLK
  5
1D
330
1B
100
AcDbEntity
 67
     1
  8
0
100
AcDbBlockEnd
  0
BLOCK
  5
86
330
5E
100
AcDbEntity
  8
0
100
AcDbBlockBegin
  2
SE
 70
     0
 10
0.0
 20
0.0
 30
0.0
  3
SE
  1

  0
LINE
  5
61
330
5E
100
AcDbEntity
  8
$DDT_AUDIT_GENERATED_(60)
  6
Continuous
 62
     7
100
AcDbLine
 10
163.55
 20
273.911092451
 30
0.0
 11
8.15
 21
273.911092451
 31
0.0
  0
LINE
  5
62
330
5E
100
AcDbEntity
  8
$DDT_AUDIT_GENERATED_(60)
  6
Continuous
 62
     7
100
AcDbLine
 10
6.35
 20
275.711092451
 30
0.0
 11
6.35
 21
456.111092451
 31
0.0
  0
LINE
  5
63
330
5E
100
AcDbEntity
  8
$DDT_AUDIT_GENERATED_(60)
  6
Continuous
 62
     7
100
AcDbLine
 10
8.15
 20
457.911092451
 30
0.0
 11
163.55
 21
457.911092451
 31
0.0
  0
LINE
  5
64
330
5E
100
AcDbEntity
  8
$DDT_AUDIT_GENERATED_(60)
  6
Continuous
 62
     7
100
AcDbLine
 10
165.35
 20
456.111092451
 30
0.0
 11
165.35
 21
275.711092451
 31
0.0
  0
ARC
  5
65
330
5E
100
AcDbEntity
  8
$DDT_AUDIT_GENERATED_(60)
  6
Continuous
 62
     7
100
AcDbCircle
 10
163.55
 20
456.111092451
 30
0.0
 40
1.799999999999996
100
AcDbArc
 50
0.0
 51
90.0
  0
ARC
  5
66
330
5E
100
AcDbEntity
  8
$DDT_AUDIT_GENERATED_(60)
  6
Continuous
 62
     7
100
AcDbCircle
 10
8.15
 20
456.111092451
 30
0.0
 40
1.799999999999996
100
AcDbArc
 50
90.0
 51
180.0
  0
ARC
  5
67
330
5E
100
AcDbEntity
  8
$DDT_AUDIT_GENERATED_(60)
  6
Continuous
 62
     7
100
AcDbCircle
 10
163.55
 20
275.711092451
 30
0.0
 40
1.799999999999996
100
AcDbArc
 50
270.0
 51
0.0
  0
ARC
  5
68
330
5E
100
AcDbEntity
  8
$DDT_AUDIT_GENERATED_(60)
  6
Continuous
 62
     7
100
AcDbCircle
 10
8.15
 20
275.711092451
 30
0.0
 40
1.799999999999996
100
AcDbArc
 50
180.0
 51
270.0
  0
ARC
  5
69
330
5E
100
AcDbEntity
  8
$DDT_AUDIT_GENERATED_(60)
  6
Continuous
 62
     7
100
AcDbCircle
 10
85.85
 20
365.911092451
 30
0.0
 40
26.55
100
AcDbArc
 50
0.0
 51
31.9792943093
  0
ARC
  5
6A
330
5E
100
AcDbEntity
  8
$DDT_AUDIT_GENERATED_(60)
  6
Continuous
 62
     7
100
AcDbCircle
 10
85.85
 20
365.911092451
 30
0.0
 40
26.55
100
AcDbArc
 50
148.02217405
 51
248.3389601498
  0
ARC
  5
6B
330
5E
100
AcDbEntity
  8
$DDT_AUDIT_GENERATED_(60)
  6
Continuous
 62
     7
100
AcDbCircle
 10
85.85
 20
365.911092451
 30
0.0
 40
26.55
100
AcDbArc
 50
291.6610398502
 51
0.0
  0
ELLIPSE
  5
6D
330
5E
100
AcDbEntity
  8
$DDT_AUDIT_GENERATED_(6C)
  6
Continuous
 62
     7
100
AcDbEllipse
 10
85.85
 20
366.9096386654
 30
0.0
 11
-25.99999999998431
 21
1.052747732738224E-7
 31
0.0
210
0.0
220
0.0
230
1.0
 40
0.999657325
 41
1.159279484775052
 42
1.982313176910913
  0
SPLINE
  5
6E
330
5E
100
AcDbEntity
  8
$DDT_AUDIT_GENERATED_(6C)
  6
Continuous
 62
     7
100
AcDbSpline
210
0.0
220
0.0
230
1.0
 70
     8
 71
     3
 72
    12
 73
     8
 74
     0
 42
0.0000000066658684
 43
0.0000000001
 40
0.0
 40
0.0
 40
0.0
 40
0.0
 40
0.2500000000000001
 40
0.2500000000000001
 40
0.5000000000000001
 40
0.5000000000000001
 40
0.5824848217269641
 40
0.5824848217269641
 40
0.5824848217269641
 40
0.5824848217269641
 10
111.8354308509252
 20
365.2360267502949
 30
0.0
 10
111.8397132683997
 20
365.3638506784637
 30
0.0
 10
111.8430018141007
 20
365.4904292024087
 30
0.0
 10
111.8477231657956
 20
365.7411911990756
 30
0.0
 10
111.8491555457607
 20
365.865374425421
 30
0.0
 10
111.8499077011485
 20
366.0289059788494
 30
0.0
 10
111.8499997633551
 20
366.0693974593021
 30
0.0
 10
111.8499998546333
 20
366.1096896467485
 30
0.0
  0
SPLINE
  5
6F
330
5E
100
AcDbEntity
  8
$DDT_AUDIT_GENERATED_(6C)
  6
Continuous
 62
     7
100
AcDbSpline
210
0.0
220
0.0
230
1.0
 70
     8
 71
     3
 72
    14
 73
    10
 74
     0
 42
0.0000000066333794
 43
0.0000000001
 40
0.4203505849802124
 40
0.4203505849802124
 40
0.4203505849802124
 40
0.4203505849802124
 40
0.4999999999999999
 40
0.4999999999999999
 40
0.6249999999999999
 40
0.6249999999999999
 40
0.7499999999999999
 40
0.7499999999999999
 40
1.0
 40
1.0
 40
1.0
 40
1.0
 10
59.84999987866407
 20
366.1096973582098
 30
0.0
 10
59.84999990998735
 20
366.0711648078586
 30
0.0
 10
59.8500842135164
 20
366.0323207398418
 30
0.0
 10
59.8505285158927
 20
365.9317118180519
 30
0.0
 10
59.85101987558138
 20
365.8693554277942
 30
0.0
 10
59.85246866457781
 20
365.7436403585494
 30
0.0
 10
59.85342144893551
 20
365.6806048784329
 30
0.0
 10
59.85698030387085
 20
365.4909729644276
 30
0.0
 10
59.86028663068574
 20
365.3638536906154
 30
0.0
 10
59.8645691490748
 20
365.2360267502949
 30
0.0
  0
ELLIPSE
  5
70
330
5E
100
AcDbEntity
  8
$DDT_AUDIT_GENERATED_(6C)
  6
Continuous
 62
     7
100
AcDbEllipse
 10
85.85
 20
366.9836167905
 30
0.0
 11
-26.0000000000014
 21
-2.337862542445279E-9
 31
0.0
210
0.0
220
0.0
230
1.0
 40
0.999657325
 41
6.270972954102737
 42
6.283185307179586
  0
ELLIPSE
  5
71
330
5E
100
AcDbEntity
  8
$DDT_AUDIT_GENERATED_(6C)
  6
Continuous
 62
     7
100
AcDbEllipse
 10
85.85
 20
366.9836167905
 30
0.0
 11
-26.0000000000014
 21
-2.337862542445279E-9
 31
0.0
210
0.0
220
0.0
230
1.0
 40
0.999657325
 41
3.130400252576148
 42
3.157507096982398
  0
ELLIPSE
  5
72
330
5E
100
AcDbEntity
  8
$DDT_AUDIT_GENERATED_(6C)
  6
Continuous
 62
     7
100
AcDbEllipse
 10
85.85
 20
366.9836167905
 30
0.0
 11
-26.0000000000014
 21
-2.337862542445279E-9
 31
0.0
210
0.0
220
0.0
230
1.0
 40
0.999657325
 41
0.0
 42
0.0106871733532599
  0
SPLINE
  5
73
330
5E
100
AcDbEntity
  8
$DDT_AUDIT_GENERATED_(6C)
  6
Continuous
 62
     7
100
AcDbSpline
210
0.0
220
0.0
230
1.0
 70
     8
 71
     3
 72
     8
 73
     4
 74
     0
 42
0.0000000058484417
 43
0.0000000001
 40
0.9952097368241326
 40
0.9952097368241326
 40
0.9952097368241326
 40
0.9952097368241326
 40
1.0
 40
1.0
 40
1.0
 40
1.0
 10
95.65003130949674
 20
342.1391091761044
 30
0.0
 10
95.65001048958376
 20
342.1363893566997
 30
0.0
 10
95.64999999999999
 20
342.1336592199988
 30
0.0
 10
95.64999999999999
 20
342.1309186101415
 30
0.0
  0
LINE
  5
74
330
5E
100
AcDbEntity
  8
$DDT_AUDIT_GENERATED_(6C)
  6
Continuous
 62
     7
100
AcDbLine
 10
95.65
 20
278.5953960579
 30
0.0
 11
95.65
 21
278.4357166732
 31
0.0
  0
LINE
  5
75
330
5E
100
AcDbEntity
  8
$DDT_AUDIT_GENERATED_(6C)
  6
Continuous
 62
     7
100
AcDbLine
 10
95.65
 20
341.4535812395
 30
0.0
 11
95.65
 21
278.5953960579
 31
0.0
  0
LINE
  5
76
330
5E
100
AcDbEntity
  8
$DDT_AUDIT_GENERATED_(6C)
  6
Continuous
 62
     7
100
AcDbLine
 10
95.65
 20
342.1309186101
 30
0.0
 11
95.65
 21
341.4535812395
 31
0.0
  0
SPLINE
  5
77
330
5E
100
AcDbEntity
  8
$DDT_AUDIT_GENERATED_(6C)
  6
Continuous
 62
     7
100
AcDbSpline
210
0.0
220
0.0
230
1.0
 70
     8
 71
     3
 72
     8
 73
     4
 74
     0
 42
0.0000000058464375
 43
0.0000000001
 40
0.0
 40
0.0
 40
0.0
 40
0.0
 40
0.0043554170260933
 40
0.0043554170260933
 40
0.0043554170260933
 40
0.0043554170260933
 10
76.04999999999998
 20
342.1309186101415
 30
0.0
 10
76.04999999999998
 20
342.1334104354121
 30
0.0
 10
76.04999132840476
 20
342.1358936026677
 30
0.0
 10
76.04997410491679
 20
342.1383682290596
 30
0.0
  0
LINE
  5
78
330
5E
100
AcDbEntity
  8
$DDT_AUDIT_GENERATED_(6C)
  6
Continuous
 62
     7
100
AcDbLine
 10
76.05
 20
278.5953960579
 30
0.0
 11
76.05
 21
341.4535812395
 31
0.0
  0
LINE
  5
79
330
5E
100
AcDbEntity
  8
$DDT_AUDIT_GENERATED_(6C)
  6
Continuous
 62
     7
100
AcDbLine
 10
76.05
 20
341.4535812395
 30
0.0
 11
76.05
 21
342.1309186101
 31
0.0
  0
LINE
  5
7A
330
5E
100
AcDbEntity
  8
$DDT_AUDIT_GENERATED_(6C)
  6
Continuous
 62
     7
100
AcDbLine
 10
76.05
 20
278.4357166732
 30
0.0
 11
76.05
 21
278.5953960579
 31
0.0
  0
LINE
  5
7B
330
5E
100
AcDbEntity
  8
$DDT_AUDIT_GENERATED_(6C)
  6
Continuous
 62
     7
100
AcDbLine
 10
111.85
 20
366.1096897472
 30
0.0
 11
111.85
 21
366.9836167905
 31
0.0
  0
LINE
  5
7C
330
5E
100
AcDbEntity
  8
$DDT_AUDIT_GENERATED_(6C)
  6
Continuous
 62
     7
100
AcDbLine
 10
59.85
 20
366.9836167905
 30
0.0
 11
59.85
 21
366.1096900905
 31
0.0
  0
SPLINE
  5
7D
330
5E
100
AcDbEntity
  8
$DDT_AUDIT_GENERATED_(6C)
  6
Continuous
 62
     7
100
AcDbSpline
210
0.0
220
0.0
230
1.0
 70
     8
 71
     3
 72
    40
 73
    36
 74
     0
 42
0.0000000001251009
 43
0.0000000001
 40
0.0
 40
0.0
 40
0.0
 40
0.0
 40
0.0111015554631364
 40
0.0226064108930454
 40
0.0341112667893657
 40
0.0456161233162715
 40
0.0571209806350528
 40
0.0686258389039186
 40
0.080130698273796
 40
0.0916355588943774
 40
0.1031404209036817
 40
0.1146452844373171
 40
0.1261501496207182
 40
0.1376550165709189
 40
0.1491598853991392
 40
0.1606647562014185
 40
0.1721696290715147
 40
0.1836745040848239
 40
0.195179381311838
 40
0.2066842608096082
 40
0.2181891426225031
 40
0.2296940267882707
 40
0.2411989133249399
 40
0.252703802247897
 40
0.2642086935520529
 40
0.2757135872260598
 40
0.2872184832449868
 40
0.2987233815700808
 40
0.3102282821569662
 40
0.3217331849415772
 40
0.3332380898574063
 40
0.3447429968204232
 40
0.3562479057404368
 40
0.3677528165169135
 40
0.3742644430483977
 40
0.3742644430483977
 40
0.3742644430483977
 40
0.3742644430483977
 10
59.86456926424827
 20
365.2360198709168
 30
0.0
 10
59.87557417551449
 20
364.9109279494665
 30
0.0
 10
59.90414524223197
 20
364.3594488489716
 30
0.0
 10
59.98273249962946
 20
363.423536575979
 30
0.0
 10
60.09289940393376
 20
362.5257841503704
 30
0.0
 10
60.23615125144013
 20
361.6095054931966
 30
0.0
 10
60.4109968013236
 20
360.7109772497807
 30
0.0
 10
60.61791164097295
 20
359.8127320764856
 30
0.0
 10
60.85626620260376
 20
358.9258193721217
 30
0.0
 10
61.12596057981471
 20
358.0460390219557
 30
0.0
 10
61.42655121768742
 20
357.1773335728668
 30
0.0
 10
61.75771884953706
 20
356.3192687728139
 30
0.0
 10
62.11901873445354
 20
355.4737324016053
 30
0.0
 10
62.51001511818299
 20
354.6413465072717
 30
0.0
 10
62.93021010194629
 20
353.8233858160056
 30
0.0
 10
63.37908263236753
 20
353.0207488342174
 30
0.0
 10
63.85606861598324
 20
352.2345066196217
 30
0.0
 10
64.3605726183315
 20
351.4656070929979
 30
0.0
 10
64.8919627241751
 20
350.7150314110694
 30
0.0
 10
65.44957447803571
 20
349.9837084007286
 30
0.0
 10
66.03271002938999
 20
349.2725585414788
 30
0.0
 10
66.64063990805947
 20
348.5824686488287
 30
0.0
 10
67.27260345402314
 20
347.914303699664
 30
0.0
 10
67.92781002724253
 20
347.2688988262488
 30
0.0
 10
68.60543985879511
 20
346.6470619774054
 30
0.0
 10
69.30464515022629
 20
346.049570923826
 30
0.0
 10
70.02455109475608
 20
345.4771733467788
 30
0.0
 10
70.76425699297683
 20
344.930585334174
 30
0.0
 10
71.5228373681643
 20
344.4104907888568
 30
0.0
 10
72.29934313056549
 20
343.9175404099905
 30
0.0
 10
73.0928027611679
 20
343.4523509660577
 30
0.0
 10
73.90222352933388
 20
343.0155044764487
 30
0.0
 10
74.7265927336188
 20
342.6075475081747
 30
0.0
 10
75.44360313599243
 20
342.2837567592559
 30
0.0
 10
75.88644426853388
 20
342.0983615870492
 30
0.0
 10
76.04715296277442
 20
342.0329632817093
 30
0.0
  0
SPLINE
  5
7E
330
5E
100
AcDbEntity
  8
$DDT_AUDIT_GENERATED_(6C)
  6
Continuous
 62
     7
100
AcDbSpline
210
0.0
220
0.0
230
1.0
 70
     8
 71
     3
 72
    40
 73
    36
 74
     0
 42
0.0000000001251009
 43
0.0000000001
 40
0.6257356824418379
 40
0.6257356824418379
 40
0.6257356824418379
 40
0.6257356824418379
 40
0.632365949643087
 40
0.643870860849477
 40
0.6553757702250953
 40
0.6668806776671619
 40
0.6783855830830239
 40
0.6898904863862219
 40
0.7013953875076525
 40
0.7129002863805722
 40
0.7244051829578293
 40
0.7359100771979239
 40
0.7474149690730717
 40
0.7589198585690989
 40
0.7704247456780212
 40
0.781929630412371
 40
0.793434512787335
 40
0.8049393928378554
 40
0.8164442706055424
 40
0.827949146144692
 40
0.8394540195232251
 40
0.8509588908138492
 40
0.8624637601080251
 40
0.873968627499446
 40
0.8854734930970253
 40
0.8969783570157901
 40
0.9084832193792243
 40
0.9199880803211495
 40
0.9314929399779397
 40
0.9429977984979651
 40
0.9545026560306967
 40
0.9660075127334082
 40
0.9775123687664306
 40
0.9890172242933176
 40
1.0
 40
1.0
 40
1.0
 40
1.0
 10
95.65285632810533
 20
342.0329670611969
 30
0.0
 10
95.81649307907495
 20
342.0995569779756
 30
0.0
 10
96.26221706863122
 20
342.2862547860736
 30
0.0
 10
96.98199021209395
 20
342.6116095610608
 30
0.0
 10
97.80621037319152
 20
343.0198674469065
 30
0.0
 10
98.61547154660897
 20
343.4570093986488
 30
0.0
 10
99.40876123023361
 20
343.9224884796773
 30
0.0
 10
100.185086905697
 20
344.41572230815
 30
0.0
 10
100.9434772789703
 20
344.9360937610314
 30
0.0
 10
101.6829834976488
 20
345.48295179239
 30
0.0
 10
102.402680334559
 20
346.0556121618737
 30
0.0
 10
103.1016673514999
 20
346.6533584518051
 30
0.0
 10
103.7790700146728
 20
347.275442662939
 30
0.0
 10
104.4340408092171
 20
347.9210867120014
 30
0.0
 10
105.0657602615992
 20
348.5894823560689
 30
0.0
 10
105.6734380357366
 20
349.2797941639193
 30
0.0
 10
106.2563137890967
 20
349.9911568995193
 30
0.0
 10
106.8136583721473
 20
350.7226834456095
 30
0.0
 10
107.3447742764106
 20
351.4734531332871
 30
0.0
 10
107.8489973746029
 20
352.2425367700811
 30
0.0
 10
108.3256961304787
 20
353.0289531974476
 30
0.0
 10
108.7742754173517
 20
353.8317538487116
 30
0.0
 10
109.1941716049955
 20
354.6498682598337
 30
0.0
 10
109.5848638339556
 20
355.4823962394304
 30
0.0
 10
109.945854922292
 20
356.3280656710866
 30
0.0
 10
110.2767088741208
 20
357.1862491316951
 30
0.0
 10
110.5769825145554
 20
358.055068422623
 30
0.0
 10
110.8463547815731
 20
358.9349394761585
 30
0.0
 10
111.0843866187988
 20
359.821953587433
 30
0.0
 10
111.2909708729739
 20
360.7202473263815
 30
0.0
 10
111.4654926841526
 20
361.6188895635458
 30
0.0
 10
111.6084013353552
 20
362.5351276228341
 30
0.0
 10
111.7182559629799
 20
363.4330860019991
 30
0.0
 10
111.7962005796651
 20
364.3655249813513
 30
0.0
 10
111.8245729327694
 20
364.9144049063658
 30
0.0
 10
111.8354307357517
 20
365.2360198709168
 30
0.0
  0
SPLINE
  5
7F
330
5E
100
AcDbEntity
  8
$DDT_AUDIT_GENERATED_(6C)
  6
Continuous
 62
     7
100
AcDbSpline
210
0.0
220
0.0
230
1.0
 70
     8
 71
     3
 72
    52
 73
    48
 74
     0
 42
0.0000000002473631
 43
0.0000000001
 40
0.0
 40
0.0
 40
0.0
 40
0.0
 40
0.0222548892419003
 40
0.0445097794303054
 40
0.0667646712782712
 40
0.0890195654910673
 40
0.1112744627623793
 40
0.133529363771148
 40
0.1557842691784408
 40
0.1780391796262514
 40
0.2002940957309084
 40
0.2225490180785349
 40
0.244803947227252
 40
0.2670588837027177
 40
0.2893138279950341
 40
0.3115687805569317
 40
0.3338237418012012
 40
0.3560787121061948
 40
0.3783336917929765
 40
0.400588681143952
 40
0.4228436803953659
 40
0.4450986897358068
 40
0.4673537093056533
 40
0.4896087391963411
 40
0.5118637794536913
 40
0.5341188300699058
 40
0.5563738909836611
 40
0.5786289620883698
 40
0.6008840432287121
 40
0.623139134201504
 40
0.6453942347565875
 40
0.6676493445979764
 40
0.6899044633922549
 40
0.712159590749214
 40
0.7344147262451552
 40
0.7566698694175583
 40
0.7789250197673492
 40
0.8011801767613427
 40
0.8234353398346697
 40
0.8456905083955486
 40
0.8679456818232445
 40
0.8902008594727604
 40
0.9124560406808991
 40
0.9347112247676231
 40
0.9569664110393483
 40
0.979221598792014
 40
1.0
 40
1.0
 40
1.0
 40
1.0
 10
111.8467108466575
 20
367.3970307699354
 30
0.0
 10
111.8412466369161
 20
367.7267510174197
 30
0.0
 10
111.8225062611886
 20
368.2752905288078
 30
0.0
 10
111.7608156512449
 20
369.203702994022
 30
0.0
 10
111.6691732450474
 20
370.0831994567533
 30
0.0
 10
111.5460753103246
 20
370.9823633677536
 30
0.0
 10
111.3924969241496
 20
371.8643950119576
 30
0.0
 10
111.2081833258113
 20
372.7471698378374
 30
0.0
 10
110.993589444333
 20
373.6195205500473
 30
0.0
 10
110.7488468845193
 20
374.4858116722824
 30
0.0
 10
110.4743157486013
 20
375.3421110037183
 30
0.0
 10
110.1702888253851
 20
376.1889428630593
 30
0.0
 10
109.8371493405192
 20
377.0244638692276
 30
0.0
 10
109.4752858706297
 20
377.8481176275937
 30
0.0
 10
109.0851371777341
 20
378.658680300844
 30
0.0
 10
108.6671674353507
 20
379.4553085990068
 30
0.0
 10
108.221878654077
 20
380.2369806044563
 30
0.0
 10
107.7498031295693
 20
381.0027968512721
 30
0.0
 10
107.2515065309798
 20
381.7518208953542
 30
0.0
 10
106.7275852206148
 20
382.4831663517055
 30
0.0
 10
106.1786666290724
 20
383.1959519666843
 30
0.0
 10
105.605407889782
 20
383.8893272903368
 30
0.0
 10
105.0084954399355
 20
384.562460517437
 30
0.0
 10
104.3886438815576
 20
385.2145465373776
 30
0.0
 10
103.7465955007009
 20
385.8448041218679
 30
0.0
 10
103.0831187955423
 20
386.4524788827733
 30
0.0
 10
102.3990085836604
 20
387.0368430910611
 30
0.0
 10
101.6950831646586
 20
387.5971971322691
 30
0.0
 10
100.9721868455272
 20
388.1328700251896
 30
0.0
 10
100.2311823912681
 20
388.643220408426
 30
0.0
 10
99.47296220202908
 20
389.1276371875949
 30
0.0
 10
98.69842443669647
 20
389.5855403746136
 30
0.0
 10
97.90851454542057
 20
390.0163816448811
 30
0.0
 10
97.10414453934379
 20
390.4196452165996
 30
0.0
 10
96.28634060219889
 20
390.794848070779
 30
0.0
 10
95.4559640565836
 20
391.1415412630164
 30
0.0
 10
94.61422932188664
 20
391.4593090965574
 30
0.0
 10
93.76173289611606
 20
391.7477721666452
 30
0.0
 10
92.90026396082328
 20
392.0065830591496
 30
0.0
 10
92.02941835681867
 20
392.2354356505483
 30
0.0
 10
91.15292088899288
 20
392.4340488779684
 30
0.0
 10
90.2668095854559
 20
392.6021980836176
 30
0.0
 10
89.3815139680412
 20
392.7396573350617
 30
0.0
 10
88.48054072904016
 20
392.8463081239411
 30
0.0
 10
87.59817902702274
 20
392.9219355631799
 30
0.0
 10
86.69056424828138
 20
392.9656325271528
 30
0.0
 10
86.15798928059978
 20
392.9748736379
 30
0.0
 10
85.85000000000001
 20
392.9749471123342
 30
0.0
  0
SPLINE
  5
80
330
5E
100
AcDbEntity
  8
$DDT_AUDIT_GENERATED_(6C)
  6
Continuous
 62
     7
100
AcDbSpline
210
0.0
220
0.0
230
1.0
 70
     8
 71
     3
 72
    52
 73
    48
 74
     0
 42
0.0000000002467754
 43
0.0000000001
 40
0.0
 40
0.0
 40
0.0
 40
0.0
 40
0.0214513261106671
 40
0.0436912189556822
 40
0.0659311104783398
 40
0.0881709999708763
 40
0.1104108867352641
 40
0.1326507700862732
 40
0.1548906493529496
 40
0.1771305238854074
 40
0.199370393058529
 40
0.2216102562711961
 40
0.243850112950745
 40
0.2660899625555138
 40
0.288329804576751
 40
0.3105696385373084
 40
0.33280946401013
 40
0.3550492806027266
 40
0.3772890879652899
 40
0.3995288857920867
 40
0.421768673822938
 40
0.4440084518382305
 40
0.466248219676344
 40
0.4884879772236365
 40
0.5107277244130902
 40
0.5329674612274856
 40
0.5552071876993528
 40
0.5774469039083208
 40
0.5996866099823037
 40
0.6219263061082919
 40
0.6441659925144927
 40
0.6664056694759176
 40
0.6886453373131162
 40
0.7108849963904842
 40
0.7331246471087663
 40
0.7553642899207096
 40
0.777603925312625
 40
0.7998435538055639
 40
0.8220831759539122
 40
0.8443227923424974
 40
0.8665624035824625
 40
0.8888020103116503
 40
0.9110416131921528
 40
0.9332812129021765
 40
0.9555208101350768
 40
0.9777604055963327
 40
1.0
 40
1.0
 40
1.0
 40
1.0
 10
85.85000000000001
 20
392.9749471123342
 30
0.0
 10
85.53128019232007
 20
392.9748351364382
 30
0.0
 10
84.9901619144541
 20
392.9651614859557
 30
0.0
 10
84.07076590031504
 20
392.9198634417704
 30
0.0
 10
83.18749057164659
 20
392.8430380950995
 30
0.0
 10
82.28485648553175
 20
392.7350583464553
 30
0.0
 10
81.39839382274123
 20
392.5961871378695
 30
0.0
 10
80.510938579617
 20
392.426520815538
 30
0.0
 10
79.63328892634935
 20
392.2263008575643
 30
0.0
 10
78.76129307379004
 20
391.995747679213
 30
0.0
 10
77.89878501772344
 20
391.7351490485041
 30
0.0
 10
77.04530951791982
 20
391.4448122867468
 30
0.0
 10
76.20269027212471
 20
391.1250892984759
 30
0.0
 10
75.37151225920151
 20
390.7763625528206
 30
0.0
 10
74.55300279104613
 20
390.399051901843
 30
0.0
 10
73.74802277196895
 20
389.9936101794003
 30
0.0
 10
72.95760483375452
 20
389.5605247442136
 30
0.0
 10
72.18266348847884
 20
389.1003157741391
 30
0.0
 10
71.42414851538905
 20
388.6135362459054
 30
0.0
 10
70.68296112652503
 20
388.1007709371431
 30
0.0
 10
69.95999714859339
 20
387.5626359204149
 30
0.0
 10
69.25612225206189
 20
386.9997776836011
 30
0.0
 10
68.57218359570616
 20
386.4128724910826
 30
0.0
 10
67.9090020168256
 20
385.8026253786457
 30
0.0
 10
67.26737468524824
 20
385.1697696309799
 30
0.0
 10
66.64807218924766
 20
384.515065312988
 30
0.0
 10
66.0518386721763
 20
383.8392994442751
 30
0.0
 10
65.47939034183825
 20
383.1432830268403
 30
0.0
 10
64.93141498203686
 20
382.4278538539397
 30
0.0
 10
64.40857082924204
 20
381.6938684370155
 30
0.0
 10
63.91148612435459
 20
380.9422141773315
 30
0.0
 10
63.44075783240614
 20
380.1737836390722
 30
0.0
 10
62.9969518467157
 20
379.3895195475807
 30
0.0
 10
62.5806006208327
 20
378.5903275888058
 30
0.0
 10
62.19220566568155
 20
377.777236111493
 30
0.0
 10
61.83223109659135
 20
376.9510945063249
 30
0.0
 10
61.50111400094286
 20
376.1131333601037
 30
0.0
 10
61.19924350589339
 20
375.2639146016024
 30
0.0
 10
60.92699843422753
 20
374.4052893819524
 30
0.0
 10
60.68467562894812
 20
373.53673690866
 30
0.0
 10
60.47262265078676
 20
372.6622007281755
 30
0.0
 10
60.29098877606577
 20
371.7773129253627
 30
0.0
 10
60.14018934996579
 20
370.8932647788055
 30
0.0
 10
60.02003638548884
 20
369.9921533679961
 30
0.0
 10
59.93137079512541
 20
369.1108475791262
 30
0.0
 10
59.87294124831155
 20
368.1806465232763
 30
0.0
 10
59.85618656902278
 20
367.6311132601121
 30
0.0
 10
59.85193628789433
 20
367.3008171803154
 30
0.0
  0
SPLINE
  5
81
330
5E
100
AcDbEntity
  8
$DDT_AUDIT_GENERATED_(6C)
  6
Continuous
 62
     7
100
AcDbSpline
210
0.0
220
0.0
230
1.0
 70
     8
 71
     3
 72
    98
 73
    94
 74
     0
 42
0.000000009413565
 43
0.0000000001
 40
0.0
 40
0.0
 40
0.0
 40
0.0
 40
0.0024331605662697
 40
0.0095993217855258
 40
0.0166215911579235
 40
0.0234884087907372
 40
0.0302205462814674
 40
0.0372980018112841
 40
0.044768061831652
 40
0.0523707386172266
 40
0.0601187915053776
 40
0.0680223481213529
 40
0.0760918498094796
 40
0.0843379248550399
 40
0.0927712572001924
 40
0.1014094066641075
 40
0.1091140654301481
 40
0.1172573882437084
 40
0.125521797350217
 40
0.1339171769147806
 40
0.1424506139564428
 40
0.1511292877381232
 40
0.1599603845325402
 40
0.1689510245296518
 40
0.178108171736312
 40
0.1874385259192231
 40
0.1969483962936967
 40
0.2066435579543909
 40
0.2165290940425621
 40
0.2266092290429669
 40
0.2368871615395384
 40
0.2444673726540234
 40
0.2523004488515676
 40
0.2628808610436998
 40
0.2734375195716637
 40
0.2839430192046916
 40
0.2943801025887623
 40
0.3047321422650721
 40
0.3149832747413662
 40
0.3251342435997651
 40
0.3359413324290463
 40
0.3466206330890992
 40
0.3574999000606695
 40
0.3685811026801227
 40
0.3798683211313381
 40
0.3913634333623182
 40
0.4030702473855435
 40
0.4143304233479551
 40
0.4255519714208298
 40
0.4369396925673503
 40
0.4484954030711411
 40
0.4602217304514163
 40
0.4721200100729734
 40
0.4841900953532904
 40
0.4964301732089157
 40
0.5088366237930866
 40
0.521403947566599
 40
0.5341247816496931
 40
0.5469900220236232
 40
0.5580130144899582
 40
0.5695125773911283
 40
0.5820904185276304
 40
0.594792106145493
 40
0.6076212337051802
 40
0.6205745530634316
 40
0.6336478742775271
 40
0.6468360514103607
 40
0.6601330385506838
 40
0.6735319820056581
 40
0.6870253474050552
 40
0.7006050772537726
 40
0.7142554402613677
 40
0.7277297752185092
 40
0.7411387351177541
 40
0.7546500363036031
 40
0.7682561140230892
 40
0.7819490643124798
 40
0.7957198358383083
 40
0.8095584194879881
 40
0.8234540900333673
 40
0.8373956920055144
 40
0.8513719517257465
 40
0.8653717941379597
 40
0.8778572550912728
 40
0.8909023720520137
 40
0.9049398160012561
 40
0.9190048613015607
 40
0.9330888851423055
 40
0.947181907036381
 40
0.9612719001662062
 40
0.9753894201270568
 40
0.989503919595871
 40
1.0
 40
1.0
 40
1.0
 40
1.0
 10
95.6501210215197
 20
341.9734847902627
 30
0.0
 10
95.6501355534593
 20
341.9748038007618
 30
0.0
 10
95.6501857036938
 20
341.9792429666066
 30
0.0
 10
95.65039726840615
 20
341.9875583458171
 30
0.0
 10
95.65074001257865
 20
341.9976380832735
 30
0.0
 10
95.65118414966429
 20
342.0074655108756
 30
0.0
 10
95.65172737192515
 20
342.0172351670934
 30
0.0
 10
95.65238813701968
 20
342.0272506957541
 30
0.0
 10
95.65318059684316
 20
342.0375549166935
 30
0.0
 10
95.6541074826506
 20
342.0480682747761
 30
0.0
 10
95.65516361961063
 20
342.0586724150629
 30
0.0
 10
95.65635454613899
 20
342.0693825669227
 30
0.0
 10
95.65768598795799
 20
342.0802099415771
 30
0.0
 10
95.65916484651173
 20
342.0911701876331
 30
0.0
 10
95.66079688189531
 20
342.1022681991807
 30
0.0
 10
95.66251717502983
 20
342.1130616810272
 30
0.0
 10
95.66432104284455
 20
342.1236090958676
 30
0.0
 10
95.66619319270853
 20
342.1338750948751
 30
0.0
 10
95.66821919628664
 20
342.1443126965303
 30
0.0
 10
95.6703781791267
 20
342.154791052961
 30
0.0
 10
95.67267497110846
 20
342.1653182936911
 30
0.0
 10
95.67511448346386
 20
342.1759011376004
 30
0.0
 10
95.67770198208223
 20
342.1865463513736
 30
0.0
 10
95.68044305959188
 20
342.1972605841001
 30
0.0
 10
95.68334362051561
 20
342.2080503185946
 30
0.0
 10
95.6864098254567
 20
342.2189217102459
 30
0.0
 10
95.68964811981036
 20
342.2298806844511
 30
0.0
 10
95.6930648742515
 20
342.2409319987728
 30
0.0
 10
95.69666744180442
 20
342.2520822151633
 30
0.0
 10
95.70045969564501
 20
342.2633276099094
 30
0.0
 10
95.70408292923777
 20
342.2736313322851
 30
0.0
 10
95.70748144607461
 20
342.2829636412751
 30
0.0
 10
95.71097595756324
 20
342.2922757164498
 30
0.0
 10
95.71497583992671
 20
342.3025724897433
 30
0.0
 10
95.71945995452779
 20
342.3136820294737
 30
0.0
 10
95.72403483511592
 20
342.3246070746357
 30
0.0
 10
95.72868176941967
 20
342.3353179356075
 30
0.0
 10
95.73338899375342
 20
342.345802798852
 30
0.0
 10
95.73812890648323
 20
342.3560178333876
 30
0.0
 10
95.74306200040115
 20
342.3663156230779
 30
0.0
 10
95.74814782727603
 20
342.3766003957891
 30
0.0
 10
95.7534471631598
 20
342.3869815674635
 30
0.0
 10
95.75888722270625
 20
342.3973112823262
 30
0.0
 10
95.76452841184626
 20
342.4076958637583
 30
0.0
 10
95.77037990203772
 20
342.4181402213148
 30
0.0
 10
95.77644266951444
 20
342.4286349071122
 30
0.0
 10
95.78263411526531
 20
342.4390310418561
 30
0.0
 10
95.78885167276813
 20
342.4491675125052
 30
0.0
 10
95.7950958203768
 20
342.4590620207728
 30
0.0
 10
95.8014773948417
 20
342.468893159562
 30
0.0
 10
95.80803992297889
 20
342.4787220758333
 30
0.0
 10
95.81478865704558
 20
342.4885488992795
 30
0.0
 10
95.82172906781024
 20
342.4983739061719
 30
0.0
 10
95.8288659338194
 20
342.5081962243837
 30
0.0
 10
95.83620339555137
 20
342.5180140661382
 30
0.0
 10
95.84374434150087
 20
342.527824130416
 30
0.0
 10
95.85149193546248
 20
342.5376235770283
 30
0.0
 10
95.85944326012084
 20
342.5474026783011
 30
0.0
 10
95.8671946998896
 20
342.556672765049
 30
0.0
 10
95.87475122385113
 20
342.5654797057621
 30
0.0
 10
95.88231428892537
 20
342.5740831635061
 30
0.0
 10
95.89031438067201
 20
342.5829521486979
 30
0.0
 10
95.89868680691204
 20
342.5919873408033
 30
0.0
 10
95.90722734492819
 20
342.6009579136816
 30
0.0
 10
95.91593873612618
 20
342.6098624389546
 30
0.0
 10
95.92482182137975
 20
342.6186976219102
 30
0.0
 10
95.93387683582174
 20
342.6274597796719
 30
0.0
 10
95.94310341962306
 20
342.6361449172039
 30
0.0
 10
95.95250048403214
 20
342.6447486840208
 30
0.0
 10
95.96206681822586
 20
342.6532669474371
 30
0.0
 10
95.9717972516834
 20
342.6616925682334
 30
0.0
 10
95.98163494062433
 20
342.6699755052845
 30
0.0
 10
95.99149986644132
 20
342.678052257219
 30
0.0
 10
96.00140584536004
 20
342.6859397699855
 30
0.0
 10
96.01142040591185
 20
342.6936931167048
 30
0.0
 10
96.02158539446812
 20
342.7013423989384
 30
0.0
 10
96.03189887650448
 20
342.7088832024581
 30
0.0
 10
96.04235835725162
 20
342.7163111043054
 30
0.0
 10
96.05296065432559
 20
342.7236216033653
 30
0.0
 10
96.0637013492228
 20
342.7308098716395
 30
0.0
 10
96.07457757391116
 20
342.7378724868487
 30
0.0
 10
96.08557827069558
 20
342.7448015897263
 30
0.0
 10
96.09631620219442
 20
342.7513598587879
 30
0.0
 10
96.10684303396285
 20
342.7576025883133
 30
0.0
 10
96.11745239899368
 20
342.7637151816015
 30
0.0
 10
96.128561581227
 20
342.7699199969277
 30
0.0
 10
96.14003705111747
 20
342.7761230868227
 30
0.0
 10
96.1516166271625
 20
342.7821774145633
 30
0.0
 10
96.16329399154908
 20
342.7880793650342
 30
0.0
 10
96.17507839964871
 20
342.7938335567501
 30
0.0
 10
96.18686399649567
 20
342.7993862025986
 30
0.0
 10
96.19803114607394
 20
342.8044749249119
 30
0.0
 10
96.20454387522332
 20
342.8073118630851
 30
0.0
 10
96.20782907318666
 20
342.8087398582189
 30
0.0
  0
ARC
  5
82
330
5E
100
AcDbEntity
  8
$DDT_AUDIT_GENERATED_(6C)
  6
Continuous
 62
     7
100
AcDbCircle
 10
94.95
 20
278.4357166732
 30
0.0
 40
0.7000000000000062
100
AcDbArc
 50
270.0
 51
0.0
  0
LINE
  5
83
330
5E
100
AcDbEntity
  8
$DDT_AUDIT_GENERATED_(6C)
  6
Continuous
 62
     7
100
AcDbLine
 10
76.75
 20
277.7357166732
 30
0.0
 11
94.95
 21
277.7357166732
 31
0.0
  0
ARC
  5
84
330
5E
100
AcDbEntity
  8
$DDT_AUDIT_GENERATED_(6C)
  6
Continuous
 62
     7
100
AcDbCircle
 10
76.75
 20
278.4357166732
 30
0.0
 40
0.700000000000001
100
AcDbArc
 50
180.0
 51
270.0
  0
SPLINE
  5
85
330
5E
100
AcDbEntity
  8
$DDT_AUDIT_GENERATED_(6C)
  6
Continuous
 62
     7
100
AcDbSpline
210
0.0
220
0.0
230
1.0
 70
     8
 71
     3
 72
    97
 73
    93
 74
     0
 42
0.0000000094089756
 43
0.0000000001
 40
0.0
 40
0.0
 40
0.0
 40
0.0
 40
0.009738486136112
 40
0.0238297689210385
 40
0.0379088136073632
 40
0.0519962842737456
 40
0.0660906765595331
 40
0.0801596650069564
 40
0.0942271397051515
 40
0.1082892732526014
 40
0.1223361684122863
 40
0.1363595662602184
 40
0.149823738900483
 40
0.1638073728502383
 40
0.1777802261798236
 40
0.1917318387502866
 40
0.2056510531019134
 40
0.2195264546263097
 40
0.2333466941091902
 40
0.2471008124885479
 40
0.2607785449009437
 40
0.2743705834562853
 40
0.2878687833096248
 40
0.3012596019849828
 40
0.3147718571030036
 40
0.3283454140280769
 40
0.3418421879979059
 40
0.3552536267598198
 40
0.3685715729855772
 40
0.3817883874216597
 40
0.3948971166484833
 40
0.4078916304719428
 40
0.4207667232491284
 40
0.4335181767597031
 40
0.4461427853648018
 40
0.4586401020337756
 40
0.4708310975676756
 40
0.4837100503361126
 40
0.496454940240483
 40
0.509053403970493
 40
0.5214964660810685
 40
0.5337770297751127
 40
0.5458899874156786
 40
0.5578322198120889
 40
0.5696024990694749
 40
0.5812013203229537
 40
0.5926306889163059
 40
0.6038938869553089
 40
0.6149839283858242
 40
0.6269773231153476
 40
0.6385162824641301
 40
0.6498449638386734
 40
0.6609653153642668
 40
0.671880622414323
 40
0.6825962719013389
 40
0.6930973030855709
 40
0.703494712253754
 40
0.7136841790758498
 40
0.7239619192776515
 40
0.7343100105077157
 40
0.7447121161700088
 40
0.7551512796402331
 40
0.7628343635873454
 40
0.770630887505124
 40
0.7810357008662256
 40
0.7912521213120126
 40
0.8012712070206004
 40
0.8110958576536967
 40
0.8207301810428317
 40
0.8301792686446182
 40
0.8394490077131029
 40
0.8485459006089362
 40
0.8574768989577941
 40
0.8662492571683732
 40
0.8748704072258553
 40
0.8833478547004862
 40
0.8916890946909348
 40
0.8999015456666515
 40
0.9079809789175195
 40
0.9160918538149152
 40
0.9246374388232159
 40
0.9329901553704655
 40
0.9411572994085232
 40
0.94915016843522
 40
0.9569799996439948
 40
0.9646577965258559
 40
0.9721942264101866
 40
0.9795623252647783
 40
0.9859995187619179
 40
0.9927922170067083
 40
0.9997203223114518
 40
1.0
 40
1.0
 40
1.0
 40
1.0
 10
75.49217520445852
 20
342.808746459548
 30
0.0
 10
75.4952232961874
 20
342.8074189913248
 30
0.0
 10
75.50153533185028
 20
342.8046643278695
 30
0.0
 10
75.51248276728974
 20
342.7996891108253
 30
0.0
 10
75.52425699724847
 20
342.7941517676736
 30
0.0
 10
75.53603977775825
 20
342.7884101249359
 30
0.0
 10
75.54772145305452
 20
342.7825173460789
 30
0.0
 10
75.55930745317156
 20
342.7764712546924
 30
0.0
 10
75.57079509836204
 20
342.7702732697277
 30
0.0
 10
75.58219135892531
 20
342.7639196106489
 30
0.0
 10
75.59349193247289
 20
342.7574127686568
 30
0.0
 10
75.60455769452604
 20
342.7508355008092
 30
0.0
 10
75.61555231079586
 20
342.7440979258425
 30
0.0
 10
75.62641817068577
 20
342.7372348995322
 30
0.0
 10
75.63731339976563
 20
342.7301402032812
 30
0.0
 10
75.64809197951558
 20
342.7229058598424
 30
0.0
 10
75.65875020481602
 20
342.7155346763831
 30
0.0
 10
75.66928281329544
 20
342.7080309254722
 30
0.0
 10
75.67968522773508
 20
342.7003989846401
 30
0.0
 10
75.68995320204873
 20
342.6926435186752
 30
0.0
 10
75.70008315587617
 20
342.6847692153312
 30
0.0
 10
75.7100721692636
 20
342.6767807368951
 30
0.0
 10
75.71991681306189
 20
342.6686836074635
 30
0.0
 10
75.72967009596566
 20
342.6604361794642
 30
0.0
 10
75.73932929301867
 20
342.6520386593471
 30
0.0
 10
75.74891024758949
 20
342.6434728654343
 30
0.0
 10
75.758363498118
 20
342.6347808339649
 30
0.0
 10
75.76765649818822
 20
342.625993814582
 30
0.0
 10
75.77678688907055
 20
342.6171164626338
 30
0.0
 10
75.78575300226774
 20
342.6081532215975
 30
0.0
 10
75.79455361947329
 20
342.5991084873657
 30
0.0
 10
75.80318823495062
 20
342.589986272444
 30
0.0
 10
75.81165651137307
 20
342.5807907792234
 30
0.0
 10
75.81996030017159
 20
342.5715239376002
 30
0.0
 10
75.82809657224178
 20
342.5621936945529
 30
0.0
 10
75.83604638911258
 20
342.5528267494039
 30
0.0
 10
75.84394731683274
 20
342.543264786802
 30
0.0
 10
75.85178677600697
 20
342.5335118368168
 30
0.0
 10
75.85959755173269
 20
342.5235126039467
 30
0.0
 10
75.867209352727
 20
342.5134841596179
 30
0.0
 10
75.87462184197557
 20
342.5034329207919
 30
0.0
 10
75.88183594120807
 20
342.4933641930659
 30
0.0
 10
75.88885371946247
 20
342.483282162601
 30
0.0
 10
75.89567829677102
 20
342.4731897897868
 30
0.0
 10
75.90231347265738
 20
342.4630892172557
 30
0.0
 10
75.9087645147237
 20
342.4529802078417
 30
0.0
 10
75.91503451967426
 20
342.4428661252225
 30
0.0
 10
75.92113488736149
 20
342.4327359180291
 30
0.0
 10
75.92723122586945
 20
342.4223145516123
 30
0.0
 10
75.93325666872303
 20
342.4116920991398
 30
0.0
 10
75.93921277403574
 20
342.4008487571772
 30
0.0
 10
75.94491211529048
 20
342.3901349130919
 30
0.0
 10
75.95040531533937
 20
342.3794701546793
 30
0.0
 10
75.9556961397859
 20
342.3688600986331
 30
0.0
 10
75.96080221998693
 20
342.35828080995
 30
0.0
 10
75.9656969337413
 20
342.3478006910926
 30
0.0
 10
75.97042886369982
 20
342.3373252108749
 30
0.0
 10
75.97503241796052
 20
342.3267845076806
 30
0.0
 10
75.97953150922643
 20
342.3161220931648
 30
0.0
 10
75.98395588204147
 20
342.305254932153
 30
0.0
 10
75.98829298697149
 20
342.2941974227122
 30
0.0
 10
75.99214407607084
 20
342.2839910453793
 30
0.0
 10
75.99557292426377
 20
342.2745775917673
 30
0.0
 10
75.99894289764454
 20
342.2650410264869
 30
0.0
 10
76.00253360099505
 20
342.2544960036195
 30
0.0
 10
76.00628109505902
 20
342.2429977128168
 30
0.0
 10
76.00983342361475
 20
342.2315949337587
 30
0.0
 10
76.01319630462974
 20
342.2202872314106
 30
0.0
 10
76.01637591678518
 20
342.2090718595741
 30
0.0
 10
76.01937874525443
 20
342.1979444297716
 30
0.0
 10
76.02221114889376
 20
342.1868999695469
 30
0.0
 10
76.0248793586302
 20
342.1759328384022
 30
0.0
 10
76.02738938217739
 20
342.1650369539574
 30
0.0
 10
76.02974696794801
 20
342.1542058319558
 30
0.0
 10
76.0319575223567
 20
342.1434329824776
 30
0.0
 10
76.03402624018563
 20
342.1327110013648
 30
0.0
 10
76.03595752461092
 20
342.1220353133045
 30
0.0
 10
76.03775620078322
 20
342.1113958730684
 30
0.0
 10
76.0394318733316
 20
342.1007524897666
 30
0.0
 10
76.04101436756638
 20
342.0898927850896
 30
0.0
 10
76.04249612801145
 20
342.0788020530914
 30
0.0
 10
76.04385676330527
 20
342.0675759407308
 30
0.0
 10
76.04506590978183
 20
342.0564837651493
 30
0.0
 10
76.04612998033535
 20
342.0455159206587
 30
0.0
 10
76.04705542147715
 20
342.0346556803246
 30
0.0
 10
76.0478469374713
 20
342.0239038985533
 30
0.0
 10
76.04851157557408
 20
342.0132172849767
 30
0.0
 10
76.04902360289408
 20
342.0031429897751
 30
0.0
 10
76.0494233649906
 20
341.9932466427348
 30
0.0
 10
76.04970597101578
 20
341.9835695833075
 30
0.0
 10
76.04986774965431
 20
341.9764950879348
 30
0.0
 10
76.04989619710372
 20
341.9731182030596
 30
0.0
 10
76.04989752301694
 20
341.972966252345
 30
0.0
  0
ENDBLK
  5
87
330
5E
100
AcDbEntity
  8
0
100
AcDbBlockEnd
  0
BLOCK
  5
B6
330
88
100
AcDbEntity
  8
0
100
AcDbBlockBegin
  2
SE1
 70
     0
 10
0.0
 20
0.0
 30
0.0
  3
SE1
  1

  0
LINE
  5
8A
330
88
100
AcDbEntity
  8
$DDT_AUDIT_GENERATED_(60)
  6
Continuous
 62
     7
100
AcDbLine
 10
275.5009927929
 20
273.911092451
 30
0.0
 11
264.0009927929
 21
273.911092451
 31
0.0
  0
LINE
  5
8B
330
88
100
AcDbEntity
  8
$DDT_AUDIT_GENERATED_(60)
  6
Continuous
 62
     7
100
AcDbLine
 10
264.0009927929
 20
275.711092451
 30
0.0
 11
264.0009927929
 21
456.111092451
 31
0.0
  0
LINE
  5
8C
330
88
100
AcDbEntity
  8
$DDT_AUDIT_GENERATED_(60)
  6
Continuous
 62
     7
100
AcDbLine
 10
264.0009927929
 20
456.111092451
 30
0.0
 11
264.0009927929
 21
457.911092451
 31
0.0
  0
LINE
  5
8D
330
88
100
AcDbEntity
  8
$DDT_AUDIT_GENERATED_(60)
  6
Continuous
 62
     7
100
AcDbLine
 10
264.0009927929
 20
273.911092451
 30
0.0
 11
264.0009927929
 21
275.711092451
 31
0.0
  0
LINE
  5
8E
330
88
100
AcDbEntity
  8
$DDT_AUDIT_GENERATED_(60)
  6
Continuous
 62
     7
100
AcDbLine
 10
277.3009927929
 20
456.111092451
 30
0.0
 11
277.3009927929
 21
275.711092451
 31
0.0
  0
LINE
  5
8F
330
88
100
AcDbEntity
  8
$DDT_AUDIT_GENERATED_(60)
  6
Continuous
 62
     7
100
AcDbLine
 10
264.0009927929
 20
457.911092451
 30
0.0
 11
275.5009927929
 21
457.911092451
 31
0.0
  0
ARC
  5
90
330
88
100
AcDbEntity
  8
$DDT_AUDIT_GENERATED_(60)
  6
Continuous
 62
     7
100
AcDbCircle
 10
275.5009927929
 20
456.111092451
 30
0.0
 40
1.799999999999996
100
AcDbArc
 50
0.0
 51
90.0
  0
ARC
  5
91
330
88
100
AcDbEntity
  8
$DDT_AUDIT_GENERATED_(60)
  6
Continuous
 62
     7
100
AcDbCircle
 10
275.5009927929
 20
275.711092451
 30
0.0
 40
1.799999999999996
100
AcDbArc
 50
270.0
 51
0.0
  0
LINE
  5
93
330
88
100
AcDbEntity
  8
$DDT_AUDIT_GENERATED_(92)
  6
Continuous
 62
     7
100
AcDbLine
 10
295.0042507742
 20
391.3552214579
 30
0.0
 11
295.0042507742
 21
340.466963444
 31
0.0
  0
ARC
  5
94
330
88
100
AcDbEntity
  8
$DDT_AUDIT_GENERATED_(92)
  6
Continuous
 62
     7
100
AcDbCircle
 10
289.0042507742
 20
365.911092451
 30
0.0
 40
25.00000000000017
100
AcDbArc
 50
42.3061943796
 51
76.1134596374
  0
ARC
  5
95
330
88
100
AcDbEntity
  8
$DDT_AUDIT_GENERATED_(92)
  6
Continuous
 62
     7
100
AcDbCircle
 10
289.0042507742
 20
365.911092451
 30
0.0
 40
24.99999999999991
100
AcDbArc
 50
283.8865403626
 51
291.8381979269
  0
LINE
  5
96
330
88
100
AcDbEntity
  8
$DDT_AUDIT_GENERATED_(92)
  6
Continuous
 62
     7
100
AcDbLine
 10
277.3009927929
 20
339.8168215506
 30
0.0
 11
294.5086138182
 21
339.9669824805
 31
0.0
  0
LINE
  5
97
330
88
100
AcDbEntity
  8
$DDT_AUDIT_GENERATED_(92)
  6
Continuous
 62
     7
100
AcDbLine
 10
294.5086138182
 20
391.8552024214
 30
0.0
 11
277.3009927929
 21
392.0053633513
 31
0.0
  0
ARC
  5
98
330
88
100
AcDbEntity
  8
$DDT_AUDIT_GENERATED_(92)
  6
Continuous
 62
     7
100
AcDbCircle
 10
294.5042507742
 20
391.3552214579
 30
0.0
 40
0.5000000000000004
100
AcDbArc
 50
0.0
 51
89.5000256491
  0
ARC
  5
99
330
88
100
AcDbEntity
  8
$DDT_AUDIT_GENERATED_(92)
  6
Continuous
 62
     7
100
AcDbCircle
 10
294.5042507742
 20
340.466963444
 30
0.0
 40
0.5000000000000033
100
AcDbArc
 50
270.4999743509
 51
0.0
  0
LINE
  5
9A
330
88
100
AcDbEntity
  8
$DDT_AUDIT_GENERATED_(6C)
  6
Continuous
 62
     7
100
AcDbLine
 10
319.3079367209
 20
342.8266413065
 30
0.0
 11
329.3045099706
 21
343.0884107896
 31
0.0
  0
SPLINE
  5
9B
330
88
100
AcDbEntity
  8
$DDT_AUDIT_GENERATED_(6C)
  6
Continuous
 62
     7
100
AcDbSpline
210
0.0
220
0.0
230
1.0
 70
     8
 71
     3
 72
     8
 73
     4
 74
     0
 42
0.0000000044882966
 43
0.0000000001
 40
0.0
 40
0.0
 40
0.0
 40
0.0
 40
0.0301427730750743
 40
0.0301427730750743
 40
0.0301427730750743
 40
0.0301427730750743
 10
316.4750786687403
 20
340.581109853975
 30
0.0
 10
316.4750786687403
 20
340.581109853975
 30
0.0
 10
316.4524772050056
 20
340.5832510130845
 30
0.0
 10
316.408204222198
 20
340.587280158013
 30
0.0
  0
LINE
  5
9C
330
88
100
AcDbEntity
  8
$DDT_AUDIT_GENERATED_(6C)
  6
Continuous
 62
     7
100
AcDbLine
 10
298.364099663
 20
340.4069600159
 30
0.0
 11
297.713870449
 21
365.238211892
 31
0.0
  0
SPLINE
  5
9D
330
88
100
AcDbEntity
  8
$DDT_AUDIT_GENERATED_(6C)
  6
Continuous
 62
     7
100
AcDbSpline
210
0.0
220
0.0
230
1.0
 70
     8
 71
     3
 72
    16
 73
    12
 74
     0
 42
0.0000000059643738
 43
0.0000000001
 40
0.0
 40
0.0
 40
0.0
 40
0.0
 40
0.25
 40
0.25
 40
0.5
 40
0.5
 40
0.625
 40
0.625
 40
0.75
 40
0.75
 40
1.0
 40
1.0
 40
1.0
 40
1.0
 10
297.7138704489519
 20
365.2382118919796
 30
0.0
 10
297.7101895369051
 20
365.3787802518542
 30
0.0
 10
297.7163848767403
 20
365.5179518046927
 30
0.0
 10
297.7477389650942
 20
365.7936121104925
 30
0.0
 10
297.7728999021285
 20
365.9301005570047
 30
0.0
 10
297.8251192289511
 20
366.1327833064501
 30
0.0
 10
297.8450056905982
 20
366.200172058939
 30
0.0
 10
297.889499529262
 20
366.3334382641891
 30
0.0
 10
297.9140058843738
 20
366.3990570803309
 30
0.0
 10
297.9942117759447
 20
366.5929122599445
 30
0.0
 10
298.0565652087385
 20
366.7181621075882
 30
0.0
 10
298.127954942554
 20
366.8393578257853
 30
0.0
  0
LINE
  5
9E
330
88
100
AcDbEntity
  8
$DDT_AUDIT_GENERATED_(6C)
  6
Continuous
 62
     7
100
AcDbLine
 10
298.1279549426
 20
366.8393578258
 30
0.0
 11
313.1673873475
 21
392.3712475552
 31
0.0
  0
SPLINE
  5
9F
330
88
100
AcDbEntity
  8
$DDT_AUDIT_GENERATED_(6C)
  6
Continuous
 62
     7
100
AcDbSpline
210
0.0
220
0.0
230
1.0
 70
     8
 71
     3
 72
    10
 73
     6
 74
     0
 42
0.0000000228347985
 43
0.0000000001
 40
0.0
 40
0.0
 40
0.0
 40
0.0
 40
0.5
 40
0.5
 40
1.0
 40
1.0
 40
1.0
 40
1.0
 10
328.4073594024202
 20
341.9030173886184
 30
0.0
 10
328.3850188429604
 20
341.8328588163814
 30
0.0
 10
328.3690121891674
 20
341.7618231824695
 30
0.0
 10
328.3487861576696
 20
341.618112067615
 30
0.0
 10
328.3445713950205
 20
341.5454359969898
 30
0.0
 10
328.3464968692344
 20
341.4719051033411
 30
0.0
  0
SPLINE
  5
A0
330
88
100
AcDbEntity
  8
$DDT_AUDIT_GENERATED_(6C)
  6
Continuous
 62
     7
100
AcDbSpline
210
0.0
220
0.0
230
1.0
 70
     8
 71
     3
 72
    26
 73
    22
 74
     0
 42
0.0000000066212756
 43
0.0000000001
 40
0.0
 40
0.0
 40
0.0
 40
0.0
 40
0.0625000000000023
 40
0.0625000000000023
 40
0.1250000000000047
 40
0.1250000000000047
 40
0.2500000000000051
 40
0.2500000000000051
 40
0.3750000000000054
 40
0.3750000000000054
 40
0.5000000000000059
 40
0.5000000000000059
 40
0.6250000000000063
 40
0.6250000000000063
 40
0.7500000000000067
 40
0.7500000000000067
 40
0.8125000000000051
 40
0.8125000000000051
 40
0.8750000000000033
 40
0.8750000000000033
 40
1.0
 40
1.0
 40
1.0
 40
1.0
 10
329.3045099706083
 20
343.0884107896226
 30
0.0
 10
329.2840752845801
 20
343.0737935800289
 30
0.0
 10
329.2634521665614
 20
343.0584965767618
 30
0.0
 10
329.2225078010388
 20
343.0270281442816
 30
0.0
 10
329.2020821311887
 20
343.0107824851856
 30
0.0
 10
329.1409471715584
 20
342.9604949011305
 30
0.0
 10
329.1003791947732
 20
342.9249102281971
 30
0.0
 10
329.0196501476519
 20
342.8493601586204
 30
0.0
 10
328.9794887301139
 20
342.8093982520925
 30
0.0
 10
328.8996295707028
 20
342.724544347272
 30
0.0
 10
328.8598015491682
 20
342.6794959173295
 30
0.0
 10
328.7815041087522
 20
342.584458660476
 30
0.0
 10
328.7430267065041
 20
342.5344961523334
 30
0.0
 10
328.6677288648833
 20
342.4285579479593
 30
0.0
 10
328.630900768422
 20
342.3726100919613
 30
0.0
 10
328.5773409366946
 20
342.2825938669953
 30
0.0
 10
328.5597039104879
 20
342.2514354533272
 30
0.0
 10
328.5254655117002
 20
342.187229695181
 30
0.0
 10
328.5089172988219
 20
342.1542973194933
 30
0.0
 10
328.4613081605322
 20
342.0525426371636
 30
0.0
 10
328.4321688339057
 20
341.9809292374314
 30
0.0
 10
328.4073594024202
 20
341.9030173886184
 30
0.0
  0
LINE
  5
A1
330
88
100
AcDbEntity
  8
$DDT_AUDIT_GENERATED_(6C)
  6
Continuous
 62
     7
100
AcDbLine
 10
328.3464968692
 20
341.4719051033
 30
0.0
 11
329.9924963764
 21
278.6137199217
 31
0.0
  0
LINE
  5
A2
330
88
100
AcDbEntity
  8
$DDT_AUDIT_GENERATED_(6C)
  6
Continuous
 62
     7
100
AcDbLine
 10
329.3110601127
 20
277.8956359304
 30
0.0
 11
323.2131504304
 21
277.7359565457
 31
0.0
  0
ARC
  5
A3
330
88
100
AcDbEntity
  8
$DDT_AUDIT_GENERATED_(6C)
  6
Continuous
 62
     7
100
AcDbCircle
 10
329.2927362489
 20
278.5953960579
 30
0.0
 40
0.7000000000000027
100
AcDbArc
 50
271.5
 51
1.5
  0
SPLINE
  5
A4
330
88
100
AcDbEntity
  8
$DDT_AUDIT_GENERATED_(6C)
  6
Continuous
 62
     7
100
AcDbSpline
210
0.0
220
0.0
230
1.0
 70
     8
 71
     3
 72
    14
 73
    10
 74
     0
 42
0.0000000110791157
 43
0.0000000001
 40
0.0
 40
0.0
 40
0.0
 40
0.0
 40
0.4999999999999912
 40
0.4999999999999912
 40
0.6249999999999918
 40
0.6249999999999918
 40
0.7499999999999923
 40
0.7499999999999923
 40
1.0
 40
1.0
 40
1.0
 40
1.0
 10
320.8629526257864
 20
340.7453047359216
 30
0.0
 10
320.8589921109134
 20
340.8965506969406
 30
0.0
 10
320.8370032216738
 20
341.0442082797507
 30
0.0
 10
320.7876964120434
 20
341.2244402695214
 30
0.0
 10
320.7767251413071
 20
341.2602659709182
 30
0.0
 10
320.75250278787
 20
341.3314643753156
 30
0.0
 10
320.7392135399123
 20
341.3669249134015
 30
0.0
 10
320.6961274509698
 20
341.4717895427027
 30
0.0
 10
320.6631504715269
 20
341.5397142914215
 30
0.0
 10
320.6257587745961
 20
341.6055809216807
 30
0.0
  0
SPLINE
  5
A5
330
88
100
AcDbEntity
  8
$DDT_AUDIT_GENERATED_(6C)
  6
Continuous
 62
     7
100
AcDbSpline
210
0.0
220
0.0
230
1.0
 70
     8
 71
     3
 72
    27
 73
    23
 74
     0
 42
0.0000000054863488
 43
0.0000000001
 40
0.0
 40
0.0
 40
0.0
 40
0.0
 40
0.1250000000000002
 40
0.1250000000000002
 40
0.1875000000000004
 40
0.1875000000000004
 40
0.2500000000000005
 40
0.2500000000000005
 40
0.3750000000000004
 40
0.3750000000000004
 40
0.5000000000000003
 40
0.5000000000000003
 40
0.6250000000000002
 40
0.6250000000000002
 40
0.7500000000000001
 40
0.7500000000000001
 40
0.8750000000000001
 40
0.8750000000000001
 40
0.9375000000000016
 40
0.9687500000000008
 40
0.9687500000000008
 40
1.0
 40
1.0
 40
1.0
 40
1.0
 10
320.6257587745961
 20
341.6055809216807
 30
0.0
 10
320.5801123618251
 20
341.6859884891203
 30
0.0
 10
320.5317068576805
 20
341.7607647787435
 30
0.0
 10
320.4560011570085
 20
341.8670892572679
 30
0.0
 10
320.430240675659
 20
341.9015337773295
 30
0.0
 10
320.3777672893796
 20
341.9686696722608
 30
0.0
 10
320.3509665424286
 20
342.0014615318306
 30
0.0
 10
320.2698918460374
 20
342.0967035839851
 30
0.0
 10
320.2152607833243
 20
342.1557405503638
 30
0.0
 10
320.1049433449081
 20
342.2669582253984
 30
0.0
 10
320.0492562333964
 20
342.3191159044746
 30
0.0
 10
319.9368743591654
 20
342.4176334470955
 30
0.0
 10
319.880129379303
 20
342.4640225515801
 30
0.0
 10
319.7658447230324
 20
342.5514245750701
 30
0.0
 10
319.708716983558
 20
342.5921271914923
 30
0.0
 10
319.5943970439471
 20
342.6681346781061
 30
0.0
 10
319.5372054312256
 20
342.7034359760702
 30
0.0
 10
319.4513107207591
 20
342.7525350546084
 30
0.0
 10
319.4083366233534
 20
342.7761180168712
 30
0.0
 10
319.3653112859495
 20
342.7982602911754
 30
0.0
 10
319.3366150603937
 20
342.8127008060872
 30
0.0
 10
319.3221924693256
 20
342.8197930990737
 30
0.0
 10
319.3079367208527
 20
342.8266413065438
 30
0.0
  0
LINE
  5
A6
330
88
100
AcDbEntity
  8
$DDT_AUDIT_GENERATED_(6C)
  6
Continuous
 62
     7
100
AcDbLine
 10
322.4950664391
 20
278.4173928094
 30
0.0
 11
320.8629526258
 21
340.7453047359
 31
0.0
  0
ARC
  5
A7
330
88
100
AcDbEntity
  8
$DDT_AUDIT_GENERATED_(6C)
  6
Continuous
 62
     7
100
AcDbCircle
 10
323.1948265665
 20
278.4357166732
 30
0.0
 40
0.7000000000000027
100
AcDbArc
 50
181.5
 51
271.5
  0
LINE
  5
A8
330
88
100
AcDbEntity
  8
$DDT_AUDIT_GENERATED_(6C)
  6
Continuous
 62
     7
100
AcDbLine
 10
329.3613298218
 20
340.918548216
 30
0.0
 11
332.186440441
 21
340.9925263411
 31
0.0
  0
LINE
  5
A9
330
88
100
AcDbEntity
  8
$DDT_AUDIT_GENERATED_(6C)
  6
Continuous
 62
     7
100
AcDbLine
 10
316.4750786687
 20
340.581109854
 30
0.0
 11
319.364756572
 21
340.6567787329
 31
0.0
  0
LINE
  5
AA
330
88
100
AcDbEntity
  8
$DDT_AUDIT_GENERATED_(6C)
  6
Continuous
 62
     7
100
AcDbLine
 10
298.671849945
 20
340.1149159029
 30
0.0
 11
309.2245081709
 21
340.3912469836
 31
0.0
  0
LINE
  5
AB
330
88
100
AcDbEntity
  8
$DDT_AUDIT_GENERATED_(6C)
  6
Continuous
 62
     7
100
AcDbLine
 10
330.825239129
 20
392.9747072398
 30
0.0
 11
313.4180230111
 21
392.5188832438
 31
0.0
  0
ARC
  5
AC
330
88
100
AcDbEntity
  8
$DDT_AUDIT_GENERATED_(6C)
  6
Continuous
 62
     7
100
AcDbCircle
 10
329.3875067701
 20
339.918890891
 30
0.0
 40
1.000000000000004
100
AcDbArc
 50
91.5
 51
181.5
  0
ARC
  5
AD
330
88
100
AcDbEntity
  8
$DDT_AUDIT_GENERATED_(6C)
  6
Continuous
 62
     7
100
AcDbCircle
 10
313.4258760956
 20
392.2189860463
 30
0.0
 40
0.2999999999999929
100
AcDbArc
 50
91.5089417793
 51
149.5
  0
ARC
  5
AE
330
88
100
AcDbEntity
  8
$DDT_AUDIT_GENERATED_(6C)
  6
Continuous
 62
     7
100
AcDbCircle
 10
298.6639968605
 20
340.4148131004
 30
0.0
 40
0.3000000000000013
100
AcDbArc
 50
181.5
 51
271.5
  0
ARC
  5
AF
330
88
100
AcDbEntity
  8
$DDT_AUDIT_GENERATED_(6C)
  6
Continuous
 62
     7
100
AcDbCircle
 10
319.4040219945
 20
339.1572927454
 30
0.0
 40
1.499999999999999
100
AcDbArc
 50
1.5
 51
91.5
  0
ARC
  5
B0
330
88
100
AcDbEntity
  8
$DDT_AUDIT_GENERATED_(6C)
  6
Continuous
 62
     7
100
AcDbCircle
 10
-343.338907549
 20
349.3121851654
 30
0.0
 40
676.2499999999994
100
AcDbArc
 50
359.3537157962
 51
3.6462842038
  0
ARC
  5
B1
330
88
100
AcDbEntity
  8
$DDT_AUDIT_GENERATED_(6C)
  6
Continuous
 62
     7
100
AcDbCircle
 10
332.1681165772
 20
341.6922864686
 30
0.0
 40
0.7
100
AcDbArc
 50
271.5
 51
359.3537157963
  0
ARC
  5
B2
330
88
100
AcDbEntity
  8
$DDT_AUDIT_GENERATED_(6C)
  6
Continuous
 62
     7
100
AcDbCircle
 10
330.8435629928
 20
392.2749471123
 30
0.0
 40
0.7000000000000614
100
AcDbArc
 50
3.6462842037
 51
91.5
  0
LINE
  5
B4
330
88
100
AcDbEntity
  8
$DDT_AUDIT_GENERATED_(B3)
  6
Continuous
 62
     7
100
AcDbLine
 10
309.1461701472
 20
340.2066941653
 30
0.0
 11
316.5903871071
 21
340.5968290447
 31
0.0
  0
LINE
  5
B5
330
88
100
AcDbEntity
  8
$DDT_AUDIT_GENERATED_(B3)
  6
Continuous
 62
     7
100
AcDbLine
 10
309.2245081709
 20
340.3912469836
 30
0.0
 11
309.1461701472
 21
340.2066941653
 31
0.0
  0
ENDBLK
  5
B7
330
88
100
AcDbEntity
  8
0
100
AcDbBlockEnd
  0
BLOCK
  5
F2
330
B8
100
AcDbEntity
  8
0
100
AcDbBlockBegin
  2
SE2
 70
     0
 10
0.0
 20
0.0
 30
0.0
  3
SE2
  1

  0
LINE
  5
BA
330
B8
100
AcDbEntity
  8
$DDT_AUDIT_GENERATED_(60)
  6
Continuous
 62
     7
100
AcDbLine
 10
8.15
 20
175.260099658
 30
0.0
 11
163.55
 21
175.260099658
 31
0.0
  0
LINE
  5
BB
330
B8
100
AcDbEntity
  8
$DDT_AUDIT_GENERATED_(60)
  6
Continuous
 62
     7
100
AcDbLine
 10
163.55
 20
175.260099658
 30
0.0
 11
165.35
 21
175.260099658
 31
0.0
  0
LINE
  5
BC
330
B8
100
AcDbEntity
  8
$DDT_AUDIT_GENERATED_(60)
  6
Continuous
 62
     7
100
AcDbLine
 10
6.35
 20
175.260099658
 30
0.0
 11
8.15
 21
175.260099658
 31
0.0
  0
LINE
  5
BD
330
B8
100
AcDbEntity
  8
$DDT_AUDIT_GENERATED_(60)
  6
Continuous
 62
     7
100
AcDbLine
 10
6.35
 20
163.760099658
 30
0.0
 11
6.35
 21
175.260099658
 31
0.0
  0
LINE
  5
BE
330
B8
100
AcDbEntity
  8
$DDT_AUDIT_GENERATED_(60)
  6
Continuous
 62
     7
100
AcDbLine
 10
163.55
 20
161.960099658
 30
0.0
 11
8.15
 21
161.960099658
 31
0.0
  0
LINE
  5
BF
330
B8
100
AcDbEntity
  8
$DDT_AUDIT_GENERATED_(60)
  6
Continuous
 62
     7
100
AcDbLine
 10
165.35
 20
175.260099658
 30
0.0
 11
165.35
 21
163.760099658
 31
0.0
  0
ARC
  5
C0
330
B8
100
AcDbEntity
  8
$DDT_AUDIT_GENERATED_(60)
  6
Continuous
 62
     7
100
AcDbCircle
 10
163.55
 20
163.760099658
 30
0.0
 40
1.799999999999996
100
AcDbArc
 50
270.0
 51
0.0
  0
ARC
  5
C1
330
B8
100
AcDbEntity
  8
$DDT_AUDIT_GENERATED_(60)
  6
Continuous
 62
     7
100
AcDbCircle
 10
8.15
 20
163.760099658
 30
0.0
 40
1.799999999999996
100
AcDbArc
 50
180.0
 51
270.0
  0
LINE
  5
C2
330
B8
100
AcDbEntity
  8
$DDT_AUDIT_GENERATED_(92)
  6
Continuous
 62
     7
100
AcDbLine
 10
60.4058709931
 20
144.2568416767
 30
0.0
 11
111.2941290069
 21
144.2568416767
 31
0.0
  0
ELLIPSE
  5
C3
330
B8
100
AcDbEntity
  8
$DDT_AUDIT_GENERATED_(92)
  6
Continuous
 62
     7
100
AcDbEllipse
 10
86.2200000007
 20
150.2568416734
 30
0.0
 11
-5.844193943886633E-10
 21
-24.99706524475165
 31
0.0
210
0.0
220
0.0
230
1.0
 40
0.2588190451
 41
0.6904224772878972
 42
0.694357300346738
  0
LINE
  5
C4
330
B8
100
AcDbEntity
  8
$DDT_AUDIT_GENERATED_(92)
  6
Continuous
 62
     7
100
AcDbLine
 10
90.3599177936
 20
131.0474689644
 30
0.0
 11
81.3400822064
 21
131.0474689644
 31
0.0
  0
ELLIPSE
  5
C5
330
B8
100
AcDbEntity
  8
$DDT_AUDIT_GENERATED_(92)
  6
Continuous
 62
     7
100
AcDbEllipse
 10
85.4799999943
 20
150.256841649
 30
0.0
 11
4.772133101009490E-9
 21
-24.99706521965718
 31
0.0
210
0.0
220
0.0
230
1.0
 40
0.2588190451
 41
-0.6943573007085915
 42
-0.6904227853189591
  0
LINE
  5
C6
330
B8
100
AcDbEntity
  8
$DDT_AUDIT_GENERATED_(92)
  6
Continuous
 62
     7
100
AcDbLine
 10
81.598980405
 20
130.9615000799
 30
0.0
 11
81.598980405
 21
131.0474689644
 31
0.0
  0
LINE
  5
C7
330
B8
100
AcDbEntity
  8
$DDT_AUDIT_GENERATED_(92)
  6
Continuous
 62
     7
100
AcDbLine
 10
90.101019595
 20
131.0474689644
 30
0.0
 11
90.101019595
 21
130.9615021865
 31
0.0
  0
ARC
  5
C8
330
B8
100
AcDbEntity
  8
$DDT_AUDIT_GENERATED_(92)
  6
Continuous
 62
     7
100
AcDbCircle
 10
85.85
 20
150.2568416767
 30
0.0
 40
25.00000000000005
100
AcDbArc
 50
327.0628049519
 51
346.1134596374
  0
ARC
  5
C9
330
B8
100
AcDbEntity
  8
$DDT_AUDIT_GENERATED_(92)
  6
Continuous
 62
     7
100
AcDbCircle
 10
85.85
 20
150.2568416767
 30
0.0
 40
25.00000000000001
100
AcDbArc
 50
193.8865403626
 51
212.9373032271
  0
LINE
  5
CA
330
B8
100
AcDbEntity
  8
$DDT_AUDIT_GENERATED_(92)
  6
Continuous
 62
     7
100
AcDbLine
 10
59.7557290996
 20
161.960099658
 30
0.0
 11
59.9058900296
 21
144.7524786328
 31
0.0
  0
LINE
  5
CB
330
B8
100
AcDbEntity
  8
$DDT_AUDIT_GENERATED_(92)
  6
Continuous
 62
     7
100
AcDbLine
 10
111.7941099704
 20
144.7524786328
 30
0.0
 11
111.9442709004
 21
161.960099658
 31
0.0
  0
ARC
  5
CC
330
B8
100
AcDbEntity
  8
$DDT_AUDIT_GENERATED_(92)
  6
Continuous
 62
     7
100
AcDbCircle
 10
111.2941290069
 20
144.7568416767
 30
0.0
 40
0.5000000000000004
100
AcDbArc
 50
270.0
 51
359.5000256491
  0
ARC
  5
CD
330
B8
100
AcDbEntity
  8
$DDT_AUDIT_GENERATED_(92)
  6
Continuous
 62
     7
100
AcDbCircle
 10
60.4058709931
 20
144.7568416767
 30
0.0
 40
0.4999999999999964
100
AcDbArc
 50
180.4999743509
 51
270.0
  0
ELLIPSE
  5
CE
330
B8
100
AcDbEntity
  8
$DDT_AUDIT_GENERATED_(6C)
  6
Continuous
 62
     7
100
AcDbEllipse
 10
85.85
 20
139.470459977
 30
0.0
 11
0.0
 21
23.99881067606705
 31
0.0
210
0.0
220
0.0
230
1.0
 40
1.0
 41
1.575604408564885
 42
1.582000739311855
  0
ELLIPSE
  5
CF
330
B8
100
AcDbEntity
  8
$DDT_AUDIT_GENERATED_(6C)
  6
Continuous
 62
     7
100
AcDbEllipse
 10
85.85
 20
139.470459977
 30
0.0
 11
0.0
 21
22.43282953405937
 31
0.0
210
0.0
220
0.0
230
1.0
 40
1.0
 41
4.701184567867731
 42
4.707580667408388
  0
SPLINE
  5
D0
330
B8
100
AcDbEntity
  8
$DDT_AUDIT_GENERATED_(6C)
  6
Continuous
 62
     7
100
AcDbSpline
210
0.0
220
0.0
230
1.0
 70
     8
 71
     3
 72
     8
 73
     4
 74
     0
 42
0.0000000303128234
 43
0.0000000001
 40
0.5875188421802378
 40
0.5875188421802378
 40
0.5875188421802378
 40
0.5875188421802378
 40
0.593375102191801
 40
0.593375102191801
 40
0.593375102191801
 40
0.593375102191801
 10
110.914978299018
 20
141.293721370465
 30
0.0
 10
110.9152007709178
 20
141.2943313850999
 30
0.0
 10
110.9154209894729
 20
141.2949365520255
 30
0.0
 10
110.9156389433699
 20
141.2955368443861
 30
0.0
  0
ELLIPSE
  5
D1
330
B8
100
AcDbEntity
  8
$DDT_AUDIT_GENERATED_(6C)
  6
Continuous
 62
     7
100
AcDbEllipse
 10
111.2098138124
 20
141.2473248045
 30
0.0
 11
0.1832811526848131
 21
-0.2375037243297767
 31
0.0
210
0.0
220
0.0
230
1.0
 40
0.9990826929
 41
3.141169124410465
 42
3.141592653589845
  0
ELLIPSE
  5
D2
330
B8
100
AcDbEntity
  8
$DDT_AUDIT_GENERATED_(6C)
  6
Continuous
 62
     7
100
AcDbEllipse
 10
60.4901861876
 20
141.2473248045
 30
0.0
 11
-0.1832811526878975
 21
-0.2375037243274453
 31
0.0
210
0.0
220
0.0
230
1.0
 40
0.9990826929
 41
3.141592653589793
 42
3.14203951728057
  0
SPLINE
  5
D3
330
B8
100
AcDbEntity
  8
$DDT_AUDIT_GENERATED_(6C)
  6
Continuous
 62
     7
100
AcDbSpline
210
0.0
220
0.0
230
1.0
 70
     8
 71
     3
 72
    20
 73
    16
 74
     0
 42
0.0000000269922162
 43
0.0000000001
 40
0.0
 40
0.0
 40
0.0
 40
0.0
 40
0.1249999999999998
 40
0.1249999999999998
 40
0.2499999999999994
 40
0.2499999999999994
 40
0.3749999999999992
 40
0.3749999999999992
 40
0.4999999999999989
 40
0.4999999999999989
 40
0.6249999999999984
 40
0.6249999999999984
 40
0.749999999999999
 40
0.749999999999999
 40
0.7922714120372469
 40
0.7922714120372469
 40
0.7922714120372469
 40
0.7922714120372469
 10
110.3295492486048
 20
139.740192231642
 30
0.0
 10
110.3128551907689
 20
139.743445751624
 30
0.0
 10
110.2957821315762
 20
139.7453618316547
 30
0.0
 10
110.2628347480303
 20
139.7462763832096
 30
0.0
 10
110.2467362600199
 20
139.74533572504
 30
0.0
 10
110.2152951732213
 20
139.7406381487268
 30
0.0
 10
110.1999312631409
 20
139.7368365093623
 30
0.0
 10
110.1711858319966
 20
139.7266696686163
 30
0.0
 10
110.1576391563962
 20
139.7202913940176
 30
0.0
 10
110.132230909217
 20
139.7048934175645
 30
0.0
 10
110.1204623837866
 20
139.6958882503837
 30
0.0
 10
110.099551281132
 20
139.6759178055427
 30
0.0
 10
110.0902818313644
 20
139.6648820118388
 30
0.0
 10
110.0795169203877
 20
139.6486623602233
 30
0.0
 10
110.0769539678648
 20
139.6444610897622
 30
0.0
 10
110.0745519949844
 20
139.6401683999571
 30
0.0
  0
SPLINE
  5
D4
330
B8
100
AcDbEntity
  8
$DDT_AUDIT_GENERATED_(6C)
  6
Continuous
 62
     7
100
AcDbSpline
210
0.0
220
0.0
230
1.0
 70
     8
 71
     3
 72
    20
 73
    16
 74
     0
 42
0.0000000269922305
 43
0.0000000001
 40
0.2077303437323793
 40
0.2077303437323793
 40
0.2077303437323793
 40
0.2077303437323793
 40
0.25
 40
0.25
 40
0.375
 40
0.375
 40
0.5
 40
0.5
 40
0.625
 40
0.625
 40
0.75
 40
0.75
 40
0.875
 40
0.875
 40
1.0
 40
1.0
 40
1.0
 40
1.0
 10
61.62544760807926
 20
139.6401690957336
 30
0.0
 10
61.62304571137476
 20
139.6444616126243
 30
0.0
 10
61.62048285962616
 20
139.6486626985077
 30
0.0
 10
61.60971815870355
 20
139.6648820066112
 30
0.0
 10
61.60044874256116
 20
139.675917787952
 30
0.0
 10
61.57953752075054
 20
139.6958883365156
 30
0.0
 10
61.56776870976336
 20
139.7048936659793
 30
0.0
 10
61.54236086316774
 20
139.720291364653
 30
0.0
 10
61.52881428403249
 20
139.7266696231481
 30
0.0
 10
61.50006874023459
 20
139.7368365125989
 30
0.0
 10
61.48470467472502
 20
139.7406381672001
 30
0.0
 10
61.45326402763669
 20
139.7453356863064
 30
0.0
 10
61.43716560886912
 20
139.7462763787541
 30
0.0
 10
61.40421801900754
 20
139.7453618501966
 30
0.0
 10
61.38714485209059
 20
139.7434457599767
 30
0.0
 10
61.37045075139522
 20
139.740192231642
 30
0.0
  0
SPLINE
  5
D5
330
B8
100
AcDbEntity
  8
$DDT_AUDIT_GENERATED_(6C)
  6
Continuous
 62
     7
100
AcDbSpline
210
0.0
220
0.0
230
1.0
 70
     8
 71
     3
 72
     8
 73
     4
 74
     0
 42
0.0000000224751219
 43
0.0000000001
 40
0.5790076387680745
 40
0.5790076387680745
 40
0.5790076387680745
 40
0.5790076387680745
 40
0.5867296230411598
 40
0.5867296230411598
 40
0.5867296230411598
 40
0.5867296230411598
 10
111.8499993525783
 20
141.1307267591585
 30
0.0
 10
111.8500000874707
 20
141.1295898022975
 30
0.0
 10
111.8500000153682
 20
141.1284445331705
 30
0.0
 10
111.849999138376
 20
141.1272909677882
 30
0.0
  0
SPLINE
  5
D6
330
B8
100
AcDbEntity
  8
$DDT_AUDIT_GENERATED_(6C)
  6
Continuous
 62
     7
100
AcDbSpline
210
0.0
220
0.0
230
1.0
 70
     8
 71
     3
 72
     8
 73
     4
 74
     0
 42
0.0000000226875318
 43
0.0000000001
 40
0.4161226052893414
 40
0.4161226052893414
 40
0.4161226052893414
 40
0.4161226052893414
 40
0.4233289252848849
 40
0.4233289252848849
 40
0.4233289252848849
 40
0.4233289252848849
 10
59.8500005853968
 20
141.127322316453
 30
0.0
 10
59.84999977987845
 20
141.1283878864996
 30
0.0
 10
59.84999966230813
 20
141.129446665521
 30
0.0
 10
59.85000023590487
 20
141.1304986509205
 30
0.0
  0
ELLIPSE
  5
D7
330
B8
100
AcDbEntity
  8
$DDT_AUDIT_GENERATED_(6C)
  6
Continuous
 62
     7
100
AcDbEllipse
 10
85.85
 20
141.474596809
 30
0.0
 11
-25.7
 21
4.163336342344337E-14
 31
0.0
210
0.0
220
0.0
230
1.0
 40
0.5984782765
 41
0.0222020518345981
 42
3.11939060175521
  0
ELLIPSE
  5
D8
330
B8
100
AcDbEntity
  8
$DDT_AUDIT_GENERATED_(6C)
  6
Continuous
 62
     7
100
AcDbEllipse
 10
85.85
 20
107.755252666
 30
0.0
 11
26.0
 21
-2.775557561562891E-14
 31
0.0
210
0.0
220
0.0
230
1.0
 40
0.0261769483
 41
0.0
 42
3.141592653589793
  0
ELLIPSE
  5
D9
330
B8
100
AcDbEntity
  8
$DDT_AUDIT_GENERATED_(6C)
  6
Continuous
 62
     7
100
AcDbEllipse
 10
85.85
 20
107.0559834437
 30
0.0
 11
-25.32621567611576
 21
2.775557561562892E-14
 31
0.0
210
0.0
220
0.0
230
1.0
 40
0.0261769483
 41
0.7667092756195113
 42
0.7735997064237006
  0
ELLIPSE
  5
DA
330
B8
100
AcDbEntity
  8
$DDT_AUDIT_GENERATED_(6C)
  6
Continuous
 62
     7
100
AcDbEllipse
 10
85.85
 20
107.0559834437
 30
0.0
 11
-25.32621567611576
 21
2.775557561562892E-14
 31
0.0
210
0.0
220
0.0
230
1.0
 40
0.0261769483
 41
-3.915192360013494
 42
-3.908082655938711
  0
LINE
  5
DB
330
B8
100
AcDbEntity
  8
$DDT_AUDIT_GENERATED_(6C)
  6
Continuous
 62
     7
100
AcDbLine
 10
59.85
 20
141.1291668745
 30
0.0
 11
59.85
 21
107.755252666
 31
0.0
  0
LINE
  5
DC
330
B8
100
AcDbEntity
  8
$DDT_AUDIT_GENERATED_(6C)
  6
Continuous
 62
     7
100
AcDbLine
 10
111.85
 20
107.755252666
 30
0.0
 11
111.85
 21
141.1291799842
 31
0.0
  0
LINE
  5
DD
330
B8
100
AcDbEntity
  8
$DDT_AUDIT_GENERATED_(6C)
  6
Continuous
 62
     7
100
AcDbLine
 10
60.4882315484
 20
141.5482500271
 30
0.0
 11
60.1621338283
 21
141.5482500271
 31
0.0
  0
LINE
  5
DE
330
B8
100
AcDbEntity
  8
$DDT_AUDIT_GENERATED_(6C)
  6
Continuous
 62
     7
100
AcDbLine
 10
111.5378623794
 20
141.5482500271
 30
0.0
 11
111.2117419706
 21
141.5482500271
 31
0.0
  0
SPLINE
  5
DF
330
B8
100
AcDbEntity
  8
$DDT_AUDIT_GENERATED_(6C)
  6
Continuous
 62
     7
100
AcDbSpline
210
0.0
220
0.0
230
1.0
 70
     8
 71
     3
 72
    40
 73
    36
 74
     0
 42
0.0000000501939661
 43
0.0000000001
 40
0.0
 40
0.0
 40
0.0
 40
0.0
 40
0.0024571612044695
 40
0.0366974462139763
 40
0.0708810850809771
 40
0.1050042005096175
 40
0.1390622040176219
 40
0.1730496839579524
 40
0.2069602799436643
 40
0.2407865443366892
 40
0.2745197927390898
 40
0.3081499474998181
 40
0.3416653806310252
 40
0.3750527662057527
 40
0.4082969562935332
 40
0.441380899274019
 40
0.4742856243377534
 40
0.5069903200095027
 40
0.5394725366854074
 40
0.5717085415526943
 40
0.603673848119222
 40
0.6353439290906207
 40
0.6666951024177739
 40
0.697705556459317
 40
0.7283564568201425
 40
0.7586330563957623
 40
0.7885257235029561
 40
0.818030804979074
 40
0.8471512614948962
 40
0.8758970398855636
 40
0.904285179620817
 40
0.9323396816115166
 40
0.9600911872902471
 40
0.9875765284391335
 40
1.0
 40
1.0
 40
1.0
 40
1.0
 10
111.2117422773096
 20
141.5482420241776
 30
0.0
 10
111.2115537824945
 20
141.5482439273864
 30
0.0
 10
111.2091299194238
 20
141.5482712107266
 30
0.0
 10
111.2040211148342
 20
141.548166108414
 30
0.0
 10
111.196951339192
 20
141.5479133875773
 30
0.0
 10
111.1898265081036
 20
141.5474747702367
 30
0.0
 10
111.1827575282429
 20
141.5468753607069
 30
0.0
 10
111.1757219665264
 20
141.5461110480078
 30
0.0
 10
111.1687332332895
 20
141.5451859032247
 30
0.0
 10
111.1617954034435
 20
141.5441022274902
 30
0.0
 10
111.1549153108203
 20
141.5428632561263
 30
0.0
 10
111.1480993426464
 20
141.541472487458
 30
0.0
 10
111.1413543159676
 20
141.5399339177175
 30
0.0
 10
111.134687257725
 20
141.5382520376329
 30
0.0
 10
111.128105466768
 20
141.536431894101
 30
0.0
 10
111.1216164852463
 20
141.5344791328039
 30
0.0
 10
111.1152280731798
 20
141.532400039727
 30
0.0
 10
111.1089481552852
 20
141.5302015709222
 30
0.0
 10
111.1027847427093
 20
141.5278913662433
 30
0.0
 10
111.0967458246694
 20
141.5254777402602
 30
0.0
 10
111.0908392296411
 20
141.5229696442684
 30
0.0
 10
111.0850724582825
 20
141.5203765942759
 30
0.0
 10
111.0794524949548
 20
141.5177085625393
 30
0.0
 10
111.0739856074726
 20
141.5149758327912
 30
0.0
 10
111.0686771536784
 20
141.5121888270103
 30
0.0
 10
111.0635313960513
 20
141.5093579032925
 30
0.0
 10
111.0585513960206
 20
141.5064931738851
 30
0.0
 10
111.0537387973804
 20
141.5036042254183
 30
0.0
 10
111.049094251863
 20
141.5007002406088
 30
0.0
 10
111.0446157605098
 20
141.4977887572757
 30
0.0
 10
111.0403049119799
 20
141.4948795729805
 30
0.0
 10
111.0361444278105
 20
141.4919699848242
 30
0.0
 10
111.0321811274249
 20
141.4890986772061
 30
0.0
 10
111.0289339567566
 20
141.4866784351046
 30
0.0
 10
111.0272529361226
 20
141.4853756455919
 30
0.0
 10
111.0266386639915
 20
141.4848989841594
 30
0.0
  0
SPLINE
  5
E0
330
B8
100
AcDbEntity
  8
$DDT_AUDIT_GENERATED_(6C)
  6
Continuous
 62
     7
100
AcDbSpline
210
0.0
220
0.0
230
1.0
 70
     8
 71
     3
 72
    52
 73
    48
 74
     0
 42
0.0000000305240368
 43
0.0000000001
 40
0.0
 40
0.0
 40
0.0
 40
0.0
 40
0.0062258496212254
 40
0.0254706961978092
 40
0.0450934139156268
 40
0.0650670131190221
 40
0.08536366580717
 40
0.1059550829359736
 40
0.126812762537852
 40
0.1479082053652778
 40
0.1692130981074904
 40
0.1906994656085765
 40
0.2123426659644883
 40
0.2337717279635621
 40
0.2557092001370107
 40
0.2777706120638216
 40
0.2999505106557754
 40
0.3222425977189423
 40
0.344641285117287
 40
0.3671416407285948
 40
0.3897393415705753
 40
0.4124306285130949
 40
0.4352122630306043
 40
0.4580814861481806
 40
0.4810359799904267
 40
0.504073831723374
 40
0.527193500190387
 40
0.5503937849371209
 40
0.5736737977290215
 40
0.5970329362545937
 40
0.6204708601723854
 40
0.643987469019744
 40
0.6675828821185064
 40
0.6912575626474424
 40
0.7149274677595613
 40
0.7386533912668292
 40
0.76242900793084
 40
0.7862550149058041
 40
0.8101322350685777
 40
0.8340616135332579
 40
0.8580442080412766
 40
0.8820811801697457
 40
0.9061738117435904
 40
0.9303332030717305
 40
0.9543768632365276
 40
0.978532938292981
 40
1.0
 40
1.0
 40
1.0
 40
1.0
 10
110.9150265329302
 20
141.2938556495322
 30
0.0
 10
110.9149103028887
 20
141.2935361634164
 30
0.0
 10
110.9145036646029
 20
141.2924186969986
 30
0.0
 10
110.9136476632011
 20
141.2900903439636
 30
0.0
 10
110.9125174339126
 20
141.2870355076827
 30
0.0
 10
110.9112847678888
 20
141.2837293242907
 30
0.0
 10
110.9099682352404
 20
141.2802226345424
 30
0.0
 10
110.9085630263401
 20
141.2765044750954
 30
0.0
 10
110.9070710996774
 20
141.2725815221276
 30
0.0
 10
110.9054929189406
 20
141.2684563183738
 30
0.0
 10
110.9038295326991
 20
141.264132776388
 30
0.0
 10
110.9020825044822
 20
141.2596159418215
 30
0.0
 10
110.9002613825762
 20
141.2549313208474
 30
0.0
 10
110.8983569890617
 20
141.2500553746607
 30
0.0
 10
110.8963717710732
 20
141.2449949480794
 30
0.0
 10
110.89429366333
 20
141.2397200338777
 30
0.0
 10
110.8921345126126
 20
141.2342611991538
 30
0.0
 10
110.8898945407679
 20
141.2286193042557
 30
0.0
 10
110.887574069008
 20
141.2227953994982
 30
0.0
 10
110.8851733977293
 20
141.2167904243616
 30
0.0
 10
110.8826928212103
 20
141.2106052515443
 30
0.0
 10
110.880132620154
 20
141.2042406733646
 30
0.0
 10
110.8774930608964
 20
141.1976974047637
 30
0.0
 10
110.8747743934417
 20
141.190976082761
 30
0.0
 10
110.8719768503482
 20
141.184077267617
 30
0.0
 10
110.8691006458108
 20
141.1770014440602
 30
0.0
 10
110.8661459751057
 20
141.1697490230369
 30
0.0
 10
110.8631130140594
 20
141.1623203431864
 30
0.0
 10
110.8600019194219
 20
141.1547156742206
 30
0.0
 10
110.8568128267109
 20
141.1469352138527
 30
0.0
 10
110.8535458582093
 20
141.1389791092732
 30
0.0
 10
110.8502010934288
 20
141.1308473867458
 30
0.0
 10
110.8467786738948
 20
141.1225402091154
 30
0.0
 10
110.8432825585655
 20
141.1140669713009
 30
0.0
 10
110.8397139482611
 20
141.1054302930015
 30
0.0
 10
110.8360747303663
 20
141.0966344365799
 30
0.0
 10
110.832362334774
 20
141.0876728909518
 30
0.0
 10
110.8285772485229
 20
141.0785465312323
 30
0.0
 10
110.8247196043804
 20
141.0692553680626
 30
0.0
 10
110.8207894515877
 20
141.0597992050167
 30
0.0
 10
110.8167870812611
 20
141.0501784178734
 30
0.0
 10
110.812711801335
 20
141.0403910234058
 30
0.0
 10
110.8085659641593
 20
141.0304423150212
 30
0.0
 10
110.8043491362777
 20
141.0203309720833
 30
0.0
 10
110.8000959374694
 20
141.0101395410014
 30
0.0
 10
110.7958356755079
 20
140.9999374176732
 30
0.0
 10
110.793255690168
 20
140.9937633165943
 30
0.0
 10
110.7918158276575
 20
140.9903177554131
 30
0.0
  0
SPLINE
  5
E1
330
B8
100
AcDbEntity
  8
$DDT_AUDIT_GENERATED_(6C)
  6
Continuous
 62
     7
100
AcDbSpline
210
0.0
220
0.0
230
1.0
 70
     8
 71
     3
 72
    17
 73
    13
 74
     0
 42
0.0000000005618113
 43
0.0000000001
 40
0.0142285785945861
 40
0.0142285785945861
 40
0.0142285785945861
 40
0.0142285785945861
 40
0.019682993048864
 40
0.0293791584902638
 40
0.0399496731303349
 40
0.0509917299122523
 40
0.0622851251645672
 40
0.0737178422145279
 40
0.0852320286400876
 40
0.0967964906410652
 40
0.1083933885696292
 40
0.1193016254278336
 40
0.1193016254278336
 40
0.1193016254278336
 40
0.1193016254278336
 10
111.0524078603016
 20
141.5027476062323
 30
0.0
 10
111.0476130909283
 20
141.5011422255887
 30
0.0
 10
111.0275382562906
 20
141.4947746195132
 30
0.0
 10
110.9700012819692
 20
141.4810238011422
 30
0.0
 10
110.8674199937535
 20
141.4618745888955
 30
0.0
 10
110.7277235133142
 20
141.441070348116
 30
0.0
 10
110.5521513964554
 20
141.4192695267651
 30
0.0
 10
110.3423071601452
 20
141.397133175355
 30
0.0
 10
110.0991322586225
 20
141.3748513616661
 30
0.0
 10
109.8235054454159
 20
141.3526293462926
 30
0.0
 10
109.5223603578493
 20
141.3309971830117
 30
0.0
 10
109.3043108458376
 20
141.3168756932494
 30
0.0
 10
109.194201388567
 20
141.3100751112975
 30
0.0
  0
SPLINE
  5
E2
330
B8
100
AcDbEntity
  8
$DDT_AUDIT_GENERATED_(6C)
  6
Continuous
 62
     7
100
AcDbSpline
210
0.0
220
0.0
230
1.0
 70
     8
 71
     3
 72
    17
 73
    13
 74
     0
 42
0.0000000005617597
 43
0.0000000001
 40
0.8806986732095483
 40
0.8806986732095483
 40
0.8806986732095483
 40
0.8806986732095483
 40
0.8905576659292052
 40
0.9021604122305802
 40
0.9137337087564584
 40
0.9252618073500539
 40
0.9367174728167706
 40
0.9480506988039757
 40
0.9591651675255121
 40
0.9698696257811296
 40
0.9797972406230304
 40
0.9857603838243224
 40
0.9857603838243224
 40
0.9857603838243224
 40
0.9857603838243224
 10
62.50578967686187
 20
141.3100756247179
 30
0.0
 10
62.40627176121252
 20
141.3162220157137
 30
0.0
 10
62.19749536215595
 20
141.3296804085204
 30
0.0
 10
61.90286392343756
 20
141.3506351767403
 30
0.0
 10
61.62421749499971
 20
141.3728581203182
 30
0.0
 10
61.37791670038412
 20
141.3951602235956
 30
0.0
 10
61.16480907264137
 20
141.4173439062823
 30
0.0
 10
60.98577468844854
 20
141.4392508114971
 30
0.0
 10
60.84237974292768
 20
141.4602486058872
 30
0.0
 10
60.73590466174611
 20
141.4797738314743
 30
0.0
 10
60.67456440054826
 20
141.4941510510503
 30
0.0
 10
60.65285323172704
 20
141.5009955804401
 30
0.0
 10
60.64761505768803
 20
141.5027431187773
 30
0.0
  0
SPLINE
  5
E3
330
B8
100
AcDbEntity
  8
$DDT_AUDIT_GENERATED_(6C)
  6
Continuous
 62
     7
100
AcDbSpline
210
0.0
220
0.0
230
1.0
 70
     8
 71
     3
 72
    36
 73
    32
 74
     0
 42
0.0000000081066088
 43
0.0000000001
 40
0.0
 40
0.0
 40
0.0
 40
0.0
 40
0.0186233686012801
 40
0.0543634007080697
 40
0.090089806470623
 40
0.1258019819795589
 40
0.1614998265393554
 40
0.1971832404102792
 40
0.2328521247919644
 40
0.268506381812542
 40
0.3041459145216372
 40
0.3397706268812325
 40
0.3753804237569716
 40
0.4109752109108225
 40
0.4465548949935496
 40
0.4821193835307689
 40
0.5176685849250525
 40
0.5532024084349421
 40
0.5887207641740925
 40
0.624223563102112
 40
0.6597107170111002
 40
0.695182138523503
 40
0.730637741078678
 40
0.7660774389245452
 40
0.8015011471120841
 40
0.8369087814820655
 40
0.872300258660552
 40
0.9076754960480522
 40
0.9430344118109539
 40
0.9783769248738585
 40
1.0
 40
1.0
 40
1.0
 40
1.0
 10
110.791820694989
 20
140.9903289094983
 30
0.0
 10
110.7886279378081
 20
140.9827001834641
 30
0.0
 10
110.7807065834194
 20
140.9637829953641
 30
0.0
 10
110.7661745946953
 20
140.9294004529309
 30
0.0
 10
110.7492510486052
 20
140.8897879745342
 30
0.0
 10
110.7320126393655
 20
140.8498658763271
 30
0.0
 10
110.7146435640454
 20
140.8100678892026
 30
0.0
 10
110.6970947762961
 20
140.7702782848743
 30
0.0
 10
110.6793796702156
 20
140.730528423086
 30
0.0
 10
110.6614949209206
 20
140.6908102741946
 30
0.0
 10
110.6434416824036
 20
140.6511263554127
 30
0.0
 10
110.6252199110353
 20
140.6114763585968
 30
0.0
 10
110.6068298856332
 20
140.5718607311274
 30
0.0
 10
110.5882718004003
 20
140.5322797170139
 30
0.0
 10
110.5695458739216
 20
140.4927336136835
 30
0.0
 10
110.5506523199542
 20
140.4532227032002
 30
0.0
 10
110.5315913552846
 20
140.4137472707756
 30
0.0
 10
110.5123631974466
 20
140.3743075995076
 30
0.0
 10
110.4929680659482
 20
140.3349039729508
 30
0.0
 10
110.473406179604
 20
140.2955366701335
 30
0.0
 10
110.4536777659276
 20
140.2562059829417
 30
0.0
 10
110.4337830262073
 20
140.2169121516322
 30
0.0
 10
110.4137222656905
 20
140.1776556052846
 30
0.0
 10
110.3934954080297
 20
140.138436065067
 30
0.0
 10
110.3731038061432
 20
140.0992558886641
 30
0.0
 10
110.3525434885386
 20
140.0601075971784
 30
0.0
 10
110.3318303471709
 20
140.0210203936726
 30
0.0
 10
110.3109061994686
 20
139.9818866726071
 30
0.0
 10
110.2899891280037
 20
139.9431090492679
 30
0.0
 10
110.2710742746527
 20
139.908346762161
 30
0.0
 10
110.2603632735463
 20
139.8888189664588
 30
0.0
 10
110.2555661295691
 20
139.8800771090476
 30
0.0
  0
SPLINE
  5
E4
330
B8
100
AcDbEntity
  8
$DDT_AUDIT_GENERATED_(6C)
  6
Continuous
 62
     7
100
AcDbSpline
210
0.0
220
0.0
230
1.0
 70
     8
 71
     3
 72
    37
 73
    33
 74
     0
 42
0.0000000501890323
 43
0.0000000001
 40
0.0
 40
0.0
 40
0.0
 40
0.0
 40
0.0227851809676087
 40
0.0520499190691841
 40
0.0816152115800431
 40
0.1115309097120536
 40
0.1418391048266968
 40
0.1725733567153295
 40
0.2037579861541657
 40
0.235407533606608
 40
0.2675264933746598
 40
0.3001094212799861
 40
0.3331414820029133
 40
0.3665994528491353
 40
0.4004531360192423
 40
0.4346670703562207
 40
0.4692023913189417
 40
0.5040186698329584
 40
0.5390755779862035
 40
0.574334269800987
 40
0.609758417581724
 40
0.6453148962772405
 40
0.6809741480827994
 40
0.7167102841137786
 40
0.7525009890872247
 40
0.7883272928745242
 40
0.8241732634949113
 40
0.860025664310901
 40
0.89587360597237
 40
0.9317082132406709
 40
0.9675223185877292
 40
1.0
 40
1.0
 40
1.0
 40
1.0
 10
60.67335696267736
 20
141.4849047127487
 30
0.0
 10
60.67222052716087
 20
141.4857792080268
 30
0.0
 10
60.67002137539772
 20
141.4874677165816
 30
0.0
 10
60.66608132663711
 20
141.4903713494799
 30
0.0
 10
60.66179415360166
 20
141.4934263460729
 30
0.0
 10
60.65729534389711
 20
141.4965143000404
 30
0.0
 10
60.65262213793682
 20
141.4995997073138
 30
0.0
 10
60.64775796712462
 20
141.5026833143044
 30
0.0
 10
60.64270271207568
 20
141.505754350371
 30
0.0
 10
60.63745382539487
 20
141.5088036143815
 30
0.0
 10
60.63201175026821
 20
141.511820016162
 30
0.0
 10
60.62637861125465
 20
141.5147917264972
 30
0.0
 10
60.62055863757699
 20
141.5177061455106
 30
0.0
 10
60.6145579851411
 20
141.5205502610932
 30
0.0
 10
60.60838459347261
 20
141.5233109432084
 30
0.0
 10
60.60204791701806
 20
141.5259752675163
 30
0.0
 10
60.5955586035582
 20
141.5285308095671
 30
0.0
 10
60.58892813878561
 20
141.5309658958515
 30
0.0
 10
60.58216849370699
 20
141.5332697938416
 30
0.0
 10
60.57529180277993
 20
141.5354328351696
 30
0.0
 10
60.56831009201137
 20
141.537446473893
 30
0.0
 10
60.56123507171313
 20
141.5393032881436
 30
0.0
 10
60.55407797851989
 20
141.540996938911
 30
0.0
 10
60.54684952378843
 20
141.5425220943878
 30
0.0
 10
60.53955970452152
 20
141.5438743514459
 30
0.0
 10
60.53221834281067
 20
141.545050093404
 30
0.0
 10
60.52483306469026
 20
141.5460465579297
 30
0.0
 10
60.51741695684424
 20
141.5468611260192
 30
0.0
 10
60.50996016544247
 20
141.5474935471406
 30
0.0
 10
60.50253608263752
 20
141.5479372491097
 30
0.0
 10
60.49514062733931
 20
141.5482029621325
 30
0.0
 10
60.49072249276125
 20
141.5482290174421
 30
0.0
 10
60.48823195992877
 20
141.5482395868997
 30
0.0
  0
SPLINE
  5
E5
330
B8
100
AcDbEntity
  8
$DDT_AUDIT_GENERATED_(6C)
  6
Continuous
 62
     7
100
AcDbSpline
210
0.0
220
0.0
230
1.0
 70
     8
 71
     3
 72
    52
 73
    48
 74
     0
 42
0.0000000304619988
 43
0.0000000001
 40
0.0
 40
0.0
 40
0.0
 40
0.0
 40
0.0150475489245035
 40
0.0392691722402775
 40
0.0634096309035621
 40
0.0874523581786467
 40
0.1113831365391224
 40
0.1353476246387181
 40
0.1593014415459673
 40
0.1832030175860244
 40
0.207053635939367
 40
0.230854500386078
 40
0.2546067131646048
 40
0.2783112661836072
 40
0.3019690316625763
 40
0.3255807517155958
 40
0.3491470456933919
 40
0.3726662379970411
 40
0.396120576922671
 40
0.4195099239596263
 40
0.4428343814771042
 40
0.4660938323838625
 40
0.4892879194383621
 40
0.5124160228280641
 40
0.5354772358060971
 40
0.5584703378916569
 40
0.5813973659402574
 40
0.6040698859900027
 40
0.6268570842442527
 40
0.6495614898663556
 40
0.6721672916051763
 40
0.6946584779804345
 40
0.7170185508819837
 40
0.739230501486598
 40
0.7612767864692195
 40
0.7831393059257592
 40
0.80479883753473
 40
0.8264341063688538
 40
0.8479422711322941
 40
0.8692583815282809
 40
0.8903712284734682
 40
0.9112686726322111
 40
0.9319375041531885
 40
0.9523634397010048
 40
0.9725311432984004
 40
0.9924242760058654
 40
1.0
 40
1.0
 40
1.0
 40
1.0
 10
60.90818808502145
 20
140.9903087515483
 30
0.0
 10
60.90717135425525
 20
140.992741483018
 30
0.0
 10
60.90492351438451
 20
140.9981200471767
 30
0.0
 10
60.9010056212495
 20
141.0075010953665
 30
0.0
 10
60.89671869420945
 20
141.0177715793743
 30
0.0
 10
60.89247779790269
 20
141.0279388358874
 30
0.0
 10
60.88831875478699
 20
141.0379172773474
 30
0.0
 10
60.88422481510812
 20
141.0477474083524
 30
0.0
 10
60.8801964353303
 20
141.057428526272
 30
0.0
 10
60.87623798729035
 20
141.066950482219
 30
0.0
 10
60.87235217097924
 20
141.0763071163284
 30
0.0
 10
60.868538999123
 20
141.085498718787
 30
0.0
 10
60.86479857743446
 20
141.0945253496656
 30
0.0
 10
60.86113100717597
 20
141.103387071907
 30
0.0
 10
60.85753640991413
 20
141.1120838914227
 30
0.0
 10
60.85401492793367
 20
141.1206157547096
 30
0.0
 10
60.85056680120194
 20
141.1289823627013
 30
0.0
 10
60.8471932051973
 20
141.1371811215816
 30
0.0
 10
60.84389533350916
 20
141.1452093623667
 30
0.0
 10
60.84067418723942
 20
141.15306485407
 30
0.0
 10
60.83752991813058
 20
141.1607474138799
 30
0.0
 10
60.8344626735799
 20
141.1682568526358
 30
0.0
 10
60.83147262961348
 20
141.1755928925754
 30
0.0
 10
60.82855995237284
 20
141.18275525957
 30
0.0
 10
60.82572494085643
 20
141.1897433314148
 30
0.0
 10
60.82296735362475
 20
141.1965577866542
 30
0.0
 10
60.82029579980003
 20
141.2031773968452
 30
0.0
 10
60.81770192227018
 20
141.2096228727276
 30
0.0
 10
60.81518622351923
 20
141.2158928687569
 30
0.0
 10
60.81274344077956
 20
141.222000555255
 30
0.0
 10
60.81038192953525
 20
141.227924954563
 30
0.0
 10
60.80810325458205
 20
141.2336619418718
 30
0.0
 10
60.80590889604497
 20
141.2392075206625
 30
0.0
 10
60.80380025335711
 20
141.244557805541
 30
0.0
 10
60.80177864935551
 20
141.2497090064242
 30
0.0
 10
60.79984529746444
 20
141.254657489523
 30
0.0
 10
60.79799580850529
 20
141.2594139455233
 30
0.0
 10
60.7962261358502
 20
141.2639881489172
 30
0.0
 10
60.79453728602108
 20
141.2683769300817
 30
0.0
 10
60.79293335601886
 20
141.2725688422945
 30
0.0
 10
60.79141608540428
 20
141.2765583022574
 30
0.0
 10
60.78998516389728
 20
141.2803449264857
 30
0.0
 10
60.78864195036892
 20
141.2839237638492
 30
0.0
 10
60.78738146152602
 20
141.2873064276444
 30
0.0
 10
60.78622155008704
 20
141.2904440512974
 30
0.0
 10
60.7853229062829
 20
141.292891518104
 30
0.0
 10
60.7848886001968
 20
141.294087132098
 30
0.0
 10
60.78474837210984
 20
141.2944732886518
 30
0.0
  0
SPLINE
  5
E6
330
B8
100
AcDbEntity
  8
$DDT_AUDIT_GENERATED_(6C)
  6
Continuous
 62
     7
100
AcDbSpline
210
0.0
220
0.0
230
1.0
 70
     8
 71
     3
 72
    32
 73
    28
 74
     0
 42
0.0000000398005578
 43
0.0000000001
 40
0.0
 40
0.0
 40
0.0
 40
0.0
 40
0.010101881937857
 40
0.0533641417008781
 40
0.0966442137365323
 40
0.1399383918794158
 40
0.176331863139497
 40
0.2131561791980418
 40
0.2514429544613577
 40
0.2945170504035184
 40
0.3374504064965612
 40
0.3802549701010164
 40
0.4229466383188827
 40
0.4655407341446401
 40
0.5080520252604636
 40
0.5504947479023047
 40
0.5928826313461009
 40
0.6352289226357796
 40
0.6775464111382566
 40
0.7198474526375677
 40
0.7578044202721389
 40
0.7976830989376714
 40
0.8411994893009593
 40
0.884613338626864
 40
0.9279314215780562
 40
0.9711636824480135
 40
0.9976955629807978
 40
0.9976955629807978
 40
0.9976955629807978
 40
0.9976955629807978
 10
110.2555391381873
 20
139.8800600623314
 30
0.0
 10
110.255153339146
 20
139.879349661792
 30
0.0
 10
110.2534076177399
 20
139.8761370767996
 30
0.0
 10
110.2497838446784
 20
139.8697307190592
 30
0.0
 10
110.2449733939243
 20
139.8614209801679
 30
0.0
 10
110.2401995205902
 20
139.853430959112
 30
0.0
 10
110.2355570741722
 20
139.845863873294
 30
0.0
 10
110.2309706276332
 20
139.8385662558934
 30
0.0
 10
110.2259787934143
 20
139.8308114928722
 30
0.0
 10
110.2205755479188
 20
139.8226282808994
 30
0.0
 10
110.2148080439759
 20
139.8141198472317
 30
0.0
 10
110.2088897671474
 20
139.8056096109247
 30
0.0
 10
110.2028195736569
 20
139.7970960894769
 30
0.0
 10
110.196595981541
 20
139.788577491107
 30
0.0
 10
110.1902174921703
 20
139.780052176758
 30
0.0
 10
110.1836825980803
 20
139.7715186478287
 30
0.0
 10
110.1769896607057
 20
139.7629753929113
 30
0.0
 10
110.1701374129983
 20
139.7544214704405
 30
0.0
 10
110.1631230927459
 20
139.7458542936884
 30
0.0
 10
110.1561947050521
 20
139.7375711140722
 30
0.0
 10
110.1492443438386
 20
139.7294254877332
 30
0.0
 10
110.1420816336041
 20
139.7211874987131
 30
0.0
 10
110.1344470924534
 20
139.7125802831183
 30
0.0
 10
110.1264225015498
 20
139.7037164618772
 30
0.0
 10
110.1183108704596
 20
139.6949388186962
 30
0.0
 10
110.1109103228271
 20
139.6870736176766
 30
0.0
 10
110.1066415870112
 20
139.6826410568452
 30
0.0
 10
110.1047722911392
 20
139.6807031847327
 30
0.0
  0
SPLINE
  5
E7
330
B8
100
AcDbEntity
  8
$DDT_AUDIT_GENERATED_(6C)
  6
Continuous
 62
     7
100
AcDbSpline
210
0.0
220
0.0
230
1.0
 70
     8
 71
     3
 72
    36
 73
    32
 74
     0
 42
0.0000000081066088
 43
0.0000000001
 40
0.0
 40
0.0
 40
0.0
 40
0.0
 40
0.0184439598127154
 40
0.0537732457375836
 40
0.0891158853773203
 40
0.1244748834116613
 40
0.159850158580443
 40
0.1952416294405549
 40
0.2306492137969353
 40
0.2660728286921556
 40
0.3015123903990096
 40
0.3369678144096586
 40
0.3724390154326913
 40
0.4079259073754939
 40
0.4434284033443009
 40
0.4789464156303247
 40
0.514479855702751
 40
0.5500286341991706
 40
0.5855926609187084
 40
0.6211718448123961
 40
0.6567660939713802
 40
0.6923753156241989
 40
0.7279994161248678
 40
0.763638300945102
 40
0.7992918746636323
 40
0.8349600409616805
 40
0.8706427026120073
 40
0.9063397614712931
 40
0.9420511184730361
 40
0.9777766736174579
 40
1.0
 40
1.0
 40
1.0
 40
1.0
 10
61.44443387042879
 20
139.8800771090515
 30
0.0
 10
61.44034127240055
 20
139.8875336101387
 30
0.0
 10
61.43020923683048
 20
139.9060013624343
 30
0.0
 10
61.4119148950201
 20
139.9395958097947
 30
0.0
 10
61.39099860356483
 20
139.9783414793099
 30
0.0
 10
61.37006618597405
 20
140.0174589292572
 30
0.0
 10
61.34934713107125
 20
140.0565254059186
 30
0.0
 10
61.32878003461354
 20
140.095654218821
 30
0.0
 10
61.30838165233851
 20
140.134814637381
 30
0.0
 10
61.2881477810347
 20
140.1740145521437
 30
0.0
 10
61.26807983566688
 20
140.2132514971285
 30
0.0
 10
61.24817772317834
 20
140.2525257823226
 30
0.0
 10
61.22844175324182
 20
140.2918369724386
 30
0.0
 10
61.20887212592007
 20
140.3311848310624
 30
0.0
 10
61.1894690690342
 20
140.3705690674863
 30
0.0
 10
61.17023280131359
 20
140.4099894046065
 30
0.0
 10
61.15116354230307
 20
140.4494455606273
 30
0.0
 10
61.13226150956694
 20
140.4889372542698
 30
0.0
 10
61.11352691992066
 20
140.5284642022135
 30
0.0
 10
61.09495998725599
 20
140.5680261240883
 30
0.0
 10
61.07656092997342
 20
140.6076227250196
 30
0.0
 10
61.05832994336476
 20
140.6472537604624
 30
0.0
 10
61.04026730266536
 20
140.6869187941442
 30
0.0
 10
61.02237297819237
 20
140.7266181019561
 30
0.0
 10
61.00464807252141
 20
140.7663492964606
 30
0.0
 10
60.98708945352112
 20
140.8061199321486
 30
0.0
 10
60.96970979637857
 20
140.8459004331241
 30
0.0
 10
60.95246274017946
 20
140.8857998762574
 30
0.0
 10
60.93552237607415
 20
140.925409563142
 30
0.0
 10
60.92041914051239
 20
140.9611032705886
 30
0.0
 10
60.9119902461146
 20
140.9812256175467
 30
0.0
 10
60.90817930501102
 20
140.9903289094983
 30
0.0
  0
SPLINE
  5
E8
330
B8
100
AcDbEntity
  8
$DDT_AUDIT_GENERATED_(6C)
  6
Continuous
 62
     7
100
AcDbSpline
210
0.0
220
0.0
230
1.0
 70
     8
 71
     3
 72
    25
 73
    21
 74
     0
 42
0.0000000540665036
 43
0.0000000001
 40
0.0
 40
0.0
 40
0.0
 40
0.0
 40
0.0405046628353906
 40
0.1009292184318125
 40
0.1610470083119493
 40
0.2208678242724842
 40
0.2804011422374191
 40
0.3396561089943702
 40
0.3986415337862836
 40
0.4573658839294472
 40
0.5158372837582434
 40
0.574063516241064
 40
0.6320520267956627
 40
0.6898099288453766
 40
0.7473440107489617
 40
0.8046607438196944
 40
0.8617662911578408
 40
0.9186665170989011
 40
0.9753669970885298
 40
1.0
 40
1.0
 40
1.0
 40
1.0
 10
110.0745372963723
 20
139.6401762888336
 30
0.0
 10
110.073310199119
 20
139.6379816232857
 30
0.0
 10
110.0707158636351
 20
139.6333493552133
 30
0.0
 10
110.065977792933
 20
139.6252049957143
 30
0.0
 10
110.060668778252
 20
139.6163253433748
 30
0.0
 10
110.0551693032341
 20
139.607397686134
 30
0.0
 10
110.0495367943291
 20
139.5985111307014
 30
0.0
 10
110.0437562393035
 20
139.5896417906831
 30
0.0
 10
110.0378318798254
 20
139.5807959209439
 30
0.0
 10
110.0317628295805
 20
139.5719718448967
 30
0.0
 10
110.025549552995
 20
139.5631700658586
 30
0.0
 10
110.0191921939675
 20
139.5543906302801
 30
0.0
 10
110.012690845167
 20
139.5456336149312
 30
0.0
 10
110.0060461457937
 20
139.5368997779507
 30
0.0
 10
109.9992566554456
 20
139.5281874731405
 30
0.0
 10
109.9923287222206
 20
139.5195042618502
 30
0.0
 10
109.9852398422715
 20
139.5108237611771
 30
0.0
 10
109.9780746704699
 20
139.5022458042027
 30
0.0
 10
109.9719356441648
 20
139.4950589892107
 30
0.0
 10
109.9685815281244
 20
139.4912006848669
 30
0.0
 10
109.9673870040654
 20
139.4898278562717
 30
0.0
  0
SPLINE
  5
E9
330
B8
100
AcDbEntity
  8
$DDT_AUDIT_GENERATED_(6C)
  6
Continuous
 62
     7
100
AcDbSpline
210
0.0
220
0.0
230
1.0
 70
     8
 71
     3
 72
    32
 73
    28
 74
     0
 42
0.000000039785069
 43
0.0000000001
 40
0.000763951078873
 40
0.000763951078873
 40
0.000763951078873
 40
0.000763951078873
 40
0.0140775351782642
 40
0.0570302061483491
 40
0.1000486802794824
 40
0.1431422565671374
 40
0.1863204961259102
 40
0.2295932318640241
 40
0.2729705779203525
 40
0.3164629387777224
 40
0.3547444809833908
 40
0.3946186879707632
 40
0.4368298319859015
 40
0.4790554735607016
 40
0.5213089220129945
 40
0.5636035415084996
 40
0.6059531617310109
 40
0.6483721031397068
 40
0.6908752025769089
 40
0.7334778386446089
 40
0.77619595643686
 40
0.8190460909951516
 40
0.8620453886524921
 40
0.9052116253426072
 40
0.9437395432003346
 40
0.9836817332256074
 40
1.0
 40
1.0
 40
1.0
 40
1.0
 10
61.5955471678154
 20
139.6803506655266
 30
0.0
 10
61.59459709587521
 20
139.6813305885203
 30
0.0
 10
61.59111444389507
 20
139.6849255000326
 30
0.0
 10
61.58455305180663
 20
139.691864676701
 30
0.0
 10
61.57645287062198
 20
139.7005664682365
 30
0.0
 10
61.56843173406305
 20
139.7093657689711
 30
0.0
 10
61.56057885776928
 20
139.7181554690364
 30
0.0
 10
61.55286866495221
 20
139.726965761959
 30
0.0
 10
61.54530747487311
 20
139.735788759693
 30
0.0
 10
61.53819256058796
 20
139.744270051629
 30
0.0
 10
61.53143049756006
 20
139.752496200036
 30
0.0
 10
61.52489528352875
 20
139.7606070735494
 30
0.0
 10
61.51830099286347
 20
139.7689682417351
 30
0.0
 10
61.51174698103902
 20
139.7774672314509
 30
0.0
 10
61.50535428661252
 20
139.7859495159614
 30
0.0
 10
61.49912141370227
 20
139.7944161434075
 30
0.0
 10
61.49304656454388
 20
139.8028686603002
 30
0.0
 10
61.48712805463273
 20
139.8113086264565
 30
0.0
 10
61.48136423866021
 20
139.8197377031775
 30
0.0
 10
61.47575339210302
 20
139.8281578586636
 30
0.0
 10
61.47029428576351
 20
139.8365705025223
 30
0.0
 10
61.46498402571569
 20
139.8449798045337
 30
0.0
 10
61.45982618778454
 20
139.8533802795705
 30
0.0
 10
61.45498750460572
 20
139.8614897063325
 30
0.0
 10
61.45046491302618
 20
139.8692942616176
 30
0.0
 10
61.44692001007387
 20
139.8755493947393
 30
0.0
 10
61.44508208287652
 20
139.8789199282112
 30
0.0
 10
61.44445694826109
 20
139.8800674372407
 30
0.0
  0
SPLINE
  5
EA
330
B8
100
AcDbEntity
  8
$DDT_AUDIT_GENERATED_(6C)
  6
Continuous
 62
     7
100
AcDbSpline
210
0.0
220
0.0
230
1.0
 70
     8
 71
     3
 72
    74
 73
    70
 74
     0
 42
0.0000000001896368
 43
0.0000000001
 40
0.0
 40
0.0
 40
0.0
 40
0.0
 40
0.0161785365968036
 40
0.0328369798022963
 40
0.0493752033713615
 40
0.0657908685802678
 40
0.0820821101730896
 40
0.098247050498202
 40
0.1142847401897817
 40
0.1301942128514108
 40
0.1459751264329726
 40
0.1616276649881689
 40
0.1771521265519069
 40
0.1925497940764573
 40
0.2078219983949787
 40
0.2229707755255104
 40
0.2379986695844316
 40
0.2529084162003776
 40
0.2677036588789131
 40
0.2823881039458207
 40
0.296966127141934
 40
0.3114425114561725
 40
0.3258222456479818
 40
0.3401110371714086
 40
0.3543146417595918
 40
0.3684393527435206
 40
0.3824917299868534
 40
0.3964785069126379
 40
0.4104068816755656
 40
0.4242840794853633
 40
0.4381176623881776
 40
0.4519153143196577
 40
0.46568482452966
 40
0.479434168063007
 40
0.4931713282450007
 40
0.5069043591679847
 40
0.5206411787764056
 40
0.534389826981205
 40
0.5481582890123519
 40
0.5619545413190263
 40
0.5757863763396522
 40
0.5896614814707113
 40
0.603587422785427
 40
0.617571431227702
 40
0.6316207104635736
 40
0.6457420014639277
 40
0.6599418720726513
 40
0.6742266245340169
 40
0.6886020252335956
 40
0.7030737923608817
 40
0.7176469274694589
 40
0.7323262267770105
 40
0.7471160802146677
 40
0.7620202096103922
 40
0.7770422739221654
 40
0.7921850255579356
 40
0.8074510252070014
 40
0.8228423255705504
 40
0.8383602741427255
 40
0.8540061694459191
 40
0.8697803246355136
 40
0.8856829372113906
 40
0.9017136770119749
 40
0.9178715877672513
 40
0.9341557280154889
 40
0.9505642264912024
 40
0.9670952227547229
 40
0.983746382522743
 40
1.0
 40
1.0
 40
1.0
 40
1.0
 10
109.9673870040654
 20
139.4898278562717
 30
0.0
 10
109.8179999958535
 20
139.3186924005314
 30
0.0
 10
109.5564139351486
 20
139.0311109209392
 30
0.0
 10
109.0857892857451
 20
138.5494439532244
 30
0.0
 10
108.6052870618756
 20
138.0965484295526
 30
0.0
 10
108.0894338309013
 20
137.6424708898796
 30
0.0
 10
107.5552797285842
 20
137.2061734135527
 30
0.0
 10
106.9950147542732
 20
136.7783199336365
 30
0.0
 10
106.4140593301861
 20
136.3645618865087
 30
0.0
 10
105.8107925756241
 20
135.9625069402189
 30
0.0
 10
105.1873856174496
 20
135.5740301048369
 30
0.0
 10
104.5440019650239
 20
135.1986866274776
 30
0.0
 10
103.8818924178097
 20
134.837234330609
 30
0.0
 10
103.2017385873591
 20
134.48975092129
 30
0.0
 10
102.5045306505034
 20
134.1566398877093
 30
0.0
 10
101.7910961548394
 20
133.8380940157006
 30
0.0
 10
101.0623499946863
 20
133.534384336848
 30
0.0
 10
100.3191525330986
 20
133.2457045344254
 30
0.0
 10
99.56238729373432
 20
132.9722576525221
 30
0.0
 10
98.79291163848373
 20
132.7142095420231
 30
0.0
 10
98.01158403519874
 20
132.4717165500773
 30
0.0
 10
97.21924833316265
 20
132.2449128810868
 30
0.0
 10
96.4167369733611
 20
132.033918034973
 30
0.0
 10
95.60487250524727
 20
131.8388359936162
 30
0.0
 10
94.78446147232903
 20
131.6597565224071
 30
0.0
 10
93.9563005773863
 20
131.4967570748604
 30
0.0
 10
93.1211734380678
 20
131.3499037099492
 30
0.0
 10
92.27985058234445
 20
131.2192518986793
 30
0.0
 10
91.43309327688829
 20
131.1048483185285
 30
0.0
 10
90.58164927662465
 20
131.0067310253703
 30
0.0
 10
89.72625903960137
 20
130.9249310840613
 30
0.0
 10
88.86765345549391
 20
130.8594729531162
 30
0.0
 10
88.00655642173665
 20
130.8103752857461
 30
0.0
 10
87.14368672338736
 20
130.777651510245
 30
0.0
 10
86.27975836321284
 20
130.7613101941172
 30
0.0
 10
85.4154869550472
 20
130.7613553489498
 30
0.0
 10
84.55158700906085
 20
130.7777862679061
 30
0.0
 10
83.68877418732278
 20
130.8105975123062
 30
0.0
 10
82.82776229958324
 20
130.8597790823179
 30
0.0
 10
81.96926936899837
 20
130.9253161580081
 30
0.0
 10
81.11401830222434
 20
131.0071887412241
 30
0.0
 10
80.26273875869087
 20
131.1053710896911
 30
0.0
 10
79.41616974236379
 20
131.2198309276161
 30
0.0
 10
78.57505735677101
 20
131.3505290716467
 30
0.0
 10
77.74016100872281
 20
131.4974178140698
 30
0.0
 10
76.91224920358476
 20
131.6604407573401
 30
0.0
 10
76.09210337355476
 20
131.8395310310543
 30
0.0
 10
75.28051790040676
 20
132.0346104928394
 30
0.0
 10
74.47829690507196
 20
132.2455888129094
 30
0.0
 10
73.68626040998704
 20
132.472361583968
 30
0.0
 10
72.90523828454614
 20
132.7148090071424
 30
0.0
 10
72.1360717500768
 20
132.9727967301639
 30
0.0
 10
71.37961666374632
 20
133.2461683707648
 30
0.0
 10
70.63672775552482
 20
133.5347582162507
 30
0.0
 10
69.90828603866777
 20
133.8383634129005
 30
0.0
 10
69.19514928960406
 20
134.156790731459
 30
0.0
 10
68.49823020308122
 20
134.4897694329489
 30
0.0
 10
67.81835370486594
 20
134.8371076321898
 30
0.0
 10
67.15650852292721
 20
135.1984018668653
 30
0.0
 10
66.51337306487001
 20
135.5735763109759
 30
0.0
 10
65.89019868795343
 20
135.9618717295647
 30
0.0
 10
65.2871429589666
 20
136.3637377320678
 30
0.0
 10
64.70638374632523
 20
136.7772925196174
 30
0.0
 10
64.14628376689632
 20
137.2049433970947
 30
0.0
 10
63.61229076799712
 20
137.6410132586255
 30
0.0
 10
63.09654114515685
 20
138.0948880184298
 30
0.0
 10
62.61618069753236
 20
138.54751721221
 30
0.0
 10
62.14478867461811
 20
139.0298039578977
 30
0.0
 10
61.88270601492992
 20
139.3179008933575
 30
0.0
 10
61.73261299593462
 20
139.4898278562717
 30
0.0
  0
SPLINE
  5
EB
330
B8
100
AcDbEntity
  8
$DDT_AUDIT_GENERATED_(6C)
  6
Continuous
 62
     7
100
AcDbSpline
210
0.0
220
0.0
230
1.0
 70
     8
 71
     3
 72
    25
 73
    21
 74
     0
 42
0.0000000540663621
 43
0.0000000001
 40
0.0
 40
0.0
 40
0.0
 40
0.0
 40
0.0287592195705662
 40
0.0852532103665643
 40
0.1418885255271376
 40
0.1987166451055586
 40
0.2557426978424801
 40
0.3129721636900651
 40
0.3704108022474154
 40
0.4280646618585804
 40
0.4859400880885615
 40
0.5440437315248036
 40
0.602382554742227
 40
0.6609638381406967
 40
0.7197951844171092
 40
0.7788845212669713
 40
0.8382401019761755
 40
0.8978705033716045
 40
0.9577846205894653
 40
1.0
 40
1.0
 40
1.0
 40
1.0
 10
61.73261299593462
 20
139.4898278562717
 30
0.0
 10
61.73121895484453
 20
139.4914306289268
 30
0.0
 10
61.72771114310501
 20
139.4954677882079
 30
0.0
 10
61.72142772240623
 20
139.5028357521389
 30
0.0
 10
61.71430255532315
 20
139.5113784303482
 30
0.0
 10
61.70725919037295
 20
139.5200154868622
 30
0.0
 10
61.70037572413961
 20
139.5286543130308
 30
0.0
 10
61.69363086211666
 20
139.5373198652098
 30
0.0
 10
61.6870305779309
 20
139.5460048673843
 30
0.0
 10
61.68057347990982
 20
139.5547107852825
 30
0.0
 10
61.67426013596491
 20
139.5634368037543
 30
0.0
 10
61.66809059335292
 20
139.5721827539969
 30
0.0
 10
61.66206493985284
 20
139.5809485015105
 30
0.0
 10
61.65618356917866
 20
139.5897334651968
 30
0.0
 10
61.65044556071111
 20
139.5985391900066
 30
0.0
 10
61.6448549512011
 20
139.6073594943381
 30
0.0
 10
61.6393971424468
 20
139.6162175524404
 30
0.0
 10
61.63412757905038
 20
139.6250265551095
 30
0.0
 10
61.62936788861009
 20
139.6332038732471
 30
0.0
 10
61.62674162597536
 20
139.6378886738109
 30
0.0
 10
61.62546145964588
 20
139.6401762033501
 30
0.0
  0
SPLINE
  5
EC
330
B8
100
AcDbEntity
  8
$DDT_AUDIT_GENERATED_(6C)
  6
Continuous
 62
     7
100
AcDbSpline
210
0.0
220
0.0
230
1.0
 70
     8
 71
     3
 72
   101
 73
    97
 74
     0
 42
0.0000000169116769
 43
0.0000000001
 40
0.0
 40
0.0
 40
0.0
 40
0.0
 40
0.0072858220070151
 40
0.0311510486393455
 40
0.0554897289147873
 40
0.080400954987942
 40
0.1060266364222373
 40
0.1325829116004356
 40
0.1585980534762774
 40
0.1871100693735143
 40
0.2174061659422848
 40
0.2504718190417962
 40
0.2879784773334193
 40
0.3191472923708974
 40
0.3444015631854995
 40
0.3661292858323801
 40
0.3852778639609977
 40
0.4024661559254676
 40
0.4181106761386443
 40
0.432502597031718
 40
0.4458537031818137
 40
0.4583236350707569
 40
0.4700364667195954
 40
0.4810911634114257
 40
0.491568422470802
 40
0.5015352997243615
 40
0.5106790149544382
 40
0.5203579450671332
 40
0.528996006456078
 40
0.538229232170918
 40
0.5471008122520464
 40
0.5556354233264513
 40
0.563871552536098
 40
0.571843668797233
 40
0.5795826594194026
 40
0.5871164341792947
 40
0.5944704021765722
 40
0.6016678476274938
 40
0.6087302268739465
 40
0.6156774031123339
 40
0.6225278307983443
 40
0.629298697932341
 40
0.6360060329287076
 40
0.6426647807124839
 40
0.6492888518269931
 40
0.6558911477385286
 40
0.662483564930559
 40
0.669076981155443
 40
0.6756784402093005
 40
0.6822964280470415
 40
0.6889389031702854
 40
0.6956126655400449
 40
0.7023233124824393
 40
0.709075213343462
 40
0.7158715018754871
 40
0.7227140924230558
 40
0.7296037247316324
 40
0.7365400399236922
 40
0.7435216873507462
 40
0.7505464585276618
 40
0.7576114420627916
 40
0.7647131905850221
 40
0.7718478900711784
 40
0.7790115218445435
 40
0.7862000092492741
 40
0.7934093428453254
 40
0.8006356807913969
 40
0.8068408122084771
 40
0.8131201577122754
 40
0.8198421156064445
 40
0.8270993196998524
 40
0.834364034839442
 40
0.8416285033916076
 40
0.8488910347983305
 40
0.8561502543475824
 40
0.8634050164808835
 40
0.8706543788611293
 40
0.8778975776566105
 40
0.8851340042618232
 40
0.8923631837480048
 40
0.8995847553475843
 40
0.9067984549683569
 40
0.9140040980951805
 40
0.9212015298960813
 40
0.9283907065407979
 40
0.9355716267347225
 40
0.9427443226844718
 40
0.9499088524555684
 40
0.9570652932407082
 40
0.9642137353773504
 40
0.9713542769589896
 40
0.9784870185293473
 40
0.9856120379287772
 40
0.9927294298711881
 40
0.999839279997982
 40
1.0
 40
1.0
 40
1.0
 40
1.0
 10
111.8499964670301
 20
141.1309007590114
 30
0.0
 10
111.8499967241163
 20
141.1318359143587
 30
0.0
 10
111.8499973956849
 20
141.135249531678
 30
0.0
 10
111.8499734851748
 20
141.1417420627048
 30
0.0
 10
111.8499214898769
 20
141.1498665180513
 30
0.0
 10
111.8498368955936
 20
141.1580983471155
 30
0.0
 10
111.8497174666826
 20
141.1663978648972
 30
0.0
 10
111.8495600881805
 20
141.1746536026851
 30
0.0
 10
111.8493570436091
 20
141.1830595869005
 30
0.0
 10
111.8490980715976
 20
141.1917080753385
 30
0.0
 10
111.8487581596225
 20
141.2009327670932
 30
0.0
 10
111.848306314413
 20
141.2109357323498
 30
0.0
 10
111.8477484924278
 20
141.2209511865946
 30
0.0
 10
111.847121538213
 20
141.230219393376
 30
0.0
 10
111.8465065743692
 20
141.2380108988535
 30
0.0
 10
111.8459073231476
 20
141.2447068217932
 30
0.0
 10
111.8453096101411
 20
141.2507011022944
 30
0.0
 10
111.8447074606373
 20
141.2561890557267
 30
0.0
 10
111.844096062875
 20
141.2613003066773
 30
0.0
 10
111.8434715269378
 20
141.2661240015863
 30
0.0
 10
111.8428306011867
 20
141.2707238194208
 30
0.0
 10
111.8421704448304
 20
141.2751469296369
 30
0.0
 10
111.8414884874465
 20
141.2794293347182
 30
0.0
 10
111.8407822872225
 20
141.283599427428
 30
0.0
 10
111.8400495999114
 20
141.2876795174863
 30
0.0
 10
111.8392972479584
 20
141.2916400871306
 30
0.0
 10
111.8385008182007
 20
141.2956163034213
 30
0.0
 10
111.837670224484
 20
141.2995507292999
 30
0.0
 10
111.8367623398992
 20
141.3036329567585
 30
0.0
 10
111.8358021334785
 20
141.3077358364932
 30
0.0
 10
111.8347571982992
 20
141.3119727824944
 30
0.0
 10
111.8336607002271
 20
141.3161981326182
 30
0.0
 10
111.8325098712662
 20
141.3204184970791
 30
0.0
 10
111.8313010184627
 20
141.3246424767193
 30
0.0
 10
111.8300302704019
 20
141.3288777319757
 30
0.0
 10
111.828693566409
 20
141.3331311171605
 30
0.0
 10
111.8272866406677
 20
141.3374087946019
 30
0.0
 10
111.8258050069941
 20
141.3417163242442
 30
0.0
 10
111.8242439472474
 20
141.3460587230652
 30
0.0
 10
111.822598503406
 20
141.3504405016162
 30
0.0
 10
111.8208634743094
 20
141.3548656800791
 30
0.0
 10
111.8190334180535
 20
141.3593377863461
 30
0.0
 10
111.817102661299
 20
141.3638598377465
 30
0.0
 10
111.8150653168529
 20
141.3684343079585
 30
0.0
 10
111.8129153109938
 20
141.3730630805555
 30
0.0
 10
111.8106464220498
 20
141.3777473908108
 30
0.0
 10
111.8082523315915
 20
141.3824877578893
 30
0.0
 10
111.8057270449069
 20
141.3872832349012
 30
0.0
 10
111.8030647340855
 20
141.3921319130463
 30
0.0
 10
111.8002597591447
 20
141.3970310081535
 30
0.0
 10
111.7973063185027
 20
141.4019775106545
 30
0.0
 10
111.7941988608675
 20
141.4069675226702
 30
0.0
 10
111.790932284218
 20
141.4119960711107
 30
0.0
 10
111.7875020582062
 20
141.4170570890396
 30
0.0
 10
111.7839043418041
 20
141.4221434286826
 30
0.0
 10
111.780136090337
 20
141.4272469086951
 30
0.0
 10
111.7761951446711
 20
141.4323583980514
 30
0.0
 10
111.7720802958864
 20
141.4374679360462
 30
0.0
 10
111.767791320164
 20
141.4425648846402
 30
0.0
 10
111.7633289812015
 20
141.4476381059509
 30
0.0
 10
111.7586949988913
 20
141.4526761560851
 30
0.0
 10
111.7538919911142
 20
141.4576674810745
 30
0.0
 10
111.7489233781891
 20
141.4626006153234
 30
0.0
 10
111.7437933162054
 20
141.4674643280169
 30
0.0
 10
111.7385064446688
 20
141.4722478763584
 30
0.0
 10
111.7330682907449
 20
141.476940734755
 30
0.0
 10
111.7277497951398
 20
141.4813148916949
 30
0.0
 10
111.7225646467369
 20
141.4853904636655
 30
0.0
 10
111.7174050066746
 20
141.4892762607416
 30
0.0
 10
111.7118618418981
 20
141.4932660467413
 30
0.0
 10
111.7059366898105
 20
141.4973246215768
 30
0.0
 10
111.6997454426587
 20
141.5013480881112
 30
0.0
 10
111.6934420012682
 20
141.5052293534681
 30
0.0
 10
111.6870340002485
 20
141.5089622736238
 30
0.0
 10
111.6805272852259
 20
141.512542355766
 30
0.0
 10
111.6739276233907
 20
141.5159655817675
 30
0.0
 10
111.6672406972057
 20
141.5192283728258
 30
0.0
 10
111.6604721095877
 20
141.5223275464277
 30
0.0
 10
111.6536273845868
 20
141.5252602822121
 30
0.0
 10
111.6467119715953
 20
141.5280240897282
 30
0.0
 10
111.6397312501061
 20
141.5306167800869
 30
0.0
 10
111.6326905357008
 20
141.5330364407123
 30
0.0
 10
111.6255950980146
 20
141.5352814096785
 30
0.0
 10
111.6184501489204
 20
141.5373502638154
 30
0.0
 10
111.6112608465647
 20
141.5392418020737
 30
0.0
 10
111.6040322932349
 20
141.5409550323513
 30
0.0
 10
111.5967695407117
 20
141.5424891584436
 30
0.0
 10
111.5894776635367
 20
141.5438435551209
 30
0.0
 10
111.5821615061156
 20
141.5450178189186
 30
0.0
 10
111.5748266431816
 20
141.5460115447904
 30
0.0
 10
111.5674758183583
 20
141.5468251311701
 30
0.0
 10
111.5601222371927
 20
141.547456759073
 30
0.0
 10
111.5527400719516
 20
141.5479136322282
 30
0.0
 10
111.5454488656995
 20
141.548170092289
 30
0.0
 10
111.5403071303923
 20
141.5482736952867
 30
0.0
 10
111.5379283265937
 20
141.5482451431776
 30
0.0
 10
111.5378673768712
 20
141.5482444352489
 30
0.0
  0
SPLINE
  5
ED
330
B8
100
AcDbEntity
  8
$DDT_AUDIT_GENERATED_(6C)
  6
Continuous
 62
     7
100
AcDbSpline
210
0.0
220
0.0
230
1.0
 70
     8
 71
     3
 72
   103
 73
    99
 74
     0
 42
0.0000000169045898
 43
0.0000000001
 40
0.0
 40
0.0
 40
0.0
 40
0.0
 40
0.0034794681035754
 40
0.0106424784488396
 40
0.0177973662357896
 40
0.0249442111445926
 40
0.0320831042446235
 40
0.0392141427301686
 40
0.0463374140453464
 40
0.0534530035786717
 40
0.0605610011046912
 40
0.0676614858030929
 40
0.0747545218549425
 40
0.0818401538927647
 40
0.0889184021924227
 40
0.0959892575052004
 40
0.1030526754258557
 40
0.1101085428561364
 40
0.1171566877088358
 40
0.1241968988984754
 40
0.1312288976673686
 40
0.1382523280749323
 40
0.1452667465083903
 40
0.1522716103951837
 40
0.1592662662505371
 40
0.1662499372801493
 40
0.1732217109595853
 40
0.1801805271069573
 40
0.1871251672073034
 40
0.1940422351706253
 40
0.200565554174828
 40
0.2074557120217314
 40
0.2143194641907968
 40
0.2211590348743521
 40
0.2279720519242536
 40
0.2347561113285299
 40
0.2415087821047528
 40
0.2482276790426849
 40
0.2549105490491682
 40
0.2615553695003281
 40
0.2681604553369678
 40
0.2747245701133486
 40
0.2812470356638461
 40
0.2877278344343871
 40
0.2941676995256027
 40
0.3005681876854916
 40
0.3069317329691638
 40
0.3132616799207625
 40
0.3195622970881085
 40
0.3258387734294435
 40
0.3320972011700347
 40
0.3383445490770843
 40
0.3445886306937788
 40
0.3508371485012662
 40
0.357097350415148
 40
0.3633791529077069
 40
0.3696931793227439
 40
0.3760507731997882
 40
0.3824639989037408
 40
0.3889456561936409
 40
0.3955093098430946
 40
0.402169335929108
 40
0.4089409862814536
 40
0.4158404731854303
 40
0.422885077083602
 40
0.4300932806565996
 40
0.4374849340462119
 40
0.4450814572183491
 40
0.4529060877939521
 40
0.4609841851937126
 40
0.4693436059186106
 40
0.4780151702472222
 40
0.4870332477950924
 40
0.4964366241160087
 40
0.5062873122098892
 40
0.5166422053967832
 40
0.5275335677067463
 40
0.5390314195267574
 40
0.5512184469514395
 40
0.5641955403839114
 40
0.5780884081443125
 40
0.5930577323592268
 40
0.6093153479793105
 40
0.6271513752343464
 40
0.6469825682035483
 40
0.6694446268581333
 40
0.6955801309597822
 40
0.7275101491816475
 40
0.7653329564157151
 40
0.7976289513237073
 40
0.8267506948011676
 40
0.8538138762658121
 40
0.8794339438742542
 40
0.9065068599827966
 40
0.9308214573359869
 40
0.9565013999005257
 40
0.9815083324666287
 40
1.0
 40
1.0
 40
1.0
 40
1.0
 10
60.16212926626231
 20
141.5482243346774
 30
0.0
 10
60.16080844172897
 20
141.54823012448
 30
0.0
 10
60.15737357660583
 20
141.5482419472839
 30
0.0
 10
60.15107186400589
 20
141.5480711478709
 30
0.0
 10
60.14371885954885
 20
141.5477177345974
 30
0.0
 10
60.13631906906791
 20
141.5471744659702
 30
0.0
 10
60.12895967646075
 20
141.5464538502171
 30
0.0
 10
60.12162351482159
 20
141.5455538340532
 30
0.0
 10
60.11432126877583
 20
141.544476455462
 30
0.0
 10
60.10705611028862
 20
141.5432228522184
 30
0.0
 10
60.0998331574382
 20
141.5417945956326
 30
0.0
 10
60.09265694669178
 20
141.5401933337703
 30
0.0
 10
60.085532116232
 20
141.5384208893705
 30
0.0
 10
60.07846322742076
 20
141.5364792372095
 30
0.0
 10
60.07145481570361
 20
141.5343705149643
 30
0.0
 10
60.0645113800187
 20
141.5320970265759
 30
0.0
 10
60.05763739742764
 20
141.5296612523161
 30
0.0
 10
60.05083732739818
 20
141.5270658588956
 30
0.0
 10
60.04411560803758
 20
141.5243137080403
 30
0.0
 10
60.03747665002845
 20
141.5214078643657
 30
0.0
 10
60.03092483609847
 20
141.5183516063418
 30
0.0
 10
60.02446452866161
 20
141.5151484431165
 30
0.0
 10
60.01810007057344
 20
141.5118021307455
 30
0.0
 10
60.01183578458298
 20
141.5083166896866
 30
0.0
 10
60.00567597327807
 20
141.504696425532
 30
0.0
 10
59.99962491105563
 20
141.500945944894
 30
0.0
 10
59.99368685756266
 20
141.4970701952539
 30
0.0
 10
59.98786598048081
 20
141.4930744193905
 30
0.0
 10
59.98216988793401
 20
141.4889667979379
 30
0.0
 10
59.9767028630436
 20
141.4848294732744
 30
0.0
 10
59.97136960917056
 20
141.4806036094954
 30
0.0
 10
59.96616117759999
 20
141.4762859564318
 30
0.0
 10
59.96099328910496
 20
141.471801340657
 30
0.0
 10
59.95596804705844
 20
141.467239527057
 30
0.0
 10
59.95108796701736
 20
141.4626080665291
 30
0.0
 10
59.94635610168729
 20
141.4579156402976
 30
0.0
 10
59.94177520385436
 20
141.4531712910217
 30
0.0
 10
59.93734758158217
 20
141.4483842913168
 30
0.0
 10
59.93307505683545
 20
141.4435640697274
 30
0.0
 10
59.9289588966727
 20
141.4387200963645
 30
0.0
 10
59.92499976025002
 20
141.4338617610912
 30
0.0
 10
59.92119765530727
 20
141.428998241315
 30
0.0
 10
59.91755191065668
 20
141.4241383677441
 30
0.0
 10
59.9140611666781
 20
141.4192904943886
 30
0.0
 10
59.91072338555571
 20
141.4144623798506
 30
0.0
 10
59.90753588111473
 20
141.409661085829
 30
0.0
 10
59.9044953667529
 20
141.4048928974763
 30
0.0
 10
59.90159801854836
 20
141.4001632682533
 30
0.0
 10
59.89883954974825
 20
141.3954767899877
 30
0.0
 10
59.89621529231712
 20
141.3908371868897
 30
0.0
 10
59.89372028124572
 20
141.3862473307816
 30
0.0
 10
59.89134933770495
 20
141.3817092737538
 30
0.0
 10
59.88909725873885
 20
141.3772245148438
 30
0.0
 10
59.8869589989586
 20
141.372794331059
 30
0.0
 10
59.88492945790356
 20
141.3684193468773
 30
0.0
 10
59.88300344953587
 20
141.3640993788747
 30
0.0
 10
59.88117566573393
 20
141.3598332332753
 30
0.0
 10
59.87944093240401
 20
141.3556192151771
 30
0.0
 10
59.87779423637785
 20
141.3514551738548
 30
0.0
 10
59.8762307468274
 20
141.3473385461017
 30
0.0
 10
59.87474582952336
 20
141.3432663907553
 30
0.0
 10
59.873335055002
 20
141.3392354137245
 30
0.0
 10
59.87199420164618
 20
141.3352419829178
 30
0.0
 10
59.87071925461625
 20
141.3312821325448
 30
0.0
 10
59.86950640146846
 20
141.3273515561872
 30
0.0
 10
59.86835202517657
 20
141.3234455878259
 30
0.0
 10
59.86725269518157
 20
141.3195591697654
 30
0.0
 10
59.86620515694571
 20
141.3156868058314
 30
0.0
 10
59.86520632045865
 20
141.3118224978446
 30
0.0
 10
59.86425324779089
 20
141.3079596616026
 30
0.0
 10
59.86334314061193
 20
141.3040910206992
 30
0.0
 10
59.8624733248842
 20
141.3002084617613
 30
0.0
 10
59.86164124028462
 20
141.2963028659246
 30
0.0
 10
59.86084389147535
 20
141.2923612742064
 30
0.0
 10
59.86007813286152
 20
141.2883672508408
 30
0.0
 10
59.85934212343763
 20
141.2843082102949
 30
0.0
 10
59.85863422657556
 20
141.2801706675754
 30
0.0
 10
59.85795277129731
 20
141.2759384473892
 30
0.0
 10
59.85729545413914
 20
141.2715877187839
 30
0.0
 10
59.85665994331289
 20
141.2670891200663
 30
0.0
 10
59.8560437984867
 20
141.262405458324
 30
0.0
 10
59.85544438725552
 20
141.2574883643885
 30
0.0
 10
59.85485875013007
 20
141.2522728722695
 30
0.0
 10
59.85428337185518
 20
141.2466680497656
 30
0.0
 10
59.85371378282384
 20
141.2405401508822
 30
0.0
 10
59.8531438116232
 20
141.2336780642717
 30
0.0
 10
59.85256253830136
 20
141.2257011150467
 30
0.0
 10
59.85197581109393
 20
141.216235384998
 30
0.0
 10
59.85146637765225
 20
141.2061707275036
 30
0.0
 10
59.85106222505025
 20
141.1962767279834
 30
0.0
 10
59.8507646489209
 20
141.1873278799976
 30
0.0
 10
59.85053757048112
 20
141.1789163217468
 30
0.0
 10
59.85035685514996
 20
141.17056392201
 30
0.0
 10
59.85021971034701
 20
141.1623522156042
 30
0.0
 10
59.85011630969186
 20
141.1539632921098
 30
0.0
 10
59.85004732537769
 20
141.1456955456906
 30
0.0
 10
59.85000826951694
 20
141.1377014802694
 30
0.0
 10
59.85000425658466
 20
141.1330088284168
 30
0.0
 10
59.85000269828799
 20
141.1306479672744
 30
0.0
  0
ARC
  5
EE
330
B8
100
AcDbEntity
  8
$DDT_AUDIT_GENERATED_(6C)
  6
Continuous
 62
     7
100
AcDbCircle
 10
85.85
 20
782.6
 30
0.0
 40
676.2499999999993
100
AcDbArc
 50
268.4647233349
 51
270.0
  0
ARC
  5
EF
330
B8
100
AcDbEntity
  8
$DDT_AUDIT_GENERATED_(6C)
  6
Continuous
 62
     7
100
AcDbCircle
 10
85.85
 20
782.6
 30
0.0
 40
676.2499999999993
100
AcDbArc
 50
270.0
 51
271.5352766651
  0
SPLINE
  5
F0
330
B8
100
AcDbEntity
  8
$DDT_AUDIT_GENERATED_(6C)
  6
Continuous
 62
     7
100
AcDbSpline
210
0.0
220
0.0
230
1.0
 70
     8
 71
     3
 72
    34
 73
    30
 74
     0
 42
0.000000001225971
 43
0.0000000001
 40
0.0061016855419487
 40
0.0061016855419487
 40
0.0061016855419487
 40
0.0061016855419487
 40
0.0442487508049455
 40
0.0890444867717438
 40
0.1338552889092033
 40
0.178684509140023
 40
0.2235364977482446
 40
0.2684169899183236
 40
0.3133336811068284
 40
0.3582971060963094
 40
0.4033220229628879
 40
0.4484296698718946
 40
0.4936516022876648
 40
0.5390365578163039
 40
0.584663545002994
 40
0.630668953223396
 40
0.6773094542842859
 40
0.725134733478505
 40
0.7756185634248292
 40
0.8353990389898004
 40
0.8866397020344194
 40
0.9141766576217203
 40
0.9325458852136869
 40
0.9466742100205903
 40
0.9586167241130096
 40
0.9695028881520626
 40
0.9799684573221175
 40
0.9902927784923043
 40
1.0
 40
1.0
 40
1.0
 40
1.0
 10
104.1835323183967
 20
106.5985986397919
 30
0.0
 10
104.3661035498797
 20
106.6036086820881
 30
0.0
 10
104.7082516446422
 20
106.6133080473643
 30
0.0
 10
105.2791731919746
 20
106.6304793285386
 30
0.0
 10
105.8253426662747
 20
106.6482202776965
 30
0.0
 10
106.3632532237805
 20
106.6669024312127
 30
0.0
 10
106.8683508320312
 20
106.6858513881936
 30
0.0
 10
107.3527643635507
 20
106.7053978573397
 30
0.0
 10
107.8092054338229
 20
106.7253401635826
 30
0.0
 10
108.2408359151134
 20
106.7457651626206
 30
0.0
 10
108.6453140661968
 20
106.766608990431
 30
0.0
 10
109.0233506499832
 20
106.787899908738
 30
0.0
 10
109.3741550342178
 20
106.8096252478022
 30
0.0
 10
109.6979275129436
 20
106.8318283859833
 30
0.0
 10
109.9945982643352
 20
106.8545454984299
 30
0.0
 10
110.2647022687196
 20
106.8779341008862
 30
0.0
 10
110.5092638329914
 20
106.9021919610262
 30
0.0
 10
110.7311601448127
 20
106.9280678439198
 30
0.0
 10
110.9405923956339
 20
106.9575490624706
 30
0.0
 10
111.1230170053487
 20
106.9911965578433
 30
0.0
 10
111.2672721699863
 20
107.0281259546962
 30
0.0
 10
111.3875046170817
 20
107.0731105471584
 30
0.0
 10
111.4830726863715
 20
107.1218071558635
 30
0.0
 10
111.5707440273756
 20
107.1816553808783
 30
0.0
 10
111.6550096223584
 20
107.257414214874
 30
0.0
 10
111.733020869184
 20
107.3559803888096
 30
0.0
 10
111.7981918522602
 20
107.4736846717688
 30
0.0
 10
111.8402256594762
 20
107.6148029387879
 30
0.0
 10
111.8502413915108
 20
107.7037259093588
 30
0.0
 10
111.8499811961593
 20
107.7552528762573
 30
0.0
  0
SPLINE
  5
F1
330
B8
100
AcDbEntity
  8
$DDT_AUDIT_GENERATED_(6C)
  6
Continuous
 62
     7
100
AcDbSpline
210
0.0
220
0.0
230
1.0
 70
     8
 71
     3
 72
    34
 73
    30
 74
     0
 42
0.0000000012250382
 43
0.0000000001
 40
0.0
 40
0.0
 40
0.0
 40
0.0
 40
0.0097949642476075
 40
0.0201056408093469
 40
0.0305034272810711
 40
0.0412540337330257
 40
0.0529358565976478
 40
0.0665401370828024
 40
0.0837484036974318
 40
0.108044092237971
 40
0.1520058869185322
 40
0.2181727254457858
 40
0.2703450910620152
 40
0.3189986190265975
 40
0.3662234627155128
 40
0.4127144122673402
 40
0.4587793238542286
 40
0.5045766504396496
 40
0.5501960715297964
 40
0.5956920396987929
 40
0.6410993786893819
 40
0.6864412938274318
 40
0.7317337527227183
 40
0.7769881194110022
 40
0.8222126293504775
 40
0.8674133807442526
 40
0.9125949781473587
 40
0.9577609549725034
 40
0.994295377779198
 40
0.994295377779198
 40
0.994295377779198
 40
0.994295377779198
 10
59.85002031045027
 20
107.7552528937123
 30
0.0
 10
59.84978465480128
 20
107.703246168616
 30
0.0
 10
59.85988670577727
 20
107.6140170376958
 30
0.0
 10
59.90217814121389
 20
107.4729200165896
 30
0.0
 10
59.9669511499903
 20
107.356155472044
 30
0.0
 10
60.04386190218262
 20
107.2587578042564
 30
0.0
 10
60.12614149493115
 20
107.1842555573572
 30
0.0
 10
60.21073360482176
 20
107.1256781096096
 30
0.0
 10
60.30018092063638
 20
107.0788777757142
 30
0.0
 10
60.40996579362094
 20
107.0357206901217
 30
0.0
 10
60.55237918650579
 20
106.996405213379
 30
0.0
 10
60.73055521224057
 20
106.962105876091
 30
0.0
 10
60.9485823371682
 20
106.9305993639524
 30
0.0
 10
61.17257549013718
 20
106.9041499223927
 30
0.0
 10
61.41844128842611
 20
106.8794772366857
 30
0.0
 10
61.68975596127685
 20
106.8558176568214
 30
0.0
 10
61.98795871825723
 20
106.8328414712711
 30
0.0
 10
62.31360490942647
 20
106.8104183618923
 30
0.0
 10
62.66671787494921
 20
106.788479749488
 30
0.0
 10
63.04748387180306
 20
106.7669919671037
 30
0.0
 10
63.45515085291959
 20
106.7459579597343
 30
0.0
 10
63.89038455386483
 20
106.725354249973
 30
0.0
 10
64.35091044818334
 20
106.7052389563101
 30
0.0
 10
64.83974909574206
 20
106.6855328757034
 30
0.0
 10
65.34984374104914
 20
106.6664251223585
 30
0.0
 10
65.89286084159369
 20
106.6476083326065
 30
0.0
 10
66.44502799194956
 20
106.6297155434671
 30
0.0
 10
67.01275266533386
 20
106.6127096462222
 30
0.0
 10
67.35056596996715
 20
106.603133382071
 30
0.0
 10
67.52594783013404
 20
106.5983334093146
 30
0.0
  0
ENDBLK
  5
F3
330
B8
100
AcDbEntity
  8
0
100
AcDbBlockEnd
  0
ENDSEC
  0
SECTION
  2
ENTITIES
  0
INSERT
  5
5F
330
1F
100
AcDbEntity
  8
Default
100
AcDbBlockReference
  2
SE
 10
0.0
 20
0.0
 30
0.0
  0
INSERT
  5
89
330
1F
100
AcDbEntity
  8
Default
100
AcDbBlockReference
  2
SE1
 10
0.0
 20
0.0
 30
0.0
  0
INSERT
  5
B9
330
1F
100
AcDbEntity
  8
Default
100
AcDbBlockReference
  2
SE2
 10
0.0
 20
0.0
 30
0.0
  0
TEXT
  5
F5
330
1F
100
AcDbEntity
  8
Default
  6
Continuous
 62
     7
100
AcDbText
 10
5.9362635081
 20
53.4225120485
 30
0.0
 40
10.0
  1
Grohe AG^J
  7
SEACAD_seiso_ttf
 11
5.9362635081
 21
63.4225120485
 31
0.0
100
AcDbText
 73
     3
  0
TEXT
  5
F6
330
1F
100
AcDbEntity
  8
Default
  6
Continuous
 62
     7
100
AcDbText
 10
5.9362635081
 20
37.0588756849
 30
0.0
 40
10.0
  1
 
  7
SEACAD_seiso_ttf
 11
5.9362635081
 21
47.0588756849
 31
0.0
100
AcDbText
 73
     3
  0
TEXT
  5
F7
330
1F
100
AcDbEntity
  8
Default
  6
Continuous
 62
     7
100
AcDbText
 10
5.9362635081
 20
20.6952393213
 30
0.0
 40
10.0
  1
ecn: 
  7
SEACAD_seiso_ttf
 11
5.9362635081
 21
30.6952393213
 31
0.0
100
AcDbText
 73
     3
  0
TEXT
  5
F8
330
1F
100
AcDbEntity
  8
Default
  6
Continuous
 62
     7
100
AcDbText
 10
5.9362635081
 20
4.3316029576
 30
0.0
 40
10.0
  1
unit: mm
  7
SEACAD_seiso_ttf
 11
5.9362635081
 21
14.3316029576
 31
0.0
100
AcDbText
 73
     3
  0
LINE
  5
F9
330
1F
100
AcDbEntity
  8
Default
  6
Continuous
 62
     7
100
AcDbLine
 10
0.0
 20
0.0
 30
0.0
 11
100.0
 21
0.0
 31
0.0
  0
LINE
  5
FA
330
1F
100
AcDbEntity
  8
Default
  6
Continuous
 62
     7
100
AcDbLine
 10
0.0
 20
0.0
 30
0.0
 11
0.0
 21
100.0
 31
0.0
  0
TEXT
  5
FB
330
1F
100
AcDbEntity
  8
Default
  6
Continuous
 62
     7
100
AcDbText
 10
24.3923665681
 20
-18.2375342018
 30
0.0
 40
10.0
  1
100 mm
  7
SEACAD_seiso_ttf
 11
24.3923665681
 21
-8.2375342018
 31
0.0
100
AcDbText
 73
     3
  0
TEXT
  5
FC
330
1F
100
AcDbEntity
  8
Default
  6
Continuous
 62
     7
100
AcDbText
 10
-7.6150308803
 20
24.6231930421
 30
0.0
 40
10.0
  1
100 mm
 50
90.0
  7
SEACAD_seiso_ttf
 11
-17.6150308803
 21
24.6231930421
 31
0.0
100
AcDbText
 73
     3
  0
TEXT
  5
FD
330
1F
100
AcDbEntity
  8
Default
  6
Continuous
 62
     7
100
AcDbText
 10
28.4878128572
 20
20.0907663715
 30
0.0
 40
10.0
  1
210555
  7
SEACAD_seiso_ttf
 11
28.4878128572
 21
30.0907663715
 31
0.0
100
AcDbText
 73
     3
  0
TEXT
  5
FE
330
1F
100
AcDbEntity
  8
Default
  6
Continuous
 62
     7
100
AcDbText
 10
5.9012241913
 20
36.7242780188
 30
0.0
 40
10.0
  1
19317000
  7
SEACAD_seiso_ttf
 11
5.9012241913
 21
46.7242780188
 31
0.0
100
AcDbText
 73
     3
  0
ENDSEC
  0
SECTION
  2
OBJECTS
  0
DICTIONARY
  5
C
330
0
100
AcDbDictionary
281
     1
  3
ACAD_GROUP
350
D
  3
ACAD_LAYOUT
350
1A
  3
ACAD_MLEADERSTYLE
350
102
  3
ACAD_MLINESTYLE
350
17
  3
ACAD_PLOTSETTINGS
350
19
  3
ACAD_PLOTSTYLENAME
350
E
  3
ACAD_SCALELIST
350
3B
  3
ACAD_TABLESTYLE
350
101
  3
ACAD_VISUALSTYLE
350
2A
  3
AcDbVariableDictionary
350
FF
  0
DICTIONARY
  5
D
102
{ACAD_REACTORS
330
C
102
}
330
C
100
AcDbDictionary
281
     1
  0
DICTIONARY
  5
1A
102
{ACAD_REACTORS
330
C
102
}
330
C
100
AcDbDictionary
281
     1
  3
Layout1
350
1E
  3
Model
350
22
  0
DICTIONARY
  5
102
102
{ACAD_REACTORS
330
C
102
}
330
C
100
AcDbDictionary
281
     1
  0
DICTIONARY
  5
17
102
{ACAD_REACTORS
330
C
102
}
330
C
100
AcDbDictionary
281
     1
  3
Standard
350
18
  0
DICTIONARY
  5
19
102
{ACAD_REACTORS
330
C
102
}
330
C
100
AcDbDictionary
281
     1
  0
ACDBDICTIONARYWDFLT
  5
E
102
{ACAD_REACTORS
330
C
102
}
330
C
100
AcDbDictionary
281
     1
  3
Normal
350
F
100
AcDbDictionaryWithDefault
340
F
  0
DICTIONARY
  5
3B
102
{ACAD_REACTORS
330
C
102
}
330
C
100
AcDbDictionary
281
     1
  3
A0
350
3C
  3
A1
350
3D
  3
A2
350
3E
  3
A3
350
3F
  3
A4
350
40
  3
A5
350
41
  3
A6
350
42
  3
A7
350
43
  3
A8
350
44
  3
A9
350
45
  3
B0
350
46
  3
B1
350
47
  3
B2
350
48
  3
B3
350
49
  3
B4
350
4A
  3
B5
350
4B
  3
B6
350
4C
  3
B7
350
4D
  3
B8
350
4E
  3
B9
350
4F
  3
C0
350
50
  3
C1
350
51
  3
C2
350
52
  3
C3
350
53
  3
C4
350
54
  3
C5
350
55
  3
C6
350
56
  3
C7
350
57
  3
C8
350
58
  3
C9
350
59
  3
D0
350
5A
  3
D1
350
5B
  3
D2
350
5C
  0
DICTIONARY
  5
101
102
{ACAD_REACTORS
330
C
102
}
330
C
100
AcDbDictionary
281
     1
  0
DICTIONARY
  5
2A
102
{ACAD_REACTORS
330
C
102
}
330
C
100
AcDbDictionary
281
     1
  3
2dWireframe
350
2F
  3
3D Hidden
350
31
  3
3dWireframe
350
30
  3
Basic
350
32
  3
Brighten
350
36
  3
ColorChange
350
3A
  3
Conceptual
350
34
  3
Dim
350
35
  3
Facepattern
350
39
  3
Flat
350
2B
  3
FlatWithEdges
350
2C
  3
Gouraud
350
2D
  3
GouraudWithEdges
350
2E
  3
Linepattern
350
38
  3
Realistic
350
33
  3
Thicken
350
37
  0
DICTIONARY
  5
FF
102
{ACAD_REACTORS
330
C
102
}
330
C
100
AcDbDictionary
281
     1
  3
CANNOSCALE
350
100
  3
PSOLHEIGHT
350
104
  3
PSOLWIDTH
350
103
  0
LAYOUT
  5
1E
102
{ACAD_REACTORS
330
1A
102
}
330
1A
100
AcDbPlotSettings
  1

  2
none_device
  4

  6

 40
0.0
 41
0.0
 42
0.0
 43
0.0
 44
0.0
 45
0.0
 46
0.0
 47
0.0
 48
0.0
 49
0.0
140
0.0
141
0.0
142
1.0
143
1.0
 70
   688
 72
     0
 73
     0
 74
     5
  7

 75
    16
147
1.0
148
0.0
149
0.0
100
AcDbLayout
  1
Layout1
 70
     1
 71
     1
 10
0.0
 20
0.0
 11
1682.0
 21
2378.0
 12
0.0
 22
0.0
 32
0.0
 14
0.0
 24
0.0
 34
0.0
 15
1682.0
 25
2378.0
 35
0.0
146
0.0
 13
0.0
 23
0.0
 33
0.0
 16
1.0
 26
0.0
 36
0.0
 17
0.0
 27
1.0
 37
0.0
 76
     0
330
1B
  0
LAYOUT
  5
22
102
{ACAD_REACTORS
330
1A
102
}
330
1A
100
AcDbPlotSettings
  1

  2
none_device
  4

  6

 40
0.0
 41
0.0
 42
0.0
 43
0.0
 44
0.0
 45
0.0
 46
0.0
 47
0.0
 48
0.0
 49
0.0
140
0.0
141
0.0
142
1.0
143
1.0
 70
  1712
 72
     0
 73
     0
 74
     0
  7

 75
     0
147
1.0
148
0.0
149
0.0
100
AcDbLayout
  1
Model
 70
     1
 71
     0
 10
0.0
 20
0.0
 11
1682.0
 21
2378.0
 12
0.0
 22
0.0
 32
0.0
 14
0.0
 24
0.0
 34
0.0
 15
1682.0
 25
2378.0
 35
0.0
146
0.0
 13
0.0
 23
0.0
 33
0.0
 16
1.0
 26
0.0
 36
0.0
 17
0.0
 27
1.0
 37
0.0
 76
     0
330
1F
331
29
  0
MLINESTYLE
  5
18
102
{ACAD_REACTORS
330
17
102
}
330
17
100
AcDbMlineStyle
  2
Standard
 70
     0
  3

 62
   256
 51
90.0
 52
90.0
 71
     2
 49
0.5
 62
   256
  6
BYLAYER
 49
-0.5
 62
   256
  6
BYLAYER
  0
ACDBPLACEHOLDER
  5
F
102
{ACAD_REACTORS
330
E
102
}
330
E
  0
SCALE
  5
3C
102
{ACAD_REACTORS
330
3B
102
}
330
3B
100
AcDbScale
 70
     0
300
1:1
140
1.0
141
1.0
290
     1
  0
SCALE
  5
3D
102
{ACAD_REACTORS
330
3B
102
}
330
3B
100
AcDbScale
 70
     0
300
1:2
140
1.0
141
2.0
290
     0
  0
SCALE
  5
3E
102
{ACAD_REACTORS
330
3B
102
}
330
3B
100
AcDbScale
 70
     0
300
1:4
140
1.0
141
4.0
290
     0
  0
SCALE
  5
3F
102
{ACAD_REACTORS
330
3B
102
}
330
3B
100
AcDbScale
 70
     0
300
1:5
140
1.0
141
5.0
290
     0
  0
SCALE
  5
40
102
{ACAD_REACTORS
330
3B
102
}
330
3B
100
AcDbScale
 70
     0
300
1:8
140
1.0
141
8.0
290
     0
  0
SCALE
  5
41
102
{ACAD_REACTORS
330
3B
102
}
330
3B
100
AcDbScale
 70
     0
300
1:10
140
1.0
141
10.0
290
     0
  0
SCALE
  5
42
102
{ACAD_REACTORS
330
3B
102
}
330
3B
100
AcDbScale
 70
     0
300
1:16
140
1.0
141
16.0
290
     0
  0
SCALE
  5
43
102
{ACAD_REACTORS
330
3B
102
}
330
3B
100
AcDbScale
 70
     0
300
1:20
140
1.0
141
20.0
290
     0
  0
SCALE
  5
44
102
{ACAD_REACTORS
330
3B
102
}
330
3B
100
AcDbScale
 70
     0
300
1:30
140
1.0
141
30.0
290
     0
  0
SCALE
  5
45
102
{ACAD_REACTORS
330
3B
102
}
330
3B
100
AcDbScale
 70
     0
300
1:40
140
1.0
141
40.0
290
     0
  0
SCALE
  5
46
102
{ACAD_REACTORS
330
3B
102
}
330
3B
100
AcDbScale
 70
     0
300
1:50
140
1.0
141
50.0
290
     0
  0
SCALE
  5
47
102
{ACAD_REACTORS
330
3B
102
}
330
3B
100
AcDbScale
 70
     0
300
1:100
140
1.0
141
100.0
290
     0
  0
SCALE
  5
48
102
{ACAD_REACTORS
330
3B
102
}
330
3B
100
AcDbScale
 70
     0
300
2:1
140
2.0
141
1.0
290
     0
  0
SCALE
  5
49
102
{ACAD_REACTORS
330
3B
102
}
330
3B
100
AcDbScale
 70
     0
300
4:1
140
4.0
141
1.0
290
     0
  0
SCALE
  5
4A
102
{ACAD_REACTORS
330
3B
102
}
330
3B
100
AcDbScale
 70
     0
300
8:1
140
8.0
141
1.0
290
     0
  0
SCALE
  5
4B
102
{ACAD_REACTORS
330
3B
102
}
330
3B
100
AcDbScale
 70
     0
300
10:1
140
10.0
141
1.0
290
     0
  0
SCALE
  5
4C
102
{ACAD_REACTORS
330
3B
102
}
330
3B
100
AcDbScale
 70
     0
300
100:1
140
100.0
141
1.0
290
     0
  0
SCALE
  5
4D
102
{ACAD_REACTORS
330
3B
102
}
330
3B
100
AcDbScale
 70
     0
300
1/128" = 1'-0"
140
0.0078125
141
12.0
290
     0
  0
SCALE
  5
4E
102
{ACAD_REACTORS
330
3B
102
}
330
3B
100
AcDbScale
 70
     0
300
1/64" = 1'-0"
140
0.015625
141
12.0
290
     0
  0
SCALE
  5
4F
102
{ACAD_REACTORS
330
3B
102
}
330
3B
100
AcDbScale
 70
     0
300
1/32" = 1'-0"
140
0.03125
141
12.0
290
     0
  0
SCALE
  5
50
102
{ACAD_REACTORS
330
3B
102
}
330
3B
100
AcDbScale
 70
     0
300
1/16" = 1'-0"
140
0.0625
141
12.0
290
     0
  0
SCALE
  5
51
102
{ACAD_REACTORS
330
3B
102
}
330
3B
100
AcDbScale
 70
     0
300
3/32" = 1'-0"
140
0.09375
141
12.0
290
     0
  0
SCALE
  5
52
102
{ACAD_REACTORS
330
3B
102
}
330
3B
100
AcDbScale
 70
     0
300
1/8" = 1'-0"
140
0.125
141
12.0
290
     0
  0
SCALE
  5
53
102
{ACAD_REACTORS
330
3B
102
}
330
3B
100
AcDbScale
 70
     0
300
3/16" = 1'-0"
140
0.1875
141
12.0
290
     0
  0
SCALE
  5
54
102
{ACAD_REACTORS
330
3B
102
}
330
3B
100
AcDbScale
 70
     0
300
1/4" = 1'-0"
140
0.25
141
12.0
290
     0
  0
SCALE
  5
55
102
{ACAD_REACTORS
330
3B
102
}
330
3B
100
AcDbScale
 70
     0
300
3/8" = 1'-0"
140
0.375
141
12.0
290
     0
  0
SCALE
  5
56
102
{ACAD_REACTORS
330
3B
102
}
330
3B
100
AcDbScale
 70
     0
300
1/2" = 1'-0"
140
0.5
141
12.0
290
     0
  0
SCALE
  5
57
102
{ACAD_REACTORS
330
3B
102
}
330
3B
100
AcDbScale
 70
     0
300
3/4" = 1'-0"
140
0.75
141
12.0
290
     0
  0
SCALE
  5
58
102
{ACAD_REACTORS
330
3B
102
}
330
3B
100
AcDbScale
 70
     0
300
1" = 1'-0"
140
1.0
141
12.0
290
     0
  0
SCALE
  5
59
102
{ACAD_REACTORS
330
3B
102
}
330
3B
100
AcDbScale
 70
     0
300
1-1/2" = 1'-0"
140
1.5
141
12.0
290
     0
  0
SCALE
  5
5A
102
{ACAD_REACTORS
330
3B
102
}
330
3B
100
AcDbScale
 70
     0
300
3" = 1'-0"
140
3.0
141
12.0
290
     0
  0
SCALE
  5
5B
102
{ACAD_REACTORS
330
3B
102
}
330
3B
100
AcDbScale
 70
     0
300
6" = 1'-0"
140
6.0
141
12.0
290
     0
  0
SCALE
  5
5C
102
{ACAD_REACTORS
330
3B
102
}
330
3B
100
AcDbScale
 70
     0
300
1'-0" = 1'-0"
140
12.0
141
12.0
290
     0
  0
VISUALSTYLE
  5
2F
102
{ACAD_REACTORS
330
2A
102
}
330
2A
100
AcDbVisualStyle
  2
2dWireframe
 70
     4
 71
     0
 72
     2
 73
     0
 90
        0
 40
-0.6
 41
-30.0
 62
     5
 63
     7
 74
     1
 91
        4
 64
     7
 65
   257
 75
     1
175
     1
 42
1.0
 92
        0
 66
   257
 43
1.0
 76
     1
 77
     6
 78
     2
 67
     7
 79
     5
170
     0
171
     0
290
     0
174
     0
 93
        1
 44
0.0
173
     0
291
     0
 45
0.0
1001
ACAD
1000
AcDbSavedByObjectVersion
1070
     0
  0
VISUALSTYLE
  5
31
102
{ACAD_REACTORS
330
2A
102
}
330
2A
100
AcDbVisualStyle
  2
3D Hidden
 70
     6
 71
     1
 72
     2
 73
     2
 90
        0
 40
-0.6
 41
-30.0
 62
     5
 63
     7
 74
     2
 91
        2
 64
     7
 65
   257
 75
     2
175
     1
 42
40.0
 92
        0
 66
   257
 43
1.0
 76
     1
 77
     6
 78
     2
 67
     7
 79
     3
170
     0
171
     0
290
     0
174
     0
 93
        1
 44
0.0
173
     0
291
     0
 45
0.0
1001
ACAD
1000
AcDbSavedByObjectVersion
1070
     0
  0
VISUALSTYLE
  5
30
102
{ACAD_REACTORS
330
2A
102
}
330
2A
100
AcDbVisualStyle
  2
3dWireframe
 70
     5
 71
     0
 72
     2
 73
     0
 90
        0
 40
-0.6
 41
-30.0
 62
     5
 63
     7
 74
     1
 91
        4
 64
     7
 65
   257
 75
     1
175
     1
 42
1.0
 92
        0
 66
   257
 43
1.0
 76
     1
 77
     6
 78
     2
 67
     7
 79
     5
170
     0
171
     0
290
     0
174
     0
 93
        1
 44
0.0
173
     0
291
     0
 45
0.0
1001
ACAD
1000
AcDbSavedByObjectVersion
1070
     0
  0
VISUALSTYLE
  5
32
102
{ACAD_REACTORS
330
2A
102
}
330
2A
100
AcDbVisualStyle
  2
Basic
 70
     7
 71
     1
 72
     0
 73
     1
 90
        0
 40
-0.6
 41
-30.0
 62
     5
 63
     7
 74
     0
 91
        4
 64
     7
 65
   257
 75
     1
175
     1
 42
1.0
 92
        8
 66
     7
 43
1.0
 76
     1
 77
     6
 78
     2
 67
     7
 79
     5
170
     0
171
     0
290
     0
174
     0
 93
        1
 44
0.0
173
     0
291
     1
 45
0.0
1001
ACAD
1000
AcDbSavedByObjectVersion
1070
     0
  0
VISUALSTYLE
  5
36
102
{ACAD_REACTORS
330
2A
102
}
330
2A
100
AcDbVisualStyle
  2
Brighten
 70
    12
 71
     2
 72
     2
 73
     0
 90
        0
 40
-0.6
 41
-30.0
 62
     5
 63
     7
 74
     1
 91
        4
 64
     7
 65
   257
 75
     1
175
     1
 42
1.0
 92
        8
 66
     7
 43
1.0
 76
     1
 77
     6
 78
     2
 67
     7
 79
     5
170
     0
171
     0
290
     0
174
     0
 93
        1
 44
50.0
173
     0
291
     1
 45
0.0
1001
ACAD
1000
AcDbSavedByObjectVersion
1070
     0
  0
VISUALSTYLE
  5
3A
102
{ACAD_REACTORS
330
2A
102
}
330
2A
100
AcDbVisualStyle
  2
ColorChange
 70
    16
 71
     2
 72
     2
 73
     3
 90
        0
 40
-0.6
 41
-30.0
 62
     5
 63
     8
 74
     1
 91
        4
 64
     7
 65
   257
 75
     1
175
     1
 42
1.0
 92
        8
 66
     8
 43
1.0
 76
     1
 77
     6
 78
     2
 67
     7
 79
     5
170
     0
171
     0
290
     0
174
     0
 93
        1
 44
0.0
173
     0
291
     1
 45
0.0
1001
ACAD
1000
AcDbSavedByObjectVersion
1070
     0
  0
VISUALSTYLE
  5
34
102
{ACAD_REACTORS
330
2A
102
}
330
2A
100
AcDbVisualStyle
  2
Conceptual
 70
     9
 71
     3
 72
     2
 73
     0
 90
        0
 40
-0.6
 41
-30.0
 62
     5
 63
     7
 74
     2
 91
        2
 64
     7
 65
   257
 75
     1
175
     1
 42
40.0
 92
        8
 66
     7
 43
1.0
 76
     1
 77
     6
 78
     2
 67
     7
 79
     3
170
     0
171
     0
290
     0
174
     0
 93
        1
 44
0.0
173
     0
291
     0
 45
0.0
1001
ACAD
1000
AcDbSavedByObjectVersion
1070
     0
  0
VISUALSTYLE
  5
35
102
{ACAD_REACTORS
330
2A
102
}
330
2A
100
AcDbVisualStyle
  2
Dim
 70
    11
 71
     2
 72
     2
 73
     0
 90
        0
 40
-0.6
 41
-30.0
 62
     5
 63
     7
 74
     1
 91
        4
 64
     7
 65
   257
 75
     1
175
     1
 42
1.0
 92
        8
 66
     7
 43
1.0
 76
     1
 77
     6
 78
     2
 67
     7
 79
     5
170
     0
171
     0
290
     0
174
     0
 93
        1
 44
-50.0
173
     0
291
     1
 45
0.0
1001
ACAD
1000
AcDbSavedByObjectVersion
1070
     0
  0
VISUALSTYLE
  5
39
102
{ACAD_REACTORS
330
2A
102
}
330
2A
100
AcDbVisualStyle
  2
Facepattern
 70
    15
 71
     2
 72
     2
 73
     0
 90
        0
 40
-0.6
 41
-30.0
 62
     5
 63
     7
 74
     1
 91
        4
 64
     7
 65
   257
 75
     1
175
     1
 42
1.0
 92
        8
 66
     7
 43
1.0
 76
     1
 77
     6
 78
     2
 67
     7
 79
     5
170
     0
171
     0
290
     0
174
     0
 93
        1
 44
0.0
173
     0
291
     1
 45
0.0
1001
ACAD
1000
AcDbSavedByObjectVersion
1070
     0
  0
VISUALSTYLE
  5
2B
102
{ACAD_REACTORS
330
2A
102
}
330
2A
100
AcDbVisualStyle
  2
Flat
 70
     0
 71
     2
 72
     1
 73
     1
 90
        2
 40
-0.6
 41
30.0
 62
     5
 63
     7
 74
     0
 91
        4
 64
     7
 65
   257
 75
     1
175
     1
 42
1.0
 92
        8
 66
     7
 43
1.0
 76
     1
 77
     6
 78
     2
 67
     7
 79
     5
170
     0
171
     0
290
     0
174
     0
 93
       13
 44
0.0
173
     0
291
     1
 45
0.0
1001
ACAD
1000
AcDbSavedByObjectVersion
1070
     0
  0
VISUALSTYLE
  5
2C
102
{ACAD_REACTORS
330
2A
102
}
330
2A
100
AcDbVisualStyle
  2
FlatWithEdges
 70
     1
 71
     2
 72
     1
 73
     1
 90
        2
 40
-0.6
 41
30.0
 62
     5
 63
     7
 74
     1
 91
        4
 64
     7
 65
   257
 75
     1
175
     1
 42
1.0
 92
        0
 66
   257
 43
1.0
 76
     1
 77
     6
 78
     2
 67
     7
 79
     5
170
     0
171
     0
290
     0
174
     0
 93
       13
 44
0.0
173
     0
291
     1
 45
0.0
1001
ACAD
1000
AcDbSavedByObjectVersion
1070
     0
  0
VISUALSTYLE
  5
2D
102
{ACAD_REACTORS
330
2A
102
}
330
2A
100
AcDbVisualStyle
  2
Gouraud
 70
     2
 71
     2
 72
     2
 73
     1
 90
        2
 40
-0.6
 41
30.0
 62
     5
 63
     7
 74
     0
 91
        4
 64
     7
 65
   257
 75
     1
175
     1
 42
1.0
 92
        0
 66
     7
 43
1.0
 76
     1
 77
     6
 78
     2
 67
     7
 79
     5
170
     0
171
     0
290
     0
174
     0
 93
       13
 44
0.0
173
     0
291
     1
 45
0.0
1001
ACAD
1000
AcDbSavedByObjectVersion
1070
     0
  0
VISUALSTYLE
  5
2E
102
{ACAD_REACTORS
330
2A
102
}
330
2A
100
AcDbVisualStyle
  2
GouraudWithEdges
 70
     3
 71
     2
 72
     2
 73
     1
 90
        2
 40
-0.6
 41
30.0
 62
     5
 63
     7
 74
     1
 91
        4
 64
     7
 65
   257
 75
     1
175
     1
 42
1.0
 92
        0
 66
   257
 43
1.0
 76
     1
 77
     6
 78
     2
 67
     7
 79
     5
170
     0
171
     0
290
     0
174
     0
 93
       13
 44
0.0
173
     0
291
     1
 45
0.0
1001
ACAD
1000
AcDbSavedByObjectVersion
1070
     0
  0
VISUALSTYLE
  5
38
102
{ACAD_REACTORS
330
2A
102
}
330
2A
100
AcDbVisualStyle
  2
Linepattern
 70
    14
 71
     2
 72
     2
 73
     0
 90
        0
 40
-0.6
 41
-30.0
 62
     5
 63
     7
 74
     1
 91
        4
 64
     7
 65
   257
 75
     7
175
     7
 42
1.0
 92
        8
 66
     7
 43
1.0
 76
     1
 77
     6
 78
     2
 67
     7
 79
     5
170
     0
171
     0
290
     0
174
     0
 93
        1
 44
0.0
173
     0
291
     1
 45
0.0
1001
ACAD
1000
AcDbSavedByObjectVersion
1070
     0
  0
VISUALSTYLE
  5
33
102
{ACAD_REACTORS
330
2A
102
}
330
2A
100
AcDbVisualStyle
  2
Realistic
 70
     8
 71
     2
 72
     2
 73
     0
 90
        0
 40
-0.6
 41
-30.0
 62
     5
 63
     7
 74
     1
 91
        0
 64
     7
 65
   257
 75
     1
175
     1
 42
1.0
 92
        8
 66
     8
 43
1.0
 76
     1
 77
     6
 78
     2
 67
     7
 79
     5
170
     0
171
     0
290
     0
174
     0
 93
       13
 44
0.0
173
     0
291
     0
 45
0.0
1001
ACAD
1000
AcDbSavedByObjectVersion
1070
     0
  0
VISUALSTYLE
  5
37
102
{ACAD_REACTORS
330
2A
102
}
330
2A
100
AcDbVisualStyle
  2
Thicken
 70
    13
 71
     2
 72
     2
 73
     0
 90
        0
 40
-0.6
 41
-30.0
 62
     5
 63
     7
 74
     1
 91
        4
 64
     7
 65
   257
 75
     1
175
     1
 42
1.0
 92
       12
 66
     7
 43
1.0
 76
     1
 77
     6
 78
     2
 67
     7
 79
     5
170
     0
171
     0
290
     0
174
     0
 93
        1
 44
0.0
173
     0
291
     1
 45
0.0
1001
ACAD
1000
AcDbSavedByObjectVersion
1070
     0
  0
DICTIONARYVAR
  5
100
102
{ACAD_REACTORS
330
FF
102
}
330
FF
100
DictionaryVariables
280
     0
  1
1:1
  0
DICTIONARYVAR
  5
104
102
{ACAD_REACTORS
330
FF
102
}
330
FF
100
DictionaryVariables
280
     0
  1
80.000000
  0
DICTIONARYVAR
  5
103
102
{ACAD_REACTORS
330
FF
102
}
330
FF
100
DictionaryVariables
280
     0
  1
5.000000
  0
ENDSEC
  0
EOF
