999
Converted by 3D Exploration 
999
XDimension Software, LLC
999
http://www.xdsoft.com/explorer/
0
SECTION
2
HEADER
9
$ACADVER
1
AC1008
9
$UCSORG
10
0.0
20
0.0
30
0.0
9
$UCSXDIR
10
1.0
20
0.0
30
0.0
9
$TILEMODE
70
1
9
$UCSYDIR
10
0.0
20
1.0
30
0.0
9
$EXTMIN
10
0.000000
20
-30.000000
30
-30.000000
9
$EXTMAX
10
116.000000
20
30.000000
30
205.500000
0
ENDSEC
0
SECTION
2
TABLES
0
TABLE
2
LTYPE
70
1
0
LTYPE
2
CONTINUOUS
70
64
3
Solid line
72
65
73
0
40
0.0
0
ENDTAB
0
TABLE
2
LAYER
70
13
0
LAYER
2
OBJECT__0
70
0
62
253
6
CONTINUOUS
0
LAYER
2
OBJECT__1
70
0
62
253
6
CONTINUOUS
0
LAYER
2
OBJECT__3
70
0
62
253
6
CONTINUOUS
0
LAYER
2
OBJECT__4
70
0
62
253
6
CONTINUOUS
0
LAYER
2
OBJECT__5
70
0
62
253
6
CONTINUOUS
0
LAYER
2
OBJECT__6
70
0
62
253
6
CONTINUOUS
0
LAYER
2
OBJECT__7
70
0
62
253
6
CONTINUOUS
0
LAYER
2
OBJECT__8
70
0
62
253
6
CONTINUOUS
0
LAYER
2
OBJECT__9
70
0
62
253
6
CONTINUOUS
0
LAYER
2
OBJECT__10
70
0
62
253
6
CONTINUOUS
0
LAYER
2
OBJECT__11
70
0
62
253
6
CONTINUOUS
0
LAYER
2
OBJECT__12
70
0
62
253
6
CONTINUOUS
0
ENDTAB
0
TABLE
2
STYLE
70
1
0
STYLE
2
STANDARD
70
0
40
0.0
41
1.0
50
0.0
71
0
42
0.2
3
txt
4
1
0
ENDTAB
0
TABLE
2
UCS
70
0
0
ENDTAB
0
ENDSEC
0
SECTION
2
ENTITIES
0
POLYLINE
8
OBJECT__0
66
1
70
64
71
8
72
6
62
253
0
VERTEX
8
OBJECT__0
10
76.000000
20
0.000000
30
205.500000
70
192
0
VERTEX
8
OBJECT__0
10
95.010002
20
4.339000
30
205.500000
70
192
0
VERTEX
8
OBJECT__0
10
88.224998
20
9.749000
30
205.500000
70
192
0
VERTEX
8
OBJECT__0
10
79.764999
20
-7.818000
30
205.500000
70
192
0
VERTEX
8
OBJECT__0
10
88.224998
20
-9.749000
30
205.500000
70
192
0
VERTEX
8
OBJECT__0
10
96.000000
20
0.000000
30
205.500000
70
192
0
VERTEX
8
OBJECT__0
10
95.010002
20
-4.339000
30
205.500000
70
192
0
VERTEX
8
OBJECT__0
10
79.764999
20
7.818000
30
205.500000
70
192
0
VERTEX
8
OBJECT__0
10
0
20
0
30
0
70
128
71
1
72
2
73
3
0
VERTEX
8
OBJECT__0
10
0
20
0
30
0
70
128
71
1
72
4
73
5
0
VERTEX
8
OBJECT__0
10
0
20
0
30
0
70
128
71
1
72
6
73
2
0
VERTEX
8
OBJECT__0
10
0
20
0
30
0
70
128
71
5
72
7
73
1
0
VERTEX
8
OBJECT__0
10
0
20
0
30
0
70
128
71
7
72
6
73
1
0
VERTEX
8
OBJECT__0
10
0
20
0
30
0
70
128
71
3
72
8
73
1
0
SEQEND
8
OBJECT__0
0
POLYLINE
8
OBJECT__1
66
1
70
64
71
16
72
16
62
253
0
VERTEX
8
OBJECT__1
10
79.764999
20
7.818000
30
205.500000
70
192
0
VERTEX
8
OBJECT__1
10
79.764999
20
7.818000
30
78.500000
70
192
0
VERTEX
8
OBJECT__1
10
76.000000
20
0.000000
30
78.500000
70
192
0
VERTEX
8
OBJECT__1
10
88.224998
20
9.749000
30
205.500000
70
192
0
VERTEX
8
OBJECT__1
10
88.224998
20
9.749000
30
78.500000
70
192
0
VERTEX
8
OBJECT__1
10
95.010002
20
4.339000
30
205.500000
70
192
0
VERTEX
8
OBJECT__1
10
95.010002
20
4.339000
30
78.500000
70
192
0
VERTEX
8
OBJECT__1
10
95.010002
20
-4.339000
30
78.500000
70
192
0
VERTEX
8
OBJECT__1
10
96.000000
20
0.000000
30
78.500000
70
192
0
VERTEX
8
OBJECT__1
10
96.000000
20
0.000000
30
205.500000
70
192
0
VERTEX
8
OBJECT__1
10
88.224998
20
-9.749000
30
205.500000
70
192
0
VERTEX
8
OBJECT__1
10
88.224998
20
-9.749000
30
78.500000
70
192
0
VERTEX
8
OBJECT__1
10
79.764999
20
-7.818000
30
205.500000
70
192
0
VERTEX
8
OBJECT__1
10
79.764999
20
-7.818000
30
78.500000
70
192
0
VERTEX
8
OBJECT__1
10
76.000000
20
0.000000
30
205.500000
70
192
0
VERTEX
8
OBJECT__1
10
95.010002
20
-4.339000
30
205.500000
70
192
0
VERTEX
8
OBJECT__1
10
0
20
0
30
0
70
128
71
1
72
2
73
3
0
VERTEX
8
OBJECT__1
10
0
20
0
30
0
70
128
71
4
72
5
73
2
0
VERTEX
8
OBJECT__1
10
0
20
0
30
0
70
128
71
6
72
7
73
5
0
VERTEX
8
OBJECT__1
10
0
20
0
30
0
70
128
71
8
72
9
73
10
0
VERTEX
8
OBJECT__1
10
0
20
0
30
0
70
128
71
6
72
10
73
9
0
VERTEX
8
OBJECT__1
10
0
20
0
30
0
70
128
71
9
72
7
73
6
0
VERTEX
8
OBJECT__1
10
0
20
0
30
0
70
128
71
11
72
12
73
8
0
VERTEX
8
OBJECT__1
10
0
20
0
30
0
70
128
71
13
72
14
73
12
0
VERTEX
8
OBJECT__1
10
0
20
0
30
0
70
128
71
15
72
3
73
14
0
VERTEX
8
OBJECT__1
10
0
20
0
30
0
70
128
71
14
72
13
73
15
0
VERTEX
8
OBJECT__1
10
0
20
0
30
0
70
128
71
12
72
11
73
13
0
VERTEX
8
OBJECT__1
10
0
20
0
30
0
70
128
71
8
72
16
73
11
0
VERTEX
8
OBJECT__1
10
0
20
0
30
0
70
128
71
10
72
16
73
8
0
VERTEX
8
OBJECT__1
10
0
20
0
30
0
70
128
71
5
72
4
73
6
0
VERTEX
8
OBJECT__1
10
0
20
0
30
0
70
128
71
2
72
1
73
4
0
VERTEX
8
OBJECT__1
10
0
20
0
30
0
70
128
71
3
72
15
73
1
0
SEQEND
8
OBJECT__1
0
POLYLINE
8
OBJECT__3
66
1
70
64
71
25
72
25
62
253
0
VERTEX
8
OBJECT__3
10
112.540001
20
4.961000
30
78.500000
70
192
0
VERTEX
8
OBJECT__3
10
108.956001
20
14.214000
30
78.500000
70
192
0
VERTEX
8
OBJECT__3
10
95.010002
20
4.339000
30
78.500000
70
192
0
VERTEX
8
OBJECT__3
10
102.271004
20
21.546000
30
78.500000
70
192
0
VERTEX
8
OBJECT__3
10
88.224998
20
9.749000
30
78.500000
70
192
0
VERTEX
8
OBJECT__3
10
83.509003
20
26.885000
30
78.500000
70
192
0
VERTEX
8
OBJECT__3
10
73.964996
20
24.169001
30
78.500000
70
192
0
VERTEX
8
OBJECT__3
10
79.764999
20
7.818000
30
78.500000
70
192
0
VERTEX
8
OBJECT__3
10
96.000000
20
0.000000
30
78.500000
70
192
0
VERTEX
8
OBJECT__3
10
112.540001
20
-4.961000
30
78.500000
70
192
0
VERTEX
8
OBJECT__3
10
60.823002
20
9.754000
30
78.500000
70
192
0
VERTEX
8
OBJECT__3
10
76.000000
20
0.000000
30
78.500000
70
192
0
VERTEX
8
OBJECT__3
10
60.823002
20
-9.754000
30
78.500000
70
192
0
VERTEX
8
OBJECT__3
10
66.046997
20
-18.190001
30
78.500000
70
192
0
VERTEX
8
OBJECT__3
10
79.764999
20
-7.818000
30
78.500000
70
192
0
VERTEX
8
OBJECT__3
10
83.509003
20
-26.885000
30
78.500000
70
192
0
VERTEX
8
OBJECT__3
10
88.224998
20
-9.749000
30
78.500000
70
192
0
VERTEX
8
OBJECT__3
10
102.271004
20
-21.546000
30
78.500000
70
192
0
VERTEX
8
OBJECT__3
10
108.956001
20
-14.214000
30
78.500000
70
192
0
VERTEX
8
OBJECT__3
10
95.010002
20
-4.339000
30
78.500000
70
192
0
VERTEX
8
OBJECT__3
10
93.389000
20
25.969000
30
78.500000
70
192
0
VERTEX
8
OBJECT__3
10
66.046997
20
18.190001
30
78.500000
70
192
0
VERTEX
8
OBJECT__3
10
59.000000
20
0.000000
30
78.500000
70
192
0
VERTEX
8
OBJECT__3
10
73.964996
20
-24.169001
30
78.500000
70
192
0
VERTEX
8
OBJECT__3
10
93.389000
20
-25.969000
30
78.500000
70
192
0
VERTEX
8
OBJECT__3
10
0
20
0
30
0
70
128
71
1
72
2
73
3
0
VERTEX
8
OBJECT__3
10
0
20
0
30
0
70
128
71
4
72
5
73
3
0
VERTEX
8
OBJECT__3
10
0
20
0
30
0
70
128
71
6
72
7
73
8
0
VERTEX
8
OBJECT__3
10
0
20
0
30
0
70
128
71
9
72
10
73
1
0
VERTEX
8
OBJECT__3
10
0
20
0
30
0
70
128
71
3
72
2
73
4
0
VERTEX
8
OBJECT__3
10
0
20
0
30
0
70
128
71
8
72
5
73
6
0
VERTEX
8
OBJECT__3
10
0
20
0
30
0
70
128
71
11
72
12
73
8
0
VERTEX
8
OBJECT__3
10
0
20
0
30
0
70
128
71
13
72
14
73
15
0
VERTEX
8
OBJECT__3
10
0
20
0
30
0
70
128
71
16
72
17
73
15
0
VERTEX
8
OBJECT__3
10
0
20
0
30
0
70
128
71
18
72
19
73
20
0
VERTEX
8
OBJECT__3
10
0
20
0
30
0
70
128
71
4
72
21
73
5
0
VERTEX
8
OBJECT__3
10
0
20
0
30
0
70
128
71
5
72
21
73
6
0
VERTEX
8
OBJECT__3
10
0
20
0
30
0
70
128
71
8
72
22
73
11
0
VERTEX
8
OBJECT__3
10
0
20
0
30
0
70
128
71
12
72
23
73
13
0
VERTEX
8
OBJECT__3
10
0
20
0
30
0
70
128
71
15
72
24
73
16
0
VERTEX
8
OBJECT__3
10
0
20
0
30
0
70
128
71
17
72
25
73
18
0
VERTEX
8
OBJECT__3
10
0
20
0
30
0
70
128
71
10
72
9
73
20
0
VERTEX
8
OBJECT__3
10
0
20
0
30
0
70
128
71
7
72
22
73
8
0
VERTEX
8
OBJECT__3
10
0
20
0
30
0
70
128
71
15
72
12
73
13
0
VERTEX
8
OBJECT__3
10
0
20
0
30
0
70
128
71
15
72
14
73
24
0
VERTEX
8
OBJECT__3
10
0
20
0
30
0
70
128
71
20
72
19
73
10
0
VERTEX
8
OBJECT__3
10
0
20
0
30
0
70
128
71
11
72
23
73
12
0
VERTEX
8
OBJECT__3
10
0
20
0
30
0
70
128
71
20
72
17
73
18
0
VERTEX
8
OBJECT__3
10
0
20
0
30
0
70
128
71
16
72
25
73
17
0
VERTEX
8
OBJECT__3
10
0
20
0
30
0
70
128
71
3
72
9
73
1
0
SEQEND
8
OBJECT__3
0
POLYLINE
8
OBJECT__4
66
1
70
64
71
62
72
79
62
253
0
VERTEX
8
OBJECT__4
10
58.845001
20
10.520000
30
77.621002
70
192
0
VERTEX
8
OBJECT__4
10
56.879002
20
0.000000
30
77.621002
70
192
0
VERTEX
8
OBJECT__4
10
59.000000
20
0.000000
30
78.500000
70
192
0
VERTEX
8
OBJECT__4
10
64.478996
20
19.618999
30
77.621002
70
192
0
VERTEX
8
OBJECT__4
10
60.823002
20
9.754000
30
78.500000
70
192
0
VERTEX
8
OBJECT__4
10
66.046997
20
18.190001
30
78.500000
70
192
0
VERTEX
8
OBJECT__4
10
73.964996
20
24.169001
30
78.500000
70
192
0
VERTEX
8
OBJECT__4
10
73.019997
20
26.068001
30
77.621002
70
192
0
VERTEX
8
OBJECT__4
10
83.509003
20
26.885000
30
78.500000
70
192
0
VERTEX
8
OBJECT__4
10
93.969002
20
28.010000
30
77.621002
70
192
0
VERTEX
8
OBJECT__4
10
83.313004
20
28.997000
30
77.621002
70
192
0
VERTEX
8
OBJECT__4
10
93.389000
20
25.969000
30
78.500000
70
192
0
VERTEX
8
OBJECT__4
10
102.271004
20
21.546000
30
78.500000
70
192
0
VERTEX
8
OBJECT__4
10
103.550003
20
23.239000
30
77.621002
70
192
0
VERTEX
8
OBJECT__4
10
108.956001
20
14.214000
30
78.500000
70
192
0
VERTEX
8
OBJECT__4
10
110.759003
20
15.330000
30
77.621002
70
192
0
VERTEX
8
OBJECT__4
10
112.540001
20
4.961000
30
78.500000
70
192
0
VERTEX
8
OBJECT__4
10
114.625000
20
-5.351000
30
77.621002
70
192
0
VERTEX
8
OBJECT__4
10
114.625000
20
5.351000
30
77.621002
70
192
0
VERTEX
8
OBJECT__4
10
112.540001
20
-4.961000
30
78.500000
70
192
0
VERTEX
8
OBJECT__4
10
108.956001
20
-14.214000
30
78.500000
70
192
0
VERTEX
8
OBJECT__4
10
110.759003
20
-15.330000
30
77.621002
70
192
0
VERTEX
8
OBJECT__4
10
102.271004
20
-21.546000
30
78.500000
70
192
0
VERTEX
8
OBJECT__4
10
103.550003
20
-23.239000
30
77.621002
70
192
0
VERTEX
8
OBJECT__4
10
93.389000
20
-25.969000
30
78.500000
70
192
0
VERTEX
8
OBJECT__4
10
93.969002
20
-28.010000
30
77.621002
70
192
0
VERTEX
8
OBJECT__4
10
83.509003
20
-26.885000
30
78.500000
70
192
0
VERTEX
8
OBJECT__4
10
73.019997
20
-26.068001
30
77.621002
70
192
0
VERTEX
8
OBJECT__4
10
83.313004
20
-28.997000
30
77.621002
70
192
0
VERTEX
8
OBJECT__4
10
64.478996
20
-19.618999
30
77.621002
70
192
0
VERTEX
8
OBJECT__4
10
73.964996
20
-24.169001
30
78.500000
70
192
0
VERTEX
8
OBJECT__4
10
66.046997
20
-18.190001
30
78.500000
70
192
0
VERTEX
8
OBJECT__4
10
60.823002
20
-9.754000
30
78.500000
70
192
0
VERTEX
8
OBJECT__4
10
58.845001
20
-10.520000
30
77.621002
70
192
0
VERTEX
8
OBJECT__4
10
56.000000
20
0.000000
30
75.500000
70
192
0
VERTEX
8
OBJECT__4
10
63.830002
20
20.211000
30
75.500000
70
192
0
VERTEX
8
OBJECT__4
10
60.441002
20
14.739000
30
75.500000
70
192
0
VERTEX
8
OBJECT__4
10
71.170998
20
25.754999
30
75.500000
70
192
0
VERTEX
8
OBJECT__4
10
72.627998
20
26.855000
30
75.500000
70
192
0
VERTEX
8
OBJECT__4
10
83.232002
20
29.872000
30
75.500000
70
192
0
VERTEX
8
OBJECT__4
10
94.209999
20
28.855000
30
75.500000
70
192
0
VERTEX
8
OBJECT__4
10
85.964996
20
29.618999
30
75.500000
70
192
0
VERTEX
8
OBJECT__4
10
100.797997
20
25.573999
30
75.500000
70
192
0
VERTEX
8
OBJECT__4
10
104.079002
20
23.941000
30
75.500000
70
192
0
VERTEX
8
OBJECT__4
10
111.507004
20
15.793000
30
75.500000
70
192
0
VERTEX
8
OBJECT__4
10
115.488998
20
5.512000
30
75.500000
70
192
0
VERTEX
8
OBJECT__4
10
111.835999
20
14.944000
30
75.500000
70
192
0
VERTEX
8
OBJECT__4
10
115.488998
20
-5.512000
30
75.500000
70
192
0
VERTEX
8
OBJECT__4
10
115.488998
20
0.000000
30
75.500000
70
192
0
VERTEX
8
OBJECT__4
10
111.835999
20
-14.944000
30
75.500000
70
192
0
VERTEX
8
OBJECT__4
10
111.507004
20
-15.793000
30
75.500000
70
192
0
VERTEX
8
OBJECT__4
10
104.079002
20
-23.941000
30
75.500000
70
192
0
VERTEX
8
OBJECT__4
10
94.209999
20
-28.855000
30
75.500000
70
192
0
VERTEX
8
OBJECT__4
10
100.797997
20
-25.573999
30
75.500000
70
192
0
VERTEX
8
OBJECT__4
10
85.964996
20
-29.618999
30
75.500000
70
192
0
VERTEX
8
OBJECT__4
10
83.232002
20
-29.872000
30
75.500000
70
192
0
VERTEX
8
OBJECT__4
10
63.830002
20
-20.211000
30
75.500000
70
192
0
VERTEX
8
OBJECT__4
10
71.170998
20
-25.754999
30
75.500000
70
192
0
VERTEX
8
OBJECT__4
10
60.441002
20
-14.739000
30
75.500000
70
192
0
VERTEX
8
OBJECT__4
10
58.026001
20
-10.837000
30
75.500000
70
192
0
VERTEX
8
OBJECT__4
10
72.627998
20
-26.855000
30
75.500000
70
192
0
VERTEX
8
OBJECT__4
10
58.026001
20
10.837000
30
75.500000
70
192
0
VERTEX
8
OBJECT__4
10
0
20
0
30
0
70
128
71
1
72
2
73
3
0
VERTEX
8
OBJECT__4
10
0
20
0
30
0
70
128
71
4
72
1
73
5
0
VERTEX
8
OBJECT__4
10
0
20
0
30
0
70
128
71
4
72
6
73
7
0
VERTEX
8
OBJECT__4
10
0
20
0
30
0
70
128
71
8
72
7
73
9
0
VERTEX
8
OBJECT__4
10
0
20
0
30
0
70
128
71
10
72
11
73
9
0
VERTEX
8
OBJECT__4
10
0
20
0
30
0
70
128
71
10
72
12
73
13
0
VERTEX
8
OBJECT__4
10
0
20
0
30
0
70
128
71
14
72
13
73
15
0
VERTEX
8
OBJECT__4
10
0
20
0
30
0
70
128
71
16
72
15
73
17
0
VERTEX
8
OBJECT__4
10
0
20
0
30
0
70
128
71
18
72
19
73
17
0
VERTEX
8
OBJECT__4
10
0
20
0
30
0
70
128
71
18
72
20
73
21
0
VERTEX
8
OBJECT__4
10
0
20
0
30
0
70
128
71
22
72
21
73
23
0
VERTEX
8
OBJECT__4
10
0
20
0
30
0
70
128
71
24
72
23
73
25
0
VERTEX
8
OBJECT__4
10
0
20
0
30
0
70
128
71
26
72
25
73
27
0
VERTEX
8
OBJECT__4
10
0
20
0
30
0
70
128
71
28
72
29
73
27
0
VERTEX
8
OBJECT__4
10
0
20
0
30
0
70
128
71
30
72
28
73
31
0
VERTEX
8
OBJECT__4
10
0
20
0
30
0
70
128
71
30
72
32
73
33
0
VERTEX
8
OBJECT__4
10
0
20
0
30
0
70
128
71
34
72
33
73
3
0
VERTEX
8
OBJECT__4
10
0
20
0
30
0
70
128
71
35
72
2
73
1
0
VERTEX
8
OBJECT__4
10
0
20
0
30
0
70
128
71
4
72
36
73
37
0
VERTEX
8
OBJECT__4
10
0
20
0
30
0
70
128
71
37
72
1
73
4
0
VERTEX
8
OBJECT__4
10
0
20
0
30
0
70
128
71
4
72
8
73
38
0
VERTEX
8
OBJECT__4
10
0
20
0
30
0
70
128
71
8
72
39
73
38
0
VERTEX
8
OBJECT__4
10
0
20
0
30
0
70
128
71
40
72
39
73
8
0
VERTEX
8
OBJECT__4
10
0
20
0
30
0
70
128
71
10
72
41
73
42
0
VERTEX
8
OBJECT__4
10
0
20
0
30
0
70
128
71
42
72
11
73
10
0
VERTEX
8
OBJECT__4
10
0
20
0
30
0
70
128
71
10
72
14
73
43
0
VERTEX
8
OBJECT__4
10
0
20
0
30
0
70
128
71
14
72
44
73
43
0
VERTEX
8
OBJECT__4
10
0
20
0
30
0
70
128
71
45
72
44
73
14
0
VERTEX
8
OBJECT__4
10
0
20
0
30
0
70
128
71
19
72
46
73
47
0
VERTEX
8
OBJECT__4
10
0
20
0
30
0
70
128
71
47
72
16
73
19
0
VERTEX
8
OBJECT__4
10
0
20
0
30
0
70
128
71
18
72
48
73
49
0
VERTEX
8
OBJECT__4
10
0
20
0
30
0
70
128
71
49
72
19
73
18
0
VERTEX
8
OBJECT__4
10
0
20
0
30
0
70
128
71
18
72
22
73
50
0
VERTEX
8
OBJECT__4
10
0
20
0
30
0
70
128
71
22
72
51
73
50
0
VERTEX
8
OBJECT__4
10
0
20
0
30
0
70
128
71
52
72
51
73
22
0
VERTEX
8
OBJECT__4
10
0
20
0
30
0
70
128
71
26
72
53
73
54
0
VERTEX
8
OBJECT__4
10
0
20
0
30
0
70
128
71
54
72
24
73
26
0
VERTEX
8
OBJECT__4
10
0
20
0
30
0
70
128
71
26
72
29
73
55
0
VERTEX
8
OBJECT__4
10
0
20
0
30
0
70
128
71
29
72
56
73
55
0
VERTEX
8
OBJECT__4
10
0
20
0
30
0
70
128
71
56
72
29
73
28
0
VERTEX
8
OBJECT__4
10
0
20
0
30
0
70
128
71
30
72
57
73
58
0
VERTEX
8
OBJECT__4
10
0
20
0
30
0
70
128
71
58
72
28
73
30
0
VERTEX
8
OBJECT__4
10
0
20
0
30
0
70
128
71
30
72
34
73
59
0
VERTEX
8
OBJECT__4
10
0
20
0
30
0
70
128
71
34
72
60
73
59
0
VERTEX
8
OBJECT__4
10
0
20
0
30
0
70
128
71
35
72
60
73
34
0
VERTEX
8
OBJECT__4
10
0
20
0
30
0
70
128
71
34
72
2
73
35
0
VERTEX
8
OBJECT__4
10
0
20
0
30
0
70
128
71
59
72
57
73
30
0
VERTEX
8
OBJECT__4
10
0
20
0
30
0
70
128
71
58
72
61
73
28
0
VERTEX
8
OBJECT__4
10
0
20
0
30
0
70
128
71
28
72
61
73
56
0
VERTEX
8
OBJECT__4
10
0
20
0
30
0
70
128
71
55
72
53
73
26
0
VERTEX
8
OBJECT__4
10
0
20
0
30
0
70
128
71
54
72
52
73
24
0
VERTEX
8
OBJECT__4
10
0
20
0
30
0
70
128
71
22
72
24
73
52
0
VERTEX
8
OBJECT__4
10
0
20
0
30
0
70
128
71
50
72
48
73
18
0
VERTEX
8
OBJECT__4
10
0
20
0
30
0
70
128
71
49
72
46
73
19
0
VERTEX
8
OBJECT__4
10
0
20
0
30
0
70
128
71
47
72
45
73
16
0
VERTEX
8
OBJECT__4
10
0
20
0
30
0
70
128
71
14
72
16
73
45
0
VERTEX
8
OBJECT__4
10
0
20
0
30
0
70
128
71
43
72
41
73
10
0
VERTEX
8
OBJECT__4
10
0
20
0
30
0
70
128
71
42
72
40
73
11
0
VERTEX
8
OBJECT__4
10
0
20
0
30
0
70
128
71
8
72
11
73
40
0
VERTEX
8
OBJECT__4
10
0
20
0
30
0
70
128
71
38
72
36
73
4
0
VERTEX
8
OBJECT__4
10
0
20
0
30
0
70
128
71
37
72
62
73
1
0
VERTEX
8
OBJECT__4
10
0
20
0
30
0
70
128
71
1
72
62
73
35
0
VERTEX
8
OBJECT__4
10
0
20
0
30
0
70
128
71
3
72
2
73
34
0
VERTEX
8
OBJECT__4
10
0
20
0
30
0
70
128
71
33
72
34
73
30
0
VERTEX
8
OBJECT__4
10
0
20
0
30
0
70
128
71
31
72
32
73
30
0
VERTEX
8
OBJECT__4
10
0
20
0
30
0
70
128
71
27
72
31
73
28
0
VERTEX
8
OBJECT__4
10
0
20
0
30
0
70
128
71
27
72
29
73
26
0
VERTEX
8
OBJECT__4
10
0
20
0
30
0
70
128
71
25
72
26
73
24
0
VERTEX
8
OBJECT__4
10
0
20
0
30
0
70
128
71
23
72
24
73
22
0
VERTEX
8
OBJECT__4
10
0
20
0
30
0
70
128
71
21
72
22
73
18
0
VERTEX
8
OBJECT__4
10
0
20
0
30
0
70
128
71
17
72
20
73
18
0
VERTEX
8
OBJECT__4
10
0
20
0
30
0
70
128
71
17
72
19
73
16
0
VERTEX
8
OBJECT__4
10
0
20
0
30
0
70
128
71
15
72
16
73
14
0
VERTEX
8
OBJECT__4
10
0
20
0
30
0
70
128
71
13
72
14
73
10
0
VERTEX
8
OBJECT__4
10
0
20
0
30
0
70
128
71
9
72
12
73
10
0
VERTEX
8
OBJECT__4
10
0
20
0
30
0
70
128
71
9
72
11
73
8
0
VERTEX
8
OBJECT__4
10
0
20
0
30
0
70
128
71
7
72
8
73
4
0
VERTEX
8
OBJECT__4
10
0
20
0
30
0
70
128
71
5
72
6
73
4
0
VERTEX
8
OBJECT__4
10
0
20
0
30
0
70
128
71
3
72
5
73
1
0
SEQEND
8
OBJECT__4
0
POLYLINE
8
OBJECT__5
66
1
70
64
71
40
72
40
62
253
0
VERTEX
8
OBJECT__5
10
56.000000
20
0.000000
30
74.000000
70
192
0
VERTEX
8
OBJECT__5
10
56.000000
20
0.000000
30
75.500000
70
192
0
VERTEX
8
OBJECT__5
10
58.026001
20
10.837000
30
75.500000
70
192
0
VERTEX
8
OBJECT__5
10
60.019001
20
15.000000
30
74.000000
70
192
0
VERTEX
8
OBJECT__5
10
71.000000
20
25.981001
30
74.000000
70
192
0
VERTEX
8
OBJECT__5
10
63.830002
20
20.211000
30
75.500000
70
192
0
VERTEX
8
OBJECT__5
10
60.441002
20
14.739000
30
75.500000
70
192
0
VERTEX
8
OBJECT__5
10
72.627998
20
26.855000
30
75.500000
70
192
0
VERTEX
8
OBJECT__5
10
83.232002
20
29.872000
30
75.500000
70
192
0
VERTEX
8
OBJECT__5
10
86.000000
20
30.000000
30
74.000000
70
192
0
VERTEX
8
OBJECT__5
10
71.170998
20
25.754999
30
75.500000
70
192
0
VERTEX
8
OBJECT__5
10
85.964996
20
29.618999
30
75.500000
70
192
0
VERTEX
8
OBJECT__5
10
94.209999
20
28.855000
30
75.500000
70
192
0
VERTEX
8
OBJECT__5
10
101.000000
20
25.981001
30
74.000000
70
192
0
VERTEX
8
OBJECT__5
10
111.981003
20
15.000000
30
74.000000
70
192
0
VERTEX
8
OBJECT__5
10
104.079002
20
23.941000
30
75.500000
70
192
0
VERTEX
8
OBJECT__5
10
111.507004
20
15.793000
30
75.500000
70
192
0
VERTEX
8
OBJECT__5
10
100.797997
20
25.573999
30
75.500000
70
192
0
VERTEX
8
OBJECT__5
10
111.835999
20
14.944000
30
75.500000
70
192
0
VERTEX
8
OBJECT__5
10
115.488998
20
5.512000
30
75.500000
70
192
0
VERTEX
8
OBJECT__5
10
116.000000
20
0.000000
30
74.000000
70
192
0
VERTEX
8
OBJECT__5
10
111.981003
20
-15.000000
30
74.000000
70
192
0
VERTEX
8
OBJECT__5
10
115.488998
20
-5.512000
30
75.500000
70
192
0
VERTEX
8
OBJECT__5
10
115.488998
20
0.000000
30
75.500000
70
192
0
VERTEX
8
OBJECT__5
10
111.507004
20
-15.793000
30
75.500000
70
192
0
VERTEX
8
OBJECT__5
10
104.079002
20
-23.941000
30
75.500000
70
192
0
VERTEX
8
OBJECT__5
10
101.000000
20
-25.981001
30
74.000000
70
192
0
VERTEX
8
OBJECT__5
10
111.835999
20
-14.944000
30
75.500000
70
192
0
VERTEX
8
OBJECT__5
10
86.000000
20
-30.000000
30
74.000000
70
192
0
VERTEX
8
OBJECT__5
10
94.209999
20
-28.855000
30
75.500000
70
192
0
VERTEX
8
OBJECT__5
10
100.797997
20
-25.573999
30
75.500000
70
192
0
VERTEX
8
OBJECT__5
10
71.000000
20
-25.981001
30
74.000000
70
192
0
VERTEX
8
OBJECT__5
10
83.232002
20
-29.872000
30
75.500000
70
192
0
VERTEX
8
OBJECT__5
10
72.627998
20
-26.855000
30
75.500000
70
192
0
VERTEX
8
OBJECT__5
10
85.964996
20
-29.618999
30
75.500000
70
192
0
VERTEX
8
OBJECT__5
10
71.170998
20
-25.754999
30
75.500000
70
192
0
VERTEX
8
OBJECT__5
10
63.830002
20
-20.211000
30
75.500000
70
192
0
VERTEX
8
OBJECT__5
10
60.019001
20
-15.000000
30
74.000000
70
192
0
VERTEX
8
OBJECT__5
10
58.026001
20
-10.837000
30
75.500000
70
192
0
VERTEX
8
OBJECT__5
10
60.441002
20
-14.739000
30
75.500000
70
192
0
VERTEX
8
OBJECT__5
10
0
20
0
30
0
70
128
71
1
72
2
73
3
0
VERTEX
8
OBJECT__5
10
0
20
0
30
0
70
128
71
3
72
4
73
1
0
VERTEX
8
OBJECT__5
10
0
20
0
30
0
70
128
71
5
72
4
73
6
0
VERTEX
8
OBJECT__5
10
0
20
0
30
0
70
128
71
4
72
7
73
6
0
VERTEX
8
OBJECT__5
10
0
20
0
30
0
70
128
71
5
72
8
73
9
0
VERTEX
8
OBJECT__5
10
0
20
0
30
0
70
128
71
9
72
10
73
5
0
VERTEX
8
OBJECT__5
10
0
20
0
30
0
70
128
71
5
72
11
73
8
0
VERTEX
8
OBJECT__5
10
0
20
0
30
0
70
128
71
10
72
12
73
13
0
VERTEX
8
OBJECT__5
10
0
20
0
30
0
70
128
71
13
72
14
73
10
0
VERTEX
8
OBJECT__5
10
0
20
0
30
0
70
128
71
15
72
14
73
16
0
VERTEX
8
OBJECT__5
10
0
20
0
30
0
70
128
71
16
72
17
73
15
0
VERTEX
8
OBJECT__5
10
0
20
0
30
0
70
128
71
14
72
18
73
16
0
VERTEX
8
OBJECT__5
10
0
20
0
30
0
70
128
71
15
72
19
73
20
0
VERTEX
8
OBJECT__5
10
0
20
0
30
0
70
128
71
20
72
21
73
15
0
VERTEX
8
OBJECT__5
10
0
20
0
30
0
70
128
71
22
72
21
73
23
0
VERTEX
8
OBJECT__5
10
0
20
0
30
0
70
128
71
21
72
24
73
23
0
VERTEX
8
OBJECT__5
10
0
20
0
30
0
70
128
71
22
72
25
73
26
0
VERTEX
8
OBJECT__5
10
0
20
0
30
0
70
128
71
26
72
27
73
22
0
VERTEX
8
OBJECT__5
10
0
20
0
30
0
70
128
71
22
72
28
73
25
0
VERTEX
8
OBJECT__5
10
0
20
0
30
0
70
128
71
29
72
27
73
30
0
VERTEX
8
OBJECT__5
10
0
20
0
30
0
70
128
71
27
72
31
73
30
0
VERTEX
8
OBJECT__5
10
0
20
0
30
0
70
128
71
32
72
29
73
33
0
VERTEX
8
OBJECT__5
10
0
20
0
30
0
70
128
71
33
72
34
73
32
0
VERTEX
8
OBJECT__5
10
0
20
0
30
0
70
128
71
29
72
35
73
33
0
VERTEX
8
OBJECT__5
10
0
20
0
30
0
70
128
71
32
72
36
73
37
0
VERTEX
8
OBJECT__5
10
0
20
0
30
0
70
128
71
37
72
38
73
32
0
VERTEX
8
OBJECT__5
10
0
20
0
30
0
70
128
71
1
72
38
73
39
0
VERTEX
8
OBJECT__5
10
0
20
0
30
0
70
128
71
38
72
40
73
39
0
VERTEX
8
OBJECT__5
10
0
20
0
30
0
70
128
71
39
72
2
73
1
0
VERTEX
8
OBJECT__5
10
0
20
0
30
0
70
128
71
37
72
40
73
38
0
VERTEX
8
OBJECT__5
10
0
20
0
30
0
70
128
71
34
72
36
73
32
0
VERTEX
8
OBJECT__5
10
0
20
0
30
0
70
128
71
30
72
35
73
29
0
VERTEX
8
OBJECT__5
10
0
20
0
30
0
70
128
71
26
72
31
73
27
0
VERTEX
8
OBJECT__5
10
0
20
0
30
0
70
128
71
23
72
28
73
22
0
VERTEX
8
OBJECT__5
10
0
20
0
30
0
70
128
71
20
72
24
73
21
0
VERTEX
8
OBJECT__5
10
0
20
0
30
0
70
128
71
17
72
19
73
15
0
VERTEX
8
OBJECT__5
10
0
20
0
30
0
70
128
71
13
72
18
73
14
0
VERTEX
8
OBJECT__5
10
0
20
0
30
0
70
128
71
9
72
12
73
10
0
VERTEX
8
OBJECT__5
10
0
20
0
30
0
70
128
71
6
72
11
73
5
0
VERTEX
8
OBJECT__5
10
0
20
0
30
0
70
128
71
3
72
7
73
4
0
SEQEND
8
OBJECT__5
0
POLYLINE
8
OBJECT__6
66
1
70
64
71
19
72
19
62
253
0
VERTEX
8
OBJECT__6
10
101.000000
20
25.981001
30
74.000000
70
192
0
VERTEX
8
OBJECT__6
10
111.981003
20
15.000000
30
74.000000
70
192
0
VERTEX
8
OBJECT__6
10
95.010002
20
4.339000
30
74.000000
70
192
0
VERTEX
8
OBJECT__6
10
116.000000
20
0.000000
30
74.000000
70
192
0
VERTEX
8
OBJECT__6
10
95.010002
20
-4.339000
30
74.000000
70
192
0
VERTEX
8
OBJECT__6
10
101.000000
20
-25.981001
30
74.000000
70
192
0
VERTEX
8
OBJECT__6
10
88.224998
20
-9.749000
30
74.000000
70
192
0
VERTEX
8
OBJECT__6
10
86.000000
20
30.000000
30
74.000000
70
192
0
VERTEX
8
OBJECT__6
10
88.224998
20
9.749000
30
74.000000
70
192
0
VERTEX
8
OBJECT__6
10
79.764999
20
7.818000
30
74.000000
70
192
0
VERTEX
8
OBJECT__6
10
111.981003
20
-15.000000
30
74.000000
70
192
0
VERTEX
8
OBJECT__6
10
86.000000
20
-30.000000
30
74.000000
70
192
0
VERTEX
8
OBJECT__6
10
60.019001
20
15.000000
30
74.000000
70
192
0
VERTEX
8
OBJECT__6
10
76.000000
20
0.000000
30
74.000000
70
192
0
VERTEX
8
OBJECT__6
10
71.000000
20
-25.981001
30
74.000000
70
192
0
VERTEX
8
OBJECT__6
10
79.764999
20
-7.818000
30
74.000000
70
192
0
VERTEX
8
OBJECT__6
10
56.000000
20
0.000000
30
74.000000
70
192
0
VERTEX
8
OBJECT__6
10
60.019001
20
-15.000000
30
74.000000
70
192
0
VERTEX
8
OBJECT__6
10
71.000000
20
25.981001
30
74.000000
70
192
0
VERTEX
8
OBJECT__6
10
0
20
0
30
0
70
128
71
1
72
2
73
3
0
VERTEX
8
OBJECT__6
10
0
20
0
30
0
70
128
71
4
72
5
73
3
0
VERTEX
8
OBJECT__6
10
0
20
0
30
0
70
128
71
6
72
7
73
5
0
VERTEX
8
OBJECT__6
10
0
20
0
30
0
70
128
71
8
72
9
73
10
0
VERTEX
8
OBJECT__6
10
0
20
0
30
0
70
128
71
9
72
8
73
1
0
VERTEX
8
OBJECT__6
10
0
20
0
30
0
70
128
71
3
72
2
73
4
0
VERTEX
8
OBJECT__6
10
0
20
0
30
0
70
128
71
5
72
11
73
6
0
VERTEX
8
OBJECT__6
10
0
20
0
30
0
70
128
71
3
72
9
73
1
0
VERTEX
8
OBJECT__6
10
0
20
0
30
0
70
128
71
6
72
12
73
7
0
VERTEX
8
OBJECT__6
10
0
20
0
30
0
70
128
71
13
72
10
73
14
0
VERTEX
8
OBJECT__6
10
0
20
0
30
0
70
128
71
4
72
11
73
5
0
VERTEX
8
OBJECT__6
10
0
20
0
30
0
70
128
71
12
72
15
73
16
0
VERTEX
8
OBJECT__6
10
0
20
0
30
0
70
128
71
14
72
17
73
13
0
VERTEX
8
OBJECT__6
10
0
20
0
30
0
70
128
71
16
72
7
73
12
0
VERTEX
8
OBJECT__6
10
0
20
0
30
0
70
128
71
18
72
17
73
14
0
VERTEX
8
OBJECT__6
10
0
20
0
30
0
70
128
71
10
72
19
73
8
0
VERTEX
8
OBJECT__6
10
0
20
0
30
0
70
128
71
16
72
15
73
18
0
VERTEX
8
OBJECT__6
10
0
20
0
30
0
70
128
71
14
72
16
73
18
0
VERTEX
8
OBJECT__6
10
0
20
0
30
0
70
128
71
13
72
19
73
10
0
SEQEND
8
OBJECT__6
0
POLYLINE
8
OBJECT__7
66
1
70
64
71
23
72
23
62
253
0
VERTEX
8
OBJECT__7
10
76.000000
20
0.000000
30
74.000000
70
192
0
VERTEX
8
OBJECT__7
10
79.764999
20
7.818000
30
74.000000
70
192
0
VERTEX
8
OBJECT__7
10
77.910004
20
5.878000
30
46.000000
70
192
0
VERTEX
8
OBJECT__7
10
80.046997
20
7.430000
30
46.000000
70
192
0
VERTEX
8
OBJECT__7
10
88.224998
20
9.749000
30
74.000000
70
192
0
VERTEX
8
OBJECT__7
10
88.224998
20
9.511000
30
46.000000
70
192
0
VERTEX
8
OBJECT__7
10
82.910004
20
9.511000
30
46.000000
70
192
0
VERTEX
8
OBJECT__7
10
95.010002
20
4.339000
30
74.000000
70
192
0
VERTEX
8
OBJECT__7
10
94.089996
20
5.878000
30
46.000000
70
192
0
VERTEX
8
OBJECT__7
10
89.089996
20
9.511000
30
46.000000
70
192
0
VERTEX
8
OBJECT__7
10
94.629997
20
4.216000
30
46.000000
70
192
0
VERTEX
8
OBJECT__7
10
95.010002
20
-4.339000
30
74.000000
70
192
0
VERTEX
8
OBJECT__7
10
96.000000
20
0.000000
30
46.000000
70
192
0
VERTEX
8
OBJECT__7
10
94.629997
20
-4.216000
30
46.000000
70
192
0
VERTEX
8
OBJECT__7
10
88.224998
20
-9.749000
30
74.000000
70
192
0
VERTEX
8
OBJECT__7
10
89.089996
20
-9.511000
30
46.000000
70
192
0
VERTEX
8
OBJECT__7
10
94.089996
20
-5.878000
30
46.000000
70
192
0
VERTEX
8
OBJECT__7
10
88.224998
20
-9.511000
30
46.000000
70
192
0
VERTEX
8
OBJECT__7
10
79.764999
20
-7.818000
30
74.000000
70
192
0
VERTEX
8
OBJECT__7
10
82.910004
20
-9.511000
30
46.000000
70
192
0
VERTEX
8
OBJECT__7
10
80.046997
20
-7.430000
30
46.000000
70
192
0
VERTEX
8
OBJECT__7
10
76.000000
20
0.000000
30
46.000000
70
192
0
VERTEX
8
OBJECT__7
10
77.910004
20
-5.878000
30
46.000000
70
192
0
VERTEX
8
OBJECT__7
10
0
20
0
30
0
70
128
71
1
72
2
73
3
0
VERTEX
8
OBJECT__7
10
0
20
0
30
0
70
128
71
2
72
4
73
3
0
VERTEX
8
OBJECT__7
10
0
20
0
30
0
70
128
71
5
72
6
73
7
0
VERTEX
8
OBJECT__7
10
0
20
0
30
0
70
128
71
7
72
2
73
5
0
VERTEX
8
OBJECT__7
10
0
20
0
30
0
70
128
71
5
72
8
73
9
0
VERTEX
8
OBJECT__7
10
0
20
0
30
0
70
128
71
9
72
10
73
5
0
VERTEX
8
OBJECT__7
10
0
20
0
30
0
70
128
71
8
72
11
73
9
0
VERTEX
8
OBJECT__7
10
0
20
0
30
0
70
128
71
8
72
12
73
13
0
VERTEX
8
OBJECT__7
10
0
20
0
30
0
70
128
71
12
72
14
73
13
0
VERTEX
8
OBJECT__7
10
0
20
0
30
0
70
128
71
15
72
16
73
17
0
VERTEX
8
OBJECT__7
10
0
20
0
30
0
70
128
71
17
72
12
73
15
0
VERTEX
8
OBJECT__7
10
0
20
0
30
0
70
128
71
15
72
18
73
16
0
VERTEX
8
OBJECT__7
10
0
20
0
30
0
70
128
71
15
72
19
73
20
0
VERTEX
8
OBJECT__7
10
0
20
0
30
0
70
128
71
19
72
21
73
20
0
VERTEX
8
OBJECT__7
10
0
20
0
30
0
70
128
71
1
72
22
73
23
0
VERTEX
8
OBJECT__7
10
0
20
0
30
0
70
128
71
23
72
19
73
1
0
VERTEX
8
OBJECT__7
10
0
20
0
30
0
70
128
71
23
72
21
73
19
0
VERTEX
8
OBJECT__7
10
0
20
0
30
0
70
128
71
20
72
18
73
15
0
VERTEX
8
OBJECT__7
10
0
20
0
30
0
70
128
71
17
72
14
73
12
0
VERTEX
8
OBJECT__7
10
0
20
0
30
0
70
128
71
13
72
11
73
8
0
VERTEX
8
OBJECT__7
10
0
20
0
30
0
70
128
71
10
72
6
73
5
0
VERTEX
8
OBJECT__7
10
0
20
0
30
0
70
128
71
7
72
4
73
2
0
VERTEX
8
OBJECT__7
10
0
20
0
30
0
70
128
71
3
72
22
73
1
0
SEQEND
8
OBJECT__7
0
POLYLINE
8
OBJECT__8
66
1
70
64
71
82
72
132
62
253
0
VERTEX
8
OBJECT__8
10
77.910004
20
-5.878000
30
46.000000
70
192
0
VERTEX
8
OBJECT__8
10
76.000000
20
0.000000
30
46.000000
70
192
0
VERTEX
8
OBJECT__8
10
74.773003
20
0.000000
30
36.682999
70
192
0
VERTEX
8
OBJECT__8
10
71.177002
20
0.000000
30
28.000000
70
192
0
VERTEX
8
OBJECT__8
10
72.831001
20
-5.878000
30
27.045000
70
192
0
VERTEX
8
OBJECT__8
10
65.456001
20
0.000000
30
20.544001
70
192
0
VERTEX
8
OBJECT__8
10
66.806000
20
-5.878000
30
19.194000
70
192
0
VERTEX
8
OBJECT__8
10
58.000000
20
0.000000
30
14.823000
70
192
0
VERTEX
8
OBJECT__8
10
58.955002
20
-5.878000
30
13.169000
70
192
0
VERTEX
8
OBJECT__8
10
49.317001
20
0.000000
30
11.227000
70
192
0
VERTEX
8
OBJECT__8
10
49.812000
20
-5.878000
30
9.382000
70
192
0
VERTEX
8
OBJECT__8
10
40.000000
20
0.000000
30
10.000000
70
192
0
VERTEX
8
OBJECT__8
10
76.617996
20
-5.878000
30
36.188000
70
192
0
VERTEX
8
OBJECT__8
10
81.447998
20
-9.511000
30
34.894001
70
192
0
VERTEX
8
OBJECT__8
10
80.046997
20
-7.430000
30
46.000000
70
192
0
VERTEX
8
OBJECT__8
10
82.910004
20
-9.511000
30
46.000000
70
192
0
VERTEX
8
OBJECT__8
10
77.161003
20
-9.511000
30
24.545000
70
192
0
VERTEX
8
OBJECT__8
10
70.342003
20
-9.511000
30
15.658000
70
192
0
VERTEX
8
OBJECT__8
10
61.455002
20
-9.511000
30
8.839000
70
192
0
VERTEX
8
OBJECT__8
10
51.105999
20
-9.511000
30
4.552000
70
192
0
VERTEX
8
OBJECT__8
10
40.000000
20
-5.878000
30
8.090000
70
192
0
VERTEX
8
OBJECT__8
10
40.000000
20
-7.430000
30
5.953000
70
192
0
VERTEX
8
OBJECT__8
10
88.224998
20
-9.511000
30
46.000000
70
192
0
VERTEX
8
OBJECT__8
10
87.417000
20
-9.511000
30
33.294998
70
192
0
VERTEX
8
OBJECT__8
10
89.089996
20
-9.511000
30
46.000000
70
192
0
VERTEX
8
OBJECT__8
10
82.513000
20
-9.511000
30
21.455000
70
192
0
VERTEX
8
OBJECT__8
10
74.711998
20
-9.511000
30
11.288000
70
192
0
VERTEX
8
OBJECT__8
10
64.544998
20
-9.511000
30
3.487000
70
192
0
VERTEX
8
OBJECT__8
10
52.705002
20
-9.511000
30
-1.417000
70
192
0
VERTEX
8
OBJECT__8
10
40.000000
20
-9.511000
30
-2.225000
70
192
0
VERTEX
8
OBJECT__8
10
40.000000
20
-9.511000
30
3.090000
70
192
0
VERTEX
8
OBJECT__8
10
92.247002
20
-5.878000
30
32.000000
70
192
0
VERTEX
8
OBJECT__8
10
94.089996
20
-5.878000
30
46.000000
70
192
0
VERTEX
8
OBJECT__8
10
86.843002
20
-5.878000
30
18.955000
70
192
0
VERTEX
8
OBJECT__8
10
78.248001
20
-5.878000
30
7.752000
70
192
0
VERTEX
8
OBJECT__8
10
67.044998
20
-5.878000
30
-0.843000
70
192
0
VERTEX
8
OBJECT__8
10
54.000000
20
-5.878000
30
-6.247000
70
192
0
VERTEX
8
OBJECT__8
10
40.000000
20
-9.511000
30
-3.090000
70
192
0
VERTEX
8
OBJECT__8
10
94.092003
20
0.000000
30
31.506001
70
192
0
VERTEX
8
OBJECT__8
10
96.000000
20
0.000000
30
46.000000
70
192
0
VERTEX
8
OBJECT__8
10
94.629997
20
-4.216000
30
46.000000
70
192
0
VERTEX
8
OBJECT__8
10
88.497002
20
0.000000
30
18.000000
70
192
0
VERTEX
8
OBJECT__8
10
79.598000
20
0.000000
30
6.402000
70
192
0
VERTEX
8
OBJECT__8
10
68.000000
20
0.000000
30
-2.497000
70
192
0
VERTEX
8
OBJECT__8
10
54.493999
20
0.000000
30
-8.092000
70
192
0
VERTEX
8
OBJECT__8
10
40.000000
20
-4.216000
30
-8.630000
70
192
0
VERTEX
8
OBJECT__8
10
40.000000
20
-5.878000
30
-8.090000
70
192
0
VERTEX
8
OBJECT__8
10
92.247002
20
5.878000
30
32.000000
70
192
0
VERTEX
8
OBJECT__8
10
94.629997
20
4.216000
30
46.000000
70
192
0
VERTEX
8
OBJECT__8
10
94.089996
20
5.878000
30
46.000000
70
192
0
VERTEX
8
OBJECT__8
10
86.843002
20
5.878000
30
18.955000
70
192
0
VERTEX
8
OBJECT__8
10
78.248001
20
5.878000
30
7.752000
70
192
0
VERTEX
8
OBJECT__8
10
67.044998
20
5.878000
30
-0.843000
70
192
0
VERTEX
8
OBJECT__8
10
54.000000
20
5.878000
30
-6.247000
70
192
0
VERTEX
8
OBJECT__8
10
40.000000
20
0.000000
30
-10.000000
70
192
0
VERTEX
8
OBJECT__8
10
40.000000
20
4.216000
30
-8.630000
70
192
0
VERTEX
8
OBJECT__8
10
87.417000
20
9.511000
30
33.294998
70
192
0
VERTEX
8
OBJECT__8
10
82.513000
20
9.511000
30
21.455000
70
192
0
VERTEX
8
OBJECT__8
10
74.711998
20
9.511000
30
11.288000
70
192
0
VERTEX
8
OBJECT__8
10
64.544998
20
9.511000
30
3.487000
70
192
0
VERTEX
8
OBJECT__8
10
52.705002
20
9.511000
30
-1.417000
70
192
0
VERTEX
8
OBJECT__8
10
40.000000
20
5.878000
30
-8.090000
70
192
0
VERTEX
8
OBJECT__8
10
40.000000
20
9.511000
30
-3.090000
70
192
0
VERTEX
8
OBJECT__8
10
88.224998
20
9.511000
30
46.000000
70
192
0
VERTEX
8
OBJECT__8
10
81.447998
20
9.511000
30
34.894001
70
192
0
VERTEX
8
OBJECT__8
10
82.910004
20
9.511000
30
46.000000
70
192
0
VERTEX
8
OBJECT__8
10
77.161003
20
9.511000
30
24.545000
70
192
0
VERTEX
8
OBJECT__8
10
70.342003
20
9.511000
30
15.658000
70
192
0
VERTEX
8
OBJECT__8
10
61.455002
20
9.511000
30
8.839000
70
192
0
VERTEX
8
OBJECT__8
10
51.105999
20
9.511000
30
4.552000
70
192
0
VERTEX
8
OBJECT__8
10
40.000000
20
9.511000
30
-2.225000
70
192
0
VERTEX
8
OBJECT__8
10
40.000000
20
9.511000
30
3.090000
70
192
0
VERTEX
8
OBJECT__8
10
76.617996
20
5.878000
30
36.188000
70
192
0
VERTEX
8
OBJECT__8
10
77.910004
20
5.878000
30
46.000000
70
192
0
VERTEX
8
OBJECT__8
10
80.046997
20
7.430000
30
46.000000
70
192
0
VERTEX
8
OBJECT__8
10
72.831001
20
5.878000
30
27.045000
70
192
0
VERTEX
8
OBJECT__8
10
66.806000
20
5.878000
30
19.194000
70
192
0
VERTEX
8
OBJECT__8
10
58.955002
20
5.878000
30
13.169000
70
192
0
VERTEX
8
OBJECT__8
10
49.812000
20
5.878000
30
9.382000
70
192
0
VERTEX
8
OBJECT__8
10
40.000000
20
7.430000
30
5.953000
70
192
0
VERTEX
8
OBJECT__8
10
40.000000
20
5.878000
30
8.090000
70
192
0
VERTEX
8
OBJECT__8
10
89.089996
20
9.511000
30
46.000000
70
192
0
VERTEX
8
OBJECT__8
10
0
20
0
30
0
70
128
71
1
72
2
73
3
0
VERTEX
8
OBJECT__8
10
0
20
0
30
0
70
128
71
3
72
4
73
5
0
VERTEX
8
OBJECT__8
10
0
20
0
30
0
70
128
71
4
72
6
73
7
0
VERTEX
8
OBJECT__8
10
0
20
0
30
0
70
128
71
6
72
8
73
9
0
VERTEX
8
OBJECT__8
10
0
20
0
30
0
70
128
71
8
72
10
73
11
0
VERTEX
8
OBJECT__8
10
0
20
0
30
0
70
128
71
11
72
10
73
12
0
VERTEX
8
OBJECT__8
10
0
20
0
30
0
70
128
71
13
72
14
73
15
0
VERTEX
8
OBJECT__8
10
0
20
0
30
0
70
128
71
14
72
16
73
15
0
VERTEX
8
OBJECT__8
10
0
20
0
30
0
70
128
71
13
72
5
73
17
0
VERTEX
8
OBJECT__8
10
0
20
0
30
0
70
128
71
5
72
7
73
18
0
VERTEX
8
OBJECT__8
10
0
20
0
30
0
70
128
71
7
72
9
73
19
0
VERTEX
8
OBJECT__8
10
0
20
0
30
0
70
128
71
9
72
11
73
20
0
VERTEX
8
OBJECT__8
10
0
20
0
30
0
70
128
71
11
72
21
73
22
0
VERTEX
8
OBJECT__8
10
0
20
0
30
0
70
128
71
22
72
20
73
11
0
VERTEX
8
OBJECT__8
10
0
20
0
30
0
70
128
71
23
72
16
73
14
0
VERTEX
8
OBJECT__8
10
0
20
0
30
0
70
128
71
24
72
25
73
23
0
VERTEX
8
OBJECT__8
10
0
20
0
30
0
70
128
71
14
72
17
73
26
0
VERTEX
8
OBJECT__8
10
0
20
0
30
0
70
128
71
17
72
18
73
27
0
VERTEX
8
OBJECT__8
10
0
20
0
30
0
70
128
71
18
72
19
73
28
0
VERTEX
8
OBJECT__8
10
0
20
0
30
0
70
128
71
19
72
20
73
29
0
VERTEX
8
OBJECT__8
10
0
20
0
30
0
70
128
71
30
72
29
73
20
0
VERTEX
8
OBJECT__8
10
0
20
0
30
0
70
128
71
20
72
31
73
30
0
VERTEX
8
OBJECT__8
10
0
20
0
30
0
70
128
71
32
72
33
73
25
0
VERTEX
8
OBJECT__8
10
0
20
0
30
0
70
128
71
24
72
26
73
34
0
VERTEX
8
OBJECT__8
10
0
20
0
30
0
70
128
71
26
72
27
73
35
0
VERTEX
8
OBJECT__8
10
0
20
0
30
0
70
128
71
27
72
28
73
36
0
VERTEX
8
OBJECT__8
10
0
20
0
30
0
70
128
71
28
72
29
73
37
0
VERTEX
8
OBJECT__8
10
0
20
0
30
0
70
128
71
37
72
29
73
38
0
VERTEX
8
OBJECT__8
10
0
20
0
30
0
70
128
71
39
72
40
73
41
0
VERTEX
8
OBJECT__8
10
0
20
0
30
0
70
128
71
41
72
32
73
39
0
VERTEX
8
OBJECT__8
10
0
20
0
30
0
70
128
71
32
72
34
73
42
0
VERTEX
8
OBJECT__8
10
0
20
0
30
0
70
128
71
34
72
35
73
43
0
VERTEX
8
OBJECT__8
10
0
20
0
30
0
70
128
71
35
72
36
73
44
0
VERTEX
8
OBJECT__8
10
0
20
0
30
0
70
128
71
36
72
37
73
45
0
VERTEX
8
OBJECT__8
10
0
20
0
30
0
70
128
71
45
72
37
73
46
0
VERTEX
8
OBJECT__8
10
0
20
0
30
0
70
128
71
37
72
47
73
46
0
VERTEX
8
OBJECT__8
10
0
20
0
30
0
70
128
71
39
72
48
73
49
0
VERTEX
8
OBJECT__8
10
0
20
0
30
0
70
128
71
48
72
50
73
49
0
VERTEX
8
OBJECT__8
10
0
20
0
30
0
70
128
71
39
72
42
73
51
0
VERTEX
8
OBJECT__8
10
0
20
0
30
0
70
128
71
42
72
43
73
52
0
VERTEX
8
OBJECT__8
10
0
20
0
30
0
70
128
71
43
72
44
73
53
0
VERTEX
8
OBJECT__8
10
0
20
0
30
0
70
128
71
44
72
45
73
54
0
VERTEX
8
OBJECT__8
10
0
20
0
30
0
70
128
71
45
72
55
73
56
0
VERTEX
8
OBJECT__8
10
0
20
0
30
0
70
128
71
56
72
54
73
45
0
VERTEX
8
OBJECT__8
10
0
20
0
30
0
70
128
71
50
72
48
73
57
0
VERTEX
8
OBJECT__8
10
0
20
0
30
0
70
128
71
48
72
51
73
58
0
VERTEX
8
OBJECT__8
10
0
20
0
30
0
70
128
71
51
72
52
73
59
0
VERTEX
8
OBJECT__8
10
0
20
0
30
0
70
128
71
52
72
53
73
60
0
VERTEX
8
OBJECT__8
10
0
20
0
30
0
70
128
71
53
72
54
73
61
0
VERTEX
8
OBJECT__8
10
0
20
0
30
0
70
128
71
54
72
62
73
63
0
VERTEX
8
OBJECT__8
10
0
20
0
30
0
70
128
71
64
72
57
73
65
0
VERTEX
8
OBJECT__8
10
0
20
0
30
0
70
128
71
65
72
66
73
64
0
VERTEX
8
OBJECT__8
10
0
20
0
30
0
70
128
71
57
72
58
73
67
0
VERTEX
8
OBJECT__8
10
0
20
0
30
0
70
128
71
58
72
59
73
68
0
VERTEX
8
OBJECT__8
10
0
20
0
30
0
70
128
71
59
72
60
73
69
0
VERTEX
8
OBJECT__8
10
0
20
0
30
0
70
128
71
60
72
61
73
70
0
VERTEX
8
OBJECT__8
10
0
20
0
30
0
70
128
71
71
72
72
73
70
0
VERTEX
8
OBJECT__8
10
0
20
0
30
0
70
128
71
61
72
63
73
71
0
VERTEX
8
OBJECT__8
10
0
20
0
30
0
70
128
71
73
72
74
73
75
0
VERTEX
8
OBJECT__8
10
0
20
0
30
0
70
128
71
75
72
65
73
73
0
VERTEX
8
OBJECT__8
10
0
20
0
30
0
70
128
71
65
72
67
73
76
0
VERTEX
8
OBJECT__8
10
0
20
0
30
0
70
128
71
67
72
68
73
77
0
VERTEX
8
OBJECT__8
10
0
20
0
30
0
70
128
71
68
72
69
73
78
0
VERTEX
8
OBJECT__8
10
0
20
0
30
0
70
128
71
69
72
70
73
79
0
VERTEX
8
OBJECT__8
10
0
20
0
30
0
70
128
71
79
72
70
73
80
0
VERTEX
8
OBJECT__8
10
0
20
0
30
0
70
128
71
70
72
72
73
80
0
VERTEX
8
OBJECT__8
10
0
20
0
30
0
70
128
71
74
72
73
73
3
0
VERTEX
8
OBJECT__8
10
0
20
0
30
0
70
128
71
73
72
76
73
4
0
VERTEX
8
OBJECT__8
10
0
20
0
30
0
70
128
71
76
72
77
73
6
0
VERTEX
8
OBJECT__8
10
0
20
0
30
0
70
128
71
77
72
78
73
8
0
VERTEX
8
OBJECT__8
10
0
20
0
30
0
70
128
71
78
72
79
73
10
0
VERTEX
8
OBJECT__8
10
0
20
0
30
0
70
128
71
79
72
81
73
12
0
VERTEX
8
OBJECT__8
10
0
20
0
30
0
70
128
71
12
72
10
73
79
0
VERTEX
8
OBJECT__8
10
0
20
0
30
0
70
128
71
10
72
8
73
78
0
VERTEX
8
OBJECT__8
10
0
20
0
30
0
70
128
71
8
72
6
73
77
0
VERTEX
8
OBJECT__8
10
0
20
0
30
0
70
128
71
6
72
4
73
76
0
VERTEX
8
OBJECT__8
10
0
20
0
30
0
70
128
71
4
72
3
73
73
0
VERTEX
8
OBJECT__8
10
0
20
0
30
0
70
128
71
3
72
2
73
74
0
VERTEX
8
OBJECT__8
10
0
20
0
30
0
70
128
71
80
72
81
73
79
0
VERTEX
8
OBJECT__8
10
0
20
0
30
0
70
128
71
79
72
78
73
69
0
VERTEX
8
OBJECT__8
10
0
20
0
30
0
70
128
71
78
72
77
73
68
0
VERTEX
8
OBJECT__8
10
0
20
0
30
0
70
128
71
77
72
76
73
67
0
VERTEX
8
OBJECT__8
10
0
20
0
30
0
70
128
71
76
72
73
73
65
0
VERTEX
8
OBJECT__8
10
0
20
0
30
0
70
128
71
75
72
66
73
65
0
VERTEX
8
OBJECT__8
10
0
20
0
30
0
70
128
71
70
72
61
73
71
0
VERTEX
8
OBJECT__8
10
0
20
0
30
0
70
128
71
70
72
69
73
60
0
VERTEX
8
OBJECT__8
10
0
20
0
30
0
70
128
71
69
72
68
73
59
0
VERTEX
8
OBJECT__8
10
0
20
0
30
0
70
128
71
68
72
67
73
58
0
VERTEX
8
OBJECT__8
10
0
20
0
30
0
70
128
71
67
72
65
73
57
0
VERTEX
8
OBJECT__8
10
0
20
0
30
0
70
128
71
64
72
82
73
57
0
VERTEX
8
OBJECT__8
10
0
20
0
30
0
70
128
71
63
72
61
73
54
0
VERTEX
8
OBJECT__8
10
0
20
0
30
0
70
128
71
61
72
60
73
53
0
VERTEX
8
OBJECT__8
10
0
20
0
30
0
70
128
71
60
72
59
73
52
0
VERTEX
8
OBJECT__8
10
0
20
0
30
0
70
128
71
59
72
58
73
51
0
VERTEX
8
OBJECT__8
10
0
20
0
30
0
70
128
71
58
72
57
73
48
0
VERTEX
8
OBJECT__8
10
0
20
0
30
0
70
128
71
57
72
82
73
50
0
VERTEX
8
OBJECT__8
10
0
20
0
30
0
70
128
71
56
72
62
73
54
0
VERTEX
8
OBJECT__8
10
0
20
0
30
0
70
128
71
54
72
53
73
44
0
VERTEX
8
OBJECT__8
10
0
20
0
30
0
70
128
71
53
72
52
73
43
0
VERTEX
8
OBJECT__8
10
0
20
0
30
0
70
128
71
52
72
51
73
42
0
VERTEX
8
OBJECT__8
10
0
20
0
30
0
70
128
71
51
72
48
73
39
0
VERTEX
8
OBJECT__8
10
0
20
0
30
0
70
128
71
49
72
40
73
39
0
VERTEX
8
OBJECT__8
10
0
20
0
30
0
70
128
71
46
72
55
73
45
0
VERTEX
8
OBJECT__8
10
0
20
0
30
0
70
128
71
45
72
44
73
36
0
VERTEX
8
OBJECT__8
10
0
20
0
30
0
70
128
71
44
72
43
73
35
0
VERTEX
8
OBJECT__8
10
0
20
0
30
0
70
128
71
43
72
42
73
34
0
VERTEX
8
OBJECT__8
10
0
20
0
30
0
70
128
71
42
72
39
73
32
0
VERTEX
8
OBJECT__8
10
0
20
0
30
0
70
128
71
41
72
33
73
32
0
VERTEX
8
OBJECT__8
10
0
20
0
30
0
70
128
71
38
72
47
73
37
0
VERTEX
8
OBJECT__8
10
0
20
0
30
0
70
128
71
37
72
36
73
28
0
VERTEX
8
OBJECT__8
10
0
20
0
30
0
70
128
71
36
72
35
73
27
0
VERTEX
8
OBJECT__8
10
0
20
0
30
0
70
128
71
35
72
34
73
26
0
VERTEX
8
OBJECT__8
10
0
20
0
30
0
70
128
71
34
72
32
73
24
0
VERTEX
8
OBJECT__8
10
0
20
0
30
0
70
128
71
25
72
24
73
32
0
VERTEX
8
OBJECT__8
10
0
20
0
30
0
70
128
71
30
72
38
73
29
0
VERTEX
8
OBJECT__8
10
0
20
0
30
0
70
128
71
29
72
28
73
19
0
VERTEX
8
OBJECT__8
10
0
20
0
30
0
70
128
71
28
72
27
73
18
0
VERTEX
8
OBJECT__8
10
0
20
0
30
0
70
128
71
27
72
26
73
17
0
VERTEX
8
OBJECT__8
10
0
20
0
30
0
70
128
71
26
72
24
73
14
0
VERTEX
8
OBJECT__8
10
0
20
0
30
0
70
128
71
14
72
24
73
23
0
VERTEX
8
OBJECT__8
10
0
20
0
30
0
70
128
71
22
72
31
73
20
0
VERTEX
8
OBJECT__8
10
0
20
0
30
0
70
128
71
20
72
19
73
9
0
VERTEX
8
OBJECT__8
10
0
20
0
30
0
70
128
71
19
72
18
73
7
0
VERTEX
8
OBJECT__8
10
0
20
0
30
0
70
128
71
18
72
17
73
5
0
VERTEX
8
OBJECT__8
10
0
20
0
30
0
70
128
71
17
72
14
73
13
0
VERTEX
8
OBJECT__8
10
0
20
0
30
0
70
128
71
15
72
1
73
13
0
VERTEX
8
OBJECT__8
10
0
20
0
30
0
70
128
71
12
72
21
73
11
0
VERTEX
8
OBJECT__8
10
0
20
0
30
0
70
128
71
11
72
9
73
8
0
VERTEX
8
OBJECT__8
10
0
20
0
30
0
70
128
71
9
72
7
73
6
0
VERTEX
8
OBJECT__8
10
0
20
0
30
0
70
128
71
7
72
5
73
4
0
VERTEX
8
OBJECT__8
10
0
20
0
30
0
70
128
71
5
72
13
73
3
0
VERTEX
8
OBJECT__8
10
0
20
0
30
0
70
128
71
3
72
13
73
1
0
SEQEND
8
OBJECT__8
0
POLYLINE
8
OBJECT__9
66
1
70
64
71
24
72
24
62
253
0
VERTEX
8
OBJECT__9
10
10.000000
20
0.000000
30
10.000000
70
192
0
VERTEX
8
OBJECT__9
10
40.000000
20
0.000000
30
10.000000
70
192
0
VERTEX
8
OBJECT__9
10
40.000000
20
5.878000
30
8.090000
70
192
0
VERTEX
8
OBJECT__9
10
10.000000
20
7.818000
30
6.235000
70
192
0
VERTEX
8
OBJECT__9
10
10.000000
20
9.749000
30
-2.225000
70
192
0
VERTEX
8
OBJECT__9
10
40.000000
20
9.511000
30
3.090000
70
192
0
VERTEX
8
OBJECT__9
10
40.000000
20
7.430000
30
5.953000
70
192
0
VERTEX
8
OBJECT__9
10
40.000000
20
9.511000
30
-3.090000
70
192
0
VERTEX
8
OBJECT__9
10
40.000000
20
5.878000
30
-8.090000
70
192
0
VERTEX
8
OBJECT__9
10
10.000000
20
4.339000
30
-9.010000
70
192
0
VERTEX
8
OBJECT__9
10
40.000000
20
9.511000
30
-2.225000
70
192
0
VERTEX
8
OBJECT__9
10
10.000000
20
0.000000
30
-10.000000
70
192
0
VERTEX
8
OBJECT__9
10
40.000000
20
0.000000
30
-10.000000
70
192
0
VERTEX
8
OBJECT__9
10
40.000000
20
-4.216000
30
-8.630000
70
192
0
VERTEX
8
OBJECT__9
10
40.000000
20
4.216000
30
-8.630000
70
192
0
VERTEX
8
OBJECT__9
10
10.000000
20
-9.749000
30
-2.225000
70
192
0
VERTEX
8
OBJECT__9
10
10.000000
20
-4.339000
30
-9.010000
70
192
0
VERTEX
8
OBJECT__9
10
40.000000
20
-5.878000
30
-8.090000
70
192
0
VERTEX
8
OBJECT__9
10
40.000000
20
-9.511000
30
-3.090000
70
192
0
VERTEX
8
OBJECT__9
10
40.000000
20
-9.511000
30
-2.225000
70
192
0
VERTEX
8
OBJECT__9
10
40.000000
20
-9.511000
30
3.090000
70
192
0
VERTEX
8
OBJECT__9
10
10.000000
20
-7.818000
30
6.235000
70
192
0
VERTEX
8
OBJECT__9
10
40.000000
20
-5.878000
30
8.090000
70
192
0
VERTEX
8
OBJECT__9
10
40.000000
20
-7.430000
30
5.953000
70
192
0
VERTEX
8
OBJECT__9
10
0
20
0
30
0
70
128
71
1
72
2
73
3
0
VERTEX
8
OBJECT__9
10
0
20
0
30
0
70
128
71
3
72
4
73
1
0
VERTEX
8
OBJECT__9
10
0
20
0
30
0
70
128
71
5
72
4
73
6
0
VERTEX
8
OBJECT__9
10
0
20
0
30
0
70
128
71
4
72
7
73
6
0
VERTEX
8
OBJECT__9
10
0
20
0
30
0
70
128
71
5
72
8
73
9
0
VERTEX
8
OBJECT__9
10
0
20
0
30
0
70
128
71
9
72
10
73
5
0
VERTEX
8
OBJECT__9
10
0
20
0
30
0
70
128
71
5
72
11
73
8
0
VERTEX
8
OBJECT__9
10
0
20
0
30
0
70
128
71
12
72
13
73
14
0
VERTEX
8
OBJECT__9
10
0
20
0
30
0
70
128
71
12
72
10
73
15
0
VERTEX
8
OBJECT__9
10
0
20
0
30
0
70
128
71
15
72
13
73
12
0
VERTEX
8
OBJECT__9
10
0
20
0
30
0
70
128
71
16
72
17
73
18
0
VERTEX
8
OBJECT__9
10
0
20
0
30
0
70
128
71
18
72
19
73
16
0
VERTEX
8
OBJECT__9
10
0
20
0
30
0
70
128
71
17
72
14
73
18
0
VERTEX
8
OBJECT__9
10
0
20
0
30
0
70
128
71
16
72
20
73
21
0
VERTEX
8
OBJECT__9
10
0
20
0
30
0
70
128
71
21
72
22
73
16
0
VERTEX
8
OBJECT__9
10
0
20
0
30
0
70
128
71
1
72
22
73
23
0
VERTEX
8
OBJECT__9
10
0
20
0
30
0
70
128
71
22
72
24
73
23
0
VERTEX
8
OBJECT__9
10
0
20
0
30
0
70
128
71
23
72
2
73
1
0
VERTEX
8
OBJECT__9
10
0
20
0
30
0
70
128
71
21
72
24
73
22
0
VERTEX
8
OBJECT__9
10
0
20
0
30
0
70
128
71
19
72
20
73
16
0
VERTEX
8
OBJECT__9
10
0
20
0
30
0
70
128
71
14
72
17
73
12
0
VERTEX
8
OBJECT__9
10
0
20
0
30
0
70
128
71
9
72
15
73
10
0
VERTEX
8
OBJECT__9
10
0
20
0
30
0
70
128
71
6
72
11
73
5
0
VERTEX
8
OBJECT__9
10
0
20
0
30
0
70
128
71
3
72
7
73
4
0
SEQEND
8
OBJECT__9
0
POLYLINE
8
OBJECT__10
66
1
70
64
71
20
72
20
62
253
0
VERTEX
8
OBJECT__10
10
10.000000
20
23.382999
30
-13.500000
70
192
0
VERTEX
8
OBJECT__10
10
10.000000
20
9.749000
30
-2.225000
70
192
0
VERTEX
8
OBJECT__10
10
10.000000
20
4.339000
30
-9.010000
70
192
0
VERTEX
8
OBJECT__10
10
10.000000
20
0.000000
30
-27.000000
70
192
0
VERTEX
8
OBJECT__10
10
10.000000
20
13.500000
30
-23.382999
70
192
0
VERTEX
8
OBJECT__10
10
10.000000
20
27.000000
30
0.000000
70
192
0
VERTEX
8
OBJECT__10
10
10.000000
20
23.382999
30
13.500000
70
192
0
VERTEX
8
OBJECT__10
10
10.000000
20
7.818000
30
6.235000
70
192
0
VERTEX
8
OBJECT__10
10
10.000000
20
13.500000
30
23.382999
70
192
0
VERTEX
8
OBJECT__10
10
10.000000
20
0.000000
30
27.000000
70
192
0
VERTEX
8
OBJECT__10
10
10.000000
20
0.000000
30
10.000000
70
192
0
VERTEX
8
OBJECT__10
10
10.000000
20
-13.500000
30
23.382999
70
192
0
VERTEX
8
OBJECT__10
10
10.000000
20
-7.818000
30
6.235000
70
192
0
VERTEX
8
OBJECT__10
10
10.000000
20
-23.382999
30
-13.500000
70
192
0
VERTEX
8
OBJECT__10
10
10.000000
20
-13.500000
30
-23.382999
70
192
0
VERTEX
8
OBJECT__10
10
10.000000
20
-4.339000
30
-9.010000
70
192
0
VERTEX
8
OBJECT__10
10
10.000000
20
-23.382999
30
13.500000
70
192
0
VERTEX
8
OBJECT__10
10
10.000000
20
-27.000000
30
0.000000
70
192
0
VERTEX
8
OBJECT__10
10
10.000000
20
-9.749000
30
-2.225000
70
192
0
VERTEX
8
OBJECT__10
10
10.000000
20
0.000000
30
-10.000000
70
192
0
VERTEX
8
OBJECT__10
10
0
20
0
30
0
70
128
71
1
72
2
73
3
0
VERTEX
8
OBJECT__10
10
0
20
0
30
0
70
128
71
4
72
5
73
3
0
VERTEX
8
OBJECT__10
10
0
20
0
30
0
70
128
71
3
72
5
73
1
0
VERTEX
8
OBJECT__10
10
0
20
0
30
0
70
128
71
1
72
6
73
2
0
VERTEX
8
OBJECT__10
10
0
20
0
30
0
70
128
71
6
72
7
73
8
0
VERTEX
8
OBJECT__10
10
0
20
0
30
0
70
128
71
9
72
10
73
11
0
VERTEX
8
OBJECT__10
10
0
20
0
30
0
70
128
71
8
72
2
73
6
0
VERTEX
8
OBJECT__10
10
0
20
0
30
0
70
128
71
8
72
7
73
9
0
VERTEX
8
OBJECT__10
10
0
20
0
30
0
70
128
71
12
72
13
73
11
0
VERTEX
8
OBJECT__10
10
0
20
0
30
0
70
128
71
11
72
8
73
9
0
VERTEX
8
OBJECT__10
10
0
20
0
30
0
70
128
71
11
72
10
73
12
0
VERTEX
8
OBJECT__10
10
0
20
0
30
0
70
128
71
14
72
15
73
16
0
VERTEX
8
OBJECT__10
10
0
20
0
30
0
70
128
71
12
72
17
73
13
0
VERTEX
8
OBJECT__10
10
0
20
0
30
0
70
128
71
18
72
19
73
13
0
VERTEX
8
OBJECT__10
10
0
20
0
30
0
70
128
71
19
72
18
73
14
0
VERTEX
8
OBJECT__10
10
0
20
0
30
0
70
128
71
4
72
20
73
16
0
VERTEX
8
OBJECT__10
10
0
20
0
30
0
70
128
71
13
72
17
73
18
0
VERTEX
8
OBJECT__10
10
0
20
0
30
0
70
128
71
16
72
15
73
4
0
VERTEX
8
OBJECT__10
10
0
20
0
30
0
70
128
71
16
72
19
73
14
0
VERTEX
8
OBJECT__10
10
0
20
0
30
0
70
128
71
3
72
20
73
4
0
SEQEND
8
OBJECT__10
0
POLYLINE
8
OBJECT__11
66
1
70
64
71
24
72
24
62
253
0
VERTEX
8
OBJECT__11
10
10.000000
20
13.500000
30
23.382999
70
192
0
VERTEX
8
OBJECT__11
10
0.000000
20
13.500000
30
23.382999
70
192
0
VERTEX
8
OBJECT__11
10
0.000000
20
0.000000
30
27.000000
70
192
0
VERTEX
8
OBJECT__11
10
10.000000
20
23.382999
30
13.500000
70
192
0
VERTEX
8
OBJECT__11
10
0.000000
20
23.382999
30
13.500000
70
192
0
VERTEX
8
OBJECT__11
10
10.000000
20
27.000000
30
0.000000
70
192
0
VERTEX
8
OBJECT__11
10
0.000000
20
27.000000
30
0.000000
70
192
0
VERTEX
8
OBJECT__11
10
10.000000
20
23.382999
30
-13.500000
70
192
0
VERTEX
8
OBJECT__11
10
0.000000
20
23.382999
30
-13.500000
70
192
0
VERTEX
8
OBJECT__11
10
10.000000
20
13.500000
30
-23.382999
70
192
0
VERTEX
8
OBJECT__11
10
0.000000
20
13.500000
30
-23.382999
70
192
0
VERTEX
8
OBJECT__11
10
10.000000
20
0.000000
30
-27.000000
70
192
0
VERTEX
8
OBJECT__11
10
0.000000
20
0.000000
30
-27.000000
70
192
0
VERTEX
8
OBJECT__11
10
10.000000
20
-13.500000
30
-23.382999
70
192
0
VERTEX
8
OBJECT__11
10
0.000000
20
-13.500000
30
-23.382999
70
192
0
VERTEX
8
OBJECT__11
10
10.000000
20
-23.382999
30
-13.500000
70
192
0
VERTEX
8
OBJECT__11
10
0.000000
20
-23.382999
30
-13.500000
70
192
0
VERTEX
8
OBJECT__11
10
10.000000
20
-27.000000
30
0.000000
70
192
0
VERTEX
8
OBJECT__11
10
0.000000
20
-27.000000
30
0.000000
70
192
0
VERTEX
8
OBJECT__11
10
10.000000
20
-23.382999
30
13.500000
70
192
0
VERTEX
8
OBJECT__11
10
0.000000
20
-23.382999
30
13.500000
70
192
0
VERTEX
8
OBJECT__11
10
10.000000
20
-13.500000
30
23.382999
70
192
0
VERTEX
8
OBJECT__11
10
0.000000
20
-13.500000
30
23.382999
70
192
0
VERTEX
8
OBJECT__11
10
10.000000
20
0.000000
30
27.000000
70
192
0
VERTEX
8
OBJECT__11
10
0
20
0
30
0
70
128
71
1
72
2
73
3
0
VERTEX
8
OBJECT__11
10
0
20
0
30
0
70
128
71
4
72
5
73
2
0
VERTEX
8
OBJECT__11
10
0
20
0
30
0
70
128
71
6
72
7
73
5
0
VERTEX
8
OBJECT__11
10
0
20
0
30
0
70
128
71
8
72
9
73
7
0
VERTEX
8
OBJECT__11
10
0
20
0
30
0
70
128
71
10
72
11
73
9
0
VERTEX
8
OBJECT__11
10
0
20
0
30
0
70
128
71
12
72
13
73
11
0
VERTEX
8
OBJECT__11
10
0
20
0
30
0
70
128
71
14
72
15
73
13
0
VERTEX
8
OBJECT__11
10
0
20
0
30
0
70
128
71
16
72
17
73
15
0
VERTEX
8
OBJECT__11
10
0
20
0
30
0
70
128
71
18
72
19
73
17
0
VERTEX
8
OBJECT__11
10
0
20
0
30
0
70
128
71
20
72
21
73
19
0
VERTEX
8
OBJECT__11
10
0
20
0
30
0
70
128
71
22
72
23
73
21
0
VERTEX
8
OBJECT__11
10
0
20
0
30
0
70
128
71
24
72
3
73
23
0
VERTEX
8
OBJECT__11
10
0
20
0
30
0
70
128
71
23
72
22
73
24
0
VERTEX
8
OBJECT__11
10
0
20
0
30
0
70
128
71
21
72
20
73
22
0
VERTEX
8
OBJECT__11
10
0
20
0
30
0
70
128
71
19
72
18
73
20
0
VERTEX
8
OBJECT__11
10
0
20
0
30
0
70
128
71
17
72
16
73
18
0
VERTEX
8
OBJECT__11
10
0
20
0
30
0
70
128
71
15
72
14
73
16
0
VERTEX
8
OBJECT__11
10
0
20
0
30
0
70
128
71
13
72
12
73
14
0
VERTEX
8
OBJECT__11
10
0
20
0
30
0
70
128
71
11
72
10
73
12
0
VERTEX
8
OBJECT__11
10
0
20
0
30
0
70
128
71
9
72
8
73
10
0
VERTEX
8
OBJECT__11
10
0
20
0
30
0
70
128
71
7
72
6
73
8
0
VERTEX
8
OBJECT__11
10
0
20
0
30
0
70
128
71
5
72
4
73
6
0
VERTEX
8
OBJECT__11
10
0
20
0
30
0
70
128
71
2
72
1
73
4
0
VERTEX
8
OBJECT__11
10
0
20
0
30
0
70
128
71
3
72
24
73
1
0
SEQEND
8
OBJECT__11
0
POLYLINE
8
OBJECT__12
66
1
70
64
71
12
72
10
62
253
0
VERTEX
8
OBJECT__12
10
0.000000
20
0.000000
30
-27.000000
70
192
0
VERTEX
8
OBJECT__12
10
0.000000
20
27.000000
30
0.000000
70
192
0
VERTEX
8
OBJECT__12
10
0.000000
20
23.382999
30
-13.500000
70
192
0
VERTEX
8
OBJECT__12
10
0.000000
20
0.000000
30
27.000000
70
192
0
VERTEX
8
OBJECT__12
10
0.000000
20
-23.382999
30
-13.500000
70
192
0
VERTEX
8
OBJECT__12
10
0.000000
20
-27.000000
30
0.000000
70
192
0
VERTEX
8
OBJECT__12
10
0.000000
20
23.382999
30
13.500000
70
192
0
VERTEX
8
OBJECT__12
10
0.000000
20
-23.382999
30
13.500000
70
192
0
VERTEX
8
OBJECT__12
10
0.000000
20
-13.500000
30
-23.382999
70
192
0
VERTEX
8
OBJECT__12
10
0.000000
20
13.500000
30
23.382999
70
192
0
VERTEX
8
OBJECT__12
10
0.000000
20
13.500000
30
-23.382999
70
192
0
VERTEX
8
OBJECT__12
10
0.000000
20
-13.500000
30
23.382999
70
192
0
VERTEX
8
OBJECT__12
10
0
20
0
30
0
70
128
71
1
72
2
73
3
0
VERTEX
8
OBJECT__12
10
0
20
0
30
0
70
128
71
4
72
5
73
6
0
VERTEX
8
OBJECT__12
10
0
20
0
30
0
70
128
71
1
72
7
73
2
0
VERTEX
8
OBJECT__12
10
0
20
0
30
0
70
128
71
6
72
8
73
4
0
VERTEX
8
OBJECT__12
10
0
20
0
30
0
70
128
71
4
72
1
73
9
0
VERTEX
8
OBJECT__12
10
0
20
0
30
0
70
128
71
1
72
10
73
7
0
VERTEX
8
OBJECT__12
10
0
20
0
30
0
70
128
71
9
72
5
73
4
0
VERTEX
8
OBJECT__12
10
0
20
0
30
0
70
128
71
1
72
4
73
10
0
VERTEX
8
OBJECT__12
10
0
20
0
30
0
70
128
71
3
72
11
73
1
0
VERTEX
8
OBJECT__12
10
0
20
0
30
0
70
128
71
8
72
12
73
4
0
SEQEND
8
OBJECT__12
0
ENDSEC
0
EOF
