999
Converted by 3D Exploration 
999
XDimension Software, LLC
999
http://www.xdsoft.com/explorer/
0
SECTION
2
HEADER
9
$ACADVER
1
AC1008
9
$UCSORG
10
0.0
20
0.0
30
0.0
9
$UCSXDIR
10
1.0
20
0.0
30
0.0
9
$TILEMODE
70
1
9
$UCSYDIR
10
0.0
20
1.0
30
0.0
9
$EXTMIN
10
0.000000
20
-58.000000
30
-58.000000
9
$EXTMAX
10
11.785000
20
58.000000
30
72.000000
0
ENDSEC
0
SECTION
2
TABLES
0
TABLE
2
LTYPE
70
1
0
LTYPE
2
CONTINUOUS
70
64
3
Solid line
72
65
73
0
40
0.0
0
ENDTAB
0
TABLE
2
LAYER
70
41
0
LAYER
2
OBJECT__0
70
0
62
253
6
CONTINUOUS
0
LAYER
2
OBJECT__1
70
0
62
253
6
CONTINUOUS
0
LAYER
2
OBJECT__3
70
0
62
253
6
CONTINUOUS
0
LAYER
2
OBJECT__4
70
0
62
253
6
CONTINUOUS
0
LAYER
2
OBJECT__5
70
0
62
253
6
CONTINUOUS
0
LAYER
2
OBJECT__6
70
0
62
253
6
CONTINUOUS
0
LAYER
2
OBJECT__7
70
0
62
253
6
CONTINUOUS
0
LAYER
2
OBJECT__8
70
0
62
253
6
CONTINUOUS
0
LAYER
2
OBJECT__9
70
0
62
253
6
CONTINUOUS
0
LAYER
2
OBJECT__10
70
0
62
253
6
CONTINUOUS
0
LAYER
2
OBJECT__11
70
0
62
253
6
CONTINUOUS
0
LAYER
2
OBJECT__12
70
0
62
253
6
CONTINUOUS
0
LAYER
2
OBJECT__13
70
0
62
253
6
CONTINUOUS
0
LAYER
2
OBJECT__14
70
0
62
253
6
CONTINUOUS
0
LAYER
2
OBJECT__15
70
0
62
253
6
CONTINUOUS
0
LAYER
2
OBJECT__16
70
0
62
253
6
CONTINUOUS
0
LAYER
2
OBJECT__17
70
0
62
253
6
CONTINUOUS
0
LAYER
2
OBJECT__18
70
0
62
253
6
CONTINUOUS
0
LAYER
2
OBJECT__19
70
0
62
253
6
CONTINUOUS
0
LAYER
2
OBJECT__20
70
0
62
253
6
CONTINUOUS
0
LAYER
2
OBJECT__21
70
0
62
253
6
CONTINUOUS
0
LAYER
2
OBJECT__22
70
0
62
253
6
CONTINUOUS
0
LAYER
2
OBJECT__23
70
0
62
253
6
CONTINUOUS
0
LAYER
2
OBJECT__24
70
0
62
253
6
CONTINUOUS
0
LAYER
2
OBJECT__25
70
0
62
253
6
CONTINUOUS
0
LAYER
2
OBJECT__26
70
0
62
253
6
CONTINUOUS
0
LAYER
2
OBJECT__28
70
0
62
253
6
CONTINUOUS
0
LAYER
2
OBJECT__29
70
0
62
253
6
CONTINUOUS
0
LAYER
2
OBJECT__31
70
0
62
253
6
CONTINUOUS
0
LAYER
2
OBJECT__32
70
0
62
253
6
CONTINUOUS
0
LAYER
2
OBJECT__33
70
0
62
253
6
CONTINUOUS
0
LAYER
2
OBJECT__34
70
0
62
253
6
CONTINUOUS
0
LAYER
2
OBJECT__35
70
0
62
253
6
CONTINUOUS
0
LAYER
2
OBJECT__36
70
0
62
253
6
CONTINUOUS
0
LAYER
2
OBJECT__37
70
0
62
253
6
CONTINUOUS
0
LAYER
2
OBJECT__38
70
0
62
253
6
CONTINUOUS
0
LAYER
2
OBJECT__39
70
0
62
253
6
CONTINUOUS
0
LAYER
2
OBJECT__40
70
0
62
253
6
CONTINUOUS
0
ENDTAB
0
TABLE
2
STYLE
70
1
0
STYLE
2
STANDARD
70
0
40
0.0
41
1.0
50
0.0
71
0
42
0.2
3
txt
4
1
0
ENDTAB
0
TABLE
2
UCS
70
0
0
ENDTAB
0
ENDSEC
0
SECTION
2
ENTITIES
0
POLYLINE
8
OBJECT__0
66
1
70
64
71
4
72
2
62
253
0
VERTEX
8
OBJECT__0
10
0.000000
20
-57.633999
30
-72.000000
70
192
0
VERTEX
8
OBJECT__0
10
0.000000
20
58.000000
30
-72.000000
70
192
0
VERTEX
8
OBJECT__0
10
0.500000
20
57.995998
30
-71.996002
70
192
0
VERTEX
8
OBJECT__0
10
0.500000
20
-57.633999
30
-71.996002
70
192
0
VERTEX
8
OBJECT__0
10
0
20
0
30
0
70
128
71
1
72
2
73
3
0
VERTEX
8
OBJECT__0
10
0
20
0
30
0
70
128
71
3
72
4
73
1
0
SEQEND
8
OBJECT__0
0
POLYLINE
8
OBJECT__1
66
1
70
64
71
4
72
2
62
253
0
VERTEX
8
OBJECT__1
10
0.000000
20
58.000000
30
-72.000000
70
192
0
VERTEX
8
OBJECT__1
10
0.000000
20
58.000000
30
72.000000
70
192
0
VERTEX
8
OBJECT__1
10
0.500000
20
57.995998
30
71.996002
70
192
0
VERTEX
8
OBJECT__1
10
0.500000
20
57.995998
30
-71.996002
70
192
0
VERTEX
8
OBJECT__1
10
0
20
0
30
0
70
128
71
1
72
2
73
3
0
VERTEX
8
OBJECT__1
10
0
20
0
30
0
70
128
71
3
72
4
73
1
0
SEQEND
8
OBJECT__1
0
POLYLINE
8
OBJECT__3
66
1
70
64
71
4
72
2
62
253
0
VERTEX
8
OBJECT__3
10
0.000000
20
-57.633999
30
72.000000
70
192
0
VERTEX
8
OBJECT__3
10
0.500000
20
-57.633999
30
71.996002
70
192
0
VERTEX
8
OBJECT__3
10
0.500000
20
57.995998
30
71.996002
70
192
0
VERTEX
8
OBJECT__3
10
0.000000
20
58.000000
30
72.000000
70
192
0
VERTEX
8
OBJECT__3
10
0
20
0
30
0
70
128
71
1
72
2
73
3
0
VERTEX
8
OBJECT__3
10
0
20
0
30
0
70
128
71
3
72
4
73
1
0
SEQEND
8
OBJECT__3
0
POLYLINE
8
OBJECT__4
66
1
70
64
71
6
72
4
62
253
0
VERTEX
8
OBJECT__4
10
0.000000
20
58.000000
30
-72.000000
70
192
0
VERTEX
8
OBJECT__4
10
0.000000
20
-57.633999
30
-72.000000
70
192
0
VERTEX
8
OBJECT__4
10
0.000000
20
-57.633999
30
72.000000
70
192
0
VERTEX
8
OBJECT__4
10
0.000000
20
-58.000000
30
72.000000
70
192
0
VERTEX
8
OBJECT__4
10
0.000000
20
-58.000000
30
-72.000000
70
192
0
VERTEX
8
OBJECT__4
10
0.000000
20
58.000000
30
72.000000
70
192
0
VERTEX
8
OBJECT__4
10
0
20
0
30
0
70
128
71
1
72
2
73
3
0
VERTEX
8
OBJECT__4
10
0
20
0
30
0
70
128
71
4
72
3
73
2
0
VERTEX
8
OBJECT__4
10
0
20
0
30
0
70
128
71
2
72
5
73
4
0
VERTEX
8
OBJECT__4
10
0
20
0
30
0
70
128
71
3
72
6
73
1
0
SEQEND
8
OBJECT__4
0
POLYLINE
8
OBJECT__5
66
1
70
64
71
8
72
6
62
253
0
VERTEX
8
OBJECT__5
10
0.500000
20
-57.633999
30
-71.996002
70
192
0
VERTEX
8
OBJECT__5
10
0.500000
20
57.995998
30
-71.996002
70
192
0
VERTEX
8
OBJECT__5
10
10.175000
20
14.824000
30
-71.821999
70
192
0
VERTEX
8
OBJECT__5
10
9.876000
20
57.827999
30
-71.828003
70
192
0
VERTEX
8
OBJECT__5
10
9.919000
20
-53.827000
30
-71.827003
70
192
0
VERTEX
8
OBJECT__5
10
0.000000
20
-58.000000
30
-72.000000
70
192
0
VERTEX
8
OBJECT__5
10
0.000000
20
-57.633999
30
-72.000000
70
192
0
VERTEX
8
OBJECT__5
10
9.876000
20
-57.827999
30
-71.828003
70
192
0
VERTEX
8
OBJECT__5
10
0
20
0
30
0
70
128
71
1
72
2
73
3
0
VERTEX
8
OBJECT__5
10
0
20
0
30
0
70
128
71
2
72
4
73
3
0
VERTEX
8
OBJECT__5
10
0
20
0
30
0
70
128
71
3
72
5
73
1
0
VERTEX
8
OBJECT__5
10
0
20
0
30
0
70
128
71
6
72
7
73
1
0
VERTEX
8
OBJECT__5
10
0
20
0
30
0
70
128
71
1
72
8
73
6
0
VERTEX
8
OBJECT__5
10
0
20
0
30
0
70
128
71
5
72
8
73
1
0
SEQEND
8
OBJECT__5
0
POLYLINE
8
OBJECT__6
66
1
70
64
71
8
72
6
62
253
0
VERTEX
8
OBJECT__6
10
0.500000
20
-57.633999
30
71.996002
70
192
0
VERTEX
8
OBJECT__6
10
9.891000
20
-53.827999
30
71.827003
70
192
0
VERTEX
8
OBJECT__6
10
10.147000
20
14.824000
30
71.822998
70
192
0
VERTEX
8
OBJECT__6
10
0.500000
20
57.995998
30
71.996002
70
192
0
VERTEX
8
OBJECT__6
10
0.000000
20
-58.000000
30
72.000000
70
192
0
VERTEX
8
OBJECT__6
10
9.848000
20
-57.827999
30
71.828003
70
192
0
VERTEX
8
OBJECT__6
10
9.848000
20
57.827999
30
71.828003
70
192
0
VERTEX
8
OBJECT__6
10
0.000000
20
-57.633999
30
72.000000
70
192
0
VERTEX
8
OBJECT__6
10
0
20
0
30
0
70
128
71
1
72
2
73
3
0
VERTEX
8
OBJECT__6
10
0
20
0
30
0
70
128
71
3
72
4
73
1
0
VERTEX
8
OBJECT__6
10
0
20
0
30
0
70
128
71
5
72
6
73
1
0
VERTEX
8
OBJECT__6
10
0
20
0
30
0
70
128
71
1
72
6
73
2
0
VERTEX
8
OBJECT__6
10
0
20
0
30
0
70
128
71
3
72
7
73
4
0
VERTEX
8
OBJECT__6
10
0
20
0
30
0
70
128
71
1
72
8
73
5
0
SEQEND
8
OBJECT__6
0
POLYLINE
8
OBJECT__7
66
1
70
64
71
6
72
4
62
253
0
VERTEX
8
OBJECT__7
10
0.000000
20
-58.000000
30
72.000000
70
192
0
VERTEX
8
OBJECT__7
10
0.000000
20
-58.000000
30
-72.000000
70
192
0
VERTEX
8
OBJECT__7
10
10.356000
20
-57.819000
30
0.006000
70
192
0
VERTEX
8
OBJECT__7
10
9.929000
20
-57.827000
30
-67.827003
70
192
0
VERTEX
8
OBJECT__7
10
9.876000
20
-57.827999
30
-71.828003
70
192
0
VERTEX
8
OBJECT__7
10
9.848000
20
-57.827999
30
71.828003
70
192
0
VERTEX
8
OBJECT__7
10
0
20
0
30
0
70
128
71
1
72
2
73
3
0
VERTEX
8
OBJECT__7
10
0
20
0
30
0
70
128
71
2
72
4
73
3
0
VERTEX
8
OBJECT__7
10
0
20
0
30
0
70
128
71
2
72
5
73
4
0
VERTEX
8
OBJECT__7
10
0
20
0
30
0
70
128
71
3
72
6
73
1
0
SEQEND
8
OBJECT__7
0
POLYLINE
8
OBJECT__8
66
1
70
64
71
6
72
4
62
253
0
VERTEX
8
OBJECT__8
10
0.500000
20
57.995998
30
71.996002
70
192
0
VERTEX
8
OBJECT__8
10
9.903000
20
57.827000
30
67.828003
70
192
0
VERTEX
8
OBJECT__8
10
10.356000
20
57.819000
30
-0.005000
70
192
0
VERTEX
8
OBJECT__8
10
0.500000
20
57.995998
30
-71.996002
70
192
0
VERTEX
8
OBJECT__8
10
9.848000
20
57.827999
30
71.828003
70
192
0
VERTEX
8
OBJECT__8
10
9.876000
20
57.827999
30
-71.828003
70
192
0
VERTEX
8
OBJECT__8
10
0
20
0
30
0
70
128
71
1
72
2
73
3
0
VERTEX
8
OBJECT__8
10
0
20
0
30
0
70
128
71
3
72
4
73
1
0
VERTEX
8
OBJECT__8
10
0
20
0
30
0
70
128
71
1
72
5
73
2
0
VERTEX
8
OBJECT__8
10
0
20
0
30
0
70
128
71
3
72
6
73
4
0
SEQEND
8
OBJECT__8
0
POLYLINE
8
OBJECT__9
66
1
70
64
71
36
72
36
62
253
0
VERTEX
8
OBJECT__9
10
10.356000
20
57.819000
30
-0.005000
70
192
0
VERTEX
8
OBJECT__9
10
9.903000
20
57.827000
30
67.828003
70
192
0
VERTEX
8
OBJECT__9
10
10.525000
20
18.752001
30
34.022999
70
192
0
VERTEX
8
OBJECT__9
10
10.516000
20
18.544001
30
35.444000
70
192
0
VERTEX
8
OBJECT__9
10
10.503000
20
16.608999
30
38.122002
70
192
0
VERTEX
8
OBJECT__9
10
10.506000
20
17.127001
30
37.404999
70
192
0
VERTEX
8
OBJECT__9
10
9.848000
20
57.827999
30
71.828003
70
192
0
VERTEX
8
OBJECT__9
10
10.147000
20
14.824000
30
71.822998
70
192
0
VERTEX
8
OBJECT__9
10
10.504000
20
13.759000
30
39.015999
70
192
0
VERTEX
8
OBJECT__9
10
10.504000
20
-13.759000
30
39.015999
70
192
0
VERTEX
8
OBJECT__9
10
10.523000
20
0.326000
30
39.015999
70
192
0
VERTEX
8
OBJECT__9
10
9.891000
20
-53.827999
30
71.827003
70
192
0
VERTEX
8
OBJECT__9
10
10.502000
20
-14.930000
30
38.875999
70
192
0
VERTEX
8
OBJECT__9
10
10.507000
20
-17.705000
30
37.082001
70
192
0
VERTEX
8
OBJECT__9
10
10.506000
20
-17.215000
30
37.397999
70
192
0
VERTEX
8
OBJECT__9
10
9.848000
20
-57.827999
30
71.828003
70
192
0
VERTEX
8
OBJECT__9
10
10.356000
20
-57.819000
30
0.006000
70
192
0
VERTEX
8
OBJECT__9
10
9.929000
20
-57.827000
30
-67.827003
70
192
0
VERTEX
8
OBJECT__9
10
10.538000
20
-18.752001
30
-34.021999
70
192
0
VERTEX
8
OBJECT__9
10
10.624000
20
-18.752001
30
-14.810000
70
192
0
VERTEX
8
OBJECT__9
10
10.525000
20
-18.752001
30
34.022999
70
192
0
VERTEX
8
OBJECT__9
10
10.531000
20
-18.612000
30
-35.193001
70
192
0
VERTEX
8
OBJECT__9
10
9.919000
20
-53.827000
30
-71.827003
70
192
0
VERTEX
8
OBJECT__9
10
10.518000
20
-16.816999
30
-37.967999
70
192
0
VERTEX
8
OBJECT__9
10
9.876000
20
-57.827999
30
-71.828003
70
192
0
VERTEX
8
OBJECT__9
10
10.521000
20
-17.160000
30
-37.438000
70
192
0
VERTEX
8
OBJECT__9
10
10.175000
20
14.824000
30
-71.821999
70
192
0
VERTEX
8
OBJECT__9
10
10.538000
20
0.329000
30
-39.014999
70
192
0
VERTEX
8
OBJECT__9
10
10.520000
20
-13.759000
30
-39.014999
70
192
0
VERTEX
8
OBJECT__9
10
10.520000
20
13.759000
30
-39.014999
70
192
0
VERTEX
8
OBJECT__9
10
10.517000
20
15.178000
30
-38.807999
70
192
0
VERTEX
8
OBJECT__9
10
9.876000
20
57.827999
30
-71.828003
70
192
0
VERTEX
8
OBJECT__9
10
10.521000
20
17.160000
30
-37.375999
70
192
0
VERTEX
8
OBJECT__9
10
10.522000
20
17.857000
30
-36.873001
70
192
0
VERTEX
8
OBJECT__9
10
10.639000
20
18.752001
30
-7.085000
70
192
0
VERTEX
8
OBJECT__9
10
10.538000
20
18.752001
30
-34.021999
70
192
0
VERTEX
8
OBJECT__9
10
0
20
0
30
0
70
128
71
1
72
2
73
3
0
VERTEX
8
OBJECT__9
10
0
20
0
30
0
70
128
71
2
72
4
73
3
0
VERTEX
8
OBJECT__9
10
0
20
0
30
0
70
128
71
5
72
6
73
2
0
VERTEX
8
OBJECT__9
10
0
20
0
30
0
70
128
71
2
72
7
73
5
0
VERTEX
8
OBJECT__9
10
0
20
0
30
0
70
128
71
6
72
4
73
2
0
VERTEX
8
OBJECT__9
10
0
20
0
30
0
70
128
71
8
72
9
73
5
0
VERTEX
8
OBJECT__9
10
0
20
0
30
0
70
128
71
8
72
10
73
11
0
VERTEX
8
OBJECT__9
10
0
20
0
30
0
70
128
71
12
72
13
73
10
0
VERTEX
8
OBJECT__9
10
0
20
0
30
0
70
128
71
10
72
8
73
12
0
VERTEX
8
OBJECT__9
10
0
20
0
30
0
70
128
71
11
72
9
73
8
0
VERTEX
8
OBJECT__9
10
0
20
0
30
0
70
128
71
14
72
15
73
12
0
VERTEX
8
OBJECT__9
10
0
20
0
30
0
70
128
71
12
72
16
73
14
0
VERTEX
8
OBJECT__9
10
0
20
0
30
0
70
128
71
15
72
13
73
12
0
VERTEX
8
OBJECT__9
10
0
20
0
30
0
70
128
71
5
72
7
73
8
0
VERTEX
8
OBJECT__9
10
0
20
0
30
0
70
128
71
17
72
18
73
19
0
VERTEX
8
OBJECT__9
10
0
20
0
30
0
70
128
71
17
72
20
73
21
0
VERTEX
8
OBJECT__9
10
0
20
0
30
0
70
128
71
21
72
16
73
17
0
VERTEX
8
OBJECT__9
10
0
20
0
30
0
70
128
71
18
72
22
73
19
0
VERTEX
8
OBJECT__9
10
0
20
0
30
0
70
128
71
19
72
20
73
17
0
VERTEX
8
OBJECT__9
10
0
20
0
30
0
70
128
71
18
72
23
73
24
0
VERTEX
8
OBJECT__9
10
0
20
0
30
0
70
128
71
18
72
25
73
23
0
VERTEX
8
OBJECT__9
10
0
20
0
30
0
70
128
71
24
72
26
73
18
0
VERTEX
8
OBJECT__9
10
0
20
0
30
0
70
128
71
26
72
22
73
18
0
VERTEX
8
OBJECT__9
10
0
20
0
30
0
70
128
71
27
72
28
73
29
0
VERTEX
8
OBJECT__9
10
0
20
0
30
0
70
128
71
27
72
30
73
28
0
VERTEX
8
OBJECT__9
10
0
20
0
30
0
70
128
71
27
72
31
73
30
0
VERTEX
8
OBJECT__9
10
0
20
0
30
0
70
128
71
29
72
23
73
27
0
VERTEX
8
OBJECT__9
10
0
20
0
30
0
70
128
71
32
72
33
73
31
0
VERTEX
8
OBJECT__9
10
0
20
0
30
0
70
128
71
32
72
34
73
33
0
VERTEX
8
OBJECT__9
10
0
20
0
30
0
70
128
71
31
72
27
73
32
0
VERTEX
8
OBJECT__9
10
0
20
0
30
0
70
128
71
1
72
35
73
36
0
VERTEX
8
OBJECT__9
10
0
20
0
30
0
70
128
71
36
72
32
73
1
0
VERTEX
8
OBJECT__9
10
0
20
0
30
0
70
128
71
36
72
34
73
32
0
VERTEX
8
OBJECT__9
10
0
20
0
30
0
70
128
71
29
72
24
73
23
0
VERTEX
8
OBJECT__9
10
0
20
0
30
0
70
128
71
21
72
14
73
16
0
VERTEX
8
OBJECT__9
10
0
20
0
30
0
70
128
71
3
72
35
73
1
0
SEQEND
8
OBJECT__9
0
POLYLINE
8
OBJECT__10
66
1
70
64
71
6
72
4
62
253
0
VERTEX
8
OBJECT__10
10
7.220000
20
15.350000
30
19.830000
70
192
0
VERTEX
8
OBJECT__10
10
7.157000
20
15.349000
30
-34.000000
70
192
0
VERTEX
8
OBJECT__10
10
10.639000
20
18.752001
30
-7.085000
70
192
0
VERTEX
8
OBJECT__10
10
10.538000
20
18.752001
30
-34.021999
70
192
0
VERTEX
8
OBJECT__10
10
10.525000
20
18.752001
30
34.022999
70
192
0
VERTEX
8
OBJECT__10
10
7.144000
20
15.349000
30
34.000000
70
192
0
VERTEX
8
OBJECT__10
10
0
20
0
30
0
70
128
71
1
72
2
73
3
0
VERTEX
8
OBJECT__10
10
0
20
0
30
0
70
128
71
2
72
4
73
3
0
VERTEX
8
OBJECT__10
10
0
20
0
30
0
70
128
71
5
72
6
73
1
0
VERTEX
8
OBJECT__10
10
0
20
0
30
0
70
128
71
3
72
5
73
1
0
SEQEND
8
OBJECT__10
0
POLYLINE
8
OBJECT__11
66
1
70
64
71
8
72
6
62
253
0
VERTEX
8
OBJECT__11
10
10.506000
20
17.127001
30
37.404999
70
192
0
VERTEX
8
OBJECT__11
10
7.133000
20
14.555000
30
34.793999
70
192
0
VERTEX
8
OBJECT__11
10
7.144000
20
15.349000
30
34.000000
70
192
0
VERTEX
8
OBJECT__11
10
10.525000
20
18.752001
30
34.022999
70
192
0
VERTEX
8
OBJECT__11
10
10.516000
20
18.544001
30
35.444000
70
192
0
VERTEX
8
OBJECT__11
10
10.503000
20
16.608999
30
38.122002
70
192
0
VERTEX
8
OBJECT__11
10
10.504000
20
13.759000
30
39.015999
70
192
0
VERTEX
8
OBJECT__11
10
7.123000
20
13.750000
30
35.598999
70
192
0
VERTEX
8
OBJECT__11
10
0
20
0
30
0
70
128
71
1
72
2
73
3
0
VERTEX
8
OBJECT__11
10
0
20
0
30
0
70
128
71
3
72
4
73
5
0
VERTEX
8
OBJECT__11
10
0
20
0
30
0
70
128
71
6
72
7
73
8
0
VERTEX
8
OBJECT__11
10
0
20
0
30
0
70
128
71
2
72
1
73
6
0
VERTEX
8
OBJECT__11
10
0
20
0
30
0
70
128
71
8
72
2
73
6
0
VERTEX
8
OBJECT__11
10
0
20
0
30
0
70
128
71
3
72
5
73
1
0
SEQEND
8
OBJECT__11
0
POLYLINE
8
OBJECT__12
66
1
70
64
71
8
72
6
62
253
0
VERTEX
8
OBJECT__12
10
10.521000
20
17.160000
30
-37.375999
70
192
0
VERTEX
8
OBJECT__12
10
7.148000
20
14.549000
30
-34.799999
70
192
0
VERTEX
8
OBJECT__12
10
7.138000
20
13.750000
30
-35.598999
70
192
0
VERTEX
8
OBJECT__12
10
10.520000
20
13.759000
30
-39.014999
70
192
0
VERTEX
8
OBJECT__12
10
10.517000
20
15.178000
30
-38.807999
70
192
0
VERTEX
8
OBJECT__12
10
10.522000
20
17.857000
30
-36.873001
70
192
0
VERTEX
8
OBJECT__12
10
10.538000
20
18.752001
30
-34.021999
70
192
0
VERTEX
8
OBJECT__12
10
7.157000
20
15.349000
30
-34.000000
70
192
0
VERTEX
8
OBJECT__12
10
0
20
0
30
0
70
128
71
1
72
2
73
3
0
VERTEX
8
OBJECT__12
10
0
20
0
30
0
70
128
71
3
72
4
73
5
0
VERTEX
8
OBJECT__12
10
0
20
0
30
0
70
128
71
6
72
7
73
8
0
VERTEX
8
OBJECT__12
10
0
20
0
30
0
70
128
71
2
72
1
73
6
0
VERTEX
8
OBJECT__12
10
0
20
0
30
0
70
128
71
8
72
2
73
6
0
VERTEX
8
OBJECT__12
10
0
20
0
30
0
70
128
71
3
72
5
73
1
0
SEQEND
8
OBJECT__12
0
POLYLINE
8
OBJECT__13
66
1
70
64
71
5
72
3
62
253
0
VERTEX
8
OBJECT__13
10
5.000000
20
15.330000
30
-34.000000
70
192
0
VERTEX
8
OBJECT__13
10
7.157000
20
15.349000
30
-34.000000
70
192
0
VERTEX
8
OBJECT__13
10
7.220000
20
15.350000
30
19.830000
70
192
0
VERTEX
8
OBJECT__13
10
5.000000
20
15.330000
30
34.000000
70
192
0
VERTEX
8
OBJECT__13
10
7.144000
20
15.349000
30
34.000000
70
192
0
VERTEX
8
OBJECT__13
10
0
20
0
30
0
70
128
71
1
72
2
73
3
0
VERTEX
8
OBJECT__13
10
0
20
0
30
0
70
128
71
3
72
4
73
1
0
VERTEX
8
OBJECT__13
10
0
20
0
30
0
70
128
71
3
72
5
73
4
0
SEQEND
8
OBJECT__13
0
POLYLINE
8
OBJECT__14
66
1
70
64
71
6
72
4
62
253
0
VERTEX
8
OBJECT__14
10
7.123000
20
13.750000
30
35.598999
70
192
0
VERTEX
8
OBJECT__14
10
10.504000
20
13.759000
30
39.015999
70
192
0
VERTEX
8
OBJECT__14
10
10.523000
20
0.326000
30
39.015999
70
192
0
VERTEX
8
OBJECT__14
10
10.504000
20
-13.759000
30
39.015999
70
192
0
VERTEX
8
OBJECT__14
10
7.123000
20
-13.750000
30
35.598999
70
192
0
VERTEX
8
OBJECT__14
10
7.137000
20
-6.708000
30
35.598999
70
192
0
VERTEX
8
OBJECT__14
10
0
20
0
30
0
70
128
71
1
72
2
73
3
0
VERTEX
8
OBJECT__14
10
0
20
0
30
0
70
128
71
4
72
5
73
6
0
VERTEX
8
OBJECT__14
10
0
20
0
30
0
70
128
71
6
72
3
73
4
0
VERTEX
8
OBJECT__14
10
0
20
0
30
0
70
128
71
3
72
6
73
1
0
SEQEND
8
OBJECT__14
0
POLYLINE
8
OBJECT__15
66
1
70
64
71
5
72
3
62
253
0
VERTEX
8
OBJECT__15
10
5.000000
20
13.750000
30
35.580002
70
192
0
VERTEX
8
OBJECT__15
10
5.000000
20
15.330000
30
34.000000
70
192
0
VERTEX
8
OBJECT__15
10
7.133000
20
14.555000
30
34.793999
70
192
0
VERTEX
8
OBJECT__15
10
7.144000
20
15.349000
30
34.000000
70
192
0
VERTEX
8
OBJECT__15
10
7.123000
20
13.750000
30
35.598999
70
192
0
VERTEX
8
OBJECT__15
10
0
20
0
30
0
70
128
71
1
72
2
73
3
0
VERTEX
8
OBJECT__15
10
0
20
0
30
0
70
128
71
2
72
4
73
3
0
VERTEX
8
OBJECT__15
10
0
20
0
30
0
70
128
71
3
72
5
73
1
0
SEQEND
8
OBJECT__15
0
POLYLINE
8
OBJECT__16
66
1
70
64
71
6
72
4
62
253
0
VERTEX
8
OBJECT__16
10
7.138000
20
-13.750000
30
-35.598999
70
192
0
VERTEX
8
OBJECT__16
10
10.520000
20
-13.759000
30
-39.014999
70
192
0
VERTEX
8
OBJECT__16
10
10.538000
20
0.329000
30
-39.014999
70
192
0
VERTEX
8
OBJECT__16
10
10.520000
20
13.759000
30
-39.014999
70
192
0
VERTEX
8
OBJECT__16
10
7.138000
20
13.750000
30
-35.598999
70
192
0
VERTEX
8
OBJECT__16
10
7.152000
20
6.707000
30
-35.598999
70
192
0
VERTEX
8
OBJECT__16
10
0
20
0
30
0
70
128
71
1
72
2
73
3
0
VERTEX
8
OBJECT__16
10
0
20
0
30
0
70
128
71
4
72
5
73
6
0
VERTEX
8
OBJECT__16
10
0
20
0
30
0
70
128
71
6
72
3
73
4
0
VERTEX
8
OBJECT__16
10
0
20
0
30
0
70
128
71
3
72
6
73
1
0
SEQEND
8
OBJECT__16
0
POLYLINE
8
OBJECT__17
66
1
70
64
71
5
72
3
62
253
0
VERTEX
8
OBJECT__17
10
5.000000
20
13.750000
30
-35.580002
70
192
0
VERTEX
8
OBJECT__17
10
7.138000
20
13.750000
30
-35.598999
70
192
0
VERTEX
8
OBJECT__17
10
7.148000
20
14.549000
30
-34.799999
70
192
0
VERTEX
8
OBJECT__17
10
5.000000
20
15.330000
30
-34.000000
70
192
0
VERTEX
8
OBJECT__17
10
7.157000
20
15.349000
30
-34.000000
70
192
0
VERTEX
8
OBJECT__17
10
0
20
0
30
0
70
128
71
1
72
2
73
3
0
VERTEX
8
OBJECT__17
10
0
20
0
30
0
70
128
71
3
72
4
73
1
0
VERTEX
8
OBJECT__17
10
0
20
0
30
0
70
128
71
3
72
5
73
4
0
SEQEND
8
OBJECT__17
0
POLYLINE
8
OBJECT__18
66
1
70
64
71
8
72
6
62
253
0
VERTEX
8
OBJECT__18
10
10.506000
20
-17.215000
30
37.397999
70
192
0
VERTEX
8
OBJECT__18
10
7.133000
20
-14.554000
30
34.794998
70
192
0
VERTEX
8
OBJECT__18
10
7.123000
20
-13.750000
30
35.598999
70
192
0
VERTEX
8
OBJECT__18
10
10.504000
20
-13.759000
30
39.015999
70
192
0
VERTEX
8
OBJECT__18
10
10.502000
20
-14.930000
30
38.875999
70
192
0
VERTEX
8
OBJECT__18
10
10.507000
20
-17.705000
30
37.082001
70
192
0
VERTEX
8
OBJECT__18
10
10.525000
20
-18.752001
30
34.022999
70
192
0
VERTEX
8
OBJECT__18
10
7.144000
20
-15.349000
30
34.000000
70
192
0
VERTEX
8
OBJECT__18
10
0
20
0
30
0
70
128
71
1
72
2
73
3
0
VERTEX
8
OBJECT__18
10
0
20
0
30
0
70
128
71
3
72
4
73
5
0
VERTEX
8
OBJECT__18
10
0
20
0
30
0
70
128
71
6
72
7
73
8
0
VERTEX
8
OBJECT__18
10
0
20
0
30
0
70
128
71
2
72
1
73
6
0
VERTEX
8
OBJECT__18
10
0
20
0
30
0
70
128
71
8
72
2
73
6
0
VERTEX
8
OBJECT__18
10
0
20
0
30
0
70
128
71
3
72
5
73
1
0
SEQEND
8
OBJECT__18
0
POLYLINE
8
OBJECT__19
66
1
70
64
71
5
72
3
62
253
0
VERTEX
8
OBJECT__19
10
5.000000
20
13.750000
30
35.580002
70
192
0
VERTEX
8
OBJECT__19
10
7.123000
20
13.750000
30
35.598999
70
192
0
VERTEX
8
OBJECT__19
10
7.137000
20
-6.708000
30
35.598999
70
192
0
VERTEX
8
OBJECT__19
10
5.000000
20
-13.750000
30
35.580002
70
192
0
VERTEX
8
OBJECT__19
10
7.123000
20
-13.750000
30
35.598999
70
192
0
VERTEX
8
OBJECT__19
10
0
20
0
30
0
70
128
71
1
72
2
73
3
0
VERTEX
8
OBJECT__19
10
0
20
0
30
0
70
128
71
3
72
4
73
1
0
VERTEX
8
OBJECT__19
10
0
20
0
30
0
70
128
71
3
72
5
73
4
0
SEQEND
8
OBJECT__19
0
POLYLINE
8
OBJECT__20
66
1
70
64
71
8
72
6
62
253
0
VERTEX
8
OBJECT__20
10
10.521000
20
-17.160000
30
-37.438000
70
192
0
VERTEX
8
OBJECT__20
10
7.148000
20
-14.555000
30
-34.793999
70
192
0
VERTEX
8
OBJECT__20
10
7.157000
20
-15.349000
30
-34.000000
70
192
0
VERTEX
8
OBJECT__20
10
10.538000
20
-18.752001
30
-34.021999
70
192
0
VERTEX
8
OBJECT__20
10
10.531000
20
-18.612000
30
-35.193001
70
192
0
VERTEX
8
OBJECT__20
10
10.518000
20
-16.816999
30
-37.967999
70
192
0
VERTEX
8
OBJECT__20
10
10.520000
20
-13.759000
30
-39.014999
70
192
0
VERTEX
8
OBJECT__20
10
7.138000
20
-13.750000
30
-35.598999
70
192
0
VERTEX
8
OBJECT__20
10
0
20
0
30
0
70
128
71
1
72
2
73
3
0
VERTEX
8
OBJECT__20
10
0
20
0
30
0
70
128
71
3
72
4
73
5
0
VERTEX
8
OBJECT__20
10
0
20
0
30
0
70
128
71
6
72
7
73
8
0
VERTEX
8
OBJECT__20
10
0
20
0
30
0
70
128
71
2
72
1
73
6
0
VERTEX
8
OBJECT__20
10
0
20
0
30
0
70
128
71
8
72
2
73
6
0
VERTEX
8
OBJECT__20
10
0
20
0
30
0
70
128
71
3
72
5
73
1
0
SEQEND
8
OBJECT__20
0
POLYLINE
8
OBJECT__21
66
1
70
64
71
5
72
3
62
253
0
VERTEX
8
OBJECT__21
10
5.000000
20
-13.750000
30
-35.580002
70
192
0
VERTEX
8
OBJECT__21
10
7.138000
20
-13.750000
30
-35.598999
70
192
0
VERTEX
8
OBJECT__21
10
7.152000
20
6.707000
30
-35.598999
70
192
0
VERTEX
8
OBJECT__21
10
5.000000
20
13.750000
30
-35.580002
70
192
0
VERTEX
8
OBJECT__21
10
7.138000
20
13.750000
30
-35.598999
70
192
0
VERTEX
8
OBJECT__21
10
0
20
0
30
0
70
128
71
1
72
2
73
3
0
VERTEX
8
OBJECT__21
10
0
20
0
30
0
70
128
71
3
72
4
73
1
0
VERTEX
8
OBJECT__21
10
0
20
0
30
0
70
128
71
3
72
5
73
4
0
SEQEND
8
OBJECT__21
0
POLYLINE
8
OBJECT__22
66
1
70
64
71
6
72
4
62
253
0
VERTEX
8
OBJECT__22
10
7.201000
20
-15.350000
30
24.127001
70
192
0
VERTEX
8
OBJECT__22
10
10.525000
20
-18.752001
30
34.022999
70
192
0
VERTEX
8
OBJECT__22
10
10.624000
20
-18.752001
30
-14.810000
70
192
0
VERTEX
8
OBJECT__22
10
7.157000
20
-15.349000
30
-34.000000
70
192
0
VERTEX
8
OBJECT__22
10
10.538000
20
-18.752001
30
-34.021999
70
192
0
VERTEX
8
OBJECT__22
10
7.144000
20
-15.349000
30
34.000000
70
192
0
VERTEX
8
OBJECT__22
10
0
20
0
30
0
70
128
71
1
72
2
73
3
0
VERTEX
8
OBJECT__22
10
0
20
0
30
0
70
128
71
3
72
4
73
1
0
VERTEX
8
OBJECT__22
10
0
20
0
30
0
70
128
71
3
72
5
73
4
0
VERTEX
8
OBJECT__22
10
0
20
0
30
0
70
128
71
1
72
6
73
2
0
SEQEND
8
OBJECT__22
0
POLYLINE
8
OBJECT__23
66
1
70
64
71
5
72
3
62
253
0
VERTEX
8
OBJECT__23
10
5.000000
20
-15.330000
30
-34.000000
70
192
0
VERTEX
8
OBJECT__23
10
5.000000
20
-15.330000
30
34.000000
70
192
0
VERTEX
8
OBJECT__23
10
7.201000
20
-15.350000
30
24.127001
70
192
0
VERTEX
8
OBJECT__23
10
7.144000
20
-15.349000
30
34.000000
70
192
0
VERTEX
8
OBJECT__23
10
7.157000
20
-15.349000
30
-34.000000
70
192
0
VERTEX
8
OBJECT__23
10
0
20
0
30
0
70
128
71
1
72
2
73
3
0
VERTEX
8
OBJECT__23
10
0
20
0
30
0
70
128
71
2
72
4
73
3
0
VERTEX
8
OBJECT__23
10
0
20
0
30
0
70
128
71
3
72
5
73
1
0
SEQEND
8
OBJECT__23
0
POLYLINE
8
OBJECT__24
66
1
70
64
71
5
72
3
62
253
0
VERTEX
8
OBJECT__24
10
5.000000
20
-13.750000
30
35.580002
70
192
0
VERTEX
8
OBJECT__24
10
7.123000
20
-13.750000
30
35.598999
70
192
0
VERTEX
8
OBJECT__24
10
7.133000
20
-14.554000
30
34.794998
70
192
0
VERTEX
8
OBJECT__24
10
5.000000
20
-15.330000
30
34.000000
70
192
0
VERTEX
8
OBJECT__24
10
7.144000
20
-15.349000
30
34.000000
70
192
0
VERTEX
8
OBJECT__24
10
0
20
0
30
0
70
128
71
1
72
2
73
3
0
VERTEX
8
OBJECT__24
10
0
20
0
30
0
70
128
71
3
72
4
73
1
0
VERTEX
8
OBJECT__24
10
0
20
0
30
0
70
128
71
3
72
5
73
4
0
SEQEND
8
OBJECT__24
0
POLYLINE
8
OBJECT__25
66
1
70
64
71
5
72
3
62
253
0
VERTEX
8
OBJECT__25
10
5.000000
20
-13.750000
30
-35.580002
70
192
0
VERTEX
8
OBJECT__25
10
5.000000
20
-15.330000
30
-34.000000
70
192
0
VERTEX
8
OBJECT__25
10
7.148000
20
-14.555000
30
-34.793999
70
192
0
VERTEX
8
OBJECT__25
10
7.157000
20
-15.349000
30
-34.000000
70
192
0
VERTEX
8
OBJECT__25
10
7.138000
20
-13.750000
30
-35.598999
70
192
0
VERTEX
8
OBJECT__25
10
0
20
0
30
0
70
128
71
1
72
2
73
3
0
VERTEX
8
OBJECT__25
10
0
20
0
30
0
70
128
71
2
72
4
73
3
0
VERTEX
8
OBJECT__25
10
0
20
0
30
0
70
128
71
3
72
5
73
1
0
SEQEND
8
OBJECT__25
0
POLYLINE
8
OBJECT__26
66
1
70
64
71
23
72
21
62
253
0
VERTEX
8
OBJECT__26
10
0.500000
20
-49.000000
30
-41.390999
70
192
0
VERTEX
8
OBJECT__26
10
0.500000
20
49.000000
30
-46.452000
70
192
0
VERTEX
8
OBJECT__26
10
0.500000
20
49.000000
30
-41.390999
70
192
0
VERTEX
8
OBJECT__26
10
0.500000
20
-37.991001
30
64.599998
70
192
0
VERTEX
8
OBJECT__26
10
0.500000
20
-49.000000
30
-47.026001
70
192
0
VERTEX
8
OBJECT__26
10
0.500000
20
54.991001
30
-69.490997
70
192
0
VERTEX
8
OBJECT__26
10
0.500000
20
49.196999
30
-47.035999
70
192
0
VERTEX
8
OBJECT__26
10
0.500000
20
55.491001
30
-68.990997
70
192
0
VERTEX
8
OBJECT__26
10
0.500000
20
-55.491001
30
-47.358002
70
192
0
VERTEX
8
OBJECT__26
10
0.500000
20
-55.491001
30
-68.990997
70
192
0
VERTEX
8
OBJECT__26
10
0.500000
20
55.491001
30
-47.923000
70
192
0
VERTEX
8
OBJECT__26
10
0.500000
20
-54.991001
30
-69.490997
70
192
0
VERTEX
8
OBJECT__26
10
0.500000
20
55.298000
30
-47.348000
70
192
0
VERTEX
8
OBJECT__26
10
0.500000
20
37.791000
30
69.490997
70
192
0
VERTEX
8
OBJECT__26
10
0.500000
20
-37.791000
30
69.490997
70
192
0
VERTEX
8
OBJECT__26
10
0.500000
20
37.991001
30
69.291000
70
192
0
VERTEX
8
OBJECT__26
10
0.500000
20
55.491001
30
-41.390999
70
192
0
VERTEX
8
OBJECT__26
10
0.500000
20
38.191002
30
64.599998
70
192
0
VERTEX
8
OBJECT__26
10
0.500000
20
-55.491001
30
64.599998
70
192
0
VERTEX
8
OBJECT__26
10
0.500000
20
-55.491001
30
-41.390999
70
192
0
VERTEX
8
OBJECT__26
10
0.500000
20
37.991001
30
64.800003
70
192
0
VERTEX
8
OBJECT__26
10
0.500000
20
55.491001
30
64.599998
70
192
0
VERTEX
8
OBJECT__26
10
0.500000
20
-37.991001
30
69.291000
70
192
0
VERTEX
8
OBJECT__26
10
0
20
0
30
0
70
128
71
1
72
2
73
3
0
VERTEX
8
OBJECT__26
10
0
20
0
30
0
70
128
71
3
72
4
73
1
0
VERTEX
8
OBJECT__26
10
0
20
0
30
0
70
128
71
5
72
6
73
7
0
VERTEX
8
OBJECT__26
10
0
20
0
30
0
70
128
71
7
72
6
73
8
0
VERTEX
8
OBJECT__26
10
0
20
0
30
0
70
128
71
5
72
9
73
10
0
VERTEX
8
OBJECT__26
10
0
20
0
30
0
70
128
71
7
72
2
73
5
0
VERTEX
8
OBJECT__26
10
0
20
0
30
0
70
128
71
8
72
11
73
7
0
VERTEX
8
OBJECT__26
10
0
20
0
30
0
70
128
71
12
72
6
73
5
0
VERTEX
8
OBJECT__26
10
0
20
0
30
0
70
128
71
11
72
13
73
7
0
VERTEX
8
OBJECT__26
10
0
20
0
30
0
70
128
71
4
72
14
73
15
0
VERTEX
8
OBJECT__26
10
0
20
0
30
0
70
128
71
1
72
5
73
2
0
VERTEX
8
OBJECT__26
10
0
20
0
30
0
70
128
71
4
72
16
73
14
0
VERTEX
8
OBJECT__26
10
0
20
0
30
0
70
128
71
4
72
17
73
18
0
VERTEX
8
OBJECT__26
10
0
20
0
30
0
70
128
71
10
72
12
73
5
0
VERTEX
8
OBJECT__26
10
0
20
0
30
0
70
128
71
19
72
20
73
1
0
VERTEX
8
OBJECT__26
10
0
20
0
30
0
70
128
71
4
72
21
73
16
0
VERTEX
8
OBJECT__26
10
0
20
0
30
0
70
128
71
17
72
22
73
18
0
VERTEX
8
OBJECT__26
10
0
20
0
30
0
70
128
71
1
72
4
73
19
0
VERTEX
8
OBJECT__26
10
0
20
0
30
0
70
128
71
18
72
21
73
4
0
VERTEX
8
OBJECT__26
10
0
20
0
30
0
70
128
71
15
72
23
73
4
0
VERTEX
8
OBJECT__26
10
0
20
0
30
0
70
128
71
3
72
17
73
4
0
SEQEND
8
OBJECT__26
0
POLYLINE
8
OBJECT__28
66
1
70
64
71
6
72
4
62
253
0
VERTEX
8
OBJECT__28
10
6.721000
20
-14.240000
30
33.800999
70
192
0
VERTEX
8
OBJECT__28
10
6.542000
20
-14.373000
30
33.800999
70
192
0
VERTEX
8
OBJECT__28
10
6.567000
20
-14.325000
30
-33.800999
70
192
0
VERTEX
8
OBJECT__28
10
6.531000
20
-14.437000
30
-33.800999
70
192
0
VERTEX
8
OBJECT__28
10
6.531000
20
-14.437000
30
33.800999
70
192
0
VERTEX
8
OBJECT__28
10
6.721000
20
-14.240000
30
-33.800999
70
192
0
VERTEX
8
OBJECT__28
10
0
20
0
30
0
70
128
71
1
72
2
73
3
0
VERTEX
8
OBJECT__28
10
0
20
0
30
0
70
128
71
4
72
3
73
2
0
VERTEX
8
OBJECT__28
10
0
20
0
30
0
70
128
71
2
72
5
73
4
0
VERTEX
8
OBJECT__28
10
0
20
0
30
0
70
128
71
3
72
6
73
1
0
SEQEND
8
OBJECT__28
0
POLYLINE
8
OBJECT__29
66
1
70
64
71
11
72
9
62
253
0
VERTEX
8
OBJECT__29
10
11.631000
20
-13.983000
30
34.042999
70
192
0
VERTEX
8
OBJECT__29
10
6.723000
20
-14.240000
30
33.804001
70
192
0
VERTEX
8
OBJECT__29
10
6.721000
20
-14.240000
30
33.800999
70
192
0
VERTEX
8
OBJECT__29
10
6.721000
20
-14.240000
30
-33.800999
70
192
0
VERTEX
8
OBJECT__29
10
11.785000
20
-13.975000
30
-14.751000
70
192
0
VERTEX
8
OBJECT__29
10
11.631000
20
-13.983000
30
-34.042999
70
192
0
VERTEX
8
OBJECT__29
10
6.723000
20
-14.240000
30
-33.804001
70
192
0
VERTEX
8
OBJECT__29
10
6.901000
20
-14.231000
30
34.132000
70
192
0
VERTEX
8
OBJECT__29
10
6.933000
20
-14.229000
30
34.289001
70
192
0
VERTEX
8
OBJECT__29
10
6.925000
20
-14.229000
30
-34.216000
70
192
0
VERTEX
8
OBJECT__29
10
6.933000
20
-14.229000
30
-34.289001
70
192
0
VERTEX
8
OBJECT__29
10
0
20
0
30
0
70
128
71
1
72
2
73
3
0
VERTEX
8
OBJECT__29
10
0
20
0
30
0
70
128
71
3
72
4
73
5
0
VERTEX
8
OBJECT__29
10
0
20
0
30
0
70
128
71
6
72
5
73
4
0
VERTEX
8
OBJECT__29
10
0
20
0
30
0
70
128
71
4
72
7
73
6
0
VERTEX
8
OBJECT__29
10
0
20
0
30
0
70
128
71
1
72
8
73
2
0
VERTEX
8
OBJECT__29
10
0
20
0
30
0
70
128
71
3
72
5
73
1
0
VERTEX
8
OBJECT__29
10
0
20
0
30
0
70
128
71
1
72
9
73
8
0
VERTEX
8
OBJECT__29
10
0
20
0
30
0
70
128
71
7
72
10
73
6
0
VERTEX
8
OBJECT__29
10
0
20
0
30
0
70
128
71
10
72
11
73
6
0
SEQEND
8
OBJECT__29
0
POLYLINE
8
OBJECT__31
66
1
70
64
71
8
72
6
62
253
0
VERTEX
8
OBJECT__31
10
11.721000
20
-0.768000
30
34.037998
70
192
0
VERTEX
8
OBJECT__31
10
11.721000
20
-0.768000
30
-34.037998
70
192
0
VERTEX
8
OBJECT__31
10
11.785000
20
13.975000
30
-14.751000
70
192
0
VERTEX
8
OBJECT__31
10
11.631000
20
13.983000
30
-34.042999
70
192
0
VERTEX
8
OBJECT__31
10
11.631000
20
-13.983000
30
34.042999
70
192
0
VERTEX
8
OBJECT__31
10
11.785000
20
-13.975000
30
-14.751000
70
192
0
VERTEX
8
OBJECT__31
10
11.631000
20
-13.983000
30
-34.042999
70
192
0
VERTEX
8
OBJECT__31
10
11.631000
20
13.983000
30
34.042999
70
192
0
VERTEX
8
OBJECT__31
10
0
20
0
30
0
70
128
71
1
72
2
73
3
0
VERTEX
8
OBJECT__31
10
0
20
0
30
0
70
128
71
2
72
4
73
3
0
VERTEX
8
OBJECT__31
10
0
20
0
30
0
70
128
71
1
72
5
73
6
0
VERTEX
8
OBJECT__31
10
0
20
0
30
0
70
128
71
6
72
2
73
1
0
VERTEX
8
OBJECT__31
10
0
20
0
30
0
70
128
71
6
72
7
73
2
0
VERTEX
8
OBJECT__31
10
0
20
0
30
0
70
128
71
3
72
8
73
1
0
SEQEND
8
OBJECT__31
0
POLYLINE
8
OBJECT__32
66
1
70
64
71
14
72
12
62
253
0
VERTEX
8
OBJECT__32
10
6.534000
20
-14.217000
30
-34.310001
70
192
0
VERTEX
8
OBJECT__32
10
6.927000
20
-14.309000
30
-34.289001
70
192
0
VERTEX
8
OBJECT__32
10
6.896000
20
-14.392000
30
-34.291000
70
192
0
VERTEX
8
OBJECT__32
10
6.933000
20
-14.229000
30
-34.289001
70
192
0
VERTEX
8
OBJECT__32
10
6.720000
20
0.000000
30
-34.299999
70
192
0
VERTEX
8
OBJECT__32
10
11.721000
20
-0.768000
30
-34.037998
70
192
0
VERTEX
8
OBJECT__32
10
11.631000
20
13.983000
30
-34.042999
70
192
0
VERTEX
8
OBJECT__32
10
6.534000
20
14.217000
30
-34.310001
70
192
0
VERTEX
8
OBJECT__32
10
6.695000
20
14.483000
30
-34.300999
70
192
0
VERTEX
8
OBJECT__32
10
6.896000
20
14.392000
30
-34.291000
70
192
0
VERTEX
8
OBJECT__32
10
6.933000
20
14.229000
30
-34.289001
70
192
0
VERTEX
8
OBJECT__32
10
6.927000
20
14.309000
30
-34.289001
70
192
0
VERTEX
8
OBJECT__32
10
11.631000
20
-13.983000
30
-34.042999
70
192
0
VERTEX
8
OBJECT__32
10
6.695000
20
-14.483000
30
-34.300999
70
192
0
VERTEX
8
OBJECT__32
10
0
20
0
30
0
70
128
71
1
72
2
73
3
0
VERTEX
8
OBJECT__32
10
0
20
0
30
0
70
128
71
1
72
4
73
2
0
VERTEX
8
OBJECT__32
10
0
20
0
30
0
70
128
71
4
72
5
73
6
0
VERTEX
8
OBJECT__32
10
0
20
0
30
0
70
128
71
7
72
6
73
5
0
VERTEX
8
OBJECT__32
10
0
20
0
30
0
70
128
71
8
72
9
73
10
0
VERTEX
8
OBJECT__32
10
0
20
0
30
0
70
128
71
1
72
5
73
4
0
VERTEX
8
OBJECT__32
10
0
20
0
30
0
70
128
71
5
72
11
73
7
0
VERTEX
8
OBJECT__32
10
0
20
0
30
0
70
128
71
10
72
12
73
8
0
VERTEX
8
OBJECT__32
10
0
20
0
30
0
70
128
71
6
72
13
73
4
0
VERTEX
8
OBJECT__32
10
0
20
0
30
0
70
128
71
12
72
11
73
8
0
VERTEX
8
OBJECT__32
10
0
20
0
30
0
70
128
71
11
72
5
73
8
0
VERTEX
8
OBJECT__32
10
0
20
0
30
0
70
128
71
3
72
14
73
1
0
SEQEND
8
OBJECT__32
0
POLYLINE
8
OBJECT__33
66
1
70
64
71
14
72
12
62
253
0
VERTEX
8
OBJECT__33
10
6.933000
20
-14.229000
30
34.289001
70
192
0
VERTEX
8
OBJECT__33
10
11.631000
20
-13.983000
30
34.042999
70
192
0
VERTEX
8
OBJECT__33
10
11.721000
20
-0.768000
30
34.037998
70
192
0
VERTEX
8
OBJECT__33
10
11.631000
20
13.983000
30
34.042999
70
192
0
VERTEX
8
OBJECT__33
10
6.933000
20
14.229000
30
34.289001
70
192
0
VERTEX
8
OBJECT__33
10
6.720000
20
0.000000
30
34.299999
70
192
0
VERTEX
8
OBJECT__33
10
6.534000
20
14.217000
30
34.310001
70
192
0
VERTEX
8
OBJECT__33
10
6.931000
20
14.283000
30
34.289001
70
192
0
VERTEX
8
OBJECT__33
10
6.905000
20
14.374000
30
34.290001
70
192
0
VERTEX
8
OBJECT__33
10
6.534000
20
-14.217000
30
34.310001
70
192
0
VERTEX
8
OBJECT__33
10
6.691000
20
-14.482000
30
34.301998
70
192
0
VERTEX
8
OBJECT__33
10
6.908000
20
-14.369000
30
34.290001
70
192
0
VERTEX
8
OBJECT__33
10
6.932000
20
-14.270000
30
34.289001
70
192
0
VERTEX
8
OBJECT__33
10
6.714000
20
14.487000
30
34.299999
70
192
0
VERTEX
8
OBJECT__33
10
0
20
0
30
0
70
128
71
1
72
2
73
3
0
VERTEX
8
OBJECT__33
10
0
20
0
30
0
70
128
71
4
72
5
73
6
0
VERTEX
8
OBJECT__33
10
0
20
0
30
0
70
128
71
7
72
8
73
9
0
VERTEX
8
OBJECT__33
10
0
20
0
30
0
70
128
71
6
72
10
73
1
0
VERTEX
8
OBJECT__33
10
0
20
0
30
0
70
128
71
6
72
3
73
4
0
VERTEX
8
OBJECT__33
10
0
20
0
30
0
70
128
71
7
72
5
73
8
0
VERTEX
8
OBJECT__33
10
0
20
0
30
0
70
128
71
5
72
7
73
6
0
VERTEX
8
OBJECT__33
10
0
20
0
30
0
70
128
71
10
72
11
73
12
0
VERTEX
8
OBJECT__33
10
0
20
0
30
0
70
128
71
3
72
6
73
1
0
VERTEX
8
OBJECT__33
10
0
20
0
30
0
70
128
71
12
72
13
73
10
0
VERTEX
8
OBJECT__33
10
0
20
0
30
0
70
128
71
13
72
1
73
10
0
VERTEX
8
OBJECT__33
10
0
20
0
30
0
70
128
71
9
72
14
73
7
0
SEQEND
8
OBJECT__33
0
POLYLINE
8
OBJECT__34
66
1
70
64
71
11
72
9
62
253
0
VERTEX
8
OBJECT__34
10
11.631000
20
13.983000
30
34.042999
70
192
0
VERTEX
8
OBJECT__34
10
11.785000
20
13.975000
30
-14.751000
70
192
0
VERTEX
8
OBJECT__34
10
6.721000
20
14.240000
30
33.800999
70
192
0
VERTEX
8
OBJECT__34
10
11.631000
20
13.983000
30
-34.042999
70
192
0
VERTEX
8
OBJECT__34
10
6.723000
20
14.240000
30
-33.804001
70
192
0
VERTEX
8
OBJECT__34
10
6.721000
20
14.240000
30
-33.800999
70
192
0
VERTEX
8
OBJECT__34
10
6.723000
20
14.240000
30
33.804001
70
192
0
VERTEX
8
OBJECT__34
10
6.925000
20
14.229000
30
-34.216000
70
192
0
VERTEX
8
OBJECT__34
10
6.933000
20
14.229000
30
-34.289001
70
192
0
VERTEX
8
OBJECT__34
10
6.925000
20
14.229000
30
34.216000
70
192
0
VERTEX
8
OBJECT__34
10
6.933000
20
14.229000
30
34.289001
70
192
0
VERTEX
8
OBJECT__34
10
0
20
0
30
0
70
128
71
1
72
2
73
3
0
VERTEX
8
OBJECT__34
10
0
20
0
30
0
70
128
71
4
72
5
73
6
0
VERTEX
8
OBJECT__34
10
0
20
0
30
0
70
128
71
3
72
7
73
1
0
VERTEX
8
OBJECT__34
10
0
20
0
30
0
70
128
71
2
72
6
73
3
0
VERTEX
8
OBJECT__34
10
0
20
0
30
0
70
128
71
6
72
2
73
4
0
VERTEX
8
OBJECT__34
10
0
20
0
30
0
70
128
71
4
72
8
73
5
0
VERTEX
8
OBJECT__34
10
0
20
0
30
0
70
128
71
4
72
9
73
8
0
VERTEX
8
OBJECT__34
10
0
20
0
30
0
70
128
71
7
72
10
73
1
0
VERTEX
8
OBJECT__34
10
0
20
0
30
0
70
128
71
10
72
11
73
1
0
SEQEND
8
OBJECT__34
0
POLYLINE
8
OBJECT__35
66
1
70
64
71
6
72
4
62
253
0
VERTEX
8
OBJECT__35
10
6.531000
20
14.437000
30
-33.800999
70
192
0
VERTEX
8
OBJECT__35
10
6.531000
20
14.437000
30
33.800999
70
192
0
VERTEX
8
OBJECT__35
10
6.557000
20
14.341000
30
33.800999
70
192
0
VERTEX
8
OBJECT__35
10
6.721000
20
14.240000
30
33.800999
70
192
0
VERTEX
8
OBJECT__35
10
6.721000
20
14.240000
30
-33.800999
70
192
0
VERTEX
8
OBJECT__35
10
6.567000
20
14.325000
30
-33.800999
70
192
0
VERTEX
8
OBJECT__35
10
0
20
0
30
0
70
128
71
1
72
2
73
3
0
VERTEX
8
OBJECT__35
10
0
20
0
30
0
70
128
71
4
72
5
73
6
0
VERTEX
8
OBJECT__35
10
0
20
0
30
0
70
128
71
6
72
3
73
4
0
VERTEX
8
OBJECT__35
10
0
20
0
30
0
70
128
71
3
72
6
73
1
0
SEQEND
8
OBJECT__35
0
POLYLINE
8
OBJECT__36
66
1
70
64
71
12
72
10
62
253
0
VERTEX
8
OBJECT__36
10
6.527000
20
14.750000
30
34.799999
70
192
0
VERTEX
8
OBJECT__36
10
6.531000
20
14.437000
30
33.800999
70
192
0
VERTEX
8
OBJECT__36
10
6.531000
20
14.437000
30
-33.800999
70
192
0
VERTEX
8
OBJECT__36
10
6.532000
20
14.379000
30
34.080002
70
192
0
VERTEX
8
OBJECT__36
10
6.527000
20
14.750000
30
-34.799999
70
192
0
VERTEX
8
OBJECT__36
10
6.532000
20
14.379000
30
-34.080002
70
192
0
VERTEX
8
OBJECT__36
10
6.534000
20
14.217000
30
34.310001
70
192
0
VERTEX
8
OBJECT__36
10
6.720000
20
0.000000
30
34.799999
70
192
0
VERTEX
8
OBJECT__36
10
6.720000
20
0.000000
30
34.299999
70
192
0
VERTEX
8
OBJECT__36
10
6.720000
20
0.000000
30
-34.799999
70
192
0
VERTEX
8
OBJECT__36
10
6.534000
20
14.217000
30
-34.310001
70
192
0
VERTEX
8
OBJECT__36
10
6.720000
20
0.000000
30
-34.299999
70
192
0
VERTEX
8
OBJECT__36
10
0
20
0
30
0
70
128
71
1
72
2
73
3
0
VERTEX
8
OBJECT__36
10
0
20
0
30
0
70
128
71
1
72
4
73
2
0
VERTEX
8
OBJECT__36
10
0
20
0
30
0
70
128
71
3
72
5
73
1
0
VERTEX
8
OBJECT__36
10
0
20
0
30
0
70
128
71
3
72
6
73
5
0
VERTEX
8
OBJECT__36
10
0
20
0
30
0
70
128
71
1
72
7
73
4
0
VERTEX
8
OBJECT__36
10
0
20
0
30
0
70
128
71
8
72
9
73
7
0
VERTEX
8
OBJECT__36
10
0
20
0
30
0
70
128
71
10
72
5
73
11
0
VERTEX
8
OBJECT__36
10
0
20
0
30
0
70
128
71
7
72
1
73
8
0
VERTEX
8
OBJECT__36
10
0
20
0
30
0
70
128
71
6
72
11
73
5
0
VERTEX
8
OBJECT__36
10
0
20
0
30
0
70
128
71
11
72
12
73
10
0
SEQEND
8
OBJECT__36
0
POLYLINE
8
OBJECT__37
66
1
70
64
71
12
72
10
62
253
0
VERTEX
8
OBJECT__37
10
6.527000
20
-14.750000
30
34.799999
70
192
0
VERTEX
8
OBJECT__37
10
6.527000
20
-14.750000
30
-34.799999
70
192
0
VERTEX
8
OBJECT__37
10
6.531000
20
-14.437000
30
-33.800999
70
192
0
VERTEX
8
OBJECT__37
10
6.531000
20
-14.437000
30
33.800999
70
192
0
VERTEX
8
OBJECT__37
10
6.532000
20
-14.379000
30
-34.080002
70
192
0
VERTEX
8
OBJECT__37
10
6.534000
20
-14.217000
30
-34.310001
70
192
0
VERTEX
8
OBJECT__37
10
6.720000
20
0.000000
30
34.799999
70
192
0
VERTEX
8
OBJECT__37
10
6.534000
20
-14.217000
30
34.310001
70
192
0
VERTEX
8
OBJECT__37
10
6.532000
20
-14.379000
30
34.080002
70
192
0
VERTEX
8
OBJECT__37
10
6.720000
20
0.000000
30
-34.799999
70
192
0
VERTEX
8
OBJECT__37
10
6.720000
20
0.000000
30
-34.299999
70
192
0
VERTEX
8
OBJECT__37
10
6.720000
20
0.000000
30
34.299999
70
192
0
VERTEX
8
OBJECT__37
10
0
20
0
30
0
70
128
71
1
72
2
73
3
0
VERTEX
8
OBJECT__37
10
0
20
0
30
0
70
128
71
3
72
4
73
1
0
VERTEX
8
OBJECT__37
10
0
20
0
30
0
70
128
71
2
72
5
73
3
0
VERTEX
8
OBJECT__37
10
0
20
0
30
0
70
128
71
2
72
6
73
5
0
VERTEX
8
OBJECT__37
10
0
20
0
30
0
70
128
71
7
72
1
73
8
0
VERTEX
8
OBJECT__37
10
0
20
0
30
0
70
128
71
4
72
9
73
1
0
VERTEX
8
OBJECT__37
10
0
20
0
30
0
70
128
71
9
72
8
73
1
0
VERTEX
8
OBJECT__37
10
0
20
0
30
0
70
128
71
10
72
11
73
6
0
VERTEX
8
OBJECT__37
10
0
20
0
30
0
70
128
71
6
72
2
73
10
0
VERTEX
8
OBJECT__37
10
0
20
0
30
0
70
128
71
8
72
12
73
7
0
SEQEND
8
OBJECT__37
0
POLYLINE
8
OBJECT__38
66
1
70
64
71
4
72
2
62
253
0
VERTEX
8
OBJECT__38
10
6.527000
20
-14.750000
30
-34.799999
70
192
0
VERTEX
8
OBJECT__38
10
6.527000
20
-14.750000
30
34.799999
70
192
0
VERTEX
8
OBJECT__38
10
5.413000
20
-14.750000
30
34.799999
70
192
0
VERTEX
8
OBJECT__38
10
5.413000
20
-14.750000
30
-34.799999
70
192
0
VERTEX
8
OBJECT__38
10
0
20
0
30
0
70
128
71
1
72
2
73
3
0
VERTEX
8
OBJECT__38
10
0
20
0
30
0
70
128
71
3
72
4
73
1
0
SEQEND
8
OBJECT__38
0
POLYLINE
8
OBJECT__39
66
1
70
64
71
6
72
4
62
253
0
VERTEX
8
OBJECT__39
10
5.220000
20
0.000000
30
34.799999
70
192
0
VERTEX
8
OBJECT__39
10
5.413000
20
-14.750000
30
34.799999
70
192
0
VERTEX
8
OBJECT__39
10
6.527000
20
-14.750000
30
34.799999
70
192
0
VERTEX
8
OBJECT__39
10
6.720000
20
0.000000
30
34.799999
70
192
0
VERTEX
8
OBJECT__39
10
6.527000
20
14.750000
30
34.799999
70
192
0
VERTEX
8
OBJECT__39
10
5.413000
20
14.750000
30
34.799999
70
192
0
VERTEX
8
OBJECT__39
10
0
20
0
30
0
70
128
71
1
72
2
73
3
0
VERTEX
8
OBJECT__39
10
0
20
0
30
0
70
128
71
1
72
4
73
5
0
VERTEX
8
OBJECT__39
10
0
20
0
30
0
70
128
71
5
72
6
73
1
0
VERTEX
8
OBJECT__39
10
0
20
0
30
0
70
128
71
3
72
4
73
1
0
SEQEND
8
OBJECT__39
0
POLYLINE
8
OBJECT__40
66
1
70
64
71
6
72
4
62
253
0
VERTEX
8
OBJECT__40
10
5.220000
20
0.000000
30
-34.799999
70
192
0
VERTEX
8
OBJECT__40
10
6.720000
20
0.000000
30
-34.799999
70
192
0
VERTEX
8
OBJECT__40
10
6.527000
20
-14.750000
30
-34.799999
70
192
0
VERTEX
8
OBJECT__40
10
5.413000
20
14.750000
30
-34.799999
70
192
0
VERTEX
8
OBJECT__40
10
6.527000
20
14.750000
30
-34.799999
70
192
0
VERTEX
8
OBJECT__40
10
5.413000
20
-14.750000
30
-34.799999
70
192
0
VERTEX
8
OBJECT__40
10
0
20
0
30
0
70
128
71
1
72
2
73
3
0
VERTEX
8
OBJECT__40
10
0
20
0
30
0
70
128
71
1
72
4
73
5
0
VERTEX
8
OBJECT__40
10
0
20
0
30
0
70
128
71
5
72
2
73
1
0
VERTEX
8
OBJECT__40
10
0
20
0
30
0
70
128
71
3
72
6
73
1
0
SEQEND
8
OBJECT__40
0
ENDSEC
0
EOF
