999
Converted by 3D Exploration 
999
XDimension Software, LLC
999
http://www.xdsoft.com/explorer/
0
SECTION
2
HEADER
9
$ACADVER
1
AC1008
9
$UCSORG
10
0.0
20
0.0
30
0.0
9
$UCSXDIR
10
1.0
20
0.0
30
0.0
9
$TILEMODE
70
1
9
$UCSYDIR
10
0.0
20
1.0
30
0.0
9
$EXTMIN
10
-41.941002
20
-28.532000
30
-28.532000
9
$EXTMAX
10
149.464005
20
75.911003
30
454.459015
0
ENDSEC
0
SECTION
2
TABLES
0
TABLE
2
LTYPE
70
1
0
LTYPE
2
CONTINUOUS
70
64
3
Solid line
72
65
73
0
40
0.0
0
ENDTAB
0
TABLE
2
LAYER
70
106
0
LAYER
2
OBJECT__0
70
0
62
253
6
CONTINUOUS
0
LAYER
2
OBJECT__2
70
0
62
253
6
CONTINUOUS
0
LAYER
2
OBJECT__3
70
0
62
253
6
CONTINUOUS
0
LAYER
2
OBJECT__5
70
0
62
253
6
CONTINUOUS
0
LAYER
2
OBJECT__6
70
0
62
253
6
CONTINUOUS
0
LAYER
2
OBJECT__7
70
0
62
253
6
CONTINUOUS
0
LAYER
2
OBJECT__8
70
0
62
253
6
CONTINUOUS
0
LAYER
2
OBJECT__9
70
0
62
253
6
CONTINUOUS
0
LAYER
2
OBJECT__10
70
0
62
253
6
CONTINUOUS
0
LAYER
2
OBJECT__11
70
0
62
253
6
CONTINUOUS
0
LAYER
2
OBJECT__12
70
0
62
253
6
CONTINUOUS
0
LAYER
2
OBJECT__13
70
0
62
253
6
CONTINUOUS
0
LAYER
2
OBJECT__14
70
0
62
253
6
CONTINUOUS
0
LAYER
2
OBJECT__15
70
0
62
253
6
CONTINUOUS
0
LAYER
2
OBJECT__16
70
0
62
253
6
CONTINUOUS
0
LAYER
2
OBJECT__17
70
0
62
253
6
CONTINUOUS
0
LAYER
2
OBJECT__18
70
0
62
253
6
CONTINUOUS
0
LAYER
2
OBJECT__19
70
0
62
253
6
CONTINUOUS
0
LAYER
2
OBJECT__20
70
0
62
253
6
CONTINUOUS
0
LAYER
2
OBJECT__21
70
0
62
253
6
CONTINUOUS
0
LAYER
2
OBJECT__22
70
0
62
253
6
CONTINUOUS
0
LAYER
2
OBJECT__23
70
0
62
253
6
CONTINUOUS
0
LAYER
2
OBJECT__24
70
0
62
253
6
CONTINUOUS
0
LAYER
2
OBJECT__25
70
0
62
253
6
CONTINUOUS
0
LAYER
2
OBJECT__26
70
0
62
253
6
CONTINUOUS
0
LAYER
2
OBJECT__27
70
0
62
253
6
CONTINUOUS
0
LAYER
2
OBJECT__28
70
0
62
253
6
CONTINUOUS
0
LAYER
2
OBJECT__29
70
0
62
253
6
CONTINUOUS
0
LAYER
2
OBJECT__30
70
0
62
253
6
CONTINUOUS
0
LAYER
2
OBJECT__31
70
0
62
253
6
CONTINUOUS
0
LAYER
2
OBJECT__32
70
0
62
253
6
CONTINUOUS
0
LAYER
2
OBJECT__34
70
0
62
253
6
CONTINUOUS
0
LAYER
2
OBJECT__35
70
0
62
253
6
CONTINUOUS
0
LAYER
2
OBJECT__36
70
0
62
253
6
CONTINUOUS
0
LAYER
2
OBJECT__38
70
0
62
253
6
CONTINUOUS
0
LAYER
2
OBJECT__39
70
0
62
253
6
CONTINUOUS
0
LAYER
2
OBJECT__40
70
0
62
253
6
CONTINUOUS
0
LAYER
2
OBJECT__41
70
0
62
253
6
CONTINUOUS
0
LAYER
2
OBJECT__42
70
0
62
253
6
CONTINUOUS
0
LAYER
2
OBJECT__43
70
0
62
253
6
CONTINUOUS
0
LAYER
2
OBJECT__44
70
0
62
253
6
CONTINUOUS
0
LAYER
2
OBJECT__45
70
0
62
253
6
CONTINUOUS
0
LAYER
2
OBJECT__46
70
0
62
253
6
CONTINUOUS
0
LAYER
2
OBJECT__47
70
0
62
253
6
CONTINUOUS
0
LAYER
2
OBJECT__48
70
0
62
253
6
CONTINUOUS
0
LAYER
2
OBJECT__49
70
0
62
253
6
CONTINUOUS
0
LAYER
2
OBJECT__50
70
0
62
253
6
CONTINUOUS
0
LAYER
2
OBJECT__51
70
0
62
253
6
CONTINUOUS
0
LAYER
2
OBJECT__52
70
0
62
253
6
CONTINUOUS
0
LAYER
2
OBJECT__54
70
0
62
253
6
CONTINUOUS
0
LAYER
2
OBJECT__55
70
0
62
253
6
CONTINUOUS
0
LAYER
2
OBJECT__56
70
0
62
253
6
CONTINUOUS
0
LAYER
2
OBJECT__57
70
0
62
253
6
CONTINUOUS
0
LAYER
2
OBJECT__58
70
0
62
253
6
CONTINUOUS
0
LAYER
2
OBJECT__59
70
0
62
253
6
CONTINUOUS
0
LAYER
2
OBJECT__61
70
0
62
253
6
CONTINUOUS
0
LAYER
2
OBJECT__62
70
0
62
253
6
CONTINUOUS
0
LAYER
2
OBJECT__63
70
0
62
253
6
CONTINUOUS
0
LAYER
2
OBJECT__65
70
0
62
253
6
CONTINUOUS
0
LAYER
2
OBJECT__66
70
0
62
253
6
CONTINUOUS
0
LAYER
2
OBJECT__68
70
0
62
253
6
CONTINUOUS
0
LAYER
2
OBJECT__69
70
0
62
253
6
CONTINUOUS
0
LAYER
2
OBJECT__70
70
0
62
253
6
CONTINUOUS
0
LAYER
2
OBJECT__72
70
0
62
253
6
CONTINUOUS
0
LAYER
2
OBJECT__73
70
0
62
253
6
CONTINUOUS
0
LAYER
2
OBJECT__74
70
0
62
253
6
CONTINUOUS
0
LAYER
2
OBJECT__75
70
0
62
253
6
CONTINUOUS
0
LAYER
2
OBJECT__77
70
0
62
253
6
CONTINUOUS
0
LAYER
2
OBJECT__78
70
0
62
253
6
CONTINUOUS
0
LAYER
2
OBJECT__79
70
0
62
253
6
CONTINUOUS
0
LAYER
2
OBJECT__80
70
0
62
253
6
CONTINUOUS
0
LAYER
2
OBJECT__81
70
0
62
253
6
CONTINUOUS
0
LAYER
2
OBJECT__82
70
0
62
253
6
CONTINUOUS
0
LAYER
2
OBJECT__83
70
0
62
253
6
CONTINUOUS
0
LAYER
2
OBJECT__84
70
0
62
253
6
CONTINUOUS
0
LAYER
2
OBJECT__85
70
0
62
253
6
CONTINUOUS
0
LAYER
2
OBJECT__86
70
0
62
253
6
CONTINUOUS
0
LAYER
2
OBJECT__87
70
0
62
253
6
CONTINUOUS
0
LAYER
2
OBJECT__88
70
0
62
253
6
CONTINUOUS
0
LAYER
2
OBJECT__89
70
0
62
253
6
CONTINUOUS
0
LAYER
2
OBJECT__90
70
0
62
253
6
CONTINUOUS
0
LAYER
2
OBJECT__91
70
0
62
253
6
CONTINUOUS
0
LAYER
2
OBJECT__92
70
0
62
253
6
CONTINUOUS
0
LAYER
2
OBJECT__93
70
0
62
253
6
CONTINUOUS
0
LAYER
2
OBJECT__94
70
0
62
253
6
CONTINUOUS
0
LAYER
2
OBJECT__95
70
0
62
253
6
CONTINUOUS
0
LAYER
2
OBJECT__96
70
0
62
253
6
CONTINUOUS
0
LAYER
2
OBJECT__97
70
0
62
253
6
CONTINUOUS
0
LAYER
2
OBJECT__98
70
0
62
253
6
CONTINUOUS
0
LAYER
2
OBJECT__99
70
0
62
253
6
CONTINUOUS
0
LAYER
2
OBJECT__100
70
0
62
253
6
CONTINUOUS
0
LAYER
2
OBJECT__101
70
0
62
253
6
CONTINUOUS
0
LAYER
2
OBJECT__103
70
0
62
253
6
CONTINUOUS
0
LAYER
2
OBJECT__104
70
0
62
253
6
CONTINUOUS
0
ENDTAB
0
TABLE
2
STYLE
70
1
0
STYLE
2
STANDARD
70
0
40
0.0
41
1.0
50
0.0
71
0
42
0.2
3
txt
4
1
0
ENDTAB
0
TABLE
2
UCS
70
0
0
ENDTAB
0
ENDSEC
0
SECTION
2
ENTITIES
0
POLYLINE
8
OBJECT__0
66
1
70
64
71
178
72
206
62
253
0
VERTEX
8
OBJECT__0
10
1.833000
20
53.893002
30
272.042999
70
192
0
VERTEX
8
OBJECT__0
10
-2.856000
20
54.004002
30
271.651001
70
192
0
VERTEX
8
OBJECT__0
10
-4.308000
20
49.299999
30
275.518005
70
192
0
VERTEX
8
OBJECT__0
10
-6.906000
20
54.313999
30
269.273010
70
192
0
VERTEX
8
OBJECT__0
10
-10.103000
20
49.743999
30
272.117004
70
192
0
VERTEX
8
OBJECT__0
10
-9.515000
20
54.762001
30
265.381989
70
192
0
VERTEX
8
OBJECT__0
10
-13.836000
20
50.384998
30
266.549011
70
192
0
VERTEX
8
OBJECT__0
10
-10.166000
20
55.259998
30
260.747009
70
192
0
VERTEX
8
OBJECT__0
10
-14.768000
20
51.097000
30
259.916992
70
192
0
VERTEX
8
OBJECT__0
10
-8.731000
20
55.708000
30
256.286987
70
192
0
VERTEX
8
OBJECT__0
10
-12.714000
20
51.737999
30
253.535995
70
192
0
VERTEX
8
OBJECT__0
10
-5.493000
20
56.018002
30
252.884995
70
192
0
VERTEX
8
OBJECT__0
10
-8.082000
20
52.181999
30
248.669006
70
192
0
VERTEX
8
OBJECT__0
10
-1.094000
20
56.129002
30
251.216003
70
192
0
VERTEX
8
OBJECT__0
10
-1.788000
20
52.340000
30
246.279999
70
192
0
VERTEX
8
OBJECT__0
10
3.595000
20
56.018002
30
251.608002
70
192
0
VERTEX
8
OBJECT__0
10
4.921000
20
52.181999
30
246.841995
70
192
0
VERTEX
8
OBJECT__0
10
7.645000
20
55.708000
30
253.985992
70
192
0
VERTEX
8
OBJECT__0
10
10.716000
20
51.737999
30
250.242996
70
192
0
VERTEX
8
OBJECT__0
10
10.254000
20
55.259998
30
257.877014
70
192
0
VERTEX
8
OBJECT__0
10
14.449000
20
51.097000
30
255.811005
70
192
0
VERTEX
8
OBJECT__0
10
10.905000
20
54.762001
30
262.511993
70
192
0
VERTEX
8
OBJECT__0
10
15.381000
20
50.384998
30
262.442993
70
192
0
VERTEX
8
OBJECT__0
10
9.470000
20
54.313999
30
266.971985
70
192
0
VERTEX
8
OBJECT__0
10
13.327000
20
49.743999
30
268.824005
70
192
0
VERTEX
8
OBJECT__0
10
6.232000
20
54.004002
30
270.373993
70
192
0
VERTEX
8
OBJECT__0
10
8.695000
20
49.299999
30
273.691010
70
192
0
VERTEX
8
OBJECT__0
10
2.400000
20
49.140999
30
276.079987
70
192
0
VERTEX
8
OBJECT__0
10
-5.278000
20
43.512001
30
277.699005
70
192
0
VERTEX
8
OBJECT__0
10
2.722000
20
43.323002
30
278.368988
70
192
0
VERTEX
8
OBJECT__0
10
-12.189000
20
44.041000
30
273.641998
70
192
0
VERTEX
8
OBJECT__0
10
-16.639999
20
44.806000
30
267.002014
70
192
0
VERTEX
8
OBJECT__0
10
18.202000
20
44.806000
30
262.105011
70
192
0
VERTEX
8
OBJECT__0
10
10.228000
20
43.512001
30
275.519012
70
192
0
VERTEX
8
OBJECT__0
10
15.752000
20
44.041000
30
269.714996
70
192
0
VERTEX
8
OBJECT__0
10
-1.281000
20
56.863998
30
267.118011
70
192
0
VERTEX
8
OBJECT__0
10
-0.135000
20
56.966999
30
266.998993
70
192
0
VERTEX
8
OBJECT__0
10
-0.024000
20
56.946999
30
267.053009
70
192
0
VERTEX
8
OBJECT__0
10
0.614000
20
56.978001
30
266.959991
70
192
0
VERTEX
8
OBJECT__0
10
0.601000
20
57.014000
30
266.868988
70
192
0
VERTEX
8
OBJECT__0
10
0.056000
20
56.991001
30
266.942993
70
192
0
VERTEX
8
OBJECT__0
10
0.649000
20
56.928001
30
267.084991
70
192
0
VERTEX
8
OBJECT__0
10
1.172000
20
56.807999
30
267.313995
70
192
0
VERTEX
8
OBJECT__0
10
-3.940000
20
56.591000
30
266.751007
70
192
0
VERTEX
8
OBJECT__0
10
-3.977000
20
56.686001
30
266.481995
70
192
0
VERTEX
8
OBJECT__0
10
-4.010000
20
56.678001
30
266.483002
70
192
0
VERTEX
8
OBJECT__0
10
-3.337000
20
56.481998
30
267.339996
70
192
0
VERTEX
8
OBJECT__0
10
-2.863000
20
56.569000
30
267.345001
70
192
0
VERTEX
8
OBJECT__0
10
-2.871000
20
56.582001
30
267.311005
70
192
0
VERTEX
8
OBJECT__0
10
-3.150000
20
56.516998
30
267.342987
70
192
0
VERTEX
8
OBJECT__0
10
-2.757000
20
56.563999
30
267.399994
70
192
0
VERTEX
8
OBJECT__0
10
-1.475000
20
56.826000
30
267.170990
70
192
0
VERTEX
8
OBJECT__0
10
-1.481000
20
56.837002
30
267.143005
70
192
0
VERTEX
8
OBJECT__0
10
-2.673000
20
56.625000
30
267.287994
70
192
0
VERTEX
8
OBJECT__0
10
-1.365000
20
56.812000
30
267.227997
70
192
0
VERTEX
8
OBJECT__0
10
-1.283000
20
56.863998
30
267.118011
70
192
0
VERTEX
8
OBJECT__0
10
-4.284000
20
57.084999
30
265.041992
70
192
0
VERTEX
8
OBJECT__0
10
-4.383000
20
57.365002
30
263.816986
70
192
0
VERTEX
8
OBJECT__0
10
-4.195000
20
57.137001
30
264.936005
70
192
0
VERTEX
8
OBJECT__0
10
-4.352000
20
57.373001
30
263.816010
70
192
0
VERTEX
8
OBJECT__0
10
-4.096000
20
56.688999
30
266.397003
70
192
0
VERTEX
8
OBJECT__0
10
-4.198000
20
57.081001
30
265.131012
70
192
0
VERTEX
8
OBJECT__0
10
-4.004000
20
56.750000
30
266.290009
70
192
0
VERTEX
8
OBJECT__0
10
-4.167000
20
57.088001
30
265.131012
70
192
0
VERTEX
8
OBJECT__0
10
-4.014000
20
56.676998
30
266.483002
70
192
0
VERTEX
8
OBJECT__0
10
-4.457000
20
57.363998
30
263.735992
70
192
0
VERTEX
8
OBJECT__0
10
-4.468000
20
57.362999
30
263.723999
70
192
0
VERTEX
8
OBJECT__0
10
-4.784000
20
57.605000
30
261.471008
70
192
0
VERTEX
8
OBJECT__0
10
-4.670000
20
57.629002
30
261.553009
70
192
0
VERTEX
8
OBJECT__0
10
-4.777000
20
57.608002
30
261.455994
70
192
0
VERTEX
8
OBJECT__0
10
-4.380000
20
57.407001
30
263.619995
70
192
0
VERTEX
8
OBJECT__0
10
-5.175000
20
57.513000
30
258.717010
70
192
0
VERTEX
8
OBJECT__0
10
-5.120000
20
57.521999
30
258.612000
70
192
0
VERTEX
8
OBJECT__0
10
-4.917000
20
57.630001
30
260.015991
70
192
0
VERTEX
8
OBJECT__0
10
-4.887000
20
57.638000
30
260.010010
70
192
0
VERTEX
8
OBJECT__0
10
-5.056000
20
57.553001
30
258.806000
70
192
0
VERTEX
8
OBJECT__0
10
-4.975000
20
57.612999
30
260.123993
70
192
0
VERTEX
8
OBJECT__0
10
-4.729000
20
57.629002
30
261.360992
70
192
0
VERTEX
8
OBJECT__0
10
-4.698000
20
57.637001
30
261.354004
70
192
0
VERTEX
8
OBJECT__0
10
-4.859000
20
57.644001
30
260.209991
70
192
0
VERTEX
8
OBJECT__0
10
-2.659000
20
57.917000
30
257.309998
70
192
0
VERTEX
8
OBJECT__0
10
-2.772000
20
57.887001
30
257.217987
70
192
0
VERTEX
8
OBJECT__0
10
-4.165000
20
57.639000
30
257.385010
70
192
0
VERTEX
8
OBJECT__0
10
-2.861000
20
57.884998
30
257.303986
70
192
0
VERTEX
8
OBJECT__0
10
-4.051000
20
57.678001
30
257.480011
70
192
0
VERTEX
8
OBJECT__0
10
-2.860000
20
57.889999
30
257.334991
70
192
0
VERTEX
8
OBJECT__0
10
-4.251000
20
57.629002
30
257.466003
70
192
0
VERTEX
8
OBJECT__0
10
-4.528000
20
57.570000
30
257.535004
70
192
0
VERTEX
8
OBJECT__0
10
-5.126000
20
57.478001
30
258.131989
70
192
0
VERTEX
8
OBJECT__0
10
-5.124000
20
57.495998
30
258.321991
70
192
0
VERTEX
8
OBJECT__0
10
-5.116000
20
57.522999
30
258.610992
70
192
0
VERTEX
8
OBJECT__0
10
-5.085000
20
57.530998
30
258.605011
70
192
0
VERTEX
8
OBJECT__0
10
-4.250000
20
57.634998
30
257.502991
70
192
0
VERTEX
8
OBJECT__0
10
-1.430000
20
58.021000
30
257.045013
70
192
0
VERTEX
8
OBJECT__0
10
-1.322000
20
58.043999
30
257.135986
70
192
0
VERTEX
8
OBJECT__0
10
-1.522000
20
58.027000
30
257.130005
70
192
0
VERTEX
8
OBJECT__0
10
-1.521000
20
58.032001
30
257.161987
70
192
0
VERTEX
8
OBJECT__0
10
2.091000
20
57.917000
30
256.641998
70
192
0
VERTEX
8
OBJECT__0
10
0.948000
20
58.027000
30
256.782990
70
192
0
VERTEX
8
OBJECT__0
10
0.836000
20
58.021000
30
256.726990
70
192
0
VERTEX
8
OBJECT__0
10
-0.283000
20
58.043999
30
256.989990
70
192
0
VERTEX
8
OBJECT__0
10
0.757000
20
58.043999
30
256.842987
70
192
0
VERTEX
8
OBJECT__0
10
4.739000
20
57.495998
30
256.936005
70
192
0
VERTEX
8
OBJECT__0
10
4.779000
20
57.530998
30
257.217987
70
192
0
VERTEX
8
OBJECT__0
10
4.811000
20
57.522999
30
257.216003
70
192
0
VERTEX
8
OBJECT__0
10
4.136000
20
57.528999
30
256.338989
70
192
0
VERTEX
8
OBJECT__0
10
3.664000
20
57.629002
30
256.354004
70
192
0
VERTEX
8
OBJECT__0
10
3.672000
20
57.634998
30
256.390015
70
192
0
VERTEX
8
OBJECT__0
10
3.949000
20
57.570000
30
256.343994
70
192
0
VERTEX
8
OBJECT__0
10
3.558000
20
57.639000
30
256.299011
70
192
0
VERTEX
8
OBJECT__0
10
2.283000
20
57.884998
30
256.580994
70
192
0
VERTEX
8
OBJECT__0
10
2.290000
20
57.889999
30
256.610992
70
192
0
VERTEX
8
OBJECT__0
10
3.475000
20
57.678001
30
256.421997
70
192
0
VERTEX
8
OBJECT__0
10
2.173000
20
57.887001
30
256.523010
70
192
0
VERTEX
8
OBJECT__0
10
2.092000
20
57.917000
30
256.641998
70
192
0
VERTEX
8
OBJECT__0
10
5.092000
20
57.612999
30
258.709991
70
192
0
VERTEX
8
OBJECT__0
10
5.196000
20
57.629002
30
259.966003
70
192
0
VERTEX
8
OBJECT__0
10
5.004000
20
57.644001
30
258.824005
70
192
0
VERTEX
8
OBJECT__0
10
5.165000
20
57.637001
30
259.967987
70
192
0
VERTEX
8
OBJECT__0
10
4.897000
20
57.513000
30
257.302002
70
192
0
VERTEX
8
OBJECT__0
10
5.006000
20
57.630001
30
258.621002
70
192
0
VERTEX
8
OBJECT__0
10
4.807000
20
57.553001
30
257.420013
70
192
0
VERTEX
8
OBJECT__0
10
4.976000
20
57.638000
30
258.623993
70
192
0
VERTEX
8
OBJECT__0
10
4.815000
20
57.521999
30
257.216003
70
192
0
VERTEX
8
OBJECT__0
10
5.269000
20
57.608002
30
260.044006
70
192
0
VERTEX
8
OBJECT__0
10
5.280000
20
57.605000
30
260.056000
70
192
0
VERTEX
8
OBJECT__0
10
5.597000
20
57.362999
30
262.308990
70
192
0
VERTEX
8
OBJECT__0
10
5.483000
20
57.407001
30
262.234009
70
192
0
VERTEX
8
OBJECT__0
10
5.193000
20
57.629002
30
260.165985
70
192
0
VERTEX
8
OBJECT__0
10
5.976000
20
56.688999
30
264.981995
70
192
0
VERTEX
8
OBJECT__0
10
5.921000
20
56.676998
30
265.087006
70
192
0
VERTEX
8
OBJECT__0
10
5.725000
20
57.081001
30
263.737000
70
192
0
VERTEX
8
OBJECT__0
10
5.696000
20
57.088001
30
263.743988
70
192
0
VERTEX
8
OBJECT__0
10
5.859000
20
56.750000
30
264.903992
70
192
0
VERTEX
8
OBJECT__0
10
5.783000
20
57.084999
30
263.627014
70
192
0
VERTEX
8
OBJECT__0
10
5.541000
20
57.365002
30
262.421997
70
192
0
VERTEX
8
OBJECT__0
10
5.511000
20
57.373001
30
262.429993
70
192
0
VERTEX
8
OBJECT__0
10
5.668000
20
57.137001
30
263.549988
70
192
0
VERTEX
8
OBJECT__0
10
5.589000
20
57.363998
30
262.324005
70
192
0
VERTEX
8
OBJECT__0
10
3.469000
20
56.863998
30
266.450012
70
192
0
VERTEX
8
OBJECT__0
10
3.580000
20
56.812000
30
266.532990
70
192
0
VERTEX
8
OBJECT__0
10
4.966000
20
56.563999
30
266.313995
70
192
0
VERTEX
8
OBJECT__0
10
3.670000
20
56.826000
30
266.447998
70
192
0
VERTEX
8
OBJECT__0
10
4.853000
20
56.625000
30
266.230011
70
192
0
VERTEX
8
OBJECT__0
10
3.668000
20
56.837002
30
266.419006
70
192
0
VERTEX
8
OBJECT__0
10
5.052000
20
56.569000
30
266.233002
70
192
0
VERTEX
8
OBJECT__0
10
5.327000
20
56.516998
30
266.152008
70
192
0
VERTEX
8
OBJECT__0
10
5.924000
20
56.533001
30
265.546997
70
192
0
VERTEX
8
OBJECT__0
10
5.923000
20
56.591000
30
265.364990
70
192
0
VERTEX
8
OBJECT__0
10
5.917000
20
56.678001
30
265.088013
70
192
0
VERTEX
8
OBJECT__0
10
5.886000
20
56.686001
30
265.096008
70
192
0
VERTEX
8
OBJECT__0
10
5.051000
20
56.582001
30
266.197998
70
192
0
VERTEX
8
OBJECT__0
10
2.242000
20
56.946999
30
266.734985
70
192
0
VERTEX
8
OBJECT__0
10
1.604000
20
56.978001
30
266.821014
70
192
0
VERTEX
8
OBJECT__0
10
1.261000
20
56.787998
30
267.354004
70
192
0
VERTEX
8
OBJECT__0
10
2.136000
20
56.991001
30
266.651001
70
192
0
VERTEX
8
OBJECT__0
10
1.591000
20
57.014000
30
266.730011
70
192
0
VERTEX
8
OBJECT__0
10
2.335000
20
56.966999
30
266.652008
70
192
0
VERTEX
8
OBJECT__0
10
2.333000
20
56.979000
30
266.622009
70
192
0
VERTEX
8
OBJECT__0
10
17.806999
20
45.641998
30
257.019012
70
192
0
VERTEX
8
OBJECT__0
10
16.377001
20
46.569000
30
254.656006
70
192
0
VERTEX
8
OBJECT__0
10
18.224001
20
45.098000
30
259.322998
70
192
0
VERTEX
8
OBJECT__0
10
13.624000
20
48.354000
30
250.108002
70
192
0
VERTEX
8
OBJECT__0
10
11.716000
20
48.867001
30
248.957993
70
192
0
VERTEX
8
OBJECT__0
10
6.511000
20
50.266998
30
245.820007
70
192
0
VERTEX
8
OBJECT__0
10
-1.953000
20
50.955002
30
245.106995
70
192
0
VERTEX
8
OBJECT__0
10
-8.715000
20
50.368999
30
247.677994
70
192
0
VERTEX
8
OBJECT__0
10
-9.892000
20
50.266998
30
248.126007
70
192
0
VERTEX
8
OBJECT__0
10
-14.030000
20
48.867001
30
252.576004
70
192
0
VERTEX
8
OBJECT__0
10
-15.547000
20
48.354000
30
254.207001
70
192
0
VERTEX
8
OBJECT__0
10
-16.940001
20
46.569000
30
259.338989
70
192
0
VERTEX
8
OBJECT__0
10
-17.663000
20
45.641998
30
262.003998
70
192
0
VERTEX
8
OBJECT__0
10
-17.429001
20
45.098000
30
264.334015
70
192
0
VERTEX
8
OBJECT__0
10
5.256000
20
50.368999
30
245.714005
70
192
0
VERTEX
8
OBJECT__0
10
3.471000
20
56.863998
30
266.450012
70
192
0
VERTEX
8
OBJECT__0
10
0.955000
20
58.032001
30
256.813995
70
192
0
VERTEX
8
OBJECT__0
10
-2.661000
20
57.917000
30
257.309998
70
192
0
VERTEX
8
OBJECT__0
10
-0.142000
20
56.979000
30
266.970001
70
192
0
VERTEX
8
OBJECT__0
10
0
20
0
30
0
70
128
71
1
72
2
73
3
0
VERTEX
8
OBJECT__0
10
0
20
0
30
0
70
128
71
2
72
4
73
5
0
VERTEX
8
OBJECT__0
10
0
20
0
30
0
70
128
71
4
72
6
73
7
0
VERTEX
8
OBJECT__0
10
0
20
0
30
0
70
128
71
6
72
8
73
9
0
VERTEX
8
OBJECT__0
10
0
20
0
30
0
70
128
71
8
72
10
73
11
0
VERTEX
8
OBJECT__0
10
0
20
0
30
0
70
128
71
10
72
12
73
13
0
VERTEX
8
OBJECT__0
10
0
20
0
30
0
70
128
71
12
72
14
73
15
0
VERTEX
8
OBJECT__0
10
0
20
0
30
0
70
128
71
14
72
16
73
17
0
VERTEX
8
OBJECT__0
10
0
20
0
30
0
70
128
71
16
72
18
73
19
0
VERTEX
8
OBJECT__0
10
0
20
0
30
0
70
128
71
18
72
20
73
21
0
VERTEX
8
OBJECT__0
10
0
20
0
30
0
70
128
71
20
72
22
73
23
0
VERTEX
8
OBJECT__0
10
0
20
0
30
0
70
128
71
22
72
24
73
25
0
VERTEX
8
OBJECT__0
10
0
20
0
30
0
70
128
71
24
72
26
73
27
0
VERTEX
8
OBJECT__0
10
0
20
0
30
0
70
128
71
26
72
1
73
28
0
VERTEX
8
OBJECT__0
10
0
20
0
30
0
70
128
71
29
72
30
73
28
0
VERTEX
8
OBJECT__0
10
0
20
0
30
0
70
128
71
31
72
29
73
3
0
VERTEX
8
OBJECT__0
10
0
20
0
30
0
70
128
71
32
72
31
73
5
0
VERTEX
8
OBJECT__0
10
0
20
0
30
0
70
128
71
33
72
23
73
25
0
VERTEX
8
OBJECT__0
10
0
20
0
30
0
70
128
71
34
72
35
73
25
0
VERTEX
8
OBJECT__0
10
0
20
0
30
0
70
128
71
30
72
34
73
27
0
VERTEX
8
OBJECT__0
10
0
20
0
30
0
70
128
71
36
72
2
73
37
0
VERTEX
8
OBJECT__0
10
0
20
0
30
0
70
128
71
2
72
1
73
38
0
VERTEX
8
OBJECT__0
10
0
20
0
30
0
70
128
71
38
72
37
73
2
0
VERTEX
8
OBJECT__0
10
0
20
0
30
0
70
128
71
39
72
40
73
41
0
VERTEX
8
OBJECT__0
10
0
20
0
30
0
70
128
71
38
72
42
73
39
0
VERTEX
8
OBJECT__0
10
0
20
0
30
0
70
128
71
1
72
43
73
42
0
VERTEX
8
OBJECT__0
10
0
20
0
30
0
70
128
71
42
72
38
73
1
0
VERTEX
8
OBJECT__0
10
0
20
0
30
0
70
128
71
41
72
38
73
39
0
VERTEX
8
OBJECT__0
10
0
20
0
30
0
70
128
71
44
72
45
73
46
0
VERTEX
8
OBJECT__0
10
0
20
0
30
0
70
128
71
4
72
47
73
44
0
VERTEX
8
OBJECT__0
10
0
20
0
30
0
70
128
71
48
72
49
73
50
0
VERTEX
8
OBJECT__0
10
0
20
0
30
0
70
128
71
50
72
4
73
48
0
VERTEX
8
OBJECT__0
10
0
20
0
30
0
70
128
71
50
72
47
73
4
0
VERTEX
8
OBJECT__0
10
0
20
0
30
0
70
128
71
2
72
51
73
48
0
VERTEX
8
OBJECT__0
10
0
20
0
30
0
70
128
71
48
72
4
73
2
0
VERTEX
8
OBJECT__0
10
0
20
0
30
0
70
128
71
52
72
53
73
54
0
VERTEX
8
OBJECT__0
10
0
20
0
30
0
70
128
71
2
72
55
73
52
0
VERTEX
8
OBJECT__0
10
0
20
0
30
0
70
128
71
52
72
51
73
2
0
VERTEX
8
OBJECT__0
10
0
20
0
30
0
70
128
71
54
72
51
73
52
0
VERTEX
8
OBJECT__0
10
0
20
0
30
0
70
128
71
36
72
56
73
55
0
VERTEX
8
OBJECT__0
10
0
20
0
30
0
70
128
71
55
72
2
73
36
0
VERTEX
8
OBJECT__0
10
0
20
0
30
0
70
128
71
6
72
57
73
58
0
VERTEX
8
OBJECT__0
10
0
20
0
30
0
70
128
71
58
72
57
73
59
0
VERTEX
8
OBJECT__0
10
0
20
0
30
0
70
128
71
59
72
60
73
58
0
VERTEX
8
OBJECT__0
10
0
20
0
30
0
70
128
71
6
72
61
73
62
0
VERTEX
8
OBJECT__0
10
0
20
0
30
0
70
128
71
62
72
61
73
63
0
VERTEX
8
OBJECT__0
10
0
20
0
30
0
70
128
71
63
72
64
73
62
0
VERTEX
8
OBJECT__0
10
0
20
0
30
0
70
128
71
4
72
46
73
65
0
VERTEX
8
OBJECT__0
10
0
20
0
30
0
70
128
71
65
72
6
73
4
0
VERTEX
8
OBJECT__0
10
0
20
0
30
0
70
128
71
65
72
61
73
6
0
VERTEX
8
OBJECT__0
10
0
20
0
30
0
70
128
71
62
72
57
73
6
0
VERTEX
8
OBJECT__0
10
0
20
0
30
0
70
128
71
6
72
66
73
67
0
VERTEX
8
OBJECT__0
10
0
20
0
30
0
70
128
71
67
72
8
73
6
0
VERTEX
8
OBJECT__0
10
0
20
0
30
0
70
128
71
67
72
68
73
8
0
VERTEX
8
OBJECT__0
10
0
20
0
30
0
70
128
71
67
72
69
73
68
0
VERTEX
8
OBJECT__0
10
0
20
0
30
0
70
128
71
68
72
70
73
8
0
VERTEX
8
OBJECT__0
10
0
20
0
30
0
70
128
71
67
72
71
73
69
0
VERTEX
8
OBJECT__0
10
0
20
0
30
0
70
128
71
10
72
8
73
72
0
VERTEX
8
OBJECT__0
10
0
20
0
30
0
70
128
71
72
72
73
73
10
0
VERTEX
8
OBJECT__0
10
0
20
0
30
0
70
128
71
74
72
75
73
76
0
VERTEX
8
OBJECT__0
10
0
20
0
30
0
70
128
71
8
72
77
73
74
0
VERTEX
8
OBJECT__0
10
0
20
0
30
0
70
128
71
74
72
72
73
8
0
VERTEX
8
OBJECT__0
10
0
20
0
30
0
70
128
71
76
72
72
73
74
0
VERTEX
8
OBJECT__0
10
0
20
0
30
0
70
128
71
78
72
79
73
80
0
VERTEX
8
OBJECT__0
10
0
20
0
30
0
70
128
71
8
72
70
73
78
0
VERTEX
8
OBJECT__0
10
0
20
0
30
0
70
128
71
78
72
77
73
8
0
VERTEX
8
OBJECT__0
10
0
20
0
30
0
70
128
71
80
72
77
73
78
0
VERTEX
8
OBJECT__0
10
0
20
0
30
0
70
128
71
81
72
12
73
82
0
VERTEX
8
OBJECT__0
10
0
20
0
30
0
70
128
71
12
72
83
73
84
0
VERTEX
8
OBJECT__0
10
0
20
0
30
0
70
128
71
84
72
83
73
85
0
VERTEX
8
OBJECT__0
10
0
20
0
30
0
70
128
71
85
72
86
73
84
0
VERTEX
8
OBJECT__0
10
0
20
0
30
0
70
128
71
12
72
10
73
87
0
VERTEX
8
OBJECT__0
10
0
20
0
30
0
70
128
71
87
72
10
73
88
0
VERTEX
8
OBJECT__0
10
0
20
0
30
0
70
128
71
10
72
89
73
88
0
VERTEX
8
OBJECT__0
10
0
20
0
30
0
70
128
71
90
72
10
73
91
0
VERTEX
8
OBJECT__0
10
0
20
0
30
0
70
128
71
91
72
92
73
90
0
VERTEX
8
OBJECT__0
10
0
20
0
30
0
70
128
71
90
72
89
73
10
0
VERTEX
8
OBJECT__0
10
0
20
0
30
0
70
128
71
88
72
93
73
87
0
VERTEX
8
OBJECT__0
10
0
20
0
30
0
70
128
71
87
72
83
73
12
0
VERTEX
8
OBJECT__0
10
0
20
0
30
0
70
128
71
84
72
82
73
12
0
VERTEX
8
OBJECT__0
10
0
20
0
30
0
70
128
71
14
72
94
73
95
0
VERTEX
8
OBJECT__0
10
0
20
0
30
0
70
128
71
12
72
96
73
94
0
VERTEX
8
OBJECT__0
10
0
20
0
30
0
70
128
71
81
72
97
73
96
0
VERTEX
8
OBJECT__0
10
0
20
0
30
0
70
128
71
96
72
12
73
81
0
VERTEX
8
OBJECT__0
10
0
20
0
30
0
70
128
71
94
72
14
73
12
0
VERTEX
8
OBJECT__0
10
0
20
0
30
0
70
128
71
98
72
16
73
99
0
VERTEX
8
OBJECT__0
10
0
20
0
30
0
70
128
71
16
72
14
73
100
0
VERTEX
8
OBJECT__0
10
0
20
0
30
0
70
128
71
100
72
99
73
16
0
VERTEX
8
OBJECT__0
10
0
20
0
30
0
70
128
71
14
72
101
73
102
0
VERTEX
8
OBJECT__0
10
0
20
0
30
0
70
128
71
102
72
100
73
14
0
VERTEX
8
OBJECT__0
10
0
20
0
30
0
70
128
71
103
72
104
73
105
0
VERTEX
8
OBJECT__0
10
0
20
0
30
0
70
128
71
18
72
106
73
103
0
VERTEX
8
OBJECT__0
10
0
20
0
30
0
70
128
71
107
72
108
73
109
0
VERTEX
8
OBJECT__0
10
0
20
0
30
0
70
128
71
109
72
18
73
107
0
VERTEX
8
OBJECT__0
10
0
20
0
30
0
70
128
71
109
72
106
73
18
0
VERTEX
8
OBJECT__0
10
0
20
0
30
0
70
128
71
16
72
110
73
107
0
VERTEX
8
OBJECT__0
10
0
20
0
30
0
70
128
71
107
72
18
73
16
0
VERTEX
8
OBJECT__0
10
0
20
0
30
0
70
128
71
111
72
112
73
113
0
VERTEX
8
OBJECT__0
10
0
20
0
30
0
70
128
71
16
72
114
73
111
0
VERTEX
8
OBJECT__0
10
0
20
0
30
0
70
128
71
111
72
110
73
16
0
VERTEX
8
OBJECT__0
10
0
20
0
30
0
70
128
71
113
72
110
73
111
0
VERTEX
8
OBJECT__0
10
0
20
0
30
0
70
128
71
98
72
115
73
114
0
VERTEX
8
OBJECT__0
10
0
20
0
30
0
70
128
71
114
72
16
73
98
0
VERTEX
8
OBJECT__0
10
0
20
0
30
0
70
128
71
20
72
116
73
117
0
VERTEX
8
OBJECT__0
10
0
20
0
30
0
70
128
71
117
72
116
73
118
0
VERTEX
8
OBJECT__0
10
0
20
0
30
0
70
128
71
118
72
119
73
117
0
VERTEX
8
OBJECT__0
10
0
20
0
30
0
70
128
71
20
72
120
73
121
0
VERTEX
8
OBJECT__0
10
0
20
0
30
0
70
128
71
121
72
120
73
122
0
VERTEX
8
OBJECT__0
10
0
20
0
30
0
70
128
71
122
72
123
73
121
0
VERTEX
8
OBJECT__0
10
0
20
0
30
0
70
128
71
18
72
105
73
124
0
VERTEX
8
OBJECT__0
10
0
20
0
30
0
70
128
71
124
72
20
73
18
0
VERTEX
8
OBJECT__0
10
0
20
0
30
0
70
128
71
124
72
120
73
20
0
VERTEX
8
OBJECT__0
10
0
20
0
30
0
70
128
71
121
72
116
73
20
0
VERTEX
8
OBJECT__0
10
0
20
0
30
0
70
128
71
20
72
125
73
126
0
VERTEX
8
OBJECT__0
10
0
20
0
30
0
70
128
71
126
72
22
73
20
0
VERTEX
8
OBJECT__0
10
0
20
0
30
0
70
128
71
126
72
127
73
22
0
VERTEX
8
OBJECT__0
10
0
20
0
30
0
70
128
71
126
72
128
73
127
0
VERTEX
8
OBJECT__0
10
0
20
0
30
0
70
128
71
126
72
129
73
128
0
VERTEX
8
OBJECT__0
10
0
20
0
30
0
70
128
71
24
72
22
73
130
0
VERTEX
8
OBJECT__0
10
0
20
0
30
0
70
128
71
130
72
131
73
24
0
VERTEX
8
OBJECT__0
10
0
20
0
30
0
70
128
71
132
72
133
73
134
0
VERTEX
8
OBJECT__0
10
0
20
0
30
0
70
128
71
22
72
135
73
132
0
VERTEX
8
OBJECT__0
10
0
20
0
30
0
70
128
71
132
72
130
73
22
0
VERTEX
8
OBJECT__0
10
0
20
0
30
0
70
128
71
134
72
130
73
132
0
VERTEX
8
OBJECT__0
10
0
20
0
30
0
70
128
71
136
72
137
73
138
0
VERTEX
8
OBJECT__0
10
0
20
0
30
0
70
128
71
22
72
139
73
136
0
VERTEX
8
OBJECT__0
10
0
20
0
30
0
70
128
71
136
72
135
73
22
0
VERTEX
8
OBJECT__0
10
0
20
0
30
0
70
128
71
138
72
135
73
136
0
VERTEX
8
OBJECT__0
10
0
20
0
30
0
70
128
71
140
72
26
73
141
0
VERTEX
8
OBJECT__0
10
0
20
0
30
0
70
128
71
26
72
142
73
143
0
VERTEX
8
OBJECT__0
10
0
20
0
30
0
70
128
71
143
72
142
73
144
0
VERTEX
8
OBJECT__0
10
0
20
0
30
0
70
128
71
144
72
145
73
143
0
VERTEX
8
OBJECT__0
10
0
20
0
30
0
70
128
71
26
72
24
73
146
0
VERTEX
8
OBJECT__0
10
0
20
0
30
0
70
128
71
146
72
24
73
147
0
VERTEX
8
OBJECT__0
10
0
20
0
30
0
70
128
71
24
72
148
73
147
0
VERTEX
8
OBJECT__0
10
0
20
0
30
0
70
128
71
149
72
24
73
150
0
VERTEX
8
OBJECT__0
10
0
20
0
30
0
70
128
71
150
72
151
73
149
0
VERTEX
8
OBJECT__0
10
0
20
0
30
0
70
128
71
149
72
148
73
24
0
VERTEX
8
OBJECT__0
10
0
20
0
30
0
70
128
71
147
72
152
73
146
0
VERTEX
8
OBJECT__0
10
0
20
0
30
0
70
128
71
146
72
142
73
26
0
VERTEX
8
OBJECT__0
10
0
20
0
30
0
70
128
71
143
72
141
73
26
0
VERTEX
8
OBJECT__0
10
0
20
0
30
0
70
128
71
153
72
154
73
155
0
VERTEX
8
OBJECT__0
10
0
20
0
30
0
70
128
71
154
72
153
73
156
0
VERTEX
8
OBJECT__0
10
0
20
0
30
0
70
128
71
156
72
157
73
154
0
VERTEX
8
OBJECT__0
10
0
20
0
30
0
70
128
71
26
72
158
73
153
0
VERTEX
8
OBJECT__0
10
0
20
0
30
0
70
128
71
140
72
159
73
158
0
VERTEX
8
OBJECT__0
10
0
20
0
30
0
70
128
71
158
72
26
73
140
0
VERTEX
8
OBJECT__0
10
0
20
0
30
0
70
128
71
153
72
1
73
26
0
VERTEX
8
OBJECT__0
10
0
20
0
30
0
70
128
71
155
72
1
73
153
0
VERTEX
8
OBJECT__0
10
0
20
0
30
0
70
128
71
23
72
160
73
161
0
VERTEX
8
OBJECT__0
10
0
20
0
30
0
70
128
71
23
72
162
73
160
0
VERTEX
8
OBJECT__0
10
0
20
0
30
0
70
128
71
23
72
33
73
162
0
VERTEX
8
OBJECT__0
10
0
20
0
30
0
70
128
71
19
72
21
73
163
0
VERTEX
8
OBJECT__0
10
0
20
0
30
0
70
128
71
21
72
161
73
163
0
VERTEX
8
OBJECT__0
10
0
20
0
30
0
70
128
71
19
72
164
73
165
0
VERTEX
8
OBJECT__0
10
0
20
0
30
0
70
128
71
165
72
17
73
19
0
VERTEX
8
OBJECT__0
10
0
20
0
30
0
70
128
71
166
72
15
73
17
0
VERTEX
8
OBJECT__0
10
0
20
0
30
0
70
128
71
166
72
167
73
13
0
VERTEX
8
OBJECT__0
10
0
20
0
30
0
70
128
71
11
72
13
73
168
0
VERTEX
8
OBJECT__0
10
0
20
0
30
0
70
128
71
13
72
167
73
168
0
VERTEX
8
OBJECT__0
10
0
20
0
30
0
70
128
71
11
72
169
73
170
0
VERTEX
8
OBJECT__0
10
0
20
0
30
0
70
128
71
170
72
9
73
11
0
VERTEX
8
OBJECT__0
10
0
20
0
30
0
70
128
71
7
72
9
73
171
0
VERTEX
8
OBJECT__0
10
0
20
0
30
0
70
128
71
171
72
172
73
7
0
VERTEX
8
OBJECT__0
10
0
20
0
30
0
70
128
71
172
72
173
73
7
0
VERTEX
8
OBJECT__0
10
0
20
0
30
0
70
128
71
173
72
32
73
7
0
VERTEX
8
OBJECT__0
10
0
20
0
30
0
70
128
71
170
72
171
73
9
0
VERTEX
8
OBJECT__0
10
0
20
0
30
0
70
128
71
168
72
169
73
11
0
VERTEX
8
OBJECT__0
10
0
20
0
30
0
70
128
71
13
72
15
73
166
0
VERTEX
8
OBJECT__0
10
0
20
0
30
0
70
128
71
17
72
174
73
166
0
VERTEX
8
OBJECT__0
10
0
20
0
30
0
70
128
71
165
72
174
73
17
0
VERTEX
8
OBJECT__0
10
0
20
0
30
0
70
128
71
163
72
164
73
19
0
VERTEX
8
OBJECT__0
10
0
20
0
30
0
70
128
71
161
72
21
73
23
0
VERTEX
8
OBJECT__0
10
0
20
0
30
0
70
128
71
155
72
43
73
1
0
VERTEX
8
OBJECT__0
10
0
20
0
30
0
70
128
71
141
72
175
73
140
0
VERTEX
8
OBJECT__0
10
0
20
0
30
0
70
128
71
131
72
150
73
24
0
VERTEX
8
OBJECT__0
10
0
20
0
30
0
70
128
71
127
72
139
73
22
0
VERTEX
8
OBJECT__0
10
0
20
0
30
0
70
128
71
117
72
125
73
20
0
VERTEX
8
OBJECT__0
10
0
20
0
30
0
70
128
71
105
72
18
73
103
0
VERTEX
8
OBJECT__0
10
0
20
0
30
0
70
128
71
99
72
176
73
98
0
VERTEX
8
OBJECT__0
10
0
20
0
30
0
70
128
71
95
72
101
73
14
0
VERTEX
8
OBJECT__0
10
0
20
0
30
0
70
128
71
82
72
177
73
81
0
VERTEX
8
OBJECT__0
10
0
20
0
30
0
70
128
71
73
72
91
73
10
0
VERTEX
8
OBJECT__0
10
0
20
0
30
0
70
128
71
58
72
66
73
6
0
VERTEX
8
OBJECT__0
10
0
20
0
30
0
70
128
71
46
72
4
73
44
0
VERTEX
8
OBJECT__0
10
0
20
0
30
0
70
128
71
37
72
178
73
36
0
VERTEX
8
OBJECT__0
10
0
20
0
30
0
70
128
71
27
72
28
73
30
0
VERTEX
8
OBJECT__0
10
0
20
0
30
0
70
128
71
25
72
27
73
34
0
VERTEX
8
OBJECT__0
10
0
20
0
30
0
70
128
71
25
72
35
73
33
0
VERTEX
8
OBJECT__0
10
0
20
0
30
0
70
128
71
5
72
7
73
32
0
VERTEX
8
OBJECT__0
10
0
20
0
30
0
70
128
71
3
72
5
73
31
0
VERTEX
8
OBJECT__0
10
0
20
0
30
0
70
128
71
28
72
3
73
29
0
VERTEX
8
OBJECT__0
10
0
20
0
30
0
70
128
71
28
72
27
73
26
0
VERTEX
8
OBJECT__0
10
0
20
0
30
0
70
128
71
27
72
25
73
24
0
VERTEX
8
OBJECT__0
10
0
20
0
30
0
70
128
71
25
72
23
73
22
0
VERTEX
8
OBJECT__0
10
0
20
0
30
0
70
128
71
23
72
21
73
20
0
VERTEX
8
OBJECT__0
10
0
20
0
30
0
70
128
71
21
72
19
73
18
0
VERTEX
8
OBJECT__0
10
0
20
0
30
0
70
128
71
19
72
17
73
16
0
VERTEX
8
OBJECT__0
10
0
20
0
30
0
70
128
71
17
72
15
73
14
0
VERTEX
8
OBJECT__0
10
0
20
0
30
0
70
128
71
15
72
13
73
12
0
VERTEX
8
OBJECT__0
10
0
20
0
30
0
70
128
71
13
72
11
73
10
0
VERTEX
8
OBJECT__0
10
0
20
0
30
0
70
128
71
11
72
9
73
8
0
VERTEX
8
OBJECT__0
10
0
20
0
30
0
70
128
71
9
72
7
73
6
0
VERTEX
8
OBJECT__0
10
0
20
0
30
0
70
128
71
7
72
5
73
4
0
VERTEX
8
OBJECT__0
10
0
20
0
30
0
70
128
71
5
72
3
73
2
0
VERTEX
8
OBJECT__0
10
0
20
0
30
0
70
128
71
3
72
28
73
1
0
SEQEND
8
OBJECT__0
0
POLYLINE
8
OBJECT__2
66
1
70
64
71
10
72
8
62
253
0
VERTEX
8
OBJECT__2
10
17.945000
20
-10.613000
30
291.500000
70
192
0
VERTEX
8
OBJECT__2
10
7.061000
20
-19.615999
30
291.500000
70
192
0
VERTEX
8
OBJECT__2
10
-7.064000
20
-19.615999
30
291.500000
70
192
0
VERTEX
8
OBJECT__2
10
18.076000
20
10.389000
30
291.500000
70
192
0
VERTEX
8
OBJECT__2
10
-18.079000
20
10.389000
30
291.500000
70
192
0
VERTEX
8
OBJECT__2
10
-7.145000
20
19.586000
30
291.500000
70
192
0
VERTEX
8
OBJECT__2
10
-17.948000
20
-10.613000
30
291.500000
70
192
0
VERTEX
8
OBJECT__2
10
-20.853001
20
0.000000
30
291.500000
70
192
0
VERTEX
8
OBJECT__2
10
20.850000
20
0.000000
30
291.500000
70
192
0
VERTEX
8
OBJECT__2
10
7.142000
20
19.586000
30
291.500000
70
192
0
VERTEX
8
OBJECT__2
10
0
20
0
30
0
70
128
71
1
72
2
73
3
0
VERTEX
8
OBJECT__2
10
0
20
0
30
0
70
128
71
4
72
5
73
6
0
VERTEX
8
OBJECT__2
10
0
20
0
30
0
70
128
71
3
72
7
73
1
0
VERTEX
8
OBJECT__2
10
0
20
0
30
0
70
128
71
4
72
8
73
5
0
VERTEX
8
OBJECT__2
10
0
20
0
30
0
70
128
71
8
72
9
73
1
0
VERTEX
8
OBJECT__2
10
0
20
0
30
0
70
128
71
6
72
10
73
4
0
VERTEX
8
OBJECT__2
10
0
20
0
30
0
70
128
71
4
72
9
73
8
0
VERTEX
8
OBJECT__2
10
0
20
0
30
0
70
128
71
7
72
8
73
1
0
SEQEND
8
OBJECT__2
0
POLYLINE
8
OBJECT__3
66
1
70
64
71
41
72
39
62
253
0
VERTEX
8
OBJECT__3
10
17.945000
20
-10.613000
30
291.500000
70
192
0
VERTEX
8
OBJECT__3
10
20.273001
20
-4.870000
30
305.080994
70
192
0
VERTEX
8
OBJECT__3
10
19.681000
20
-6.400000
30
305.665009
70
192
0
VERTEX
8
OBJECT__3
10
20.850000
20
0.000000
30
291.500000
70
192
0
VERTEX
8
OBJECT__3
10
20.850000
20
0.000000
30
304.536011
70
192
0
VERTEX
8
OBJECT__3
10
18.275000
20
-10.035000
30
307.053009
70
192
0
VERTEX
8
OBJECT__3
10
7.061000
20
-19.615999
30
291.500000
70
192
0
VERTEX
8
OBJECT__3
10
11.990000
20
-17.056000
30
314.528015
70
192
0
VERTEX
8
OBJECT__3
10
10.139000
20
-18.110001
30
317.553009
70
192
0
VERTEX
8
OBJECT__3
10
17.892000
20
-10.576000
30
307.467987
70
192
0
VERTEX
8
OBJECT__3
10
17.049999
20
-11.764000
30
308.380005
70
192
0
VERTEX
8
OBJECT__3
10
15.528000
20
-13.911000
30
310.028992
70
192
0
VERTEX
8
OBJECT__3
10
8.565000
20
-19.007000
30
320.127014
70
192
0
VERTEX
8
OBJECT__3
10
-7.064000
20
-19.615999
30
396.183990
70
192
0
VERTEX
8
OBJECT__3
10
-7.064000
20
-19.615999
30
291.500000
70
192
0
VERTEX
8
OBJECT__3
10
1.858000
20
-20.764999
30
354.226013
70
192
0
VERTEX
8
OBJECT__3
10
1.751000
20
-20.774000
30
369.429993
70
192
0
VERTEX
8
OBJECT__3
10
3.132000
20
-20.611000
30
337.954987
70
192
0
VERTEX
8
OBJECT__3
10
2.759000
20
-20.656000
30
342.713989
70
192
0
VERTEX
8
OBJECT__3
10
5.462000
20
-20.120001
30
327.578003
70
192
0
VERTEX
8
OBJECT__3
10
5.009000
20
-20.215000
30
329.595001
70
192
0
VERTEX
8
OBJECT__3
10
7.039000
20
-19.554001
30
323.790985
70
192
0
VERTEX
8
OBJECT__3
10
-17.837999
20
-10.797000
30
307.989014
70
192
0
VERTEX
8
OBJECT__3
10
-17.926001
20
-10.602000
30
307.863007
70
192
0
VERTEX
8
OBJECT__3
10
-14.952000
20
-14.532000
30
312.802002
70
192
0
VERTEX
8
OBJECT__3
10
-17.547001
20
-11.173000
30
308.473999
70
192
0
VERTEX
8
OBJECT__3
10
-11.833000
20
-17.167000
30
319.714996
70
192
0
VERTEX
8
OBJECT__3
10
-12.262000
20
-16.804001
30
318.764008
70
192
0
VERTEX
8
OBJECT__3
10
-7.825000
20
-19.325001
30
341.575012
70
192
0
VERTEX
8
OBJECT__3
10
-9.033000
20
-18.783001
30
331.153015
70
192
0
VERTEX
8
OBJECT__3
10
-7.278000
20
-19.537001
30
356.997009
70
192
0
VERTEX
8
OBJECT__3
10
-7.736000
20
-19.358999
30
344.084015
70
192
0
VERTEX
8
OBJECT__3
10
-7.149000
20
-19.584999
30
396.183990
70
192
0
VERTEX
8
OBJECT__3
10
-9.232000
20
-18.694000
30
329.440002
70
192
0
VERTEX
8
OBJECT__3
10
-17.948000
20
-10.613000
30
291.500000
70
192
0
VERTEX
8
OBJECT__3
10
-19.913000
20
-6.188000
30
305.016998
70
192
0
VERTEX
8
OBJECT__3
10
-20.798000
20
-1.514000
30
303.830994
70
192
0
VERTEX
8
OBJECT__3
10
-20.853001
20
0.000000
30
291.500000
70
192
0
VERTEX
8
OBJECT__3
10
-19.879999
20
-6.262000
30
305.065002
70
192
0
VERTEX
8
OBJECT__3
10
-20.851999
20
0.000000
30
303.759003
70
192
0
VERTEX
8
OBJECT__3
10
1.562000
20
-20.790001
30
396.183990
70
192
0
VERTEX
8
OBJECT__3
10
0
20
0
30
0
70
128
71
1
72
2
73
3
0
VERTEX
8
OBJECT__3
10
0
20
0
30
0
70
128
71
4
72
5
73
2
0
VERTEX
8
OBJECT__3
10
0
20
0
30
0
70
128
71
2
72
1
73
4
0
VERTEX
8
OBJECT__3
10
0
20
0
30
0
70
128
71
3
72
6
73
1
0
VERTEX
8
OBJECT__3
10
0
20
0
30
0
70
128
71
7
72
8
73
9
0
VERTEX
8
OBJECT__3
10
0
20
0
30
0
70
128
71
7
72
1
73
10
0
VERTEX
8
OBJECT__3
10
0
20
0
30
0
70
128
71
10
72
11
73
7
0
VERTEX
8
OBJECT__3
10
0
20
0
30
0
70
128
71
11
72
12
73
7
0
VERTEX
8
OBJECT__3
10
0
20
0
30
0
70
128
71
12
72
8
73
7
0
VERTEX
8
OBJECT__3
10
0
20
0
30
0
70
128
71
9
72
13
73
7
0
VERTEX
8
OBJECT__3
10
0
20
0
30
0
70
128
71
14
72
15
73
16
0
VERTEX
8
OBJECT__3
10
0
20
0
30
0
70
128
71
16
72
17
73
14
0
VERTEX
8
OBJECT__3
10
0
20
0
30
0
70
128
71
15
72
18
73
19
0
VERTEX
8
OBJECT__3
10
0
20
0
30
0
70
128
71
19
72
16
73
15
0
VERTEX
8
OBJECT__3
10
0
20
0
30
0
70
128
71
15
72
20
73
21
0
VERTEX
8
OBJECT__3
10
0
20
0
30
0
70
128
71
21
72
18
73
15
0
VERTEX
8
OBJECT__3
10
0
20
0
30
0
70
128
71
15
72
7
73
22
0
VERTEX
8
OBJECT__3
10
0
20
0
30
0
70
128
71
22
72
20
73
15
0
VERTEX
8
OBJECT__3
10
0
20
0
30
0
70
128
71
15
72
23
73
24
0
VERTEX
8
OBJECT__3
10
0
20
0
30
0
70
128
71
15
72
25
73
26
0
VERTEX
8
OBJECT__3
10
0
20
0
30
0
70
128
71
26
72
23
73
15
0
VERTEX
8
OBJECT__3
10
0
20
0
30
0
70
128
71
15
72
27
73
28
0
VERTEX
8
OBJECT__3
10
0
20
0
30
0
70
128
71
28
72
25
73
15
0
VERTEX
8
OBJECT__3
10
0
20
0
30
0
70
128
71
15
72
29
73
30
0
VERTEX
8
OBJECT__3
10
0
20
0
30
0
70
128
71
15
72
14
73
31
0
VERTEX
8
OBJECT__3
10
0
20
0
30
0
70
128
71
31
72
32
73
15
0
VERTEX
8
OBJECT__3
10
0
20
0
30
0
70
128
71
32
72
29
73
15
0
VERTEX
8
OBJECT__3
10
0
20
0
30
0
70
128
71
14
72
33
73
31
0
VERTEX
8
OBJECT__3
10
0
20
0
30
0
70
128
71
30
72
34
73
15
0
VERTEX
8
OBJECT__3
10
0
20
0
30
0
70
128
71
34
72
27
73
15
0
VERTEX
8
OBJECT__3
10
0
20
0
30
0
70
128
71
35
72
36
73
37
0
VERTEX
8
OBJECT__3
10
0
20
0
30
0
70
128
71
37
72
38
73
35
0
VERTEX
8
OBJECT__3
10
0
20
0
30
0
70
128
71
35
72
24
73
39
0
VERTEX
8
OBJECT__3
10
0
20
0
30
0
70
128
71
39
72
36
73
35
0
VERTEX
8
OBJECT__3
10
0
20
0
30
0
70
128
71
37
72
40
73
38
0
VERTEX
8
OBJECT__3
10
0
20
0
30
0
70
128
71
24
72
35
73
15
0
VERTEX
8
OBJECT__3
10
0
20
0
30
0
70
128
71
17
72
41
73
14
0
VERTEX
8
OBJECT__3
10
0
20
0
30
0
70
128
71
13
72
22
73
7
0
VERTEX
8
OBJECT__3
10
0
20
0
30
0
70
128
71
6
72
10
73
1
0
SEQEND
8
OBJECT__3
0
POLYLINE
8
OBJECT__5
66
1
70
64
71
39
72
37
62
253
0
VERTEX
8
OBJECT__5
10
-18.079000
20
10.389000
30
291.500000
70
192
0
VERTEX
8
OBJECT__5
10
-20.853001
20
0.000000
30
291.500000
70
192
0
VERTEX
8
OBJECT__5
10
-20.707001
20
2.442000
30
303.947998
70
192
0
VERTEX
8
OBJECT__5
10
-19.822001
20
6.228000
30
305.143005
70
192
0
VERTEX
8
OBJECT__5
10
-20.851999
20
0.000000
30
303.759003
70
192
0
VERTEX
8
OBJECT__5
10
-19.646000
20
6.981000
30
305.381012
70
192
0
VERTEX
8
OBJECT__5
10
-7.145000
20
19.586000
30
396.183990
70
192
0
VERTEX
8
OBJECT__5
10
-7.145000
20
19.586000
30
291.500000
70
192
0
VERTEX
8
OBJECT__5
10
-7.312000
20
19.525000
30
355.071014
70
192
0
VERTEX
8
OBJECT__5
10
-8.087000
20
19.216999
30
338.169006
70
192
0
VERTEX
8
OBJECT__5
10
-7.816000
20
19.325001
30
344.088989
70
192
0
VERTEX
8
OBJECT__5
10
-9.500000
20
18.559000
30
328.045013
70
192
0
VERTEX
8
OBJECT__5
10
-9.065000
20
18.761000
30
331.161987
70
192
0
VERTEX
8
OBJECT__5
10
-11.794000
20
17.191999
30
319.820007
70
192
0
VERTEX
8
OBJECT__5
10
-14.996000
20
14.483000
30
312.717987
70
192
0
VERTEX
8
OBJECT__5
10
-12.267000
20
16.792000
30
318.770996
70
192
0
VERTEX
8
OBJECT__5
10
-17.996000
20
10.347000
30
307.782990
70
192
0
VERTEX
8
OBJECT__5
10
-17.556000
20
11.245000
30
308.423004
70
192
0
VERTEX
8
OBJECT__5
10
6.637000
20
19.763000
30
324.320007
70
192
0
VERTEX
8
OBJECT__5
10
7.126000
20
19.548000
30
323.341003
70
192
0
VERTEX
8
OBJECT__5
10
3.954000
20
20.469000
30
333.299011
70
192
0
VERTEX
8
OBJECT__5
10
5.052000
20
20.180000
30
329.622986
70
192
0
VERTEX
8
OBJECT__5
10
2.313000
20
20.719000
30
345.585999
70
192
0
VERTEX
8
OBJECT__5
10
2.696000
20
20.660999
30
342.717010
70
192
0
VERTEX
8
OBJECT__5
10
1.651000
20
20.783001
30
363.845001
70
192
0
VERTEX
8
OBJECT__5
10
1.562000
20
20.790001
30
396.183990
70
192
0
VERTEX
8
OBJECT__5
10
1.636000
20
20.784000
30
369.428986
70
192
0
VERTEX
8
OBJECT__5
10
7.142000
20
19.586000
30
291.500000
70
192
0
VERTEX
8
OBJECT__5
10
17.118000
20
11.901000
30
308.265015
70
192
0
VERTEX
8
OBJECT__5
10
17.944000
20
10.320000
30
307.420013
70
192
0
VERTEX
8
OBJECT__5
10
13.604000
20
15.798000
30
312.360992
70
192
0
VERTEX
8
OBJECT__5
10
10.068000
20
18.256001
30
317.459015
70
192
0
VERTEX
8
OBJECT__5
10
18.076000
20
10.389000
30
291.500000
70
192
0
VERTEX
8
OBJECT__5
10
19.737000
20
6.468000
30
305.600006
70
192
0
VERTEX
8
OBJECT__5
10
20.702999
20
2.470000
30
304.674011
70
192
0
VERTEX
8
OBJECT__5
10
19.548000
20
7.251000
30
305.781006
70
192
0
VERTEX
8
OBJECT__5
10
20.850000
20
0.000000
30
291.500000
70
192
0
VERTEX
8
OBJECT__5
10
20.850000
20
0.000000
30
304.536011
70
192
0
VERTEX
8
OBJECT__5
10
-7.149000
20
19.584999
30
396.183990
70
192
0
VERTEX
8
OBJECT__5
10
0
20
0
30
0
70
128
71
1
72
2
73
3
0
VERTEX
8
OBJECT__5
10
0
20
0
30
0
70
128
71
3
72
4
73
1
0
VERTEX
8
OBJECT__5
10
0
20
0
30
0
70
128
71
2
72
5
73
3
0
VERTEX
8
OBJECT__5
10
0
20
0
30
0
70
128
71
4
72
6
73
1
0
VERTEX
8
OBJECT__5
10
0
20
0
30
0
70
128
71
7
72
8
73
9
0
VERTEX
8
OBJECT__5
10
0
20
0
30
0
70
128
71
8
72
10
73
11
0
VERTEX
8
OBJECT__5
10
0
20
0
30
0
70
128
71
11
72
9
73
8
0
VERTEX
8
OBJECT__5
10
0
20
0
30
0
70
128
71
8
72
12
73
13
0
VERTEX
8
OBJECT__5
10
0
20
0
30
0
70
128
71
13
72
10
73
8
0
VERTEX
8
OBJECT__5
10
0
20
0
30
0
70
128
71
8
72
14
73
12
0
VERTEX
8
OBJECT__5
10
0
20
0
30
0
70
128
71
8
72
15
73
16
0
VERTEX
8
OBJECT__5
10
0
20
0
30
0
70
128
71
8
72
1
73
17
0
VERTEX
8
OBJECT__5
10
0
20
0
30
0
70
128
71
17
72
18
73
8
0
VERTEX
8
OBJECT__5
10
0
20
0
30
0
70
128
71
18
72
15
73
8
0
VERTEX
8
OBJECT__5
10
0
20
0
30
0
70
128
71
16
72
14
73
8
0
VERTEX
8
OBJECT__5
10
0
20
0
30
0
70
128
71
8
72
19
73
20
0
VERTEX
8
OBJECT__5
10
0
20
0
30
0
70
128
71
8
72
21
73
22
0
VERTEX
8
OBJECT__5
10
0
20
0
30
0
70
128
71
8
72
23
73
24
0
VERTEX
8
OBJECT__5
10
0
20
0
30
0
70
128
71
7
72
25
73
23
0
VERTEX
8
OBJECT__5
10
0
20
0
30
0
70
128
71
7
72
26
73
27
0
VERTEX
8
OBJECT__5
10
0
20
0
30
0
70
128
71
27
72
25
73
7
0
VERTEX
8
OBJECT__5
10
0
20
0
30
0
70
128
71
23
72
8
73
7
0
VERTEX
8
OBJECT__5
10
0
20
0
30
0
70
128
71
24
72
21
73
8
0
VERTEX
8
OBJECT__5
10
0
20
0
30
0
70
128
71
22
72
19
73
8
0
VERTEX
8
OBJECT__5
10
0
20
0
30
0
70
128
71
28
72
29
73
30
0
VERTEX
8
OBJECT__5
10
0
20
0
30
0
70
128
71
28
72
31
73
29
0
VERTEX
8
OBJECT__5
10
0
20
0
30
0
70
128
71
28
72
32
73
31
0
VERTEX
8
OBJECT__5
10
0
20
0
30
0
70
128
71
28
72
20
73
32
0
VERTEX
8
OBJECT__5
10
0
20
0
30
0
70
128
71
33
72
34
73
35
0
VERTEX
8
OBJECT__5
10
0
20
0
30
0
70
128
71
33
72
36
73
34
0
VERTEX
8
OBJECT__5
10
0
20
0
30
0
70
128
71
35
72
37
73
33
0
VERTEX
8
OBJECT__5
10
0
20
0
30
0
70
128
71
33
72
30
73
36
0
VERTEX
8
OBJECT__5
10
0
20
0
30
0
70
128
71
35
72
38
73
37
0
VERTEX
8
OBJECT__5
10
0
20
0
30
0
70
128
71
30
72
33
73
28
0
VERTEX
8
OBJECT__5
10
0
20
0
30
0
70
128
71
20
72
28
73
8
0
VERTEX
8
OBJECT__5
10
0
20
0
30
0
70
128
71
9
72
39
73
7
0
VERTEX
8
OBJECT__5
10
0
20
0
30
0
70
128
71
6
72
17
73
1
0
SEQEND
8
OBJECT__5
0
POLYLINE
8
OBJECT__6
66
1
70
64
71
33
72
31
62
253
0
VERTEX
8
OBJECT__6
10
-7.736000
20
-19.358999
30
344.084015
70
192
0
VERTEX
8
OBJECT__6
10
-7.278000
20
-19.537001
30
356.997009
70
192
0
VERTEX
8
OBJECT__6
10
-8.745000
20
-16.931999
30
352.053009
70
192
0
VERTEX
8
OBJECT__6
10
-9.003000
20
-16.822001
30
348.145996
70
192
0
VERTEX
8
OBJECT__6
10
-8.500000
20
-16.862000
30
396.183990
70
192
0
VERTEX
8
OBJECT__6
10
-7.149000
20
-19.584999
30
396.183990
70
192
0
VERTEX
8
OBJECT__6
10
-8.327000
20
-18.615999
30
396.183990
70
192
0
VERTEX
8
OBJECT__6
10
-20.075001
20
-1.445000
30
307.998993
70
192
0
VERTEX
8
OBJECT__6
10
-20.132999
20
0.000000
30
307.917999
70
192
0
VERTEX
8
OBJECT__6
10
-20.906000
20
0.000000
30
306.003998
70
192
0
VERTEX
8
OBJECT__6
10
-20.798000
20
-1.514000
30
303.830994
70
192
0
VERTEX
8
OBJECT__6
10
-19.913000
20
-6.188000
30
305.016998
70
192
0
VERTEX
8
OBJECT__6
10
-19.155001
20
-5.801000
30
309.342010
70
192
0
VERTEX
8
OBJECT__6
10
-19.879999
20
-6.262000
30
305.065002
70
192
0
VERTEX
8
OBJECT__6
10
-11.833000
20
-17.167000
30
319.714996
70
192
0
VERTEX
8
OBJECT__6
10
-9.232000
20
-18.694000
30
329.440002
70
192
0
VERTEX
8
OBJECT__6
10
-11.608000
20
-15.415000
30
325.821991
70
192
0
VERTEX
8
OBJECT__6
10
-12.527000
20
-14.687000
30
323.203003
70
192
0
VERTEX
8
OBJECT__6
10
-12.262000
20
-16.804001
30
318.764008
70
192
0
VERTEX
8
OBJECT__6
10
-11.325000
20
-15.584000
30
327.313995
70
192
0
VERTEX
8
OBJECT__6
10
-9.033000
20
-18.783001
30
331.153015
70
192
0
VERTEX
8
OBJECT__6
10
-9.875000
20
-16.451000
30
334.977997
70
192
0
VERTEX
8
OBJECT__6
10
-14.952000
20
-14.532000
30
312.802002
70
192
0
VERTEX
8
OBJECT__6
10
-14.408000
20
-13.199000
30
317.846008
70
192
0
VERTEX
8
OBJECT__6
10
-16.973000
20
-10.191000
30
312.859009
70
192
0
VERTEX
8
OBJECT__6
10
-17.547001
20
-11.173000
30
308.473999
70
192
0
VERTEX
8
OBJECT__6
10
-17.073999
20
-10.071000
30
312.661011
70
192
0
VERTEX
8
OBJECT__6
10
-17.926001
20
-10.602000
30
307.863007
70
192
0
VERTEX
8
OBJECT__6
10
-17.837999
20
-10.797000
30
307.989014
70
192
0
VERTEX
8
OBJECT__6
10
-19.106001
20
-6.033000
30
309.414001
70
192
0
VERTEX
8
OBJECT__6
10
-7.825000
20
-19.325001
30
341.575012
70
192
0
VERTEX
8
OBJECT__6
10
-9.069000
20
-16.794001
30
347.160004
70
192
0
VERTEX
8
OBJECT__6
10
-20.851999
20
0.000000
30
303.759003
70
192
0
VERTEX
8
OBJECT__6
10
0
20
0
30
0
70
128
71
1
72
2
73
3
0
VERTEX
8
OBJECT__6
10
0
20
0
30
0
70
128
71
3
72
4
73
1
0
VERTEX
8
OBJECT__6
10
0
20
0
30
0
70
128
71
5
72
3
73
2
0
VERTEX
8
OBJECT__6
10
0
20
0
30
0
70
128
71
2
72
6
73
7
0
VERTEX
8
OBJECT__6
10
0
20
0
30
0
70
128
71
2
72
7
73
5
0
VERTEX
8
OBJECT__6
10
0
20
0
30
0
70
128
71
8
72
9
73
10
0
VERTEX
8
OBJECT__6
10
0
20
0
30
0
70
128
71
10
72
11
73
8
0
VERTEX
8
OBJECT__6
10
0
20
0
30
0
70
128
71
12
72
13
73
8
0
VERTEX
8
OBJECT__6
10
0
20
0
30
0
70
128
71
8
72
11
73
12
0
VERTEX
8
OBJECT__6
10
0
20
0
30
0
70
128
71
12
72
14
73
13
0
VERTEX
8
OBJECT__6
10
0
20
0
30
0
70
128
71
15
72
16
73
17
0
VERTEX
8
OBJECT__6
10
0
20
0
30
0
70
128
71
18
72
19
73
15
0
VERTEX
8
OBJECT__6
10
0
20
0
30
0
70
128
71
20
72
16
73
21
0
VERTEX
8
OBJECT__6
10
0
20
0
30
0
70
128
71
21
72
22
73
20
0
VERTEX
8
OBJECT__6
10
0
20
0
30
0
70
128
71
20
72
17
73
16
0
VERTEX
8
OBJECT__6
10
0
20
0
30
0
70
128
71
23
72
19
73
24
0
VERTEX
8
OBJECT__6
10
0
20
0
30
0
70
128
71
25
72
26
73
23
0
VERTEX
8
OBJECT__6
10
0
20
0
30
0
70
128
71
19
72
18
73
24
0
VERTEX
8
OBJECT__6
10
0
20
0
30
0
70
128
71
27
72
28
73
29
0
VERTEX
8
OBJECT__6
10
0
20
0
30
0
70
128
71
28
72
27
73
30
0
VERTEX
8
OBJECT__6
10
0
20
0
30
0
70
128
71
30
72
14
73
28
0
VERTEX
8
OBJECT__6
10
0
20
0
30
0
70
128
71
26
72
25
73
27
0
VERTEX
8
OBJECT__6
10
0
20
0
30
0
70
128
71
29
72
26
73
27
0
VERTEX
8
OBJECT__6
10
0
20
0
30
0
70
128
71
22
72
21
73
31
0
VERTEX
8
OBJECT__6
10
0
20
0
30
0
70
128
71
31
72
32
73
22
0
VERTEX
8
OBJECT__6
10
0
20
0
30
0
70
128
71
31
72
1
73
32
0
VERTEX
8
OBJECT__6
10
0
20
0
30
0
70
128
71
30
72
13
73
14
0
VERTEX
8
OBJECT__6
10
0
20
0
30
0
70
128
71
24
72
25
73
23
0
VERTEX
8
OBJECT__6
10
0
20
0
30
0
70
128
71
17
72
18
73
15
0
VERTEX
8
OBJECT__6
10
0
20
0
30
0
70
128
71
10
72
33
73
11
0
VERTEX
8
OBJECT__6
10
0
20
0
30
0
70
128
71
4
72
32
73
1
0
SEQEND
8
OBJECT__6
0
POLYLINE
8
OBJECT__7
66
1
70
64
71
33
72
31
62
253
0
VERTEX
8
OBJECT__7
10
-9.036000
20
16.844999
30
344.692993
70
192
0
VERTEX
8
OBJECT__7
10
-7.816000
20
19.325001
30
344.088989
70
192
0
VERTEX
8
OBJECT__7
10
-8.087000
20
19.216999
30
338.169006
70
192
0
VERTEX
8
OBJECT__7
10
-10.032000
20
16.347000
30
334.998993
70
192
0
VERTEX
8
OBJECT__7
10
-9.065000
20
18.761000
30
331.161987
70
192
0
VERTEX
8
OBJECT__7
10
-8.327000
20
18.615999
30
396.183990
70
192
0
VERTEX
8
OBJECT__7
10
-7.312000
20
19.525000
30
355.071014
70
192
0
VERTEX
8
OBJECT__7
10
-8.509000
20
16.893999
30
374.944000
70
192
0
VERTEX
8
OBJECT__7
10
-8.500000
20
16.862000
30
396.183990
70
192
0
VERTEX
8
OBJECT__7
10
-8.976000
20
16.851000
30
348.139008
70
192
0
VERTEX
8
OBJECT__7
10
-8.993000
20
16.849001
30
347.148987
70
192
0
VERTEX
8
OBJECT__7
10
-15.407000
20
12.185000
30
315.739014
70
192
0
VERTEX
8
OBJECT__7
10
-12.640000
20
14.685000
30
322.376007
70
192
0
VERTEX
8
OBJECT__7
10
-12.267000
20
16.792000
30
318.770996
70
192
0
VERTEX
8
OBJECT__7
10
-14.996000
20
14.483000
30
312.717987
70
192
0
VERTEX
8
OBJECT__7
10
-17.556000
20
11.245000
30
308.423004
70
192
0
VERTEX
8
OBJECT__7
10
-16.952999
20
10.022000
30
312.984985
70
192
0
VERTEX
8
OBJECT__7
10
-10.394000
20
16.166000
30
331.479004
70
192
0
VERTEX
8
OBJECT__7
10
-9.500000
20
18.559000
30
328.045013
70
192
0
VERTEX
8
OBJECT__7
10
-11.794000
20
17.191999
30
319.820007
70
192
0
VERTEX
8
OBJECT__7
10
-12.453000
20
14.808000
30
323.131989
70
192
0
VERTEX
8
OBJECT__7
10
-11.415000
20
15.493000
30
327.341003
70
192
0
VERTEX
8
OBJECT__7
10
-17.996000
20
10.347000
30
307.782990
70
192
0
VERTEX
8
OBJECT__7
10
-19.646000
20
6.981000
30
305.381012
70
192
0
VERTEX
8
OBJECT__7
10
-19.098000
20
5.698000
30
309.450989
70
192
0
VERTEX
8
OBJECT__7
10
-17.957001
20
8.617000
30
311.196014
70
192
0
VERTEX
8
OBJECT__7
10
-19.822001
20
6.228000
30
305.143005
70
192
0
VERTEX
8
OBJECT__7
10
-20.906000
20
0.000000
30
306.003998
70
192
0
VERTEX
8
OBJECT__7
10
-20.132999
20
0.000000
30
307.917999
70
192
0
VERTEX
8
OBJECT__7
10
-19.577000
20
4.471000
30
308.717010
70
192
0
VERTEX
8
OBJECT__7
10
-20.707001
20
2.442000
30
303.947998
70
192
0
VERTEX
8
OBJECT__7
10
-20.851999
20
0.000000
30
303.759003
70
192
0
VERTEX
8
OBJECT__7
10
-7.149000
20
19.584999
30
396.183990
70
192
0
VERTEX
8
OBJECT__7
10
0
20
0
30
0
70
128
71
1
72
2
73
3
0
VERTEX
8
OBJECT__7
10
0
20
0
30
0
70
128
71
3
72
4
73
1
0
VERTEX
8
OBJECT__7
10
0
20
0
30
0
70
128
71
3
72
5
73
4
0
VERTEX
8
OBJECT__7
10
0
20
0
30
0
70
128
71
6
72
7
73
8
0
VERTEX
8
OBJECT__7
10
0
20
0
30
0
70
128
71
8
72
9
73
6
0
VERTEX
8
OBJECT__7
10
0
20
0
30
0
70
128
71
10
72
8
73
7
0
VERTEX
8
OBJECT__7
10
0
20
0
30
0
70
128
71
2
72
11
73
10
0
VERTEX
8
OBJECT__7
10
0
20
0
30
0
70
128
71
7
72
2
73
10
0
VERTEX
8
OBJECT__7
10
0
20
0
30
0
70
128
71
12
72
13
73
14
0
VERTEX
8
OBJECT__7
10
0
20
0
30
0
70
128
71
14
72
15
73
12
0
VERTEX
8
OBJECT__7
10
0
20
0
30
0
70
128
71
15
72
16
73
17
0
VERTEX
8
OBJECT__7
10
0
20
0
30
0
70
128
71
17
72
12
73
15
0
VERTEX
8
OBJECT__7
10
0
20
0
30
0
70
128
71
18
72
5
73
19
0
VERTEX
8
OBJECT__7
10
0
20
0
30
0
70
128
71
19
72
20
73
21
0
VERTEX
8
OBJECT__7
10
0
20
0
30
0
70
128
71
21
72
22
73
19
0
VERTEX
8
OBJECT__7
10
0
20
0
30
0
70
128
71
20
72
14
73
21
0
VERTEX
8
OBJECT__7
10
0
20
0
30
0
70
128
71
19
72
22
73
18
0
VERTEX
8
OBJECT__7
10
0
20
0
30
0
70
128
71
23
72
24
73
25
0
VERTEX
8
OBJECT__7
10
0
20
0
30
0
70
128
71
25
72
26
73
23
0
VERTEX
8
OBJECT__7
10
0
20
0
30
0
70
128
71
26
72
16
73
23
0
VERTEX
8
OBJECT__7
10
0
20
0
30
0
70
128
71
24
72
27
73
25
0
VERTEX
8
OBJECT__7
10
0
20
0
30
0
70
128
71
28
72
29
73
30
0
VERTEX
8
OBJECT__7
10
0
20
0
30
0
70
128
71
28
72
27
73
31
0
VERTEX
8
OBJECT__7
10
0
20
0
30
0
70
128
71
31
72
32
73
28
0
VERTEX
8
OBJECT__7
10
0
20
0
30
0
70
128
71
30
72
27
73
28
0
VERTEX
8
OBJECT__7
10
0
20
0
30
0
70
128
71
30
72
25
73
27
0
VERTEX
8
OBJECT__7
10
0
20
0
30
0
70
128
71
26
72
17
73
16
0
VERTEX
8
OBJECT__7
10
0
20
0
30
0
70
128
71
18
72
4
73
5
0
VERTEX
8
OBJECT__7
10
0
20
0
30
0
70
128
71
13
72
21
73
14
0
VERTEX
8
OBJECT__7
10
0
20
0
30
0
70
128
71
6
72
33
73
7
0
VERTEX
8
OBJECT__7
10
0
20
0
30
0
70
128
71
1
72
11
73
2
0
SEQEND
8
OBJECT__7
0
POLYLINE
8
OBJECT__8
66
1
70
64
71
31
72
30
62
253
0
VERTEX
8
OBJECT__8
10
-16.952999
20
10.022000
30
312.984985
70
192
0
VERTEX
8
OBJECT__8
10
-12.527000
20
-14.687000
30
323.203003
70
192
0
VERTEX
8
OBJECT__8
10
-11.608000
20
-15.415000
30
325.821991
70
192
0
VERTEX
8
OBJECT__8
10
-19.098000
20
5.698000
30
309.450989
70
192
0
VERTEX
8
OBJECT__8
10
-16.973000
20
-10.191000
30
312.859009
70
192
0
VERTEX
8
OBJECT__8
10
-14.408000
20
-13.199000
30
317.846008
70
192
0
VERTEX
8
OBJECT__8
10
-17.073999
20
-10.071000
30
312.661011
70
192
0
VERTEX
8
OBJECT__8
10
-18.007999
20
-7.996000
30
311.114014
70
192
0
VERTEX
8
OBJECT__8
10
-19.106001
20
-6.033000
30
309.414001
70
192
0
VERTEX
8
OBJECT__8
10
-20.132999
20
0.000000
30
307.917999
70
192
0
VERTEX
8
OBJECT__8
10
-20.075001
20
-1.445000
30
307.998993
70
192
0
VERTEX
8
OBJECT__8
10
-19.577000
20
4.471000
30
308.717010
70
192
0
VERTEX
8
OBJECT__8
10
-19.155001
20
-5.801000
30
309.342010
70
192
0
VERTEX
8
OBJECT__8
10
-17.957001
20
8.617000
30
311.196014
70
192
0
VERTEX
8
OBJECT__8
10
-11.325000
20
-15.584000
30
327.313995
70
192
0
VERTEX
8
OBJECT__8
10
-12.640000
20
14.685000
30
322.376007
70
192
0
VERTEX
8
OBJECT__8
10
-15.407000
20
12.185000
30
315.739014
70
192
0
VERTEX
8
OBJECT__8
10
-12.453000
20
14.808000
30
323.131989
70
192
0
VERTEX
8
OBJECT__8
10
-11.415000
20
15.493000
30
327.341003
70
192
0
VERTEX
8
OBJECT__8
10
-9.875000
20
-16.451000
30
334.977997
70
192
0
VERTEX
8
OBJECT__8
10
-10.394000
20
16.166000
30
331.479004
70
192
0
VERTEX
8
OBJECT__8
10
-10.032000
20
16.347000
30
334.998993
70
192
0
VERTEX
8
OBJECT__8
10
-9.069000
20
-16.794001
30
347.160004
70
192
0
VERTEX
8
OBJECT__8
10
-9.036000
20
16.844999
30
344.692993
70
192
0
VERTEX
8
OBJECT__8
10
-8.993000
20
16.849001
30
347.148987
70
192
0
VERTEX
8
OBJECT__8
10
-8.976000
20
16.851000
30
348.139008
70
192
0
VERTEX
8
OBJECT__8
10
-9.003000
20
-16.822001
30
348.145996
70
192
0
VERTEX
8
OBJECT__8
10
-8.745000
20
-16.931999
30
352.053009
70
192
0
VERTEX
8
OBJECT__8
10
-8.500000
20
-16.862000
30
396.183990
70
192
0
VERTEX
8
OBJECT__8
10
-8.509000
20
16.893999
30
374.944000
70
192
0
VERTEX
8
OBJECT__8
10
-8.500000
20
16.862000
30
396.183990
70
192
0
VERTEX
8
OBJECT__8
10
0
20
0
30
0
70
128
71
1
72
2
73
3
0
VERTEX
8
OBJECT__8
10
0
20
0
30
0
70
128
71
4
72
5
73
6
0
VERTEX
8
OBJECT__8
10
0
20
0
30
0
70
128
71
7
72
5
73
8
0
VERTEX
8
OBJECT__8
10
0
20
0
30
0
70
128
71
8
72
9
73
7
0
VERTEX
8
OBJECT__8
10
0
20
0
30
0
70
128
71
8
72
10
73
11
0
VERTEX
8
OBJECT__8
10
0
20
0
30
0
70
128
71
8
72
4
73
12
0
VERTEX
8
OBJECT__8
10
0
20
0
30
0
70
128
71
12
72
10
73
8
0
VERTEX
8
OBJECT__8
10
0
20
0
30
0
70
128
71
11
72
13
73
8
0
VERTEX
8
OBJECT__8
10
0
20
0
30
0
70
128
71
8
72
5
73
4
0
VERTEX
8
OBJECT__8
10
0
20
0
30
0
70
128
71
8
72
13
73
9
0
VERTEX
8
OBJECT__8
10
0
20
0
30
0
70
128
71
2
72
1
73
14
0
VERTEX
8
OBJECT__8
10
0
20
0
30
0
70
128
71
14
72
4
73
2
0
VERTEX
8
OBJECT__8
10
0
20
0
30
0
70
128
71
6
72
2
73
4
0
VERTEX
8
OBJECT__8
10
0
20
0
30
0
70
128
71
15
72
16
73
17
0
VERTEX
8
OBJECT__8
10
0
20
0
30
0
70
128
71
15
72
18
73
16
0
VERTEX
8
OBJECT__8
10
0
20
0
30
0
70
128
71
15
72
19
73
18
0
VERTEX
8
OBJECT__8
10
0
20
0
30
0
70
128
71
17
72
1
73
15
0
VERTEX
8
OBJECT__8
10
0
20
0
30
0
70
128
71
20
72
21
73
19
0
VERTEX
8
OBJECT__8
10
0
20
0
30
0
70
128
71
20
72
22
73
21
0
VERTEX
8
OBJECT__8
10
0
20
0
30
0
70
128
71
23
72
24
73
22
0
VERTEX
8
OBJECT__8
10
0
20
0
30
0
70
128
71
23
72
25
73
24
0
VERTEX
8
OBJECT__8
10
0
20
0
30
0
70
128
71
23
72
26
73
25
0
VERTEX
8
OBJECT__8
10
0
20
0
30
0
70
128
71
22
72
20
73
23
0
VERTEX
8
OBJECT__8
10
0
20
0
30
0
70
128
71
23
72
27
73
26
0
VERTEX
8
OBJECT__8
10
0
20
0
30
0
70
128
71
28
72
29
73
30
0
VERTEX
8
OBJECT__8
10
0
20
0
30
0
70
128
71
26
72
27
73
28
0
VERTEX
8
OBJECT__8
10
0
20
0
30
0
70
128
71
29
72
31
73
30
0
VERTEX
8
OBJECT__8
10
0
20
0
30
0
70
128
71
30
72
26
73
28
0
VERTEX
8
OBJECT__8
10
0
20
0
30
0
70
128
71
19
72
15
73
20
0
VERTEX
8
OBJECT__8
10
0
20
0
30
0
70
128
71
3
72
15
73
1
0
SEQEND
8
OBJECT__8
0
POLYLINE
8
OBJECT__9
66
1
70
64
71
27
72
25
62
253
0
VERTEX
8
OBJECT__9
10
10.575000
20
-16.862000
30
434.178009
70
192
0
VERTEX
8
OBJECT__9
10
2.818000
20
-16.862000
30
429.266998
70
192
0
VERTEX
8
OBJECT__9
10
4.605000
20
-19.603001
30
429.825989
70
192
0
VERTEX
8
OBJECT__9
10
3.659000
20
-19.607000
30
428.856995
70
192
0
VERTEX
8
OBJECT__9
10
-5.347000
20
-19.622999
30
413.872986
70
192
0
VERTEX
8
OBJECT__9
10
-6.410000
20
-16.862000
30
414.200012
70
192
0
VERTEX
8
OBJECT__9
10
-7.673000
20
-16.862000
30
411.454010
70
192
0
VERTEX
8
OBJECT__9
10
-8.327000
20
-18.615999
30
396.183990
70
192
0
VERTEX
8
OBJECT__9
10
-7.149000
20
-19.584999
30
396.183990
70
192
0
VERTEX
8
OBJECT__9
10
-6.557000
20
-19.611000
30
409.113007
70
192
0
VERTEX
8
OBJECT__9
10
-8.500000
20
-16.862000
30
396.183990
70
192
0
VERTEX
8
OBJECT__9
10
14.969000
20
-16.862000
30
436.959991
70
192
0
VERTEX
8
OBJECT__9
10
12.298000
20
-19.582001
30
434.407013
70
192
0
VERTEX
8
OBJECT__9
10
17.666000
20
-19.582001
30
436.121002
70
192
0
VERTEX
8
OBJECT__9
10
18.797001
20
-16.862000
30
437.712006
70
192
0
VERTEX
8
OBJECT__9
10
11.101000
20
-19.584999
30
433.694000
70
192
0
VERTEX
8
OBJECT__9
10
-2.581000
20
-16.862000
30
422.526001
70
192
0
VERTEX
8
OBJECT__9
10
-4.317000
20
-19.634001
30
417.921997
70
192
0
VERTEX
8
OBJECT__9
10
-5.219000
20
-19.624001
30
414.373993
70
192
0
VERTEX
8
OBJECT__9
10
2.813000
20
-19.610001
30
427.989990
70
192
0
VERTEX
8
OBJECT__9
10
-0.424000
20
-16.862000
30
427.213989
70
192
0
VERTEX
8
OBJECT__9
10
-0.746000
20
-19.625000
30
424.342987
70
192
0
VERTEX
8
OBJECT__9
10
-2.014000
20
-19.628000
30
422.062988
70
192
0
VERTEX
8
OBJECT__9
10
36.844002
20
-16.862000
30
441.257996
70
192
0
VERTEX
8
OBJECT__9
10
22.451000
20
-19.582001
30
437.648010
70
192
0
VERTEX
8
OBJECT__9
10
19.469999
20
-19.582001
30
436.696991
70
192
0
VERTEX
8
OBJECT__9
10
37.008999
20
-19.583000
30
439.912994
70
192
0
VERTEX
8
OBJECT__9
10
0
20
0
30
0
70
128
71
1
72
2
73
3
0
VERTEX
8
OBJECT__9
10
0
20
0
30
0
70
128
71
2
72
4
73
3
0
VERTEX
8
OBJECT__9
10
0
20
0
30
0
70
128
71
5
72
6
73
7
0
VERTEX
8
OBJECT__9
10
0
20
0
30
0
70
128
71
8
72
9
73
10
0
VERTEX
8
OBJECT__9
10
0
20
0
30
0
70
128
71
7
72
11
73
8
0
VERTEX
8
OBJECT__9
10
0
20
0
30
0
70
128
71
10
72
7
73
8
0
VERTEX
8
OBJECT__9
10
0
20
0
30
0
70
128
71
12
72
1
73
13
0
VERTEX
8
OBJECT__9
10
0
20
0
30
0
70
128
71
14
72
15
73
12
0
VERTEX
8
OBJECT__9
10
0
20
0
30
0
70
128
71
13
72
14
73
12
0
VERTEX
8
OBJECT__9
10
0
20
0
30
0
70
128
71
1
72
16
73
13
0
VERTEX
8
OBJECT__9
10
0
20
0
30
0
70
128
71
17
72
6
73
18
0
VERTEX
8
OBJECT__9
10
0
20
0
30
0
70
128
71
6
72
5
73
19
0
VERTEX
8
OBJECT__9
10
0
20
0
30
0
70
128
71
19
72
18
73
6
0
VERTEX
8
OBJECT__9
10
0
20
0
30
0
70
128
71
20
72
2
73
21
0
VERTEX
8
OBJECT__9
10
0
20
0
30
0
70
128
71
21
72
22
73
20
0
VERTEX
8
OBJECT__9
10
0
20
0
30
0
70
128
71
17
72
23
73
22
0
VERTEX
8
OBJECT__9
10
0
20
0
30
0
70
128
71
22
72
21
73
17
0
VERTEX
8
OBJECT__9
10
0
20
0
30
0
70
128
71
24
72
15
73
25
0
VERTEX
8
OBJECT__9
10
0
20
0
30
0
70
128
71
15
72
26
73
25
0
VERTEX
8
OBJECT__9
10
0
20
0
30
0
70
128
71
25
72
27
73
24
0
VERTEX
8
OBJECT__9
10
0
20
0
30
0
70
128
71
20
72
4
73
2
0
VERTEX
8
OBJECT__9
10
0
20
0
30
0
70
128
71
18
72
23
73
17
0
VERTEX
8
OBJECT__9
10
0
20
0
30
0
70
128
71
14
72
26
73
15
0
VERTEX
8
OBJECT__9
10
0
20
0
30
0
70
128
71
7
72
10
73
5
0
VERTEX
8
OBJECT__9
10
0
20
0
30
0
70
128
71
3
72
16
73
1
0
SEQEND
8
OBJECT__9
0
POLYLINE
8
OBJECT__10
66
1
70
64
71
20
72
18
62
253
0
VERTEX
8
OBJECT__10
10
14.969000
20
16.862000
30
436.959991
70
192
0
VERTEX
8
OBJECT__10
10
14.969000
20
-16.862000
30
436.959991
70
192
0
VERTEX
8
OBJECT__10
10
18.797001
20
-16.862000
30
437.712006
70
192
0
VERTEX
8
OBJECT__10
10
36.844002
20
-16.862000
30
441.257996
70
192
0
VERTEX
8
OBJECT__10
10
36.844002
20
16.863001
30
441.257996
70
192
0
VERTEX
8
OBJECT__10
10
18.798000
20
16.862000
30
437.712006
70
192
0
VERTEX
8
OBJECT__10
10
-0.424000
20
16.862000
30
427.213989
70
192
0
VERTEX
8
OBJECT__10
10
-0.424000
20
-16.862000
30
427.213989
70
192
0
VERTEX
8
OBJECT__10
10
2.818000
20
-16.862000
30
429.266998
70
192
0
VERTEX
8
OBJECT__10
10
2.818000
20
16.862000
30
429.266998
70
192
0
VERTEX
8
OBJECT__10
10
10.575000
20
-16.862000
30
434.178009
70
192
0
VERTEX
8
OBJECT__10
10
10.575000
20
16.862000
30
434.178009
70
192
0
VERTEX
8
OBJECT__10
10
-2.581000
20
16.862000
30
422.526001
70
192
0
VERTEX
8
OBJECT__10
10
-2.581000
20
-16.862000
30
422.526001
70
192
0
VERTEX
8
OBJECT__10
10
-6.410000
20
16.862000
30
414.200012
70
192
0
VERTEX
8
OBJECT__10
10
-6.410000
20
-16.862000
30
414.200012
70
192
0
VERTEX
8
OBJECT__10
10
-7.673000
20
16.862000
30
411.454010
70
192
0
VERTEX
8
OBJECT__10
10
-7.673000
20
-16.862000
30
411.454010
70
192
0
VERTEX
8
OBJECT__10
10
-8.500000
20
16.862000
30
396.183990
70
192
0
VERTEX
8
OBJECT__10
10
-8.500000
20
-16.862000
30
396.183990
70
192
0
VERTEX
8
OBJECT__10
10
0
20
0
30
0
70
128
71
1
72
2
73
3
0
VERTEX
8
OBJECT__10
10
0
20
0
30
0
70
128
71
4
72
5
73
6
0
VERTEX
8
OBJECT__10
10
0
20
0
30
0
70
128
71
6
72
3
73
4
0
VERTEX
8
OBJECT__10
10
0
20
0
30
0
70
128
71
7
72
8
73
9
0
VERTEX
8
OBJECT__10
10
0
20
0
30
0
70
128
71
10
72
9
73
11
0
VERTEX
8
OBJECT__10
10
0
20
0
30
0
70
128
71
11
72
12
73
10
0
VERTEX
8
OBJECT__10
10
0
20
0
30
0
70
128
71
2
72
1
73
12
0
VERTEX
8
OBJECT__10
10
0
20
0
30
0
70
128
71
12
72
11
73
2
0
VERTEX
8
OBJECT__10
10
0
20
0
30
0
70
128
71
8
72
7
73
13
0
VERTEX
8
OBJECT__10
10
0
20
0
30
0
70
128
71
14
72
13
73
15
0
VERTEX
8
OBJECT__10
10
0
20
0
30
0
70
128
71
15
72
16
73
14
0
VERTEX
8
OBJECT__10
10
0
20
0
30
0
70
128
71
17
72
18
73
16
0
VERTEX
8
OBJECT__10
10
0
20
0
30
0
70
128
71
16
72
15
73
17
0
VERTEX
8
OBJECT__10
10
0
20
0
30
0
70
128
71
19
72
20
73
18
0
VERTEX
8
OBJECT__10
10
0
20
0
30
0
70
128
71
18
72
17
73
19
0
VERTEX
8
OBJECT__10
10
0
20
0
30
0
70
128
71
13
72
14
73
8
0
VERTEX
8
OBJECT__10
10
0
20
0
30
0
70
128
71
9
72
10
73
7
0
VERTEX
8
OBJECT__10
10
0
20
0
30
0
70
128
71
3
72
6
73
1
0
SEQEND
8
OBJECT__10
0
POLYLINE
8
OBJECT__11
66
1
70
64
71
28
72
26
62
253
0
VERTEX
8
OBJECT__11
10
2.818000
20
16.862000
30
429.266998
70
192
0
VERTEX
8
OBJECT__11
10
10.575000
20
16.862000
30
434.178009
70
192
0
VERTEX
8
OBJECT__11
10
10.184000
20
19.587000
30
433.391998
70
192
0
VERTEX
8
OBJECT__11
10
11.063000
20
19.586000
30
433.726013
70
192
0
VERTEX
8
OBJECT__11
10
-8.327000
20
18.615999
30
396.183990
70
192
0
VERTEX
8
OBJECT__11
10
-7.673000
20
16.862000
30
411.454010
70
192
0
VERTEX
8
OBJECT__11
10
-6.737000
20
19.603001
30
407.691010
70
192
0
VERTEX
8
OBJECT__11
10
-7.149000
20
19.584999
30
396.183990
70
192
0
VERTEX
8
OBJECT__11
10
-5.392000
20
19.622999
30
413.894012
70
192
0
VERTEX
8
OBJECT__11
10
-6.410000
20
16.862000
30
414.200012
70
192
0
VERTEX
8
OBJECT__11
10
14.969000
20
16.862000
30
436.959991
70
192
0
VERTEX
8
OBJECT__11
10
17.639000
20
19.580999
30
436.229004
70
192
0
VERTEX
8
OBJECT__11
10
18.798000
20
16.862000
30
437.712006
70
192
0
VERTEX
8
OBJECT__11
10
19.389000
20
19.580000
30
436.894989
70
192
0
VERTEX
8
OBJECT__11
10
19.405001
20
19.580000
30
436.898010
70
192
0
VERTEX
8
OBJECT__11
10
-4.794000
20
19.632000
30
416.652008
70
192
0
VERTEX
8
OBJECT__11
10
-5.283000
20
19.625000
30
414.398010
70
192
0
VERTEX
8
OBJECT__11
10
-2.581000
20
16.862000
30
422.526001
70
192
0
VERTEX
8
OBJECT__11
10
-2.107000
20
19.629000
30
422.121002
70
192
0
VERTEX
8
OBJECT__11
10
-1.651000
20
19.629000
30
423.049011
70
192
0
VERTEX
8
OBJECT__11
10
-0.424000
20
16.862000
30
427.213989
70
192
0
VERTEX
8
OBJECT__11
10
2.739000
20
19.610001
30
428.071014
70
192
0
VERTEX
8
OBJECT__11
10
3.388000
20
19.608000
30
428.812988
70
192
0
VERTEX
8
OBJECT__11
10
3.571000
20
19.607000
30
428.936005
70
192
0
VERTEX
8
OBJECT__11
10
36.844002
20
16.863001
30
441.257996
70
192
0
VERTEX
8
OBJECT__11
10
30.688000
20
19.583000
30
439.106995
70
192
0
VERTEX
8
OBJECT__11
10
37.008999
20
19.584000
30
439.911987
70
192
0
VERTEX
8
OBJECT__11
10
-8.500000
20
16.862000
30
396.183990
70
192
0
VERTEX
8
OBJECT__11
10
0
20
0
30
0
70
128
71
1
72
2
73
3
0
VERTEX
8
OBJECT__11
10
0
20
0
30
0
70
128
71
2
72
4
73
3
0
VERTEX
8
OBJECT__11
10
0
20
0
30
0
70
128
71
5
72
6
73
7
0
VERTEX
8
OBJECT__11
10
0
20
0
30
0
70
128
71
7
72
8
73
5
0
VERTEX
8
OBJECT__11
10
0
20
0
30
0
70
128
71
9
72
7
73
6
0
VERTEX
8
OBJECT__11
10
0
20
0
30
0
70
128
71
6
72
10
73
9
0
VERTEX
8
OBJECT__11
10
0
20
0
30
0
70
128
71
4
72
2
73
11
0
VERTEX
8
OBJECT__11
10
0
20
0
30
0
70
128
71
11
72
12
73
4
0
VERTEX
8
OBJECT__11
10
0
20
0
30
0
70
128
71
13
72
14
73
12
0
VERTEX
8
OBJECT__11
10
0
20
0
30
0
70
128
71
13
72
15
73
14
0
VERTEX
8
OBJECT__11
10
0
20
0
30
0
70
128
71
10
72
16
73
17
0
VERTEX
8
OBJECT__11
10
0
20
0
30
0
70
128
71
18
72
19
73
16
0
VERTEX
8
OBJECT__11
10
0
20
0
30
0
70
128
71
16
72
10
73
18
0
VERTEX
8
OBJECT__11
10
0
20
0
30
0
70
128
71
20
72
18
73
21
0
VERTEX
8
OBJECT__11
10
0
20
0
30
0
70
128
71
21
72
22
73
20
0
VERTEX
8
OBJECT__11
10
0
20
0
30
0
70
128
71
1
72
23
73
22
0
VERTEX
8
OBJECT__11
10
0
20
0
30
0
70
128
71
21
72
1
73
22
0
VERTEX
8
OBJECT__11
10
0
20
0
30
0
70
128
71
1
72
24
73
23
0
VERTEX
8
OBJECT__11
10
0
20
0
30
0
70
128
71
13
72
25
73
26
0
VERTEX
8
OBJECT__11
10
0
20
0
30
0
70
128
71
25
72
27
73
26
0
VERTEX
8
OBJECT__11
10
0
20
0
30
0
70
128
71
26
72
15
73
13
0
VERTEX
8
OBJECT__11
10
0
20
0
30
0
70
128
71
20
72
19
73
18
0
VERTEX
8
OBJECT__11
10
0
20
0
30
0
70
128
71
17
72
9
73
10
0
VERTEX
8
OBJECT__11
10
0
20
0
30
0
70
128
71
11
72
13
73
12
0
VERTEX
8
OBJECT__11
10
0
20
0
30
0
70
128
71
5
72
28
73
6
0
VERTEX
8
OBJECT__11
10
0
20
0
30
0
70
128
71
3
72
24
73
1
0
SEQEND
8
OBJECT__11
0
POLYLINE
8
OBJECT__12
66
1
70
64
71
18
72
16
62
253
0
VERTEX
8
OBJECT__12
10
132.945999
20
-15.978000
30
453.057007
70
192
0
VERTEX
8
OBJECT__12
10
139.979996
20
11.416000
30
453.920990
70
192
0
VERTEX
8
OBJECT__12
10
135.675003
20
14.805000
30
453.391998
70
192
0
VERTEX
8
OBJECT__12
10
143.662003
20
4.118000
30
454.372986
70
192
0
VERTEX
8
OBJECT__12
10
143.130997
20
6.437000
30
454.307007
70
192
0
VERTEX
8
OBJECT__12
10
139.785004
20
-11.352000
30
453.897003
70
192
0
VERTEX
8
OBJECT__12
10
143.774002
20
-4.156000
30
454.385986
70
192
0
VERTEX
8
OBJECT__12
10
144.367996
20
1.032000
30
454.459015
70
192
0
VERTEX
8
OBJECT__12
10
141.063995
20
-10.102000
30
454.053986
70
192
0
VERTEX
8
OBJECT__12
10
132.873001
20
15.749000
30
453.048004
70
192
0
VERTEX
8
OBJECT__12
10
130.108002
20
16.680000
30
452.708008
70
192
0
VERTEX
8
OBJECT__12
10
143.695999
20
-4.837000
30
454.377014
70
192
0
VERTEX
8
OBJECT__12
10
137.281998
20
-13.798000
30
453.588989
70
192
0
VERTEX
8
OBJECT__12
10
127.664001
20
16.862000
30
452.408997
70
192
0
VERTEX
8
OBJECT__12
10
127.663002
20
-16.862000
30
452.407990
70
192
0
VERTEX
8
OBJECT__12
10
132.813004
20
-16.044001
30
453.040985
70
192
0
VERTEX
8
OBJECT__12
10
36.844002
20
16.863001
30
441.257996
70
192
0
VERTEX
8
OBJECT__12
10
36.844002
20
-16.862000
30
441.257996
70
192
0
VERTEX
8
OBJECT__12
10
0
20
0
30
0
70
128
71
1
72
2
73
3
0
VERTEX
8
OBJECT__12
10
0
20
0
30
0
70
128
71
1
72
4
73
5
0
VERTEX
8
OBJECT__12
10
0
20
0
30
0
70
128
71
6
72
7
73
8
0
VERTEX
8
OBJECT__12
10
0
20
0
30
0
70
128
71
7
72
6
73
9
0
VERTEX
8
OBJECT__12
10
0
20
0
30
0
70
128
71
1
72
10
73
11
0
VERTEX
8
OBJECT__12
10
0
20
0
30
0
70
128
71
5
72
2
73
1
0
VERTEX
8
OBJECT__12
10
0
20
0
30
0
70
128
71
9
72
12
73
7
0
VERTEX
8
OBJECT__12
10
0
20
0
30
0
70
128
71
4
72
1
73
13
0
VERTEX
8
OBJECT__12
10
0
20
0
30
0
70
128
71
3
72
10
73
1
0
VERTEX
8
OBJECT__12
10
0
20
0
30
0
70
128
71
13
72
6
73
4
0
VERTEX
8
OBJECT__12
10
0
20
0
30
0
70
128
71
14
72
15
73
16
0
VERTEX
8
OBJECT__12
10
0
20
0
30
0
70
128
71
17
72
18
73
15
0
VERTEX
8
OBJECT__12
10
0
20
0
30
0
70
128
71
8
72
4
73
6
0
VERTEX
8
OBJECT__12
10
0
20
0
30
0
70
128
71
15
72
14
73
17
0
VERTEX
8
OBJECT__12
10
0
20
0
30
0
70
128
71
16
72
1
73
14
0
VERTEX
8
OBJECT__12
10
0
20
0
30
0
70
128
71
11
72
14
73
1
0
SEQEND
8
OBJECT__12
0
POLYLINE
8
OBJECT__13
66
1
70
64
71
5
72
3
62
253
0
VERTEX
8
OBJECT__13
10
37.008999
20
-19.583000
30
439.912994
70
192
0
VERTEX
8
OBJECT__13
10
127.827003
20
-19.583000
30
451.065002
70
192
0
VERTEX
8
OBJECT__13
10
127.745003
20
-18.224001
30
451.735992
70
192
0
VERTEX
8
OBJECT__13
10
36.844002
20
-16.862000
30
441.257996
70
192
0
VERTEX
8
OBJECT__13
10
127.663002
20
-16.862000
30
452.407990
70
192
0
VERTEX
8
OBJECT__13
10
0
20
0
30
0
70
128
71
1
72
2
73
3
0
VERTEX
8
OBJECT__13
10
0
20
0
30
0
70
128
71
3
72
4
73
1
0
VERTEX
8
OBJECT__13
10
0
20
0
30
0
70
128
71
3
72
5
73
4
0
SEQEND
8
OBJECT__13
0
POLYLINE
8
OBJECT__14
66
1
70
64
71
50
72
54
62
253
0
VERTEX
8
OBJECT__14
10
133.470993
20
-17.365999
30
452.605011
70
192
0
VERTEX
8
OBJECT__14
10
135.496994
20
-17.959000
30
452.009003
70
192
0
VERTEX
8
OBJECT__14
10
139.850006
20
-15.390000
30
452.544006
70
192
0
VERTEX
8
OBJECT__14
10
141.026001
20
-12.469000
30
453.532013
70
192
0
VERTEX
8
OBJECT__14
10
135.337997
20
-18.052999
30
451.989990
70
192
0
VERTEX
8
OBJECT__14
10
133.936005
20
-18.420000
30
451.817993
70
192
0
VERTEX
8
OBJECT__14
10
135.266006
20
-18.094999
30
451.980988
70
192
0
VERTEX
8
OBJECT__14
10
145.328995
20
-4.525000
30
454.061005
70
192
0
VERTEX
8
OBJECT__14
10
144.192993
20
-10.390000
30
453.076996
70
192
0
VERTEX
8
OBJECT__14
10
146.251007
20
-6.246000
30
453.329987
70
192
0
VERTEX
8
OBJECT__14
10
141.899002
20
-13.191000
30
452.795990
70
192
0
VERTEX
8
OBJECT__14
10
143.832001
20
-11.116000
30
453.032990
70
192
0
VERTEX
8
OBJECT__14
10
145.328995
20
4.525000
30
454.061005
70
192
0
VERTEX
8
OBJECT__14
10
147.266006
20
0.000000
30
453.454987
70
192
0
VERTEX
8
OBJECT__14
10
146.483994
20
-4.812000
30
453.358002
70
192
0
VERTEX
8
OBJECT__14
10
141.026001
20
12.469000
30
453.532013
70
192
0
VERTEX
8
OBJECT__14
10
144.169006
20
10.381000
30
453.074005
70
192
0
VERTEX
8
OBJECT__14
10
143.776993
20
11.196000
30
453.026001
70
192
0
VERTEX
8
OBJECT__14
10
146.436005
20
5.664000
30
453.351990
70
192
0
VERTEX
8
OBJECT__14
10
146.559006
20
4.826000
30
453.368011
70
192
0
VERTEX
8
OBJECT__14
10
133.470993
20
17.365999
30
452.605011
70
192
0
VERTEX
8
OBJECT__14
10
135.078003
20
18.004000
30
451.958008
70
192
0
VERTEX
8
OBJECT__14
10
134.016006
20
18.566999
30
451.828003
70
192
0
VERTEX
8
OBJECT__14
10
135.787003
20
17.628000
30
452.045013
70
192
0
VERTEX
8
OBJECT__14
10
139.503998
20
15.658000
30
452.502014
70
192
0
VERTEX
8
OBJECT__14
10
141.884003
20
13.173000
30
452.794006
70
192
0
VERTEX
8
OBJECT__14
10
133.973999
20
18.573999
30
451.821991
70
192
0
VERTEX
8
OBJECT__14
10
130.404007
20
19.160999
30
451.381989
70
192
0
VERTEX
8
OBJECT__14
10
127.746002
20
18.224001
30
451.735992
70
192
0
VERTEX
8
OBJECT__14
10
127.664001
20
16.862000
30
452.408997
70
192
0
VERTEX
8
OBJECT__14
10
130.108002
20
16.680000
30
452.708008
70
192
0
VERTEX
8
OBJECT__14
10
135.675003
20
14.805000
30
453.391998
70
192
0
VERTEX
8
OBJECT__14
10
132.873001
20
15.749000
30
453.048004
70
192
0
VERTEX
8
OBJECT__14
10
139.979996
20
11.416000
30
453.920990
70
192
0
VERTEX
8
OBJECT__14
10
143.130997
20
6.437000
30
454.307007
70
192
0
VERTEX
8
OBJECT__14
10
144.367996
20
1.032000
30
454.459015
70
192
0
VERTEX
8
OBJECT__14
10
143.662003
20
4.118000
30
454.372986
70
192
0
VERTEX
8
OBJECT__14
10
143.695999
20
-4.837000
30
454.377014
70
192
0
VERTEX
8
OBJECT__14
10
141.063995
20
-10.102000
30
454.053986
70
192
0
VERTEX
8
OBJECT__14
10
143.774002
20
-4.156000
30
454.385986
70
192
0
VERTEX
8
OBJECT__14
10
137.281998
20
-13.798000
30
453.588989
70
192
0
VERTEX
8
OBJECT__14
10
139.785004
20
-11.352000
30
453.897003
70
192
0
VERTEX
8
OBJECT__14
10
127.745003
20
-18.224001
30
451.735992
70
192
0
VERTEX
8
OBJECT__14
10
132.813004
20
-16.044001
30
453.040985
70
192
0
VERTEX
8
OBJECT__14
10
132.945999
20
-15.978000
30
453.057007
70
192
0
VERTEX
8
OBJECT__14
10
130.289001
20
-19.313000
30
451.369995
70
192
0
VERTEX
8
OBJECT__14
10
127.827003
20
-19.583000
30
451.065002
70
192
0
VERTEX
8
OBJECT__14
10
129.453995
20
-19.517000
30
451.266998
70
192
0
VERTEX
8
OBJECT__14
10
127.663002
20
-16.862000
30
452.407990
70
192
0
VERTEX
8
OBJECT__14
10
127.827003
20
19.584999
30
451.063995
70
192
0
VERTEX
8
OBJECT__14
10
0
20
0
30
0
70
128
71
1
72
2
73
3
0
VERTEX
8
OBJECT__14
10
0
20
0
30
0
70
128
71
3
72
4
73
1
0
VERTEX
8
OBJECT__14
10
0
20
0
30
0
70
128
71
1
72
5
73
2
0
VERTEX
8
OBJECT__14
10
0
20
0
30
0
70
128
71
1
72
6
73
7
0
VERTEX
8
OBJECT__14
10
0
20
0
30
0
70
128
71
7
72
5
73
1
0
VERTEX
8
OBJECT__14
10
0
20
0
30
0
70
128
71
8
72
4
73
9
0
VERTEX
8
OBJECT__14
10
0
20
0
30
0
70
128
71
9
72
10
73
8
0
VERTEX
8
OBJECT__14
10
0
20
0
30
0
70
128
71
4
72
11
73
12
0
VERTEX
8
OBJECT__14
10
0
20
0
30
0
70
128
71
12
72
9
73
4
0
VERTEX
8
OBJECT__14
10
0
20
0
30
0
70
128
71
13
72
8
73
14
0
VERTEX
8
OBJECT__14
10
0
20
0
30
0
70
128
71
8
72
15
73
14
0
VERTEX
8
OBJECT__14
10
0
20
0
30
0
70
128
71
16
72
17
73
18
0
VERTEX
8
OBJECT__14
10
0
20
0
30
0
70
128
71
13
72
19
73
17
0
VERTEX
8
OBJECT__14
10
0
20
0
30
0
70
128
71
13
72
20
73
19
0
VERTEX
8
OBJECT__14
10
0
20
0
30
0
70
128
71
17
72
16
73
13
0
VERTEX
8
OBJECT__14
10
0
20
0
30
0
70
128
71
21
72
22
73
23
0
VERTEX
8
OBJECT__14
10
0
20
0
30
0
70
128
71
21
72
24
73
22
0
VERTEX
8
OBJECT__14
10
0
20
0
30
0
70
128
71
21
72
16
73
25
0
VERTEX
8
OBJECT__14
10
0
20
0
30
0
70
128
71
16
72
26
73
25
0
VERTEX
8
OBJECT__14
10
0
20
0
30
0
70
128
71
25
72
24
73
21
0
VERTEX
8
OBJECT__14
10
0
20
0
30
0
70
128
71
21
72
27
73
28
0
VERTEX
8
OBJECT__14
10
0
20
0
30
0
70
128
71
28
72
29
73
21
0
VERTEX
8
OBJECT__14
10
0
20
0
30
0
70
128
71
29
72
30
73
31
0
VERTEX
8
OBJECT__14
10
0
20
0
30
0
70
128
71
31
72
21
73
29
0
VERTEX
8
OBJECT__14
10
0
20
0
30
0
70
128
71
16
72
21
73
32
0
VERTEX
8
OBJECT__14
10
0
20
0
30
0
70
128
71
21
72
33
73
32
0
VERTEX
8
OBJECT__14
10
0
20
0
30
0
70
128
71
16
72
34
73
35
0
VERTEX
8
OBJECT__14
10
0
20
0
30
0
70
128
71
35
72
13
73
16
0
VERTEX
8
OBJECT__14
10
0
20
0
30
0
70
128
71
8
72
13
73
36
0
VERTEX
8
OBJECT__14
10
0
20
0
30
0
70
128
71
13
72
37
73
36
0
VERTEX
8
OBJECT__14
10
0
20
0
30
0
70
128
71
8
72
38
73
39
0
VERTEX
8
OBJECT__14
10
0
20
0
30
0
70
128
71
39
72
4
73
8
0
VERTEX
8
OBJECT__14
10
0
20
0
30
0
70
128
71
8
72
40
73
38
0
VERTEX
8
OBJECT__14
10
0
20
0
30
0
70
128
71
1
72
4
73
41
0
VERTEX
8
OBJECT__14
10
0
20
0
30
0
70
128
71
4
72
42
73
41
0
VERTEX
8
OBJECT__14
10
0
20
0
30
0
70
128
71
43
72
1
73
44
0
VERTEX
8
OBJECT__14
10
0
20
0
30
0
70
128
71
1
72
45
73
44
0
VERTEX
8
OBJECT__14
10
0
20
0
30
0
70
128
71
1
72
43
73
46
0
VERTEX
8
OBJECT__14
10
0
20
0
30
0
70
128
71
43
72
47
73
48
0
VERTEX
8
OBJECT__14
10
0
20
0
30
0
70
128
71
48
72
46
73
43
0
VERTEX
8
OBJECT__14
10
0
20
0
30
0
70
128
71
46
72
6
73
1
0
VERTEX
8
OBJECT__14
10
0
20
0
30
0
70
128
71
44
72
49
73
43
0
VERTEX
8
OBJECT__14
10
0
20
0
30
0
70
128
71
41
72
45
73
1
0
VERTEX
8
OBJECT__14
10
0
20
0
30
0
70
128
71
39
72
42
73
4
0
VERTEX
8
OBJECT__14
10
0
20
0
30
0
70
128
71
36
72
40
73
8
0
VERTEX
8
OBJECT__14
10
0
20
0
30
0
70
128
71
35
72
37
73
13
0
VERTEX
8
OBJECT__14
10
0
20
0
30
0
70
128
71
32
72
34
73
16
0
VERTEX
8
OBJECT__14
10
0
20
0
30
0
70
128
71
31
72
33
73
21
0
VERTEX
8
OBJECT__14
10
0
20
0
30
0
70
128
71
28
72
50
73
29
0
VERTEX
8
OBJECT__14
10
0
20
0
30
0
70
128
71
23
72
27
73
21
0
VERTEX
8
OBJECT__14
10
0
20
0
30
0
70
128
71
18
72
26
73
16
0
VERTEX
8
OBJECT__14
10
0
20
0
30
0
70
128
71
14
72
20
73
13
0
VERTEX
8
OBJECT__14
10
0
20
0
30
0
70
128
71
10
72
15
73
8
0
VERTEX
8
OBJECT__14
10
0
20
0
30
0
70
128
71
3
72
11
73
4
0
SEQEND
8
OBJECT__14
0
POLYLINE
8
OBJECT__15
66
1
70
64
71
18
72
17
62
253
0
VERTEX
8
OBJECT__15
10
37.008999
20
-19.583000
30
439.912994
70
192
0
VERTEX
8
OBJECT__15
10
128.694000
20
-20.851000
30
444.006012
70
192
0
VERTEX
8
OBJECT__15
10
128.589996
20
-20.832001
30
444.851990
70
192
0
VERTEX
8
OBJECT__15
10
37.967999
20
-20.837000
30
432.109009
70
192
0
VERTEX
8
OBJECT__15
10
128.695999
20
-20.850000
30
443.989014
70
192
0
VERTEX
8
OBJECT__15
10
128.697998
20
-20.851000
30
443.971008
70
192
0
VERTEX
8
OBJECT__15
10
128.697998
20
-20.851000
30
443.971985
70
192
0
VERTEX
8
OBJECT__15
10
37.178001
20
-20.038000
30
438.537994
70
192
0
VERTEX
8
OBJECT__15
10
127.827003
20
-19.583000
30
451.065002
70
192
0
VERTEX
8
OBJECT__15
10
128.697998
20
-20.851000
30
443.976990
70
192
0
VERTEX
8
OBJECT__15
10
128.697998
20
-20.851000
30
443.977997
70
192
0
VERTEX
8
OBJECT__15
10
128.699005
20
-20.851000
30
443.968994
70
192
0
VERTEX
8
OBJECT__15
10
128.699997
20
-20.851000
30
443.959015
70
192
0
VERTEX
8
OBJECT__15
10
128.699005
20
-20.851000
30
443.966003
70
192
0
VERTEX
8
OBJECT__15
10
128.714996
20
-20.850000
30
443.832001
70
192
0
VERTEX
8
OBJECT__15
10
128.703995
20
-20.851000
30
443.920990
70
192
0
VERTEX
8
OBJECT__15
10
128.785995
20
-20.837999
30
443.260010
70
192
0
VERTEX
8
OBJECT__15
10
128.733994
20
-20.849001
30
443.683014
70
192
0
VERTEX
8
OBJECT__15
10
0
20
0
30
0
70
128
71
1
72
2
73
3
0
VERTEX
8
OBJECT__15
10
0
20
0
30
0
70
128
71
4
72
5
73
2
0
VERTEX
8
OBJECT__15
10
0
20
0
30
0
70
128
71
4
72
6
73
7
0
VERTEX
8
OBJECT__15
10
0
20
0
30
0
70
128
71
7
72
5
73
4
0
VERTEX
8
OBJECT__15
10
0
20
0
30
0
70
128
71
2
72
1
73
8
0
VERTEX
8
OBJECT__15
10
0
20
0
30
0
70
128
71
2
72
8
73
4
0
VERTEX
8
OBJECT__15
10
0
20
0
30
0
70
128
71
3
72
9
73
1
0
VERTEX
8
OBJECT__15
10
0
20
0
30
0
70
128
71
5
72
7
73
10
0
VERTEX
8
OBJECT__15
10
0
20
0
30
0
70
128
71
11
72
2
73
5
0
VERTEX
8
OBJECT__15
10
0
20
0
30
0
70
128
71
10
72
11
73
5
0
VERTEX
8
OBJECT__15
10
0
20
0
30
0
70
128
71
4
72
12
73
6
0
VERTEX
8
OBJECT__15
10
0
20
0
30
0
70
128
71
4
72
13
73
14
0
VERTEX
8
OBJECT__15
10
0
20
0
30
0
70
128
71
14
72
12
73
4
0
VERTEX
8
OBJECT__15
10
0
20
0
30
0
70
128
71
4
72
15
73
16
0
VERTEX
8
OBJECT__15
10
0
20
0
30
0
70
128
71
4
72
17
73
18
0
VERTEX
8
OBJECT__15
10
0
20
0
30
0
70
128
71
18
72
15
73
4
0
VERTEX
8
OBJECT__15
10
0
20
0
30
0
70
128
71
16
72
13
73
4
0
SEQEND
8
OBJECT__15
0
POLYLINE
8
OBJECT__16
66
1
70
64
71
5
72
3
62
253
0
VERTEX
8
OBJECT__16
10
37.008999
20
19.584000
30
439.911987
70
192
0
VERTEX
8
OBJECT__16
10
36.844002
20
16.863001
30
441.257996
70
192
0
VERTEX
8
OBJECT__16
10
127.746002
20
18.224001
30
451.735992
70
192
0
VERTEX
8
OBJECT__16
10
127.664001
20
16.862000
30
452.408997
70
192
0
VERTEX
8
OBJECT__16
10
127.827003
20
19.584999
30
451.063995
70
192
0
VERTEX
8
OBJECT__16
10
0
20
0
30
0
70
128
71
1
72
2
73
3
0
VERTEX
8
OBJECT__16
10
0
20
0
30
0
70
128
71
2
72
4
73
3
0
VERTEX
8
OBJECT__16
10
0
20
0
30
0
70
128
71
3
72
5
73
1
0
SEQEND
8
OBJECT__16
0
POLYLINE
8
OBJECT__17
66
1
70
64
71
86
72
91
62
253
0
VERTEX
8
OBJECT__17
10
138.408005
20
18.056999
30
447.765015
70
192
0
VERTEX
8
OBJECT__17
10
128.697998
20
20.851000
30
443.971008
70
192
0
VERTEX
8
OBJECT__17
10
130.404007
20
19.160999
30
451.381989
70
192
0
VERTEX
8
OBJECT__17
10
128.542007
20
20.811001
30
445.247986
70
192
0
VERTEX
8
OBJECT__17
10
128.397003
20
20.704000
30
446.427002
70
192
0
VERTEX
8
OBJECT__17
10
128.664001
20
20.849001
30
444.253998
70
192
0
VERTEX
8
OBJECT__17
10
128.694000
20
20.851000
30
444.006012
70
192
0
VERTEX
8
OBJECT__17
10
128.697998
20
20.851000
30
443.975006
70
192
0
VERTEX
8
OBJECT__17
10
134.016006
20
18.566999
30
451.828003
70
192
0
VERTEX
8
OBJECT__17
10
135.078003
20
18.004000
30
451.958008
70
192
0
VERTEX
8
OBJECT__17
10
133.973999
20
18.573999
30
451.821991
70
192
0
VERTEX
8
OBJECT__17
10
145.516006
20
10.426000
30
450.542999
70
192
0
VERTEX
8
OBJECT__17
10
141.884003
20
13.173000
30
452.794006
70
192
0
VERTEX
8
OBJECT__17
10
139.503998
20
15.658000
30
452.502014
70
192
0
VERTEX
8
OBJECT__17
10
135.404999
20
18.056999
30
451.950989
70
192
0
VERTEX
8
OBJECT__17
10
135.787003
20
17.628000
30
452.045013
70
192
0
VERTEX
8
OBJECT__17
10
143.776993
20
11.196000
30
453.026001
70
192
0
VERTEX
8
OBJECT__17
10
146.436005
20
5.664000
30
453.351990
70
192
0
VERTEX
8
OBJECT__17
10
146.559006
20
4.826000
30
453.368011
70
192
0
VERTEX
8
OBJECT__17
10
148.117996
20
0.000000
30
451.559998
70
192
0
VERTEX
8
OBJECT__17
10
144.169006
20
10.381000
30
453.074005
70
192
0
VERTEX
8
OBJECT__17
10
145.516006
20
-10.425000
30
450.542999
70
192
0
VERTEX
8
OBJECT__17
10
147.266006
20
0.000000
30
453.454987
70
192
0
VERTEX
8
OBJECT__17
10
146.483994
20
-4.812000
30
453.358002
70
192
0
VERTEX
8
OBJECT__17
10
146.251007
20
-6.246000
30
453.329987
70
192
0
VERTEX
8
OBJECT__17
10
144.192993
20
-10.390000
30
453.076996
70
192
0
VERTEX
8
OBJECT__17
10
138.408005
20
-18.056999
30
447.765015
70
192
0
VERTEX
8
OBJECT__17
10
139.850006
20
-15.390000
30
452.544006
70
192
0
VERTEX
8
OBJECT__17
10
135.496994
20
-17.959000
30
452.009003
70
192
0
VERTEX
8
OBJECT__17
10
143.832001
20
-11.116000
30
453.032990
70
192
0
VERTEX
8
OBJECT__17
10
141.899002
20
-13.191000
30
452.795990
70
192
0
VERTEX
8
OBJECT__17
10
129.453995
20
-19.517000
30
451.266998
70
192
0
VERTEX
8
OBJECT__17
10
128.589996
20
-20.832001
30
444.851990
70
192
0
VERTEX
8
OBJECT__17
10
128.694000
20
-20.851000
30
444.006012
70
192
0
VERTEX
8
OBJECT__17
10
127.827003
20
-19.583000
30
451.065002
70
192
0
VERTEX
8
OBJECT__17
10
128.697998
20
-20.851000
30
443.977997
70
192
0
VERTEX
8
OBJECT__17
10
128.697998
20
-20.851000
30
443.976990
70
192
0
VERTEX
8
OBJECT__17
10
130.289001
20
-19.313000
30
451.369995
70
192
0
VERTEX
8
OBJECT__17
10
133.936005
20
-18.420000
30
451.817993
70
192
0
VERTEX
8
OBJECT__17
10
128.697998
20
-20.851000
30
443.971985
70
192
0
VERTEX
8
OBJECT__17
10
135.266006
20
-18.094999
30
451.980988
70
192
0
VERTEX
8
OBJECT__17
10
135.404999
20
-18.056999
30
451.950989
70
192
0
VERTEX
8
OBJECT__17
10
135.337997
20
-18.052999
30
451.989990
70
192
0
VERTEX
8
OBJECT__17
10
128.697998
20
-20.851000
30
443.971008
70
192
0
VERTEX
8
OBJECT__17
10
129.401001
20
-20.743000
30
443.335999
70
192
0
VERTEX
8
OBJECT__17
10
128.703995
20
-20.851000
30
443.920990
70
192
0
VERTEX
8
OBJECT__17
10
128.714996
20
-20.850000
30
443.832001
70
192
0
VERTEX
8
OBJECT__17
10
128.733994
20
-20.849001
30
443.683014
70
192
0
VERTEX
8
OBJECT__17
10
128.699997
20
-20.851000
30
443.959015
70
192
0
VERTEX
8
OBJECT__17
10
128.699005
20
-20.851000
30
443.966003
70
192
0
VERTEX
8
OBJECT__17
10
128.785995
20
-20.837999
30
443.260010
70
192
0
VERTEX
8
OBJECT__17
10
131.595001
20
-20.406000
30
443.604004
70
192
0
VERTEX
8
OBJECT__17
10
128.699005
20
-20.851000
30
443.968994
70
192
0
VERTEX
8
OBJECT__17
10
134.960999
20
-19.888000
30
444.016998
70
192
0
VERTEX
8
OBJECT__17
10
136.300003
20
-19.212000
30
444.181000
70
192
0
VERTEX
8
OBJECT__17
10
134.322998
20
-19.986000
30
443.937988
70
192
0
VERTEX
8
OBJECT__17
10
143.018005
20
-14.756000
30
445.006989
70
192
0
VERTEX
8
OBJECT__17
10
145.541000
20
-12.216000
30
445.319000
70
192
0
VERTEX
8
OBJECT__17
10
140.897003
20
-16.891001
30
444.746002
70
192
0
VERTEX
8
OBJECT__17
10
138.998993
20
-17.850000
30
444.513000
70
192
0
VERTEX
8
OBJECT__17
10
148.274994
20
-6.973000
30
445.654999
70
192
0
VERTEX
8
OBJECT__17
10
147.671005
20
-8.133000
30
445.580994
70
192
0
VERTEX
8
OBJECT__17
10
146.522003
20
-10.335000
30
445.438995
70
192
0
VERTEX
8
OBJECT__17
10
148.820007
20
5.175000
30
445.721985
70
192
0
VERTEX
8
OBJECT__17
10
149.440994
20
-0.199000
30
445.796997
70
192
0
VERTEX
8
OBJECT__17
10
147.733002
20
7.745000
30
445.588013
70
192
0
VERTEX
8
OBJECT__17
10
149.464005
20
-0.401000
30
445.799011
70
192
0
VERTEX
8
OBJECT__17
10
142.634003
20
15.477000
30
444.959991
70
192
0
VERTEX
8
OBJECT__17
10
143.378006
20
14.580000
30
445.052002
70
192
0
VERTEX
8
OBJECT__17
10
146.615005
20
10.392000
30
445.450989
70
192
0
VERTEX
8
OBJECT__17
10
146.371994
20
10.966000
30
445.420990
70
192
0
VERTEX
8
OBJECT__17
10
132.845001
20
20.202000
30
443.759003
70
192
0
VERTEX
8
OBJECT__17
10
136.723007
20
19.149000
30
444.234985
70
192
0
VERTEX
8
OBJECT__17
10
138.988007
20
17.877001
30
444.513000
70
192
0
VERTEX
8
OBJECT__17
10
137.287003
20
18.996000
30
444.303986
70
192
0
VERTEX
8
OBJECT__17
10
128.699005
20
20.851000
30
443.968994
70
192
0
VERTEX
8
OBJECT__17
10
130.901001
20
20.729000
30
443.519989
70
192
0
VERTEX
8
OBJECT__17
10
130.039993
20
20.774000
30
443.414001
70
192
0
VERTEX
8
OBJECT__17
10
129.134995
20
20.820000
30
443.303009
70
192
0
VERTEX
8
OBJECT__17
10
128.699005
20
20.851000
30
443.967010
70
192
0
VERTEX
8
OBJECT__17
10
128.785995
20
20.837999
30
443.260010
70
192
0
VERTEX
8
OBJECT__17
10
128.725006
20
20.850000
30
443.756989
70
192
0
VERTEX
8
OBJECT__17
10
128.709000
20
20.851000
30
443.881989
70
192
0
VERTEX
8
OBJECT__17
10
128.701996
20
20.851000
30
443.944000
70
192
0
VERTEX
8
OBJECT__17
10
128.699997
20
20.851000
30
443.959015
70
192
0
VERTEX
8
OBJECT__17
10
127.827003
20
19.584999
30
451.063995
70
192
0
VERTEX
8
OBJECT__17
10
0
20
0
30
0
70
128
71
3
72
4
73
5
0
VERTEX
8
OBJECT__17
10
0
20
0
30
0
70
128
71
3
72
6
73
4
0
VERTEX
8
OBJECT__17
10
0
20
0
30
0
70
128
71
3
72
7
73
6
0
VERTEX
8
OBJECT__17
10
0
20
0
30
0
70
128
71
3
72
8
73
7
0
VERTEX
8
OBJECT__17
10
0
20
0
30
0
70
128
71
2
72
9
73
10
0
VERTEX
8
OBJECT__17
10
0
20
0
30
0
70
128
71
11
72
2
73
8
0
VERTEX
8
OBJECT__17
10
0
20
0
30
0
70
128
71
8
72
3
73
11
0
VERTEX
8
OBJECT__17
10
0
20
0
30
0
70
128
71
11
72
9
73
2
0
VERTEX
8
OBJECT__17
10
0
20
0
30
0
70
128
71
12
72
1
73
13
0
VERTEX
8
OBJECT__17
10
0
20
0
30
0
70
128
71
1
72
14
73
13
0
VERTEX
8
OBJECT__17
10
0
20
0
30
0
70
128
71
1
72
15
73
16
0
VERTEX
8
OBJECT__17
10
0
20
0
30
0
70
128
71
16
72
14
73
1
0
VERTEX
8
OBJECT__17
10
0
20
0
30
0
70
128
71
13
72
17
73
12
0
VERTEX
8
OBJECT__17
10
0
20
0
30
0
70
128
71
12
72
18
73
19
0
VERTEX
8
OBJECT__17
10
0
20
0
30
0
70
128
71
19
72
20
73
12
0
VERTEX
8
OBJECT__17
10
0
20
0
30
0
70
128
71
12
72
21
73
18
0
VERTEX
8
OBJECT__17
10
0
20
0
30
0
70
128
71
22
72
23
73
24
0
VERTEX
8
OBJECT__17
10
0
20
0
30
0
70
128
71
24
72
25
73
22
0
VERTEX
8
OBJECT__17
10
0
20
0
30
0
70
128
71
23
72
22
73
20
0
VERTEX
8
OBJECT__17
10
0
20
0
30
0
70
128
71
25
72
26
73
22
0
VERTEX
8
OBJECT__17
10
0
20
0
30
0
70
128
71
27
72
28
73
29
0
VERTEX
8
OBJECT__17
10
0
20
0
30
0
70
128
71
22
72
30
73
31
0
VERTEX
8
OBJECT__17
10
0
20
0
30
0
70
128
71
31
72
27
73
22
0
VERTEX
8
OBJECT__17
10
0
20
0
30
0
70
128
71
31
72
28
73
27
0
VERTEX
8
OBJECT__17
10
0
20
0
30
0
70
128
71
22
72
26
73
30
0
VERTEX
8
OBJECT__17
10
0
20
0
30
0
70
128
71
32
72
33
73
34
0
VERTEX
8
OBJECT__17
10
0
20
0
30
0
70
128
71
32
72
35
73
33
0
VERTEX
8
OBJECT__17
10
0
20
0
30
0
70
128
71
34
72
36
73
32
0
VERTEX
8
OBJECT__17
10
0
20
0
30
0
70
128
71
37
72
38
73
32
0
VERTEX
8
OBJECT__17
10
0
20
0
30
0
70
128
71
39
72
38
73
37
0
VERTEX
8
OBJECT__17
10
0
20
0
30
0
70
128
71
40
72
41
73
39
0
VERTEX
8
OBJECT__17
10
0
20
0
30
0
70
128
71
42
72
43
73
41
0
VERTEX
8
OBJECT__17
10
0
20
0
30
0
70
128
71
41
72
40
73
42
0
VERTEX
8
OBJECT__17
10
0
20
0
30
0
70
128
71
27
72
42
73
40
0
VERTEX
8
OBJECT__17
10
0
20
0
30
0
70
128
71
40
72
44
73
27
0
VERTEX
8
OBJECT__17
10
0
20
0
30
0
70
128
71
45
72
46
73
47
0
VERTEX
8
OBJECT__17
10
0
20
0
30
0
70
128
71
47
72
48
73
45
0
VERTEX
8
OBJECT__17
10
0
20
0
30
0
70
128
71
45
72
49
73
46
0
VERTEX
8
OBJECT__17
10
0
20
0
30
0
70
128
71
50
72
49
73
45
0
VERTEX
8
OBJECT__17
10
0
20
0
30
0
70
128
71
48
72
51
73
45
0
VERTEX
8
OBJECT__17
10
0
20
0
30
0
70
128
71
52
72
53
73
50
0
VERTEX
8
OBJECT__17
10
0
20
0
30
0
70
128
71
44
72
53
73
52
0
VERTEX
8
OBJECT__17
10
0
20
0
30
0
70
128
71
27
72
54
73
55
0
VERTEX
8
OBJECT__17
10
0
20
0
30
0
70
128
71
56
72
27
73
44
0
VERTEX
8
OBJECT__17
10
0
20
0
30
0
70
128
71
56
72
54
73
27
0
VERTEX
8
OBJECT__17
10
0
20
0
30
0
70
128
71
22
72
57
73
58
0
VERTEX
8
OBJECT__17
10
0
20
0
30
0
70
128
71
27
72
59
73
57
0
VERTEX
8
OBJECT__17
10
0
20
0
30
0
70
128
71
27
72
60
73
59
0
VERTEX
8
OBJECT__17
10
0
20
0
30
0
70
128
71
57
72
22
73
27
0
VERTEX
8
OBJECT__17
10
0
20
0
30
0
70
128
71
20
72
22
73
61
0
VERTEX
8
OBJECT__17
10
0
20
0
30
0
70
128
71
22
72
62
73
61
0
VERTEX
8
OBJECT__17
10
0
20
0
30
0
70
128
71
22
72
63
73
62
0
VERTEX
8
OBJECT__17
10
0
20
0
30
0
70
128
71
12
72
20
73
64
0
VERTEX
8
OBJECT__17
10
0
20
0
30
0
70
128
71
20
72
65
73
64
0
VERTEX
8
OBJECT__17
10
0
20
0
30
0
70
128
71
64
72
66
73
12
0
VERTEX
8
OBJECT__17
10
0
20
0
30
0
70
128
71
20
72
67
73
65
0
VERTEX
8
OBJECT__17
10
0
20
0
30
0
70
128
71
1
72
12
73
68
0
VERTEX
8
OBJECT__17
10
0
20
0
30
0
70
128
71
12
72
69
73
68
0
VERTEX
8
OBJECT__17
10
0
20
0
30
0
70
128
71
12
72
70
73
71
0
VERTEX
8
OBJECT__17
10
0
20
0
30
0
70
128
71
71
72
69
73
12
0
VERTEX
8
OBJECT__17
10
0
20
0
30
0
70
128
71
2
72
1
73
72
0
VERTEX
8
OBJECT__17
10
0
20
0
30
0
70
128
71
1
72
73
73
72
0
VERTEX
8
OBJECT__17
10
0
20
0
30
0
70
128
71
1
72
74
73
75
0
VERTEX
8
OBJECT__17
10
0
20
0
30
0
70
128
71
75
72
73
73
1
0
VERTEX
8
OBJECT__17
10
0
20
0
30
0
70
128
71
76
72
77
73
78
0
VERTEX
8
OBJECT__17
10
0
20
0
30
0
70
128
71
76
72
72
73
77
0
VERTEX
8
OBJECT__17
10
0
20
0
30
0
70
128
71
78
72
79
73
80
0
VERTEX
8
OBJECT__17
10
0
20
0
30
0
70
128
71
79
72
81
73
82
0
VERTEX
8
OBJECT__17
10
0
20
0
30
0
70
128
71
82
72
83
73
79
0
VERTEX
8
OBJECT__17
10
0
20
0
30
0
70
128
71
83
72
84
73
79
0
VERTEX
8
OBJECT__17
10
0
20
0
30
0
70
128
71
84
72
85
73
79
0
VERTEX
8
OBJECT__17
10
0
20
0
30
0
70
128
71
85
72
80
73
79
0
VERTEX
8
OBJECT__17
10
0
20
0
30
0
70
128
71
80
72
76
73
78
0
VERTEX
8
OBJECT__17
10
0
20
0
30
0
70
128
71
76
72
2
73
72
0
VERTEX
8
OBJECT__17
10
0
20
0
30
0
70
128
71
68
72
74
73
1
0
VERTEX
8
OBJECT__17
10
0
20
0
30
0
70
128
71
66
72
70
73
12
0
VERTEX
8
OBJECT__17
10
0
20
0
30
0
70
128
71
61
72
67
73
20
0
VERTEX
8
OBJECT__17
10
0
20
0
30
0
70
128
71
58
72
63
73
22
0
VERTEX
8
OBJECT__17
10
0
20
0
30
0
70
128
71
55
72
60
73
27
0
VERTEX
8
OBJECT__17
10
0
20
0
30
0
70
128
71
52
72
56
73
44
0
VERTEX
8
OBJECT__17
10
0
20
0
30
0
70
128
71
50
72
45
73
52
0
VERTEX
8
OBJECT__17
10
0
20
0
30
0
70
128
71
37
72
40
73
39
0
VERTEX
8
OBJECT__17
10
0
20
0
30
0
70
128
71
36
72
37
73
32
0
VERTEX
8
OBJECT__17
10
0
20
0
30
0
70
128
71
43
72
42
73
29
0
VERTEX
8
OBJECT__17
10
0
20
0
30
0
70
128
71
29
72
42
73
27
0
VERTEX
8
OBJECT__17
10
0
20
0
30
0
70
128
71
19
72
23
73
20
0
VERTEX
8
OBJECT__17
10
0
20
0
30
0
70
128
71
17
72
21
73
12
0
VERTEX
8
OBJECT__17
10
0
20
0
30
0
70
128
71
16
72
15
73
10
0
VERTEX
8
OBJECT__17
10
0
20
0
30
0
70
128
71
10
72
15
73
2
0
VERTEX
8
OBJECT__17
10
0
20
0
30
0
70
128
71
5
72
86
73
3
0
VERTEX
8
OBJECT__17
10
0
20
0
30
0
70
128
71
2
72
15
73
1
0
SEQEND
8
OBJECT__17
0
POLYLINE
8
OBJECT__18
66
1
70
64
71
32
72
30
62
253
0
VERTEX
8
OBJECT__18
10
37.178001
20
-20.038000
30
438.537994
70
192
0
VERTEX
8
OBJECT__18
10
22.451000
20
-19.582001
30
437.648010
70
192
0
VERTEX
8
OBJECT__18
10
27.476999
20
-20.837000
30
430.558014
70
192
0
VERTEX
8
OBJECT__18
10
37.967999
20
-20.837000
30
432.109009
70
192
0
VERTEX
8
OBJECT__18
10
19.469999
20
-19.582001
30
436.696991
70
192
0
VERTEX
8
OBJECT__18
10
21.816999
20
-20.836000
30
428.881012
70
192
0
VERTEX
8
OBJECT__18
10
23.555000
20
-20.836000
30
429.395996
70
192
0
VERTEX
8
OBJECT__18
10
17.666000
20
-19.582001
30
436.121002
70
192
0
VERTEX
8
OBJECT__18
10
12.298000
20
-19.582001
30
434.407013
70
192
0
VERTEX
8
OBJECT__18
10
18.002001
20
-20.834999
30
427.751007
70
192
0
VERTEX
8
OBJECT__18
10
11.101000
20
-19.584999
30
433.694000
70
192
0
VERTEX
8
OBJECT__18
10
4.605000
20
-19.603001
30
429.825989
70
192
0
VERTEX
8
OBJECT__18
10
11.447000
20
-20.827000
30
423.966003
70
192
0
VERTEX
8
OBJECT__18
10
9.570000
20
-20.820999
30
422.057007
70
192
0
VERTEX
8
OBJECT__18
10
10.523000
20
-20.823999
30
423.026001
70
192
0
VERTEX
8
OBJECT__18
10
3.659000
20
-19.607000
30
428.856995
70
192
0
VERTEX
8
OBJECT__18
10
2.813000
20
-19.610001
30
427.989990
70
192
0
VERTEX
8
OBJECT__18
10
-0.746000
20
-19.625000
30
424.342987
70
192
0
VERTEX
8
OBJECT__18
10
6.771000
20
-20.812000
30
419.209991
70
192
0
VERTEX
8
OBJECT__18
10
3.855000
20
-20.799000
30
413.928009
70
192
0
VERTEX
8
OBJECT__18
10
-2.014000
20
-19.628000
30
422.062988
70
192
0
VERTEX
8
OBJECT__18
10
-5.219000
20
-19.624001
30
414.373993
70
192
0
VERTEX
8
OBJECT__18
10
3.110000
20
-20.796000
30
410.947998
70
192
0
VERTEX
8
OBJECT__18
10
-4.317000
20
-19.634001
30
417.921997
70
192
0
VERTEX
8
OBJECT__18
10
-6.557000
20
-19.611000
30
409.113007
70
192
0
VERTEX
8
OBJECT__18
10
2.022000
20
-20.792000
30
406.596985
70
192
0
VERTEX
8
OBJECT__18
10
3.058000
20
-20.796000
30
410.740997
70
192
0
VERTEX
8
OBJECT__18
10
-5.347000
20
-19.622999
30
413.872986
70
192
0
VERTEX
8
OBJECT__18
10
-7.064000
20
-19.615999
30
396.183990
70
192
0
VERTEX
8
OBJECT__18
10
1.562000
20
-20.790001
30
396.183990
70
192
0
VERTEX
8
OBJECT__18
10
-7.149000
20
-19.584999
30
396.183990
70
192
0
VERTEX
8
OBJECT__18
10
37.008999
20
-19.583000
30
439.912994
70
192
0
VERTEX
8
OBJECT__18
10
0
20
0
30
0
70
128
71
1
72
2
73
3
0
VERTEX
8
OBJECT__18
10
0
20
0
30
0
70
128
71
3
72
4
73
1
0
VERTEX
8
OBJECT__18
10
0
20
0
30
0
70
128
71
5
72
6
73
7
0
VERTEX
8
OBJECT__18
10
0
20
0
30
0
70
128
71
7
72
2
73
5
0
VERTEX
8
OBJECT__18
10
0
20
0
30
0
70
128
71
5
72
8
73
6
0
VERTEX
8
OBJECT__18
10
0
20
0
30
0
70
128
71
7
72
3
73
2
0
VERTEX
8
OBJECT__18
10
0
20
0
30
0
70
128
71
8
72
9
73
10
0
VERTEX
8
OBJECT__18
10
0
20
0
30
0
70
128
71
11
72
12
73
13
0
VERTEX
8
OBJECT__18
10
0
20
0
30
0
70
128
71
10
72
9
73
11
0
VERTEX
8
OBJECT__18
10
0
20
0
30
0
70
128
71
13
72
10
73
11
0
VERTEX
8
OBJECT__18
10
0
20
0
30
0
70
128
71
14
72
15
73
16
0
VERTEX
8
OBJECT__18
10
0
20
0
30
0
70
128
71
12
72
16
73
15
0
VERTEX
8
OBJECT__18
10
0
20
0
30
0
70
128
71
15
72
13
73
12
0
VERTEX
8
OBJECT__18
10
0
20
0
30
0
70
128
71
16
72
17
73
14
0
VERTEX
8
OBJECT__18
10
0
20
0
30
0
70
128
71
17
72
18
73
19
0
VERTEX
8
OBJECT__18
10
0
20
0
30
0
70
128
71
20
72
19
73
21
0
VERTEX
8
OBJECT__18
10
0
20
0
30
0
70
128
71
19
72
18
73
21
0
VERTEX
8
OBJECT__18
10
0
20
0
30
0
70
128
71
22
72
23
73
20
0
VERTEX
8
OBJECT__18
10
0
20
0
30
0
70
128
71
20
72
24
73
22
0
VERTEX
8
OBJECT__18
10
0
20
0
30
0
70
128
71
21
72
24
73
20
0
VERTEX
8
OBJECT__18
10
0
20
0
30
0
70
128
71
25
72
26
73
27
0
VERTEX
8
OBJECT__18
10
0
20
0
30
0
70
128
71
27
72
28
73
25
0
VERTEX
8
OBJECT__18
10
0
20
0
30
0
70
128
71
23
72
22
73
28
0
VERTEX
8
OBJECT__18
10
0
20
0
30
0
70
128
71
29
72
30
73
26
0
VERTEX
8
OBJECT__18
10
0
20
0
30
0
70
128
71
25
72
31
73
29
0
VERTEX
8
OBJECT__18
10
0
20
0
30
0
70
128
71
26
72
25
73
29
0
VERTEX
8
OBJECT__18
10
0
20
0
30
0
70
128
71
27
72
23
73
28
0
VERTEX
8
OBJECT__18
10
0
20
0
30
0
70
128
71
19
72
14
73
17
0
VERTEX
8
OBJECT__18
10
0
20
0
30
0
70
128
71
10
72
6
73
8
0
VERTEX
8
OBJECT__18
10
0
20
0
30
0
70
128
71
1
72
32
73
2
0
SEQEND
8
OBJECT__18
0
POLYLINE
8
OBJECT__19
66
1
70
64
71
33
72
34
62
253
0
VERTEX
8
OBJECT__19
10
24.698999
20
-19.386999
30
426.592010
70
192
0
VERTEX
8
OBJECT__19
10
13.891000
20
-19.266001
30
420.415009
70
192
0
VERTEX
8
OBJECT__19
10
19.308001
20
-13.312000
30
421.049011
70
192
0
VERTEX
8
OBJECT__19
10
25.076000
20
-13.312000
30
423.337006
70
192
0
VERTEX
8
OBJECT__19
10
15.101000
20
-13.312000
30
417.704987
70
192
0
VERTEX
8
OBJECT__19
10
7.322000
20
-18.959999
30
396.183990
70
192
0
VERTEX
8
OBJECT__19
10
8.500000
20
-13.312000
30
396.183990
70
192
0
VERTEX
8
OBJECT__19
10
8.900000
20
-13.312000
30
405.023987
70
192
0
VERTEX
8
OBJECT__19
10
8.114000
20
-19.059000
30
409.476013
70
192
0
VERTEX
8
OBJECT__19
10
18.002001
20
-20.834999
30
427.751007
70
192
0
VERTEX
8
OBJECT__19
10
11.447000
20
-20.827000
30
423.966003
70
192
0
VERTEX
8
OBJECT__19
10
21.816999
20
-20.836000
30
428.881012
70
192
0
VERTEX
8
OBJECT__19
10
23.555000
20
-20.836000
30
429.395996
70
192
0
VERTEX
8
OBJECT__19
10
2.022000
20
-20.792000
30
406.596985
70
192
0
VERTEX
8
OBJECT__19
10
3.058000
20
-20.796000
30
410.740997
70
192
0
VERTEX
8
OBJECT__19
10
38.578999
20
-16.296000
30
427.132996
70
192
0
VERTEX
8
OBJECT__19
10
27.004999
20
-13.312000
30
424.101990
70
192
0
VERTEX
8
OBJECT__19
10
38.709000
20
-13.312000
30
426.074005
70
192
0
VERTEX
8
OBJECT__19
10
25.257999
20
-13.312000
30
423.408997
70
192
0
VERTEX
8
OBJECT__19
10
14.100000
20
-13.312000
30
416.910004
70
192
0
VERTEX
8
OBJECT__19
10
14.928000
20
-13.312000
30
417.567993
70
192
0
VERTEX
8
OBJECT__19
10
10.689000
20
-13.312000
30
411.638000
70
192
0
VERTEX
8
OBJECT__19
10
9.739000
20
-13.312000
30
408.123993
70
192
0
VERTEX
8
OBJECT__19
10
9.746000
20
-13.312000
30
408.149994
70
192
0
VERTEX
8
OBJECT__19
10
9.570000
20
-20.820999
30
422.057007
70
192
0
VERTEX
8
OBJECT__19
10
6.771000
20
-20.812000
30
419.209991
70
192
0
VERTEX
8
OBJECT__19
10
3.855000
20
-20.799000
30
413.928009
70
192
0
VERTEX
8
OBJECT__19
10
10.523000
20
-20.823999
30
423.026001
70
192
0
VERTEX
8
OBJECT__19
10
3.110000
20
-20.796000
30
410.947998
70
192
0
VERTEX
8
OBJECT__19
10
38.255001
20
-18.698999
30
429.765991
70
192
0
VERTEX
8
OBJECT__19
10
37.967999
20
-20.837000
30
432.109009
70
192
0
VERTEX
8
OBJECT__19
10
27.476999
20
-20.837000
30
430.558014
70
192
0
VERTEX
8
OBJECT__19
10
1.562000
20
-20.790001
30
396.183990
70
192
0
VERTEX
8
OBJECT__19
10
0
20
0
30
0
70
128
71
1
72
2
73
3
0
VERTEX
8
OBJECT__19
10
0
20
0
30
0
70
128
71
3
72
4
73
1
0
VERTEX
8
OBJECT__19
10
0
20
0
30
0
70
128
71
2
72
5
73
3
0
VERTEX
8
OBJECT__19
10
0
20
0
30
0
70
128
71
6
72
7
73
8
0
VERTEX
8
OBJECT__19
10
0
20
0
30
0
70
128
71
8
72
9
73
6
0
VERTEX
8
OBJECT__19
10
0
20
0
30
0
70
128
71
2
72
10
73
11
0
VERTEX
8
OBJECT__19
10
0
20
0
30
0
70
128
71
1
72
12
73
10
0
VERTEX
8
OBJECT__19
10
0
20
0
30
0
70
128
71
10
72
2
73
1
0
VERTEX
8
OBJECT__19
10
0
20
0
30
0
70
128
71
1
72
13
73
12
0
VERTEX
8
OBJECT__19
10
0
20
0
30
0
70
128
71
6
72
9
73
14
0
VERTEX
8
OBJECT__19
10
0
20
0
30
0
70
128
71
9
72
15
73
14
0
VERTEX
8
OBJECT__19
10
0
20
0
30
0
70
128
71
16
72
1
73
17
0
VERTEX
8
OBJECT__19
10
0
20
0
30
0
70
128
71
17
72
18
73
16
0
VERTEX
8
OBJECT__19
10
0
20
0
30
0
70
128
71
1
72
19
73
17
0
VERTEX
8
OBJECT__19
10
0
20
0
30
0
70
128
71
2
72
20
73
21
0
VERTEX
8
OBJECT__19
10
0
20
0
30
0
70
128
71
2
72
9
73
22
0
VERTEX
8
OBJECT__19
10
0
20
0
30
0
70
128
71
9
72
23
73
24
0
VERTEX
8
OBJECT__19
10
0
20
0
30
0
70
128
71
24
72
22
73
9
0
VERTEX
8
OBJECT__19
10
0
20
0
30
0
70
128
71
22
72
20
73
2
0
VERTEX
8
OBJECT__19
10
0
20
0
30
0
70
128
71
2
72
25
73
26
0
VERTEX
8
OBJECT__19
10
0
20
0
30
0
70
128
71
26
72
9
73
2
0
VERTEX
8
OBJECT__19
10
0
20
0
30
0
70
128
71
26
72
27
73
9
0
VERTEX
8
OBJECT__19
10
0
20
0
30
0
70
128
71
2
72
28
73
25
0
VERTEX
8
OBJECT__19
10
0
20
0
30
0
70
128
71
27
72
29
73
9
0
VERTEX
8
OBJECT__19
10
0
20
0
30
0
70
128
71
30
72
31
73
32
0
VERTEX
8
OBJECT__19
10
0
20
0
30
0
70
128
71
32
72
1
73
30
0
VERTEX
8
OBJECT__19
10
0
20
0
30
0
70
128
71
32
72
13
73
1
0
VERTEX
8
OBJECT__19
10
0
20
0
30
0
70
128
71
29
72
15
73
9
0
VERTEX
8
OBJECT__19
10
0
20
0
30
0
70
128
71
21
72
5
73
2
0
VERTEX
8
OBJECT__19
10
0
20
0
30
0
70
128
71
16
72
30
73
1
0
VERTEX
8
OBJECT__19
10
0
20
0
30
0
70
128
71
14
72
33
73
6
0
VERTEX
8
OBJECT__19
10
0
20
0
30
0
70
128
71
11
72
28
73
2
0
VERTEX
8
OBJECT__19
10
0
20
0
30
0
70
128
71
8
72
23
73
9
0
VERTEX
8
OBJECT__19
10
0
20
0
30
0
70
128
71
4
72
19
73
1
0
SEQEND
8
OBJECT__19
0
POLYLINE
8
OBJECT__20
66
1
70
64
71
11
72
9
62
253
0
VERTEX
8
OBJECT__20
10
129.397003
20
-16.296000
30
438.283997
70
192
0
VERTEX
8
OBJECT__20
10
128.996994
20
-19.264999
30
441.536011
70
192
0
VERTEX
8
OBJECT__20
10
38.255001
20
-18.698999
30
429.765991
70
192
0
VERTEX
8
OBJECT__20
10
37.967999
20
-20.837000
30
432.109009
70
192
0
VERTEX
8
OBJECT__20
10
128.785995
20
-20.837999
30
443.260010
70
192
0
VERTEX
8
OBJECT__20
10
38.916000
20
0.000000
30
424.384003
70
192
0
VERTEX
8
OBJECT__20
10
129.733994
20
0.000000
30
435.535004
70
192
0
VERTEX
8
OBJECT__20
10
129.591995
20
-9.148000
30
436.696014
70
192
0
VERTEX
8
OBJECT__20
10
38.709000
20
-13.312000
30
426.074005
70
192
0
VERTEX
8
OBJECT__20
10
38.578999
20
-16.296000
30
427.132996
70
192
0
VERTEX
8
OBJECT__20
10
129.526993
20
-13.312000
30
437.225006
70
192
0
VERTEX
8
OBJECT__20
10
0
20
0
30
0
70
128
71
1
72
2
73
3
0
VERTEX
8
OBJECT__20
10
0
20
0
30
0
70
128
71
4
72
3
73
2
0
VERTEX
8
OBJECT__20
10
0
20
0
30
0
70
128
71
2
72
5
73
4
0
VERTEX
8
OBJECT__20
10
0
20
0
30
0
70
128
71
6
72
7
73
8
0
VERTEX
8
OBJECT__20
10
0
20
0
30
0
70
128
71
8
72
9
73
6
0
VERTEX
8
OBJECT__20
10
0
20
0
30
0
70
128
71
1
72
10
73
9
0
VERTEX
8
OBJECT__20
10
0
20
0
30
0
70
128
71
9
72
11
73
1
0
VERTEX
8
OBJECT__20
10
0
20
0
30
0
70
128
71
8
72
11
73
9
0
VERTEX
8
OBJECT__20
10
0
20
0
30
0
70
128
71
3
72
10
73
1
0
SEQEND
8
OBJECT__20
0
POLYLINE
8
OBJECT__21
66
1
70
64
71
17
72
15
62
253
0
VERTEX
8
OBJECT__21
10
128.709000
20
20.851000
30
443.881989
70
192
0
VERTEX
8
OBJECT__21
10
128.725006
20
20.850000
30
443.756989
70
192
0
VERTEX
8
OBJECT__21
10
128.785995
20
20.837999
30
443.260010
70
192
0
VERTEX
8
OBJECT__21
10
128.701996
20
20.851000
30
443.944000
70
192
0
VERTEX
8
OBJECT__21
10
128.699997
20
20.851000
30
443.959015
70
192
0
VERTEX
8
OBJECT__21
10
128.699005
20
20.851000
30
443.967010
70
192
0
VERTEX
8
OBJECT__21
10
37.967999
20
20.837000
30
432.109009
70
192
0
VERTEX
8
OBJECT__21
10
128.697998
20
20.851000
30
443.971008
70
192
0
VERTEX
8
OBJECT__21
10
128.699005
20
20.851000
30
443.968994
70
192
0
VERTEX
8
OBJECT__21
10
128.694000
20
20.851000
30
444.006012
70
192
0
VERTEX
8
OBJECT__21
10
128.697998
20
20.851000
30
443.975006
70
192
0
VERTEX
8
OBJECT__21
10
37.789001
20
20.836000
30
433.566986
70
192
0
VERTEX
8
OBJECT__21
10
128.664001
20
20.849001
30
444.253998
70
192
0
VERTEX
8
OBJECT__21
10
128.542007
20
20.811001
30
445.247986
70
192
0
VERTEX
8
OBJECT__21
10
37.008999
20
19.584000
30
439.911987
70
192
0
VERTEX
8
OBJECT__21
10
127.827003
20
19.584999
30
451.063995
70
192
0
VERTEX
8
OBJECT__21
10
128.397003
20
20.704000
30
446.427002
70
192
0
VERTEX
8
OBJECT__21
10
0
20
0
30
0
70
128
71
1
72
2
73
3
0
VERTEX
8
OBJECT__21
10
0
20
0
30
0
70
128
71
3
72
4
73
1
0
VERTEX
8
OBJECT__21
10
0
20
0
30
0
70
128
71
5
72
4
73
3
0
VERTEX
8
OBJECT__21
10
0
20
0
30
0
70
128
71
3
72
6
73
5
0
VERTEX
8
OBJECT__21
10
0
20
0
30
0
70
128
71
7
72
8
73
6
0
VERTEX
8
OBJECT__21
10
0
20
0
30
0
70
128
71
6
72
3
73
7
0
VERTEX
8
OBJECT__21
10
0
20
0
30
0
70
128
71
8
72
9
73
6
0
VERTEX
8
OBJECT__21
10
0
20
0
30
0
70
128
71
7
72
10
73
11
0
VERTEX
8
OBJECT__21
10
0
20
0
30
0
70
128
71
11
72
8
73
7
0
VERTEX
8
OBJECT__21
10
0
20
0
30
0
70
128
71
12
72
13
73
10
0
VERTEX
8
OBJECT__21
10
0
20
0
30
0
70
128
71
10
72
7
73
12
0
VERTEX
8
OBJECT__21
10
0
20
0
30
0
70
128
71
12
72
14
73
13
0
VERTEX
8
OBJECT__21
10
0
20
0
30
0
70
128
71
15
72
16
73
17
0
VERTEX
8
OBJECT__21
10
0
20
0
30
0
70
128
71
17
72
12
73
15
0
VERTEX
8
OBJECT__21
10
0
20
0
30
0
70
128
71
17
72
14
73
12
0
SEQEND
8
OBJECT__21
0
POLYLINE
8
OBJECT__22
66
1
70
64
71
52
72
64
62
253
0
VERTEX
8
OBJECT__22
10
147.733002
20
7.745000
30
445.588013
70
192
0
VERTEX
8
OBJECT__22
10
148.964005
20
-0.189000
30
443.287994
70
192
0
VERTEX
8
OBJECT__22
10
145.570999
20
-0.154000
30
440.269989
70
192
0
VERTEX
8
OBJECT__22
10
148.820007
20
5.175000
30
445.721985
70
192
0
VERTEX
8
OBJECT__22
10
149.440994
20
-0.199000
30
445.796997
70
192
0
VERTEX
8
OBJECT__22
10
138.772003
20
-0.087000
30
437.412994
70
192
0
VERTEX
8
OBJECT__22
10
140.888000
20
11.469000
30
439.695007
70
192
0
VERTEX
8
OBJECT__22
10
144.384003
20
6.130000
30
440.123993
70
192
0
VERTEX
8
OBJECT__22
10
135.621994
20
15.041000
30
439.048004
70
192
0
VERTEX
8
OBJECT__22
10
138.988007
20
17.877001
30
444.513000
70
192
0
VERTEX
8
OBJECT__22
10
142.634003
20
15.477000
30
444.959991
70
192
0
VERTEX
8
OBJECT__22
10
136.723007
20
19.149000
30
444.234985
70
192
0
VERTEX
8
OBJECT__22
10
137.287003
20
18.996000
30
444.303986
70
192
0
VERTEX
8
OBJECT__22
10
143.378006
20
14.580000
30
445.052002
70
192
0
VERTEX
8
OBJECT__22
10
146.371994
20
10.966000
30
445.420990
70
192
0
VERTEX
8
OBJECT__22
10
146.615005
20
10.392000
30
445.450989
70
192
0
VERTEX
8
OBJECT__22
10
129.386002
20
16.263000
30
438.368011
70
192
0
VERTEX
8
OBJECT__22
10
132.845001
20
20.202000
30
443.759003
70
192
0
VERTEX
8
OBJECT__22
10
130.039993
20
20.774000
30
443.414001
70
192
0
VERTEX
8
OBJECT__22
10
130.901001
20
20.729000
30
443.519989
70
192
0
VERTEX
8
OBJECT__22
10
129.134995
20
20.820000
30
443.303009
70
192
0
VERTEX
8
OBJECT__22
10
129.334000
20
17.368000
30
438.795013
70
192
0
VERTEX
8
OBJECT__22
10
128.785995
20
20.837999
30
443.260010
70
192
0
VERTEX
8
OBJECT__22
10
129.526993
20
13.312000
30
437.225006
70
192
0
VERTEX
8
OBJECT__22
10
129.697006
20
5.928000
30
435.841003
70
192
0
VERTEX
8
OBJECT__22
10
129.733994
20
0.000000
30
435.535004
70
192
0
VERTEX
8
OBJECT__22
10
135.339005
20
-15.157000
30
439.013000
70
192
0
VERTEX
8
OBJECT__22
10
132.996002
20
-8.556000
30
436.704010
70
192
0
VERTEX
8
OBJECT__22
10
136.005997
20
-6.596000
30
437.074005
70
192
0
VERTEX
8
OBJECT__22
10
144.266006
20
-6.413000
30
440.109009
70
192
0
VERTEX
8
OBJECT__22
10
140.671005
20
-11.685000
30
439.667999
70
192
0
VERTEX
8
OBJECT__22
10
142.940994
20
-14.364000
30
442.548004
70
192
0
VERTEX
8
OBJECT__22
10
136.386993
20
-18.631001
30
441.743011
70
192
0
VERTEX
8
OBJECT__22
10
147.360001
20
-7.883000
30
443.091003
70
192
0
VERTEX
8
OBJECT__22
10
146.522003
20
-10.335000
30
445.438995
70
192
0
VERTEX
8
OBJECT__22
10
145.541000
20
-12.216000
30
445.319000
70
192
0
VERTEX
8
OBJECT__22
10
147.671005
20
-8.133000
30
445.580994
70
192
0
VERTEX
8
OBJECT__22
10
140.897003
20
-16.891001
30
444.746002
70
192
0
VERTEX
8
OBJECT__22
10
138.998993
20
-17.850000
30
444.513000
70
192
0
VERTEX
8
OBJECT__22
10
143.018005
20
-14.756000
30
445.006989
70
192
0
VERTEX
8
OBJECT__22
10
149.464005
20
-0.401000
30
445.799011
70
192
0
VERTEX
8
OBJECT__22
10
148.274994
20
-6.973000
30
445.654999
70
192
0
VERTEX
8
OBJECT__22
10
128.996994
20
-19.264999
30
441.536011
70
192
0
VERTEX
8
OBJECT__22
10
131.595001
20
-20.406000
30
443.604004
70
192
0
VERTEX
8
OBJECT__22
10
129.401001
20
-20.743000
30
443.335999
70
192
0
VERTEX
8
OBJECT__22
10
134.322998
20
-19.986000
30
443.937988
70
192
0
VERTEX
8
OBJECT__22
10
136.300003
20
-19.212000
30
444.181000
70
192
0
VERTEX
8
OBJECT__22
10
134.960999
20
-19.888000
30
444.016998
70
192
0
VERTEX
8
OBJECT__22
10
129.397003
20
-16.296000
30
438.283997
70
192
0
VERTEX
8
OBJECT__22
10
129.526993
20
-13.312000
30
437.225006
70
192
0
VERTEX
8
OBJECT__22
10
129.591995
20
-9.148000
30
436.696014
70
192
0
VERTEX
8
OBJECT__22
10
128.785995
20
-20.837999
30
443.260010
70
192
0
VERTEX
8
OBJECT__22
10
0
20
0
30
0
70
128
71
1
72
2
73
3
0
VERTEX
8
OBJECT__22
10
0
20
0
30
0
70
128
71
2
72
1
73
4
0
VERTEX
8
OBJECT__22
10
0
20
0
30
0
70
128
71
4
72
5
73
2
0
VERTEX
8
OBJECT__22
10
0
20
0
30
0
70
128
71
6
72
7
73
8
0
VERTEX
8
OBJECT__22
10
0
20
0
30
0
70
128
71
8
72
3
73
6
0
VERTEX
8
OBJECT__22
10
0
20
0
30
0
70
128
71
7
72
9
73
10
0
VERTEX
8
OBJECT__22
10
0
20
0
30
0
70
128
71
10
72
11
73
7
0
VERTEX
8
OBJECT__22
10
0
20
0
30
0
70
128
71
9
72
12
73
13
0
VERTEX
8
OBJECT__22
10
0
20
0
30
0
70
128
71
13
72
10
73
9
0
VERTEX
8
OBJECT__22
10
0
20
0
30
0
70
128
71
7
72
14
73
15
0
VERTEX
8
OBJECT__22
10
0
20
0
30
0
70
128
71
15
72
8
73
7
0
VERTEX
8
OBJECT__22
10
0
20
0
30
0
70
128
71
15
72
16
73
8
0
VERTEX
8
OBJECT__22
10
0
20
0
30
0
70
128
71
9
72
17
73
18
0
VERTEX
8
OBJECT__22
10
0
20
0
30
0
70
128
71
17
72
19
73
20
0
VERTEX
8
OBJECT__22
10
0
20
0
30
0
70
128
71
20
72
18
73
17
0
VERTEX
8
OBJECT__22
10
0
20
0
30
0
70
128
71
21
72
17
73
22
0
VERTEX
8
OBJECT__22
10
0
20
0
30
0
70
128
71
22
72
23
73
21
0
VERTEX
8
OBJECT__22
10
0
20
0
30
0
70
128
71
21
72
19
73
17
0
VERTEX
8
OBJECT__22
10
0
20
0
30
0
70
128
71
24
72
17
73
9
0
VERTEX
8
OBJECT__22
10
0
20
0
30
0
70
128
71
7
72
25
73
24
0
VERTEX
8
OBJECT__22
10
0
20
0
30
0
70
128
71
7
72
26
73
25
0
VERTEX
8
OBJECT__22
10
0
20
0
30
0
70
128
71
27
72
28
73
29
0
VERTEX
8
OBJECT__22
10
0
20
0
30
0
70
128
71
30
72
31
73
29
0
VERTEX
8
OBJECT__22
10
0
20
0
30
0
70
128
71
6
72
3
73
30
0
VERTEX
8
OBJECT__22
10
0
20
0
30
0
70
128
71
32
72
31
73
30
0
VERTEX
8
OBJECT__22
10
0
20
0
30
0
70
128
71
33
72
27
73
31
0
VERTEX
8
OBJECT__22
10
0
20
0
30
0
70
128
71
34
72
30
73
3
0
VERTEX
8
OBJECT__22
10
0
20
0
30
0
70
128
71
34
72
35
73
36
0
VERTEX
8
OBJECT__22
10
0
20
0
30
0
70
128
71
36
72
32
73
34
0
VERTEX
8
OBJECT__22
10
0
20
0
30
0
70
128
71
34
72
37
73
35
0
VERTEX
8
OBJECT__22
10
0
20
0
30
0
70
128
71
32
72
38
73
39
0
VERTEX
8
OBJECT__22
10
0
20
0
30
0
70
128
71
32
72
40
73
38
0
VERTEX
8
OBJECT__22
10
0
20
0
30
0
70
128
71
39
72
33
73
32
0
VERTEX
8
OBJECT__22
10
0
20
0
30
0
70
128
71
2
72
41
73
42
0
VERTEX
8
OBJECT__22
10
0
20
0
30
0
70
128
71
42
72
34
73
2
0
VERTEX
8
OBJECT__22
10
0
20
0
30
0
70
128
71
2
72
5
73
41
0
VERTEX
8
OBJECT__22
10
0
20
0
30
0
70
128
71
43
72
44
73
45
0
VERTEX
8
OBJECT__22
10
0
20
0
30
0
70
128
71
33
72
46
73
44
0
VERTEX
8
OBJECT__22
10
0
20
0
30
0
70
128
71
44
72
43
73
33
0
VERTEX
8
OBJECT__22
10
0
20
0
30
0
70
128
71
33
72
47
73
48
0
VERTEX
8
OBJECT__22
10
0
20
0
30
0
70
128
71
48
72
46
73
33
0
VERTEX
8
OBJECT__22
10
0
20
0
30
0
70
128
71
43
72
49
73
27
0
VERTEX
8
OBJECT__22
10
0
20
0
30
0
70
128
71
28
72
27
73
50
0
VERTEX
8
OBJECT__22
10
0
20
0
30
0
70
128
71
27
72
49
73
50
0
VERTEX
8
OBJECT__22
10
0
20
0
30
0
70
128
71
26
72
29
73
28
0
VERTEX
8
OBJECT__22
10
0
20
0
30
0
70
128
71
28
72
51
73
26
0
VERTEX
8
OBJECT__22
10
0
20
0
30
0
70
128
71
50
72
51
73
28
0
VERTEX
8
OBJECT__22
10
0
20
0
30
0
70
128
71
27
72
33
73
43
0
VERTEX
8
OBJECT__22
10
0
20
0
30
0
70
128
71
45
72
52
73
43
0
VERTEX
8
OBJECT__22
10
0
20
0
30
0
70
128
71
42
72
37
73
34
0
VERTEX
8
OBJECT__22
10
0
20
0
30
0
70
128
71
39
72
47
73
33
0
VERTEX
8
OBJECT__22
10
0
20
0
30
0
70
128
71
36
72
40
73
32
0
VERTEX
8
OBJECT__22
10
0
20
0
30
0
70
128
71
3
72
2
73
34
0
VERTEX
8
OBJECT__22
10
0
20
0
30
0
70
128
71
31
72
32
73
33
0
VERTEX
8
OBJECT__22
10
0
20
0
30
0
70
128
71
30
72
34
73
32
0
VERTEX
8
OBJECT__22
10
0
20
0
30
0
70
128
71
29
72
6
73
30
0
VERTEX
8
OBJECT__22
10
0
20
0
30
0
70
128
71
29
72
31
73
27
0
VERTEX
8
OBJECT__22
10
0
20
0
30
0
70
128
71
29
72
26
73
6
0
VERTEX
8
OBJECT__22
10
0
20
0
30
0
70
128
71
9
72
7
73
24
0
VERTEX
8
OBJECT__22
10
0
20
0
30
0
70
128
71
18
72
12
73
9
0
VERTEX
8
OBJECT__22
10
0
20
0
30
0
70
128
71
16
72
1
73
8
0
VERTEX
8
OBJECT__22
10
0
20
0
30
0
70
128
71
11
72
14
73
7
0
VERTEX
8
OBJECT__22
10
0
20
0
30
0
70
128
71
6
72
26
73
7
0
VERTEX
8
OBJECT__22
10
0
20
0
30
0
70
128
71
3
72
8
73
1
0
SEQEND
8
OBJECT__22
0
POLYLINE
8
OBJECT__23
66
1
70
64
71
42
72
46
62
253
0
VERTEX
8
OBJECT__23
10
8.500000
20
-13.312000
30
396.183990
70
192
0
VERTEX
8
OBJECT__23
10
7.322000
20
-18.959999
30
396.183990
70
192
0
VERTEX
8
OBJECT__23
10
7.360000
20
-18.962000
30
370.880005
70
192
0
VERTEX
8
OBJECT__23
10
8.863000
20
-13.279000
30
348.628998
70
192
0
VERTEX
8
OBJECT__23
10
7.935000
20
-18.757000
30
345.653015
70
192
0
VERTEX
8
OBJECT__23
10
8.864000
20
-13.279000
30
348.455994
70
192
0
VERTEX
8
OBJECT__23
10
20.688999
20
0.000000
30
306.808990
70
192
0
VERTEX
8
OBJECT__23
10
19.712999
20
-6.120000
30
308.141998
70
192
0
VERTEX
8
OBJECT__23
10
20.273001
20
-4.870000
30
305.080994
70
192
0
VERTEX
8
OBJECT__23
10
19.681000
20
-6.400000
30
305.665009
70
192
0
VERTEX
8
OBJECT__23
10
12.374000
20
-16.195000
30
321.420990
70
192
0
VERTEX
8
OBJECT__23
10
11.651000
20
-12.601000
30
325.660004
70
192
0
VERTEX
8
OBJECT__23
10
11.298000
20
-12.705000
30
327.532990
70
192
0
VERTEX
8
OBJECT__23
10
9.236000
20
-18.143000
30
333.239014
70
192
0
VERTEX
8
OBJECT__23
10
9.838000
20
-13.133000
30
335.269012
70
192
0
VERTEX
8
OBJECT__23
10
11.917000
20
-12.451000
30
324.894012
70
192
0
VERTEX
8
OBJECT__23
10
17.431999
20
-10.872000
30
311.502991
70
192
0
VERTEX
8
OBJECT__23
10
16.170000
20
-9.117000
30
314.415985
70
192
0
VERTEX
8
OBJECT__23
10
14.196000
20
-11.164000
30
318.326996
70
192
0
VERTEX
8
OBJECT__23
10
18.389000
20
-5.392000
30
310.545990
70
192
0
VERTEX
8
OBJECT__23
10
16.930000
20
-8.329000
30
312.911011
70
192
0
VERTEX
8
OBJECT__23
10
9.741000
20
-13.147000
30
336.574005
70
192
0
VERTEX
8
OBJECT__23
10
8.865000
20
-13.279000
30
348.381989
70
192
0
VERTEX
8
OBJECT__23
10
18.275000
20
-10.035000
30
307.053009
70
192
0
VERTEX
8
OBJECT__23
10
17.892000
20
-10.576000
30
307.467987
70
192
0
VERTEX
8
OBJECT__23
10
17.049999
20
-11.764000
30
308.380005
70
192
0
VERTEX
8
OBJECT__23
10
1.562000
20
-20.790001
30
396.183990
70
192
0
VERTEX
8
OBJECT__23
10
1.751000
20
-20.774000
30
369.429993
70
192
0
VERTEX
8
OBJECT__23
10
1.858000
20
-20.764999
30
354.226013
70
192
0
VERTEX
8
OBJECT__23
10
2.759000
20
-20.656000
30
342.713989
70
192
0
VERTEX
8
OBJECT__23
10
3.132000
20
-20.611000
30
337.954987
70
192
0
VERTEX
8
OBJECT__23
10
7.039000
20
-19.554001
30
323.790985
70
192
0
VERTEX
8
OBJECT__23
10
8.565000
20
-19.007000
30
320.127014
70
192
0
VERTEX
8
OBJECT__23
10
5.462000
20
-20.120001
30
327.578003
70
192
0
VERTEX
8
OBJECT__23
10
5.009000
20
-20.215000
30
329.595001
70
192
0
VERTEX
8
OBJECT__23
10
11.990000
20
-17.056000
30
314.528015
70
192
0
VERTEX
8
OBJECT__23
10
10.139000
20
-18.110001
30
317.553009
70
192
0
VERTEX
8
OBJECT__23
10
15.528000
20
-13.911000
30
310.028992
70
192
0
VERTEX
8
OBJECT__23
10
19.535999
20
-0.384000
30
308.777008
70
192
0
VERTEX
8
OBJECT__23
10
19.541000
20
0.000000
30
308.769989
70
192
0
VERTEX
8
OBJECT__23
10
18.844000
20
-4.476000
30
309.808990
70
192
0
VERTEX
8
OBJECT__23
10
20.850000
20
0.000000
30
304.536011
70
192
0
VERTEX
8
OBJECT__23
10
0
20
0
30
0
70
128
71
1
72
2
73
3
0
VERTEX
8
OBJECT__23
10
0
20
0
30
0
70
128
71
3
72
4
73
1
0
VERTEX
8
OBJECT__23
10
0
20
0
30
0
70
128
71
5
72
6
73
4
0
VERTEX
8
OBJECT__23
10
0
20
0
30
0
70
128
71
7
72
8
73
9
0
VERTEX
8
OBJECT__23
10
0
20
0
30
0
70
128
71
8
72
10
73
9
0
VERTEX
8
OBJECT__23
10
0
20
0
30
0
70
128
71
11
72
12
73
13
0
VERTEX
8
OBJECT__23
10
0
20
0
30
0
70
128
71
13
72
14
73
11
0
VERTEX
8
OBJECT__23
10
0
20
0
30
0
70
128
71
13
72
15
73
14
0
VERTEX
8
OBJECT__23
10
0
20
0
30
0
70
128
71
11
72
16
73
12
0
VERTEX
8
OBJECT__23
10
0
20
0
30
0
70
128
71
17
72
18
73
19
0
VERTEX
8
OBJECT__23
10
0
20
0
30
0
70
128
71
19
72
11
73
17
0
VERTEX
8
OBJECT__23
10
0
20
0
30
0
70
128
71
17
72
8
73
20
0
VERTEX
8
OBJECT__23
10
0
20
0
30
0
70
128
71
20
72
21
73
17
0
VERTEX
8
OBJECT__23
10
0
20
0
30
0
70
128
71
5
72
14
73
22
0
VERTEX
8
OBJECT__23
10
0
20
0
30
0
70
128
71
22
72
23
73
5
0
VERTEX
8
OBJECT__23
10
0
20
0
30
0
70
128
71
8
72
17
73
24
0
VERTEX
8
OBJECT__23
10
0
20
0
30
0
70
128
71
17
72
25
73
24
0
VERTEX
8
OBJECT__23
10
0
20
0
30
0
70
128
71
17
72
26
73
25
0
VERTEX
8
OBJECT__23
10
0
20
0
30
0
70
128
71
27
72
28
73
3
0
VERTEX
8
OBJECT__23
10
0
20
0
30
0
70
128
71
3
72
28
73
29
0
VERTEX
8
OBJECT__23
10
0
20
0
30
0
70
128
71
29
72
5
73
3
0
VERTEX
8
OBJECT__23
10
0
20
0
30
0
70
128
71
5
72
30
73
31
0
VERTEX
8
OBJECT__23
10
0
20
0
30
0
70
128
71
31
72
14
73
5
0
VERTEX
8
OBJECT__23
10
0
20
0
30
0
70
128
71
11
72
32
73
33
0
VERTEX
8
OBJECT__23
10
0
20
0
30
0
70
128
71
14
72
34
73
32
0
VERTEX
8
OBJECT__23
10
0
20
0
30
0
70
128
71
14
72
35
73
34
0
VERTEX
8
OBJECT__23
10
0
20
0
30
0
70
128
71
32
72
11
73
14
0
VERTEX
8
OBJECT__23
10
0
20
0
30
0
70
128
71
17
72
11
73
36
0
VERTEX
8
OBJECT__23
10
0
20
0
30
0
70
128
71
11
72
37
73
36
0
VERTEX
8
OBJECT__23
10
0
20
0
30
0
70
128
71
36
72
38
73
17
0
VERTEX
8
OBJECT__23
10
0
20
0
30
0
70
128
71
8
72
7
73
39
0
VERTEX
8
OBJECT__23
10
0
20
0
30
0
70
128
71
7
72
40
73
39
0
VERTEX
8
OBJECT__23
10
0
20
0
30
0
70
128
71
39
72
41
73
8
0
VERTEX
8
OBJECT__23
10
0
20
0
30
0
70
128
71
41
72
20
73
8
0
VERTEX
8
OBJECT__23
10
0
20
0
30
0
70
128
71
38
72
26
73
17
0
VERTEX
8
OBJECT__23
10
0
20
0
30
0
70
128
71
33
72
37
73
11
0
VERTEX
8
OBJECT__23
10
0
20
0
30
0
70
128
71
31
72
35
73
14
0
VERTEX
8
OBJECT__23
10
0
20
0
30
0
70
128
71
29
72
30
73
5
0
VERTEX
8
OBJECT__23
10
0
20
0
30
0
70
128
71
3
72
2
73
27
0
VERTEX
8
OBJECT__23
10
0
20
0
30
0
70
128
71
24
72
10
73
8
0
VERTEX
8
OBJECT__23
10
0
20
0
30
0
70
128
71
23
72
6
73
5
0
VERTEX
8
OBJECT__23
10
0
20
0
30
0
70
128
71
21
72
18
73
17
0
VERTEX
8
OBJECT__23
10
0
20
0
30
0
70
128
71
19
72
16
73
11
0
VERTEX
8
OBJECT__23
10
0
20
0
30
0
70
128
71
15
72
22
73
14
0
VERTEX
8
OBJECT__23
10
0
20
0
30
0
70
128
71
9
72
42
73
7
0
VERTEX
8
OBJECT__23
10
0
20
0
30
0
70
128
71
3
72
5
73
4
0
SEQEND
8
OBJECT__23
0
POLYLINE
8
OBJECT__24
66
1
70
64
71
20
72
18
62
253
0
VERTEX
8
OBJECT__24
10
14.889000
20
0.000000
30
416.337006
70
192
0
VERTEX
8
OBJECT__24
10
25.135000
20
0.000000
30
421.854004
70
192
0
VERTEX
8
OBJECT__24
10
19.308001
20
-13.312000
30
421.049011
70
192
0
VERTEX
8
OBJECT__24
10
25.076000
20
-13.312000
30
423.337006
70
192
0
VERTEX
8
OBJECT__24
10
15.101000
20
-13.312000
30
417.704987
70
192
0
VERTEX
8
OBJECT__24
10
8.500000
20
0.000000
30
396.183990
70
192
0
VERTEX
8
OBJECT__24
10
9.739000
20
-13.312000
30
408.123993
70
192
0
VERTEX
8
OBJECT__24
10
8.900000
20
-13.312000
30
405.023987
70
192
0
VERTEX
8
OBJECT__24
10
9.554000
20
0.000000
30
407.437988
70
192
0
VERTEX
8
OBJECT__24
10
9.746000
20
-13.312000
30
408.149994
70
192
0
VERTEX
8
OBJECT__24
10
8.500000
20
-13.312000
30
396.183990
70
192
0
VERTEX
8
OBJECT__24
10
38.916000
20
0.000000
30
424.384003
70
192
0
VERTEX
8
OBJECT__24
10
38.709000
20
-13.312000
30
426.074005
70
192
0
VERTEX
8
OBJECT__24
10
27.004999
20
-13.312000
30
424.101990
70
192
0
VERTEX
8
OBJECT__24
10
25.254000
20
0.000000
30
421.917999
70
192
0
VERTEX
8
OBJECT__24
10
25.257999
20
-13.312000
30
423.408997
70
192
0
VERTEX
8
OBJECT__24
10
14.100000
20
-13.312000
30
416.910004
70
192
0
VERTEX
8
OBJECT__24
10
10.689000
20
-13.312000
30
411.638000
70
192
0
VERTEX
8
OBJECT__24
10
14.928000
20
-13.312000
30
417.567993
70
192
0
VERTEX
8
OBJECT__24
10
9.570000
20
0.000000
30
407.602997
70
192
0
VERTEX
8
OBJECT__24
10
0
20
0
30
0
70
128
71
1
72
2
73
3
0
VERTEX
8
OBJECT__24
10
0
20
0
30
0
70
128
71
2
72
4
73
3
0
VERTEX
8
OBJECT__24
10
0
20
0
30
0
70
128
71
3
72
5
73
1
0
VERTEX
8
OBJECT__24
10
0
20
0
30
0
70
128
71
6
72
7
73
8
0
VERTEX
8
OBJECT__24
10
0
20
0
30
0
70
128
71
9
72
10
73
7
0
VERTEX
8
OBJECT__24
10
0
20
0
30
0
70
128
71
7
72
6
73
9
0
VERTEX
8
OBJECT__24
10
0
20
0
30
0
70
128
71
8
72
11
73
6
0
VERTEX
8
OBJECT__24
10
0
20
0
30
0
70
128
71
12
72
13
73
14
0
VERTEX
8
OBJECT__24
10
0
20
0
30
0
70
128
71
14
72
15
73
12
0
VERTEX
8
OBJECT__24
10
0
20
0
30
0
70
128
71
14
72
16
73
15
0
VERTEX
8
OBJECT__24
10
0
20
0
30
0
70
128
71
4
72
2
73
15
0
VERTEX
8
OBJECT__24
10
0
20
0
30
0
70
128
71
1
72
17
73
18
0
VERTEX
8
OBJECT__24
10
0
20
0
30
0
70
128
71
1
72
19
73
17
0
VERTEX
8
OBJECT__24
10
0
20
0
30
0
70
128
71
18
72
20
73
1
0
VERTEX
8
OBJECT__24
10
0
20
0
30
0
70
128
71
10
72
9
73
20
0
VERTEX
8
OBJECT__24
10
0
20
0
30
0
70
128
71
18
72
10
73
20
0
VERTEX
8
OBJECT__24
10
0
20
0
30
0
70
128
71
16
72
4
73
15
0
VERTEX
8
OBJECT__24
10
0
20
0
30
0
70
128
71
5
72
19
73
1
0
SEQEND
8
OBJECT__24
0
POLYLINE
8
OBJECT__25
66
1
70
64
71
32
72
30
62
253
0
VERTEX
8
OBJECT__25
10
12.027000
20
12.373000
30
324.919006
70
192
0
VERTEX
8
OBJECT__25
10
11.298000
20
-12.705000
30
327.532990
70
192
0
VERTEX
8
OBJECT__25
10
11.651000
20
-12.601000
30
325.660004
70
192
0
VERTEX
8
OBJECT__25
10
16.150999
20
9.141000
30
314.415985
70
192
0
VERTEX
8
OBJECT__25
10
15.073000
20
10.437000
30
316.415985
70
192
0
VERTEX
8
OBJECT__25
10
12.733000
20
12.099000
30
322.101013
70
192
0
VERTEX
8
OBJECT__25
10
18.389000
20
-5.392000
30
310.545990
70
192
0
VERTEX
8
OBJECT__25
10
18.377001
20
5.393000
30
310.561005
70
192
0
VERTEX
8
OBJECT__25
10
17.346001
20
7.706000
30
312.200989
70
192
0
VERTEX
8
OBJECT__25
10
19.541000
20
0.000000
30
308.769989
70
192
0
VERTEX
8
OBJECT__25
10
18.976999
20
4.047000
30
309.606995
70
192
0
VERTEX
8
OBJECT__25
10
18.844000
20
-4.476000
30
309.808990
70
192
0
VERTEX
8
OBJECT__25
10
19.535999
20
-0.384000
30
308.777008
70
192
0
VERTEX
8
OBJECT__25
10
16.170000
20
-9.117000
30
314.415985
70
192
0
VERTEX
8
OBJECT__25
10
16.930000
20
-8.329000
30
312.911011
70
192
0
VERTEX
8
OBJECT__25
10
11.917000
20
-12.451000
30
324.894012
70
192
0
VERTEX
8
OBJECT__25
10
14.196000
20
-11.164000
30
318.326996
70
192
0
VERTEX
8
OBJECT__25
10
9.741000
20
-13.147000
30
336.574005
70
192
0
VERTEX
8
OBJECT__25
10
9.897000
20
13.095000
30
336.592010
70
192
0
VERTEX
8
OBJECT__25
10
8.970000
20
13.267000
30
345.975006
70
192
0
VERTEX
8
OBJECT__25
10
8.865000
20
-13.279000
30
348.381989
70
192
0
VERTEX
8
OBJECT__25
10
8.915000
20
13.272000
30
348.457001
70
192
0
VERTEX
8
OBJECT__25
10
8.864000
20
-13.279000
30
348.455994
70
192
0
VERTEX
8
OBJECT__25
10
9.838000
20
-13.133000
30
335.269012
70
192
0
VERTEX
8
OBJECT__25
10
11.367000
20
12.629000
30
327.557007
70
192
0
VERTEX
8
OBJECT__25
10
10.413000
20
12.999000
30
331.367004
70
192
0
VERTEX
8
OBJECT__25
10
8.863000
20
-13.279000
30
348.628998
70
192
0
VERTEX
8
OBJECT__25
10
8.911000
20
13.273000
30
348.630005
70
192
0
VERTEX
8
OBJECT__25
10
8.500000
20
0.000000
30
396.183990
70
192
0
VERTEX
8
OBJECT__25
10
8.547000
20
13.304000
30
365.148010
70
192
0
VERTEX
8
OBJECT__25
10
8.500000
20
13.312000
30
396.183990
70
192
0
VERTEX
8
OBJECT__25
10
8.500000
20
-13.312000
30
396.183990
70
192
0
VERTEX
8
OBJECT__25
10
0
20
0
30
0
70
128
71
1
72
2
73
3
0
VERTEX
8
OBJECT__25
10
0
20
0
30
0
70
128
71
3
72
4
73
5
0
VERTEX
8
OBJECT__25
10
0
20
0
30
0
70
128
71
5
72
6
73
3
0
VERTEX
8
OBJECT__25
10
0
20
0
30
0
70
128
71
3
72
6
73
1
0
VERTEX
8
OBJECT__25
10
0
20
0
30
0
70
128
71
7
72
8
73
9
0
VERTEX
8
OBJECT__25
10
0
20
0
30
0
70
128
71
7
72
10
73
11
0
VERTEX
8
OBJECT__25
10
0
20
0
30
0
70
128
71
7
72
12
73
13
0
VERTEX
8
OBJECT__25
10
0
20
0
30
0
70
128
71
13
72
10
73
7
0
VERTEX
8
OBJECT__25
10
0
20
0
30
0
70
128
71
11
72
8
73
7
0
VERTEX
8
OBJECT__25
10
0
20
0
30
0
70
128
71
4
72
14
73
15
0
VERTEX
8
OBJECT__25
10
0
20
0
30
0
70
128
71
15
72
7
73
4
0
VERTEX
8
OBJECT__25
10
0
20
0
30
0
70
128
71
4
72
16
73
17
0
VERTEX
8
OBJECT__25
10
0
20
0
30
0
70
128
71
4
72
3
73
16
0
VERTEX
8
OBJECT__25
10
0
20
0
30
0
70
128
71
17
72
14
73
4
0
VERTEX
8
OBJECT__25
10
0
20
0
30
0
70
128
71
9
72
4
73
7
0
VERTEX
8
OBJECT__25
10
0
20
0
30
0
70
128
71
18
72
19
73
20
0
VERTEX
8
OBJECT__25
10
0
20
0
30
0
70
128
71
20
72
21
73
18
0
VERTEX
8
OBJECT__25
10
0
20
0
30
0
70
128
71
22
72
23
73
21
0
VERTEX
8
OBJECT__25
10
0
20
0
30
0
70
128
71
24
72
2
73
25
0
VERTEX
8
OBJECT__25
10
0
20
0
30
0
70
128
71
25
72
26
73
24
0
VERTEX
8
OBJECT__25
10
0
20
0
30
0
70
128
71
19
72
18
73
24
0
VERTEX
8
OBJECT__25
10
0
20
0
30
0
70
128
71
26
72
19
73
24
0
VERTEX
8
OBJECT__25
10
0
20
0
30
0
70
128
71
27
72
23
73
22
0
VERTEX
8
OBJECT__25
10
0
20
0
30
0
70
128
71
22
72
28
73
27
0
VERTEX
8
OBJECT__25
10
0
20
0
30
0
70
128
71
27
72
28
73
29
0
VERTEX
8
OBJECT__25
10
0
20
0
30
0
70
128
71
29
72
28
73
30
0
VERTEX
8
OBJECT__25
10
0
20
0
30
0
70
128
71
30
72
31
73
29
0
VERTEX
8
OBJECT__25
10
0
20
0
30
0
70
128
71
29
72
32
73
27
0
VERTEX
8
OBJECT__25
10
0
20
0
30
0
70
128
71
20
72
22
73
21
0
VERTEX
8
OBJECT__25
10
0
20
0
30
0
70
128
71
1
72
25
73
2
0
SEQEND
8
OBJECT__25
0
POLYLINE
8
OBJECT__26
66
1
70
64
71
12
72
10
62
253
0
VERTEX
8
OBJECT__26
10
128.785995
20
20.837999
30
443.260010
70
192
0
VERTEX
8
OBJECT__26
10
129.334000
20
17.368000
30
438.795013
70
192
0
VERTEX
8
OBJECT__26
10
38.282001
20
18.849001
30
429.549988
70
192
0
VERTEX
8
OBJECT__26
10
38.515999
20
17.368000
30
427.644012
70
192
0
VERTEX
8
OBJECT__26
10
129.697006
20
5.928000
30
435.841003
70
192
0
VERTEX
8
OBJECT__26
10
38.879002
20
5.928000
30
424.690002
70
192
0
VERTEX
8
OBJECT__26
10
38.709000
20
13.312000
30
426.074005
70
192
0
VERTEX
8
OBJECT__26
10
129.386002
20
16.263000
30
438.368011
70
192
0
VERTEX
8
OBJECT__26
10
129.526993
20
13.312000
30
437.225006
70
192
0
VERTEX
8
OBJECT__26
10
129.733994
20
0.000000
30
435.535004
70
192
0
VERTEX
8
OBJECT__26
10
38.916000
20
0.000000
30
424.384003
70
192
0
VERTEX
8
OBJECT__26
10
37.967999
20
20.837000
30
432.109009
70
192
0
VERTEX
8
OBJECT__26
10
0
20
0
30
0
70
128
71
1
72
2
73
3
0
VERTEX
8
OBJECT__26
10
0
20
0
30
0
70
128
71
2
72
4
73
3
0
VERTEX
8
OBJECT__26
10
0
20
0
30
0
70
128
71
5
72
6
73
7
0
VERTEX
8
OBJECT__26
10
0
20
0
30
0
70
128
71
7
72
4
73
8
0
VERTEX
8
OBJECT__26
10
0
20
0
30
0
70
128
71
4
72
2
73
8
0
VERTEX
8
OBJECT__26
10
0
20
0
30
0
70
128
71
8
72
9
73
7
0
VERTEX
8
OBJECT__26
10
0
20
0
30
0
70
128
71
6
72
5
73
10
0
VERTEX
8
OBJECT__26
10
0
20
0
30
0
70
128
71
10
72
11
73
6
0
VERTEX
8
OBJECT__26
10
0
20
0
30
0
70
128
71
7
72
9
73
5
0
VERTEX
8
OBJECT__26
10
0
20
0
30
0
70
128
71
3
72
12
73
1
0
SEQEND
8
OBJECT__26
0
POLYLINE
8
OBJECT__27
66
1
70
64
71
22
72
20
62
253
0
VERTEX
8
OBJECT__27
10
14.889000
20
0.000000
30
416.337006
70
192
0
VERTEX
8
OBJECT__27
10
15.021000
20
13.312000
30
417.803009
70
192
0
VERTEX
8
OBJECT__27
10
19.458000
20
13.312000
30
421.135010
70
192
0
VERTEX
8
OBJECT__27
10
25.135000
20
0.000000
30
421.854004
70
192
0
VERTEX
8
OBJECT__27
10
14.845000
20
13.312000
30
417.670990
70
192
0
VERTEX
8
OBJECT__27
10
8.500000
20
0.000000
30
396.183990
70
192
0
VERTEX
8
OBJECT__27
10
8.500000
20
13.312000
30
396.183990
70
192
0
VERTEX
8
OBJECT__27
10
9.010000
20
13.312000
30
405.763000
70
192
0
VERTEX
8
OBJECT__27
10
9.554000
20
0.000000
30
407.437988
70
192
0
VERTEX
8
OBJECT__27
10
9.737000
20
13.312000
30
408.115997
70
192
0
VERTEX
8
OBJECT__27
10
26.777000
20
13.312000
30
424.040985
70
192
0
VERTEX
8
OBJECT__27
10
38.658001
20
13.312000
30
426.067993
70
192
0
VERTEX
8
OBJECT__27
10
38.879002
20
5.928000
30
424.690002
70
192
0
VERTEX
8
OBJECT__27
10
25.254000
20
0.000000
30
421.917999
70
192
0
VERTEX
8
OBJECT__27
10
25.247999
20
13.312000
30
423.433990
70
192
0
VERTEX
8
OBJECT__27
10
25.066000
20
13.312000
30
423.362000
70
192
0
VERTEX
8
OBJECT__27
10
38.709000
20
13.312000
30
426.074005
70
192
0
VERTEX
8
OBJECT__27
10
38.916000
20
0.000000
30
424.384003
70
192
0
VERTEX
8
OBJECT__27
10
9.570000
20
0.000000
30
407.602997
70
192
0
VERTEX
8
OBJECT__27
10
11.093000
20
13.312000
30
412.502991
70
192
0
VERTEX
8
OBJECT__27
10
9.745000
20
13.312000
30
408.140991
70
192
0
VERTEX
8
OBJECT__27
10
14.781000
20
13.312000
30
417.622986
70
192
0
VERTEX
8
OBJECT__27
10
0
20
0
30
0
70
128
71
1
72
2
73
3
0
VERTEX
8
OBJECT__27
10
0
20
0
30
0
70
128
71
3
72
4
73
1
0
VERTEX
8
OBJECT__27
10
0
20
0
30
0
70
128
71
1
72
5
73
2
0
VERTEX
8
OBJECT__27
10
0
20
0
30
0
70
128
71
6
72
7
73
8
0
VERTEX
8
OBJECT__27
10
0
20
0
30
0
70
128
71
8
72
9
73
6
0
VERTEX
8
OBJECT__27
10
0
20
0
30
0
70
128
71
8
72
10
73
9
0
VERTEX
8
OBJECT__27
10
0
20
0
30
0
70
128
71
11
72
12
73
13
0
VERTEX
8
OBJECT__27
10
0
20
0
30
0
70
128
71
14
72
15
73
11
0
VERTEX
8
OBJECT__27
10
0
20
0
30
0
70
128
71
13
72
14
73
11
0
VERTEX
8
OBJECT__27
10
0
20
0
30
0
70
128
71
14
72
16
73
15
0
VERTEX
8
OBJECT__27
10
0
20
0
30
0
70
128
71
12
72
17
73
13
0
VERTEX
8
OBJECT__27
10
0
20
0
30
0
70
128
71
13
72
18
73
14
0
VERTEX
8
OBJECT__27
10
0
20
0
30
0
70
128
71
1
72
19
73
20
0
VERTEX
8
OBJECT__27
10
0
20
0
30
0
70
128
71
19
72
21
73
20
0
VERTEX
8
OBJECT__27
10
0
20
0
30
0
70
128
71
20
72
22
73
1
0
VERTEX
8
OBJECT__27
10
0
20
0
30
0
70
128
71
22
72
5
73
1
0
VERTEX
8
OBJECT__27
10
0
20
0
30
0
70
128
71
19
72
9
73
21
0
VERTEX
8
OBJECT__27
10
0
20
0
30
0
70
128
71
14
72
4
73
16
0
VERTEX
8
OBJECT__27
10
0
20
0
30
0
70
128
71
10
72
21
73
9
0
VERTEX
8
OBJECT__27
10
0
20
0
30
0
70
128
71
3
72
16
73
4
0
SEQEND
8
OBJECT__27
0
POLYLINE
8
OBJECT__28
66
1
70
64
71
34
72
35
62
253
0
VERTEX
8
OBJECT__28
10
24.698999
20
19.386999
30
426.592010
70
192
0
VERTEX
8
OBJECT__28
10
13.891000
20
19.266001
30
420.415009
70
192
0
VERTEX
8
OBJECT__28
10
16.225000
20
20.834000
30
426.929993
70
192
0
VERTEX
8
OBJECT__28
10
10.476000
20
20.823999
30
423.042999
70
192
0
VERTEX
8
OBJECT__28
10
21.799999
20
20.836000
30
428.963989
70
192
0
VERTEX
8
OBJECT__28
10
7.322000
20
18.959999
30
396.183990
70
192
0
VERTEX
8
OBJECT__28
10
1.562000
20
20.790001
30
396.183990
70
192
0
VERTEX
8
OBJECT__28
10
1.750000
20
20.791000
30
403.885010
70
192
0
VERTEX
8
OBJECT__28
10
8.114000
20
19.059000
30
409.476013
70
192
0
VERTEX
8
OBJECT__28
10
25.066000
20
13.312000
30
423.362000
70
192
0
VERTEX
8
OBJECT__28
10
19.458000
20
13.312000
30
421.135010
70
192
0
VERTEX
8
OBJECT__28
10
25.247999
20
13.312000
30
423.433990
70
192
0
VERTEX
8
OBJECT__28
10
9.010000
20
13.312000
30
405.763000
70
192
0
VERTEX
8
OBJECT__28
10
9.737000
20
13.312000
30
408.115997
70
192
0
VERTEX
8
OBJECT__28
10
24.020000
20
20.837000
30
429.773987
70
192
0
VERTEX
8
OBJECT__28
10
37.967999
20
20.837000
30
432.109009
70
192
0
VERTEX
8
OBJECT__28
10
38.282001
20
18.849001
30
429.549988
70
192
0
VERTEX
8
OBJECT__28
10
23.502001
20
20.837000
30
429.584991
70
192
0
VERTEX
8
OBJECT__28
10
9.459000
20
20.820999
30
422.171997
70
192
0
VERTEX
8
OBJECT__28
10
9.823000
20
20.823000
30
422.601013
70
192
0
VERTEX
8
OBJECT__28
10
5.984000
20
20.809000
30
418.066010
70
192
0
VERTEX
8
OBJECT__28
10
3.049000
20
20.795000
30
410.975006
70
192
0
VERTEX
8
OBJECT__28
10
3.321000
20
20.796000
30
412.460999
70
192
0
VERTEX
8
OBJECT__28
10
3.011000
20
20.795000
30
410.765015
70
192
0
VERTEX
8
OBJECT__28
10
11.093000
20
13.312000
30
412.502991
70
192
0
VERTEX
8
OBJECT__28
10
9.745000
20
13.312000
30
408.140991
70
192
0
VERTEX
8
OBJECT__28
10
14.781000
20
13.312000
30
417.622986
70
192
0
VERTEX
8
OBJECT__28
10
15.021000
20
13.312000
30
417.803009
70
192
0
VERTEX
8
OBJECT__28
10
14.845000
20
13.312000
30
417.670990
70
192
0
VERTEX
8
OBJECT__28
10
38.515999
20
17.368000
30
427.644012
70
192
0
VERTEX
8
OBJECT__28
10
38.658001
20
13.312000
30
426.067993
70
192
0
VERTEX
8
OBJECT__28
10
26.777000
20
13.312000
30
424.040985
70
192
0
VERTEX
8
OBJECT__28
10
38.709000
20
13.312000
30
426.074005
70
192
0
VERTEX
8
OBJECT__28
10
8.500000
20
13.312000
30
396.183990
70
192
0
VERTEX
8
OBJECT__28
10
0
20
0
30
0
70
128
71
1
72
2
73
3
0
VERTEX
8
OBJECT__28
10
0
20
0
30
0
70
128
71
2
72
4
73
3
0
VERTEX
8
OBJECT__28
10
0
20
0
30
0
70
128
71
3
72
5
73
1
0
VERTEX
8
OBJECT__28
10
0
20
0
30
0
70
128
71
6
72
7
73
8
0
VERTEX
8
OBJECT__28
10
0
20
0
30
0
70
128
71
8
72
9
73
6
0
VERTEX
8
OBJECT__28
10
0
20
0
30
0
70
128
71
1
72
10
73
11
0
VERTEX
8
OBJECT__28
10
0
20
0
30
0
70
128
71
1
72
12
73
10
0
VERTEX
8
OBJECT__28
10
0
20
0
30
0
70
128
71
11
72
2
73
1
0
VERTEX
8
OBJECT__28
10
0
20
0
30
0
70
128
71
6
72
9
73
13
0
VERTEX
8
OBJECT__28
10
0
20
0
30
0
70
128
71
9
72
14
73
13
0
VERTEX
8
OBJECT__28
10
0
20
0
30
0
70
128
71
15
72
16
73
17
0
VERTEX
8
OBJECT__28
10
0
20
0
30
0
70
128
71
1
72
18
73
15
0
VERTEX
8
OBJECT__28
10
0
20
0
30
0
70
128
71
2
72
19
73
20
0
VERTEX
8
OBJECT__28
10
0
20
0
30
0
70
128
71
2
72
9
73
21
0
VERTEX
8
OBJECT__28
10
0
20
0
30
0
70
128
71
9
72
22
73
23
0
VERTEX
8
OBJECT__28
10
0
20
0
30
0
70
128
71
23
72
21
73
9
0
VERTEX
8
OBJECT__28
10
0
20
0
30
0
70
128
71
21
72
19
73
2
0
VERTEX
8
OBJECT__28
10
0
20
0
30
0
70
128
71
9
72
24
73
22
0
VERTEX
8
OBJECT__28
10
0
20
0
30
0
70
128
71
9
72
25
73
26
0
VERTEX
8
OBJECT__28
10
0
20
0
30
0
70
128
71
2
72
27
73
25
0
VERTEX
8
OBJECT__28
10
0
20
0
30
0
70
128
71
2
72
28
73
29
0
VERTEX
8
OBJECT__28
10
0
20
0
30
0
70
128
71
29
72
27
73
2
0
VERTEX
8
OBJECT__28
10
0
20
0
30
0
70
128
71
25
72
9
73
2
0
VERTEX
8
OBJECT__28
10
0
20
0
30
0
70
128
71
30
72
31
73
32
0
VERTEX
8
OBJECT__28
10
0
20
0
30
0
70
128
71
30
72
33
73
31
0
VERTEX
8
OBJECT__28
10
0
20
0
30
0
70
128
71
1
72
17
73
30
0
VERTEX
8
OBJECT__28
10
0
20
0
30
0
70
128
71
32
72
1
73
30
0
VERTEX
8
OBJECT__28
10
0
20
0
30
0
70
128
71
32
72
12
73
1
0
VERTEX
8
OBJECT__28
10
0
20
0
30
0
70
128
71
26
72
14
73
9
0
VERTEX
8
OBJECT__28
10
0
20
0
30
0
70
128
71
20
72
4
73
2
0
VERTEX
8
OBJECT__28
10
0
20
0
30
0
70
128
71
17
72
1
73
15
0
VERTEX
8
OBJECT__28
10
0
20
0
30
0
70
128
71
13
72
34
73
6
0
VERTEX
8
OBJECT__28
10
0
20
0
30
0
70
128
71
11
72
28
73
2
0
VERTEX
8
OBJECT__28
10
0
20
0
30
0
70
128
71
8
72
24
73
9
0
VERTEX
8
OBJECT__28
10
0
20
0
30
0
70
128
71
5
72
18
73
1
0
SEQEND
8
OBJECT__28
0
POLYLINE
8
OBJECT__29
66
1
70
64
71
41
72
45
62
253
0
VERTEX
8
OBJECT__29
10
7.935000
20
18.757000
30
345.653015
70
192
0
VERTEX
8
OBJECT__29
10
8.970000
20
13.267000
30
345.975006
70
192
0
VERTEX
8
OBJECT__29
10
9.897000
20
13.095000
30
336.592010
70
192
0
VERTEX
8
OBJECT__29
10
8.915000
20
13.272000
30
348.457001
70
192
0
VERTEX
8
OBJECT__29
10
7.360000
20
18.962000
30
370.880005
70
192
0
VERTEX
8
OBJECT__29
10
8.547000
20
13.304000
30
365.148010
70
192
0
VERTEX
8
OBJECT__29
10
8.911000
20
13.273000
30
348.630005
70
192
0
VERTEX
8
OBJECT__29
10
8.500000
20
13.312000
30
396.183990
70
192
0
VERTEX
8
OBJECT__29
10
7.322000
20
18.959999
30
396.183990
70
192
0
VERTEX
8
OBJECT__29
10
9.236000
20
18.143000
30
333.239014
70
192
0
VERTEX
8
OBJECT__29
10
3.954000
20
20.469000
30
333.299011
70
192
0
VERTEX
8
OBJECT__29
10
2.696000
20
20.660999
30
342.717010
70
192
0
VERTEX
8
OBJECT__29
10
5.052000
20
20.180000
30
329.622986
70
192
0
VERTEX
8
OBJECT__29
10
12.374000
20
16.195000
30
321.420990
70
192
0
VERTEX
8
OBJECT__29
10
12.733000
20
12.099000
30
322.101013
70
192
0
VERTEX
8
OBJECT__29
10
15.073000
20
10.437000
30
316.415985
70
192
0
VERTEX
8
OBJECT__29
10
12.027000
20
12.373000
30
324.919006
70
192
0
VERTEX
8
OBJECT__29
10
17.431999
20
10.872000
30
311.502991
70
192
0
VERTEX
8
OBJECT__29
10
11.367000
20
12.629000
30
327.557007
70
192
0
VERTEX
8
OBJECT__29
10
10.413000
20
12.999000
30
331.367004
70
192
0
VERTEX
8
OBJECT__29
10
19.712999
20
6.120000
30
308.141998
70
192
0
VERTEX
8
OBJECT__29
10
17.346001
20
7.706000
30
312.200989
70
192
0
VERTEX
8
OBJECT__29
10
16.150999
20
9.141000
30
314.415985
70
192
0
VERTEX
8
OBJECT__29
10
20.688999
20
0.000000
30
306.808990
70
192
0
VERTEX
8
OBJECT__29
10
18.976999
20
4.047000
30
309.606995
70
192
0
VERTEX
8
OBJECT__29
10
18.377001
20
5.393000
30
310.561005
70
192
0
VERTEX
8
OBJECT__29
10
2.313000
20
20.719000
30
345.585999
70
192
0
VERTEX
8
OBJECT__29
10
1.651000
20
20.783001
30
363.845001
70
192
0
VERTEX
8
OBJECT__29
10
17.118000
20
11.901000
30
308.265015
70
192
0
VERTEX
8
OBJECT__29
10
13.604000
20
15.798000
30
312.360992
70
192
0
VERTEX
8
OBJECT__29
10
6.637000
20
19.763000
30
324.320007
70
192
0
VERTEX
8
OBJECT__29
10
7.126000
20
19.548000
30
323.341003
70
192
0
VERTEX
8
OBJECT__29
10
10.068000
20
18.256001
30
317.459015
70
192
0
VERTEX
8
OBJECT__29
10
19.548000
20
7.251000
30
305.781006
70
192
0
VERTEX
8
OBJECT__29
10
17.944000
20
10.320000
30
307.420013
70
192
0
VERTEX
8
OBJECT__29
10
19.737000
20
6.468000
30
305.600006
70
192
0
VERTEX
8
OBJECT__29
10
20.702999
20
2.470000
30
304.674011
70
192
0
VERTEX
8
OBJECT__29
10
20.850000
20
0.000000
30
304.536011
70
192
0
VERTEX
8
OBJECT__29
10
1.562000
20
20.790001
30
396.183990
70
192
0
VERTEX
8
OBJECT__29
10
1.636000
20
20.784000
30
369.428986
70
192
0
VERTEX
8
OBJECT__29
10
19.541000
20
0.000000
30
308.769989
70
192
0
VERTEX
8
OBJECT__29
10
0
20
0
30
0
70
128
71
1
72
2
73
3
0
VERTEX
8
OBJECT__29
10
0
20
0
30
0
70
128
71
1
72
4
73
2
0
VERTEX
8
OBJECT__29
10
0
20
0
30
0
70
128
71
1
72
5
73
6
0
VERTEX
8
OBJECT__29
10
0
20
0
30
0
70
128
71
6
72
7
73
1
0
VERTEX
8
OBJECT__29
10
0
20
0
30
0
70
128
71
8
72
6
73
5
0
VERTEX
8
OBJECT__29
10
0
20
0
30
0
70
128
71
5
72
9
73
8
0
VERTEX
8
OBJECT__29
10
0
20
0
30
0
70
128
71
10
72
11
73
12
0
VERTEX
8
OBJECT__29
10
0
20
0
30
0
70
128
71
10
72
13
73
11
0
VERTEX
8
OBJECT__29
10
0
20
0
30
0
70
128
71
14
72
15
73
16
0
VERTEX
8
OBJECT__29
10
0
20
0
30
0
70
128
71
14
72
17
73
15
0
VERTEX
8
OBJECT__29
10
0
20
0
30
0
70
128
71
16
72
18
73
14
0
VERTEX
8
OBJECT__29
10
0
20
0
30
0
70
128
71
14
72
10
73
19
0
VERTEX
8
OBJECT__29
10
0
20
0
30
0
70
128
71
10
72
20
73
19
0
VERTEX
8
OBJECT__29
10
0
20
0
30
0
70
128
71
10
72
3
73
20
0
VERTEX
8
OBJECT__29
10
0
20
0
30
0
70
128
71
21
72
18
73
22
0
VERTEX
8
OBJECT__29
10
0
20
0
30
0
70
128
71
18
72
23
73
22
0
VERTEX
8
OBJECT__29
10
0
20
0
30
0
70
128
71
24
72
21
73
25
0
VERTEX
8
OBJECT__29
10
0
20
0
30
0
70
128
71
21
72
26
73
25
0
VERTEX
8
OBJECT__29
10
0
20
0
30
0
70
128
71
1
72
27
73
28
0
VERTEX
8
OBJECT__29
10
0
20
0
30
0
70
128
71
1
72
12
73
27
0
VERTEX
8
OBJECT__29
10
0
20
0
30
0
70
128
71
28
72
5
73
1
0
VERTEX
8
OBJECT__29
10
0
20
0
30
0
70
128
71
18
72
29
73
30
0
VERTEX
8
OBJECT__29
10
0
20
0
30
0
70
128
71
30
72
14
73
18
0
VERTEX
8
OBJECT__29
10
0
20
0
30
0
70
128
71
10
72
14
73
31
0
VERTEX
8
OBJECT__29
10
0
20
0
30
0
70
128
71
14
72
32
73
31
0
VERTEX
8
OBJECT__29
10
0
20
0
30
0
70
128
71
14
72
33
73
32
0
VERTEX
8
OBJECT__29
10
0
20
0
30
0
70
128
71
21
72
34
73
35
0
VERTEX
8
OBJECT__29
10
0
20
0
30
0
70
128
71
21
72
36
73
34
0
VERTEX
8
OBJECT__29
10
0
20
0
30
0
70
128
71
35
72
18
73
21
0
VERTEX
8
OBJECT__29
10
0
20
0
30
0
70
128
71
21
72
24
73
37
0
VERTEX
8
OBJECT__29
10
0
20
0
30
0
70
128
71
24
72
38
73
37
0
VERTEX
8
OBJECT__29
10
0
20
0
30
0
70
128
71
39
72
9
73
5
0
VERTEX
8
OBJECT__29
10
0
20
0
30
0
70
128
71
5
72
40
73
39
0
VERTEX
8
OBJECT__29
10
0
20
0
30
0
70
128
71
37
72
36
73
21
0
VERTEX
8
OBJECT__29
10
0
20
0
30
0
70
128
71
35
72
29
73
18
0
VERTEX
8
OBJECT__29
10
0
20
0
30
0
70
128
71
31
72
13
73
10
0
VERTEX
8
OBJECT__29
10
0
20
0
30
0
70
128
71
30
72
33
73
14
0
VERTEX
8
OBJECT__29
10
0
20
0
30
0
70
128
71
28
72
40
73
5
0
VERTEX
8
OBJECT__29
10
0
20
0
30
0
70
128
71
25
72
41
73
24
0
VERTEX
8
OBJECT__29
10
0
20
0
30
0
70
128
71
22
72
26
73
21
0
VERTEX
8
OBJECT__29
10
0
20
0
30
0
70
128
71
19
72
17
73
14
0
VERTEX
8
OBJECT__29
10
0
20
0
30
0
70
128
71
16
72
23
73
18
0
VERTEX
8
OBJECT__29
10
0
20
0
30
0
70
128
71
12
72
1
73
10
0
VERTEX
8
OBJECT__29
10
0
20
0
30
0
70
128
71
7
72
4
73
1
0
VERTEX
8
OBJECT__29
10
0
20
0
30
0
70
128
71
3
72
10
73
1
0
SEQEND
8
OBJECT__29
0
POLYLINE
8
OBJECT__30
66
1
70
64
71
33
72
31
62
253
0
VERTEX
8
OBJECT__30
10
21.799999
20
20.836000
30
428.963989
70
192
0
VERTEX
8
OBJECT__30
10
19.389000
20
19.580000
30
436.894989
70
192
0
VERTEX
8
OBJECT__30
10
19.405001
20
19.580000
30
436.898010
70
192
0
VERTEX
8
OBJECT__30
10
17.639000
20
19.580999
30
436.229004
70
192
0
VERTEX
8
OBJECT__30
10
24.020000
20
20.837000
30
429.773987
70
192
0
VERTEX
8
OBJECT__30
10
23.502001
20
20.837000
30
429.584991
70
192
0
VERTEX
8
OBJECT__30
10
30.688000
20
19.583000
30
439.106995
70
192
0
VERTEX
8
OBJECT__30
10
37.789001
20
20.836000
30
433.566986
70
192
0
VERTEX
8
OBJECT__30
10
37.008999
20
19.584000
30
439.911987
70
192
0
VERTEX
8
OBJECT__30
10
37.967999
20
20.837000
30
432.109009
70
192
0
VERTEX
8
OBJECT__30
10
9.459000
20
20.820999
30
422.171997
70
192
0
VERTEX
8
OBJECT__30
10
3.388000
20
19.608000
30
428.812988
70
192
0
VERTEX
8
OBJECT__30
10
3.571000
20
19.607000
30
428.936005
70
192
0
VERTEX
8
OBJECT__30
10
2.739000
20
19.610001
30
428.071014
70
192
0
VERTEX
8
OBJECT__30
10
10.184000
20
19.587000
30
433.391998
70
192
0
VERTEX
8
OBJECT__30
10
16.225000
20
20.834000
30
426.929993
70
192
0
VERTEX
8
OBJECT__30
10
10.476000
20
20.823999
30
423.042999
70
192
0
VERTEX
8
OBJECT__30
10
11.063000
20
19.586000
30
433.726013
70
192
0
VERTEX
8
OBJECT__30
10
9.823000
20
20.823000
30
422.601013
70
192
0
VERTEX
8
OBJECT__30
10
-4.794000
20
19.632000
30
416.652008
70
192
0
VERTEX
8
OBJECT__30
10
-2.107000
20
19.629000
30
422.121002
70
192
0
VERTEX
8
OBJECT__30
10
5.984000
20
20.809000
30
418.066010
70
192
0
VERTEX
8
OBJECT__30
10
3.321000
20
20.796000
30
412.460999
70
192
0
VERTEX
8
OBJECT__30
10
-5.283000
20
19.625000
30
414.398010
70
192
0
VERTEX
8
OBJECT__30
10
-1.651000
20
19.629000
30
423.049011
70
192
0
VERTEX
8
OBJECT__30
10
-7.145000
20
19.586000
30
396.183990
70
192
0
VERTEX
8
OBJECT__30
10
-6.737000
20
19.603001
30
407.691010
70
192
0
VERTEX
8
OBJECT__30
10
1.750000
20
20.791000
30
403.885010
70
192
0
VERTEX
8
OBJECT__30
10
1.562000
20
20.790001
30
396.183990
70
192
0
VERTEX
8
OBJECT__30
10
3.011000
20
20.795000
30
410.765015
70
192
0
VERTEX
8
OBJECT__30
10
-5.392000
20
19.622999
30
413.894012
70
192
0
VERTEX
8
OBJECT__30
10
3.049000
20
20.795000
30
410.975006
70
192
0
VERTEX
8
OBJECT__30
10
-7.149000
20
19.584999
30
396.183990
70
192
0
VERTEX
8
OBJECT__30
10
0
20
0
30
0
70
128
71
1
72
2
73
3
0
VERTEX
8
OBJECT__30
10
0
20
0
30
0
70
128
71
1
72
4
73
2
0
VERTEX
8
OBJECT__30
10
0
20
0
30
0
70
128
71
3
72
5
73
6
0
VERTEX
8
OBJECT__30
10
0
20
0
30
0
70
128
71
5
72
3
73
7
0
VERTEX
8
OBJECT__30
10
0
20
0
30
0
70
128
71
7
72
8
73
5
0
VERTEX
8
OBJECT__30
10
0
20
0
30
0
70
128
71
7
72
9
73
8
0
VERTEX
8
OBJECT__30
10
0
20
0
30
0
70
128
71
8
72
10
73
5
0
VERTEX
8
OBJECT__30
10
0
20
0
30
0
70
128
71
11
72
12
73
13
0
VERTEX
8
OBJECT__30
10
0
20
0
30
0
70
128
71
11
72
14
73
12
0
VERTEX
8
OBJECT__30
10
0
20
0
30
0
70
128
71
15
72
16
73
17
0
VERTEX
8
OBJECT__30
10
0
20
0
30
0
70
128
71
17
72
13
73
15
0
VERTEX
8
OBJECT__30
10
0
20
0
30
0
70
128
71
15
72
18
73
16
0
VERTEX
8
OBJECT__30
10
0
20
0
30
0
70
128
71
4
72
1
73
16
0
VERTEX
8
OBJECT__30
10
0
20
0
30
0
70
128
71
16
72
18
73
4
0
VERTEX
8
OBJECT__30
10
0
20
0
30
0
70
128
71
17
72
19
73
13
0
VERTEX
8
OBJECT__30
10
0
20
0
30
0
70
128
71
20
72
21
73
22
0
VERTEX
8
OBJECT__30
10
0
20
0
30
0
70
128
71
23
72
24
73
20
0
VERTEX
8
OBJECT__30
10
0
20
0
30
0
70
128
71
22
72
23
73
20
0
VERTEX
8
OBJECT__30
10
0
20
0
30
0
70
128
71
14
72
11
73
22
0
VERTEX
8
OBJECT__30
10
0
20
0
30
0
70
128
71
22
72
25
73
14
0
VERTEX
8
OBJECT__30
10
0
20
0
30
0
70
128
71
21
72
25
73
22
0
VERTEX
8
OBJECT__30
10
0
20
0
30
0
70
128
71
26
72
27
73
28
0
VERTEX
8
OBJECT__30
10
0
20
0
30
0
70
128
71
28
72
29
73
26
0
VERTEX
8
OBJECT__30
10
0
20
0
30
0
70
128
71
30
72
28
73
27
0
VERTEX
8
OBJECT__30
10
0
20
0
30
0
70
128
71
31
72
24
73
32
0
VERTEX
8
OBJECT__30
10
0
20
0
30
0
70
128
71
32
72
30
73
31
0
VERTEX
8
OBJECT__30
10
0
20
0
30
0
70
128
71
27
72
31
73
30
0
VERTEX
8
OBJECT__30
10
0
20
0
30
0
70
128
71
26
72
33
73
27
0
VERTEX
8
OBJECT__30
10
0
20
0
30
0
70
128
71
23
72
32
73
24
0
VERTEX
8
OBJECT__30
10
0
20
0
30
0
70
128
71
13
72
19
73
11
0
VERTEX
8
OBJECT__30
10
0
20
0
30
0
70
128
71
3
72
6
73
1
0
SEQEND
8
OBJECT__30
0
POLYLINE
8
OBJECT__31
66
1
70
64
71
10
72
8
62
253
0
VERTEX
8
OBJECT__31
10
30.000000
20
0.000000
30
5.700000
70
192
0
VERTEX
8
OBJECT__31
10
-9.271000
20
-28.532000
30
5.700000
70
192
0
VERTEX
8
OBJECT__31
10
9.271000
20
-28.532000
30
5.700000
70
192
0
VERTEX
8
OBJECT__31
10
-30.000000
20
0.000000
30
5.700000
70
192
0
VERTEX
8
OBJECT__31
10
-24.271000
20
-17.634001
30
5.700000
70
192
0
VERTEX
8
OBJECT__31
10
-9.271000
20
28.532000
30
5.700000
70
192
0
VERTEX
8
OBJECT__31
10
-24.271000
20
17.634001
30
5.700000
70
192
0
VERTEX
8
OBJECT__31
10
24.271000
20
17.634001
30
5.700000
70
192
0
VERTEX
8
OBJECT__31
10
9.271000
20
28.532000
30
5.700000
70
192
0
VERTEX
8
OBJECT__31
10
24.271000
20
-17.634001
30
5.700000
70
192
0
VERTEX
8
OBJECT__31
10
0
20
0
30
0
70
128
71
1
72
2
73
3
0
VERTEX
8
OBJECT__31
10
0
20
0
30
0
70
128
71
1
72
4
73
5
0
VERTEX
8
OBJECT__31
10
0
20
0
30
0
70
128
71
1
72
6
73
7
0
VERTEX
8
OBJECT__31
10
0
20
0
30
0
70
128
71
6
72
1
73
8
0
VERTEX
8
OBJECT__31
10
0
20
0
30
0
70
128
71
5
72
2
73
1
0
VERTEX
8
OBJECT__31
10
0
20
0
30
0
70
128
71
8
72
9
73
6
0
VERTEX
8
OBJECT__31
10
0
20
0
30
0
70
128
71
7
72
4
73
1
0
VERTEX
8
OBJECT__31
10
0
20
0
30
0
70
128
71
3
72
10
73
1
0
SEQEND
8
OBJECT__31
0
POLYLINE
8
OBJECT__32
66
1
70
64
71
20
72
20
62
253
0
VERTEX
8
OBJECT__32
10
-24.271000
20
17.634001
30
5.700000
70
192
0
VERTEX
8
OBJECT__32
10
-24.271000
20
17.634001
30
0.000000
70
192
0
VERTEX
8
OBJECT__32
10
-30.000000
20
0.000000
30
0.000000
70
192
0
VERTEX
8
OBJECT__32
10
-9.271000
20
28.532000
30
5.700000
70
192
0
VERTEX
8
OBJECT__32
10
-9.271000
20
28.532000
30
0.000000
70
192
0
VERTEX
8
OBJECT__32
10
9.271000
20
28.532000
30
5.700000
70
192
0
VERTEX
8
OBJECT__32
10
9.271000
20
28.532000
30
0.000000
70
192
0
VERTEX
8
OBJECT__32
10
24.271000
20
17.634001
30
5.700000
70
192
0
VERTEX
8
OBJECT__32
10
24.271000
20
17.634001
30
0.000000
70
192
0
VERTEX
8
OBJECT__32
10
30.000000
20
0.000000
30
5.700000
70
192
0
VERTEX
8
OBJECT__32
10
30.000000
20
0.000000
30
0.000000
70
192
0
VERTEX
8
OBJECT__32
10
24.271000
20
-17.634001
30
5.700000
70
192
0
VERTEX
8
OBJECT__32
10
24.271000
20
-17.634001
30
0.000000
70
192
0
VERTEX
8
OBJECT__32
10
9.271000
20
-28.532000
30
5.700000
70
192
0
VERTEX
8
OBJECT__32
10
9.271000
20
-28.532000
30
0.000000
70
192
0
VERTEX
8
OBJECT__32
10
-9.271000
20
-28.532000
30
5.700000
70
192
0
VERTEX
8
OBJECT__32
10
-9.271000
20
-28.532000
30
0.000000
70
192
0
VERTEX
8
OBJECT__32
10
-24.271000
20
-17.634001
30
5.700000
70
192
0
VERTEX
8
OBJECT__32
10
-24.271000
20
-17.634001
30
0.000000
70
192
0
VERTEX
8
OBJECT__32
10
-30.000000
20
0.000000
30
5.700000
70
192
0
VERTEX
8
OBJECT__32
10
0
20
0
30
0
70
128
71
1
72
2
73
3
0
VERTEX
8
OBJECT__32
10
0
20
0
30
0
70
128
71
4
72
5
73
2
0
VERTEX
8
OBJECT__32
10
0
20
0
30
0
70
128
71
6
72
7
73
5
0
VERTEX
8
OBJECT__32
10
0
20
0
30
0
70
128
71
8
72
9
73
7
0
VERTEX
8
OBJECT__32
10
0
20
0
30
0
70
128
71
10
72
11
73
9
0
VERTEX
8
OBJECT__32
10
0
20
0
30
0
70
128
71
12
72
13
73
11
0
VERTEX
8
OBJECT__32
10
0
20
0
30
0
70
128
71
14
72
15
73
13
0
VERTEX
8
OBJECT__32
10
0
20
0
30
0
70
128
71
16
72
17
73
15
0
VERTEX
8
OBJECT__32
10
0
20
0
30
0
70
128
71
18
72
19
73
17
0
VERTEX
8
OBJECT__32
10
0
20
0
30
0
70
128
71
20
72
3
73
19
0
VERTEX
8
OBJECT__32
10
0
20
0
30
0
70
128
71
19
72
18
73
20
0
VERTEX
8
OBJECT__32
10
0
20
0
30
0
70
128
71
17
72
16
73
18
0
VERTEX
8
OBJECT__32
10
0
20
0
30
0
70
128
71
15
72
14
73
16
0
VERTEX
8
OBJECT__32
10
0
20
0
30
0
70
128
71
13
72
12
73
14
0
VERTEX
8
OBJECT__32
10
0
20
0
30
0
70
128
71
11
72
10
73
12
0
VERTEX
8
OBJECT__32
10
0
20
0
30
0
70
128
71
9
72
8
73
10
0
VERTEX
8
OBJECT__32
10
0
20
0
30
0
70
128
71
7
72
6
73
8
0
VERTEX
8
OBJECT__32
10
0
20
0
30
0
70
128
71
5
72
4
73
6
0
VERTEX
8
OBJECT__32
10
0
20
0
30
0
70
128
71
2
72
1
73
4
0
VERTEX
8
OBJECT__32
10
0
20
0
30
0
70
128
71
3
72
20
73
1
0
SEQEND
8
OBJECT__32
0
POLYLINE
8
OBJECT__34
66
1
70
64
71
10
72
8
62
253
0
VERTEX
8
OBJECT__34
10
30.000000
20
0.000000
30
0.000000
70
192
0
VERTEX
8
OBJECT__34
10
-9.271000
20
28.532000
30
0.000000
70
192
0
VERTEX
8
OBJECT__34
10
9.271000
20
28.532000
30
0.000000
70
192
0
VERTEX
8
OBJECT__34
10
-30.000000
20
0.000000
30
0.000000
70
192
0
VERTEX
8
OBJECT__34
10
-24.271000
20
17.634001
30
0.000000
70
192
0
VERTEX
8
OBJECT__34
10
9.271000
20
-28.532000
30
0.000000
70
192
0
VERTEX
8
OBJECT__34
10
-9.271000
20
-28.532000
30
0.000000
70
192
0
VERTEX
8
OBJECT__34
10
24.271000
20
-17.634001
30
0.000000
70
192
0
VERTEX
8
OBJECT__34
10
-24.271000
20
-17.634001
30
0.000000
70
192
0
VERTEX
8
OBJECT__34
10
24.271000
20
17.634001
30
0.000000
70
192
0
VERTEX
8
OBJECT__34
10
0
20
0
30
0
70
128
71
1
72
2
73
3
0
VERTEX
8
OBJECT__34
10
0
20
0
30
0
70
128
71
1
72
4
73
5
0
VERTEX
8
OBJECT__34
10
0
20
0
30
0
70
128
71
4
72
6
73
7
0
VERTEX
8
OBJECT__34
10
0
20
0
30
0
70
128
71
4
72
1
73
8
0
VERTEX
8
OBJECT__34
10
0
20
0
30
0
70
128
71
5
72
2
73
1
0
VERTEX
8
OBJECT__34
10
0
20
0
30
0
70
128
71
8
72
6
73
4
0
VERTEX
8
OBJECT__34
10
0
20
0
30
0
70
128
71
7
72
9
73
4
0
VERTEX
8
OBJECT__34
10
0
20
0
30
0
70
128
71
3
72
10
73
1
0
SEQEND
8
OBJECT__34
0
POLYLINE
8
OBJECT__35
66
1
70
64
71
16
72
16
62
253
0
VERTEX
8
OBJECT__35
10
14.708000
20
14.708000
30
190.000000
70
192
0
VERTEX
8
OBJECT__35
10
14.708000
20
14.708000
30
2.000000
70
192
0
VERTEX
8
OBJECT__35
10
0.000000
20
20.799999
30
2.000000
70
192
0
VERTEX
8
OBJECT__35
10
20.799999
20
0.000000
30
190.000000
70
192
0
VERTEX
8
OBJECT__35
10
20.799999
20
0.000000
30
2.000000
70
192
0
VERTEX
8
OBJECT__35
10
14.708000
20
-14.708000
30
190.000000
70
192
0
VERTEX
8
OBJECT__35
10
14.708000
20
-14.708000
30
2.000000
70
192
0
VERTEX
8
OBJECT__35
10
0.000000
20
-20.799999
30
190.000000
70
192
0
VERTEX
8
OBJECT__35
10
0.000000
20
-20.799999
30
2.000000
70
192
0
VERTEX
8
OBJECT__35
10
-14.708000
20
-14.708000
30
190.000000
70
192
0
VERTEX
8
OBJECT__35
10
-14.708000
20
-14.708000
30
2.000000
70
192
0
VERTEX
8
OBJECT__35
10
-20.799999
20
0.000000
30
190.000000
70
192
0
VERTEX
8
OBJECT__35
10
-20.799999
20
0.000000
30
2.000000
70
192
0
VERTEX
8
OBJECT__35
10
-14.708000
20
14.708000
30
190.000000
70
192
0
VERTEX
8
OBJECT__35
10
-14.708000
20
14.708000
30
2.000000
70
192
0
VERTEX
8
OBJECT__35
10
0.000000
20
20.799999
30
190.000000
70
192
0
VERTEX
8
OBJECT__35
10
0
20
0
30
0
70
128
71
1
72
2
73
3
0
VERTEX
8
OBJECT__35
10
0
20
0
30
0
70
128
71
4
72
5
73
2
0
VERTEX
8
OBJECT__35
10
0
20
0
30
0
70
128
71
6
72
7
73
5
0
VERTEX
8
OBJECT__35
10
0
20
0
30
0
70
128
71
8
72
9
73
7
0
VERTEX
8
OBJECT__35
10
0
20
0
30
0
70
128
71
10
72
11
73
9
0
VERTEX
8
OBJECT__35
10
0
20
0
30
0
70
128
71
12
72
13
73
11
0
VERTEX
8
OBJECT__35
10
0
20
0
30
0
70
128
71
14
72
15
73
13
0
VERTEX
8
OBJECT__35
10
0
20
0
30
0
70
128
71
14
72
16
73
3
0
VERTEX
8
OBJECT__35
10
0
20
0
30
0
70
128
71
3
72
15
73
14
0
VERTEX
8
OBJECT__35
10
0
20
0
30
0
70
128
71
13
72
12
73
14
0
VERTEX
8
OBJECT__35
10
0
20
0
30
0
70
128
71
11
72
10
73
12
0
VERTEX
8
OBJECT__35
10
0
20
0
30
0
70
128
71
9
72
8
73
10
0
VERTEX
8
OBJECT__35
10
0
20
0
30
0
70
128
71
7
72
6
73
8
0
VERTEX
8
OBJECT__35
10
0
20
0
30
0
70
128
71
5
72
4
73
6
0
VERTEX
8
OBJECT__35
10
0
20
0
30
0
70
128
71
2
72
1
73
4
0
VERTEX
8
OBJECT__35
10
0
20
0
30
0
70
128
71
3
72
16
73
1
0
SEQEND
8
OBJECT__35
0
POLYLINE
8
OBJECT__36
66
1
70
64
71
16
72
16
62
253
0
VERTEX
8
OBJECT__36
10
0.000000
20
-20.799999
30
191.500000
70
192
0
VERTEX
8
OBJECT__36
10
-14.708000
20
-14.708000
30
191.500000
70
192
0
VERTEX
8
OBJECT__36
10
-14.708000
20
-14.708000
30
190.000000
70
192
0
VERTEX
8
OBJECT__36
10
-20.799999
20
0.000000
30
191.500000
70
192
0
VERTEX
8
OBJECT__36
10
-20.799999
20
0.000000
30
190.000000
70
192
0
VERTEX
8
OBJECT__36
10
-14.708000
20
14.708000
30
191.500000
70
192
0
VERTEX
8
OBJECT__36
10
-14.708000
20
14.708000
30
190.000000
70
192
0
VERTEX
8
OBJECT__36
10
0.000000
20
20.799999
30
191.500000
70
192
0
VERTEX
8
OBJECT__36
10
0.000000
20
20.799999
30
190.000000
70
192
0
VERTEX
8
OBJECT__36
10
14.708000
20
14.708000
30
191.500000
70
192
0
VERTEX
8
OBJECT__36
10
14.708000
20
14.708000
30
190.000000
70
192
0
VERTEX
8
OBJECT__36
10
20.799999
20
0.000000
30
191.500000
70
192
0
VERTEX
8
OBJECT__36
10
20.799999
20
0.000000
30
190.000000
70
192
0
VERTEX
8
OBJECT__36
10
14.708000
20
-14.708000
30
191.500000
70
192
0
VERTEX
8
OBJECT__36
10
14.708000
20
-14.708000
30
190.000000
70
192
0
VERTEX
8
OBJECT__36
10
0.000000
20
-20.799999
30
190.000000
70
192
0
VERTEX
8
OBJECT__36
10
0
20
0
30
0
70
128
71
1
72
2
73
3
0
VERTEX
8
OBJECT__36
10
0
20
0
30
0
70
128
71
2
72
4
73
5
0
VERTEX
8
OBJECT__36
10
0
20
0
30
0
70
128
71
4
72
6
73
7
0
VERTEX
8
OBJECT__36
10
0
20
0
30
0
70
128
71
8
72
9
73
7
0
VERTEX
8
OBJECT__36
10
0
20
0
30
0
70
128
71
8
72
10
73
11
0
VERTEX
8
OBJECT__36
10
0
20
0
30
0
70
128
71
12
72
13
73
11
0
VERTEX
8
OBJECT__36
10
0
20
0
30
0
70
128
71
14
72
15
73
13
0
VERTEX
8
OBJECT__36
10
0
20
0
30
0
70
128
71
1
72
16
73
15
0
VERTEX
8
OBJECT__36
10
0
20
0
30
0
70
128
71
15
72
14
73
1
0
VERTEX
8
OBJECT__36
10
0
20
0
30
0
70
128
71
13
72
12
73
14
0
VERTEX
8
OBJECT__36
10
0
20
0
30
0
70
128
71
11
72
10
73
12
0
VERTEX
8
OBJECT__36
10
0
20
0
30
0
70
128
71
11
72
9
73
8
0
VERTEX
8
OBJECT__36
10
0
20
0
30
0
70
128
71
7
72
6
73
8
0
VERTEX
8
OBJECT__36
10
0
20
0
30
0
70
128
71
7
72
5
73
4
0
VERTEX
8
OBJECT__36
10
0
20
0
30
0
70
128
71
5
72
3
73
2
0
VERTEX
8
OBJECT__36
10
0
20
0
30
0
70
128
71
3
72
16
73
1
0
SEQEND
8
OBJECT__36
0
POLYLINE
8
OBJECT__38
66
1
70
64
71
59
72
62
62
253
0
VERTEX
8
OBJECT__38
10
-0.001000
20
-20.855000
30
191.813995
70
192
0
VERTEX
8
OBJECT__38
10
-7.720000
20
-19.374001
30
191.813995
70
192
0
VERTEX
8
OBJECT__38
10
-14.344000
20
-15.140000
30
191.813995
70
192
0
VERTEX
8
OBJECT__38
10
0.000000
20
-20.799999
30
191.500000
70
192
0
VERTEX
8
OBJECT__38
10
-14.584000
20
-14.909000
30
191.813995
70
192
0
VERTEX
8
OBJECT__38
10
-14.708000
20
-14.708000
30
191.500000
70
192
0
VERTEX
8
OBJECT__38
10
0.000000
20
-20.856001
30
191.813995
70
192
0
VERTEX
8
OBJECT__38
10
-14.744000
20
-14.746000
30
191.813995
70
192
0
VERTEX
8
OBJECT__38
10
-20.799999
20
0.000000
30
191.500000
70
192
0
VERTEX
8
OBJECT__38
10
-20.812000
20
-1.277000
30
191.787003
70
192
0
VERTEX
8
OBJECT__38
10
-19.041000
20
-8.507000
30
191.809998
70
192
0
VERTEX
8
OBJECT__38
10
-20.698999
20
-2.533000
30
191.804001
70
192
0
VERTEX
8
OBJECT__38
10
-18.695000
20
-9.242000
30
191.809998
70
192
0
VERTEX
8
OBJECT__38
10
-15.153000
20
-14.330000
30
191.813995
70
192
0
VERTEX
8
OBJECT__38
10
-20.667999
20
-0.016000
30
191.802002
70
192
0
VERTEX
8
OBJECT__38
10
-20.782000
20
-1.726000
30
191.804001
70
192
0
VERTEX
8
OBJECT__38
10
-20.667999
20
-0.012000
30
191.802002
70
192
0
VERTEX
8
OBJECT__38
10
-20.181000
20
5.250000
30
191.796005
70
192
0
VERTEX
8
OBJECT__38
10
-18.091000
20
10.361000
30
191.772003
70
192
0
VERTEX
8
OBJECT__38
10
-20.370001
20
4.460000
30
191.796997
70
192
0
VERTEX
8
OBJECT__38
10
-14.590000
20
14.598000
30
191.785004
70
192
0
VERTEX
8
OBJECT__38
10
-14.588000
20
14.601000
30
191.785004
70
192
0
VERTEX
8
OBJECT__38
10
-14.708000
20
14.708000
30
191.500000
70
192
0
VERTEX
8
OBJECT__38
10
-17.743999
20
10.951000
30
191.789993
70
192
0
VERTEX
8
OBJECT__38
10
-17.304001
20
11.633000
30
191.789001
70
192
0
VERTEX
8
OBJECT__38
10
0.000000
20
20.799999
30
191.500000
70
192
0
VERTEX
8
OBJECT__38
10
-6.243000
20
19.892000
30
191.776001
70
192
0
VERTEX
8
OBJECT__38
10
-0.117000
20
20.848000
30
191.772995
70
192
0
VERTEX
8
OBJECT__38
10
-7.013000
20
19.634001
30
191.776993
70
192
0
VERTEX
8
OBJECT__38
10
-13.118000
20
16.205999
30
191.783005
70
192
0
VERTEX
8
OBJECT__38
10
-12.477000
20
16.705000
30
191.781998
70
192
0
VERTEX
8
OBJECT__38
10
-0.001000
20
20.846001
30
191.772995
70
192
0
VERTEX
8
OBJECT__38
10
14.708000
20
14.708000
30
191.500000
70
192
0
VERTEX
8
OBJECT__38
10
12.934000
20
16.351000
30
191.772003
70
192
0
VERTEX
8
OBJECT__38
10
13.561000
20
15.835000
30
191.772003
70
192
0
VERTEX
8
OBJECT__38
10
7.553000
20
19.431000
30
191.770996
70
192
0
VERTEX
8
OBJECT__38
10
0.694000
20
20.837000
30
191.772003
70
192
0
VERTEX
8
OBJECT__38
10
6.791000
20
19.711000
30
191.770996
70
192
0
VERTEX
8
OBJECT__38
10
0.000000
20
20.846001
30
191.772995
70
192
0
VERTEX
8
OBJECT__38
10
18.039000
20
10.453000
30
191.776001
70
192
0
VERTEX
8
OBJECT__38
10
20.316000
20
4.687000
30
191.781006
70
192
0
VERTEX
8
OBJECT__38
10
18.231001
20
10.110000
30
191.761993
70
192
0
VERTEX
8
OBJECT__38
10
17.618000
20
11.148000
30
191.774994
70
192
0
VERTEX
8
OBJECT__38
10
14.609000
20
14.624000
30
191.772995
70
192
0
VERTEX
8
OBJECT__38
10
20.799999
20
0.000000
30
191.500000
70
192
0
VERTEX
8
OBJECT__38
10
20.483000
20
3.892000
30
191.781006
70
192
0
VERTEX
8
OBJECT__38
10
20.634001
20
-0.008000
30
191.785004
70
192
0
VERTEX
8
OBJECT__38
10
18.794001
20
-9.033000
30
191.794998
70
192
0
VERTEX
8
OBJECT__38
10
20.723000
20
-2.303000
30
191.787994
70
192
0
VERTEX
8
OBJECT__38
10
20.618000
20
-3.108000
30
191.787994
70
192
0
VERTEX
8
OBJECT__38
10
18.427999
20
-9.758000
30
191.796005
70
192
0
VERTEX
8
OBJECT__38
10
14.746000
20
-14.746000
30
191.802002
70
192
0
VERTEX
8
OBJECT__38
10
14.708000
20
-14.708000
30
191.500000
70
192
0
VERTEX
8
OBJECT__38
10
20.634001
20
-0.012000
30
191.785004
70
192
0
VERTEX
8
OBJECT__38
10
8.296000
20
-19.132999
30
191.809006
70
192
0
VERTEX
8
OBJECT__38
10
2.305000
20
-20.728001
30
191.813004
70
192
0
VERTEX
8
OBJECT__38
10
9.035000
20
-18.796000
30
191.809006
70
192
0
VERTEX
8
OBJECT__38
10
14.161000
20
-15.309000
30
191.802994
70
192
0
VERTEX
8
OBJECT__38
10
14.743000
20
-14.748000
30
191.802002
70
192
0
VERTEX
8
OBJECT__38
10
0
20
0
30
0
70
128
71
1
72
2
73
3
0
VERTEX
8
OBJECT__38
10
0
20
0
30
0
70
128
71
4
72
1
73
5
0
VERTEX
8
OBJECT__38
10
0
20
0
30
0
70
128
71
5
72
6
73
4
0
VERTEX
8
OBJECT__38
10
0
20
0
30
0
70
128
71
4
72
7
73
1
0
VERTEX
8
OBJECT__38
10
0
20
0
30
0
70
128
71
5
72
8
73
6
0
VERTEX
8
OBJECT__38
10
0
20
0
30
0
70
128
71
3
72
5
73
1
0
VERTEX
8
OBJECT__38
10
0
20
0
30
0
70
128
71
9
72
6
73
10
0
VERTEX
8
OBJECT__38
10
0
20
0
30
0
70
128
71
6
72
11
73
12
0
VERTEX
8
OBJECT__38
10
0
20
0
30
0
70
128
71
6
72
13
73
11
0
VERTEX
8
OBJECT__38
10
0
20
0
30
0
70
128
71
6
72
8
73
14
0
VERTEX
8
OBJECT__38
10
0
20
0
30
0
70
128
71
14
72
13
73
6
0
VERTEX
8
OBJECT__38
10
0
20
0
30
0
70
128
71
12
72
10
73
6
0
VERTEX
8
OBJECT__38
10
0
20
0
30
0
70
128
71
10
72
15
73
9
0
VERTEX
8
OBJECT__38
10
0
20
0
30
0
70
128
71
16
72
15
73
10
0
VERTEX
8
OBJECT__38
10
0
20
0
30
0
70
128
71
10
72
12
73
16
0
VERTEX
8
OBJECT__38
10
0
20
0
30
0
70
128
71
15
72
17
73
9
0
VERTEX
8
OBJECT__38
10
0
20
0
30
0
70
128
71
9
72
18
73
19
0
VERTEX
8
OBJECT__38
10
0
20
0
30
0
70
128
71
9
72
17
73
20
0
VERTEX
8
OBJECT__38
10
0
20
0
30
0
70
128
71
20
72
18
73
9
0
VERTEX
8
OBJECT__38
10
0
20
0
30
0
70
128
71
19
72
21
73
9
0
VERTEX
8
OBJECT__38
10
0
20
0
30
0
70
128
71
21
72
22
73
9
0
VERTEX
8
OBJECT__38
10
0
20
0
30
0
70
128
71
22
72
23
73
9
0
VERTEX
8
OBJECT__38
10
0
20
0
30
0
70
128
71
24
72
21
73
19
0
VERTEX
8
OBJECT__38
10
0
20
0
30
0
70
128
71
19
72
18
73
24
0
VERTEX
8
OBJECT__38
10
0
20
0
30
0
70
128
71
24
72
25
73
21
0
VERTEX
8
OBJECT__38
10
0
20
0
30
0
70
128
71
26
72
27
73
28
0
VERTEX
8
OBJECT__38
10
0
20
0
30
0
70
128
71
26
72
29
73
27
0
VERTEX
8
OBJECT__38
10
0
20
0
30
0
70
128
71
23
72
22
73
30
0
VERTEX
8
OBJECT__38
10
0
20
0
30
0
70
128
71
30
72
26
73
23
0
VERTEX
8
OBJECT__38
10
0
20
0
30
0
70
128
71
30
72
31
73
26
0
VERTEX
8
OBJECT__38
10
0
20
0
30
0
70
128
71
31
72
29
73
26
0
VERTEX
8
OBJECT__38
10
0
20
0
30
0
70
128
71
28
72
32
73
26
0
VERTEX
8
OBJECT__38
10
0
20
0
30
0
70
128
71
33
72
34
73
35
0
VERTEX
8
OBJECT__38
10
0
20
0
30
0
70
128
71
33
72
26
73
36
0
VERTEX
8
OBJECT__38
10
0
20
0
30
0
70
128
71
36
72
34
73
33
0
VERTEX
8
OBJECT__38
10
0
20
0
30
0
70
128
71
26
72
37
73
38
0
VERTEX
8
OBJECT__38
10
0
20
0
30
0
70
128
71
26
72
39
73
37
0
VERTEX
8
OBJECT__38
10
0
20
0
30
0
70
128
71
38
72
36
73
26
0
VERTEX
8
OBJECT__38
10
0
20
0
30
0
70
128
71
40
72
41
73
42
0
VERTEX
8
OBJECT__38
10
0
20
0
30
0
70
128
71
42
72
43
73
40
0
VERTEX
8
OBJECT__38
10
0
20
0
30
0
70
128
71
42
72
44
73
43
0
VERTEX
8
OBJECT__38
10
0
20
0
30
0
70
128
71
45
72
41
73
46
0
VERTEX
8
OBJECT__38
10
0
20
0
30
0
70
128
71
46
72
47
73
45
0
VERTEX
8
OBJECT__38
10
0
20
0
30
0
70
128
71
45
72
42
73
41
0
VERTEX
8
OBJECT__38
10
0
20
0
30
0
70
128
71
33
72
44
73
42
0
VERTEX
8
OBJECT__38
10
0
20
0
30
0
70
128
71
42
72
45
73
33
0
VERTEX
8
OBJECT__38
10
0
20
0
30
0
70
128
71
48
72
49
73
50
0
VERTEX
8
OBJECT__38
10
0
20
0
30
0
70
128
71
51
72
52
73
48
0
VERTEX
8
OBJECT__38
10
0
20
0
30
0
70
128
71
53
72
45
73
54
0
VERTEX
8
OBJECT__38
10
0
20
0
30
0
70
128
71
45
72
47
73
54
0
VERTEX
8
OBJECT__38
10
0
20
0
30
0
70
128
71
54
72
52
73
53
0
VERTEX
8
OBJECT__38
10
0
20
0
30
0
70
128
71
54
72
48
73
52
0
VERTEX
8
OBJECT__38
10
0
20
0
30
0
70
128
71
54
72
49
73
48
0
VERTEX
8
OBJECT__38
10
0
20
0
30
0
70
128
71
4
72
55
73
56
0
VERTEX
8
OBJECT__38
10
0
20
0
30
0
70
128
71
4
72
57
73
55
0
VERTEX
8
OBJECT__38
10
0
20
0
30
0
70
128
71
53
72
58
73
57
0
VERTEX
8
OBJECT__38
10
0
20
0
30
0
70
128
71
53
72
59
73
58
0
VERTEX
8
OBJECT__38
10
0
20
0
30
0
70
128
71
57
72
4
73
53
0
VERTEX
8
OBJECT__38
10
0
20
0
30
0
70
128
71
52
72
59
73
53
0
VERTEX
8
OBJECT__38
10
0
20
0
30
0
70
128
71
56
72
7
73
4
0
VERTEX
8
OBJECT__38
10
0
20
0
30
0
70
128
71
35
72
44
73
33
0
VERTEX
8
OBJECT__38
10
0
20
0
30
0
70
128
71
32
72
39
73
26
0
SEQEND
8
OBJECT__38
0
POLYLINE
8
OBJECT__39
66
1
70
64
71
79
72
79
62
253
0
VERTEX
8
OBJECT__39
10
14.161000
20
-15.309000
30
191.802994
70
192
0
VERTEX
8
OBJECT__39
10
14.743000
20
-14.748000
30
231.936005
70
192
0
VERTEX
8
OBJECT__39
10
12.717000
20
-15.587000
30
231.936005
70
192
0
VERTEX
8
OBJECT__39
10
8.296000
20
-19.132999
30
191.809006
70
192
0
VERTEX
8
OBJECT__39
10
9.035000
20
-18.796000
30
191.809006
70
192
0
VERTEX
8
OBJECT__39
10
0.000000
20
-20.856001
30
231.936005
70
192
0
VERTEX
8
OBJECT__39
10
2.305000
20
-20.728001
30
191.813004
70
192
0
VERTEX
8
OBJECT__39
10
0.000000
20
-20.856001
30
191.813995
70
192
0
VERTEX
8
OBJECT__39
10
-0.001000
20
-20.855000
30
191.813995
70
192
0
VERTEX
8
OBJECT__39
10
-0.001000
20
-20.855000
30
231.936005
70
192
0
VERTEX
8
OBJECT__39
10
20.849001
20
-0.003000
30
231.936005
70
192
0
VERTEX
8
OBJECT__39
10
18.427999
20
-9.758000
30
191.796005
70
192
0
VERTEX
8
OBJECT__39
10
18.794001
20
-9.033000
30
191.794998
70
192
0
VERTEX
8
OBJECT__39
10
14.746000
20
-14.746000
30
191.802002
70
192
0
VERTEX
8
OBJECT__39
10
20.618000
20
-3.108000
30
191.787994
70
192
0
VERTEX
8
OBJECT__39
10
14.743000
20
-14.748000
30
191.802002
70
192
0
VERTEX
8
OBJECT__39
10
19.129000
20
-4.158000
30
231.936005
70
192
0
VERTEX
8
OBJECT__39
10
20.723000
20
-2.303000
30
191.787994
70
192
0
VERTEX
8
OBJECT__39
10
20.851000
20
0.000000
30
231.936005
70
192
0
VERTEX
8
OBJECT__39
10
20.634001
20
-0.008000
30
191.785004
70
192
0
VERTEX
8
OBJECT__39
10
20.483000
20
3.892000
30
191.781006
70
192
0
VERTEX
8
OBJECT__39
10
17.797001
20
7.371000
30
231.936005
70
192
0
VERTEX
8
OBJECT__39
10
20.316000
20
4.687000
30
191.781006
70
192
0
VERTEX
8
OBJECT__39
10
14.743000
20
14.741000
30
231.936005
70
192
0
VERTEX
8
OBJECT__39
10
17.618000
20
11.148000
30
191.774994
70
192
0
VERTEX
8
OBJECT__39
10
18.039000
20
10.453000
30
191.776001
70
192
0
VERTEX
8
OBJECT__39
10
14.609000
20
14.624000
30
191.772995
70
192
0
VERTEX
8
OBJECT__39
10
20.634001
20
-0.012000
30
191.785004
70
192
0
VERTEX
8
OBJECT__39
10
7.371000
20
17.795000
30
231.936005
70
192
0
VERTEX
8
OBJECT__39
10
13.561000
20
15.835000
30
191.772003
70
192
0
VERTEX
8
OBJECT__39
10
12.934000
20
16.351000
30
191.772003
70
192
0
VERTEX
8
OBJECT__39
10
7.553000
20
19.431000
30
191.770996
70
192
0
VERTEX
8
OBJECT__39
10
0.000000
20
20.848000
30
231.936005
70
192
0
VERTEX
8
OBJECT__39
10
6.791000
20
19.711000
30
191.770996
70
192
0
VERTEX
8
OBJECT__39
10
0.694000
20
20.837000
30
191.772003
70
192
0
VERTEX
8
OBJECT__39
10
0.000000
20
20.846001
30
191.772995
70
192
0
VERTEX
8
OBJECT__39
10
-0.001000
20
20.846001
30
191.772995
70
192
0
VERTEX
8
OBJECT__39
10
-0.001000
20
20.848000
30
231.936005
70
192
0
VERTEX
8
OBJECT__39
10
-0.117000
20
20.848000
30
191.772995
70
192
0
VERTEX
8
OBJECT__39
10
-6.243000
20
19.892000
30
191.776001
70
192
0
VERTEX
8
OBJECT__39
10
-6.442000
20
19.827000
30
231.936005
70
192
0
VERTEX
8
OBJECT__39
10
-7.013000
20
19.634001
30
191.776993
70
192
0
VERTEX
8
OBJECT__39
10
-12.477000
20
16.705000
30
191.781998
70
192
0
VERTEX
8
OBJECT__39
10
-11.583000
20
17.334000
30
231.936005
70
192
0
VERTEX
8
OBJECT__39
10
-14.578000
20
14.564000
30
231.936005
70
192
0
VERTEX
8
OBJECT__39
10
-14.588000
20
14.601000
30
191.785004
70
192
0
VERTEX
8
OBJECT__39
10
-14.590000
20
14.598000
30
191.785004
70
192
0
VERTEX
8
OBJECT__39
10
-13.118000
20
16.205999
30
191.783005
70
192
0
VERTEX
8
OBJECT__39
10
-14.580000
20
14.562000
30
231.936005
70
192
0
VERTEX
8
OBJECT__39
10
-7.908000
20
19.115999
30
231.936005
70
192
0
VERTEX
8
OBJECT__39
10
-19.261999
20
7.978000
30
231.936005
70
192
0
VERTEX
8
OBJECT__39
10
-16.381001
20
12.896000
30
231.936005
70
192
0
VERTEX
8
OBJECT__39
10
-20.851999
20
0.000000
30
231.936005
70
192
0
VERTEX
8
OBJECT__39
10
-20.757000
20
1.973000
30
231.936005
70
192
0
VERTEX
8
OBJECT__39
10
-20.667999
20
-0.012000
30
191.802002
70
192
0
VERTEX
8
OBJECT__39
10
-20.667999
20
-0.016000
30
191.802002
70
192
0
VERTEX
8
OBJECT__39
10
-20.370001
20
4.460000
30
191.796997
70
192
0
VERTEX
8
OBJECT__39
10
-17.743999
20
10.951000
30
191.789993
70
192
0
VERTEX
8
OBJECT__39
10
-20.181000
20
5.250000
30
191.796005
70
192
0
VERTEX
8
OBJECT__39
10
-17.304001
20
11.633000
30
191.789001
70
192
0
VERTEX
8
OBJECT__39
10
-20.851000
20
-0.003000
30
231.936005
70
192
0
VERTEX
8
OBJECT__39
10
-14.567000
20
-14.583000
30
231.936005
70
192
0
VERTEX
8
OBJECT__39
10
-15.153000
20
-14.330000
30
191.813995
70
192
0
VERTEX
8
OBJECT__39
10
-14.745000
20
-14.745000
30
191.813995
70
192
0
VERTEX
8
OBJECT__39
10
-17.343000
20
-11.579000
30
231.936005
70
192
0
VERTEX
8
OBJECT__39
10
-19.809999
20
-6.509000
30
231.936005
70
192
0
VERTEX
8
OBJECT__39
10
-19.041000
20
-8.507000
30
191.809998
70
192
0
VERTEX
8
OBJECT__39
10
-18.695000
20
-9.242000
30
191.809998
70
192
0
VERTEX
8
OBJECT__39
10
-20.698999
20
-2.533000
30
191.804001
70
192
0
VERTEX
8
OBJECT__39
10
-20.149000
20
-4.389000
30
231.936005
70
192
0
VERTEX
8
OBJECT__39
10
-20.782000
20
-1.726000
30
191.804001
70
192
0
VERTEX
8
OBJECT__39
10
-14.344000
20
-15.140000
30
191.813995
70
192
0
VERTEX
8
OBJECT__39
10
-12.760000
20
-16.465000
30
231.936996
70
192
0
VERTEX
8
OBJECT__39
10
-12.909000
20
-16.378000
30
231.936996
70
192
0
VERTEX
8
OBJECT__39
10
-13.872000
20
-15.335000
30
231.936996
70
192
0
VERTEX
8
OBJECT__39
10
-7.720000
20
-19.374001
30
191.813995
70
192
0
VERTEX
8
OBJECT__39
10
-1.964000
20
-20.763000
30
231.936005
70
192
0
VERTEX
8
OBJECT__39
10
-7.991000
20
-19.263000
30
231.936005
70
192
0
VERTEX
8
OBJECT__39
10
-14.584000
20
-14.909000
30
191.813995
70
192
0
VERTEX
8
OBJECT__39
10
0
20
0
30
0
70
128
71
1
72
2
73
3
0
VERTEX
8
OBJECT__39
10
0
20
0
30
0
70
128
71
3
72
4
73
5
0
VERTEX
8
OBJECT__39
10
0
20
0
30
0
70
128
71
6
72
7
73
4
0
VERTEX
8
OBJECT__39
10
0
20
0
30
0
70
128
71
4
72
3
73
6
0
VERTEX
8
OBJECT__39
10
0
20
0
30
0
70
128
71
3
72
5
73
1
0
VERTEX
8
OBJECT__39
10
0
20
0
30
0
70
128
71
6
72
8
73
7
0
VERTEX
8
OBJECT__39
10
0
20
0
30
0
70
128
71
9
72
8
73
6
0
VERTEX
8
OBJECT__39
10
0
20
0
30
0
70
128
71
6
72
10
73
9
0
VERTEX
8
OBJECT__39
10
0
20
0
30
0
70
128
71
11
72
12
73
13
0
VERTEX
8
OBJECT__39
10
0
20
0
30
0
70
128
71
14
72
12
73
11
0
VERTEX
8
OBJECT__39
10
0
20
0
30
0
70
128
71
13
72
15
73
11
0
VERTEX
8
OBJECT__39
10
0
20
0
30
0
70
128
71
2
72
16
73
14
0
VERTEX
8
OBJECT__39
10
0
20
0
30
0
70
128
71
14
72
11
73
17
0
VERTEX
8
OBJECT__39
10
0
20
0
30
0
70
128
71
14
72
17
73
2
0
VERTEX
8
OBJECT__39
10
0
20
0
30
0
70
128
71
15
72
18
73
11
0
VERTEX
8
OBJECT__39
10
0
20
0
30
0
70
128
71
19
72
20
73
21
0
VERTEX
8
OBJECT__39
10
0
20
0
30
0
70
128
71
21
72
22
73
19
0
VERTEX
8
OBJECT__39
10
0
20
0
30
0
70
128
71
21
72
23
73
22
0
VERTEX
8
OBJECT__39
10
0
20
0
30
0
70
128
71
24
72
22
73
25
0
VERTEX
8
OBJECT__39
10
0
20
0
30
0
70
128
71
22
72
26
73
25
0
VERTEX
8
OBJECT__39
10
0
20
0
30
0
70
128
71
25
72
27
73
24
0
VERTEX
8
OBJECT__39
10
0
20
0
30
0
70
128
71
19
72
11
73
28
0
VERTEX
8
OBJECT__39
10
0
20
0
30
0
70
128
71
28
72
20
73
19
0
VERTEX
8
OBJECT__39
10
0
20
0
30
0
70
128
71
29
72
27
73
30
0
VERTEX
8
OBJECT__39
10
0
20
0
30
0
70
128
71
30
72
31
73
29
0
VERTEX
8
OBJECT__39
10
0
20
0
30
0
70
128
71
27
72
29
73
24
0
VERTEX
8
OBJECT__39
10
0
20
0
30
0
70
128
71
31
72
32
73
29
0
VERTEX
8
OBJECT__39
10
0
20
0
30
0
70
128
71
33
72
29
73
34
0
VERTEX
8
OBJECT__39
10
0
20
0
30
0
70
128
71
29
72
32
73
34
0
VERTEX
8
OBJECT__39
10
0
20
0
30
0
70
128
71
34
72
35
73
33
0
VERTEX
8
OBJECT__39
10
0
20
0
30
0
70
128
71
33
72
36
73
37
0
VERTEX
8
OBJECT__39
10
0
20
0
30
0
70
128
71
37
72
38
73
33
0
VERTEX
8
OBJECT__39
10
0
20
0
30
0
70
128
71
35
72
36
73
33
0
VERTEX
8
OBJECT__39
10
0
20
0
30
0
70
128
71
38
72
39
73
40
0
VERTEX
8
OBJECT__39
10
0
20
0
30
0
70
128
71
38
72
37
73
39
0
VERTEX
8
OBJECT__39
10
0
20
0
30
0
70
128
71
41
72
40
73
42
0
VERTEX
8
OBJECT__39
10
0
20
0
30
0
70
128
71
42
72
43
73
44
0
VERTEX
8
OBJECT__39
10
0
20
0
30
0
70
128
71
45
72
46
73
47
0
VERTEX
8
OBJECT__39
10
0
20
0
30
0
70
128
71
45
72
43
73
48
0
VERTEX
8
OBJECT__39
10
0
20
0
30
0
70
128
71
48
72
46
73
45
0
VERTEX
8
OBJECT__39
10
0
20
0
30
0
70
128
71
47
72
49
73
45
0
VERTEX
8
OBJECT__39
10
0
20
0
30
0
70
128
71
45
72
44
73
43
0
VERTEX
8
OBJECT__39
10
0
20
0
30
0
70
128
71
44
72
50
73
42
0
VERTEX
8
OBJECT__39
10
0
20
0
30
0
70
128
71
42
72
50
73
41
0
VERTEX
8
OBJECT__39
10
0
20
0
30
0
70
128
71
47
72
51
73
52
0
VERTEX
8
OBJECT__39
10
0
20
0
30
0
70
128
71
47
72
53
73
54
0
VERTEX
8
OBJECT__39
10
0
20
0
30
0
70
128
71
54
72
51
73
47
0
VERTEX
8
OBJECT__39
10
0
20
0
30
0
70
128
71
53
72
55
73
56
0
VERTEX
8
OBJECT__39
10
0
20
0
30
0
70
128
71
53
72
57
73
55
0
VERTEX
8
OBJECT__39
10
0
20
0
30
0
70
128
71
53
72
58
73
59
0
VERTEX
8
OBJECT__39
10
0
20
0
30
0
70
128
71
59
72
57
73
53
0
VERTEX
8
OBJECT__39
10
0
20
0
30
0
70
128
71
53
72
60
73
58
0
VERTEX
8
OBJECT__39
10
0
20
0
30
0
70
128
71
53
72
47
73
60
0
VERTEX
8
OBJECT__39
10
0
20
0
30
0
70
128
71
56
72
61
73
53
0
VERTEX
8
OBJECT__39
10
0
20
0
30
0
70
128
71
52
72
49
73
47
0
VERTEX
8
OBJECT__39
10
0
20
0
30
0
70
128
71
62
72
63
73
64
0
VERTEX
8
OBJECT__39
10
0
20
0
30
0
70
128
71
63
72
62
73
65
0
VERTEX
8
OBJECT__39
10
0
20
0
30
0
70
128
71
66
72
67
73
68
0
VERTEX
8
OBJECT__39
10
0
20
0
30
0
70
128
71
69
72
67
73
66
0
VERTEX
8
OBJECT__39
10
0
20
0
30
0
70
128
71
66
72
70
73
69
0
VERTEX
8
OBJECT__39
10
0
20
0
30
0
70
128
71
68
72
65
73
66
0
VERTEX
8
OBJECT__39
10
0
20
0
30
0
70
128
71
61
72
71
73
69
0
VERTEX
8
OBJECT__39
10
0
20
0
30
0
70
128
71
69
72
70
73
61
0
VERTEX
8
OBJECT__39
10
0
20
0
30
0
70
128
71
65
72
68
73
63
0
VERTEX
8
OBJECT__39
10
0
20
0
30
0
70
128
71
61
72
56
73
71
0
VERTEX
8
OBJECT__39
10
0
20
0
30
0
70
128
71
72
72
73
73
74
0
VERTEX
8
OBJECT__39
10
0
20
0
30
0
70
128
71
74
72
75
73
72
0
VERTEX
8
OBJECT__39
10
0
20
0
30
0
70
128
71
76
72
9
73
77
0
VERTEX
8
OBJECT__39
10
0
20
0
30
0
70
128
71
9
72
10
73
77
0
VERTEX
8
OBJECT__39
10
0
20
0
30
0
70
128
71
76
72
78
73
73
0
VERTEX
8
OBJECT__39
10
0
20
0
30
0
70
128
71
73
72
72
73
76
0
VERTEX
8
OBJECT__39
10
0
20
0
30
0
70
128
71
77
72
78
73
76
0
VERTEX
8
OBJECT__39
10
0
20
0
30
0
70
128
71
62
72
64
73
79
0
VERTEX
8
OBJECT__39
10
0
20
0
30
0
70
128
71
79
72
72
73
62
0
VERTEX
8
OBJECT__39
10
0
20
0
30
0
70
128
71
75
72
62
73
72
0
VERTEX
8
OBJECT__39
10
0
20
0
30
0
70
128
71
40
72
41
73
38
0
VERTEX
8
OBJECT__39
10
0
20
0
30
0
70
128
71
23
72
26
73
22
0
VERTEX
8
OBJECT__39
10
0
20
0
30
0
70
128
71
18
72
28
73
11
0
VERTEX
8
OBJECT__39
10
0
20
0
30
0
70
128
71
1
72
16
73
2
0
SEQEND
8
OBJECT__39
0
POLYLINE
8
OBJECT__40
66
1
70
64
71
38
72
36
62
253
0
VERTEX
8
OBJECT__40
10
0.000000
20
-20.856001
30
231.936005
70
192
0
VERTEX
8
OBJECT__40
10
7.031000
20
-19.493000
30
288.063995
70
192
0
VERTEX
8
OBJECT__40
10
1.974000
20
-20.754000
30
288.063995
70
192
0
VERTEX
8
OBJECT__40
10
8.000000
20
-19.252001
30
288.065002
70
192
0
VERTEX
8
OBJECT__40
10
12.901000
20
-16.377001
30
288.065002
70
192
0
VERTEX
8
OBJECT__40
10
12.717000
20
-15.587000
30
231.936005
70
192
0
VERTEX
8
OBJECT__40
10
12.995000
20
-16.275000
30
288.065002
70
192
0
VERTEX
8
OBJECT__40
10
0.000000
20
-20.848000
30
288.063995
70
192
0
VERTEX
8
OBJECT__40
10
14.743000
20
-14.748000
30
231.936005
70
192
0
VERTEX
8
OBJECT__40
10
17.837000
20
-10.560000
30
288.065002
70
192
0
VERTEX
8
OBJECT__40
10
17.350000
20
-11.560000
30
288.065002
70
192
0
VERTEX
8
OBJECT__40
10
19.129000
20
-4.158000
30
231.936005
70
192
0
VERTEX
8
OBJECT__40
10
19.806000
20
-6.511000
30
288.063995
70
192
0
VERTEX
8
OBJECT__40
10
20.111000
20
-4.611000
30
288.063995
70
192
0
VERTEX
8
OBJECT__40
10
20.851000
20
0.274000
30
274.209015
70
192
0
VERTEX
8
OBJECT__40
10
20.851000
20
0.248000
30
275.485992
70
192
0
VERTEX
8
OBJECT__40
10
20.850000
20
1.124000
30
269.277008
70
192
0
VERTEX
8
OBJECT__40
10
20.850000
20
1.422000
30
267.542999
70
192
0
VERTEX
8
OBJECT__40
10
20.850000
20
3.493000
30
263.889008
70
192
0
VERTEX
8
OBJECT__40
10
20.850000
20
15.504000
30
260.260010
70
192
0
VERTEX
8
OBJECT__40
10
20.850000
20
15.505000
30
259.734985
70
192
0
VERTEX
8
OBJECT__40
10
20.850000
20
16.221001
30
259.753998
70
192
0
VERTEX
8
OBJECT__40
10
20.850000
20
13.794000
30
260.306000
70
192
0
VERTEX
8
OBJECT__40
10
20.850000
20
13.733000
30
259.687988
70
192
0
VERTEX
8
OBJECT__40
10
20.850000
20
7.430000
30
261.459991
70
192
0
VERTEX
8
OBJECT__40
10
20.850000
20
7.451000
30
258.545990
70
192
0
VERTEX
8
OBJECT__40
10
20.850000
20
9.296000
30
258.881012
70
192
0
VERTEX
8
OBJECT__40
10
20.850000
20
9.296000
30
261.122009
70
192
0
VERTEX
8
OBJECT__40
10
20.850000
20
3.811000
30
256.433014
70
192
0
VERTEX
8
OBJECT__40
10
20.850000
20
16.221001
30
260.242004
70
192
0
VERTEX
8
OBJECT__40
10
20.850000
20
1.146000
30
250.714996
70
192
0
VERTEX
8
OBJECT__40
10
20.850000
20
1.546000
30
252.809006
70
192
0
VERTEX
8
OBJECT__40
10
20.850000
20
0.324000
30
246.414993
70
192
0
VERTEX
8
OBJECT__40
10
20.849001
20
-0.003000
30
231.936005
70
192
0
VERTEX
8
OBJECT__40
10
20.851000
20
0.000000
30
231.936005
70
192
0
VERTEX
8
OBJECT__40
10
20.850000
20
0.281000
30
244.511993
70
192
0
VERTEX
8
OBJECT__40
10
20.851000
20
0.000000
30
288.063995
70
192
0
VERTEX
8
OBJECT__40
10
20.850000
20
25.421000
30
259.998993
70
192
0
VERTEX
8
OBJECT__40
10
0
20
0
30
0
70
128
71
1
72
2
73
3
0
VERTEX
8
OBJECT__40
10
0
20
0
30
0
70
128
71
1
72
4
73
2
0
VERTEX
8
OBJECT__40
10
0
20
0
30
0
70
128
71
1
72
5
73
4
0
VERTEX
8
OBJECT__40
10
0
20
0
30
0
70
128
71
6
72
7
73
5
0
VERTEX
8
OBJECT__40
10
0
20
0
30
0
70
128
71
5
72
1
73
6
0
VERTEX
8
OBJECT__40
10
0
20
0
30
0
70
128
71
3
72
8
73
1
0
VERTEX
8
OBJECT__40
10
0
20
0
30
0
70
128
71
7
72
6
73
9
0
VERTEX
8
OBJECT__40
10
0
20
0
30
0
70
128
71
9
72
10
73
11
0
VERTEX
8
OBJECT__40
10
0
20
0
30
0
70
128
71
12
72
13
73
10
0
VERTEX
8
OBJECT__40
10
0
20
0
30
0
70
128
71
10
72
9
73
12
0
VERTEX
8
OBJECT__40
10
0
20
0
30
0
70
128
71
12
72
14
73
13
0
VERTEX
8
OBJECT__40
10
0
20
0
30
0
70
128
71
14
72
15
73
16
0
VERTEX
8
OBJECT__40
10
0
20
0
30
0
70
128
71
12
72
17
73
15
0
VERTEX
8
OBJECT__40
10
0
20
0
30
0
70
128
71
12
72
18
73
17
0
VERTEX
8
OBJECT__40
10
0
20
0
30
0
70
128
71
15
72
14
73
12
0
VERTEX
8
OBJECT__40
10
0
20
0
30
0
70
128
71
12
72
19
73
18
0
VERTEX
8
OBJECT__40
10
0
20
0
30
0
70
128
71
20
72
21
73
22
0
VERTEX
8
OBJECT__40
10
0
20
0
30
0
70
128
71
21
72
20
73
23
0
VERTEX
8
OBJECT__40
10
0
20
0
30
0
70
128
71
23
72
24
73
21
0
VERTEX
8
OBJECT__40
10
0
20
0
30
0
70
128
71
25
72
26
73
27
0
VERTEX
8
OBJECT__40
10
0
20
0
30
0
70
128
71
28
72
27
73
24
0
VERTEX
8
OBJECT__40
10
0
20
0
30
0
70
128
71
24
72
23
73
28
0
VERTEX
8
OBJECT__40
10
0
20
0
30
0
70
128
71
27
72
28
73
25
0
VERTEX
8
OBJECT__40
10
0
20
0
30
0
70
128
71
25
72
29
73
26
0
VERTEX
8
OBJECT__40
10
0
20
0
30
0
70
128
71
22
72
30
73
20
0
VERTEX
8
OBJECT__40
10
0
20
0
30
0
70
128
71
12
72
31
73
32
0
VERTEX
8
OBJECT__40
10
0
20
0
30
0
70
128
71
12
72
33
73
31
0
VERTEX
8
OBJECT__40
10
0
20
0
30
0
70
128
71
34
72
35
73
36
0
VERTEX
8
OBJECT__40
10
0
20
0
30
0
70
128
71
33
72
12
73
34
0
VERTEX
8
OBJECT__40
10
0
20
0
30
0
70
128
71
36
72
33
73
34
0
VERTEX
8
OBJECT__40
10
0
20
0
30
0
70
128
71
32
72
19
73
12
0
VERTEX
8
OBJECT__40
10
0
20
0
30
0
70
128
71
32
72
29
73
19
0
VERTEX
8
OBJECT__40
10
0
20
0
30
0
70
128
71
25
72
19
73
29
0
VERTEX
8
OBJECT__40
10
0
20
0
30
0
70
128
71
16
72
37
73
14
0
VERTEX
8
OBJECT__40
10
0
20
0
30
0
70
128
71
9
72
11
73
7
0
VERTEX
8
OBJECT__40
10
0
20
0
30
0
70
128
71
30
72
22
73
38
0
SEQEND
8
OBJECT__40
0
POLYLINE
8
OBJECT__41
66
1
70
64
71
37
72
48
62
253
0
VERTEX
8
OBJECT__41
10
19.554001
20
8.213000
30
245.876999
70
192
0
VERTEX
8
OBJECT__41
10
15.435000
20
15.077000
30
241.253998
70
192
0
VERTEX
8
OBJECT__41
10
15.551000
20
16.341000
30
243.664001
70
192
0
VERTEX
8
OBJECT__41
10
17.797001
20
28.080999
30
252.626999
70
192
0
VERTEX
8
OBJECT__41
10
19.473000
20
18.672001
30
252.279007
70
192
0
VERTEX
8
OBJECT__41
10
15.226000
20
21.608999
30
245.376999
70
192
0
VERTEX
8
OBJECT__41
10
19.601999
20
10.154000
30
249.854996
70
192
0
VERTEX
8
OBJECT__41
10
20.850000
20
1.546000
30
252.809006
70
192
0
VERTEX
8
OBJECT__41
10
20.850000
20
1.146000
30
250.714996
70
192
0
VERTEX
8
OBJECT__41
10
20.850000
20
3.811000
30
256.433014
70
192
0
VERTEX
8
OBJECT__41
10
19.462999
20
7.721000
30
241.343994
70
192
0
VERTEX
8
OBJECT__41
10
15.217000
20
14.622000
30
238.404999
70
192
0
VERTEX
8
OBJECT__41
10
20.850000
20
0.324000
30
246.414993
70
192
0
VERTEX
8
OBJECT__41
10
20.850000
20
0.281000
30
244.511993
70
192
0
VERTEX
8
OBJECT__41
10
19.559999
20
14.137000
30
251.789001
70
192
0
VERTEX
8
OBJECT__41
10
15.440000
20
18.754999
30
244.923996
70
192
0
VERTEX
8
OBJECT__41
10
20.850000
20
25.421000
30
259.998993
70
192
0
VERTEX
8
OBJECT__41
10
20.850000
20
28.080999
30
259.998993
70
192
0
VERTEX
8
OBJECT__41
10
20.850000
20
16.221001
30
259.753998
70
192
0
VERTEX
8
OBJECT__41
10
20.850000
20
15.505000
30
259.734985
70
192
0
VERTEX
8
OBJECT__41
10
20.850000
20
13.733000
30
259.687988
70
192
0
VERTEX
8
OBJECT__41
10
20.850000
20
9.296000
30
258.881012
70
192
0
VERTEX
8
OBJECT__41
10
20.850000
20
7.451000
30
258.545990
70
192
0
VERTEX
8
OBJECT__41
10
14.743000
20
28.080999
30
245.255997
70
192
0
VERTEX
8
OBJECT__41
10
8.310000
20
23.893000
30
240.473007
70
192
0
VERTEX
8
OBJECT__41
10
8.608000
20
20.937000
30
239.067001
70
192
0
VERTEX
8
OBJECT__41
10
20.851000
20
0.000000
30
231.936005
70
192
0
VERTEX
8
OBJECT__41
10
17.797001
20
7.371000
30
231.936005
70
192
0
VERTEX
8
OBJECT__41
10
14.743000
20
14.741000
30
231.936005
70
192
0
VERTEX
8
OBJECT__41
10
7.371000
20
17.795000
30
231.936005
70
192
0
VERTEX
8
OBJECT__41
10
8.306000
20
19.527000
30
236.121002
70
192
0
VERTEX
8
OBJECT__41
10
0.000000
20
21.771999
30
234.634995
70
192
0
VERTEX
8
OBJECT__41
10
0.000000
20
20.848000
30
231.936005
70
192
0
VERTEX
8
OBJECT__41
10
0.000000
20
22.691000
30
237.319000
70
192
0
VERTEX
8
OBJECT__41
10
0.000000
20
25.379000
30
238.231003
70
192
0
VERTEX
8
OBJECT__41
10
0.000000
20
28.080999
30
239.149002
70
192
0
VERTEX
8
OBJECT__41
10
7.371000
20
28.080999
30
242.201996
70
192
0
VERTEX
8
OBJECT__41
10
0
20
0
30
0
70
128
71
1
72
2
73
3
0
VERTEX
8
OBJECT__41
10
0
20
0
30
0
70
128
71
4
72
5
73
6
0
VERTEX
8
OBJECT__41
10
0
20
0
30
0
70
128
71
7
72
8
73
9
0
VERTEX
8
OBJECT__41
10
0
20
0
30
0
70
128
71
7
72
10
73
8
0
VERTEX
8
OBJECT__41
10
0
20
0
30
0
70
128
71
11
72
12
73
2
0
VERTEX
8
OBJECT__41
10
0
20
0
30
0
70
128
71
1
72
13
73
14
0
VERTEX
8
OBJECT__41
10
0
20
0
30
0
70
128
71
1
72
9
73
13
0
VERTEX
8
OBJECT__41
10
0
20
0
30
0
70
128
71
5
72
15
73
16
0
VERTEX
8
OBJECT__41
10
0
20
0
30
0
70
128
71
5
72
4
73
17
0
VERTEX
8
OBJECT__41
10
0
20
0
30
0
70
128
71
4
72
18
73
17
0
VERTEX
8
OBJECT__41
10
0
20
0
30
0
70
128
71
17
72
19
73
5
0
VERTEX
8
OBJECT__41
10
0
20
0
30
0
70
128
71
15
72
5
73
20
0
VERTEX
8
OBJECT__41
10
0
20
0
30
0
70
128
71
20
72
21
73
15
0
VERTEX
8
OBJECT__41
10
0
20
0
30
0
70
128
71
15
72
7
73
3
0
VERTEX
8
OBJECT__41
10
0
20
0
30
0
70
128
71
7
72
15
73
22
0
VERTEX
8
OBJECT__41
10
0
20
0
30
0
70
128
71
22
72
23
73
7
0
VERTEX
8
OBJECT__41
10
0
20
0
30
0
70
128
71
24
72
6
73
25
0
VERTEX
8
OBJECT__41
10
0
20
0
30
0
70
128
71
26
72
25
73
6
0
VERTEX
8
OBJECT__41
10
0
20
0
30
0
70
128
71
6
72
16
73
26
0
VERTEX
8
OBJECT__41
10
0
20
0
30
0
70
128
71
26
72
2
73
12
0
VERTEX
8
OBJECT__41
10
0
20
0
30
0
70
128
71
26
72
3
73
2
0
VERTEX
8
OBJECT__41
10
0
20
0
30
0
70
128
71
27
72
28
73
11
0
VERTEX
8
OBJECT__41
10
0
20
0
30
0
70
128
71
28
72
29
73
12
0
VERTEX
8
OBJECT__41
10
0
20
0
30
0
70
128
71
29
72
30
73
31
0
VERTEX
8
OBJECT__41
10
0
20
0
30
0
70
128
71
32
72
31
73
30
0
VERTEX
8
OBJECT__41
10
0
20
0
30
0
70
128
71
30
72
33
73
32
0
VERTEX
8
OBJECT__41
10
0
20
0
30
0
70
128
71
34
72
26
73
31
0
VERTEX
8
OBJECT__41
10
0
20
0
30
0
70
128
71
34
72
35
73
25
0
VERTEX
8
OBJECT__41
10
0
20
0
30
0
70
128
71
35
72
36
73
37
0
VERTEX
8
OBJECT__41
10
0
20
0
30
0
70
128
71
37
72
25
73
35
0
VERTEX
8
OBJECT__41
10
0
20
0
30
0
70
128
71
25
72
26
73
34
0
VERTEX
8
OBJECT__41
10
0
20
0
30
0
70
128
71
31
72
32
73
34
0
VERTEX
8
OBJECT__41
10
0
20
0
30
0
70
128
71
31
72
12
73
29
0
VERTEX
8
OBJECT__41
10
0
20
0
30
0
70
128
71
12
72
11
73
28
0
VERTEX
8
OBJECT__41
10
0
20
0
30
0
70
128
71
11
72
14
73
27
0
VERTEX
8
OBJECT__41
10
0
20
0
30
0
70
128
71
12
72
31
73
26
0
VERTEX
8
OBJECT__41
10
0
20
0
30
0
70
128
71
16
72
3
73
26
0
VERTEX
8
OBJECT__41
10
0
20
0
30
0
70
128
71
25
72
37
73
24
0
VERTEX
8
OBJECT__41
10
0
20
0
30
0
70
128
71
23
72
10
73
7
0
VERTEX
8
OBJECT__41
10
0
20
0
30
0
70
128
71
3
72
16
73
15
0
VERTEX
8
OBJECT__41
10
0
20
0
30
0
70
128
71
21
72
22
73
15
0
VERTEX
8
OBJECT__41
10
0
20
0
30
0
70
128
71
19
72
20
73
5
0
VERTEX
8
OBJECT__41
10
0
20
0
30
0
70
128
71
16
72
6
73
5
0
VERTEX
8
OBJECT__41
10
0
20
0
30
0
70
128
71
14
72
11
73
1
0
VERTEX
8
OBJECT__41
10
0
20
0
30
0
70
128
71
2
72
1
73
11
0
VERTEX
8
OBJECT__41
10
0
20
0
30
0
70
128
71
9
72
1
73
7
0
VERTEX
8
OBJECT__41
10
0
20
0
30
0
70
128
71
6
72
24
73
4
0
VERTEX
8
OBJECT__41
10
0
20
0
30
0
70
128
71
3
72
7
73
1
0
SEQEND
8
OBJECT__41
0
POLYLINE
8
OBJECT__42
66
1
70
64
71
46
72
44
62
253
0
VERTEX
8
OBJECT__42
10
-20.850000
20
14.299000
30
259.705994
70
192
0
VERTEX
8
OBJECT__42
10
-20.850000
20
14.299000
30
260.295013
70
192
0
VERTEX
8
OBJECT__42
10
-20.850000
20
15.504000
30
260.263000
70
192
0
VERTEX
8
OBJECT__42
10
-20.850000
20
15.505000
30
259.738007
70
192
0
VERTEX
8
OBJECT__42
10
0.000000
20
-20.856001
30
231.936005
70
192
0
VERTEX
8
OBJECT__42
10
0.000000
20
-20.848000
30
288.063995
70
192
0
VERTEX
8
OBJECT__42
10
-1.964000
20
-20.763000
30
231.936005
70
192
0
VERTEX
8
OBJECT__42
10
-0.001000
20
-20.855000
30
231.936005
70
192
0
VERTEX
8
OBJECT__42
10
-7.991000
20
-19.263000
30
231.936005
70
192
0
VERTEX
8
OBJECT__42
10
-7.013000
20
-19.507999
30
288.063995
70
192
0
VERTEX
8
OBJECT__42
10
-11.584000
20
-17.333000
30
288.065002
70
192
0
VERTEX
8
OBJECT__42
10
-6.136000
20
-19.924000
30
288.063995
70
192
0
VERTEX
8
OBJECT__42
10
-12.760000
20
-16.465000
30
231.936996
70
192
0
VERTEX
8
OBJECT__42
10
-13.827000
20
-15.258000
30
288.065002
70
192
0
VERTEX
8
OBJECT__42
10
-13.872000
20
-15.335000
30
231.936996
70
192
0
VERTEX
8
OBJECT__42
10
-12.909000
20
-16.378000
30
231.936996
70
192
0
VERTEX
8
OBJECT__42
10
-12.650000
20
-16.347000
30
288.065002
70
192
0
VERTEX
8
OBJECT__42
10
-20.155001
20
-4.363000
30
288.063995
70
192
0
VERTEX
8
OBJECT__42
10
-20.149000
20
-4.389000
30
231.936005
70
192
0
VERTEX
8
OBJECT__42
10
-19.809999
20
-6.509000
30
231.936005
70
192
0
VERTEX
8
OBJECT__42
10
-17.343000
20
-11.579000
30
231.936005
70
192
0
VERTEX
8
OBJECT__42
10
-17.777000
20
-10.513000
30
288.063995
70
192
0
VERTEX
8
OBJECT__42
10
-19.268000
20
-7.963000
30
288.063995
70
192
0
VERTEX
8
OBJECT__42
10
-14.567000
20
-14.583000
30
231.936005
70
192
0
VERTEX
8
OBJECT__42
10
-16.385000
20
-12.891000
30
288.065002
70
192
0
VERTEX
8
OBJECT__42
10
-20.851000
20
0.248000
30
244.513000
70
192
0
VERTEX
8
OBJECT__42
10
-20.851999
20
0.000000
30
231.936005
70
192
0
VERTEX
8
OBJECT__42
10
-20.851000
20
-0.003000
30
231.936005
70
192
0
VERTEX
8
OBJECT__42
10
-20.851000
20
0.274000
30
245.787994
70
192
0
VERTEX
8
OBJECT__42
10
-20.850000
20
1.124000
30
250.722000
70
192
0
VERTEX
8
OBJECT__42
10
-20.850000
20
1.422000
30
252.455002
70
192
0
VERTEX
8
OBJECT__42
10
-20.850000
20
3.492000
30
256.109009
70
192
0
VERTEX
8
OBJECT__42
10
-20.850000
20
7.429000
30
258.537994
70
192
0
VERTEX
8
OBJECT__42
10
-20.850000
20
7.453000
30
261.451996
70
192
0
VERTEX
8
OBJECT__42
10
-20.850000
20
9.295000
30
261.117004
70
192
0
VERTEX
8
OBJECT__42
10
-20.850000
20
9.297000
30
258.877014
70
192
0
VERTEX
8
OBJECT__42
10
-20.850000
20
13.734000
30
260.309998
70
192
0
VERTEX
8
OBJECT__42
10
-20.850000
20
13.793000
30
259.692993
70
192
0
VERTEX
8
OBJECT__42
10
-20.850000
20
3.812000
30
263.565002
70
192
0
VERTEX
8
OBJECT__42
10
-20.850000
20
1.145000
30
269.285004
70
192
0
VERTEX
8
OBJECT__42
10
-20.850000
20
1.546000
30
267.188995
70
192
0
VERTEX
8
OBJECT__42
10
-20.850000
20
0.324000
30
273.583008
70
192
0
VERTEX
8
OBJECT__42
10
-20.851000
20
0.281000
30
275.487000
70
192
0
VERTEX
8
OBJECT__42
10
-20.764000
20
-1.889000
30
288.063995
70
192
0
VERTEX
8
OBJECT__42
10
-20.851999
20
0.000000
30
288.063995
70
192
0
VERTEX
8
OBJECT__42
10
-20.850000
20
25.421000
30
259.998993
70
192
0
VERTEX
8
OBJECT__42
10
0
20
0
30
0
70
128
71
1
72
2
73
3
0
VERTEX
8
OBJECT__42
10
0
20
0
30
0
70
128
71
3
72
4
73
1
0
VERTEX
8
OBJECT__42
10
0
20
0
30
0
70
128
71
6
72
7
73
8
0
VERTEX
8
OBJECT__42
10
0
20
0
30
0
70
128
71
9
72
10
73
11
0
VERTEX
8
OBJECT__42
10
0
20
0
30
0
70
128
71
7
72
6
73
12
0
VERTEX
8
OBJECT__42
10
0
20
0
30
0
70
128
71
12
72
9
73
7
0
VERTEX
8
OBJECT__42
10
0
20
0
30
0
70
128
71
12
72
10
73
9
0
VERTEX
8
OBJECT__42
10
0
20
0
30
0
70
128
71
11
72
13
73
9
0
VERTEX
8
OBJECT__42
10
0
20
0
30
0
70
128
71
8
72
5
73
6
0
VERTEX
8
OBJECT__42
10
0
20
0
30
0
70
128
71
14
72
15
73
16
0
VERTEX
8
OBJECT__42
10
0
20
0
30
0
70
128
71
16
72
17
73
14
0
VERTEX
8
OBJECT__42
10
0
20
0
30
0
70
128
71
18
72
19
73
20
0
VERTEX
8
OBJECT__42
10
0
20
0
30
0
70
128
71
21
72
22
73
23
0
VERTEX
8
OBJECT__42
10
0
20
0
30
0
70
128
71
24
72
14
73
25
0
VERTEX
8
OBJECT__42
10
0
20
0
30
0
70
128
71
25
72
21
73
24
0
VERTEX
8
OBJECT__42
10
0
20
0
30
0
70
128
71
24
72
15
73
14
0
VERTEX
8
OBJECT__42
10
0
20
0
30
0
70
128
71
25
72
22
73
21
0
VERTEX
8
OBJECT__42
10
0
20
0
30
0
70
128
71
23
72
20
73
21
0
VERTEX
8
OBJECT__42
10
0
20
0
30
0
70
128
71
26
72
27
73
28
0
VERTEX
8
OBJECT__42
10
0
20
0
30
0
70
128
71
28
72
19
73
26
0
VERTEX
8
OBJECT__42
10
0
20
0
30
0
70
128
71
19
72
29
73
26
0
VERTEX
8
OBJECT__42
10
0
20
0
30
0
70
128
71
18
72
30
73
29
0
VERTEX
8
OBJECT__42
10
0
20
0
30
0
70
128
71
18
72
31
73
30
0
VERTEX
8
OBJECT__42
10
0
20
0
30
0
70
128
71
29
72
19
73
18
0
VERTEX
8
OBJECT__42
10
0
20
0
30
0
70
128
71
18
72
32
73
31
0
VERTEX
8
OBJECT__42
10
0
20
0
30
0
70
128
71
33
72
34
73
35
0
VERTEX
8
OBJECT__42
10
0
20
0
30
0
70
128
71
36
72
35
73
37
0
VERTEX
8
OBJECT__42
10
0
20
0
30
0
70
128
71
37
72
38
73
36
0
VERTEX
8
OBJECT__42
10
0
20
0
30
0
70
128
71
2
72
1
73
38
0
VERTEX
8
OBJECT__42
10
0
20
0
30
0
70
128
71
38
72
37
73
2
0
VERTEX
8
OBJECT__42
10
0
20
0
30
0
70
128
71
33
72
39
73
34
0
VERTEX
8
OBJECT__42
10
0
20
0
30
0
70
128
71
35
72
36
73
33
0
VERTEX
8
OBJECT__42
10
0
20
0
30
0
70
128
71
18
72
40
73
41
0
VERTEX
8
OBJECT__42
10
0
20
0
30
0
70
128
71
18
72
42
73
40
0
VERTEX
8
OBJECT__42
10
0
20
0
30
0
70
128
71
43
72
18
73
44
0
VERTEX
8
OBJECT__42
10
0
20
0
30
0
70
128
71
44
72
45
73
43
0
VERTEX
8
OBJECT__42
10
0
20
0
30
0
70
128
71
43
72
42
73
18
0
VERTEX
8
OBJECT__42
10
0
20
0
30
0
70
128
71
41
72
32
73
18
0
VERTEX
8
OBJECT__42
10
0
20
0
30
0
70
128
71
41
72
39
73
32
0
VERTEX
8
OBJECT__42
10
0
20
0
30
0
70
128
71
33
72
32
73
39
0
VERTEX
8
OBJECT__42
10
0
20
0
30
0
70
128
71
20
72
23
73
18
0
VERTEX
8
OBJECT__42
10
0
20
0
30
0
70
128
71
16
72
13
73
17
0
VERTEX
8
OBJECT__42
10
0
20
0
30
0
70
128
71
11
72
17
73
13
0
VERTEX
8
OBJECT__42
10
0
20
0
30
0
70
128
71
3
72
46
73
4
0
SEQEND
8
OBJECT__42
0
POLYLINE
8
OBJECT__43
66
1
70
64
71
47
72
58
62
253
0
VERTEX
8
OBJECT__43
10
-19.554001
20
8.213000
30
245.876999
70
192
0
VERTEX
8
OBJECT__43
10
-19.601999
20
10.154000
30
249.854996
70
192
0
VERTEX
8
OBJECT__43
10
-15.551000
20
16.341000
30
243.664001
70
192
0
VERTEX
8
OBJECT__43
10
-15.226000
20
21.608999
30
245.376999
70
192
0
VERTEX
8
OBJECT__43
10
-19.473000
20
18.672001
30
252.279007
70
192
0
VERTEX
8
OBJECT__43
10
-17.336000
20
28.080999
30
248.414993
70
192
0
VERTEX
8
OBJECT__43
10
-14.566000
20
28.080999
30
245.419998
70
192
0
VERTEX
8
OBJECT__43
10
-19.118999
20
28.080999
30
252.089996
70
192
0
VERTEX
8
OBJECT__43
10
-20.850000
20
1.124000
30
250.722000
70
192
0
VERTEX
8
OBJECT__43
10
-20.850000
20
1.422000
30
252.455002
70
192
0
VERTEX
8
OBJECT__43
10
-19.462999
20
7.721000
30
241.343994
70
192
0
VERTEX
8
OBJECT__43
10
-15.217000
20
14.622000
30
238.404999
70
192
0
VERTEX
8
OBJECT__43
10
-16.381001
20
12.896000
30
231.936005
70
192
0
VERTEX
8
OBJECT__43
10
-14.578000
20
14.564000
30
231.936005
70
192
0
VERTEX
8
OBJECT__43
10
-14.580000
20
14.562000
30
231.936005
70
192
0
VERTEX
8
OBJECT__43
10
-15.435000
20
15.077000
30
241.253998
70
192
0
VERTEX
8
OBJECT__43
10
-20.851000
20
0.248000
30
244.513000
70
192
0
VERTEX
8
OBJECT__43
10
-19.261999
20
7.978000
30
231.936005
70
192
0
VERTEX
8
OBJECT__43
10
-20.757000
20
1.973000
30
231.936005
70
192
0
VERTEX
8
OBJECT__43
10
-20.851999
20
0.000000
30
231.936005
70
192
0
VERTEX
8
OBJECT__43
10
-20.851000
20
0.274000
30
245.787994
70
192
0
VERTEX
8
OBJECT__43
10
-15.440000
20
18.754999
30
244.923996
70
192
0
VERTEX
8
OBJECT__43
10
-20.850000
20
15.505000
30
259.738007
70
192
0
VERTEX
8
OBJECT__43
10
-20.850000
20
25.421000
30
259.998993
70
192
0
VERTEX
8
OBJECT__43
10
-19.830000
20
28.080999
30
253.556000
70
192
0
VERTEX
8
OBJECT__43
10
-20.851000
20
28.080999
30
259.998993
70
192
0
VERTEX
8
OBJECT__43
10
-19.559999
20
14.137000
30
251.789001
70
192
0
VERTEX
8
OBJECT__43
10
-20.850000
20
14.299000
30
259.705994
70
192
0
VERTEX
8
OBJECT__43
10
-20.850000
20
9.297000
30
258.877014
70
192
0
VERTEX
8
OBJECT__43
10
-20.850000
20
13.793000
30
259.692993
70
192
0
VERTEX
8
OBJECT__43
10
-20.850000
20
7.429000
30
258.537994
70
192
0
VERTEX
8
OBJECT__43
10
-20.850000
20
3.492000
30
256.109009
70
192
0
VERTEX
8
OBJECT__43
10
-8.310000
20
23.893000
30
240.473007
70
192
0
VERTEX
8
OBJECT__43
10
-12.898000
20
28.080999
30
243.617004
70
192
0
VERTEX
8
OBJECT__43
10
-8.608000
20
20.937000
30
239.067001
70
192
0
VERTEX
8
OBJECT__43
10
-8.306000
20
19.527000
30
236.121002
70
192
0
VERTEX
8
OBJECT__43
10
-7.908000
20
19.115999
30
231.936005
70
192
0
VERTEX
8
OBJECT__43
10
-11.583000
20
17.334000
30
231.936005
70
192
0
VERTEX
8
OBJECT__43
10
0.000000
20
25.379000
30
238.231003
70
192
0
VERTEX
8
OBJECT__43
10
-1.946000
20
28.080999
30
239.240005
70
192
0
VERTEX
8
OBJECT__43
10
0.000000
20
28.080999
30
239.149002
70
192
0
VERTEX
8
OBJECT__43
10
-7.979000
20
28.080999
30
240.735992
70
192
0
VERTEX
8
OBJECT__43
10
0.000000
20
22.691000
30
237.319000
70
192
0
VERTEX
8
OBJECT__43
10
0.000000
20
21.771999
30
234.634995
70
192
0
VERTEX
8
OBJECT__43
10
0.000000
20
20.848000
30
231.936005
70
192
0
VERTEX
8
OBJECT__43
10
-0.001000
20
20.848000
30
231.936005
70
192
0
VERTEX
8
OBJECT__43
10
-6.442000
20
19.827000
30
231.936005
70
192
0
VERTEX
8
OBJECT__43
10
0
20
0
30
0
70
128
71
1
72
2
73
3
0
VERTEX
8
OBJECT__43
10
0
20
0
30
0
70
128
71
4
72
5
73
6
0
VERTEX
8
OBJECT__43
10
0
20
0
30
0
70
128
71
6
72
7
73
4
0
VERTEX
8
OBJECT__43
10
0
20
0
30
0
70
128
71
5
72
8
73
6
0
VERTEX
8
OBJECT__43
10
0
20
0
30
0
70
128
71
2
72
1
73
9
0
VERTEX
8
OBJECT__43
10
0
20
0
30
0
70
128
71
9
72
10
73
2
0
VERTEX
8
OBJECT__43
10
0
20
0
30
0
70
128
71
11
72
12
73
13
0
VERTEX
8
OBJECT__43
10
0
20
0
30
0
70
128
71
12
72
14
73
15
0
VERTEX
8
OBJECT__43
10
0
20
0
30
0
70
128
71
15
72
13
73
12
0
VERTEX
8
OBJECT__43
10
0
20
0
30
0
70
128
71
11
72
1
73
16
0
VERTEX
8
OBJECT__43
10
0
20
0
30
0
70
128
71
17
72
18
73
19
0
VERTEX
8
OBJECT__43
10
0
20
0
30
0
70
128
71
18
72
17
73
11
0
VERTEX
8
OBJECT__43
10
0
20
0
30
0
70
128
71
19
72
20
73
17
0
VERTEX
8
OBJECT__43
10
0
20
0
30
0
70
128
71
1
72
11
73
17
0
VERTEX
8
OBJECT__43
10
0
20
0
30
0
70
128
71
17
72
21
73
1
0
VERTEX
8
OBJECT__43
10
0
20
0
30
0
70
128
71
5
72
4
73
22
0
VERTEX
8
OBJECT__43
10
0
20
0
30
0
70
128
71
5
72
23
73
24
0
VERTEX
8
OBJECT__43
10
0
20
0
30
0
70
128
71
24
72
25
73
5
0
VERTEX
8
OBJECT__43
10
0
20
0
30
0
70
128
71
24
72
26
73
25
0
VERTEX
8
OBJECT__43
10
0
20
0
30
0
70
128
71
27
72
28
73
23
0
VERTEX
8
OBJECT__43
10
0
20
0
30
0
70
128
71
27
72
29
73
30
0
VERTEX
8
OBJECT__43
10
0
20
0
30
0
70
128
71
30
72
28
73
27
0
VERTEX
8
OBJECT__43
10
0
20
0
30
0
70
128
71
27
72
22
73
3
0
VERTEX
8
OBJECT__43
10
0
20
0
30
0
70
128
71
2
72
31
73
29
0
VERTEX
8
OBJECT__43
10
0
20
0
30
0
70
128
71
2
72
32
73
31
0
VERTEX
8
OBJECT__43
10
0
20
0
30
0
70
128
71
33
72
4
73
34
0
VERTEX
8
OBJECT__43
10
0
20
0
30
0
70
128
71
4
72
7
73
34
0
VERTEX
8
OBJECT__43
10
0
20
0
30
0
70
128
71
35
72
22
73
4
0
VERTEX
8
OBJECT__43
10
0
20
0
30
0
70
128
71
35
72
3
73
22
0
VERTEX
8
OBJECT__43
10
0
20
0
30
0
70
128
71
35
72
36
73
12
0
VERTEX
8
OBJECT__43
10
0
20
0
30
0
70
128
71
12
72
16
73
35
0
VERTEX
8
OBJECT__43
10
0
20
0
30
0
70
128
71
36
72
37
73
38
0
VERTEX
8
OBJECT__43
10
0
20
0
30
0
70
128
71
38
72
12
73
36
0
VERTEX
8
OBJECT__43
10
0
20
0
30
0
70
128
71
39
72
40
73
41
0
VERTEX
8
OBJECT__43
10
0
20
0
30
0
70
128
71
33
72
42
73
40
0
VERTEX
8
OBJECT__43
10
0
20
0
30
0
70
128
71
40
72
39
73
33
0
VERTEX
8
OBJECT__43
10
0
20
0
30
0
70
128
71
39
72
35
73
33
0
VERTEX
8
OBJECT__43
10
0
20
0
30
0
70
128
71
39
72
43
73
35
0
VERTEX
8
OBJECT__43
10
0
20
0
30
0
70
128
71
43
72
44
73
36
0
VERTEX
8
OBJECT__43
10
0
20
0
30
0
70
128
71
36
72
35
73
43
0
VERTEX
8
OBJECT__43
10
0
20
0
30
0
70
128
71
44
72
45
73
46
0
VERTEX
8
OBJECT__43
10
0
20
0
30
0
70
128
71
46
72
36
73
44
0
VERTEX
8
OBJECT__43
10
0
20
0
30
0
70
128
71
46
72
47
73
36
0
VERTEX
8
OBJECT__43
10
0
20
0
30
0
70
128
71
47
72
37
73
36
0
VERTEX
8
OBJECT__43
10
0
20
0
30
0
70
128
71
38
72
14
73
12
0
VERTEX
8
OBJECT__43
10
0
20
0
30
0
70
128
71
16
72
3
73
35
0
VERTEX
8
OBJECT__43
10
0
20
0
30
0
70
128
71
4
72
33
73
35
0
VERTEX
8
OBJECT__43
10
0
20
0
30
0
70
128
71
34
72
42
73
33
0
VERTEX
8
OBJECT__43
10
0
20
0
30
0
70
128
71
29
72
27
73
2
0
VERTEX
8
OBJECT__43
10
0
20
0
30
0
70
128
71
3
72
2
73
27
0
VERTEX
8
OBJECT__43
10
0
20
0
30
0
70
128
71
23
72
5
73
27
0
VERTEX
8
OBJECT__43
10
0
20
0
30
0
70
128
71
25
72
8
73
5
0
VERTEX
8
OBJECT__43
10
0
20
0
30
0
70
128
71
22
72
27
73
5
0
VERTEX
8
OBJECT__43
10
0
20
0
30
0
70
128
71
21
72
9
73
1
0
VERTEX
8
OBJECT__43
10
0
20
0
30
0
70
128
71
16
72
12
73
11
0
VERTEX
8
OBJECT__43
10
0
20
0
30
0
70
128
71
13
72
18
73
11
0
VERTEX
8
OBJECT__43
10
0
20
0
30
0
70
128
71
10
72
32
73
2
0
VERTEX
8
OBJECT__43
10
0
20
0
30
0
70
128
71
3
72
16
73
1
0
SEQEND
8
OBJECT__43
0
POLYLINE
8
OBJECT__44
66
1
70
64
71
43
72
54
62
253
0
VERTEX
8
OBJECT__44
10
19.559999
20
14.137000
30
268.209015
70
192
0
VERTEX
8
OBJECT__44
10
15.440000
20
18.754999
30
275.074005
70
192
0
VERTEX
8
OBJECT__44
10
15.551000
20
16.341000
30
276.334991
70
192
0
VERTEX
8
OBJECT__44
10
15.216000
20
14.623000
30
281.593994
70
192
0
VERTEX
8
OBJECT__44
10
16.381001
20
12.896000
30
288.063995
70
192
0
VERTEX
8
OBJECT__44
10
17.777000
20
10.514000
30
288.063995
70
192
0
VERTEX
8
OBJECT__44
10
19.462000
20
7.721000
30
278.656006
70
192
0
VERTEX
8
OBJECT__44
10
14.578000
20
14.564000
30
288.063995
70
192
0
VERTEX
8
OBJECT__44
10
19.601999
20
10.153000
30
270.143005
70
192
0
VERTEX
8
OBJECT__44
10
20.850000
20
7.430000
30
261.459991
70
192
0
VERTEX
8
OBJECT__44
10
20.850000
20
9.296000
30
261.122009
70
192
0
VERTEX
8
OBJECT__44
10
20.850000
20
3.493000
30
263.889008
70
192
0
VERTEX
8
OBJECT__44
10
19.473000
20
18.672001
30
267.720001
70
192
0
VERTEX
8
OBJECT__44
10
15.226000
20
21.608000
30
274.621002
70
192
0
VERTEX
8
OBJECT__44
10
20.850000
20
13.794000
30
260.306000
70
192
0
VERTEX
8
OBJECT__44
10
20.850000
20
15.504000
30
260.260010
70
192
0
VERTEX
8
OBJECT__44
10
19.554001
20
8.213000
30
274.122986
70
192
0
VERTEX
8
OBJECT__44
10
15.435000
20
15.077000
30
278.744995
70
192
0
VERTEX
8
OBJECT__44
10
20.851000
20
0.248000
30
275.485992
70
192
0
VERTEX
8
OBJECT__44
10
19.261999
20
7.978000
30
288.063995
70
192
0
VERTEX
8
OBJECT__44
10
20.756001
20
1.974000
30
288.063995
70
192
0
VERTEX
8
OBJECT__44
10
20.851000
20
0.000000
30
288.063995
70
192
0
VERTEX
8
OBJECT__44
10
20.851000
20
0.274000
30
274.209015
70
192
0
VERTEX
8
OBJECT__44
10
20.850000
20
1.124000
30
269.277008
70
192
0
VERTEX
8
OBJECT__44
10
20.850000
20
1.422000
30
267.542999
70
192
0
VERTEX
8
OBJECT__44
10
8.306000
20
19.527000
30
283.878998
70
192
0
VERTEX
8
OBJECT__44
10
7.908000
20
19.117001
30
288.063995
70
192
0
VERTEX
8
OBJECT__44
10
11.583000
20
17.334000
30
288.063995
70
192
0
VERTEX
8
OBJECT__44
10
8.608000
20
20.937000
30
280.932007
70
192
0
VERTEX
8
OBJECT__44
10
20.850000
20
25.421000
30
259.998993
70
192
0
VERTEX
8
OBJECT__44
10
17.797001
20
28.080999
30
267.371002
70
192
0
VERTEX
8
OBJECT__44
10
20.850000
20
16.221001
30
260.242004
70
192
0
VERTEX
8
OBJECT__44
10
14.743000
20
28.080999
30
274.743011
70
192
0
VERTEX
8
OBJECT__44
10
7.371000
20
28.080999
30
277.795990
70
192
0
VERTEX
8
OBJECT__44
10
8.310000
20
23.893000
30
279.526001
70
192
0
VERTEX
8
OBJECT__44
10
0.000000
20
25.378000
30
281.768005
70
192
0
VERTEX
8
OBJECT__44
10
0.000000
20
28.080999
30
280.850006
70
192
0
VERTEX
8
OBJECT__44
10
0.000000
20
22.691000
30
282.679993
70
192
0
VERTEX
8
OBJECT__44
10
0.000000
20
21.771999
30
285.364990
70
192
0
VERTEX
8
OBJECT__44
10
6.443000
20
19.827000
30
288.063995
70
192
0
VERTEX
8
OBJECT__44
10
7.026000
20
19.544001
30
288.063995
70
192
0
VERTEX
8
OBJECT__44
10
0.000000
20
20.848000
30
288.063995
70
192
0
VERTEX
8
OBJECT__44
10
20.850000
20
28.080999
30
259.998993
70
192
0
VERTEX
8
OBJECT__44
10
0
20
0
30
0
70
128
71
1
72
2
73
3
0
VERTEX
8
OBJECT__44
10
0
20
0
30
0
70
128
71
4
72
5
73
6
0
VERTEX
8
OBJECT__44
10
0
20
0
30
0
70
128
71
6
72
7
73
4
0
VERTEX
8
OBJECT__44
10
0
20
0
30
0
70
128
71
4
72
8
73
5
0
VERTEX
8
OBJECT__44
10
0
20
0
30
0
70
128
71
9
72
10
73
11
0
VERTEX
8
OBJECT__44
10
0
20
0
30
0
70
128
71
9
72
12
73
10
0
VERTEX
8
OBJECT__44
10
0
20
0
30
0
70
128
71
13
72
14
73
2
0
VERTEX
8
OBJECT__44
10
0
20
0
30
0
70
128
71
1
72
15
73
16
0
VERTEX
8
OBJECT__44
10
0
20
0
30
0
70
128
71
1
72
11
73
15
0
VERTEX
8
OBJECT__44
10
0
20
0
30
0
70
128
71
7
72
17
73
18
0
VERTEX
8
OBJECT__44
10
0
20
0
30
0
70
128
71
19
72
20
73
21
0
VERTEX
8
OBJECT__44
10
0
20
0
30
0
70
128
71
20
72
19
73
7
0
VERTEX
8
OBJECT__44
10
0
20
0
30
0
70
128
71
21
72
22
73
19
0
VERTEX
8
OBJECT__44
10
0
20
0
30
0
70
128
71
17
72
7
73
19
0
VERTEX
8
OBJECT__44
10
0
20
0
30
0
70
128
71
19
72
23
73
17
0
VERTEX
8
OBJECT__44
10
0
20
0
30
0
70
128
71
17
72
9
73
3
0
VERTEX
8
OBJECT__44
10
0
20
0
30
0
70
128
71
9
72
17
73
24
0
VERTEX
8
OBJECT__44
10
0
20
0
30
0
70
128
71
24
72
25
73
9
0
VERTEX
8
OBJECT__44
10
0
20
0
30
0
70
128
71
26
72
27
73
28
0
VERTEX
8
OBJECT__44
10
0
20
0
30
0
70
128
71
28
72
4
73
26
0
VERTEX
8
OBJECT__44
10
0
20
0
30
0
70
128
71
29
72
26
73
4
0
VERTEX
8
OBJECT__44
10
0
20
0
30
0
70
128
71
4
72
18
73
29
0
VERTEX
8
OBJECT__44
10
0
20
0
30
0
70
128
71
29
72
2
73
14
0
VERTEX
8
OBJECT__44
10
0
20
0
30
0
70
128
71
29
72
3
73
2
0
VERTEX
8
OBJECT__44
10
0
20
0
30
0
70
128
71
30
72
31
73
13
0
VERTEX
8
OBJECT__44
10
0
20
0
30
0
70
128
71
13
72
32
73
30
0
VERTEX
8
OBJECT__44
10
0
20
0
30
0
70
128
71
13
72
16
73
32
0
VERTEX
8
OBJECT__44
10
0
20
0
30
0
70
128
71
31
72
33
73
14
0
VERTEX
8
OBJECT__44
10
0
20
0
30
0
70
128
71
33
72
34
73
35
0
VERTEX
8
OBJECT__44
10
0
20
0
30
0
70
128
71
36
72
35
73
34
0
VERTEX
8
OBJECT__44
10
0
20
0
30
0
70
128
71
34
72
37
73
36
0
VERTEX
8
OBJECT__44
10
0
20
0
30
0
70
128
71
38
72
29
73
35
0
VERTEX
8
OBJECT__44
10
0
20
0
30
0
70
128
71
38
72
39
73
26
0
VERTEX
8
OBJECT__44
10
0
20
0
30
0
70
128
71
26
72
40
73
41
0
VERTEX
8
OBJECT__44
10
0
20
0
30
0
70
128
71
39
72
42
73
40
0
VERTEX
8
OBJECT__44
10
0
20
0
30
0
70
128
71
40
72
26
73
39
0
VERTEX
8
OBJECT__44
10
0
20
0
30
0
70
128
71
41
72
27
73
26
0
VERTEX
8
OBJECT__44
10
0
20
0
30
0
70
128
71
26
72
29
73
38
0
VERTEX
8
OBJECT__44
10
0
20
0
30
0
70
128
71
35
72
36
73
38
0
VERTEX
8
OBJECT__44
10
0
20
0
30
0
70
128
71
35
72
14
73
33
0
VERTEX
8
OBJECT__44
10
0
20
0
30
0
70
128
71
14
72
13
73
31
0
VERTEX
8
OBJECT__44
10
0
20
0
30
0
70
128
71
30
72
43
73
31
0
VERTEX
8
OBJECT__44
10
0
20
0
30
0
70
128
71
14
72
35
73
29
0
VERTEX
8
OBJECT__44
10
0
20
0
30
0
70
128
71
18
72
3
73
29
0
VERTEX
8
OBJECT__44
10
0
20
0
30
0
70
128
71
28
72
8
73
4
0
VERTEX
8
OBJECT__44
10
0
20
0
30
0
70
128
71
25
72
12
73
9
0
VERTEX
8
OBJECT__44
10
0
20
0
30
0
70
128
71
3
72
18
73
17
0
VERTEX
8
OBJECT__44
10
0
20
0
30
0
70
128
71
23
72
24
73
17
0
VERTEX
8
OBJECT__44
10
0
20
0
30
0
70
128
71
18
72
4
73
7
0
VERTEX
8
OBJECT__44
10
0
20
0
30
0
70
128
71
16
72
13
73
1
0
VERTEX
8
OBJECT__44
10
0
20
0
30
0
70
128
71
2
72
1
73
13
0
VERTEX
8
OBJECT__44
10
0
20
0
30
0
70
128
71
11
72
1
73
9
0
VERTEX
8
OBJECT__44
10
0
20
0
30
0
70
128
71
6
72
20
73
7
0
VERTEX
8
OBJECT__44
10
0
20
0
30
0
70
128
71
3
72
9
73
1
0
SEQEND
8
OBJECT__44
0
POLYLINE
8
OBJECT__45
66
1
70
64
71
47
72
58
62
253
0
VERTEX
8
OBJECT__45
10
-19.559999
20
14.137000
30
268.209015
70
192
0
VERTEX
8
OBJECT__45
10
-19.601999
20
10.153000
30
270.143005
70
192
0
VERTEX
8
OBJECT__45
10
-15.551000
20
16.341000
30
276.334991
70
192
0
VERTEX
8
OBJECT__45
10
-15.216000
20
14.623000
30
281.593994
70
192
0
VERTEX
8
OBJECT__45
10
-19.462000
20
7.721000
30
278.656006
70
192
0
VERTEX
8
OBJECT__45
10
-17.334999
20
11.582000
30
288.063995
70
192
0
VERTEX
8
OBJECT__45
10
-19.112000
20
7.906000
30
288.063995
70
192
0
VERTEX
8
OBJECT__45
10
-17.830999
20
10.556000
30
288.063995
70
192
0
VERTEX
8
OBJECT__45
10
-20.850000
20
9.295000
30
261.117004
70
192
0
VERTEX
8
OBJECT__45
10
-20.850000
20
7.453000
30
261.451996
70
192
0
VERTEX
8
OBJECT__45
10
-19.473000
20
18.672001
30
267.720001
70
192
0
VERTEX
8
OBJECT__45
10
-15.226000
20
21.608000
30
274.621002
70
192
0
VERTEX
8
OBJECT__45
10
-16.382000
20
28.080999
30
272.897003
70
192
0
VERTEX
8
OBJECT__45
10
-14.579000
20
28.080999
30
274.565002
70
192
0
VERTEX
8
OBJECT__45
10
-15.440000
20
18.754999
30
275.074005
70
192
0
VERTEX
8
OBJECT__45
10
-20.850000
20
25.421000
30
259.998993
70
192
0
VERTEX
8
OBJECT__45
10
-19.263000
20
28.080999
30
267.977997
70
192
0
VERTEX
8
OBJECT__45
10
-20.759001
20
28.080999
30
261.946014
70
192
0
VERTEX
8
OBJECT__45
10
-20.850000
20
15.504000
30
260.263000
70
192
0
VERTEX
8
OBJECT__45
10
-20.851000
20
28.080999
30
259.998993
70
192
0
VERTEX
8
OBJECT__45
10
-20.850000
20
14.299000
30
260.295013
70
192
0
VERTEX
8
OBJECT__45
10
-20.850000
20
13.734000
30
260.309998
70
192
0
VERTEX
8
OBJECT__45
10
-15.435000
20
15.077000
30
278.744995
70
192
0
VERTEX
8
OBJECT__45
10
-20.851999
20
0.000000
30
288.063995
70
192
0
VERTEX
8
OBJECT__45
10
-19.849001
20
6.382000
30
288.063995
70
192
0
VERTEX
8
OBJECT__45
10
-20.851000
20
0.281000
30
275.487000
70
192
0
VERTEX
8
OBJECT__45
10
-19.554001
20
8.213000
30
274.122986
70
192
0
VERTEX
8
OBJECT__45
10
-20.850000
20
0.324000
30
273.583008
70
192
0
VERTEX
8
OBJECT__45
10
-20.850000
20
1.145000
30
269.285004
70
192
0
VERTEX
8
OBJECT__45
10
-20.850000
20
1.546000
30
267.188995
70
192
0
VERTEX
8
OBJECT__45
10
-20.850000
20
3.812000
30
263.565002
70
192
0
VERTEX
8
OBJECT__45
10
-8.306000
20
19.527000
30
283.878998
70
192
0
VERTEX
8
OBJECT__45
10
-12.896000
20
16.381001
30
288.063995
70
192
0
VERTEX
8
OBJECT__45
10
-14.564000
20
14.577000
30
288.063995
70
192
0
VERTEX
8
OBJECT__45
10
-7.979000
20
19.261000
30
288.063995
70
192
0
VERTEX
8
OBJECT__45
10
-8.608000
20
20.937000
30
280.932007
70
192
0
VERTEX
8
OBJECT__45
10
-8.310000
20
23.893000
30
279.526001
70
192
0
VERTEX
8
OBJECT__45
10
-7.909000
20
28.080999
30
279.118011
70
192
0
VERTEX
8
OBJECT__45
10
-11.584000
20
28.080999
30
277.335999
70
192
0
VERTEX
8
OBJECT__45
10
-7.034000
20
19.495001
30
288.063995
70
192
0
VERTEX
8
OBJECT__45
10
-1.946000
20
20.757000
30
288.063995
70
192
0
VERTEX
8
OBJECT__45
10
0.000000
20
21.771999
30
285.364990
70
192
0
VERTEX
8
OBJECT__45
10
0.000000
20
22.691000
30
282.679993
70
192
0
VERTEX
8
OBJECT__45
10
0.000000
20
25.378000
30
281.768005
70
192
0
VERTEX
8
OBJECT__45
10
0.000000
20
28.080999
30
280.850006
70
192
0
VERTEX
8
OBJECT__45
10
-6.444000
20
28.080999
30
279.829010
70
192
0
VERTEX
8
OBJECT__45
10
0.000000
20
20.848000
30
288.063995
70
192
0
VERTEX
8
OBJECT__45
10
0
20
0
30
0
70
128
71
1
72
2
73
3
0
VERTEX
8
OBJECT__45
10
0
20
0
30
0
70
128
71
4
72
5
73
6
0
VERTEX
8
OBJECT__45
10
0
20
0
30
0
70
128
71
5
72
7
73
8
0
VERTEX
8
OBJECT__45
10
0
20
0
30
0
70
128
71
8
72
6
73
5
0
VERTEX
8
OBJECT__45
10
0
20
0
30
0
70
128
71
2
72
1
73
9
0
VERTEX
8
OBJECT__45
10
0
20
0
30
0
70
128
71
9
72
10
73
2
0
VERTEX
8
OBJECT__45
10
0
20
0
30
0
70
128
71
11
72
12
73
13
0
VERTEX
8
OBJECT__45
10
0
20
0
30
0
70
128
71
14
72
13
73
12
0
VERTEX
8
OBJECT__45
10
0
20
0
30
0
70
128
71
11
72
1
73
15
0
VERTEX
8
OBJECT__45
10
0
20
0
30
0
70
128
71
16
72
17
73
18
0
VERTEX
8
OBJECT__45
10
0
20
0
30
0
70
128
71
16
72
19
73
11
0
VERTEX
8
OBJECT__45
10
0
20
0
30
0
70
128
71
11
72
17
73
16
0
VERTEX
8
OBJECT__45
10
0
20
0
30
0
70
128
71
18
72
20
73
16
0
VERTEX
8
OBJECT__45
10
0
20
0
30
0
70
128
71
1
72
21
73
22
0
VERTEX
8
OBJECT__45
10
0
20
0
30
0
70
128
71
1
72
11
73
19
0
VERTEX
8
OBJECT__45
10
0
20
0
30
0
70
128
71
19
72
21
73
1
0
VERTEX
8
OBJECT__45
10
0
20
0
30
0
70
128
71
5
72
4
73
23
0
VERTEX
8
OBJECT__45
10
0
20
0
30
0
70
128
71
24
72
25
73
5
0
VERTEX
8
OBJECT__45
10
0
20
0
30
0
70
128
71
5
72
26
73
24
0
VERTEX
8
OBJECT__45
10
0
20
0
30
0
70
128
71
27
72
28
73
26
0
VERTEX
8
OBJECT__45
10
0
20
0
30
0
70
128
71
27
72
29
73
28
0
VERTEX
8
OBJECT__45
10
0
20
0
30
0
70
128
71
27
72
23
73
3
0
VERTEX
8
OBJECT__45
10
0
20
0
30
0
70
128
71
2
72
30
73
29
0
VERTEX
8
OBJECT__45
10
0
20
0
30
0
70
128
71
2
72
31
73
30
0
VERTEX
8
OBJECT__45
10
0
20
0
30
0
70
128
71
32
72
4
73
33
0
VERTEX
8
OBJECT__45
10
0
20
0
30
0
70
128
71
4
72
34
73
33
0
VERTEX
8
OBJECT__45
10
0
20
0
30
0
70
128
71
33
72
35
73
32
0
VERTEX
8
OBJECT__45
10
0
20
0
30
0
70
128
71
36
72
23
73
4
0
VERTEX
8
OBJECT__45
10
0
20
0
30
0
70
128
71
36
72
3
73
23
0
VERTEX
8
OBJECT__45
10
0
20
0
30
0
70
128
71
36
72
37
73
12
0
VERTEX
8
OBJECT__45
10
0
20
0
30
0
70
128
71
12
72
15
73
36
0
VERTEX
8
OBJECT__45
10
0
20
0
30
0
70
128
71
37
72
38
73
39
0
VERTEX
8
OBJECT__45
10
0
20
0
30
0
70
128
71
39
72
12
73
37
0
VERTEX
8
OBJECT__45
10
0
20
0
30
0
70
128
71
32
72
40
73
41
0
VERTEX
8
OBJECT__45
10
0
20
0
30
0
70
128
71
32
72
35
73
40
0
VERTEX
8
OBJECT__45
10
0
20
0
30
0
70
128
71
41
72
42
73
32
0
VERTEX
8
OBJECT__45
10
0
20
0
30
0
70
128
71
42
72
36
73
32
0
VERTEX
8
OBJECT__45
10
0
20
0
30
0
70
128
71
42
72
43
73
36
0
VERTEX
8
OBJECT__45
10
0
20
0
30
0
70
128
71
43
72
44
73
37
0
VERTEX
8
OBJECT__45
10
0
20
0
30
0
70
128
71
37
72
36
73
43
0
VERTEX
8
OBJECT__45
10
0
20
0
30
0
70
128
71
45
72
37
73
44
0
VERTEX
8
OBJECT__45
10
0
20
0
30
0
70
128
71
45
72
46
73
37
0
VERTEX
8
OBJECT__45
10
0
20
0
30
0
70
128
71
46
72
38
73
37
0
VERTEX
8
OBJECT__45
10
0
20
0
30
0
70
128
71
41
72
47
73
42
0
VERTEX
8
OBJECT__45
10
0
20
0
30
0
70
128
71
39
72
14
73
12
0
VERTEX
8
OBJECT__45
10
0
20
0
30
0
70
128
71
15
72
3
73
36
0
VERTEX
8
OBJECT__45
10
0
20
0
30
0
70
128
71
4
72
32
73
36
0
VERTEX
8
OBJECT__45
10
0
20
0
30
0
70
128
71
29
72
27
73
2
0
VERTEX
8
OBJECT__45
10
0
20
0
30
0
70
128
71
3
72
2
73
27
0
VERTEX
8
OBJECT__45
10
0
20
0
30
0
70
128
71
26
72
5
73
27
0
VERTEX
8
OBJECT__45
10
0
20
0
30
0
70
128
71
25
72
7
73
5
0
VERTEX
8
OBJECT__45
10
0
20
0
30
0
70
128
71
23
72
27
73
5
0
VERTEX
8
OBJECT__45
10
0
20
0
30
0
70
128
71
22
72
9
73
1
0
VERTEX
8
OBJECT__45
10
0
20
0
30
0
70
128
71
15
72
12
73
11
0
VERTEX
8
OBJECT__45
10
0
20
0
30
0
70
128
71
13
72
17
73
11
0
VERTEX
8
OBJECT__45
10
0
20
0
30
0
70
128
71
10
72
31
73
2
0
VERTEX
8
OBJECT__45
10
0
20
0
30
0
70
128
71
6
72
34
73
4
0
VERTEX
8
OBJECT__45
10
0
20
0
30
0
70
128
71
3
72
15
73
1
0
SEQEND
8
OBJECT__45
0
POLYLINE
8
OBJECT__46
66
1
70
64
71
32
72
32
62
253
0
VERTEX
8
OBJECT__46
10
0.000000
20
48.000000
30
239.149002
70
192
0
VERTEX
8
OBJECT__46
10
-1.946000
20
28.080999
30
239.240005
70
192
0
VERTEX
8
OBJECT__46
10
-7.979000
20
28.080999
30
240.735992
70
192
0
VERTEX
8
OBJECT__46
10
0.000000
20
28.080999
30
239.149002
70
192
0
VERTEX
8
OBJECT__46
10
-14.744000
20
48.000000
30
245.255997
70
192
0
VERTEX
8
OBJECT__46
10
-12.898000
20
28.080999
30
243.617004
70
192
0
VERTEX
8
OBJECT__46
10
-14.566000
20
28.080999
30
245.419998
70
192
0
VERTEX
8
OBJECT__46
10
-20.851000
20
48.000000
30
259.998993
70
192
0
VERTEX
8
OBJECT__46
10
-19.118999
20
28.080999
30
252.089996
70
192
0
VERTEX
8
OBJECT__46
10
-19.830000
20
28.080999
30
253.556000
70
192
0
VERTEX
8
OBJECT__46
10
-17.336000
20
28.080999
30
248.414993
70
192
0
VERTEX
8
OBJECT__46
10
-14.744000
20
48.000000
30
274.743011
70
192
0
VERTEX
8
OBJECT__46
10
-19.263000
20
28.080999
30
267.977997
70
192
0
VERTEX
8
OBJECT__46
10
-16.382000
20
28.080999
30
272.897003
70
192
0
VERTEX
8
OBJECT__46
10
-20.759001
20
28.080999
30
261.946014
70
192
0
VERTEX
8
OBJECT__46
10
-20.851000
20
28.080999
30
259.998993
70
192
0
VERTEX
8
OBJECT__46
10
-14.579000
20
28.080999
30
274.565002
70
192
0
VERTEX
8
OBJECT__46
10
-11.584000
20
28.080999
30
277.335999
70
192
0
VERTEX
8
OBJECT__46
10
-7.909000
20
28.080999
30
279.118011
70
192
0
VERTEX
8
OBJECT__46
10
0.000000
20
48.000000
30
280.850006
70
192
0
VERTEX
8
OBJECT__46
10
-6.444000
20
28.080999
30
279.829010
70
192
0
VERTEX
8
OBJECT__46
10
14.743000
20
48.000000
30
274.743011
70
192
0
VERTEX
8
OBJECT__46
10
0.000000
20
28.080999
30
280.850006
70
192
0
VERTEX
8
OBJECT__46
10
7.371000
20
28.080999
30
277.795990
70
192
0
VERTEX
8
OBJECT__46
10
14.743000
20
28.080999
30
274.743011
70
192
0
VERTEX
8
OBJECT__46
10
17.797001
20
28.080999
30
267.371002
70
192
0
VERTEX
8
OBJECT__46
10
20.850000
20
48.000000
30
259.998993
70
192
0
VERTEX
8
OBJECT__46
10
14.743000
20
48.000000
30
245.255997
70
192
0
VERTEX
8
OBJECT__46
10
17.797001
20
28.080999
30
252.626999
70
192
0
VERTEX
8
OBJECT__46
10
20.850000
20
28.080999
30
259.998993
70
192
0
VERTEX
8
OBJECT__46
10
14.743000
20
28.080999
30
245.255997
70
192
0
VERTEX
8
OBJECT__46
10
7.371000
20
28.080999
30
242.201996
70
192
0
VERTEX
8
OBJECT__46
10
0
20
0
30
0
70
128
71
1
72
2
73
3
0
VERTEX
8
OBJECT__46
10
0
20
0
30
0
70
128
71
1
72
4
73
2
0
VERTEX
8
OBJECT__46
10
0
20
0
30
0
70
128
71
3
72
5
73
1
0
VERTEX
8
OBJECT__46
10
0
20
0
30
0
70
128
71
3
72
6
73
5
0
VERTEX
8
OBJECT__46
10
0
20
0
30
0
70
128
71
6
72
7
73
5
0
VERTEX
8
OBJECT__46
10
0
20
0
30
0
70
128
71
8
72
9
73
10
0
VERTEX
8
OBJECT__46
10
0
20
0
30
0
70
128
71
5
72
11
73
9
0
VERTEX
8
OBJECT__46
10
0
20
0
30
0
70
128
71
9
72
8
73
5
0
VERTEX
8
OBJECT__46
10
0
20
0
30
0
70
128
71
5
72
7
73
11
0
VERTEX
8
OBJECT__46
10
0
20
0
30
0
70
128
71
12
72
13
73
14
0
VERTEX
8
OBJECT__46
10
0
20
0
30
0
70
128
71
8
72
15
73
13
0
VERTEX
8
OBJECT__46
10
0
20
0
30
0
70
128
71
8
72
16
73
15
0
VERTEX
8
OBJECT__46
10
0
20
0
30
0
70
128
71
13
72
12
73
8
0
VERTEX
8
OBJECT__46
10
0
20
0
30
0
70
128
71
14
72
17
73
12
0
VERTEX
8
OBJECT__46
10
0
20
0
30
0
70
128
71
12
72
18
73
19
0
VERTEX
8
OBJECT__46
10
0
20
0
30
0
70
128
71
19
72
20
73
12
0
VERTEX
8
OBJECT__46
10
0
20
0
30
0
70
128
71
17
72
18
73
12
0
VERTEX
8
OBJECT__46
10
0
20
0
30
0
70
128
71
19
72
21
73
20
0
VERTEX
8
OBJECT__46
10
0
20
0
30
0
70
128
71
22
72
23
73
24
0
VERTEX
8
OBJECT__46
10
0
20
0
30
0
70
128
71
23
72
22
73
20
0
VERTEX
8
OBJECT__46
10
0
20
0
30
0
70
128
71
24
72
25
73
22
0
VERTEX
8
OBJECT__46
10
0
20
0
30
0
70
128
71
22
72
25
73
26
0
VERTEX
8
OBJECT__46
10
0
20
0
30
0
70
128
71
26
72
27
73
22
0
VERTEX
8
OBJECT__46
10
0
20
0
30
0
70
128
71
28
72
27
73
29
0
VERTEX
8
OBJECT__46
10
0
20
0
30
0
70
128
71
27
72
30
73
29
0
VERTEX
8
OBJECT__46
10
0
20
0
30
0
70
128
71
28
72
31
73
32
0
VERTEX
8
OBJECT__46
10
0
20
0
30
0
70
128
71
32
72
1
73
28
0
VERTEX
8
OBJECT__46
10
0
20
0
30
0
70
128
71
32
72
4
73
1
0
VERTEX
8
OBJECT__46
10
0
20
0
30
0
70
128
71
29
72
31
73
28
0
VERTEX
8
OBJECT__46
10
0
20
0
30
0
70
128
71
26
72
30
73
27
0
VERTEX
8
OBJECT__46
10
0
20
0
30
0
70
128
71
21
72
23
73
20
0
VERTEX
8
OBJECT__46
10
0
20
0
30
0
70
128
71
10
72
16
73
8
0
SEQEND
8
OBJECT__46
0
POLYLINE
8
OBJECT__47
66
1
70
64
71
8
72
6
62
253
0
VERTEX
8
OBJECT__47
10
-20.851000
20
48.000000
30
259.998993
70
192
0
VERTEX
8
OBJECT__47
10
20.850000
20
48.000000
30
259.998993
70
192
0
VERTEX
8
OBJECT__47
10
14.743000
20
48.000000
30
245.255997
70
192
0
VERTEX
8
OBJECT__47
10
-14.744000
20
48.000000
30
274.743011
70
192
0
VERTEX
8
OBJECT__47
10
0.000000
20
48.000000
30
280.850006
70
192
0
VERTEX
8
OBJECT__47
10
14.743000
20
48.000000
30
274.743011
70
192
0
VERTEX
8
OBJECT__47
10
0.000000
20
48.000000
30
239.149002
70
192
0
VERTEX
8
OBJECT__47
10
-14.744000
20
48.000000
30
245.255997
70
192
0
VERTEX
8
OBJECT__47
10
0
20
0
30
0
70
128
71
1
72
2
73
3
0
VERTEX
8
OBJECT__47
10
0
20
0
30
0
70
128
71
4
72
5
73
6
0
VERTEX
8
OBJECT__47
10
0
20
0
30
0
70
128
71
3
72
7
73
1
0
VERTEX
8
OBJECT__47
10
0
20
0
30
0
70
128
71
2
72
1
73
4
0
VERTEX
8
OBJECT__47
10
0
20
0
30
0
70
128
71
7
72
8
73
1
0
VERTEX
8
OBJECT__47
10
0
20
0
30
0
70
128
71
6
72
2
73
4
0
SEQEND
8
OBJECT__47
0
POLYLINE
8
OBJECT__48
66
1
70
64
71
27
72
25
62
253
0
VERTEX
8
OBJECT__48
10
7.061000
20
19.615999
30
291.000000
70
192
0
VERTEX
8
OBJECT__48
10
17.945000
20
10.613000
30
291.000000
70
192
0
VERTEX
8
OBJECT__48
10
14.578000
20
14.564000
30
288.063995
70
192
0
VERTEX
8
OBJECT__48
10
11.583000
20
17.334000
30
288.063995
70
192
0
VERTEX
8
OBJECT__48
10
17.777000
20
10.514000
30
288.063995
70
192
0
VERTEX
8
OBJECT__48
10
16.381001
20
12.896000
30
288.063995
70
192
0
VERTEX
8
OBJECT__48
10
7.908000
20
19.117001
30
288.063995
70
192
0
VERTEX
8
OBJECT__48
10
-7.064000
20
19.615999
30
291.000000
70
192
0
VERTEX
8
OBJECT__48
10
0.000000
20
20.848000
30
288.063995
70
192
0
VERTEX
8
OBJECT__48
10
-1.946000
20
20.757000
30
288.063995
70
192
0
VERTEX
8
OBJECT__48
10
6.443000
20
19.827000
30
288.063995
70
192
0
VERTEX
8
OBJECT__48
10
7.026000
20
19.544001
30
288.063995
70
192
0
VERTEX
8
OBJECT__48
10
-17.948000
20
10.613000
30
291.000000
70
192
0
VERTEX
8
OBJECT__48
10
-12.896000
20
16.381001
30
288.063995
70
192
0
VERTEX
8
OBJECT__48
10
-14.564000
20
14.577000
30
288.063995
70
192
0
VERTEX
8
OBJECT__48
10
-7.978000
20
19.261000
30
288.063995
70
192
0
VERTEX
8
OBJECT__48
10
-17.334999
20
11.582000
30
288.063995
70
192
0
VERTEX
8
OBJECT__48
10
-7.034000
20
19.495001
30
288.063995
70
192
0
VERTEX
8
OBJECT__48
10
-20.853001
20
0.000000
30
291.000000
70
192
0
VERTEX
8
OBJECT__48
10
-19.849001
20
6.382000
30
288.063995
70
192
0
VERTEX
8
OBJECT__48
10
-19.112000
20
7.906000
30
288.063995
70
192
0
VERTEX
8
OBJECT__48
10
-17.830999
20
10.556000
30
288.063995
70
192
0
VERTEX
8
OBJECT__48
10
20.850000
20
0.000000
30
291.000000
70
192
0
VERTEX
8
OBJECT__48
10
20.756001
20
1.974000
30
288.063995
70
192
0
VERTEX
8
OBJECT__48
10
19.261999
20
7.978000
30
288.063995
70
192
0
VERTEX
8
OBJECT__48
10
20.851000
20
0.000000
30
288.063995
70
192
0
VERTEX
8
OBJECT__48
10
-20.851999
20
0.000000
30
288.063995
70
192
0
VERTEX
8
OBJECT__48
10
0
20
0
30
0
70
128
71
1
72
2
73
3
0
VERTEX
8
OBJECT__48
10
0
20
0
30
0
70
128
71
3
72
4
73
1
0
VERTEX
8
OBJECT__48
10
0
20
0
30
0
70
128
71
2
72
5
73
6
0
VERTEX
8
OBJECT__48
10
0
20
0
30
0
70
128
71
6
72
3
73
2
0
VERTEX
8
OBJECT__48
10
0
20
0
30
0
70
128
71
4
72
7
73
1
0
VERTEX
8
OBJECT__48
10
0
20
0
30
0
70
128
71
8
72
9
73
10
0
VERTEX
8
OBJECT__48
10
0
20
0
30
0
70
128
71
1
72
11
73
9
0
VERTEX
8
OBJECT__48
10
0
20
0
30
0
70
128
71
1
72
12
73
11
0
VERTEX
8
OBJECT__48
10
0
20
0
30
0
70
128
71
9
72
8
73
1
0
VERTEX
8
OBJECT__48
10
0
20
0
30
0
70
128
71
13
72
8
73
14
0
VERTEX
8
OBJECT__48
10
0
20
0
30
0
70
128
71
14
72
15
73
13
0
VERTEX
8
OBJECT__48
10
0
20
0
30
0
70
128
71
16
72
14
73
8
0
VERTEX
8
OBJECT__48
10
0
20
0
30
0
70
128
71
15
72
17
73
13
0
VERTEX
8
OBJECT__48
10
0
20
0
30
0
70
128
71
8
72
18
73
16
0
VERTEX
8
OBJECT__48
10
0
20
0
30
0
70
128
71
19
72
13
73
20
0
VERTEX
8
OBJECT__48
10
0
20
0
30
0
70
128
71
13
72
21
73
20
0
VERTEX
8
OBJECT__48
10
0
20
0
30
0
70
128
71
13
72
22
73
21
0
VERTEX
8
OBJECT__48
10
0
20
0
30
0
70
128
71
23
72
24
73
25
0
VERTEX
8
OBJECT__48
10
0
20
0
30
0
70
128
71
25
72
2
73
23
0
VERTEX
8
OBJECT__48
10
0
20
0
30
0
70
128
71
23
72
26
73
24
0
VERTEX
8
OBJECT__48
10
0
20
0
30
0
70
128
71
25
72
5
73
2
0
VERTEX
8
OBJECT__48
10
0
20
0
30
0
70
128
71
20
72
27
73
19
0
VERTEX
8
OBJECT__48
10
0
20
0
30
0
70
128
71
17
72
22
73
13
0
VERTEX
8
OBJECT__48
10
0
20
0
30
0
70
128
71
10
72
18
73
8
0
VERTEX
8
OBJECT__48
10
0
20
0
30
0
70
128
71
7
72
12
73
1
0
SEQEND
8
OBJECT__48
0
POLYLINE
8
OBJECT__49
66
1
70
64
71
28
72
26
62
253
0
VERTEX
8
OBJECT__49
10
17.945000
20
-10.613000
30
291.000000
70
192
0
VERTEX
8
OBJECT__49
10
7.061000
20
-19.615999
30
291.000000
70
192
0
VERTEX
8
OBJECT__49
10
12.995000
20
-16.275000
30
288.065002
70
192
0
VERTEX
8
OBJECT__49
10
12.901000
20
-16.377001
30
288.065002
70
192
0
VERTEX
8
OBJECT__49
10
17.350000
20
-11.560000
30
288.065002
70
192
0
VERTEX
8
OBJECT__49
10
8.000000
20
-19.252001
30
288.065002
70
192
0
VERTEX
8
OBJECT__49
10
7.031000
20
-19.493000
30
288.063995
70
192
0
VERTEX
8
OBJECT__49
10
0.000000
20
-20.848000
30
288.063995
70
192
0
VERTEX
8
OBJECT__49
10
-7.064000
20
-19.615999
30
291.000000
70
192
0
VERTEX
8
OBJECT__49
10
-6.136000
20
-19.924000
30
288.063995
70
192
0
VERTEX
8
OBJECT__49
10
1.974000
20
-20.754000
30
288.063995
70
192
0
VERTEX
8
OBJECT__49
10
-7.013000
20
-19.507999
30
288.063995
70
192
0
VERTEX
8
OBJECT__49
10
-17.948000
20
-10.613000
30
291.000000
70
192
0
VERTEX
8
OBJECT__49
10
-13.827000
20
-15.258000
30
288.065002
70
192
0
VERTEX
8
OBJECT__49
10
-12.650000
20
-16.347000
30
288.065002
70
192
0
VERTEX
8
OBJECT__49
10
-16.385000
20
-12.891000
30
288.065002
70
192
0
VERTEX
8
OBJECT__49
10
-17.777000
20
-10.513000
30
288.063995
70
192
0
VERTEX
8
OBJECT__49
10
-11.584000
20
-17.333000
30
288.065002
70
192
0
VERTEX
8
OBJECT__49
10
19.806000
20
-6.511000
30
288.063995
70
192
0
VERTEX
8
OBJECT__49
10
20.111000
20
-4.611000
30
288.063995
70
192
0
VERTEX
8
OBJECT__49
10
20.850000
20
0.000000
30
291.000000
70
192
0
VERTEX
8
OBJECT__49
10
17.837000
20
-10.560000
30
288.065002
70
192
0
VERTEX
8
OBJECT__49
10
-20.853001
20
0.000000
30
291.000000
70
192
0
VERTEX
8
OBJECT__49
10
-20.155001
20
-4.363000
30
288.063995
70
192
0
VERTEX
8
OBJECT__49
10
-20.764000
20
-1.889000
30
288.063995
70
192
0
VERTEX
8
OBJECT__49
10
-20.851999
20
0.000000
30
288.063995
70
192
0
VERTEX
8
OBJECT__49
10
-19.268000
20
-7.963000
30
288.063995
70
192
0
VERTEX
8
OBJECT__49
10
20.851000
20
0.000000
30
288.063995
70
192
0
VERTEX
8
OBJECT__49
10
0
20
0
30
0
70
128
71
1
72
2
73
3
0
VERTEX
8
OBJECT__49
10
0
20
0
30
0
70
128
71
2
72
4
73
3
0
VERTEX
8
OBJECT__49
10
0
20
0
30
0
70
128
71
3
72
5
73
1
0
VERTEX
8
OBJECT__49
10
0
20
0
30
0
70
128
71
2
72
6
73
4
0
VERTEX
8
OBJECT__49
10
0
20
0
30
0
70
128
71
2
72
7
73
6
0
VERTEX
8
OBJECT__49
10
0
20
0
30
0
70
128
71
9
72
10
73
8
0
VERTEX
8
OBJECT__49
10
0
20
0
30
0
70
128
71
8
72
2
73
9
0
VERTEX
8
OBJECT__49
10
0
20
0
30
0
70
128
71
8
72
11
73
2
0
VERTEX
8
OBJECT__49
10
0
20
0
30
0
70
128
71
9
72
12
73
10
0
VERTEX
8
OBJECT__49
10
0
20
0
30
0
70
128
71
13
72
14
73
15
0
VERTEX
8
OBJECT__49
10
0
20
0
30
0
70
128
71
15
72
9
73
13
0
VERTEX
8
OBJECT__49
10
0
20
0
30
0
70
128
71
13
72
16
73
14
0
VERTEX
8
OBJECT__49
10
0
20
0
30
0
70
128
71
13
72
17
73
16
0
VERTEX
8
OBJECT__49
10
0
20
0
30
0
70
128
71
15
72
18
73
9
0
VERTEX
8
OBJECT__49
10
0
20
0
30
0
70
128
71
1
72
19
73
20
0
VERTEX
8
OBJECT__49
10
0
20
0
30
0
70
128
71
20
72
21
73
1
0
VERTEX
8
OBJECT__49
10
0
20
0
30
0
70
128
71
1
72
22
73
19
0
VERTEX
8
OBJECT__49
10
0
20
0
30
0
70
128
71
13
72
23
73
24
0
VERTEX
8
OBJECT__49
10
0
20
0
30
0
70
128
71
23
72
25
73
24
0
VERTEX
8
OBJECT__49
10
0
20
0
30
0
70
128
71
23
72
26
73
25
0
VERTEX
8
OBJECT__49
10
0
20
0
30
0
70
128
71
24
72
27
73
13
0
VERTEX
8
OBJECT__49
10
0
20
0
30
0
70
128
71
27
72
17
73
13
0
VERTEX
8
OBJECT__49
10
0
20
0
30
0
70
128
71
20
72
28
73
21
0
VERTEX
8
OBJECT__49
10
0
20
0
30
0
70
128
71
18
72
12
73
9
0
VERTEX
8
OBJECT__49
10
0
20
0
30
0
70
128
71
11
72
7
73
2
0
VERTEX
8
OBJECT__49
10
0
20
0
30
0
70
128
71
5
72
22
73
1
0
SEQEND
8
OBJECT__49
0
POLYLINE
8
OBJECT__50
66
1
70
64
71
10
72
8
62
253
0
VERTEX
8
OBJECT__50
10
17.945000
20
-10.613000
30
291.000000
70
192
0
VERTEX
8
OBJECT__50
10
-17.948000
20
-10.613000
30
291.000000
70
192
0
VERTEX
8
OBJECT__50
10
-7.064000
20
-19.615999
30
291.000000
70
192
0
VERTEX
8
OBJECT__50
10
17.945000
20
10.613000
30
291.000000
70
192
0
VERTEX
8
OBJECT__50
10
7.061000
20
19.615999
30
291.000000
70
192
0
VERTEX
8
OBJECT__50
10
-7.064000
20
19.615999
30
291.000000
70
192
0
VERTEX
8
OBJECT__50
10
7.061000
20
-19.615999
30
291.000000
70
192
0
VERTEX
8
OBJECT__50
10
-17.948000
20
10.613000
30
291.000000
70
192
0
VERTEX
8
OBJECT__50
10
20.850000
20
0.000000
30
291.000000
70
192
0
VERTEX
8
OBJECT__50
10
-20.853001
20
0.000000
30
291.000000
70
192
0
VERTEX
8
OBJECT__50
10
0
20
0
30
0
70
128
71
1
72
2
73
3
0
VERTEX
8
OBJECT__50
10
0
20
0
30
0
70
128
71
4
72
5
73
6
0
VERTEX
8
OBJECT__50
10
0
20
0
30
0
70
128
71
3
72
7
73
1
0
VERTEX
8
OBJECT__50
10
0
20
0
30
0
70
128
71
6
72
8
73
4
0
VERTEX
8
OBJECT__50
10
0
20
0
30
0
70
128
71
9
72
10
73
2
0
VERTEX
8
OBJECT__50
10
0
20
0
30
0
70
128
71
10
72
9
73
4
0
VERTEX
8
OBJECT__50
10
0
20
0
30
0
70
128
71
8
72
10
73
4
0
VERTEX
8
OBJECT__50
10
0
20
0
30
0
70
128
71
1
72
9
73
2
0
SEQEND
8
OBJECT__50
0
POLYLINE
8
OBJECT__51
66
1
70
64
71
13
72
11
62
253
0
VERTEX
8
OBJECT__51
10
7.666000
20
74.206001
30
267.087006
70
192
0
VERTEX
8
OBJECT__51
10
7.506000
20
74.495003
30
266.937012
70
192
0
VERTEX
8
OBJECT__51
10
4.789000
20
74.483002
30
268.984985
70
192
0
VERTEX
8
OBJECT__51
10
9.593000
20
74.206001
30
264.195007
70
192
0
VERTEX
8
OBJECT__51
10
9.393000
20
74.495003
30
264.105011
70
192
0
VERTEX
8
OBJECT__51
10
10.454000
20
74.199997
30
260.828003
70
192
0
VERTEX
8
OBJECT__51
10
10.237000
20
74.488998
30
260.809998
70
192
0
VERTEX
8
OBJECT__51
10
4.021000
20
74.227997
30
269.575012
70
192
0
VERTEX
8
OBJECT__51
10
4.030000
20
74.192001
30
269.572998
70
192
0
VERTEX
8
OBJECT__51
10
3.768000
20
74.480003
30
269.442993
70
192
0
VERTEX
8
OBJECT__51
10
10.387000
20
74.199997
30
258.541992
70
192
0
VERTEX
8
OBJECT__51
10
10.172000
20
74.487999
30
258.572998
70
192
0
VERTEX
8
OBJECT__51
10
4.890000
20
74.195000
30
269.178009
70
192
0
VERTEX
8
OBJECT__51
10
0
20
0
30
0
70
128
71
1
72
2
73
3
0
VERTEX
8
OBJECT__51
10
0
20
0
30
0
70
128
71
1
72
4
73
5
0
VERTEX
8
OBJECT__51
10
0
20
0
30
0
70
128
71
4
72
6
73
7
0
VERTEX
8
OBJECT__51
10
0
20
0
30
0
70
128
71
3
72
8
73
9
0
VERTEX
8
OBJECT__51
10
0
20
0
30
0
70
128
71
3
72
10
73
8
0
VERTEX
8
OBJECT__51
10
0
20
0
30
0
70
128
71
6
72
11
73
12
0
VERTEX
8
OBJECT__51
10
0
20
0
30
0
70
128
71
12
72
7
73
6
0
VERTEX
8
OBJECT__51
10
0
20
0
30
0
70
128
71
9
72
13
73
3
0
VERTEX
8
OBJECT__51
10
0
20
0
30
0
70
128
71
7
72
5
73
4
0
VERTEX
8
OBJECT__51
10
0
20
0
30
0
70
128
71
5
72
2
73
1
0
VERTEX
8
OBJECT__51
10
0
20
0
30
0
70
128
71
3
72
13
73
1
0
SEQEND
8
OBJECT__51
0
POLYLINE
8
OBJECT__52
66
1
70
64
71
18
72
16
62
253
0
VERTEX
8
OBJECT__52
10
1.560000
20
75.883003
30
259.785004
70
192
0
VERTEX
8
OBJECT__52
10
3.768000
20
74.480003
30
269.442993
70
192
0
VERTEX
8
OBJECT__52
10
4.789000
20
74.483002
30
268.984985
70
192
0
VERTEX
8
OBJECT__52
10
3.702000
20
74.484001
30
269.450989
70
192
0
VERTEX
8
OBJECT__52
10
4.860000
20
75.600998
30
259.321014
70
192
0
VERTEX
8
OBJECT__52
10
3.803000
20
75.723999
30
259.470001
70
192
0
VERTEX
8
OBJECT__52
10
7.506000
20
74.495003
30
266.937012
70
192
0
VERTEX
8
OBJECT__52
10
5.334000
20
75.535004
30
259.253998
70
192
0
VERTEX
8
OBJECT__52
10
5.835000
20
75.459000
30
259.183990
70
192
0
VERTEX
8
OBJECT__52
10
9.393000
20
74.495003
30
264.105011
70
192
0
VERTEX
8
OBJECT__52
10
10.237000
20
74.488998
30
260.809998
70
192
0
VERTEX
8
OBJECT__52
10
10.172000
20
74.487999
30
258.572998
70
192
0
VERTEX
8
OBJECT__52
10
3.493000
20
74.494003
30
269.487000
70
192
0
VERTEX
8
OBJECT__52
10
0.468000
20
75.832001
30
262.332001
70
192
0
VERTEX
8
OBJECT__52
10
1.517000
20
74.540001
30
269.796997
70
192
0
VERTEX
8
OBJECT__52
10
0.301000
20
75.890999
30
261.144989
70
192
0
VERTEX
8
OBJECT__52
10
0.670000
20
75.906998
30
259.910004
70
192
0
VERTEX
8
OBJECT__52
10
0.139000
20
75.911003
30
259.985992
70
192
0
VERTEX
8
OBJECT__52
10
0
20
0
30
0
70
128
71
1
72
2
73
3
0
VERTEX
8
OBJECT__52
10
0
20
0
30
0
70
128
71
1
72
4
73
2
0
VERTEX
8
OBJECT__52
10
0
20
0
30
0
70
128
71
3
72
5
73
6
0
VERTEX
8
OBJECT__52
10
0
20
0
30
0
70
128
71
5
72
3
73
7
0
VERTEX
8
OBJECT__52
10
0
20
0
30
0
70
128
71
7
72
8
73
5
0
VERTEX
8
OBJECT__52
10
0
20
0
30
0
70
128
71
9
72
7
73
10
0
VERTEX
8
OBJECT__52
10
0
20
0
30
0
70
128
71
10
72
11
73
9
0
VERTEX
8
OBJECT__52
10
0
20
0
30
0
70
128
71
11
72
12
73
9
0
VERTEX
8
OBJECT__52
10
0
20
0
30
0
70
128
71
9
72
8
73
7
0
VERTEX
8
OBJECT__52
10
0
20
0
30
0
70
128
71
13
72
1
73
14
0
VERTEX
8
OBJECT__52
10
0
20
0
30
0
70
128
71
14
72
15
73
13
0
VERTEX
8
OBJECT__52
10
0
20
0
30
0
70
128
71
1
72
16
73
14
0
VERTEX
8
OBJECT__52
10
0
20
0
30
0
70
128
71
16
72
1
73
17
0
VERTEX
8
OBJECT__52
10
0
20
0
30
0
70
128
71
17
72
18
73
16
0
VERTEX
8
OBJECT__52
10
0
20
0
30
0
70
128
71
13
72
4
73
1
0
VERTEX
8
OBJECT__52
10
0
20
0
30
0
70
128
71
3
72
6
73
1
0
SEQEND
8
OBJECT__52
0
POLYLINE
8
OBJECT__54
66
1
70
64
71
19
72
17
62
253
0
VERTEX
8
OBJECT__54
10
5.835000
20
75.459000
30
259.183990
70
192
0
VERTEX
8
OBJECT__54
10
10.172000
20
74.487999
30
258.572998
70
192
0
VERTEX
8
OBJECT__54
10
9.140000
20
74.499001
30
255.332993
70
192
0
VERTEX
8
OBJECT__54
10
7.095000
20
74.512001
30
252.617996
70
192
0
VERTEX
8
OBJECT__54
10
4.263000
20
74.512001
30
250.729004
70
192
0
VERTEX
8
OBJECT__54
10
5.334000
20
75.535004
30
259.253998
70
192
0
VERTEX
8
OBJECT__54
10
-1.272000
20
74.500000
30
249.949005
70
192
0
VERTEX
8
OBJECT__54
10
1.560000
20
75.883003
30
259.785004
70
192
0
VERTEX
8
OBJECT__54
10
3.803000
20
75.723999
30
259.470001
70
192
0
VERTEX
8
OBJECT__54
10
0.670000
20
75.906998
30
259.910004
70
192
0
VERTEX
8
OBJECT__54
10
4.860000
20
75.600998
30
259.321014
70
192
0
VERTEX
8
OBJECT__54
10
-0.053000
20
75.887001
30
258.625000
70
192
0
VERTEX
8
OBJECT__54
10
-0.018000
20
75.894997
30
258.873993
70
192
0
VERTEX
8
OBJECT__54
10
0.126000
20
75.911003
30
259.897003
70
192
0
VERTEX
8
OBJECT__54
10
-0.266000
20
75.799004
30
257.105988
70
192
0
VERTEX
8
OBJECT__54
10
-0.177000
20
75.844002
30
257.740997
70
192
0
VERTEX
8
OBJECT__54
10
-0.301000
20
75.778999
30
256.856995
70
192
0
VERTEX
8
OBJECT__54
10
-0.142000
20
75.858002
30
257.990997
70
192
0
VERTEX
8
OBJECT__54
10
0.139000
20
75.911003
30
259.985992
70
192
0
VERTEX
8
OBJECT__54
10
0
20
0
30
0
70
128
71
1
72
2
73
3
0
VERTEX
8
OBJECT__54
10
0
20
0
30
0
70
128
71
3
72
4
73
1
0
VERTEX
8
OBJECT__54
10
0
20
0
30
0
70
128
71
5
72
6
73
1
0
VERTEX
8
OBJECT__54
10
0
20
0
30
0
70
128
71
7
72
8
73
9
0
VERTEX
8
OBJECT__54
10
0
20
0
30
0
70
128
71
9
72
5
73
7
0
VERTEX
8
OBJECT__54
10
0
20
0
30
0
70
128
71
7
72
10
73
8
0
VERTEX
8
OBJECT__54
10
0
20
0
30
0
70
128
71
9
72
11
73
5
0
VERTEX
8
OBJECT__54
10
0
20
0
30
0
70
128
71
11
72
6
73
5
0
VERTEX
8
OBJECT__54
10
0
20
0
30
0
70
128
71
10
72
12
73
13
0
VERTEX
8
OBJECT__54
10
0
20
0
30
0
70
128
71
13
72
14
73
10
0
VERTEX
8
OBJECT__54
10
0
20
0
30
0
70
128
71
10
72
15
73
16
0
VERTEX
8
OBJECT__54
10
0
20
0
30
0
70
128
71
10
72
7
73
17
0
VERTEX
8
OBJECT__54
10
0
20
0
30
0
70
128
71
17
72
15
73
10
0
VERTEX
8
OBJECT__54
10
0
20
0
30
0
70
128
71
16
72
18
73
10
0
VERTEX
8
OBJECT__54
10
0
20
0
30
0
70
128
71
18
72
12
73
10
0
VERTEX
8
OBJECT__54
10
0
20
0
30
0
70
128
71
14
72
19
73
10
0
VERTEX
8
OBJECT__54
10
0
20
0
30
0
70
128
71
4
72
5
73
1
0
SEQEND
8
OBJECT__54
0
POLYLINE
8
OBJECT__55
66
1
70
64
71
19
72
17
62
253
0
VERTEX
8
OBJECT__55
10
-0.418000
20
75.905998
30
260.062988
70
192
0
VERTEX
8
OBJECT__55
10
-0.266000
20
75.799004
30
257.105988
70
192
0
VERTEX
8
OBJECT__55
10
-0.301000
20
75.778999
30
256.856995
70
192
0
VERTEX
8
OBJECT__55
10
-0.177000
20
75.844002
30
257.740997
70
192
0
VERTEX
8
OBJECT__55
10
-0.142000
20
75.858002
30
257.990997
70
192
0
VERTEX
8
OBJECT__55
10
-0.053000
20
75.887001
30
258.625000
70
192
0
VERTEX
8
OBJECT__55
10
0.126000
20
75.911003
30
259.897003
70
192
0
VERTEX
8
OBJECT__55
10
-0.018000
20
75.894997
30
258.873993
70
192
0
VERTEX
8
OBJECT__55
10
0.139000
20
75.911003
30
259.985992
70
192
0
VERTEX
8
OBJECT__55
10
-1.272000
20
74.500000
30
249.949005
70
192
0
VERTEX
8
OBJECT__55
10
-4.512000
20
74.505997
30
250.981003
70
192
0
VERTEX
8
OBJECT__55
10
-1.684000
20
75.864998
30
260.240997
70
192
0
VERTEX
8
OBJECT__55
10
-4.534000
20
75.607002
30
260.640991
70
192
0
VERTEX
8
OBJECT__55
10
-7.227000
20
74.513000
30
253.026993
70
192
0
VERTEX
8
OBJECT__55
10
-6.230000
20
75.345001
30
260.878998
70
192
0
VERTEX
8
OBJECT__55
10
-9.116000
20
74.508003
30
255.858994
70
192
0
VERTEX
8
OBJECT__55
10
-9.896000
20
74.487999
30
261.393005
70
192
0
VERTEX
8
OBJECT__55
10
-3.905000
20
75.683998
30
260.553009
70
192
0
VERTEX
8
OBJECT__55
10
-2.274000
20
75.830002
30
260.324005
70
192
0
VERTEX
8
OBJECT__55
10
0
20
0
30
0
70
128
71
1
72
2
73
3
0
VERTEX
8
OBJECT__55
10
0
20
0
30
0
70
128
71
1
72
4
73
2
0
VERTEX
8
OBJECT__55
10
0
20
0
30
0
70
128
71
1
72
5
73
4
0
VERTEX
8
OBJECT__55
10
0
20
0
30
0
70
128
71
1
72
6
73
5
0
VERTEX
8
OBJECT__55
10
0
20
0
30
0
70
128
71
1
72
7
73
8
0
VERTEX
8
OBJECT__55
10
0
20
0
30
0
70
128
71
1
72
9
73
7
0
VERTEX
8
OBJECT__55
10
0
20
0
30
0
70
128
71
8
72
6
73
1
0
VERTEX
8
OBJECT__55
10
0
20
0
30
0
70
128
71
10
72
11
73
12
0
VERTEX
8
OBJECT__55
10
0
20
0
30
0
70
128
71
13
72
11
73
14
0
VERTEX
8
OBJECT__55
10
0
20
0
30
0
70
128
71
15
72
14
73
16
0
VERTEX
8
OBJECT__55
10
0
20
0
30
0
70
128
71
16
72
17
73
15
0
VERTEX
8
OBJECT__55
10
0
20
0
30
0
70
128
71
14
72
15
73
13
0
VERTEX
8
OBJECT__55
10
0
20
0
30
0
70
128
71
13
72
18
73
11
0
VERTEX
8
OBJECT__55
10
0
20
0
30
0
70
128
71
18
72
19
73
11
0
VERTEX
8
OBJECT__55
10
0
20
0
30
0
70
128
71
19
72
12
73
11
0
VERTEX
8
OBJECT__55
10
0
20
0
30
0
70
128
71
12
72
1
73
10
0
VERTEX
8
OBJECT__55
10
0
20
0
30
0
70
128
71
3
72
10
73
1
0
SEQEND
8
OBJECT__55
0
POLYLINE
8
OBJECT__56
66
1
70
64
71
17
72
15
62
253
0
VERTEX
8
OBJECT__56
10
0.301000
20
75.890999
30
261.144989
70
192
0
VERTEX
8
OBJECT__56
10
0.139000
20
75.911003
30
259.985992
70
192
0
VERTEX
8
OBJECT__56
10
-0.418000
20
75.905998
30
260.062988
70
192
0
VERTEX
8
OBJECT__56
10
-0.678000
20
74.484001
30
270.066010
70
192
0
VERTEX
8
OBJECT__56
10
1.307000
20
74.539001
30
269.825989
70
192
0
VERTEX
8
OBJECT__56
10
0.468000
20
75.832001
30
262.332001
70
192
0
VERTEX
8
OBJECT__56
10
-1.684000
20
75.864998
30
260.240997
70
192
0
VERTEX
8
OBJECT__56
10
1.517000
20
74.540001
30
269.796997
70
192
0
VERTEX
8
OBJECT__56
10
-6.230000
20
75.345001
30
260.878998
70
192
0
VERTEX
8
OBJECT__56
10
-9.896000
20
74.487999
30
261.393005
70
192
0
VERTEX
8
OBJECT__56
10
-8.863000
20
74.490997
30
264.634003
70
192
0
VERTEX
8
OBJECT__56
10
-6.815000
20
74.497002
30
267.351013
70
192
0
VERTEX
8
OBJECT__56
10
-3.984000
20
74.490997
30
269.238007
70
192
0
VERTEX
8
OBJECT__56
10
-4.534000
20
75.607002
30
260.640991
70
192
0
VERTEX
8
OBJECT__56
10
-3.905000
20
75.683998
30
260.553009
70
192
0
VERTEX
8
OBJECT__56
10
-2.274000
20
75.830002
30
260.324005
70
192
0
VERTEX
8
OBJECT__56
10
-0.743000
20
74.480003
30
270.076996
70
192
0
VERTEX
8
OBJECT__56
10
0
20
0
30
0
70
128
71
1
72
2
73
3
0
VERTEX
8
OBJECT__56
10
0
20
0
30
0
70
128
71
4
72
5
73
6
0
VERTEX
8
OBJECT__56
10
0
20
0
30
0
70
128
71
6
72
7
73
4
0
VERTEX
8
OBJECT__56
10
0
20
0
30
0
70
128
71
5
72
8
73
6
0
VERTEX
8
OBJECT__56
10
0
20
0
30
0
70
128
71
6
72
1
73
7
0
VERTEX
8
OBJECT__56
10
0
20
0
30
0
70
128
71
3
72
7
73
1
0
VERTEX
8
OBJECT__56
10
0
20
0
30
0
70
128
71
9
72
10
73
11
0
VERTEX
8
OBJECT__56
10
0
20
0
30
0
70
128
71
11
72
12
73
9
0
VERTEX
8
OBJECT__56
10
0
20
0
30
0
70
128
71
13
72
14
73
9
0
VERTEX
8
OBJECT__56
10
0
20
0
30
0
70
128
71
13
72
15
73
14
0
VERTEX
8
OBJECT__56
10
0
20
0
30
0
70
128
71
16
72
15
73
13
0
VERTEX
8
OBJECT__56
10
0
20
0
30
0
70
128
71
13
72
17
73
16
0
VERTEX
8
OBJECT__56
10
0
20
0
30
0
70
128
71
17
72
4
73
16
0
VERTEX
8
OBJECT__56
10
0
20
0
30
0
70
128
71
12
72
13
73
9
0
VERTEX
8
OBJECT__56
10
0
20
0
30
0
70
128
71
7
72
16
73
4
0
SEQEND
8
OBJECT__56
0
POLYLINE
8
OBJECT__57
66
1
70
64
71
11
72
9
62
253
0
VERTEX
8
OBJECT__57
10
-6.965000
20
74.208000
30
267.510010
70
192
0
VERTEX
8
OBJECT__57
10
-6.815000
20
74.497002
30
267.351013
70
192
0
VERTEX
8
OBJECT__57
10
-8.863000
20
74.490997
30
264.634003
70
192
0
VERTEX
8
OBJECT__57
10
-4.073000
20
74.202003
30
269.437012
70
192
0
VERTEX
8
OBJECT__57
10
-3.984000
20
74.490997
30
269.238007
70
192
0
VERTEX
8
OBJECT__57
10
-0.960000
20
74.192001
30
270.274994
70
192
0
VERTEX
8
OBJECT__57
10
-0.822000
20
74.441002
30
270.153992
70
192
0
VERTEX
8
OBJECT__57
10
-9.057000
20
74.202003
30
264.734985
70
192
0
VERTEX
8
OBJECT__57
10
-9.896000
20
74.487999
30
261.393005
70
192
0
VERTEX
8
OBJECT__57
10
-10.111000
20
74.199997
30
261.423004
70
192
0
VERTEX
8
OBJECT__57
10
-0.743000
20
74.480003
30
270.076996
70
192
0
VERTEX
8
OBJECT__57
10
0
20
0
30
0
70
128
71
1
72
2
73
3
0
VERTEX
8
OBJECT__57
10
0
20
0
30
0
70
128
71
1
72
4
73
5
0
VERTEX
8
OBJECT__57
10
0
20
0
30
0
70
128
71
5
72
4
73
6
0
VERTEX
8
OBJECT__57
10
0
20
0
30
0
70
128
71
6
72
7
73
5
0
VERTEX
8
OBJECT__57
10
0
20
0
30
0
70
128
71
8
72
3
73
9
0
VERTEX
8
OBJECT__57
10
0
20
0
30
0
70
128
71
9
72
10
73
8
0
VERTEX
8
OBJECT__57
10
0
20
0
30
0
70
128
71
7
72
11
73
5
0
VERTEX
8
OBJECT__57
10
0
20
0
30
0
70
128
71
5
72
2
73
1
0
VERTEX
8
OBJECT__57
10
0
20
0
30
0
70
128
71
3
72
8
73
1
0
SEQEND
8
OBJECT__57
0
POLYLINE
8
OBJECT__58
66
1
70
64
71
4
72
2
62
253
0
VERTEX
8
OBJECT__58
10
-41.941002
20
0.000000
30
229.365005
70
192
0
VERTEX
8
OBJECT__58
10
-41.941002
20
-2.000000
30
231.365005
70
192
0
VERTEX
8
OBJECT__58
10
-41.941002
20
0.000000
30
233.365005
70
192
0
VERTEX
8
OBJECT__58
10
-41.941002
20
2.000000
30
231.365005
70
192
0
VERTEX
8
OBJECT__58
10
0
20
0
30
0
70
128
71
1
72
2
73
3
0
VERTEX
8
OBJECT__58
10
0
20
0
30
0
70
128
71
3
72
4
73
1
0
SEQEND
8
OBJECT__58
0
POLYLINE
8
OBJECT__59
66
1
70
64
71
8
72
8
62
253
0
VERTEX
8
OBJECT__59
10
-41.941002
20
2.000000
30
231.365005
70
192
0
VERTEX
8
OBJECT__59
10
-28.474001
20
2.000000
30
231.365005
70
192
0
VERTEX
8
OBJECT__59
10
-28.474001
20
0.000000
30
229.365005
70
192
0
VERTEX
8
OBJECT__59
10
-41.941002
20
0.000000
30
233.365005
70
192
0
VERTEX
8
OBJECT__59
10
-28.474001
20
0.000000
30
233.365005
70
192
0
VERTEX
8
OBJECT__59
10
-28.474001
20
-2.000000
30
231.365005
70
192
0
VERTEX
8
OBJECT__59
10
-41.941002
20
-2.000000
30
231.365005
70
192
0
VERTEX
8
OBJECT__59
10
-41.941002
20
0.000000
30
229.365005
70
192
0
VERTEX
8
OBJECT__59
10
0
20
0
30
0
70
128
71
1
72
2
73
3
0
VERTEX
8
OBJECT__59
10
0
20
0
30
0
70
128
71
4
72
5
73
2
0
VERTEX
8
OBJECT__59
10
0
20
0
30
0
70
128
71
6
72
5
73
4
0
VERTEX
8
OBJECT__59
10
0
20
0
30
0
70
128
71
3
72
6
73
7
0
VERTEX
8
OBJECT__59
10
0
20
0
30
0
70
128
71
7
72
8
73
3
0
VERTEX
8
OBJECT__59
10
0
20
0
30
0
70
128
71
4
72
7
73
6
0
VERTEX
8
OBJECT__59
10
0
20
0
30
0
70
128
71
2
72
1
73
4
0
VERTEX
8
OBJECT__59
10
0
20
0
30
0
70
128
71
3
72
8
73
1
0
SEQEND
8
OBJECT__59
0
POLYLINE
8
OBJECT__61
66
1
70
64
71
12
72
16
62
253
0
VERTEX
8
OBJECT__61
10
-26.711000
20
-2.000000
30
230.792007
70
192
0
VERTEX
8
OBJECT__61
10
-28.474001
20
-2.000000
30
231.365005
70
192
0
VERTEX
8
OBJECT__61
10
-28.474001
20
0.000000
30
229.365005
70
192
0
VERTEX
8
OBJECT__61
10
-25.621000
20
-2.000000
30
229.292007
70
192
0
VERTEX
8
OBJECT__61
10
-27.886000
20
0.000000
30
229.173996
70
192
0
VERTEX
8
OBJECT__61
10
-25.535000
20
0.000000
30
232.410004
70
192
0
VERTEX
8
OBJECT__61
10
-28.474001
20
0.000000
30
233.365005
70
192
0
VERTEX
8
OBJECT__61
10
-23.719000
20
0.000000
30
229.908997
70
192
0
VERTEX
8
OBJECT__61
10
-26.711000
20
2.000000
30
230.792007
70
192
0
VERTEX
8
OBJECT__61
10
-28.474001
20
2.000000
30
231.365005
70
192
0
VERTEX
8
OBJECT__61
10
-25.621000
20
2.000000
30
229.292007
70
192
0
VERTEX
8
OBJECT__61
10
-27.523001
20
0.000000
30
228.673996
70
192
0
VERTEX
8
OBJECT__61
10
0
20
0
30
0
70
128
71
1
72
2
73
3
0
VERTEX
8
OBJECT__61
10
0
20
0
30
0
70
128
71
4
72
1
73
5
0
VERTEX
8
OBJECT__61
10
0
20
0
30
0
70
128
71
6
72
7
73
2
0
VERTEX
8
OBJECT__61
10
0
20
0
30
0
70
128
71
8
72
6
73
1
0
VERTEX
8
OBJECT__61
10
0
20
0
30
0
70
128
71
6
72
9
73
10
0
VERTEX
8
OBJECT__61
10
0
20
0
30
0
70
128
71
8
72
11
73
9
0
VERTEX
8
OBJECT__61
10
0
20
0
30
0
70
128
71
9
72
5
73
3
0
VERTEX
8
OBJECT__61
10
0
20
0
30
0
70
128
71
11
72
12
73
5
0
VERTEX
8
OBJECT__61
10
0
20
0
30
0
70
128
71
5
72
9
73
11
0
VERTEX
8
OBJECT__61
10
0
20
0
30
0
70
128
71
3
72
10
73
9
0
VERTEX
8
OBJECT__61
10
0
20
0
30
0
70
128
71
9
72
6
73
8
0
VERTEX
8
OBJECT__61
10
0
20
0
30
0
70
128
71
10
72
7
73
6
0
VERTEX
8
OBJECT__61
10
0
20
0
30
0
70
128
71
1
72
4
73
8
0
VERTEX
8
OBJECT__61
10
0
20
0
30
0
70
128
71
2
72
1
73
6
0
VERTEX
8
OBJECT__61
10
0
20
0
30
0
70
128
71
5
72
12
73
4
0
VERTEX
8
OBJECT__61
10
0
20
0
30
0
70
128
71
3
72
5
73
1
0
SEQEND
8
OBJECT__61
0
POLYLINE
8
OBJECT__62
66
1
70
64
71
8
72
8
62
253
0
VERTEX
8
OBJECT__62
10
1.992000
20
2.000000
30
144.298004
70
192
0
VERTEX
8
OBJECT__62
10
0.090000
20
0.000000
30
143.679993
70
192
0
VERTEX
8
OBJECT__62
10
-27.523001
20
0.000000
30
228.673996
70
192
0
VERTEX
8
OBJECT__62
10
3.894000
20
0.000000
30
144.916000
70
192
0
VERTEX
8
OBJECT__62
10
-25.621000
20
2.000000
30
229.292007
70
192
0
VERTEX
8
OBJECT__62
10
-25.621000
20
-2.000000
30
229.292007
70
192
0
VERTEX
8
OBJECT__62
10
1.992000
20
-2.000000
30
144.298004
70
192
0
VERTEX
8
OBJECT__62
10
-23.719000
20
0.000000
30
229.908997
70
192
0
VERTEX
8
OBJECT__62
10
0
20
0
30
0
70
128
71
1
72
2
73
3
0
VERTEX
8
OBJECT__62
10
0
20
0
30
0
70
128
71
4
72
1
73
5
0
VERTEX
8
OBJECT__62
10
0
20
0
30
0
70
128
71
6
72
7
73
4
0
VERTEX
8
OBJECT__62
10
0
20
0
30
0
70
128
71
3
72
2
73
7
0
VERTEX
8
OBJECT__62
10
0
20
0
30
0
70
128
71
7
72
6
73
3
0
VERTEX
8
OBJECT__62
10
0
20
0
30
0
70
128
71
4
72
8
73
6
0
VERTEX
8
OBJECT__62
10
0
20
0
30
0
70
128
71
5
72
8
73
4
0
VERTEX
8
OBJECT__62
10
0
20
0
30
0
70
128
71
3
72
5
73
1
0
SEQEND
8
OBJECT__62
0
POLYLINE
8
OBJECT__63
66
1
70
64
71
7
72
5
62
253
0
VERTEX
8
OBJECT__63
10
1.634000
20
74.403000
30
270.628998
70
192
0
VERTEX
8
OBJECT__63
10
9.394000
20
74.407997
30
265.450989
70
192
0
VERTEX
8
OBJECT__63
10
10.184000
20
74.417999
30
256.156006
70
192
0
VERTEX
8
OBJECT__63
10
3.409000
20
74.427002
30
249.742996
70
192
0
VERTEX
8
OBJECT__63
10
-5.829000
20
74.427002
30
251.041000
70
192
0
VERTEX
8
OBJECT__63
10
-10.573000
20
74.417999
30
259.072998
70
192
0
VERTEX
8
OBJECT__63
10
-7.252000
20
74.407997
30
267.790009
70
192
0
VERTEX
8
OBJECT__63
10
0
20
0
30
0
70
128
71
1
72
2
73
3
0
VERTEX
8
OBJECT__63
10
0
20
0
30
0
70
128
71
3
72
4
73
1
0
VERTEX
8
OBJECT__63
10
0
20
0
30
0
70
128
71
1
72
5
73
6
0
VERTEX
8
OBJECT__63
10
0
20
0
30
0
70
128
71
6
72
7
73
1
0
VERTEX
8
OBJECT__63
10
0
20
0
30
0
70
128
71
4
72
5
73
1
0
SEQEND
8
OBJECT__63
0
POLYLINE
8
OBJECT__65
66
1
70
64
71
12
72
12
62
253
0
VERTEX
8
OBJECT__65
10
139.572006
20
-5.900000
30
438.636993
70
192
0
VERTEX
8
OBJECT__65
10
129.462006
20
-11.800000
30
437.144989
70
192
0
VERTEX
8
OBJECT__65
10
130.615005
20
-11.800000
30
429.335999
70
192
0
VERTEX
8
OBJECT__65
10
140.725006
20
5.900000
30
430.828003
70
192
0
VERTEX
8
OBJECT__65
10
139.572006
20
5.900000
30
438.636993
70
192
0
VERTEX
8
OBJECT__65
10
130.615005
20
11.800000
30
429.335999
70
192
0
VERTEX
8
OBJECT__65
10
129.462006
20
11.800000
30
437.144989
70
192
0
VERTEX
8
OBJECT__65
10
120.504997
20
5.900000
30
427.843994
70
192
0
VERTEX
8
OBJECT__65
10
119.352997
20
5.900000
30
435.653015
70
192
0
VERTEX
8
OBJECT__65
10
120.504997
20
-5.900000
30
427.843994
70
192
0
VERTEX
8
OBJECT__65
10
119.352997
20
-5.900000
30
435.653015
70
192
0
VERTEX
8
OBJECT__65
10
140.725006
20
-5.900000
30
430.828003
70
192
0
VERTEX
8
OBJECT__65
10
0
20
0
30
0
70
128
71
1
72
2
73
3
0
VERTEX
8
OBJECT__65
10
0
20
0
30
0
70
128
71
4
72
5
73
1
0
VERTEX
8
OBJECT__65
10
0
20
0
30
0
70
128
71
6
72
7
73
5
0
VERTEX
8
OBJECT__65
10
0
20
0
30
0
70
128
71
8
72
9
73
7
0
VERTEX
8
OBJECT__65
10
0
20
0
30
0
70
128
71
10
72
11
73
9
0
VERTEX
8
OBJECT__65
10
0
20
0
30
0
70
128
71
2
72
11
73
10
0
VERTEX
8
OBJECT__65
10
0
20
0
30
0
70
128
71
10
72
3
73
2
0
VERTEX
8
OBJECT__65
10
0
20
0
30
0
70
128
71
9
72
8
73
10
0
VERTEX
8
OBJECT__65
10
0
20
0
30
0
70
128
71
7
72
6
73
8
0
VERTEX
8
OBJECT__65
10
0
20
0
30
0
70
128
71
5
72
4
73
6
0
VERTEX
8
OBJECT__65
10
0
20
0
30
0
70
128
71
1
72
12
73
4
0
VERTEX
8
OBJECT__65
10
0
20
0
30
0
70
128
71
3
72
12
73
1
0
SEQEND
8
OBJECT__65
0
POLYLINE
8
OBJECT__66
66
1
70
64
71
12
72
12
62
253
0
VERTEX
8
OBJECT__66
10
130.615005
20
-11.800000
30
429.335999
70
192
0
VERTEX
8
OBJECT__66
10
130.703995
20
-10.750000
30
428.735992
70
192
0
VERTEX
8
OBJECT__66
10
139.914001
20
-5.375000
30
430.096008
70
192
0
VERTEX
8
OBJECT__66
10
140.725006
20
5.900000
30
430.828003
70
192
0
VERTEX
8
OBJECT__66
10
140.725006
20
-5.900000
30
430.828003
70
192
0
VERTEX
8
OBJECT__66
10
130.615005
20
11.800000
30
429.335999
70
192
0
VERTEX
8
OBJECT__66
10
139.914001
20
5.375000
30
430.096008
70
192
0
VERTEX
8
OBJECT__66
10
120.504997
20
5.900000
30
427.843994
70
192
0
VERTEX
8
OBJECT__66
10
130.703995
20
10.750000
30
428.735992
70
192
0
VERTEX
8
OBJECT__66
10
121.494003
20
5.375000
30
427.377014
70
192
0
VERTEX
8
OBJECT__66
10
121.494003
20
-5.375000
30
427.377014
70
192
0
VERTEX
8
OBJECT__66
10
120.504997
20
-5.900000
30
427.843994
70
192
0
VERTEX
8
OBJECT__66
10
0
20
0
30
0
70
128
71
1
72
2
73
3
0
VERTEX
8
OBJECT__66
10
0
20
0
30
0
70
128
71
4
72
5
73
3
0
VERTEX
8
OBJECT__66
10
0
20
0
30
0
70
128
71
6
72
4
73
7
0
VERTEX
8
OBJECT__66
10
0
20
0
30
0
70
128
71
8
72
6
73
9
0
VERTEX
8
OBJECT__66
10
0
20
0
30
0
70
128
71
8
72
10
73
11
0
VERTEX
8
OBJECT__66
10
0
20
0
30
0
70
128
71
12
72
11
73
2
0
VERTEX
8
OBJECT__66
10
0
20
0
30
0
70
128
71
2
72
1
73
12
0
VERTEX
8
OBJECT__66
10
0
20
0
30
0
70
128
71
11
72
12
73
8
0
VERTEX
8
OBJECT__66
10
0
20
0
30
0
70
128
71
9
72
10
73
8
0
VERTEX
8
OBJECT__66
10
0
20
0
30
0
70
128
71
7
72
9
73
6
0
VERTEX
8
OBJECT__66
10
0
20
0
30
0
70
128
71
3
72
7
73
4
0
VERTEX
8
OBJECT__66
10
0
20
0
30
0
70
128
71
3
72
5
73
1
0
SEQEND
8
OBJECT__66
0
POLYLINE
8
OBJECT__68
66
1
70
64
71
6
72
4
62
253
0
VERTEX
8
OBJECT__68
10
139.914001
20
5.375000
30
430.096008
70
192
0
VERTEX
8
OBJECT__68
10
121.494003
20
-5.375000
30
427.377014
70
192
0
VERTEX
8
OBJECT__68
10
121.494003
20
5.375000
30
427.377014
70
192
0
VERTEX
8
OBJECT__68
10
139.914001
20
-5.375000
30
430.096008
70
192
0
VERTEX
8
OBJECT__68
10
130.703995
20
-10.750000
30
428.735992
70
192
0
VERTEX
8
OBJECT__68
10
130.703995
20
10.750000
30
428.735992
70
192
0
VERTEX
8
OBJECT__68
10
0
20
0
30
0
70
128
71
1
72
2
73
3
0
VERTEX
8
OBJECT__68
10
0
20
0
30
0
70
128
71
1
72
4
73
5
0
VERTEX
8
OBJECT__68
10
0
20
0
30
0
70
128
71
5
72
2
73
1
0
VERTEX
8
OBJECT__68
10
0
20
0
30
0
70
128
71
3
72
6
73
1
0
SEQEND
8
OBJECT__68
0
POLYLINE
8
OBJECT__69
66
1
70
64
71
29
72
29
62
253
0
VERTEX
8
OBJECT__69
10
0.000000
20
47.500000
30
241.813004
70
192
0
VERTEX
8
OBJECT__69
10
9.832000
20
47.500000
30
244.699997
70
192
0
VERTEX
8
OBJECT__69
10
6.564000
20
53.127998
30
246.526001
70
192
0
VERTEX
8
OBJECT__69
10
8.326000
20
53.127998
30
247.044006
70
192
0
VERTEX
8
OBJECT__69
10
16.542999
20
47.500000
30
252.444000
70
192
0
VERTEX
8
OBJECT__69
10
14.008000
20
53.127998
30
253.602005
70
192
0
VERTEX
8
OBJECT__69
10
18.000999
20
47.500000
30
262.587006
70
192
0
VERTEX
8
OBJECT__69
10
15.243000
20
53.127998
30
262.191010
70
192
0
VERTEX
8
OBJECT__69
10
14.447000
20
53.127998
30
256.653992
70
192
0
VERTEX
8
OBJECT__69
10
13.744000
20
47.500000
30
271.908997
70
192
0
VERTEX
8
OBJECT__69
10
11.890000
20
53.127998
30
269.532990
70
192
0
VERTEX
8
OBJECT__69
10
11.639000
20
53.127998
30
270.084015
70
192
0
VERTEX
8
OBJECT__69
10
5.124000
20
47.500000
30
277.449005
70
192
0
VERTEX
8
OBJECT__69
10
4.339000
20
53.127998
30
274.774994
70
192
0
VERTEX
8
OBJECT__69
10
-5.124000
20
47.500000
30
277.449005
70
192
0
VERTEX
8
OBJECT__69
10
0.000000
20
53.127998
30
274.774994
70
192
0
VERTEX
8
OBJECT__69
10
-4.339000
20
53.127998
30
274.774994
70
192
0
VERTEX
8
OBJECT__69
10
-13.744000
20
47.500000
30
271.908997
70
192
0
VERTEX
8
OBJECT__69
10
-11.639000
20
53.127998
30
270.084015
70
192
0
VERTEX
8
OBJECT__69
10
-18.000999
20
47.500000
30
262.587006
70
192
0
VERTEX
8
OBJECT__69
10
-15.243000
20
53.127998
30
262.191010
70
192
0
VERTEX
8
OBJECT__69
10
-11.890000
20
53.127998
30
269.532990
70
192
0
VERTEX
8
OBJECT__69
10
-16.542999
20
47.500000
30
252.444000
70
192
0
VERTEX
8
OBJECT__69
10
-14.447000
20
53.127998
30
256.653992
70
192
0
VERTEX
8
OBJECT__69
10
-14.008000
20
53.127998
30
253.602005
70
192
0
VERTEX
8
OBJECT__69
10
-9.832000
20
47.500000
30
244.699997
70
192
0
VERTEX
8
OBJECT__69
10
-8.326000
20
53.127998
30
247.044006
70
192
0
VERTEX
8
OBJECT__69
10
0.000000
20
53.127998
30
244.598999
70
192
0
VERTEX
8
OBJECT__69
10
-6.564000
20
53.127998
30
246.526001
70
192
0
VERTEX
8
OBJECT__69
10
0
20
0
30
0
70
128
71
1
72
2
73
3
0
VERTEX
8
OBJECT__69
10
0
20
0
30
0
70
128
71
2
72
4
73
3
0
VERTEX
8
OBJECT__69
10
0
20
0
30
0
70
128
71
2
72
5
73
6
0
VERTEX
8
OBJECT__69
10
0
20
0
30
0
70
128
71
7
72
8
73
9
0
VERTEX
8
OBJECT__69
10
0
20
0
30
0
70
128
71
9
72
5
73
7
0
VERTEX
8
OBJECT__69
10
0
20
0
30
0
70
128
71
7
72
10
73
11
0
VERTEX
8
OBJECT__69
10
0
20
0
30
0
70
128
71
10
72
12
73
11
0
VERTEX
8
OBJECT__69
10
0
20
0
30
0
70
128
71
10
72
13
73
14
0
VERTEX
8
OBJECT__69
10
0
20
0
30
0
70
128
71
13
72
15
73
16
0
VERTEX
8
OBJECT__69
10
0
20
0
30
0
70
128
71
15
72
17
73
16
0
VERTEX
8
OBJECT__69
10
0
20
0
30
0
70
128
71
15
72
18
73
19
0
VERTEX
8
OBJECT__69
10
0
20
0
30
0
70
128
71
20
72
21
73
22
0
VERTEX
8
OBJECT__69
10
0
20
0
30
0
70
128
71
22
72
18
73
20
0
VERTEX
8
OBJECT__69
10
0
20
0
30
0
70
128
71
20
72
23
73
24
0
VERTEX
8
OBJECT__69
10
0
20
0
30
0
70
128
71
23
72
25
73
24
0
VERTEX
8
OBJECT__69
10
0
20
0
30
0
70
128
71
23
72
26
73
27
0
VERTEX
8
OBJECT__69
10
0
20
0
30
0
70
128
71
1
72
28
73
29
0
VERTEX
8
OBJECT__69
10
0
20
0
30
0
70
128
71
29
72
26
73
1
0
VERTEX
8
OBJECT__69
10
0
20
0
30
0
70
128
71
29
72
27
73
26
0
VERTEX
8
OBJECT__69
10
0
20
0
30
0
70
128
71
27
72
25
73
23
0
VERTEX
8
OBJECT__69
10
0
20
0
30
0
70
128
71
24
72
21
73
20
0
VERTEX
8
OBJECT__69
10
0
20
0
30
0
70
128
71
22
72
19
73
18
0
VERTEX
8
OBJECT__69
10
0
20
0
30
0
70
128
71
19
72
17
73
15
0
VERTEX
8
OBJECT__69
10
0
20
0
30
0
70
128
71
16
72
14
73
13
0
VERTEX
8
OBJECT__69
10
0
20
0
30
0
70
128
71
14
72
12
73
10
0
VERTEX
8
OBJECT__69
10
0
20
0
30
0
70
128
71
11
72
8
73
7
0
VERTEX
8
OBJECT__69
10
0
20
0
30
0
70
128
71
9
72
6
73
5
0
VERTEX
8
OBJECT__69
10
0
20
0
30
0
70
128
71
6
72
4
73
2
0
VERTEX
8
OBJECT__69
10
0
20
0
30
0
70
128
71
3
72
28
73
1
0
SEQEND
8
OBJECT__69
0
POLYLINE
8
OBJECT__70
66
1
70
64
71
36
72
36
62
253
0
VERTEX
8
OBJECT__70
10
0.000000
20
54.495998
30
275.252991
70
192
0
VERTEX
8
OBJECT__70
10
4.479000
20
54.495998
30
275.252991
70
192
0
VERTEX
8
OBJECT__70
10
4.339000
20
53.127998
30
274.774994
70
192
0
VERTEX
8
OBJECT__70
10
12.015000
20
54.495998
30
270.410004
70
192
0
VERTEX
8
OBJECT__70
10
11.639000
20
53.127998
30
270.084015
70
192
0
VERTEX
8
OBJECT__70
10
12.275000
20
54.495998
30
269.841003
70
192
0
VERTEX
8
OBJECT__70
10
11.890000
20
53.127998
30
269.532990
70
192
0
VERTEX
8
OBJECT__70
10
15.736000
20
54.495998
30
262.261993
70
192
0
VERTEX
8
OBJECT__70
10
15.243000
20
53.127998
30
262.191010
70
192
0
VERTEX
8
OBJECT__70
10
14.914000
20
54.495998
30
256.545990
70
192
0
VERTEX
8
OBJECT__70
10
14.447000
20
53.127998
30
256.653992
70
192
0
VERTEX
8
OBJECT__70
10
14.461000
20
54.495998
30
253.395004
70
192
0
VERTEX
8
OBJECT__70
10
14.008000
20
53.127998
30
253.602005
70
192
0
VERTEX
8
OBJECT__70
10
8.595000
20
54.495998
30
246.625000
70
192
0
VERTEX
8
OBJECT__70
10
8.326000
20
53.127998
30
247.044006
70
192
0
VERTEX
8
OBJECT__70
10
6.776000
20
54.495998
30
246.091003
70
192
0
VERTEX
8
OBJECT__70
10
6.564000
20
53.127998
30
246.526001
70
192
0
VERTEX
8
OBJECT__70
10
0.000000
20
54.495998
30
244.100998
70
192
0
VERTEX
8
OBJECT__70
10
0.000000
20
53.127998
30
244.598999
70
192
0
VERTEX
8
OBJECT__70
10
-6.776000
20
54.495998
30
246.091003
70
192
0
VERTEX
8
OBJECT__70
10
-6.564000
20
53.127998
30
246.526001
70
192
0
VERTEX
8
OBJECT__70
10
-8.595000
20
54.495998
30
246.625000
70
192
0
VERTEX
8
OBJECT__70
10
-8.326000
20
53.127998
30
247.044006
70
192
0
VERTEX
8
OBJECT__70
10
-14.461000
20
54.495998
30
253.395004
70
192
0
VERTEX
8
OBJECT__70
10
-14.008000
20
53.127998
30
253.602005
70
192
0
VERTEX
8
OBJECT__70
10
-14.914000
20
54.495998
30
256.545990
70
192
0
VERTEX
8
OBJECT__70
10
-14.447000
20
53.127998
30
256.653992
70
192
0
VERTEX
8
OBJECT__70
10
-15.736000
20
54.495998
30
262.261993
70
192
0
VERTEX
8
OBJECT__70
10
-15.243000
20
53.127998
30
262.191010
70
192
0
VERTEX
8
OBJECT__70
10
-12.275000
20
54.495998
30
269.841003
70
192
0
VERTEX
8
OBJECT__70
10
-11.890000
20
53.127998
30
269.532990
70
192
0
VERTEX
8
OBJECT__70
10
-12.015000
20
54.495998
30
270.410004
70
192
0
VERTEX
8
OBJECT__70
10
-11.639000
20
53.127998
30
270.084015
70
192
0
VERTEX
8
OBJECT__70
10
-4.479000
20
54.495998
30
275.252991
70
192
0
VERTEX
8
OBJECT__70
10
-4.339000
20
53.127998
30
274.774994
70
192
0
VERTEX
8
OBJECT__70
10
0.000000
20
53.127998
30
274.774994
70
192
0
VERTEX
8
OBJECT__70
10
0
20
0
30
0
70
128
71
1
72
2
73
3
0
VERTEX
8
OBJECT__70
10
0
20
0
30
0
70
128
71
4
72
5
73
3
0
VERTEX
8
OBJECT__70
10
0
20
0
30
0
70
128
71
3
72
2
73
4
0
VERTEX
8
OBJECT__70
10
0
20
0
30
0
70
128
71
6
72
7
73
5
0
VERTEX
8
OBJECT__70
10
0
20
0
30
0
70
128
71
5
72
4
73
6
0
VERTEX
8
OBJECT__70
10
0
20
0
30
0
70
128
71
6
72
8
73
9
0
VERTEX
8
OBJECT__70
10
0
20
0
30
0
70
128
71
10
72
11
73
9
0
VERTEX
8
OBJECT__70
10
0
20
0
30
0
70
128
71
9
72
8
73
10
0
VERTEX
8
OBJECT__70
10
0
20
0
30
0
70
128
71
10
72
12
73
13
0
VERTEX
8
OBJECT__70
10
0
20
0
30
0
70
128
71
14
72
15
73
13
0
VERTEX
8
OBJECT__70
10
0
20
0
30
0
70
128
71
13
72
12
73
14
0
VERTEX
8
OBJECT__70
10
0
20
0
30
0
70
128
71
16
72
17
73
15
0
VERTEX
8
OBJECT__70
10
0
20
0
30
0
70
128
71
15
72
14
73
16
0
VERTEX
8
OBJECT__70
10
0
20
0
30
0
70
128
71
16
72
18
73
19
0
VERTEX
8
OBJECT__70
10
0
20
0
30
0
70
128
71
20
72
21
73
19
0
VERTEX
8
OBJECT__70
10
0
20
0
30
0
70
128
71
19
72
18
73
20
0
VERTEX
8
OBJECT__70
10
0
20
0
30
0
70
128
71
20
72
22
73
23
0
VERTEX
8
OBJECT__70
10
0
20
0
30
0
70
128
71
22
72
24
73
25
0
VERTEX
8
OBJECT__70
10
0
20
0
30
0
70
128
71
26
72
27
73
25
0
VERTEX
8
OBJECT__70
10
0
20
0
30
0
70
128
71
25
72
24
73
26
0
VERTEX
8
OBJECT__70
10
0
20
0
30
0
70
128
71
25
72
23
73
22
0
VERTEX
8
OBJECT__70
10
0
20
0
30
0
70
128
71
26
72
28
73
29
0
VERTEX
8
OBJECT__70
10
0
20
0
30
0
70
128
71
30
72
31
73
29
0
VERTEX
8
OBJECT__70
10
0
20
0
30
0
70
128
71
29
72
28
73
30
0
VERTEX
8
OBJECT__70
10
0
20
0
30
0
70
128
71
30
72
32
73
33
0
VERTEX
8
OBJECT__70
10
0
20
0
30
0
70
128
71
32
72
34
73
35
0
VERTEX
8
OBJECT__70
10
0
20
0
30
0
70
128
71
1
72
36
73
35
0
VERTEX
8
OBJECT__70
10
0
20
0
30
0
70
128
71
35
72
34
73
1
0
VERTEX
8
OBJECT__70
10
0
20
0
30
0
70
128
71
35
72
33
73
32
0
VERTEX
8
OBJECT__70
10
0
20
0
30
0
70
128
71
33
72
31
73
30
0
VERTEX
8
OBJECT__70
10
0
20
0
30
0
70
128
71
29
72
27
73
26
0
VERTEX
8
OBJECT__70
10
0
20
0
30
0
70
128
71
23
72
21
73
20
0
VERTEX
8
OBJECT__70
10
0
20
0
30
0
70
128
71
19
72
17
73
16
0
VERTEX
8
OBJECT__70
10
0
20
0
30
0
70
128
71
13
72
11
73
10
0
VERTEX
8
OBJECT__70
10
0
20
0
30
0
70
128
71
9
72
7
73
6
0
VERTEX
8
OBJECT__70
10
0
20
0
30
0
70
128
71
3
72
36
73
1
0
SEQEND
8
OBJECT__70
0
POLYLINE
8
OBJECT__72
66
1
70
64
71
36
72
36
62
253
0
VERTEX
8
OBJECT__72
10
0.000000
20
52.950001
30
239.199005
70
192
0
VERTEX
8
OBJECT__72
10
0.000000
20
54.495998
30
244.100998
70
192
0
VERTEX
8
OBJECT__72
10
6.776000
20
54.495998
30
246.091003
70
192
0
VERTEX
8
OBJECT__72
10
11.245000
20
52.950001
30
242.501007
70
192
0
VERTEX
8
OBJECT__72
10
14.461000
20
54.495998
30
253.395004
70
192
0
VERTEX
8
OBJECT__72
10
18.920000
20
52.950001
30
251.358994
70
192
0
VERTEX
8
OBJECT__72
10
14.111000
20
52.950001
30
245.807999
70
192
0
VERTEX
8
OBJECT__72
10
8.595000
20
54.495998
30
246.625000
70
192
0
VERTEX
8
OBJECT__72
10
15.736000
20
54.495998
30
262.261993
70
192
0
VERTEX
8
OBJECT__72
10
20.587999
20
52.950001
30
262.959015
70
192
0
VERTEX
8
OBJECT__72
10
20.176001
20
52.950001
30
260.088989
70
192
0
VERTEX
8
OBJECT__72
10
14.914000
20
54.495998
30
256.545990
70
192
0
VERTEX
8
OBJECT__72
10
12.275000
20
54.495998
30
269.841003
70
192
0
VERTEX
8
OBJECT__72
10
15.720000
20
52.950001
30
273.619995
70
192
0
VERTEX
8
OBJECT__72
10
14.509000
20
52.950001
30
274.398010
70
192
0
VERTEX
8
OBJECT__72
10
12.015000
20
54.495998
30
270.410004
70
192
0
VERTEX
8
OBJECT__72
10
4.479000
20
54.495998
30
275.252991
70
192
0
VERTEX
8
OBJECT__72
10
5.860000
20
52.950001
30
279.957001
70
192
0
VERTEX
8
OBJECT__72
10
0.000000
20
52.950001
30
279.957001
70
192
0
VERTEX
8
OBJECT__72
10
0.000000
20
54.495998
30
275.252991
70
192
0
VERTEX
8
OBJECT__72
10
-4.479000
20
54.495998
30
275.252991
70
192
0
VERTEX
8
OBJECT__72
10
-5.860000
20
52.950001
30
279.957001
70
192
0
VERTEX
8
OBJECT__72
10
-14.509000
20
52.950001
30
274.398010
70
192
0
VERTEX
8
OBJECT__72
10
-12.015000
20
54.495998
30
270.410004
70
192
0
VERTEX
8
OBJECT__72
10
-15.720000
20
52.950001
30
273.619995
70
192
0
VERTEX
8
OBJECT__72
10
-20.587999
20
52.950001
30
262.959015
70
192
0
VERTEX
8
OBJECT__72
10
-12.275000
20
54.495998
30
269.841003
70
192
0
VERTEX
8
OBJECT__72
10
-18.920000
20
52.950001
30
251.358994
70
192
0
VERTEX
8
OBJECT__72
10
-20.176001
20
52.950001
30
260.088989
70
192
0
VERTEX
8
OBJECT__72
10
-14.914000
20
54.495998
30
256.545990
70
192
0
VERTEX
8
OBJECT__72
10
-15.736000
20
54.495998
30
262.261993
70
192
0
VERTEX
8
OBJECT__72
10
-14.461000
20
54.495998
30
253.395004
70
192
0
VERTEX
8
OBJECT__72
10
-8.595000
20
54.495998
30
246.625000
70
192
0
VERTEX
8
OBJECT__72
10
-14.111000
20
52.950001
30
245.807999
70
192
0
VERTEX
8
OBJECT__72
10
-11.245000
20
52.950001
30
242.501007
70
192
0
VERTEX
8
OBJECT__72
10
-6.776000
20
54.495998
30
246.091003
70
192
0
VERTEX
8
OBJECT__72
10
0
20
0
30
0
70
128
71
1
72
2
73
3
0
VERTEX
8
OBJECT__72
10
0
20
0
30
0
70
128
71
3
72
4
73
1
0
VERTEX
8
OBJECT__72
10
0
20
0
30
0
70
128
71
5
72
6
73
7
0
VERTEX
8
OBJECT__72
10
0
20
0
30
0
70
128
71
7
72
8
73
5
0
VERTEX
8
OBJECT__72
10
0
20
0
30
0
70
128
71
9
72
10
73
11
0
VERTEX
8
OBJECT__72
10
0
20
0
30
0
70
128
71
6
72
5
73
12
0
VERTEX
8
OBJECT__72
10
0
20
0
30
0
70
128
71
12
72
11
73
6
0
VERTEX
8
OBJECT__72
10
0
20
0
30
0
70
128
71
10
72
9
73
13
0
VERTEX
8
OBJECT__72
10
0
20
0
30
0
70
128
71
13
72
14
73
10
0
VERTEX
8
OBJECT__72
10
0
20
0
30
0
70
128
71
15
72
16
73
17
0
VERTEX
8
OBJECT__72
10
0
20
0
30
0
70
128
71
17
72
18
73
15
0
VERTEX
8
OBJECT__72
10
0
20
0
30
0
70
128
71
19
72
18
73
17
0
VERTEX
8
OBJECT__72
10
0
20
0
30
0
70
128
71
19
72
20
73
21
0
VERTEX
8
OBJECT__72
10
0
20
0
30
0
70
128
71
21
72
22
73
19
0
VERTEX
8
OBJECT__72
10
0
20
0
30
0
70
128
71
23
72
22
73
21
0
VERTEX
8
OBJECT__72
10
0
20
0
30
0
70
128
71
24
72
25
73
23
0
VERTEX
8
OBJECT__72
10
0
20
0
30
0
70
128
71
26
72
25
73
27
0
VERTEX
8
OBJECT__72
10
0
20
0
30
0
70
128
71
25
72
24
73
27
0
VERTEX
8
OBJECT__72
10
0
20
0
30
0
70
128
71
28
72
29
73
30
0
VERTEX
8
OBJECT__72
10
0
20
0
30
0
70
128
71
31
72
30
73
29
0
VERTEX
8
OBJECT__72
10
0
20
0
30
0
70
128
71
29
72
26
73
31
0
VERTEX
8
OBJECT__72
10
0
20
0
30
0
70
128
71
32
72
33
73
34
0
VERTEX
8
OBJECT__72
10
0
20
0
30
0
70
128
71
33
72
35
73
34
0
VERTEX
8
OBJECT__72
10
0
20
0
30
0
70
128
71
1
72
35
73
36
0
VERTEX
8
OBJECT__72
10
0
20
0
30
0
70
128
71
35
72
33
73
36
0
VERTEX
8
OBJECT__72
10
0
20
0
30
0
70
128
71
36
72
2
73
1
0
VERTEX
8
OBJECT__72
10
0
20
0
30
0
70
128
71
34
72
28
73
32
0
VERTEX
8
OBJECT__72
10
0
20
0
30
0
70
128
71
30
72
32
73
28
0
VERTEX
8
OBJECT__72
10
0
20
0
30
0
70
128
71
27
72
31
73
26
0
VERTEX
8
OBJECT__72
10
0
20
0
30
0
70
128
71
21
72
24
73
23
0
VERTEX
8
OBJECT__72
10
0
20
0
30
0
70
128
71
17
72
20
73
19
0
VERTEX
8
OBJECT__72
10
0
20
0
30
0
70
128
71
15
72
14
73
16
0
VERTEX
8
OBJECT__72
10
0
20
0
30
0
70
128
71
13
72
16
73
14
0
VERTEX
8
OBJECT__72
10
0
20
0
30
0
70
128
71
11
72
12
73
9
0
VERTEX
8
OBJECT__72
10
0
20
0
30
0
70
128
71
7
72
4
73
8
0
VERTEX
8
OBJECT__72
10
0
20
0
30
0
70
128
71
3
72
8
73
4
0
SEQEND
8
OBJECT__72
0
POLYLINE
8
OBJECT__73
66
1
70
64
71
26
72
26
62
253
0
VERTEX
8
OBJECT__73
10
0.000000
20
48.000000
30
239.199005
70
192
0
VERTEX
8
OBJECT__73
10
0.000000
20
52.950001
30
239.199005
70
192
0
VERTEX
8
OBJECT__73
10
11.245000
20
52.950001
30
242.501007
70
192
0
VERTEX
8
OBJECT__73
10
14.708000
20
48.000000
30
245.291000
70
192
0
VERTEX
8
OBJECT__73
10
20.799999
20
48.000000
30
259.998993
70
192
0
VERTEX
8
OBJECT__73
10
18.920000
20
52.950001
30
251.358994
70
192
0
VERTEX
8
OBJECT__73
10
14.111000
20
52.950001
30
245.807999
70
192
0
VERTEX
8
OBJECT__73
10
14.708000
20
48.000000
30
274.707001
70
192
0
VERTEX
8
OBJECT__73
10
20.587999
20
52.950001
30
262.959015
70
192
0
VERTEX
8
OBJECT__73
10
15.720000
20
52.950001
30
273.619995
70
192
0
VERTEX
8
OBJECT__73
10
20.176001
20
52.950001
30
260.088989
70
192
0
VERTEX
8
OBJECT__73
10
14.509000
20
52.950001
30
274.398010
70
192
0
VERTEX
8
OBJECT__73
10
5.860000
20
52.950001
30
279.957001
70
192
0
VERTEX
8
OBJECT__73
10
0.000000
20
48.000000
30
280.799011
70
192
0
VERTEX
8
OBJECT__73
10
-14.708000
20
48.000000
30
274.707001
70
192
0
VERTEX
8
OBJECT__73
10
-5.860000
20
52.950001
30
279.957001
70
192
0
VERTEX
8
OBJECT__73
10
0.000000
20
52.950001
30
279.957001
70
192
0
VERTEX
8
OBJECT__73
10
-15.720000
20
52.950001
30
273.619995
70
192
0
VERTEX
8
OBJECT__73
10
-20.587999
20
52.950001
30
262.959015
70
192
0
VERTEX
8
OBJECT__73
10
-20.799999
20
48.000000
30
259.998993
70
192
0
VERTEX
8
OBJECT__73
10
-14.509000
20
52.950001
30
274.398010
70
192
0
VERTEX
8
OBJECT__73
10
-20.176001
20
52.950001
30
260.088989
70
192
0
VERTEX
8
OBJECT__73
10
-18.920000
20
52.950001
30
251.358994
70
192
0
VERTEX
8
OBJECT__73
10
-14.708000
20
48.000000
30
245.291000
70
192
0
VERTEX
8
OBJECT__73
10
-11.245000
20
52.950001
30
242.501007
70
192
0
VERTEX
8
OBJECT__73
10
-14.111000
20
52.950001
30
245.807999
70
192
0
VERTEX
8
OBJECT__73
10
0
20
0
30
0
70
128
71
1
72
2
73
3
0
VERTEX
8
OBJECT__73
10
0
20
0
30
0
70
128
71
3
72
4
73
1
0
VERTEX
8
OBJECT__73
10
0
20
0
30
0
70
128
71
5
72
4
73
6
0
VERTEX
8
OBJECT__73
10
0
20
0
30
0
70
128
71
4
72
7
73
6
0
VERTEX
8
OBJECT__73
10
0
20
0
30
0
70
128
71
8
72
5
73
9
0
VERTEX
8
OBJECT__73
10
0
20
0
30
0
70
128
71
9
72
10
73
8
0
VERTEX
8
OBJECT__73
10
0
20
0
30
0
70
128
71
5
72
11
73
9
0
VERTEX
8
OBJECT__73
10
0
20
0
30
0
70
128
71
8
72
12
73
13
0
VERTEX
8
OBJECT__73
10
0
20
0
30
0
70
128
71
13
72
14
73
8
0
VERTEX
8
OBJECT__73
10
0
20
0
30
0
70
128
71
15
72
14
73
16
0
VERTEX
8
OBJECT__73
10
0
20
0
30
0
70
128
71
14
72
17
73
16
0
VERTEX
8
OBJECT__73
10
0
20
0
30
0
70
128
71
15
72
18
73
19
0
VERTEX
8
OBJECT__73
10
0
20
0
30
0
70
128
71
19
72
20
73
15
0
VERTEX
8
OBJECT__73
10
0
20
0
30
0
70
128
71
15
72
21
73
18
0
VERTEX
8
OBJECT__73
10
0
20
0
30
0
70
128
71
20
72
22
73
23
0
VERTEX
8
OBJECT__73
10
0
20
0
30
0
70
128
71
23
72
24
73
20
0
VERTEX
8
OBJECT__73
10
0
20
0
30
0
70
128
71
1
72
24
73
25
0
VERTEX
8
OBJECT__73
10
0
20
0
30
0
70
128
71
24
72
26
73
25
0
VERTEX
8
OBJECT__73
10
0
20
0
30
0
70
128
71
25
72
2
73
1
0
VERTEX
8
OBJECT__73
10
0
20
0
30
0
70
128
71
23
72
26
73
24
0
VERTEX
8
OBJECT__73
10
0
20
0
30
0
70
128
71
19
72
22
73
20
0
VERTEX
8
OBJECT__73
10
0
20
0
30
0
70
128
71
16
72
21
73
15
0
VERTEX
8
OBJECT__73
10
0
20
0
30
0
70
128
71
13
72
17
73
14
0
VERTEX
8
OBJECT__73
10
0
20
0
30
0
70
128
71
10
72
12
73
8
0
VERTEX
8
OBJECT__73
10
0
20
0
30
0
70
128
71
6
72
11
73
5
0
VERTEX
8
OBJECT__73
10
0
20
0
30
0
70
128
71
3
72
7
73
4
0
SEQEND
8
OBJECT__73
0
POLYLINE
8
OBJECT__74
66
1
70
64
71
19
72
17
62
253
0
VERTEX
8
OBJECT__74
10
8.977000
20
56.058998
30
261.523010
70
192
0
VERTEX
8
OBJECT__74
10
8.900000
20
56.155998
30
260.670013
70
192
0
VERTEX
8
OBJECT__74
10
9.186000
20
56.165001
30
260.631012
70
192
0
VERTEX
8
OBJECT__74
10
9.408000
20
56.331001
30
261.367004
70
192
0
VERTEX
8
OBJECT__74
10
8.119000
20
55.604000
30
265.619995
70
192
0
VERTEX
8
OBJECT__74
10
8.703000
20
55.894001
30
265.427002
70
192
0
VERTEX
8
OBJECT__74
10
8.693000
20
55.891998
30
265.449005
70
192
0
VERTEX
8
OBJECT__74
10
8.704000
20
55.894001
30
265.424011
70
192
0
VERTEX
8
OBJECT__74
10
8.617000
20
55.874001
30
265.621002
70
192
0
VERTEX
8
OBJECT__74
10
7.923000
20
55.743999
30
266.876007
70
192
0
VERTEX
8
OBJECT__74
10
7.102000
20
55.479000
30
266.830994
70
192
0
VERTEX
8
OBJECT__74
10
7.578000
20
55.710999
30
267.209015
70
192
0
VERTEX
8
OBJECT__74
10
7.530000
20
55.707001
30
267.255005
70
192
0
VERTEX
8
OBJECT__74
10
5.133000
20
55.481998
30
269.572998
70
192
0
VERTEX
8
OBJECT__74
10
5.444000
20
55.275002
30
268.808990
70
192
0
VERTEX
8
OBJECT__74
10
1.597000
20
55.154999
30
270.362000
70
192
0
VERTEX
8
OBJECT__74
10
1.662000
20
55.394001
30
270.822998
70
192
0
VERTEX
8
OBJECT__74
10
1.639000
20
55.138000
30
270.661987
70
192
0
VERTEX
8
OBJECT__74
10
9.336000
20
56.410999
30
260.638000
70
192
0
VERTEX
8
OBJECT__74
10
0
20
0
30
0
70
128
71
1
72
2
73
3
0
VERTEX
8
OBJECT__74
10
0
20
0
30
0
70
128
71
3
72
4
73
1
0
VERTEX
8
OBJECT__74
10
0
20
0
30
0
70
128
71
5
72
6
73
7
0
VERTEX
8
OBJECT__74
10
0
20
0
30
0
70
128
71
8
72
5
73
1
0
VERTEX
8
OBJECT__74
10
0
20
0
30
0
70
128
71
1
72
4
73
8
0
VERTEX
8
OBJECT__74
10
0
20
0
30
0
70
128
71
8
72
6
73
5
0
VERTEX
8
OBJECT__74
10
0
20
0
30
0
70
128
71
7
72
9
73
5
0
VERTEX
8
OBJECT__74
10
0
20
0
30
0
70
128
71
10
72
11
73
5
0
VERTEX
8
OBJECT__74
10
0
20
0
30
0
70
128
71
5
72
9
73
10
0
VERTEX
8
OBJECT__74
10
0
20
0
30
0
70
128
71
10
72
12
73
11
0
VERTEX
8
OBJECT__74
10
0
20
0
30
0
70
128
71
13
72
14
73
15
0
VERTEX
8
OBJECT__74
10
0
20
0
30
0
70
128
71
11
72
12
73
13
0
VERTEX
8
OBJECT__74
10
0
20
0
30
0
70
128
71
16
72
15
73
14
0
VERTEX
8
OBJECT__74
10
0
20
0
30
0
70
128
71
14
72
17
73
18
0
VERTEX
8
OBJECT__74
10
0
20
0
30
0
70
128
71
14
72
18
73
16
0
VERTEX
8
OBJECT__74
10
0
20
0
30
0
70
128
71
15
72
11
73
13
0
VERTEX
8
OBJECT__74
10
0
20
0
30
0
70
128
71
3
72
19
73
4
0
SEQEND
8
OBJECT__74
0
POLYLINE
8
OBJECT__75
66
1
70
64
71
15
72
13
62
253
0
VERTEX
8
OBJECT__75
10
0.756000
20
55.160000
30
270.437988
70
192
0
VERTEX
8
OBJECT__75
10
1.597000
20
55.154999
30
270.362000
70
192
0
VERTEX
8
OBJECT__75
10
1.639000
20
55.138000
30
270.661987
70
192
0
VERTEX
8
OBJECT__75
10
-0.926000
20
55.437000
30
270.811005
70
192
0
VERTEX
8
OBJECT__75
10
-4.392000
20
55.639999
30
269.528015
70
192
0
VERTEX
8
OBJECT__75
10
-3.332000
20
55.327999
30
269.591003
70
192
0
VERTEX
8
OBJECT__75
10
1.662000
20
55.394001
30
270.822998
70
192
0
VERTEX
8
OBJECT__75
10
-4.613000
20
55.473999
30
268.520996
70
192
0
VERTEX
8
OBJECT__75
10
-4.915000
20
55.707001
30
269.003998
70
192
0
VERTEX
8
OBJECT__75
10
-4.932000
20
55.709000
30
268.987000
70
192
0
VERTEX
8
OBJECT__75
10
-7.236000
20
56.004002
30
266.678986
70
192
0
VERTEX
8
OBJECT__75
10
-6.532000
20
55.692001
30
266.919006
70
192
0
VERTEX
8
OBJECT__75
10
-8.095000
20
56.155998
30
263.058990
70
192
0
VERTEX
8
OBJECT__75
10
-8.522000
20
56.410999
30
263.148010
70
192
0
VERTEX
8
OBJECT__75
10
-8.380000
20
56.165001
30
263.100006
70
192
0
VERTEX
8
OBJECT__75
10
0
20
0
30
0
70
128
71
1
72
2
73
3
0
VERTEX
8
OBJECT__75
10
0
20
0
30
0
70
128
71
4
72
5
73
6
0
VERTEX
8
OBJECT__75
10
0
20
0
30
0
70
128
71
1
72
7
73
4
0
VERTEX
8
OBJECT__75
10
0
20
0
30
0
70
128
71
6
72
1
73
4
0
VERTEX
8
OBJECT__75
10
0
20
0
30
0
70
128
71
8
72
6
73
5
0
VERTEX
8
OBJECT__75
10
0
20
0
30
0
70
128
71
5
72
9
73
8
0
VERTEX
8
OBJECT__75
10
0
20
0
30
0
70
128
71
9
72
10
73
8
0
VERTEX
8
OBJECT__75
10
0
20
0
30
0
70
128
71
10
72
11
73
12
0
VERTEX
8
OBJECT__75
10
0
20
0
30
0
70
128
71
13
72
12
73
11
0
VERTEX
8
OBJECT__75
10
0
20
0
30
0
70
128
71
11
72
14
73
15
0
VERTEX
8
OBJECT__75
10
0
20
0
30
0
70
128
71
11
72
15
73
13
0
VERTEX
8
OBJECT__75
10
0
20
0
30
0
70
128
71
12
72
8
73
10
0
VERTEX
8
OBJECT__75
10
0
20
0
30
0
70
128
71
3
72
7
73
1
0
SEQEND
8
OBJECT__75
0
POLYLINE
8
OBJECT__77
66
1
70
64
71
15
72
13
62
253
0
VERTEX
8
OBJECT__77
10
-8.380000
20
56.165001
30
263.100006
70
192
0
VERTEX
8
OBJECT__77
10
-8.610000
20
56.556999
30
261.812988
70
192
0
VERTEX
8
OBJECT__77
10
-8.172000
20
56.251999
30
262.207001
70
192
0
VERTEX
8
OBJECT__77
10
-8.095000
20
56.155998
30
263.058990
70
192
0
VERTEX
8
OBJECT__77
10
-7.570000
20
56.979000
30
257.691986
70
192
0
VERTEX
8
OBJECT__77
10
-7.315000
20
56.689999
30
258.113007
70
192
0
VERTEX
8
OBJECT__77
10
-6.270000
20
56.807999
30
256.867004
70
192
0
VERTEX
8
OBJECT__77
10
-6.639000
20
57.077000
30
256.618011
70
192
0
VERTEX
8
OBJECT__77
10
-6.625000
20
57.078999
30
256.601013
70
192
0
VERTEX
8
OBJECT__77
10
-4.889000
20
57.262001
30
254.598999
70
192
0
VERTEX
8
OBJECT__77
10
-4.641000
20
56.993000
30
254.923996
70
192
0
VERTEX
8
OBJECT__77
10
-0.829000
20
57.132999
30
253.098999
70
192
0
VERTEX
8
OBJECT__77
10
-0.791000
20
57.101002
30
253.367996
70
192
0
VERTEX
8
OBJECT__77
10
-0.848000
20
57.372002
30
252.966995
70
192
0
VERTEX
8
OBJECT__77
10
-8.522000
20
56.410999
30
263.148010
70
192
0
VERTEX
8
OBJECT__77
10
0
20
0
30
0
70
128
71
1
72
2
73
3
0
VERTEX
8
OBJECT__77
10
0
20
0
30
0
70
128
71
3
72
4
73
1
0
VERTEX
8
OBJECT__77
10
0
20
0
30
0
70
128
71
2
72
5
73
6
0
VERTEX
8
OBJECT__77
10
0
20
0
30
0
70
128
71
6
72
3
73
2
0
VERTEX
8
OBJECT__77
10
0
20
0
30
0
70
128
71
7
72
6
73
5
0
VERTEX
8
OBJECT__77
10
0
20
0
30
0
70
128
71
5
72
8
73
7
0
VERTEX
8
OBJECT__77
10
0
20
0
30
0
70
128
71
9
72
10
73
11
0
VERTEX
8
OBJECT__77
10
0
20
0
30
0
70
128
71
7
72
8
73
9
0
VERTEX
8
OBJECT__77
10
0
20
0
30
0
70
128
71
10
72
12
73
13
0
VERTEX
8
OBJECT__77
10
0
20
0
30
0
70
128
71
10
72
14
73
12
0
VERTEX
8
OBJECT__77
10
0
20
0
30
0
70
128
71
13
72
11
73
10
0
VERTEX
8
OBJECT__77
10
0
20
0
30
0
70
128
71
11
72
7
73
9
0
VERTEX
8
OBJECT__77
10
0
20
0
30
0
70
128
71
1
72
15
73
2
0
SEQEND
8
OBJECT__77
0
POLYLINE
8
OBJECT__78
66
1
70
64
71
15
72
13
62
253
0
VERTEX
8
OBJECT__78
10
-8.522000
20
56.410999
30
263.148010
70
192
0
VERTEX
8
OBJECT__78
10
-7.467000
20
64.774002
30
266.462006
70
192
0
VERTEX
8
OBJECT__78
10
-8.292000
20
65.121002
30
265.272003
70
192
0
VERTEX
8
OBJECT__78
10
-7.236000
20
56.004002
30
266.678986
70
192
0
VERTEX
8
OBJECT__78
10
-5.850000
20
64.093002
30
268.794006
70
192
0
VERTEX
8
OBJECT__78
10
-4.932000
20
55.709000
30
268.987000
70
192
0
VERTEX
8
OBJECT__78
10
-5.108000
20
63.949001
30
269.209015
70
192
0
VERTEX
8
OBJECT__78
10
-5.128000
20
63.952000
30
269.196991
70
192
0
VERTEX
8
OBJECT__78
10
-4.915000
20
55.707001
30
269.003998
70
192
0
VERTEX
8
OBJECT__78
10
-4.392000
20
55.639999
30
269.528015
70
192
0
VERTEX
8
OBJECT__78
10
1.701000
20
63.221001
30
271.102997
70
192
0
VERTEX
8
OBJECT__78
10
-2.241000
20
63.389000
30
270.809998
70
192
0
VERTEX
8
OBJECT__78
10
-0.926000
20
55.437000
30
270.811005
70
192
0
VERTEX
8
OBJECT__78
10
1.662000
20
55.394001
30
270.822998
70
192
0
VERTEX
8
OBJECT__78
10
-8.829000
20
65.309998
30
263.201996
70
192
0
VERTEX
8
OBJECT__78
10
0
20
0
30
0
70
128
71
1
72
2
73
3
0
VERTEX
8
OBJECT__78
10
0
20
0
30
0
70
128
71
2
72
1
73
4
0
VERTEX
8
OBJECT__78
10
0
20
0
30
0
70
128
71
4
72
5
73
2
0
VERTEX
8
OBJECT__78
10
0
20
0
30
0
70
128
71
6
72
7
73
8
0
VERTEX
8
OBJECT__78
10
0
20
0
30
0
70
128
71
8
72
4
73
6
0
VERTEX
8
OBJECT__78
10
0
20
0
30
0
70
128
71
8
72
5
73
4
0
VERTEX
8
OBJECT__78
10
0
20
0
30
0
70
128
71
6
72
9
73
7
0
VERTEX
8
OBJECT__78
10
0
20
0
30
0
70
128
71
7
72
9
73
10
0
VERTEX
8
OBJECT__78
10
0
20
0
30
0
70
128
71
11
72
12
73
13
0
VERTEX
8
OBJECT__78
10
0
20
0
30
0
70
128
71
12
72
10
73
13
0
VERTEX
8
OBJECT__78
10
0
20
0
30
0
70
128
71
13
72
14
73
11
0
VERTEX
8
OBJECT__78
10
0
20
0
30
0
70
128
71
10
72
12
73
7
0
VERTEX
8
OBJECT__78
10
0
20
0
30
0
70
128
71
3
72
15
73
1
0
SEQEND
8
OBJECT__78
0
POLYLINE
8
OBJECT__79
66
1
70
64
71
15
72
13
62
253
0
VERTEX
8
OBJECT__79
10
-0.829000
20
57.132999
30
253.098999
70
192
0
VERTEX
8
OBJECT__79
10
0.978000
20
57.353001
30
252.897003
70
192
0
VERTEX
8
OBJECT__79
10
0.045000
20
57.097000
30
253.292007
70
192
0
VERTEX
8
OBJECT__79
10
-0.791000
20
57.101002
30
253.367996
70
192
0
VERTEX
8
OBJECT__79
10
5.043000
20
57.162998
30
254.162003
70
192
0
VERTEX
8
OBJECT__79
10
4.135000
20
56.945000
30
254.139008
70
192
0
VERTEX
8
OBJECT__79
10
5.417000
20
56.810001
30
255.209000
70
192
0
VERTEX
8
OBJECT__79
10
5.714000
20
57.084999
30
254.804001
70
192
0
VERTEX
8
OBJECT__79
10
5.729000
20
57.084000
30
254.819000
70
192
0
VERTEX
8
OBJECT__79
10
7.932000
20
56.830002
30
256.928986
70
192
0
VERTEX
8
OBJECT__79
10
7.336000
20
56.606998
30
256.809998
70
192
0
VERTEX
8
OBJECT__79
10
8.900000
20
56.155998
30
260.670013
70
192
0
VERTEX
8
OBJECT__79
10
9.336000
20
56.410999
30
260.638000
70
192
0
VERTEX
8
OBJECT__79
10
9.186000
20
56.165001
30
260.631012
70
192
0
VERTEX
8
OBJECT__79
10
-0.848000
20
57.372002
30
252.966995
70
192
0
VERTEX
8
OBJECT__79
10
0
20
0
30
0
70
128
71
1
72
2
73
3
0
VERTEX
8
OBJECT__79
10
0
20
0
30
0
70
128
71
3
72
4
73
1
0
VERTEX
8
OBJECT__79
10
0
20
0
30
0
70
128
71
2
72
5
73
6
0
VERTEX
8
OBJECT__79
10
0
20
0
30
0
70
128
71
6
72
3
73
2
0
VERTEX
8
OBJECT__79
10
0
20
0
30
0
70
128
71
7
72
6
73
5
0
VERTEX
8
OBJECT__79
10
0
20
0
30
0
70
128
71
5
72
8
73
7
0
VERTEX
8
OBJECT__79
10
0
20
0
30
0
70
128
71
8
72
9
73
7
0
VERTEX
8
OBJECT__79
10
0
20
0
30
0
70
128
71
9
72
10
73
11
0
VERTEX
8
OBJECT__79
10
0
20
0
30
0
70
128
71
12
72
11
73
10
0
VERTEX
8
OBJECT__79
10
0
20
0
30
0
70
128
71
10
72
13
73
14
0
VERTEX
8
OBJECT__79
10
0
20
0
30
0
70
128
71
10
72
14
73
12
0
VERTEX
8
OBJECT__79
10
0
20
0
30
0
70
128
71
11
72
7
73
9
0
VERTEX
8
OBJECT__79
10
0
20
0
30
0
70
128
71
1
72
15
73
2
0
SEQEND
8
OBJECT__79
0
POLYLINE
8
OBJECT__80
66
1
70
64
71
19
72
17
62
253
0
VERTEX
8
OBJECT__80
10
1.662000
20
55.394001
30
270.822998
70
192
0
VERTEX
8
OBJECT__80
10
5.133000
20
55.481998
30
269.572998
70
192
0
VERTEX
8
OBJECT__80
10
4.496000
20
63.304001
30
270.247009
70
192
0
VERTEX
8
OBJECT__80
10
7.579000
20
63.816002
30
267.828003
70
192
0
VERTEX
8
OBJECT__80
10
7.530000
20
55.707001
30
267.255005
70
192
0
VERTEX
8
OBJECT__80
10
7.761000
20
63.912998
30
267.476013
70
192
0
VERTEX
8
OBJECT__80
10
8.617000
20
55.874001
30
265.621002
70
192
0
VERTEX
8
OBJECT__80
10
7.774000
20
63.918999
30
267.450989
70
192
0
VERTEX
8
OBJECT__80
10
7.578000
20
55.710999
30
267.209015
70
192
0
VERTEX
8
OBJECT__80
10
7.923000
20
55.743999
30
266.876007
70
192
0
VERTEX
8
OBJECT__80
10
9.433000
20
64.800003
30
264.244995
70
192
0
VERTEX
8
OBJECT__80
10
8.704000
20
55.894001
30
265.424011
70
192
0
VERTEX
8
OBJECT__80
10
9.408000
20
56.331001
30
261.367004
70
192
0
VERTEX
8
OBJECT__80
10
9.436000
20
64.806999
30
264.194000
70
192
0
VERTEX
8
OBJECT__80
10
8.703000
20
55.894001
30
265.427002
70
192
0
VERTEX
8
OBJECT__80
10
8.693000
20
55.891998
30
265.449005
70
192
0
VERTEX
8
OBJECT__80
10
9.645000
20
65.309998
30
260.605011
70
192
0
VERTEX
8
OBJECT__80
10
9.336000
20
56.410999
30
260.638000
70
192
0
VERTEX
8
OBJECT__80
10
1.701000
20
63.221001
30
271.102997
70
192
0
VERTEX
8
OBJECT__80
10
0
20
0
30
0
70
128
71
1
72
2
73
3
0
VERTEX
8
OBJECT__80
10
0
20
0
30
0
70
128
71
4
72
3
73
2
0
VERTEX
8
OBJECT__80
10
0
20
0
30
0
70
128
71
2
72
5
73
4
0
VERTEX
8
OBJECT__80
10
0
20
0
30
0
70
128
71
5
72
6
73
4
0
VERTEX
8
OBJECT__80
10
0
20
0
30
0
70
128
71
7
72
8
73
6
0
VERTEX
8
OBJECT__80
10
0
20
0
30
0
70
128
71
6
72
9
73
10
0
VERTEX
8
OBJECT__80
10
0
20
0
30
0
70
128
71
11
72
8
73
12
0
VERTEX
8
OBJECT__80
10
0
20
0
30
0
70
128
71
13
72
14
73
11
0
VERTEX
8
OBJECT__80
10
0
20
0
30
0
70
128
71
8
72
15
73
12
0
VERTEX
8
OBJECT__80
10
0
20
0
30
0
70
128
71
8
72
7
73
16
0
VERTEX
8
OBJECT__80
10
0
20
0
30
0
70
128
71
16
72
15
73
8
0
VERTEX
8
OBJECT__80
10
0
20
0
30
0
70
128
71
12
72
13
73
11
0
VERTEX
8
OBJECT__80
10
0
20
0
30
0
70
128
71
6
72
5
73
9
0
VERTEX
8
OBJECT__80
10
0
20
0
30
0
70
128
71
17
72
14
73
13
0
VERTEX
8
OBJECT__80
10
0
20
0
30
0
70
128
71
13
72
18
73
17
0
VERTEX
8
OBJECT__80
10
0
20
0
30
0
70
128
71
6
72
10
73
7
0
VERTEX
8
OBJECT__80
10
0
20
0
30
0
70
128
71
3
72
19
73
1
0
SEQEND
8
OBJECT__80
0
POLYLINE
8
OBJECT__81
66
1
70
64
71
16
72
14
62
253
0
VERTEX
8
OBJECT__81
10
-6.625000
20
57.078999
30
256.601013
70
192
0
VERTEX
8
OBJECT__81
10
-6.415000
20
64.691002
30
255.957993
70
192
0
VERTEX
8
OBJECT__81
10
-5.512000
20
64.595001
30
254.766006
70
192
0
VERTEX
8
OBJECT__81
10
-6.798000
20
64.731003
30
256.463989
70
192
0
VERTEX
8
OBJECT__81
10
-4.889000
20
57.262001
30
254.598999
70
192
0
VERTEX
8
OBJECT__81
10
-1.575000
20
64.483002
30
252.854004
70
192
0
VERTEX
8
OBJECT__81
10
-0.848000
20
57.372002
30
252.966995
70
192
0
VERTEX
8
OBJECT__81
10
-0.881000
20
64.481003
30
252.729996
70
192
0
VERTEX
8
OBJECT__81
10
-8.522000
20
56.410999
30
263.148010
70
192
0
VERTEX
8
OBJECT__81
10
-8.829000
20
65.309998
30
263.201996
70
192
0
VERTEX
8
OBJECT__81
10
-8.892000
20
65.292000
30
262.572998
70
192
0
VERTEX
8
OBJECT__81
10
-8.610000
20
56.556999
30
261.812988
70
192
0
VERTEX
8
OBJECT__81
10
-8.912000
20
65.238998
30
261.942993
70
192
0
VERTEX
8
OBJECT__81
10
-8.119000
20
64.871002
30
258.209015
70
192
0
VERTEX
8
OBJECT__81
10
-7.570000
20
56.979000
30
257.691986
70
192
0
VERTEX
8
OBJECT__81
10
-6.639000
20
57.077000
30
256.618011
70
192
0
VERTEX
8
OBJECT__81
10
0
20
0
30
0
70
128
71
1
72
2
73
3
0
VERTEX
8
OBJECT__81
10
0
20
0
30
0
70
128
71
1
72
4
73
2
0
VERTEX
8
OBJECT__81
10
0
20
0
30
0
70
128
71
5
72
3
73
6
0
VERTEX
8
OBJECT__81
10
0
20
0
30
0
70
128
71
6
72
7
73
5
0
VERTEX
8
OBJECT__81
10
0
20
0
30
0
70
128
71
6
72
8
73
7
0
VERTEX
8
OBJECT__81
10
0
20
0
30
0
70
128
71
9
72
10
73
11
0
VERTEX
8
OBJECT__81
10
0
20
0
30
0
70
128
71
12
72
13
73
14
0
VERTEX
8
OBJECT__81
10
0
20
0
30
0
70
128
71
12
72
11
73
13
0
VERTEX
8
OBJECT__81
10
0
20
0
30
0
70
128
71
14
72
15
73
12
0
VERTEX
8
OBJECT__81
10
0
20
0
30
0
70
128
71
4
72
1
73
16
0
VERTEX
8
OBJECT__81
10
0
20
0
30
0
70
128
71
16
72
14
73
4
0
VERTEX
8
OBJECT__81
10
0
20
0
30
0
70
128
71
16
72
15
73
14
0
VERTEX
8
OBJECT__81
10
0
20
0
30
0
70
128
71
11
72
12
73
9
0
VERTEX
8
OBJECT__81
10
0
20
0
30
0
70
128
71
3
72
5
73
1
0
SEQEND
8
OBJECT__81
0
POLYLINE
8
OBJECT__82
66
1
70
64
71
23
72
24
62
253
0
VERTEX
8
OBJECT__82
10
-10.783000
20
68.450996
30
263.466003
70
192
0
VERTEX
8
OBJECT__82
10
-8.829000
20
65.309998
30
263.201996
70
192
0
VERTEX
8
OBJECT__82
10
-8.292000
20
65.121002
30
265.272003
70
192
0
VERTEX
8
OBJECT__82
10
-8.698000
20
68.192001
30
267.826996
70
192
0
VERTEX
8
OBJECT__82
10
-7.467000
20
64.774002
30
266.462006
70
192
0
VERTEX
8
OBJECT__82
10
-5.850000
20
64.093002
30
268.794006
70
192
0
VERTEX
8
OBJECT__82
10
-5.751000
20
67.292999
30
270.825012
70
192
0
VERTEX
8
OBJECT__82
10
-2.056000
20
66.768997
30
272.440002
70
192
0
VERTEX
8
OBJECT__82
10
-2.241000
20
63.389000
30
270.809998
70
192
0
VERTEX
8
OBJECT__82
10
1.701000
20
63.221001
30
271.102997
70
192
0
VERTEX
8
OBJECT__82
10
-5.108000
20
63.949001
30
269.209015
70
192
0
VERTEX
8
OBJECT__82
10
-5.128000
20
63.952000
30
269.196991
70
192
0
VERTEX
8
OBJECT__82
10
-2.421000
20
68.143997
30
275.821991
70
192
0
VERTEX
8
OBJECT__82
10
1.914000
20
66.640999
30
272.615997
70
192
0
VERTEX
8
OBJECT__82
10
2.397000
20
68.040001
30
276.057007
70
192
0
VERTEX
8
OBJECT__82
10
-6.287000
20
68.487000
30
274.006989
70
192
0
VERTEX
8
OBJECT__82
10
-6.335000
20
68.490997
30
273.984009
70
192
0
VERTEX
8
OBJECT__82
10
-2.775000
20
68.175003
30
275.656006
70
192
0
VERTEX
8
OBJECT__82
10
-9.344000
20
69.065002
30
270.427002
70
192
0
VERTEX
8
OBJECT__82
10
-7.137000
20
68.643997
30
273.035004
70
192
0
VERTEX
8
OBJECT__82
10
-9.928000
20
69.213997
30
268.791992
70
192
0
VERTEX
8
OBJECT__82
10
-11.157000
20
69.526001
30
265.358002
70
192
0
VERTEX
8
OBJECT__82
10
-11.474000
20
69.560997
30
263.558990
70
192
0
VERTEX
8
OBJECT__82
10
0
20
0
30
0
70
128
71
1
72
2
73
3
0
VERTEX
8
OBJECT__82
10
0
20
0
30
0
70
128
71
3
72
4
73
1
0
VERTEX
8
OBJECT__82
10
0
20
0
30
0
70
128
71
4
72
5
73
6
0
VERTEX
8
OBJECT__82
10
0
20
0
30
0
70
128
71
6
72
7
73
4
0
VERTEX
8
OBJECT__82
10
0
20
0
30
0
70
128
71
8
72
9
73
10
0
VERTEX
8
OBJECT__82
10
0
20
0
30
0
70
128
71
7
72
11
73
9
0
VERTEX
8
OBJECT__82
10
0
20
0
30
0
70
128
71
7
72
12
73
11
0
VERTEX
8
OBJECT__82
10
0
20
0
30
0
70
128
71
9
72
8
73
7
0
VERTEX
8
OBJECT__82
10
0
20
0
30
0
70
128
71
13
72
8
73
14
0
VERTEX
8
OBJECT__82
10
0
20
0
30
0
70
128
71
14
72
15
73
13
0
VERTEX
8
OBJECT__82
10
0
20
0
30
0
70
128
71
7
72
16
73
17
0
VERTEX
8
OBJECT__82
10
0
20
0
30
0
70
128
71
8
72
18
73
16
0
VERTEX
8
OBJECT__82
10
0
20
0
30
0
70
128
71
16
72
7
73
8
0
VERTEX
8
OBJECT__82
10
0
20
0
30
0
70
128
71
4
72
7
73
19
0
VERTEX
8
OBJECT__82
10
0
20
0
30
0
70
128
71
7
72
20
73
19
0
VERTEX
8
OBJECT__82
10
0
20
0
30
0
70
128
71
4
72
21
73
22
0
VERTEX
8
OBJECT__82
10
0
20
0
30
0
70
128
71
22
72
1
73
4
0
VERTEX
8
OBJECT__82
10
0
20
0
30
0
70
128
71
22
72
23
73
1
0
VERTEX
8
OBJECT__82
10
0
20
0
30
0
70
128
71
19
72
21
73
4
0
VERTEX
8
OBJECT__82
10
0
20
0
30
0
70
128
71
17
72
20
73
7
0
VERTEX
8
OBJECT__82
10
0
20
0
30
0
70
128
71
13
72
18
73
8
0
VERTEX
8
OBJECT__82
10
0
20
0
30
0
70
128
71
10
72
14
73
8
0
VERTEX
8
OBJECT__82
10
0
20
0
30
0
70
128
71
6
72
12
73
7
0
VERTEX
8
OBJECT__82
10
0
20
0
30
0
70
128
71
3
72
5
73
4
0
SEQEND
8
OBJECT__82
0
POLYLINE
8
OBJECT__83
66
1
70
64
71
7
72
5
62
253
0
VERTEX
8
OBJECT__83
10
-8.892000
20
65.292000
30
262.572998
70
192
0
VERTEX
8
OBJECT__83
10
-8.829000
20
65.309998
30
263.201996
70
192
0
VERTEX
8
OBJECT__83
10
-10.783000
20
68.450996
30
263.466003
70
192
0
VERTEX
8
OBJECT__83
10
-11.588000
20
69.551003
30
262.596985
70
192
0
VERTEX
8
OBJECT__83
10
-11.663000
20
69.522003
30
261.635986
70
192
0
VERTEX
8
OBJECT__83
10
-8.912000
20
65.238998
30
261.942993
70
192
0
VERTEX
8
OBJECT__83
10
-11.474000
20
69.560997
30
263.558990
70
192
0
VERTEX
8
OBJECT__83
10
0
20
0
30
0
70
128
71
1
72
2
73
3
0
VERTEX
8
OBJECT__83
10
0
20
0
30
0
70
128
71
3
72
4
73
1
0
VERTEX
8
OBJECT__83
10
0
20
0
30
0
70
128
71
5
72
6
73
1
0
VERTEX
8
OBJECT__83
10
0
20
0
30
0
70
128
71
1
72
4
73
5
0
VERTEX
8
OBJECT__83
10
0
20
0
30
0
70
128
71
3
72
7
73
4
0
SEQEND
8
OBJECT__83
0
POLYLINE
8
OBJECT__84
66
1
70
64
71
14
72
12
62
253
0
VERTEX
8
OBJECT__84
10
5.802000
20
64.726997
30
254.626999
70
192
0
VERTEX
8
OBJECT__84
10
9.378000
20
65.238998
30
259.372986
70
192
0
VERTEX
8
OBJECT__84
10
7.932000
20
56.830002
30
256.928986
70
192
0
VERTEX
8
OBJECT__84
10
5.729000
20
57.084000
30
254.819000
70
192
0
VERTEX
8
OBJECT__84
10
9.336000
20
56.410999
30
260.638000
70
192
0
VERTEX
8
OBJECT__84
10
9.533000
20
65.292000
30
259.984009
70
192
0
VERTEX
8
OBJECT__84
10
9.645000
20
65.309998
30
260.605011
70
192
0
VERTEX
8
OBJECT__84
10
5.383000
20
64.667000
30
254.070999
70
192
0
VERTEX
8
OBJECT__84
10
5.043000
20
57.162998
30
254.162003
70
192
0
VERTEX
8
OBJECT__84
10
0.978000
20
57.353001
30
252.897003
70
192
0
VERTEX
8
OBJECT__84
10
-0.881000
20
64.481003
30
252.729996
70
192
0
VERTEX
8
OBJECT__84
10
-0.848000
20
57.372002
30
252.966995
70
192
0
VERTEX
8
OBJECT__84
10
5.714000
20
57.084999
30
254.804001
70
192
0
VERTEX
8
OBJECT__84
10
5.461000
20
64.678001
30
254.175003
70
192
0
VERTEX
8
OBJECT__84
10
0
20
0
30
0
70
128
71
1
72
2
73
3
0
VERTEX
8
OBJECT__84
10
0
20
0
30
0
70
128
71
3
72
4
73
1
0
VERTEX
8
OBJECT__84
10
0
20
0
30
0
70
128
71
5
72
3
73
2
0
VERTEX
8
OBJECT__84
10
0
20
0
30
0
70
128
71
2
72
6
73
5
0
VERTEX
8
OBJECT__84
10
0
20
0
30
0
70
128
71
6
72
7
73
5
0
VERTEX
8
OBJECT__84
10
0
20
0
30
0
70
128
71
8
72
9
73
10
0
VERTEX
8
OBJECT__84
10
0
20
0
30
0
70
128
71
10
72
11
73
8
0
VERTEX
8
OBJECT__84
10
0
20
0
30
0
70
128
71
10
72
12
73
11
0
VERTEX
8
OBJECT__84
10
0
20
0
30
0
70
128
71
13
72
9
73
14
0
VERTEX
8
OBJECT__84
10
0
20
0
30
0
70
128
71
14
72
1
73
13
0
VERTEX
8
OBJECT__84
10
0
20
0
30
0
70
128
71
8
72
14
73
9
0
VERTEX
8
OBJECT__84
10
0
20
0
30
0
70
128
71
4
72
13
73
1
0
SEQEND
8
OBJECT__84
0
POLYLINE
8
OBJECT__85
66
1
70
64
71
13
72
11
62
253
0
VERTEX
8
OBJECT__85
10
5.383000
20
64.667000
30
254.070999
70
192
0
VERTEX
8
OBJECT__85
10
4.760000
20
69.141998
30
250.539993
70
192
0
VERTEX
8
OBJECT__85
10
6.402000
20
69.164001
30
250.865005
70
192
0
VERTEX
8
OBJECT__85
10
-0.881000
20
64.481003
30
252.729996
70
192
0
VERTEX
8
OBJECT__85
10
-1.359000
20
69.061996
30
249.328995
70
192
0
VERTEX
8
OBJECT__85
10
-1.358000
20
69.061996
30
249.330002
70
192
0
VERTEX
8
OBJECT__85
10
7.092000
20
69.189003
30
251.386002
70
192
0
VERTEX
8
OBJECT__85
10
5.461000
20
64.678001
30
254.175003
70
192
0
VERTEX
8
OBJECT__85
10
8.582000
20
69.242996
30
252.509003
70
192
0
VERTEX
8
OBJECT__85
10
5.802000
20
64.726997
30
254.626999
70
192
0
VERTEX
8
OBJECT__85
10
9.378000
20
65.238998
30
259.372986
70
192
0
VERTEX
8
OBJECT__85
10
9.588000
20
69.325996
30
254.251007
70
192
0
VERTEX
8
OBJECT__85
10
11.938000
20
69.522003
30
258.319000
70
192
0
VERTEX
8
OBJECT__85
10
0
20
0
30
0
70
128
71
1
72
2
73
3
0
VERTEX
8
OBJECT__85
10
0
20
0
30
0
70
128
71
4
72
5
73
6
0
VERTEX
8
OBJECT__85
10
0
20
0
30
0
70
128
71
6
72
1
73
4
0
VERTEX
8
OBJECT__85
10
0
20
0
30
0
70
128
71
6
72
2
73
1
0
VERTEX
8
OBJECT__85
10
0
20
0
30
0
70
128
71
7
72
8
73
1
0
VERTEX
8
OBJECT__85
10
0
20
0
30
0
70
128
71
9
72
10
73
8
0
VERTEX
8
OBJECT__85
10
0
20
0
30
0
70
128
71
11
72
10
73
12
0
VERTEX
8
OBJECT__85
10
0
20
0
30
0
70
128
71
10
72
9
73
12
0
VERTEX
8
OBJECT__85
10
0
20
0
30
0
70
128
71
12
72
13
73
11
0
VERTEX
8
OBJECT__85
10
0
20
0
30
0
70
128
71
8
72
7
73
9
0
VERTEX
8
OBJECT__85
10
0
20
0
30
0
70
128
71
3
72
7
73
1
0
SEQEND
8
OBJECT__85
0
POLYLINE
8
OBJECT__86
66
1
70
64
71
14
72
12
62
253
0
VERTEX
8
OBJECT__86
10
-10.318000
20
69.333000
30
257.157990
70
192
0
VERTEX
8
OBJECT__86
10
-8.119000
20
64.871002
30
258.209015
70
192
0
VERTEX
8
OBJECT__86
10
-8.912000
20
65.238998
30
261.942993
70
192
0
VERTEX
8
OBJECT__86
10
-9.426000
20
69.208000
30
254.186996
70
192
0
VERTEX
8
OBJECT__86
10
-6.798000
20
64.731003
30
256.463989
70
192
0
VERTEX
8
OBJECT__86
10
-8.862000
20
69.189003
30
253.628998
70
192
0
VERTEX
8
OBJECT__86
10
-6.415000
20
64.691002
30
255.957993
70
192
0
VERTEX
8
OBJECT__86
10
-7.041000
20
69.126999
30
251.828995
70
192
0
VERTEX
8
OBJECT__86
10
-5.512000
20
64.595001
30
254.766006
70
192
0
VERTEX
8
OBJECT__86
10
-6.615000
20
69.112999
30
251.408005
70
192
0
VERTEX
8
OBJECT__86
10
-1.359000
20
69.061996
30
249.328995
70
192
0
VERTEX
8
OBJECT__86
10
-1.575000
20
64.483002
30
252.854004
70
192
0
VERTEX
8
OBJECT__86
10
-0.881000
20
64.481003
30
252.729996
70
192
0
VERTEX
8
OBJECT__86
10
-11.663000
20
69.522003
30
261.635986
70
192
0
VERTEX
8
OBJECT__86
10
0
20
0
30
0
70
128
71
1
72
2
73
3
0
VERTEX
8
OBJECT__86
10
0
20
0
30
0
70
128
71
4
72
5
73
2
0
VERTEX
8
OBJECT__86
10
0
20
0
30
0
70
128
71
5
72
4
73
6
0
VERTEX
8
OBJECT__86
10
0
20
0
30
0
70
128
71
6
72
7
73
5
0
VERTEX
8
OBJECT__86
10
0
20
0
30
0
70
128
71
2
72
1
73
4
0
VERTEX
8
OBJECT__86
10
0
20
0
30
0
70
128
71
6
72
8
73
9
0
VERTEX
8
OBJECT__86
10
0
20
0
30
0
70
128
71
10
72
11
73
12
0
VERTEX
8
OBJECT__86
10
0
20
0
30
0
70
128
71
9
72
8
73
10
0
VERTEX
8
OBJECT__86
10
0
20
0
30
0
70
128
71
11
72
13
73
12
0
VERTEX
8
OBJECT__86
10
0
20
0
30
0
70
128
71
12
72
9
73
10
0
VERTEX
8
OBJECT__86
10
0
20
0
30
0
70
128
71
9
72
7
73
6
0
VERTEX
8
OBJECT__86
10
0
20
0
30
0
70
128
71
3
72
14
73
1
0
SEQEND
8
OBJECT__86
0
POLYLINE
8
OBJECT__87
66
1
70
64
71
7
72
5
62
253
0
VERTEX
8
OBJECT__87
10
11.938000
20
69.522003
30
258.319000
70
192
0
VERTEX
8
OBJECT__87
10
12.130000
20
69.551003
30
259.264008
70
192
0
VERTEX
8
OBJECT__87
10
9.533000
20
65.292000
30
259.984009
70
192
0
VERTEX
8
OBJECT__87
10
11.596000
20
68.450996
30
260.320007
70
192
0
VERTEX
8
OBJECT__87
10
12.286000
20
69.560997
30
260.220001
70
192
0
VERTEX
8
OBJECT__87
10
9.645000
20
65.309998
30
260.605011
70
192
0
VERTEX
8
OBJECT__87
10
9.378000
20
65.238998
30
259.372986
70
192
0
VERTEX
8
OBJECT__87
10
0
20
0
30
0
70
128
71
1
72
2
73
3
0
VERTEX
8
OBJECT__87
10
0
20
0
30
0
70
128
71
3
72
2
73
4
0
VERTEX
8
OBJECT__87
10
0
20
0
30
0
70
128
71
2
72
5
73
4
0
VERTEX
8
OBJECT__87
10
0
20
0
30
0
70
128
71
4
72
6
73
3
0
VERTEX
8
OBJECT__87
10
0
20
0
30
0
70
128
71
3
72
7
73
1
0
SEQEND
8
OBJECT__87
0
POLYLINE
8
OBJECT__88
66
1
70
64
71
27
72
28
62
253
0
VERTEX
8
OBJECT__88
10
8.787000
20
67.292999
30
268.782013
70
192
0
VERTEX
8
OBJECT__88
10
7.579000
20
63.816002
30
267.828003
70
192
0
VERTEX
8
OBJECT__88
10
7.761000
20
63.912998
30
267.476013
70
192
0
VERTEX
8
OBJECT__88
10
5.681000
20
66.768997
30
271.352997
70
192
0
VERTEX
8
OBJECT__88
10
4.496000
20
63.304001
30
270.247009
70
192
0
VERTEX
8
OBJECT__88
10
1.914000
20
66.640999
30
272.615997
70
192
0
VERTEX
8
OBJECT__88
10
1.701000
20
63.221001
30
271.102997
70
192
0
VERTEX
8
OBJECT__88
10
7.774000
20
63.918999
30
267.450989
70
192
0
VERTEX
8
OBJECT__88
10
9.433000
20
64.800003
30
264.244995
70
192
0
VERTEX
8
OBJECT__88
10
10.794000
20
68.192001
30
265.087006
70
192
0
VERTEX
8
OBJECT__88
10
9.436000
20
64.806999
30
264.194000
70
192
0
VERTEX
8
OBJECT__88
10
9.645000
20
65.309998
30
260.605011
70
192
0
VERTEX
8
OBJECT__88
10
12.422000
20
69.265999
30
265.644989
70
192
0
VERTEX
8
OBJECT__88
10
11.596000
20
68.450996
30
260.320007
70
192
0
VERTEX
8
OBJECT__88
10
12.286000
20
69.560997
30
260.220001
70
192
0
VERTEX
8
OBJECT__88
10
12.152000
20
69.077003
30
267.316986
70
192
0
VERTEX
8
OBJECT__88
10
12.151000
20
69.075996
30
267.321014
70
192
0
VERTEX
8
OBJECT__88
10
12.417000
20
69.262001
30
265.675995
70
192
0
VERTEX
8
OBJECT__88
10
12.212000
20
69.112000
30
267.028015
70
192
0
VERTEX
8
OBJECT__88
10
12.159000
20
69.081001
30
267.283997
70
192
0
VERTEX
8
OBJECT__88
10
10.167000
20
68.497002
30
271.632996
70
192
0
VERTEX
8
OBJECT__88
10
10.765000
20
68.640999
30
270.545013
70
192
0
VERTEX
8
OBJECT__88
10
10.380000
20
68.521004
30
271.438995
70
192
0
VERTEX
8
OBJECT__88
10
2.736000
20
68.041000
30
276.005005
70
192
0
VERTEX
8
OBJECT__88
10
7.272000
20
68.171997
30
274.264008
70
192
0
VERTEX
8
OBJECT__88
10
7.089000
20
68.151001
30
274.429993
70
192
0
VERTEX
8
OBJECT__88
10
2.397000
20
68.040001
30
276.057007
70
192
0
VERTEX
8
OBJECT__88
10
0
20
0
30
0
70
128
71
1
72
2
73
3
0
VERTEX
8
OBJECT__88
10
0
20
0
30
0
70
128
71
4
72
5
73
2
0
VERTEX
8
OBJECT__88
10
0
20
0
30
0
70
128
71
2
72
1
73
4
0
VERTEX
8
OBJECT__88
10
0
20
0
30
0
70
128
71
6
72
7
73
5
0
VERTEX
8
OBJECT__88
10
0
20
0
30
0
70
128
71
5
72
4
73
6
0
VERTEX
8
OBJECT__88
10
0
20
0
30
0
70
128
71
1
72
8
73
9
0
VERTEX
8
OBJECT__88
10
0
20
0
30
0
70
128
71
9
72
10
73
1
0
VERTEX
8
OBJECT__88
10
0
20
0
30
0
70
128
71
10
72
11
73
12
0
VERTEX
8
OBJECT__88
10
0
20
0
30
0
70
128
71
13
72
10
73
14
0
VERTEX
8
OBJECT__88
10
0
20
0
30
0
70
128
71
14
72
15
73
13
0
VERTEX
8
OBJECT__88
10
0
20
0
30
0
70
128
71
1
72
16
73
17
0
VERTEX
8
OBJECT__88
10
0
20
0
30
0
70
128
71
10
72
18
73
19
0
VERTEX
8
OBJECT__88
10
0
20
0
30
0
70
128
71
19
72
1
73
10
0
VERTEX
8
OBJECT__88
10
0
20
0
30
0
70
128
71
19
72
20
73
1
0
VERTEX
8
OBJECT__88
10
0
20
0
30
0
70
128
71
20
72
16
73
1
0
VERTEX
8
OBJECT__88
10
0
20
0
30
0
70
128
71
4
72
1
73
21
0
VERTEX
8
OBJECT__88
10
0
20
0
30
0
70
128
71
1
72
22
73
23
0
VERTEX
8
OBJECT__88
10
0
20
0
30
0
70
128
71
23
72
21
73
1
0
VERTEX
8
OBJECT__88
10
0
20
0
30
0
70
128
71
24
72
6
73
4
0
VERTEX
8
OBJECT__88
10
0
20
0
30
0
70
128
71
4
72
25
73
26
0
VERTEX
8
OBJECT__88
10
0
20
0
30
0
70
128
71
4
72
26
73
24
0
VERTEX
8
OBJECT__88
10
0
20
0
30
0
70
128
71
24
72
27
73
6
0
VERTEX
8
OBJECT__88
10
0
20
0
30
0
70
128
71
21
72
25
73
4
0
VERTEX
8
OBJECT__88
10
0
20
0
30
0
70
128
71
17
72
22
73
1
0
VERTEX
8
OBJECT__88
10
0
20
0
30
0
70
128
71
13
72
18
73
10
0
VERTEX
8
OBJECT__88
10
0
20
0
30
0
70
128
71
12
72
14
73
10
0
VERTEX
8
OBJECT__88
10
0
20
0
30
0
70
128
71
9
72
11
73
10
0
VERTEX
8
OBJECT__88
10
0
20
0
30
0
70
128
71
3
72
8
73
1
0
SEQEND
8
OBJECT__88
0
POLYLINE
8
OBJECT__89
66
1
70
64
71
22
72
20
62
253
0
VERTEX
8
OBJECT__89
10
15.629000
20
68.441002
30
310.460999
70
192
0
VERTEX
8
OBJECT__89
10
7.089000
20
68.151001
30
274.429993
70
192
0
VERTEX
8
OBJECT__89
10
7.272000
20
68.171997
30
274.264008
70
192
0
VERTEX
8
OBJECT__89
10
7.395000
20
67.997002
30
311.618011
70
192
0
VERTEX
8
OBJECT__89
10
2.397000
20
68.040001
30
276.057007
70
192
0
VERTEX
8
OBJECT__89
10
2.736000
20
68.041000
30
276.005005
70
192
0
VERTEX
8
OBJECT__89
10
12.130000
20
69.551003
30
259.264008
70
192
0
VERTEX
8
OBJECT__89
10
11.938000
20
69.522003
30
258.319000
70
192
0
VERTEX
8
OBJECT__89
10
13.143000
20
70.594002
30
258.156006
70
192
0
VERTEX
8
OBJECT__89
10
14.039000
20
71.391998
30
258.033997
70
192
0
VERTEX
8
OBJECT__89
10
12.286000
20
69.560997
30
260.220001
70
192
0
VERTEX
8
OBJECT__89
10
21.292000
20
71.306000
30
309.669006
70
192
0
VERTEX
8
OBJECT__89
10
12.422000
20
69.265999
30
265.644989
70
192
0
VERTEX
8
OBJECT__89
10
12.159000
20
69.081001
30
267.283997
70
192
0
VERTEX
8
OBJECT__89
10
12.212000
20
69.112000
30
267.028015
70
192
0
VERTEX
8
OBJECT__89
10
12.151000
20
69.075996
30
267.321014
70
192
0
VERTEX
8
OBJECT__89
10
12.152000
20
69.077003
30
267.316986
70
192
0
VERTEX
8
OBJECT__89
10
12.417000
20
69.262001
30
265.675995
70
192
0
VERTEX
8
OBJECT__89
10
10.380000
20
68.521004
30
271.438995
70
192
0
VERTEX
8
OBJECT__89
10
10.765000
20
68.640999
30
270.545013
70
192
0
VERTEX
8
OBJECT__89
10
15.660000
20
68.442001
30
310.457001
70
192
0
VERTEX
8
OBJECT__89
10
10.167000
20
68.497002
30
271.632996
70
192
0
VERTEX
8
OBJECT__89
10
0
20
0
30
0
70
128
71
1
72
2
73
3
0
VERTEX
8
OBJECT__89
10
0
20
0
30
0
70
128
71
4
72
5
73
6
0
VERTEX
8
OBJECT__89
10
0
20
0
30
0
70
128
71
6
72
1
73
4
0
VERTEX
8
OBJECT__89
10
0
20
0
30
0
70
128
71
6
72
2
73
1
0
VERTEX
8
OBJECT__89
10
0
20
0
30
0
70
128
71
7
72
8
73
9
0
VERTEX
8
OBJECT__89
10
0
20
0
30
0
70
128
71
10
72
11
73
7
0
VERTEX
8
OBJECT__89
10
0
20
0
30
0
70
128
71
10
72
12
73
13
0
VERTEX
8
OBJECT__89
10
0
20
0
30
0
70
128
71
13
72
11
73
10
0
VERTEX
8
OBJECT__89
10
0
20
0
30
0
70
128
71
12
72
14
73
15
0
VERTEX
8
OBJECT__89
10
0
20
0
30
0
70
128
71
12
72
16
73
17
0
VERTEX
8
OBJECT__89
10
0
20
0
30
0
70
128
71
17
72
14
73
12
0
VERTEX
8
OBJECT__89
10
0
20
0
30
0
70
128
71
15
72
18
73
12
0
VERTEX
8
OBJECT__89
10
0
20
0
30
0
70
128
71
18
72
13
73
12
0
VERTEX
8
OBJECT__89
10
0
20
0
30
0
70
128
71
12
72
19
73
20
0
VERTEX
8
OBJECT__89
10
0
20
0
30
0
70
128
71
20
72
16
73
12
0
VERTEX
8
OBJECT__89
10
0
20
0
30
0
70
128
71
12
72
21
73
22
0
VERTEX
8
OBJECT__89
10
0
20
0
30
0
70
128
71
22
72
19
73
12
0
VERTEX
8
OBJECT__89
10
0
20
0
30
0
70
128
71
21
72
1
73
22
0
VERTEX
8
OBJECT__89
10
0
20
0
30
0
70
128
71
9
72
10
73
7
0
VERTEX
8
OBJECT__89
10
0
20
0
30
0
70
128
71
3
72
22
73
1
0
SEQEND
8
OBJECT__89
0
POLYLINE
8
OBJECT__90
66
1
70
64
71
18
72
16
62
253
0
VERTEX
8
OBJECT__90
10
-0.866000
20
68.450996
30
312.779999
70
192
0
VERTEX
8
OBJECT__90
10
-6.335000
20
68.490997
30
273.984009
70
192
0
VERTEX
8
OBJECT__90
10
-6.287000
20
68.487000
30
274.006989
70
192
0
VERTEX
8
OBJECT__90
10
-0.839000
20
68.438004
30
312.776001
70
192
0
VERTEX
8
OBJECT__90
10
-6.497000
20
71.308998
30
313.575012
70
192
0
VERTEX
8
OBJECT__90
10
-9.344000
20
69.065002
30
270.427002
70
192
0
VERTEX
8
OBJECT__90
10
-7.137000
20
68.643997
30
273.035004
70
192
0
VERTEX
8
OBJECT__90
10
-13.762000
20
71.391998
30
261.937012
70
192
0
VERTEX
8
OBJECT__90
10
-11.157000
20
69.526001
30
265.358002
70
192
0
VERTEX
8
OBJECT__90
10
-9.928000
20
69.213997
30
268.791992
70
192
0
VERTEX
8
OBJECT__90
10
-11.588000
20
69.551003
30
262.596985
70
192
0
VERTEX
8
OBJECT__90
10
-12.867000
20
70.594002
30
261.808990
70
192
0
VERTEX
8
OBJECT__90
10
-11.663000
20
69.522003
30
261.635986
70
192
0
VERTEX
8
OBJECT__90
10
-11.474000
20
69.560997
30
263.558990
70
192
0
VERTEX
8
OBJECT__90
10
-2.421000
20
68.143997
30
275.821991
70
192
0
VERTEX
8
OBJECT__90
10
2.397000
20
68.040001
30
276.057007
70
192
0
VERTEX
8
OBJECT__90
10
-2.775000
20
68.175003
30
275.656006
70
192
0
VERTEX
8
OBJECT__90
10
7.395000
20
67.997002
30
311.618011
70
192
0
VERTEX
8
OBJECT__90
10
0
20
0
30
0
70
128
71
1
72
2
73
3
0
VERTEX
8
OBJECT__90
10
0
20
0
30
0
70
128
71
3
72
4
73
1
0
VERTEX
8
OBJECT__90
10
0
20
0
30
0
70
128
71
5
72
6
73
7
0
VERTEX
8
OBJECT__90
10
0
20
0
30
0
70
128
71
8
72
9
73
10
0
VERTEX
8
OBJECT__90
10
0
20
0
30
0
70
128
71
10
72
5
73
8
0
VERTEX
8
OBJECT__90
10
0
20
0
30
0
70
128
71
11
72
8
73
12
0
VERTEX
8
OBJECT__90
10
0
20
0
30
0
70
128
71
12
72
13
73
11
0
VERTEX
8
OBJECT__90
10
0
20
0
30
0
70
128
71
11
72
14
73
8
0
VERTEX
8
OBJECT__90
10
0
20
0
30
0
70
128
71
14
72
9
73
8
0
VERTEX
8
OBJECT__90
10
0
20
0
30
0
70
128
71
10
72
6
73
5
0
VERTEX
8
OBJECT__90
10
0
20
0
30
0
70
128
71
7
72
2
73
5
0
VERTEX
8
OBJECT__90
10
0
20
0
30
0
70
128
71
4
72
15
73
16
0
VERTEX
8
OBJECT__90
10
0
20
0
30
0
70
128
71
4
72
3
73
17
0
VERTEX
8
OBJECT__90
10
0
20
0
30
0
70
128
71
17
72
15
73
4
0
VERTEX
8
OBJECT__90
10
0
20
0
30
0
70
128
71
16
72
18
73
4
0
VERTEX
8
OBJECT__90
10
0
20
0
30
0
70
128
71
1
72
5
73
2
0
SEQEND
8
OBJECT__90
0
POLYLINE
8
OBJECT__91
66
1
70
64
71
36
72
39
62
253
0
VERTEX
8
OBJECT__91
10
12.853000
20
72.612999
30
252.001999
70
192
0
VERTEX
8
OBJECT__91
10
11.471000
20
70.467003
30
253.121994
70
192
0
VERTEX
8
OBJECT__91
10
5.822000
20
70.473999
30
248.018997
70
192
0
VERTEX
8
OBJECT__91
10
6.404000
20
72.621002
30
246.343994
70
192
0
VERTEX
8
OBJECT__91
10
-1.703000
20
70.476997
30
246.867004
70
192
0
VERTEX
8
OBJECT__91
10
-2.091000
20
72.624001
30
245.141998
70
192
0
VERTEX
8
OBJECT__91
10
-8.621000
20
70.473999
30
250.046005
70
192
0
VERTEX
8
OBJECT__91
10
-9.857000
20
72.621002
30
248.785995
70
192
0
VERTEX
8
OBJECT__91
10
-12.646000
20
70.467003
30
256.507996
70
192
0
VERTEX
8
OBJECT__91
10
13.143000
20
70.594002
30
258.156006
70
192
0
VERTEX
8
OBJECT__91
10
11.938000
20
69.522003
30
258.319000
70
192
0
VERTEX
8
OBJECT__91
10
8.582000
20
69.242996
30
252.509003
70
192
0
VERTEX
8
OBJECT__91
10
7.092000
20
69.189003
30
251.386002
70
192
0
VERTEX
8
OBJECT__91
10
9.588000
20
69.325996
30
254.251007
70
192
0
VERTEX
8
OBJECT__91
10
6.402000
20
69.164001
30
250.865005
70
192
0
VERTEX
8
OBJECT__91
10
4.760000
20
69.141998
30
250.539993
70
192
0
VERTEX
8
OBJECT__91
10
-1.358000
20
69.061996
30
249.330002
70
192
0
VERTEX
8
OBJECT__91
10
-1.359000
20
69.061996
30
249.328995
70
192
0
VERTEX
8
OBJECT__91
10
-6.615000
20
69.112999
30
251.408005
70
192
0
VERTEX
8
OBJECT__91
10
-7.041000
20
69.126999
30
251.828995
70
192
0
VERTEX
8
OBJECT__91
10
-8.862000
20
69.189003
30
253.628998
70
192
0
VERTEX
8
OBJECT__91
10
-9.426000
20
69.208000
30
254.186996
70
192
0
VERTEX
8
OBJECT__91
10
-10.318000
20
69.333000
30
257.157990
70
192
0
VERTEX
8
OBJECT__91
10
-11.663000
20
69.522003
30
261.635986
70
192
0
VERTEX
8
OBJECT__91
10
-14.480000
20
72.588997
30
256.648987
70
192
0
VERTEX
8
OBJECT__91
10
-14.488000
20
72.612999
30
256.596008
70
192
0
VERTEX
8
OBJECT__91
10
-14.361000
20
72.612999
30
256.088989
70
192
0
VERTEX
8
OBJECT__91
10
-12.867000
20
70.594002
30
261.808990
70
192
0
VERTEX
8
OBJECT__91
10
-13.892000
20
71.427002
30
260.979004
70
192
0
VERTEX
8
OBJECT__91
10
-13.762000
20
71.391998
30
261.937012
70
192
0
VERTEX
8
OBJECT__91
10
13.272000
20
72.588997
30
252.748993
70
192
0
VERTEX
8
OBJECT__91
10
13.899000
20
71.427002
30
257.071991
70
192
0
VERTEX
8
OBJECT__91
10
12.978000
20
72.612999
30
252.212006
70
192
0
VERTEX
8
OBJECT__91
10
13.264000
20
72.612999
30
252.695007
70
192
0
VERTEX
8
OBJECT__91
10
14.039000
20
71.391998
30
258.033997
70
192
0
VERTEX
8
OBJECT__91
10
-14.339000
20
72.612999
30
256.053009
70
192
0
VERTEX
8
OBJECT__91
10
0
20
0
30
0
70
128
71
1
72
2
73
3
0
VERTEX
8
OBJECT__91
10
0
20
0
30
0
70
128
71
3
72
4
73
1
0
VERTEX
8
OBJECT__91
10
0
20
0
30
0
70
128
71
4
72
3
73
5
0
VERTEX
8
OBJECT__91
10
0
20
0
30
0
70
128
71
6
72
5
73
7
0
VERTEX
8
OBJECT__91
10
0
20
0
30
0
70
128
71
8
72
7
73
9
0
VERTEX
8
OBJECT__91
10
0
20
0
30
0
70
128
71
2
72
10
73
11
0
VERTEX
8
OBJECT__91
10
0
20
0
30
0
70
128
71
3
72
2
73
12
0
VERTEX
8
OBJECT__91
10
0
20
0
30
0
70
128
71
12
72
13
73
3
0
VERTEX
8
OBJECT__91
10
0
20
0
30
0
70
128
71
2
72
14
73
12
0
VERTEX
8
OBJECT__91
10
0
20
0
30
0
70
128
71
13
72
15
73
3
0
VERTEX
8
OBJECT__91
10
0
20
0
30
0
70
128
71
3
72
16
73
17
0
VERTEX
8
OBJECT__91
10
0
20
0
30
0
70
128
71
7
72
18
73
19
0
VERTEX
8
OBJECT__91
10
0
20
0
30
0
70
128
71
5
72
17
73
18
0
VERTEX
8
OBJECT__91
10
0
20
0
30
0
70
128
71
18
72
7
73
5
0
VERTEX
8
OBJECT__91
10
0
20
0
30
0
70
128
71
19
72
20
73
7
0
VERTEX
8
OBJECT__91
10
0
20
0
30
0
70
128
71
7
72
21
73
22
0
VERTEX
8
OBJECT__91
10
0
20
0
30
0
70
128
71
7
72
20
73
21
0
VERTEX
8
OBJECT__91
10
0
20
0
30
0
70
128
71
22
72
9
73
7
0
VERTEX
8
OBJECT__91
10
0
20
0
30
0
70
128
71
9
72
23
73
24
0
VERTEX
8
OBJECT__91
10
0
20
0
30
0
70
128
71
9
72
25
73
26
0
VERTEX
8
OBJECT__91
10
0
20
0
30
0
70
128
71
26
72
27
73
9
0
VERTEX
8
OBJECT__91
10
0
20
0
30
0
70
128
71
9
72
28
73
29
0
VERTEX
8
OBJECT__91
10
0
20
0
30
0
70
128
71
29
72
25
73
9
0
VERTEX
8
OBJECT__91
10
0
20
0
30
0
70
128
71
28
72
30
73
29
0
VERTEX
8
OBJECT__91
10
0
20
0
30
0
70
128
71
2
72
31
73
32
0
VERTEX
8
OBJECT__91
10
0
20
0
30
0
70
128
71
2
72
33
73
34
0
VERTEX
8
OBJECT__91
10
0
20
0
30
0
70
128
71
34
72
31
73
2
0
VERTEX
8
OBJECT__91
10
0
20
0
30
0
70
128
71
32
72
10
73
2
0
VERTEX
8
OBJECT__91
10
0
20
0
30
0
70
128
71
32
72
35
73
10
0
VERTEX
8
OBJECT__91
10
0
20
0
30
0
70
128
71
27
72
36
73
9
0
VERTEX
8
OBJECT__91
10
0
20
0
30
0
70
128
71
24
72
28
73
9
0
VERTEX
8
OBJECT__91
10
0
20
0
30
0
70
128
71
22
72
23
73
9
0
VERTEX
8
OBJECT__91
10
0
20
0
30
0
70
128
71
17
72
5
73
3
0
VERTEX
8
OBJECT__91
10
0
20
0
30
0
70
128
71
15
72
16
73
3
0
VERTEX
8
OBJECT__91
10
0
20
0
30
0
70
128
71
11
72
14
73
2
0
VERTEX
8
OBJECT__91
10
0
20
0
30
0
70
128
71
9
72
36
73
8
0
VERTEX
8
OBJECT__91
10
0
20
0
30
0
70
128
71
7
72
8
73
6
0
VERTEX
8
OBJECT__91
10
0
20
0
30
0
70
128
71
5
72
6
73
4
0
VERTEX
8
OBJECT__91
10
0
20
0
30
0
70
128
71
1
72
33
73
2
0
SEQEND
8
OBJECT__91
0
POLYLINE
8
OBJECT__92
66
1
70
64
71
18
72
20
62
253
0
VERTEX
8
OBJECT__92
10
0.872000
20
68.436996
30
316.825989
70
192
0
VERTEX
8
OBJECT__92
10
-0.866000
20
68.450996
30
312.779999
70
192
0
VERTEX
8
OBJECT__92
10
-0.839000
20
68.438004
30
312.776001
70
192
0
VERTEX
8
OBJECT__92
10
15.101000
20
68.436996
30
314.825989
70
192
0
VERTEX
8
OBJECT__92
10
7.395000
20
67.997002
30
311.618011
70
192
0
VERTEX
8
OBJECT__92
10
15.629000
20
68.441002
30
310.460999
70
192
0
VERTEX
8
OBJECT__92
10
21.292000
20
71.306000
30
309.669006
70
192
0
VERTEX
8
OBJECT__92
10
20.351000
20
71.295998
30
317.015015
70
192
0
VERTEX
8
OBJECT__92
10
18.037001
20
71.292999
30
319.549988
70
192
0
VERTEX
8
OBJECT__92
10
13.941000
20
71.289001
30
324.036011
70
192
0
VERTEX
8
OBJECT__92
10
11.288000
20
68.432999
30
319.002014
70
192
0
VERTEX
8
OBJECT__92
10
9.233000
20
71.289001
30
324.696991
70
192
0
VERTEX
8
OBJECT__92
10
5.688000
20
68.432999
30
319.789001
70
192
0
VERTEX
8
OBJECT__92
10
-0.648000
20
71.292999
30
322.175995
70
192
0
VERTEX
8
OBJECT__92
10
4.526000
20
71.289001
30
325.359009
70
192
0
VERTEX
8
OBJECT__92
10
-3.572000
20
71.295998
30
320.377014
70
192
0
VERTEX
8
OBJECT__92
10
-6.497000
20
71.308998
30
313.575012
70
192
0
VERTEX
8
OBJECT__92
10
15.660000
20
68.442001
30
310.457001
70
192
0
VERTEX
8
OBJECT__92
10
0
20
0
30
0
70
128
71
1
72
2
73
3
0
VERTEX
8
OBJECT__92
10
0
20
0
30
0
70
128
71
4
72
5
73
6
0
VERTEX
8
OBJECT__92
10
0
20
0
30
0
70
128
71
7
72
8
73
4
0
VERTEX
8
OBJECT__92
10
0
20
0
30
0
70
128
71
9
72
10
73
11
0
VERTEX
8
OBJECT__92
10
0
20
0
30
0
70
128
71
4
72
8
73
9
0
VERTEX
8
OBJECT__92
10
0
20
0
30
0
70
128
71
11
72
10
73
12
0
VERTEX
8
OBJECT__92
10
0
20
0
30
0
70
128
71
12
72
13
73
11
0
VERTEX
8
OBJECT__92
10
0
20
0
30
0
70
128
71
14
72
1
73
13
0
VERTEX
8
OBJECT__92
10
0
20
0
30
0
70
128
71
13
72
15
73
14
0
VERTEX
8
OBJECT__92
10
0
20
0
30
0
70
128
71
16
72
17
73
2
0
VERTEX
8
OBJECT__92
10
0
20
0
30
0
70
128
71
2
72
1
73
16
0
VERTEX
8
OBJECT__92
10
0
20
0
30
0
70
128
71
14
72
16
73
1
0
VERTEX
8
OBJECT__92
10
0
20
0
30
0
70
128
71
12
72
15
73
13
0
VERTEX
8
OBJECT__92
10
0
20
0
30
0
70
128
71
11
72
4
73
9
0
VERTEX
8
OBJECT__92
10
0
20
0
30
0
70
128
71
4
72
18
73
7
0
VERTEX
8
OBJECT__92
10
0
20
0
30
0
70
128
71
6
72
18
73
4
0
VERTEX
8
OBJECT__92
10
0
20
0
30
0
70
128
71
3
72
5
73
1
0
VERTEX
8
OBJECT__92
10
0
20
0
30
0
70
128
71
4
72
11
73
5
0
VERTEX
8
OBJECT__92
10
0
20
0
30
0
70
128
71
11
72
13
73
5
0
VERTEX
8
OBJECT__92
10
0
20
0
30
0
70
128
71
13
72
1
73
5
0
SEQEND
8
OBJECT__92
0
POLYLINE
8
OBJECT__93
66
1
70
64
71
8
72
6
62
253
0
VERTEX
8
OBJECT__93
10
-14.325000
20
72.862999
30
257.720001
70
192
0
VERTEX
8
OBJECT__93
10
-14.488000
20
72.612999
30
256.596008
70
192
0
VERTEX
8
OBJECT__93
10
-14.480000
20
72.588997
30
256.648987
70
192
0
VERTEX
8
OBJECT__93
10
-13.724000
20
73.290001
30
261.940002
70
192
0
VERTEX
8
OBJECT__93
10
-13.892000
20
71.427002
30
260.979004
70
192
0
VERTEX
8
OBJECT__93
10
-6.497000
20
71.308998
30
313.575012
70
192
0
VERTEX
8
OBJECT__93
10
-6.468000
20
73.227997
30
313.572998
70
192
0
VERTEX
8
OBJECT__93
10
-13.762000
20
71.391998
30
261.937012
70
192
0
VERTEX
8
OBJECT__93
10
0
20
0
30
0
70
128
71
1
72
2
73
3
0
VERTEX
8
OBJECT__93
10
0
20
0
30
0
70
128
71
4
72
1
73
5
0
VERTEX
8
OBJECT__93
10
0
20
0
30
0
70
128
71
6
72
7
73
4
0
VERTEX
8
OBJECT__93
10
0
20
0
30
0
70
128
71
5
72
8
73
4
0
VERTEX
8
OBJECT__93
10
0
20
0
30
0
70
128
71
3
72
5
73
1
0
VERTEX
8
OBJECT__93
10
0
20
0
30
0
70
128
71
4
72
8
73
6
0
SEQEND
8
OBJECT__93
0
POLYLINE
8
OBJECT__94
66
1
70
64
71
35
72
38
62
253
0
VERTEX
8
OBJECT__94
10
12.853000
20
72.612999
30
252.001999
70
192
0
VERTEX
8
OBJECT__94
10
6.404000
20
72.621002
30
246.343994
70
192
0
VERTEX
8
OBJECT__94
10
5.555000
20
73.939003
30
248.195007
70
192
0
VERTEX
8
OBJECT__94
10
-2.091000
20
72.624001
30
245.141998
70
192
0
VERTEX
8
OBJECT__94
10
-1.788000
20
73.942001
30
247.154999
70
192
0
VERTEX
8
OBJECT__94
10
-9.857000
20
72.621002
30
248.785995
70
192
0
VERTEX
8
OBJECT__94
10
-8.503000
20
73.939003
30
250.306000
70
192
0
VERTEX
8
OBJECT__94
10
-14.339000
20
72.612999
30
256.053009
70
192
0
VERTEX
8
OBJECT__94
10
-12.396000
20
73.931999
30
256.618988
70
192
0
VERTEX
8
OBJECT__94
10
5.210000
20
74.424004
30
250.459000
70
192
0
VERTEX
8
OBJECT__94
10
8.077000
20
74.420998
30
252.675003
70
192
0
VERTEX
8
OBJECT__94
10
11.131000
20
73.931999
30
253.085999
70
192
0
VERTEX
8
OBJECT__94
10
4.614000
20
74.424004
30
250.354004
70
192
0
VERTEX
8
OBJECT__94
10
12.328000
20
74.218002
30
258.279999
70
192
0
VERTEX
8
OBJECT__94
10
10.049000
20
74.417000
30
255.714005
70
192
0
VERTEX
8
OBJECT__94
10
10.826000
20
74.414001
30
258.490997
70
192
0
VERTEX
8
OBJECT__94
10
9.152000
20
74.418999
30
254.332001
70
192
0
VERTEX
8
OBJECT__94
10
13.417000
20
72.862999
30
253.820999
70
192
0
VERTEX
8
OBJECT__94
10
13.264000
20
72.612999
30
252.695007
70
192
0
VERTEX
8
OBJECT__94
10
12.978000
20
72.612999
30
252.212006
70
192
0
VERTEX
8
OBJECT__94
10
12.962000
20
73.866997
30
258.190002
70
192
0
VERTEX
8
OBJECT__94
10
14.003000
20
73.290001
30
258.042999
70
192
0
VERTEX
8
OBJECT__94
10
-12.715000
20
73.926003
30
261.799011
70
192
0
VERTEX
8
OBJECT__94
10
-14.325000
20
72.862999
30
257.720001
70
192
0
VERTEX
8
OBJECT__94
10
-14.361000
20
72.612999
30
256.088989
70
192
0
VERTEX
8
OBJECT__94
10
-14.488000
20
72.612999
30
256.596008
70
192
0
VERTEX
8
OBJECT__94
10
-12.019000
20
74.083000
30
261.700989
70
192
0
VERTEX
8
OBJECT__94
10
-10.547000
20
74.414001
30
261.494995
70
192
0
VERTEX
8
OBJECT__94
10
-9.449000
20
74.420998
30
255.031998
70
192
0
VERTEX
8
OBJECT__94
10
-9.828000
20
74.417999
30
257.265015
70
192
0
VERTEX
8
OBJECT__94
10
-7.269000
20
74.424004
30
252.136993
70
192
0
VERTEX
8
OBJECT__94
10
-4.254000
20
74.426003
30
250.128006
70
192
0
VERTEX
8
OBJECT__94
10
-1.364000
20
74.426003
30
249.298004
70
192
0
VERTEX
8
OBJECT__94
10
-1.461000
20
74.426003
30
249.326004
70
192
0
VERTEX
8
OBJECT__94
10
-13.724000
20
73.290001
30
261.940002
70
192
0
VERTEX
8
OBJECT__94
10
0
20
0
30
0
70
128
71
1
72
2
73
3
0
VERTEX
8
OBJECT__94
10
0
20
0
30
0
70
128
71
2
72
4
73
5
0
VERTEX
8
OBJECT__94
10
0
20
0
30
0
70
128
71
4
72
6
73
7
0
VERTEX
8
OBJECT__94
10
0
20
0
30
0
70
128
71
8
72
9
73
7
0
VERTEX
8
OBJECT__94
10
0
20
0
30
0
70
128
71
7
72
6
73
8
0
VERTEX
8
OBJECT__94
10
0
20
0
30
0
70
128
71
3
72
10
73
11
0
VERTEX
8
OBJECT__94
10
0
20
0
30
0
70
128
71
11
72
12
73
3
0
VERTEX
8
OBJECT__94
10
0
20
0
30
0
70
128
71
3
72
13
73
10
0
VERTEX
8
OBJECT__94
10
0
20
0
30
0
70
128
71
14
72
12
73
15
0
VERTEX
8
OBJECT__94
10
0
20
0
30
0
70
128
71
15
72
16
73
14
0
VERTEX
8
OBJECT__94
10
0
20
0
30
0
70
128
71
12
72
17
73
15
0
VERTEX
8
OBJECT__94
10
0
20
0
30
0
70
128
71
12
72
18
73
19
0
VERTEX
8
OBJECT__94
10
0
20
0
30
0
70
128
71
19
72
20
73
12
0
VERTEX
8
OBJECT__94
10
0
20
0
30
0
70
128
71
21
72
22
73
18
0
VERTEX
8
OBJECT__94
10
0
20
0
30
0
70
128
71
18
72
12
73
21
0
VERTEX
8
OBJECT__94
10
0
20
0
30
0
70
128
71
23
72
9
73
24
0
VERTEX
8
OBJECT__94
10
0
20
0
30
0
70
128
71
9
72
25
73
26
0
VERTEX
8
OBJECT__94
10
0
20
0
30
0
70
128
71
26
72
24
73
9
0
VERTEX
8
OBJECT__94
10
0
20
0
30
0
70
128
71
9
72
27
73
28
0
VERTEX
8
OBJECT__94
10
0
20
0
30
0
70
128
71
9
72
23
73
27
0
VERTEX
8
OBJECT__94
10
0
20
0
30
0
70
128
71
7
72
9
73
29
0
VERTEX
8
OBJECT__94
10
0
20
0
30
0
70
128
71
9
72
30
73
29
0
VERTEX
8
OBJECT__94
10
0
20
0
30
0
70
128
71
7
72
31
73
32
0
VERTEX
8
OBJECT__94
10
0
20
0
30
0
70
128
71
32
72
5
73
7
0
VERTEX
8
OBJECT__94
10
0
20
0
30
0
70
128
71
3
72
5
73
33
0
VERTEX
8
OBJECT__94
10
0
20
0
30
0
70
128
71
5
72
34
73
33
0
VERTEX
8
OBJECT__94
10
0
20
0
30
0
70
128
71
33
72
13
73
3
0
VERTEX
8
OBJECT__94
10
0
20
0
30
0
70
128
71
32
72
34
73
5
0
VERTEX
8
OBJECT__94
10
0
20
0
30
0
70
128
71
29
72
31
73
7
0
VERTEX
8
OBJECT__94
10
0
20
0
30
0
70
128
71
28
72
30
73
9
0
VERTEX
8
OBJECT__94
10
0
20
0
30
0
70
128
71
24
72
35
73
23
0
VERTEX
8
OBJECT__94
10
0
20
0
30
0
70
128
71
20
72
1
73
12
0
VERTEX
8
OBJECT__94
10
0
20
0
30
0
70
128
71
14
72
21
73
12
0
VERTEX
8
OBJECT__94
10
0
20
0
30
0
70
128
71
11
72
17
73
12
0
VERTEX
8
OBJECT__94
10
0
20
0
30
0
70
128
71
8
72
25
73
9
0
VERTEX
8
OBJECT__94
10
0
20
0
30
0
70
128
71
7
72
5
73
4
0
VERTEX
8
OBJECT__94
10
0
20
0
30
0
70
128
71
5
72
3
73
2
0
VERTEX
8
OBJECT__94
10
0
20
0
30
0
70
128
71
3
72
12
73
1
0
SEQEND
8
OBJECT__94
0
POLYLINE
8
OBJECT__95
66
1
70
64
71
8
72
6
62
253
0
VERTEX
8
OBJECT__95
10
14.003000
20
73.290001
30
258.042999
70
192
0
VERTEX
8
OBJECT__95
10
14.039000
20
71.391998
30
258.033997
70
192
0
VERTEX
8
OBJECT__95
10
13.899000
20
71.427002
30
257.071991
70
192
0
VERTEX
8
OBJECT__95
10
13.417000
20
72.862999
30
253.820999
70
192
0
VERTEX
8
OBJECT__95
10
13.272000
20
72.588997
30
252.748993
70
192
0
VERTEX
8
OBJECT__95
10
13.264000
20
72.612999
30
252.695007
70
192
0
VERTEX
8
OBJECT__95
10
21.292000
20
71.306000
30
309.669006
70
192
0
VERTEX
8
OBJECT__95
10
21.260000
20
73.227997
30
309.675995
70
192
0
VERTEX
8
OBJECT__95
10
0
20
0
30
0
70
128
71
1
72
2
73
3
0
VERTEX
8
OBJECT__95
10
0
20
0
30
0
70
128
71
4
72
3
73
5
0
VERTEX
8
OBJECT__95
10
0
20
0
30
0
70
128
71
5
72
6
73
4
0
VERTEX
8
OBJECT__95
10
0
20
0
30
0
70
128
71
7
72
2
73
1
0
VERTEX
8
OBJECT__95
10
0
20
0
30
0
70
128
71
1
72
8
73
7
0
VERTEX
8
OBJECT__95
10
0
20
0
30
0
70
128
71
3
72
4
73
1
0
SEQEND
8
OBJECT__95
0
POLYLINE
8
OBJECT__96
66
1
70
64
71
18
72
16
62
253
0
VERTEX
8
OBJECT__96
10
9.233000
20
71.289001
30
324.696991
70
192
0
VERTEX
8
OBJECT__96
10
13.941000
20
71.289001
30
324.036011
70
192
0
VERTEX
8
OBJECT__96
10
13.925000
20
73.211998
30
324.007996
70
192
0
VERTEX
8
OBJECT__96
10
18.037001
20
71.292999
30
319.549988
70
192
0
VERTEX
8
OBJECT__96
10
18.011000
20
73.217003
30
319.532990
70
192
0
VERTEX
8
OBJECT__96
10
-0.648000
20
71.292999
30
322.175995
70
192
0
VERTEX
8
OBJECT__96
10
4.526000
20
71.289001
30
325.359009
70
192
0
VERTEX
8
OBJECT__96
10
4.533000
20
73.211998
30
325.328003
70
192
0
VERTEX
8
OBJECT__96
10
9.229000
20
73.211998
30
324.667999
70
192
0
VERTEX
8
OBJECT__96
10
-6.497000
20
71.308998
30
313.575012
70
192
0
VERTEX
8
OBJECT__96
10
-3.572000
20
71.295998
30
320.377014
70
192
0
VERTEX
8
OBJECT__96
10
-3.545000
20
73.219002
30
320.359009
70
192
0
VERTEX
8
OBJECT__96
10
-0.628000
20
73.217003
30
322.153015
70
192
0
VERTEX
8
OBJECT__96
10
20.351000
20
71.295998
30
317.015015
70
192
0
VERTEX
8
OBJECT__96
10
20.320999
20
73.219002
30
317.003998
70
192
0
VERTEX
8
OBJECT__96
10
21.292000
20
71.306000
30
309.669006
70
192
0
VERTEX
8
OBJECT__96
10
21.260000
20
73.227997
30
309.675995
70
192
0
VERTEX
8
OBJECT__96
10
-6.468000
20
73.227997
30
313.572998
70
192
0
VERTEX
8
OBJECT__96
10
0
20
0
30
0
70
128
71
1
72
2
73
3
0
VERTEX
8
OBJECT__96
10
0
20
0
30
0
70
128
71
4
72
5
73
3
0
VERTEX
8
OBJECT__96
10
0
20
0
30
0
70
128
71
3
72
2
73
4
0
VERTEX
8
OBJECT__96
10
0
20
0
30
0
70
128
71
6
72
7
73
8
0
VERTEX
8
OBJECT__96
10
0
20
0
30
0
70
128
71
1
72
9
73
8
0
VERTEX
8
OBJECT__96
10
0
20
0
30
0
70
128
71
8
72
7
73
1
0
VERTEX
8
OBJECT__96
10
0
20
0
30
0
70
128
71
10
72
11
73
12
0
VERTEX
8
OBJECT__96
10
0
20
0
30
0
70
128
71
6
72
13
73
12
0
VERTEX
8
OBJECT__96
10
0
20
0
30
0
70
128
71
12
72
11
73
6
0
VERTEX
8
OBJECT__96
10
0
20
0
30
0
70
128
71
4
72
14
73
15
0
VERTEX
8
OBJECT__96
10
0
20
0
30
0
70
128
71
16
72
17
73
15
0
VERTEX
8
OBJECT__96
10
0
20
0
30
0
70
128
71
15
72
14
73
16
0
VERTEX
8
OBJECT__96
10
0
20
0
30
0
70
128
71
15
72
5
73
4
0
VERTEX
8
OBJECT__96
10
0
20
0
30
0
70
128
71
12
72
18
73
10
0
VERTEX
8
OBJECT__96
10
0
20
0
30
0
70
128
71
8
72
13
73
6
0
VERTEX
8
OBJECT__96
10
0
20
0
30
0
70
128
71
3
72
9
73
1
0
SEQEND
8
OBJECT__96
0
POLYLINE
8
OBJECT__97
66
1
70
64
71
21
72
23
62
253
0
VERTEX
8
OBJECT__97
10
-2.223000
20
74.149002
30
319.303986
70
192
0
VERTEX
8
OBJECT__97
10
4.879000
20
74.141998
30
323.674011
70
192
0
VERTEX
8
OBJECT__97
10
5.269000
20
74.342003
30
321.806000
70
192
0
VERTEX
8
OBJECT__97
10
13.136000
20
74.141998
30
322.513000
70
192
0
VERTEX
8
OBJECT__97
10
12.246000
20
74.342003
30
320.825012
70
192
0
VERTEX
8
OBJECT__97
10
18.759001
20
74.149002
30
316.355011
70
192
0
VERTEX
8
OBJECT__97
10
16.997000
20
74.347000
30
315.622009
70
192
0
VERTEX
8
OBJECT__97
10
-0.628000
20
73.217003
30
322.153015
70
192
0
VERTEX
8
OBJECT__97
10
-3.545000
20
73.219002
30
320.359009
70
192
0
VERTEX
8
OBJECT__97
10
9.229000
20
73.211998
30
324.667999
70
192
0
VERTEX
8
OBJECT__97
10
4.533000
20
73.211998
30
325.328003
70
192
0
VERTEX
8
OBJECT__97
10
13.925000
20
73.211998
30
324.007996
70
192
0
VERTEX
8
OBJECT__97
10
18.011000
20
73.217003
30
319.532990
70
192
0
VERTEX
8
OBJECT__97
10
21.260000
20
73.227997
30
309.675995
70
192
0
VERTEX
8
OBJECT__97
10
19.584999
20
74.155998
30
309.911987
70
192
0
VERTEX
8
OBJECT__97
10
17.695000
20
74.352997
30
310.178009
70
192
0
VERTEX
8
OBJECT__97
10
-0.732000
20
74.347000
30
318.114014
70
192
0
VERTEX
8
OBJECT__97
10
-2.903000
20
74.352997
30
313.072998
70
192
0
VERTEX
8
OBJECT__97
10
-4.792000
20
74.155998
30
313.338013
70
192
0
VERTEX
8
OBJECT__97
10
-6.468000
20
73.227997
30
313.572998
70
192
0
VERTEX
8
OBJECT__97
10
20.320999
20
73.219002
30
317.003998
70
192
0
VERTEX
8
OBJECT__97
10
0
20
0
30
0
70
128
71
1
72
2
73
3
0
VERTEX
8
OBJECT__97
10
0
20
0
30
0
70
128
71
2
72
4
73
5
0
VERTEX
8
OBJECT__97
10
0
20
0
30
0
70
128
71
4
72
6
73
7
0
VERTEX
8
OBJECT__97
10
0
20
0
30
0
70
128
71
2
72
1
73
8
0
VERTEX
8
OBJECT__97
10
0
20
0
30
0
70
128
71
1
72
9
73
8
0
VERTEX
8
OBJECT__97
10
0
20
0
30
0
70
128
71
4
72
2
73
10
0
VERTEX
8
OBJECT__97
10
0
20
0
30
0
70
128
71
2
72
11
73
10
0
VERTEX
8
OBJECT__97
10
0
20
0
30
0
70
128
71
4
72
12
73
13
0
VERTEX
8
OBJECT__97
10
0
20
0
30
0
70
128
71
13
72
6
73
4
0
VERTEX
8
OBJECT__97
10
0
20
0
30
0
70
128
71
14
72
15
73
6
0
VERTEX
8
OBJECT__97
10
0
20
0
30
0
70
128
71
15
72
7
73
6
0
VERTEX
8
OBJECT__97
10
0
20
0
30
0
70
128
71
15
72
16
73
7
0
VERTEX
8
OBJECT__97
10
0
20
0
30
0
70
128
71
1
72
17
73
18
0
VERTEX
8
OBJECT__97
10
0
20
0
30
0
70
128
71
18
72
19
73
1
0
VERTEX
8
OBJECT__97
10
0
20
0
30
0
70
128
71
20
72
9
73
1
0
VERTEX
8
OBJECT__97
10
0
20
0
30
0
70
128
71
1
72
19
73
20
0
VERTEX
8
OBJECT__97
10
0
20
0
30
0
70
128
71
6
72
21
73
14
0
VERTEX
8
OBJECT__97
10
0
20
0
30
0
70
128
71
13
72
21
73
6
0
VERTEX
8
OBJECT__97
10
0
20
0
30
0
70
128
71
10
72
12
73
4
0
VERTEX
8
OBJECT__97
10
0
20
0
30
0
70
128
71
8
72
11
73
2
0
VERTEX
8
OBJECT__97
10
0
20
0
30
0
70
128
71
7
72
5
73
4
0
VERTEX
8
OBJECT__97
10
0
20
0
30
0
70
128
71
5
72
3
73
2
0
VERTEX
8
OBJECT__97
10
0
20
0
30
0
70
128
71
3
72
17
73
1
0
SEQEND
8
OBJECT__97
0
POLYLINE
8
OBJECT__98
66
1
70
64
71
10
72
8
62
253
0
VERTEX
8
OBJECT__98
10
-6.468000
20
73.227997
30
313.572998
70
192
0
VERTEX
8
OBJECT__98
10
-4.792000
20
74.155998
30
313.338013
70
192
0
VERTEX
8
OBJECT__98
10
-12.715000
20
73.926003
30
261.799011
70
192
0
VERTEX
8
OBJECT__98
10
-12.019000
20
74.083000
30
261.700989
70
192
0
VERTEX
8
OBJECT__98
10
-13.724000
20
73.290001
30
261.940002
70
192
0
VERTEX
8
OBJECT__98
10
-2.903000
20
74.352997
30
313.072998
70
192
0
VERTEX
8
OBJECT__98
10
-9.743000
20
74.412003
30
264.404999
70
192
0
VERTEX
8
OBJECT__98
10
-9.837000
20
74.412003
30
264.177002
70
192
0
VERTEX
8
OBJECT__98
10
-10.448000
20
74.413002
30
262.087006
70
192
0
VERTEX
8
OBJECT__98
10
-10.547000
20
74.414001
30
261.494995
70
192
0
VERTEX
8
OBJECT__98
10
0
20
0
30
0
70
128
71
1
72
2
73
3
0
VERTEX
8
OBJECT__98
10
0
20
0
30
0
70
128
71
2
72
4
73
3
0
VERTEX
8
OBJECT__98
10
0
20
0
30
0
70
128
71
3
72
5
73
1
0
VERTEX
8
OBJECT__98
10
0
20
0
30
0
70
128
71
2
72
6
73
7
0
VERTEX
8
OBJECT__98
10
0
20
0
30
0
70
128
71
7
72
4
73
2
0
VERTEX
8
OBJECT__98
10
0
20
0
30
0
70
128
71
7
72
8
73
4
0
VERTEX
8
OBJECT__98
10
0
20
0
30
0
70
128
71
8
72
9
73
4
0
VERTEX
8
OBJECT__98
10
0
20
0
30
0
70
128
71
9
72
10
73
4
0
SEQEND
8
OBJECT__98
0
POLYLINE
8
OBJECT__99
66
1
70
64
71
9
72
7
62
253
0
VERTEX
8
OBJECT__99
10
12.328000
20
74.218002
30
258.279999
70
192
0
VERTEX
8
OBJECT__99
10
19.584000
20
74.155998
30
309.911987
70
192
0
VERTEX
8
OBJECT__99
10
14.003000
20
73.290001
30
258.042999
70
192
0
VERTEX
8
OBJECT__99
10
12.962000
20
73.866997
30
258.190002
70
192
0
VERTEX
8
OBJECT__99
10
21.260000
20
73.227997
30
309.675995
70
192
0
VERTEX
8
OBJECT__99
10
10.855000
20
74.412003
30
261.510010
70
192
0
VERTEX
8
OBJECT__99
10
10.883000
20
74.412003
30
261.265015
70
192
0
VERTEX
8
OBJECT__99
10
10.826000
20
74.414001
30
258.490997
70
192
0
VERTEX
8
OBJECT__99
10
17.695000
20
74.352997
30
310.178009
70
192
0
VERTEX
8
OBJECT__99
10
0
20
0
30
0
70
128
71
2
72
3
73
4
0
VERTEX
8
OBJECT__99
10
0
20
0
30
0
70
128
71
2
72
4
73
1
0
VERTEX
8
OBJECT__99
10
0
20
0
30
0
70
128
71
2
72
5
73
3
0
VERTEX
8
OBJECT__99
10
0
20
0
30
0
70
128
71
2
72
1
73
6
0
VERTEX
8
OBJECT__99
10
0
20
0
30
0
70
128
71
1
72
7
73
6
0
VERTEX
8
OBJECT__99
10
0
20
0
30
0
70
128
71
1
72
8
73
7
0
VERTEX
8
OBJECT__99
10
0
20
0
30
0
70
128
71
6
72
9
73
2
0
SEQEND
8
OBJECT__99
0
POLYLINE
8
OBJECT__100
66
1
70
64
71
10
72
8
62
253
0
VERTEX
8
OBJECT__100
10
16.997000
20
74.347000
30
315.622009
70
192
0
VERTEX
8
OBJECT__100
10
-0.732000
20
74.347000
30
318.114014
70
192
0
VERTEX
8
OBJECT__100
10
5.269000
20
74.342003
30
321.806000
70
192
0
VERTEX
8
OBJECT__100
10
12.246000
20
74.342003
30
320.825012
70
192
0
VERTEX
8
OBJECT__100
10
17.695000
20
74.352997
30
310.178009
70
192
0
VERTEX
8
OBJECT__100
10
-2.903000
20
74.352997
30
313.072998
70
192
0
VERTEX
8
OBJECT__100
10
5.975000
20
74.403999
30
269.100006
70
192
0
VERTEX
8
OBJECT__100
10
-2.960000
20
74.403999
30
270.355011
70
192
0
VERTEX
8
OBJECT__100
10
10.855000
20
74.412003
30
261.510010
70
192
0
VERTEX
8
OBJECT__100
10
-9.743000
20
74.412003
30
264.404999
70
192
0
VERTEX
8
OBJECT__100
10
0
20
0
30
0
70
128
71
1
72
2
73
3
0
VERTEX
8
OBJECT__100
10
0
20
0
30
0
70
128
71
3
72
4
73
1
0
VERTEX
8
OBJECT__100
10
0
20
0
30
0
70
128
71
5
72
6
73
2
0
VERTEX
8
OBJECT__100
10
0
20
0
30
0
70
128
71
5
72
7
73
8
0
VERTEX
8
OBJECT__100
10
0
20
0
30
0
70
128
71
8
72
6
73
5
0
VERTEX
8
OBJECT__100
10
0
20
0
30
0
70
128
71
1
72
5
73
2
0
VERTEX
8
OBJECT__100
10
0
20
0
30
0
70
128
71
5
72
9
73
7
0
VERTEX
8
OBJECT__100
10
0
20
0
30
0
70
128
71
8
72
10
73
6
0
SEQEND
8
OBJECT__100
0
POLYLINE
8
OBJECT__101
66
1
70
64
71
20
72
20
62
253
0
VERTEX
8
OBJECT__101
10
0.000000
20
51.748001
30
274.243988
70
192
0
VERTEX
8
OBJECT__101
10
-8.373000
20
51.748001
30
271.523010
70
192
0
VERTEX
8
OBJECT__101
10
-9.584000
20
51.650002
30
273.190002
70
192
0
VERTEX
8
OBJECT__101
10
0.000000
20
51.650002
30
276.303986
70
192
0
VERTEX
8
OBJECT__101
10
-13.547000
20
51.748001
30
264.401001
70
192
0
VERTEX
8
OBJECT__101
10
-15.507000
20
51.650002
30
265.037994
70
192
0
VERTEX
8
OBJECT__101
10
-13.547000
20
51.748001
30
255.597000
70
192
0
VERTEX
8
OBJECT__101
10
-15.507000
20
51.650002
30
254.960999
70
192
0
VERTEX
8
OBJECT__101
10
-8.373000
20
51.748001
30
248.475006
70
192
0
VERTEX
8
OBJECT__101
10
-9.584000
20
51.650002
30
246.807999
70
192
0
VERTEX
8
OBJECT__101
10
0.000000
20
51.748001
30
245.755005
70
192
0
VERTEX
8
OBJECT__101
10
0.000000
20
51.650002
30
243.694000
70
192
0
VERTEX
8
OBJECT__101
10
8.373000
20
51.748001
30
248.475006
70
192
0
VERTEX
8
OBJECT__101
10
9.584000
20
51.650002
30
246.807999
70
192
0
VERTEX
8
OBJECT__101
10
13.547000
20
51.748001
30
255.597000
70
192
0
VERTEX
8
OBJECT__101
10
15.507000
20
51.650002
30
254.960999
70
192
0
VERTEX
8
OBJECT__101
10
13.547000
20
51.748001
30
264.401001
70
192
0
VERTEX
8
OBJECT__101
10
15.507000
20
51.650002
30
265.037994
70
192
0
VERTEX
8
OBJECT__101
10
8.373000
20
51.748001
30
271.523010
70
192
0
VERTEX
8
OBJECT__101
10
9.584000
20
51.650002
30
273.190002
70
192
0
VERTEX
8
OBJECT__101
10
0
20
0
30
0
70
128
71
1
72
2
73
3
0
VERTEX
8
OBJECT__101
10
0
20
0
30
0
70
128
71
1
72
3
73
4
0
VERTEX
8
OBJECT__101
10
0
20
0
30
0
70
128
71
2
72
5
73
6
0
VERTEX
8
OBJECT__101
10
0
20
0
30
0
70
128
71
2
72
6
73
3
0
VERTEX
8
OBJECT__101
10
0
20
0
30
0
70
128
71
5
72
7
73
8
0
VERTEX
8
OBJECT__101
10
0
20
0
30
0
70
128
71
5
72
8
73
6
0
VERTEX
8
OBJECT__101
10
0
20
0
30
0
70
128
71
7
72
9
73
10
0
VERTEX
8
OBJECT__101
10
0
20
0
30
0
70
128
71
7
72
10
73
8
0
VERTEX
8
OBJECT__101
10
0
20
0
30
0
70
128
71
9
72
11
73
12
0
VERTEX
8
OBJECT__101
10
0
20
0
30
0
70
128
71
9
72
12
73
10
0
VERTEX
8
OBJECT__101
10
0
20
0
30
0
70
128
71
11
72
13
73
14
0
VERTEX
8
OBJECT__101
10
0
20
0
30
0
70
128
71
11
72
14
73
12
0
VERTEX
8
OBJECT__101
10
0
20
0
30
0
70
128
71
13
72
15
73
16
0
VERTEX
8
OBJECT__101
10
0
20
0
30
0
70
128
71
13
72
16
73
14
0
VERTEX
8
OBJECT__101
10
0
20
0
30
0
70
128
71
15
72
17
73
18
0
VERTEX
8
OBJECT__101
10
0
20
0
30
0
70
128
71
15
72
18
73
16
0
VERTEX
8
OBJECT__101
10
0
20
0
30
0
70
128
71
17
72
19
73
20
0
VERTEX
8
OBJECT__101
10
0
20
0
30
0
70
128
71
17
72
20
73
18
0
VERTEX
8
OBJECT__101
10
0
20
0
30
0
70
128
71
19
72
1
73
4
0
VERTEX
8
OBJECT__101
10
0
20
0
30
0
70
128
71
19
72
4
73
20
0
SEQEND
8
OBJECT__101
0
POLYLINE
8
OBJECT__103
66
1
70
64
71
22
72
22
62
253
0
VERTEX
8
OBJECT__103
10
0.000000
20
-24.650000
30
5.776000
70
192
0
VERTEX
8
OBJECT__103
10
0.000000
20
-24.650000
30
4.500000
70
192
0
VERTEX
8
OBJECT__103
10
15.845000
20
-18.882999
30
4.500000
70
192
0
VERTEX
8
OBJECT__103
10
24.275999
20
-4.280000
30
4.500000
70
192
0
VERTEX
8
OBJECT__103
10
24.275999
20
-4.280000
30
5.776000
70
192
0
VERTEX
8
OBJECT__103
10
15.845000
20
-18.882999
30
5.776000
70
192
0
VERTEX
8
OBJECT__103
10
21.348000
20
12.325000
30
4.500000
70
192
0
VERTEX
8
OBJECT__103
10
21.348000
20
12.325000
30
5.776000
70
192
0
VERTEX
8
OBJECT__103
10
24.650000
20
0.000000
30
5.776000
70
192
0
VERTEX
8
OBJECT__103
10
8.431000
20
23.163000
30
4.500000
70
192
0
VERTEX
8
OBJECT__103
10
8.431000
20
23.163000
30
5.776000
70
192
0
VERTEX
8
OBJECT__103
10
-8.431000
20
23.163000
30
4.500000
70
192
0
VERTEX
8
OBJECT__103
10
-8.431000
20
23.163000
30
5.776000
70
192
0
VERTEX
8
OBJECT__103
10
0.000000
20
23.163000
30
5.776000
70
192
0
VERTEX
8
OBJECT__103
10
-21.348000
20
12.325000
30
5.776000
70
192
0
VERTEX
8
OBJECT__103
10
-24.275999
20
-4.280000
30
5.776000
70
192
0
VERTEX
8
OBJECT__103
10
-23.523001
20
-0.011000
30
5.776000
70
192
0
VERTEX
8
OBJECT__103
10
-24.650000
20
0.000000
30
4.500000
70
192
0
VERTEX
8
OBJECT__103
10
-21.348000
20
12.325000
30
4.500000
70
192
0
VERTEX
8
OBJECT__103
10
-15.845000
20
-18.882999
30
5.776000
70
192
0
VERTEX
8
OBJECT__103
10
-24.275999
20
-4.280000
30
4.500000
70
192
0
VERTEX
8
OBJECT__103
10
-15.845000
20
-18.882999
30
4.500000
70
192
0
VERTEX
8
OBJECT__103
10
0
20
0
30
0
70
128
71
1
72
2
73
3
0
VERTEX
8
OBJECT__103
10
0
20
0
30
0
70
128
71
4
72
5
73
6
0
VERTEX
8
OBJECT__103
10
0
20
0
30
0
70
128
71
7
72
8
73
9
0
VERTEX
8
OBJECT__103
10
0
20
0
30
0
70
128
71
9
72
4
73
7
0
VERTEX
8
OBJECT__103
10
0
20
0
30
0
70
128
71
10
72
11
73
8
0
VERTEX
8
OBJECT__103
10
0
20
0
30
0
70
128
71
12
72
13
73
14
0
VERTEX
8
OBJECT__103
10
0
20
0
30
0
70
128
71
14
72
10
73
12
0
VERTEX
8
OBJECT__103
10
0
20
0
30
0
70
128
71
15
72
13
73
12
0
VERTEX
8
OBJECT__103
10
0
20
0
30
0
70
128
71
16
72
17
73
18
0
VERTEX
8
OBJECT__103
10
0
20
0
30
0
70
128
71
19
72
18
73
17
0
VERTEX
8
OBJECT__103
10
0
20
0
30
0
70
128
71
17
72
15
73
19
0
VERTEX
8
OBJECT__103
10
0
20
0
30
0
70
128
71
20
72
16
73
21
0
VERTEX
8
OBJECT__103
10
0
20
0
30
0
70
128
71
2
72
1
73
20
0
VERTEX
8
OBJECT__103
10
0
20
0
30
0
70
128
71
20
72
22
73
2
0
VERTEX
8
OBJECT__103
10
0
20
0
30
0
70
128
71
21
72
22
73
20
0
VERTEX
8
OBJECT__103
10
0
20
0
30
0
70
128
71
18
72
21
73
16
0
VERTEX
8
OBJECT__103
10
0
20
0
30
0
70
128
71
12
72
19
73
15
0
VERTEX
8
OBJECT__103
10
0
20
0
30
0
70
128
71
14
72
11
73
10
0
VERTEX
8
OBJECT__103
10
0
20
0
30
0
70
128
71
8
72
7
73
10
0
VERTEX
8
OBJECT__103
10
0
20
0
30
0
70
128
71
9
72
5
73
4
0
VERTEX
8
OBJECT__103
10
0
20
0
30
0
70
128
71
6
72
3
73
4
0
VERTEX
8
OBJECT__103
10
0
20
0
30
0
70
128
71
3
72
6
73
1
0
SEQEND
8
OBJECT__103
0
POLYLINE
8
OBJECT__104
66
1
70
64
71
52
72
52
62
253
0
VERTEX
8
OBJECT__104
10
21.348000
20
12.325000
30
5.776000
70
192
0
VERTEX
8
OBJECT__104
10
18.031000
20
10.569000
30
6.654000
70
192
0
VERTEX
8
OBJECT__104
10
20.340000
20
4.807000
30
6.654000
70
192
0
VERTEX
8
OBJECT__104
10
8.431000
20
23.163000
30
5.776000
70
192
0
VERTEX
8
OBJECT__104
10
12.879000
20
16.459999
30
6.654000
70
192
0
VERTEX
8
OBJECT__104
10
13.516000
20
15.941000
30
6.654000
70
192
0
VERTEX
8
OBJECT__104
10
7.477000
20
19.517000
30
6.653000
70
192
0
VERTEX
8
OBJECT__104
10
17.601999
20
11.269000
30
6.654000
70
192
0
VERTEX
8
OBJECT__104
10
6.705000
20
19.795000
30
6.653000
70
192
0
VERTEX
8
OBJECT__104
10
0.000000
20
23.163000
30
5.776000
70
192
0
VERTEX
8
OBJECT__104
10
0.596000
20
20.892000
30
6.654000
70
192
0
VERTEX
8
OBJECT__104
10
24.650000
20
0.000000
30
5.776000
70
192
0
VERTEX
8
OBJECT__104
10
0.000000
20
20.896999
30
6.654000
70
192
0
VERTEX
8
OBJECT__104
10
20.513000
20
4.005000
30
6.654000
70
192
0
VERTEX
8
OBJECT__104
10
-8.431000
20
23.163000
30
5.776000
70
192
0
VERTEX
8
OBJECT__104
10
-6.353000
20
19.910999
30
6.653000
70
192
0
VERTEX
8
OBJECT__104
10
-21.348000
20
12.325000
30
5.776000
70
192
0
VERTEX
8
OBJECT__104
10
-13.231000
20
16.179001
30
6.654000
70
192
0
VERTEX
8
OBJECT__104
10
-23.523001
20
-0.011000
30
5.776000
70
192
0
VERTEX
8
OBJECT__104
10
-20.438000
20
4.368000
30
6.654000
70
192
0
VERTEX
8
OBJECT__104
10
-20.250999
20
5.167000
30
6.654000
70
192
0
VERTEX
8
OBJECT__104
10
-20.900000
20
0.000000
30
6.654000
70
192
0
VERTEX
8
OBJECT__104
10
-17.841000
20
10.887000
30
6.654000
70
192
0
VERTEX
8
OBJECT__104
10
-17.399000
20
11.579000
30
6.654000
70
192
0
VERTEX
8
OBJECT__104
10
-12.586000
20
16.686001
30
6.653000
70
192
0
VERTEX
8
OBJECT__104
10
-7.130000
20
19.646000
30
6.653000
70
192
0
VERTEX
8
OBJECT__104
10
-0.225000
20
20.899000
30
6.654000
70
192
0
VERTEX
8
OBJECT__104
10
-24.275999
20
-4.280000
30
5.776000
70
192
0
VERTEX
8
OBJECT__104
10
-15.845000
20
-18.882999
30
5.776000
70
192
0
VERTEX
8
OBJECT__104
10
-16.820000
20
-12.405000
30
6.654000
70
192
0
VERTEX
8
OBJECT__104
10
0.000000
20
-24.650000
30
5.776000
70
192
0
VERTEX
8
OBJECT__104
10
-5.385000
20
-20.194000
30
6.654000
70
192
0
VERTEX
8
OBJECT__104
10
-11.079000
20
-17.722000
30
6.653000
70
192
0
VERTEX
8
OBJECT__104
10
-11.766000
20
-17.273001
30
6.653000
70
192
0
VERTEX
8
OBJECT__104
10
-16.320000
20
-13.056000
30
6.654000
70
192
0
VERTEX
8
OBJECT__104
10
-4.588000
20
-20.389999
30
6.654000
70
192
0
VERTEX
8
OBJECT__104
10
-19.722000
20
-6.918000
30
6.654000
70
192
0
VERTEX
8
OBJECT__104
10
-19.978001
20
-6.138000
30
6.654000
70
192
0
VERTEX
8
OBJECT__104
10
0.000000
20
-20.722000
30
6.654000
70
192
0
VERTEX
8
OBJECT__104
10
15.845000
20
-18.882999
30
5.776000
70
192
0
VERTEX
8
OBJECT__104
10
8.410000
20
-19.132999
30
6.653000
70
192
0
VERTEX
8
OBJECT__104
10
24.275999
20
-4.280000
30
5.776000
70
192
0
VERTEX
8
OBJECT__104
10
18.520000
20
-9.687000
30
6.654000
70
192
0
VERTEX
8
OBJECT__104
10
18.886000
20
-8.952000
30
6.654000
70
192
0
VERTEX
8
OBJECT__104
10
20.681999
20
-3.011000
30
6.654000
70
192
0
VERTEX
8
OBJECT__104
10
14.858000
20
-14.699000
30
6.654000
70
192
0
VERTEX
8
OBJECT__104
10
20.784000
20
-2.196000
30
6.654000
70
192
0
VERTEX
8
OBJECT__104
10
14.269000
20
-15.271000
30
6.654000
70
192
0
VERTEX
8
OBJECT__104
10
9.155000
20
-18.788000
30
6.653000
70
192
0
VERTEX
8
OBJECT__104
10
20.688000
20
0.000000
30
6.654000
70
192
0
VERTEX
8
OBJECT__104
10
2.420000
20
-20.759001
30
6.654000
70
192
0
VERTEX
8
OBJECT__104
10
1.603000
20
-20.837999
30
6.654000
70
192
0
VERTEX
8
OBJECT__104
10
0
20
0
30
0
70
128
71
1
72
2
73
3
0
VERTEX
8
OBJECT__104
10
0
20
0
30
0
70
128
71
4
72
5
73
6
0
VERTEX
8
OBJECT__104
10
0
20
0
30
0
70
128
71
6
72
1
73
4
0
VERTEX
8
OBJECT__104
10
0
20
0
30
0
70
128
71
4
72
7
73
5
0
VERTEX
8
OBJECT__104
10
0
20
0
30
0
70
128
71
6
72
8
73
1
0
VERTEX
8
OBJECT__104
10
0
20
0
30
0
70
128
71
4
72
9
73
7
0
VERTEX
8
OBJECT__104
10
0
20
0
30
0
70
128
71
8
72
2
73
1
0
VERTEX
8
OBJECT__104
10
0
20
0
30
0
70
128
71
4
72
10
73
11
0
VERTEX
8
OBJECT__104
10
0
20
0
30
0
70
128
71
11
72
9
73
4
0
VERTEX
8
OBJECT__104
10
0
20
0
30
0
70
128
71
3
72
12
73
1
0
VERTEX
8
OBJECT__104
10
0
20
0
30
0
70
128
71
10
72
13
73
11
0
VERTEX
8
OBJECT__104
10
0
20
0
30
0
70
128
71
3
72
14
73
12
0
VERTEX
8
OBJECT__104
10
0
20
0
30
0
70
128
71
10
72
15
73
16
0
VERTEX
8
OBJECT__104
10
0
20
0
30
0
70
128
71
15
72
17
73
18
0
VERTEX
8
OBJECT__104
10
0
20
0
30
0
70
128
71
19
72
20
73
21
0
VERTEX
8
OBJECT__104
10
0
20
0
30
0
70
128
71
19
72
22
73
20
0
VERTEX
8
OBJECT__104
10
0
20
0
30
0
70
128
71
21
72
17
73
19
0
VERTEX
8
OBJECT__104
10
0
20
0
30
0
70
128
71
21
72
23
73
17
0
VERTEX
8
OBJECT__104
10
0
20
0
30
0
70
128
71
23
72
24
73
17
0
VERTEX
8
OBJECT__104
10
0
20
0
30
0
70
128
71
24
72
18
73
17
0
VERTEX
8
OBJECT__104
10
0
20
0
30
0
70
128
71
18
72
25
73
15
0
VERTEX
8
OBJECT__104
10
0
20
0
30
0
70
128
71
25
72
26
73
15
0
VERTEX
8
OBJECT__104
10
0
20
0
30
0
70
128
71
26
72
16
73
15
0
VERTEX
8
OBJECT__104
10
0
20
0
30
0
70
128
71
16
72
27
73
10
0
VERTEX
8
OBJECT__104
10
0
20
0
30
0
70
128
71
22
72
19
73
28
0
VERTEX
8
OBJECT__104
10
0
20
0
30
0
70
128
71
28
72
29
73
30
0
VERTEX
8
OBJECT__104
10
0
20
0
30
0
70
128
71
29
72
31
73
32
0
VERTEX
8
OBJECT__104
10
0
20
0
30
0
70
128
71
32
72
33
73
29
0
VERTEX
8
OBJECT__104
10
0
20
0
30
0
70
128
71
33
72
34
73
29
0
VERTEX
8
OBJECT__104
10
0
20
0
30
0
70
128
71
34
72
35
73
29
0
VERTEX
8
OBJECT__104
10
0
20
0
30
0
70
128
71
35
72
30
73
29
0
VERTEX
8
OBJECT__104
10
0
20
0
30
0
70
128
71
31
72
36
73
32
0
VERTEX
8
OBJECT__104
10
0
20
0
30
0
70
128
71
30
72
37
73
28
0
VERTEX
8
OBJECT__104
10
0
20
0
30
0
70
128
71
37
72
38
73
28
0
VERTEX
8
OBJECT__104
10
0
20
0
30
0
70
128
71
31
72
39
73
36
0
VERTEX
8
OBJECT__104
10
0
20
0
30
0
70
128
71
31
72
40
73
41
0
VERTEX
8
OBJECT__104
10
0
20
0
30
0
70
128
71
40
72
42
73
43
0
VERTEX
8
OBJECT__104
10
0
20
0
30
0
70
128
71
42
72
44
73
43
0
VERTEX
8
OBJECT__104
10
0
20
0
30
0
70
128
71
42
72
45
73
44
0
VERTEX
8
OBJECT__104
10
0
20
0
30
0
70
128
71
43
72
46
73
40
0
VERTEX
8
OBJECT__104
10
0
20
0
30
0
70
128
71
42
72
47
73
45
0
VERTEX
8
OBJECT__104
10
0
20
0
30
0
70
128
71
46
72
48
73
40
0
VERTEX
8
OBJECT__104
10
0
20
0
30
0
70
128
71
48
72
49
73
40
0
VERTEX
8
OBJECT__104
10
0
20
0
30
0
70
128
71
49
72
41
73
40
0
VERTEX
8
OBJECT__104
10
0
20
0
30
0
70
128
71
12
72
50
73
47
0
VERTEX
8
OBJECT__104
10
0
20
0
30
0
70
128
71
47
72
42
73
12
0
VERTEX
8
OBJECT__104
10
0
20
0
30
0
70
128
71
41
72
51
73
31
0
VERTEX
8
OBJECT__104
10
0
20
0
30
0
70
128
71
51
72
52
73
31
0
VERTEX
8
OBJECT__104
10
0
20
0
30
0
70
128
71
52
72
39
73
31
0
VERTEX
8
OBJECT__104
10
0
20
0
30
0
70
128
71
28
72
38
73
22
0
VERTEX
8
OBJECT__104
10
0
20
0
30
0
70
128
71
27
72
13
73
10
0
VERTEX
8
OBJECT__104
10
0
20
0
30
0
70
128
71
14
72
50
73
12
0
SEQEND
8
OBJECT__104
0
ENDSEC
0
EOF
