999
Converted by 3D Exploration 
999
XDimension Software, LLC
999
http://www.xdsoft.com/explorer/
0
SECTION
2
HEADER
9
$ACADVER
1
AC1008
9
$UCSORG
10
0.0
20
0.0
30
0.0
9
$UCSXDIR
10
1.0
20
0.0
30
0.0
9
$TILEMODE
70
1
9
$UCSYDIR
10
0.0
20
1.0
30
0.0
9
$EXTMIN
10
-0.725000
20
-94.154999
30
-94.154999
9
$EXTMAX
10
72.500999
20
94.250000
30
94.250000
0
ENDSEC
0
SECTION
2
TABLES
0
TABLE
2
LTYPE
70
1
0
LTYPE
2
CONTINUOUS
70
64
3
Solid line
72
65
73
0
40
0.0
0
ENDTAB
0
TABLE
2
LAYER
70
54
0
LAYER
2
OBJECT__0
70
0
62
253
6
CONTINUOUS
0
LAYER
2
OBJECT__2
70
0
62
253
6
CONTINUOUS
0
LAYER
2
OBJECT__3
70
0
62
253
6
CONTINUOUS
0
LAYER
2
OBJECT__5
70
0
62
253
6
CONTINUOUS
0
LAYER
2
OBJECT__6
70
0
62
253
6
CONTINUOUS
0
LAYER
2
OBJECT__7
70
0
62
253
6
CONTINUOUS
0
LAYER
2
OBJECT__8
70
0
62
253
6
CONTINUOUS
0
LAYER
2
OBJECT__10
70
0
62
253
6
CONTINUOUS
0
LAYER
2
OBJECT__11
70
0
62
253
6
CONTINUOUS
0
LAYER
2
OBJECT__12
70
0
62
253
6
CONTINUOUS
0
LAYER
2
OBJECT__14
70
0
62
253
6
CONTINUOUS
0
LAYER
2
OBJECT__15
70
0
62
253
6
CONTINUOUS
0
LAYER
2
OBJECT__17
70
0
62
253
6
CONTINUOUS
0
LAYER
2
OBJECT__18
70
0
62
253
6
CONTINUOUS
0
LAYER
2
OBJECT__19
70
0
62
253
6
CONTINUOUS
0
LAYER
2
OBJECT__20
70
0
62
253
6
CONTINUOUS
0
LAYER
2
OBJECT__21
70
0
62
253
6
CONTINUOUS
0
LAYER
2
OBJECT__22
70
0
62
253
6
CONTINUOUS
0
LAYER
2
OBJECT__23
70
0
62
253
6
CONTINUOUS
0
LAYER
2
OBJECT__24
70
0
62
253
6
CONTINUOUS
0
LAYER
2
OBJECT__25
70
0
62
253
6
CONTINUOUS
0
LAYER
2
OBJECT__26
70
0
62
253
6
CONTINUOUS
0
LAYER
2
OBJECT__27
70
0
62
253
6
CONTINUOUS
0
LAYER
2
OBJECT__28
70
0
62
253
6
CONTINUOUS
0
LAYER
2
OBJECT__29
70
0
62
253
6
CONTINUOUS
0
LAYER
2
OBJECT__30
70
0
62
253
6
CONTINUOUS
0
LAYER
2
OBJECT__31
70
0
62
253
6
CONTINUOUS
0
LAYER
2
OBJECT__32
70
0
62
253
6
CONTINUOUS
0
LAYER
2
OBJECT__33
70
0
62
253
6
CONTINUOUS
0
LAYER
2
OBJECT__34
70
0
62
253
6
CONTINUOUS
0
LAYER
2
OBJECT__36
70
0
62
253
6
CONTINUOUS
0
LAYER
2
OBJECT__37
70
0
62
253
6
CONTINUOUS
0
LAYER
2
OBJECT__39
70
0
62
253
6
CONTINUOUS
0
LAYER
2
OBJECT__40
70
0
62
253
6
CONTINUOUS
0
LAYER
2
OBJECT__41
70
0
62
253
6
CONTINUOUS
0
LAYER
2
OBJECT__42
70
0
62
253
6
CONTINUOUS
0
LAYER
2
OBJECT__43
70
0
62
253
6
CONTINUOUS
0
LAYER
2
OBJECT__44
70
0
62
253
6
CONTINUOUS
0
LAYER
2
OBJECT__45
70
0
62
253
6
CONTINUOUS
0
LAYER
2
OBJECT__46
70
0
62
253
6
CONTINUOUS
0
LAYER
2
OBJECT__47
70
0
62
253
6
CONTINUOUS
0
LAYER
2
OBJECT__49
70
0
62
253
6
CONTINUOUS
0
LAYER
2
OBJECT__50
70
0
62
253
6
CONTINUOUS
0
LAYER
2
OBJECT__51
70
0
62
253
6
CONTINUOUS
0
LAYER
2
OBJECT__52
70
0
62
253
6
CONTINUOUS
0
ENDTAB
0
TABLE
2
STYLE
70
1
0
STYLE
2
STANDARD
70
0
40
0.0
41
1.0
50
0.0
71
0
42
0.2
3
txt
4
1
0
ENDTAB
0
TABLE
2
UCS
70
0
0
ENDTAB
0
ENDSEC
0
SECTION
2
ENTITIES
0
POLYLINE
8
OBJECT__0
66
1
70
64
71
10
72
10
62
253
0
VERTEX
8
OBJECT__0
10
22.725000
20
-2.520000
30
-59.144001
70
192
0
VERTEX
8
OBJECT__0
10
22.725000
20
-4.720000
30
-53.882999
70
192
0
VERTEX
8
OBJECT__0
10
8.025000
20
-4.720000
30
-53.882999
70
192
0
VERTEX
8
OBJECT__0
10
8.025000
20
-2.520000
30
-59.144001
70
192
0
VERTEX
8
OBJECT__0
10
22.725000
20
-0.397000
30
-50.166000
70
192
0
VERTEX
8
OBJECT__0
10
8.025000
20
-0.397000
30
-50.166000
70
192
0
VERTEX
8
OBJECT__0
10
22.725000
20
4.475000
30
-53.129002
70
192
0
VERTEX
8
OBJECT__0
10
8.025000
20
4.475000
30
-53.129002
70
192
0
VERTEX
8
OBJECT__0
10
22.725000
20
3.162000
30
-58.676998
70
192
0
VERTEX
8
OBJECT__0
10
8.025000
20
3.162000
30
-58.676998
70
192
0
VERTEX
8
OBJECT__0
10
0
20
0
30
0
70
128
71
1
72
2
73
3
0
VERTEX
8
OBJECT__0
10
0
20
0
30
0
70
128
71
1
72
3
73
4
0
VERTEX
8
OBJECT__0
10
0
20
0
30
0
70
128
71
2
72
5
73
6
0
VERTEX
8
OBJECT__0
10
0
20
0
30
0
70
128
71
2
72
6
73
3
0
VERTEX
8
OBJECT__0
10
0
20
0
30
0
70
128
71
5
72
7
73
8
0
VERTEX
8
OBJECT__0
10
0
20
0
30
0
70
128
71
5
72
8
73
6
0
VERTEX
8
OBJECT__0
10
0
20
0
30
0
70
128
71
7
72
9
73
10
0
VERTEX
8
OBJECT__0
10
0
20
0
30
0
70
128
71
7
72
10
73
8
0
VERTEX
8
OBJECT__0
10
0
20
0
30
0
70
128
71
9
72
1
73
4
0
VERTEX
8
OBJECT__0
10
0
20
0
30
0
70
128
71
9
72
4
73
10
0
SEQEND
8
OBJECT__0
0
POLYLINE
8
OBJECT__2
66
1
70
64
71
146
72
146
62
253
0
VERTEX
8
OBJECT__2
10
45.784000
20
14.624000
30
15.220000
70
192
0
VERTEX
8
OBJECT__2
10
45.779999
20
11.545000
30
17.736000
70
192
0
VERTEX
8
OBJECT__2
10
45.487000
20
11.419000
30
17.385000
70
192
0
VERTEX
8
OBJECT__2
10
45.487000
20
11.206000
30
17.495001
70
192
0
VERTEX
8
OBJECT__2
10
45.780998
20
11.405000
30
17.806999
70
192
0
VERTEX
8
OBJECT__2
10
45.490002
20
20.799999
30
0.107000
70
192
0
VERTEX
8
OBJECT__2
10
45.491001
20
20.419001
30
-3.665000
70
192
0
VERTEX
8
OBJECT__2
10
45.785000
20
21.004000
30
-2.580000
70
192
0
VERTEX
8
OBJECT__2
10
45.785000
20
20.737000
30
-3.713000
70
192
0
VERTEX
8
OBJECT__2
10
45.784000
20
21.127001
30
0.402000
70
192
0
VERTEX
8
OBJECT__2
10
45.490002
20
20.768000
30
0.395000
70
192
0
VERTEX
8
OBJECT__2
10
45.784000
20
21.162001
30
0.086000
70
192
0
VERTEX
8
OBJECT__2
10
45.491001
20
-3.657000
30
-20.409000
70
192
0
VERTEX
8
OBJECT__2
10
45.490002
20
-6.000000
30
-19.916000
70
192
0
VERTEX
8
OBJECT__2
10
45.785000
20
-4.149000
30
-20.752001
70
192
0
VERTEX
8
OBJECT__2
10
45.785000
20
-3.731000
30
-20.794001
70
192
0
VERTEX
8
OBJECT__2
10
45.782001
20
-7.697000
30
-19.665001
70
192
0
VERTEX
8
OBJECT__2
10
45.487999
20
-11.168000
30
-17.441000
70
192
0
VERTEX
8
OBJECT__2
10
45.780998
20
-11.408000
30
-17.813999
70
192
0
VERTEX
8
OBJECT__2
10
45.780998
20
-10.387000
30
-18.353001
70
192
0
VERTEX
8
OBJECT__2
10
45.780998
20
-8.179000
30
-19.518000
70
192
0
VERTEX
8
OBJECT__2
10
45.487999
20
-7.546000
30
-19.290001
70
192
0
VERTEX
8
OBJECT__2
10
45.487000
20
-9.545000
30
-18.480000
70
192
0
VERTEX
8
OBJECT__2
10
45.784000
20
-14.623000
30
-15.219000
70
192
0
VERTEX
8
OBJECT__2
10
45.779999
20
-11.497000
30
-17.767000
70
192
0
VERTEX
8
OBJECT__2
10
45.487999
20
-12.801000
30
-16.393999
70
192
0
VERTEX
8
OBJECT__2
10
45.491001
20
-16.981001
30
-11.821000
70
192
0
VERTEX
8
OBJECT__2
10
45.784000
20
-17.305000
30
-12.037000
70
192
0
VERTEX
8
OBJECT__2
10
45.784000
20
-16.580999
30
-12.952000
70
192
0
VERTEX
8
OBJECT__2
10
45.784000
20
-15.083000
30
-14.844000
70
192
0
VERTEX
8
OBJECT__2
10
45.490002
20
-14.324000
30
-14.916000
70
192
0
VERTEX
8
OBJECT__2
10
45.492001
20
-16.004999
30
-13.284000
70
192
0
VERTEX
8
OBJECT__2
10
45.782001
20
-19.313000
30
-8.446000
70
192
0
VERTEX
8
OBJECT__2
10
45.784000
20
-17.909000
30
-11.275000
70
192
0
VERTEX
8
OBJECT__2
10
45.488998
20
-18.417000
30
-9.668000
70
192
0
VERTEX
8
OBJECT__2
10
45.487999
20
-20.219999
30
-4.435000
70
192
0
VERTEX
8
OBJECT__2
10
45.780998
20
-20.570000
30
-4.506000
70
192
0
VERTEX
8
OBJECT__2
10
45.780998
20
-20.280001
30
-5.625000
70
192
0
VERTEX
8
OBJECT__2
10
45.487000
20
-19.914000
30
-6.005000
70
192
0
VERTEX
8
OBJECT__2
10
45.780998
20
-19.806999
30
-7.451000
70
192
0
VERTEX
8
OBJECT__2
10
45.487999
20
-18.974001
30
-8.305000
70
192
0
VERTEX
8
OBJECT__2
10
45.490002
20
-20.792000
30
-0.420000
70
192
0
VERTEX
8
OBJECT__2
10
45.784000
20
-21.056000
30
-0.423000
70
192
0
VERTEX
8
OBJECT__2
10
45.783001
20
-21.004999
30
-1.557000
70
192
0
VERTEX
8
OBJECT__2
10
45.488998
20
-20.712000
30
-1.910000
70
192
0
VERTEX
8
OBJECT__2
10
45.780998
20
-20.934999
30
-3.096000
70
192
0
VERTEX
8
OBJECT__2
10
45.491001
20
-20.372000
30
3.648000
70
192
0
VERTEX
8
OBJECT__2
10
45.785000
20
-20.743000
30
3.715000
70
192
0
VERTEX
8
OBJECT__2
10
45.785000
20
-21.004000
30
2.580000
70
192
0
VERTEX
8
OBJECT__2
10
45.490002
20
-20.798000
30
-0.314000
70
192
0
VERTEX
8
OBJECT__2
10
45.492001
20
-20.670000
30
2.319000
70
192
0
VERTEX
8
OBJECT__2
10
45.785000
20
-21.129000
30
1.181000
70
192
0
VERTEX
8
OBJECT__2
10
45.782001
20
-19.645000
30
7.681000
70
192
0
VERTEX
8
OBJECT__2
10
45.782001
20
-20.018999
30
6.862000
70
192
0
VERTEX
8
OBJECT__2
10
45.488998
20
-19.677999
30
6.740000
70
192
0
VERTEX
8
OBJECT__2
10
45.780998
20
-17.761000
30
11.368000
70
192
0
VERTEX
8
OBJECT__2
10
45.779999
20
-18.292000
30
10.642000
70
192
0
VERTEX
8
OBJECT__2
10
45.487000
20
-17.802999
30
10.756000
70
192
0
VERTEX
8
OBJECT__2
10
45.487999
20
-19.302000
30
7.546000
70
192
0
VERTEX
8
OBJECT__2
10
45.779999
20
-18.396999
30
10.412000
70
192
0
VERTEX
8
OBJECT__2
10
45.487000
20
-17.476000
30
11.187000
70
192
0
VERTEX
8
OBJECT__2
10
45.490002
20
-15.155000
30
14.246000
70
192
0
VERTEX
8
OBJECT__2
10
45.783001
20
-15.679000
30
14.213000
70
192
0
VERTEX
8
OBJECT__2
10
45.783001
20
-15.228000
30
14.620000
70
192
0
VERTEX
8
OBJECT__2
10
45.785000
20
-12.064000
30
17.329000
70
192
0
VERTEX
8
OBJECT__2
10
45.785000
20
-12.564000
30
17.028999
70
192
0
VERTEX
8
OBJECT__2
10
45.492001
20
-12.260000
30
16.802999
70
192
0
VERTEX
8
OBJECT__2
10
45.490002
20
-14.989000
30
14.393000
70
192
0
VERTEX
8
OBJECT__2
10
45.785000
20
-12.994000
30
16.639999
70
192
0
VERTEX
8
OBJECT__2
10
45.491001
20
-11.859000
30
17.033001
70
192
0
VERTEX
8
OBJECT__2
10
45.487999
20
-8.337000
30
19.052999
70
192
0
VERTEX
8
OBJECT__2
10
45.782001
20
-9.098000
30
19.107000
70
192
0
VERTEX
8
OBJECT__2
10
45.782001
20
-8.464000
30
19.334000
70
192
0
VERTEX
8
OBJECT__2
10
45.487000
20
-4.443000
30
20.243000
70
192
0
VERTEX
8
OBJECT__2
10
45.780998
20
-4.525000
30
20.618000
70
192
0
VERTEX
8
OBJECT__2
10
45.779999
20
-5.123000
30
20.533001
70
192
0
VERTEX
8
OBJECT__2
10
45.487999
20
-8.315000
30
19.066000
70
192
0
VERTEX
8
OBJECT__2
10
45.487000
20
-5.276000
30
20.120001
70
192
0
VERTEX
8
OBJECT__2
10
45.780998
20
-5.638000
30
20.348000
70
192
0
VERTEX
8
OBJECT__2
10
45.783001
20
-0.429000
30
21.125000
70
192
0
VERTEX
8
OBJECT__2
10
45.783001
20
-0.786000
30
21.148001
70
192
0
VERTEX
8
OBJECT__2
10
45.490002
20
-0.759000
30
20.785999
70
192
0
VERTEX
8
OBJECT__2
10
45.785000
20
3.729000
30
20.811001
70
192
0
VERTEX
8
OBJECT__2
10
45.785000
20
3.516000
30
20.868000
70
192
0
VERTEX
8
OBJECT__2
10
45.492001
20
3.508000
30
20.502001
70
192
0
VERTEX
8
OBJECT__2
10
45.490002
20
-0.422000
30
20.764000
70
192
0
VERTEX
8
OBJECT__2
10
45.785000
20
2.576000
30
20.929001
70
192
0
VERTEX
8
OBJECT__2
10
45.492001
20
3.666000
30
20.458000
70
192
0
VERTEX
8
OBJECT__2
10
45.487999
20
7.534000
30
19.388000
70
192
0
VERTEX
8
OBJECT__2
10
45.782001
20
7.516000
30
19.783001
70
192
0
VERTEX
8
OBJECT__2
10
45.782001
20
7.701000
30
19.688999
70
192
0
VERTEX
8
OBJECT__2
10
45.487999
20
7.576000
30
19.365999
70
192
0
VERTEX
8
OBJECT__2
10
45.780998
20
10.377000
30
18.329000
70
192
0
VERTEX
8
OBJECT__2
10
45.491001
20
14.808000
30
14.607000
70
192
0
VERTEX
8
OBJECT__2
10
45.491001
20
17.017000
30
11.837000
70
192
0
VERTEX
8
OBJECT__2
10
45.785000
20
16.608000
30
12.972000
70
192
0
VERTEX
8
OBJECT__2
10
45.785000
20
17.344000
30
12.068000
70
192
0
VERTEX
8
OBJECT__2
10
45.490002
20
14.375000
30
14.962000
70
192
0
VERTEX
8
OBJECT__2
10
45.784000
20
15.081000
30
14.846000
70
192
0
VERTEX
8
OBJECT__2
10
45.782001
20
19.351000
30
8.464000
70
192
0
VERTEX
8
OBJECT__2
10
45.785000
20
17.590000
30
11.766000
70
192
0
VERTEX
8
OBJECT__2
10
45.491001
20
17.535999
30
11.186000
70
192
0
VERTEX
8
OBJECT__2
10
45.487000
20
20.316000
30
4.461000
70
192
0
VERTEX
8
OBJECT__2
10
45.487000
20
20.320999
30
4.440000
70
192
0
VERTEX
8
OBJECT__2
10
45.779999
20
20.674000
30
4.518000
70
192
0
VERTEX
8
OBJECT__2
10
45.779999
20
20.673000
30
4.524000
70
192
0
VERTEX
8
OBJECT__2
10
45.487000
20
20.306999
30
4.504000
70
192
0
VERTEX
8
OBJECT__2
10
45.487000
20
20.226999
30
4.847000
70
192
0
VERTEX
8
OBJECT__2
10
45.780998
20
20.327000
30
5.634000
70
192
0
VERTEX
8
OBJECT__2
10
45.780998
20
19.572001
30
8.048000
70
192
0
VERTEX
8
OBJECT__2
10
45.487000
20
19.489000
30
7.268000
70
192
0
VERTEX
8
OBJECT__2
10
45.487999
20
18.975000
30
8.299000
70
192
0
VERTEX
8
OBJECT__2
10
45.782001
20
19.947001
30
-7.070000
70
192
0
VERTEX
8
OBJECT__2
10
45.491001
20
20.358000
30
-4.265000
70
192
0
VERTEX
8
OBJECT__2
10
45.487999
20
19.297001
30
-7.554000
70
192
0
VERTEX
8
OBJECT__2
10
45.782001
20
19.657000
30
-7.687000
70
192
0
VERTEX
8
OBJECT__2
10
45.779999
20
18.382999
30
-10.406000
70
192
0
VERTEX
8
OBJECT__2
10
45.487000
20
19.014999
30
-8.430000
70
192
0
VERTEX
8
OBJECT__2
10
45.487999
20
17.434999
30
-11.170000
70
192
0
VERTEX
8
OBJECT__2
10
45.780998
20
17.770000
30
-11.373000
70
192
0
VERTEX
8
OBJECT__2
10
45.779999
20
18.197001
30
-10.804000
70
192
0
VERTEX
8
OBJECT__2
10
45.783001
20
15.460000
30
-14.451000
70
192
0
VERTEX
8
OBJECT__2
10
45.487999
20
16.820000
30
-12.236000
70
192
0
VERTEX
8
OBJECT__2
10
45.490002
20
14.926000
30
-14.340000
70
192
0
VERTEX
8
OBJECT__2
10
45.784000
20
15.245000
30
-14.638000
70
192
0
VERTEX
8
OBJECT__2
10
45.492001
20
12.810000
30
-16.386999
70
192
0
VERTEX
8
OBJECT__2
10
45.491001
20
11.840000
30
-17.007999
70
192
0
VERTEX
8
OBJECT__2
10
45.785000
20
12.158000
30
-17.320999
70
192
0
VERTEX
8
OBJECT__2
10
45.785000
20
12.084000
30
-17.362000
70
192
0
VERTEX
8
OBJECT__2
10
45.785000
20
12.972000
30
-16.613001
70
192
0
VERTEX
8
OBJECT__2
10
45.491001
20
13.925000
30
-15.451000
70
192
0
VERTEX
8
OBJECT__2
10
45.488998
20
9.533000
30
-18.487000
70
192
0
VERTEX
8
OBJECT__2
10
45.782001
20
8.465000
30
-19.353001
70
192
0
VERTEX
8
OBJECT__2
10
45.487999
20
4.439000
30
-20.225000
70
192
0
VERTEX
8
OBJECT__2
10
45.780998
20
4.523000
30
-20.639999
70
192
0
VERTEX
8
OBJECT__2
10
45.780998
20
5.627000
30
-20.302999
70
192
0
VERTEX
8
OBJECT__2
10
45.487000
20
5.669000
30
-20.013000
70
192
0
VERTEX
8
OBJECT__2
10
45.780998
20
8.119000
30
-19.542999
70
192
0
VERTEX
8
OBJECT__2
10
45.488998
20
8.305000
30
-18.972000
70
192
0
VERTEX
8
OBJECT__2
10
45.780998
20
4.173000
30
-20.747000
70
192
0
VERTEX
8
OBJECT__2
10
45.488998
20
1.376000
30
-20.754999
70
192
0
VERTEX
8
OBJECT__2
10
45.784000
20
0.423000
30
-21.114000
70
192
0
VERTEX
8
OBJECT__2
10
45.785000
20
-2.571000
30
-20.910999
70
192
0
VERTEX
8
OBJECT__2
10
45.492001
20
-2.536000
30
-20.643999
70
192
0
VERTEX
8
OBJECT__2
10
45.784000
20
-0.072000
30
-21.162001
70
192
0
VERTEX
8
OBJECT__2
10
45.490002
20
0.422000
30
-20.728001
70
192
0
VERTEX
8
OBJECT__2
10
0
20
0
30
0
70
128
71
1
72
2
73
3
0
VERTEX
8
OBJECT__2
10
0
20
0
30
0
70
128
71
4
72
3
73
2
0
VERTEX
8
OBJECT__2
10
0
20
0
30
0
70
128
71
2
72
5
73
4
0
VERTEX
8
OBJECT__2
10
0
20
0
30
0
70
128
71
6
72
7
73
8
0
VERTEX
8
OBJECT__2
10
0
20
0
30
0
70
128
71
7
72
9
73
8
0
VERTEX
8
OBJECT__2
10
0
20
0
30
0
70
128
71
10
72
11
73
6
0
VERTEX
8
OBJECT__2
10
0
20
0
30
0
70
128
71
6
72
12
73
10
0
VERTEX
8
OBJECT__2
10
0
20
0
30
0
70
128
71
13
72
14
73
15
0
VERTEX
8
OBJECT__2
10
0
20
0
30
0
70
128
71
15
72
16
73
13
0
VERTEX
8
OBJECT__2
10
0
20
0
30
0
70
128
71
14
72
17
73
15
0
VERTEX
8
OBJECT__2
10
0
20
0
30
0
70
128
71
18
72
19
73
20
0
VERTEX
8
OBJECT__2
10
0
20
0
30
0
70
128
71
21
72
22
73
23
0
VERTEX
8
OBJECT__2
10
0
20
0
30
0
70
128
71
23
72
20
73
21
0
VERTEX
8
OBJECT__2
10
0
20
0
30
0
70
128
71
21
72
17
73
22
0
VERTEX
8
OBJECT__2
10
0
20
0
30
0
70
128
71
24
72
25
73
26
0
VERTEX
8
OBJECT__2
10
0
20
0
30
0
70
128
71
18
72
26
73
25
0
VERTEX
8
OBJECT__2
10
0
20
0
30
0
70
128
71
25
72
19
73
18
0
VERTEX
8
OBJECT__2
10
0
20
0
30
0
70
128
71
27
72
28
73
29
0
VERTEX
8
OBJECT__2
10
0
20
0
30
0
70
128
71
30
72
31
73
32
0
VERTEX
8
OBJECT__2
10
0
20
0
30
0
70
128
71
32
72
29
73
30
0
VERTEX
8
OBJECT__2
10
0
20
0
30
0
70
128
71
30
72
24
73
31
0
VERTEX
8
OBJECT__2
10
0
20
0
30
0
70
128
71
33
72
34
73
35
0
VERTEX
8
OBJECT__2
10
0
20
0
30
0
70
128
71
27
72
35
73
34
0
VERTEX
8
OBJECT__2
10
0
20
0
30
0
70
128
71
34
72
28
73
27
0
VERTEX
8
OBJECT__2
10
0
20
0
30
0
70
128
71
36
72
37
73
38
0
VERTEX
8
OBJECT__2
10
0
20
0
30
0
70
128
71
39
72
38
73
40
0
VERTEX
8
OBJECT__2
10
0
20
0
30
0
70
128
71
40
72
41
73
39
0
VERTEX
8
OBJECT__2
10
0
20
0
30
0
70
128
71
40
72
33
73
41
0
VERTEX
8
OBJECT__2
10
0
20
0
30
0
70
128
71
42
72
43
73
44
0
VERTEX
8
OBJECT__2
10
0
20
0
30
0
70
128
71
36
72
45
73
46
0
VERTEX
8
OBJECT__2
10
0
20
0
30
0
70
128
71
45
72
44
73
46
0
VERTEX
8
OBJECT__2
10
0
20
0
30
0
70
128
71
46
72
37
73
36
0
VERTEX
8
OBJECT__2
10
0
20
0
30
0
70
128
71
47
72
48
73
49
0
VERTEX
8
OBJECT__2
10
0
20
0
30
0
70
128
71
50
72
51
73
52
0
VERTEX
8
OBJECT__2
10
0
20
0
30
0
70
128
71
51
72
49
73
52
0
VERTEX
8
OBJECT__2
10
0
20
0
30
0
70
128
71
43
72
42
73
50
0
VERTEX
8
OBJECT__2
10
0
20
0
30
0
70
128
71
52
72
43
73
50
0
VERTEX
8
OBJECT__2
10
0
20
0
30
0
70
128
71
53
72
54
73
55
0
VERTEX
8
OBJECT__2
10
0
20
0
30
0
70
128
71
48
72
47
73
55
0
VERTEX
8
OBJECT__2
10
0
20
0
30
0
70
128
71
55
72
54
73
48
0
VERTEX
8
OBJECT__2
10
0
20
0
30
0
70
128
71
56
72
57
73
58
0
VERTEX
8
OBJECT__2
10
0
20
0
30
0
70
128
71
59
72
58
73
60
0
VERTEX
8
OBJECT__2
10
0
20
0
30
0
70
128
71
58
72
57
73
60
0
VERTEX
8
OBJECT__2
10
0
20
0
30
0
70
128
71
60
72
53
73
59
0
VERTEX
8
OBJECT__2
10
0
20
0
30
0
70
128
71
61
72
62
73
63
0
VERTEX
8
OBJECT__2
10
0
20
0
30
0
70
128
71
62
72
64
73
63
0
VERTEX
8
OBJECT__2
10
0
20
0
30
0
70
128
71
63
72
56
73
61
0
VERTEX
8
OBJECT__2
10
0
20
0
30
0
70
128
71
65
72
66
73
67
0
VERTEX
8
OBJECT__2
10
0
20
0
30
0
70
128
71
68
72
67
73
69
0
VERTEX
8
OBJECT__2
10
0
20
0
30
0
70
128
71
67
72
66
73
69
0
VERTEX
8
OBJECT__2
10
0
20
0
30
0
70
128
71
69
72
64
73
68
0
VERTEX
8
OBJECT__2
10
0
20
0
30
0
70
128
71
70
72
71
73
72
0
VERTEX
8
OBJECT__2
10
0
20
0
30
0
70
128
71
71
72
73
73
72
0
VERTEX
8
OBJECT__2
10
0
20
0
30
0
70
128
71
74
72
75
73
76
0
VERTEX
8
OBJECT__2
10
0
20
0
30
0
70
128
71
77
72
78
73
79
0
VERTEX
8
OBJECT__2
10
0
20
0
30
0
70
128
71
78
72
76
73
79
0
VERTEX
8
OBJECT__2
10
0
20
0
30
0
70
128
71
79
72
73
73
77
0
VERTEX
8
OBJECT__2
10
0
20
0
30
0
70
128
71
73
72
71
73
77
0
VERTEX
8
OBJECT__2
10
0
20
0
30
0
70
128
71
80
72
81
73
82
0
VERTEX
8
OBJECT__2
10
0
20
0
30
0
70
128
71
75
72
74
73
82
0
VERTEX
8
OBJECT__2
10
0
20
0
30
0
70
128
71
82
72
81
73
75
0
VERTEX
8
OBJECT__2
10
0
20
0
30
0
70
128
71
83
72
84
73
85
0
VERTEX
8
OBJECT__2
10
0
20
0
30
0
70
128
71
86
72
85
73
87
0
VERTEX
8
OBJECT__2
10
0
20
0
30
0
70
128
71
85
72
84
73
87
0
VERTEX
8
OBJECT__2
10
0
20
0
30
0
70
128
71
87
72
80
73
86
0
VERTEX
8
OBJECT__2
10
0
20
0
30
0
70
128
71
88
72
89
73
90
0
VERTEX
8
OBJECT__2
10
0
20
0
30
0
70
128
71
89
72
91
73
90
0
VERTEX
8
OBJECT__2
10
0
20
0
30
0
70
128
71
90
72
83
73
88
0
VERTEX
8
OBJECT__2
10
0
20
0
30
0
70
128
71
92
72
4
73
93
0
VERTEX
8
OBJECT__2
10
0
20
0
30
0
70
128
71
4
72
5
73
93
0
VERTEX
8
OBJECT__2
10
0
20
0
30
0
70
128
71
94
72
95
73
96
0
VERTEX
8
OBJECT__2
10
0
20
0
30
0
70
128
71
95
72
97
73
96
0
VERTEX
8
OBJECT__2
10
0
20
0
30
0
70
128
71
1
72
98
73
94
0
VERTEX
8
OBJECT__2
10
0
20
0
30
0
70
128
71
94
72
99
73
1
0
VERTEX
8
OBJECT__2
10
0
20
0
30
0
70
128
71
100
72
101
73
102
0
VERTEX
8
OBJECT__2
10
0
20
0
30
0
70
128
71
95
72
102
73
101
0
VERTEX
8
OBJECT__2
10
0
20
0
30
0
70
128
71
101
72
97
73
95
0
VERTEX
8
OBJECT__2
10
0
20
0
30
0
70
128
71
103
72
104
73
105
0
VERTEX
8
OBJECT__2
10
0
20
0
30
0
70
128
71
106
72
107
73
103
0
VERTEX
8
OBJECT__2
10
0
20
0
30
0
70
128
71
106
72
108
73
107
0
VERTEX
8
OBJECT__2
10
0
20
0
30
0
70
128
71
109
72
110
73
111
0
VERTEX
8
OBJECT__2
10
0
20
0
30
0
70
128
71
108
72
106
73
109
0
VERTEX
8
OBJECT__2
10
0
20
0
30
0
70
128
71
111
72
108
73
109
0
VERTEX
8
OBJECT__2
10
0
20
0
30
0
70
128
71
112
72
111
73
110
0
VERTEX
8
OBJECT__2
10
0
20
0
30
0
70
128
71
110
72
100
73
112
0
VERTEX
8
OBJECT__2
10
0
20
0
30
0
70
128
71
10
72
105
73
104
0
VERTEX
8
OBJECT__2
10
0
20
0
30
0
70
128
71
113
72
9
73
114
0
VERTEX
8
OBJECT__2
10
0
20
0
30
0
70
128
71
115
72
116
73
113
0
VERTEX
8
OBJECT__2
10
0
20
0
30
0
70
128
71
9
72
7
73
114
0
VERTEX
8
OBJECT__2
10
0
20
0
30
0
70
128
71
117
72
116
73
118
0
VERTEX
8
OBJECT__2
10
0
20
0
30
0
70
128
71
119
72
120
73
121
0
VERTEX
8
OBJECT__2
10
0
20
0
30
0
70
128
71
121
72
117
73
119
0
VERTEX
8
OBJECT__2
10
0
20
0
30
0
70
128
71
116
72
115
73
118
0
VERTEX
8
OBJECT__2
10
0
20
0
30
0
70
128
71
122
72
120
73
123
0
VERTEX
8
OBJECT__2
10
0
20
0
30
0
70
128
71
124
72
125
73
122
0
VERTEX
8
OBJECT__2
10
0
20
0
30
0
70
128
71
120
72
119
73
123
0
VERTEX
8
OBJECT__2
10
0
20
0
30
0
70
128
71
126
72
127
73
128
0
VERTEX
8
OBJECT__2
10
0
20
0
30
0
70
128
71
127
72
129
73
128
0
VERTEX
8
OBJECT__2
10
0
20
0
30
0
70
128
71
130
72
125
73
131
0
VERTEX
8
OBJECT__2
10
0
20
0
30
0
70
128
71
131
72
126
73
130
0
VERTEX
8
OBJECT__2
10
0
20
0
30
0
70
128
71
125
72
124
73
131
0
VERTEX
8
OBJECT__2
10
0
20
0
30
0
70
128
71
129
72
127
73
132
0
VERTEX
8
OBJECT__2
10
0
20
0
30
0
70
128
71
132
72
133
73
129
0
VERTEX
8
OBJECT__2
10
0
20
0
30
0
70
128
71
134
72
135
73
136
0
VERTEX
8
OBJECT__2
10
0
20
0
30
0
70
128
71
137
72
136
73
138
0
VERTEX
8
OBJECT__2
10
0
20
0
30
0
70
128
71
138
72
139
73
137
0
VERTEX
8
OBJECT__2
10
0
20
0
30
0
70
128
71
138
72
133
73
139
0
VERTEX
8
OBJECT__2
10
0
20
0
30
0
70
128
71
140
72
134
73
141
0
VERTEX
8
OBJECT__2
10
0
20
0
30
0
70
128
71
141
72
142
73
140
0
VERTEX
8
OBJECT__2
10
0
20
0
30
0
70
128
71
140
72
135
73
134
0
VERTEX
8
OBJECT__2
10
0
20
0
30
0
70
128
71
16
72
143
73
144
0
VERTEX
8
OBJECT__2
10
0
20
0
30
0
70
128
71
144
72
143
73
145
0
VERTEX
8
OBJECT__2
10
0
20
0
30
0
70
128
71
145
72
146
73
144
0
VERTEX
8
OBJECT__2
10
0
20
0
30
0
70
128
71
145
72
142
73
146
0
VERTEX
8
OBJECT__2
10
0
20
0
30
0
70
128
71
144
72
13
73
16
0
VERTEX
8
OBJECT__2
10
0
20
0
30
0
70
128
71
141
72
146
73
142
0
VERTEX
8
OBJECT__2
10
0
20
0
30
0
70
128
71
136
72
137
73
134
0
VERTEX
8
OBJECT__2
10
0
20
0
30
0
70
128
71
132
72
139
73
133
0
VERTEX
8
OBJECT__2
10
0
20
0
30
0
70
128
71
128
72
130
73
126
0
VERTEX
8
OBJECT__2
10
0
20
0
30
0
70
128
71
123
72
124
73
122
0
VERTEX
8
OBJECT__2
10
0
20
0
30
0
70
128
71
118
72
119
73
117
0
VERTEX
8
OBJECT__2
10
0
20
0
30
0
70
128
71
114
72
115
73
113
0
VERTEX
8
OBJECT__2
10
0
20
0
30
0
70
128
71
104
72
11
73
10
0
VERTEX
8
OBJECT__2
10
0
20
0
30
0
70
128
71
105
72
106
73
103
0
VERTEX
8
OBJECT__2
10
0
20
0
30
0
70
128
71
102
72
112
73
100
0
VERTEX
8
OBJECT__2
10
0
20
0
30
0
70
128
71
96
72
99
73
94
0
VERTEX
8
OBJECT__2
10
0
20
0
30
0
70
128
71
93
72
91
73
92
0
VERTEX
8
OBJECT__2
10
0
20
0
30
0
70
128
71
89
72
92
73
91
0
VERTEX
8
OBJECT__2
10
0
20
0
30
0
70
128
71
85
72
88
73
83
0
VERTEX
8
OBJECT__2
10
0
20
0
30
0
70
128
71
82
72
86
73
80
0
VERTEX
8
OBJECT__2
10
0
20
0
30
0
70
128
71
76
72
78
73
74
0
VERTEX
8
OBJECT__2
10
0
20
0
30
0
70
128
71
72
72
65
73
70
0
VERTEX
8
OBJECT__2
10
0
20
0
30
0
70
128
71
67
72
70
73
65
0
VERTEX
8
OBJECT__2
10
0
20
0
30
0
70
128
71
62
72
68
73
64
0
VERTEX
8
OBJECT__2
10
0
20
0
30
0
70
128
71
58
72
61
73
56
0
VERTEX
8
OBJECT__2
10
0
20
0
30
0
70
128
71
55
72
59
73
53
0
VERTEX
8
OBJECT__2
10
0
20
0
30
0
70
128
71
49
72
51
73
47
0
VERTEX
8
OBJECT__2
10
0
20
0
30
0
70
128
71
44
72
45
73
42
0
VERTEX
8
OBJECT__2
10
0
20
0
30
0
70
128
71
38
72
39
73
36
0
VERTEX
8
OBJECT__2
10
0
20
0
30
0
70
128
71
35
72
41
73
33
0
VERTEX
8
OBJECT__2
10
0
20
0
30
0
70
128
71
29
72
32
73
27
0
VERTEX
8
OBJECT__2
10
0
20
0
30
0
70
128
71
26
72
31
73
24
0
VERTEX
8
OBJECT__2
10
0
20
0
30
0
70
128
71
20
72
23
73
18
0
VERTEX
8
OBJECT__2
10
0
20
0
30
0
70
128
71
14
72
22
73
17
0
VERTEX
8
OBJECT__2
10
0
20
0
30
0
70
128
71
8
72
12
73
6
0
VERTEX
8
OBJECT__2
10
0
20
0
30
0
70
128
71
3
72
98
73
1
0
SEQEND
8
OBJECT__2
0
POLYLINE
8
OBJECT__3
66
1
70
64
71
160
72
160
62
253
0
VERTEX
8
OBJECT__3
10
45.783001
20
-21.004999
30
-1.557000
70
192
0
VERTEX
8
OBJECT__3
10
44.539001
20
-25.510000
30
-1.888000
70
192
0
VERTEX
8
OBJECT__3
10
44.539001
20
-25.510000
30
-1.898000
70
192
0
VERTEX
8
OBJECT__3
10
45.780998
20
-20.934999
30
-3.096000
70
192
0
VERTEX
8
OBJECT__3
10
44.539001
20
-25.511000
30
-1.926000
70
192
0
VERTEX
8
OBJECT__3
10
44.533001
20
-24.690001
30
-6.704000
70
192
0
VERTEX
8
OBJECT__3
10
45.780998
20
-20.570000
30
-4.506000
70
192
0
VERTEX
8
OBJECT__3
10
45.780998
20
-20.280001
30
-5.625000
70
192
0
VERTEX
8
OBJECT__3
10
44.533001
20
-24.648001
30
-6.816000
70
192
0
VERTEX
8
OBJECT__3
10
44.533001
20
-24.642000
30
-6.831000
70
192
0
VERTEX
8
OBJECT__3
10
44.539001
20
-22.837000
30
-11.472000
70
192
0
VERTEX
8
OBJECT__3
10
44.546001
20
-20.434000
30
-15.381000
70
192
0
VERTEX
8
OBJECT__3
10
45.784000
20
-17.909000
30
-11.275000
70
192
0
VERTEX
8
OBJECT__3
10
44.539001
20
-22.975000
30
-11.247000
70
192
0
VERTEX
8
OBJECT__3
10
45.782001
20
-19.313000
30
-8.446000
70
192
0
VERTEX
8
OBJECT__3
10
45.780998
20
-19.806999
30
-7.451000
70
192
0
VERTEX
8
OBJECT__3
10
45.784000
20
-17.305000
30
-12.037000
70
192
0
VERTEX
8
OBJECT__3
10
44.546001
20
-20.153999
30
-15.688000
70
192
0
VERTEX
8
OBJECT__3
10
45.784000
20
-16.580999
30
-12.952000
70
192
0
VERTEX
8
OBJECT__3
10
44.546001
20
-20.125999
30
-15.718000
70
192
0
VERTEX
8
OBJECT__3
10
44.542000
20
-17.158001
30
-18.965000
70
192
0
VERTEX
8
OBJECT__3
10
45.784000
20
-15.083000
30
-14.844000
70
192
0
VERTEX
8
OBJECT__3
10
44.542000
20
-16.693001
30
-19.312000
70
192
0
VERTEX
8
OBJECT__3
10
44.536999
20
-13.262000
30
-21.867001
70
192
0
VERTEX
8
OBJECT__3
10
45.779999
20
-11.497000
30
-17.767000
70
192
0
VERTEX
8
OBJECT__3
10
45.784000
20
-14.623000
30
-15.219000
70
192
0
VERTEX
8
OBJECT__3
10
45.780998
20
-11.408000
30
-17.813999
70
192
0
VERTEX
8
OBJECT__3
10
44.537998
20
-12.600000
30
-22.186001
70
192
0
VERTEX
8
OBJECT__3
10
45.780998
20
-10.387000
30
-18.353001
70
192
0
VERTEX
8
OBJECT__3
10
44.537998
20
-12.567000
30
-22.202000
70
192
0
VERTEX
8
OBJECT__3
10
44.541000
20
-8.893000
30
-23.976000
70
192
0
VERTEX
8
OBJECT__3
10
45.780998
20
-8.179000
30
-19.518000
70
192
0
VERTEX
8
OBJECT__3
10
44.542000
20
-8.025000
30
-24.207001
70
192
0
VERTEX
8
OBJECT__3
10
44.548000
20
-4.193000
30
-25.224001
70
192
0
VERTEX
8
OBJECT__3
10
45.785000
20
-4.149000
30
-20.752001
70
192
0
VERTEX
8
OBJECT__3
10
45.782001
20
-7.697000
30
-19.665001
70
192
0
VERTEX
8
OBJECT__3
10
45.785000
20
-3.731000
30
-20.794001
70
192
0
VERTEX
8
OBJECT__3
10
44.547001
20
-3.141000
30
-25.297001
70
192
0
VERTEX
8
OBJECT__3
10
45.785000
20
-2.571000
30
-20.910999
70
192
0
VERTEX
8
OBJECT__3
10
44.547001
20
-3.112000
30
-25.299000
70
192
0
VERTEX
8
OBJECT__3
10
44.544998
20
0.651000
30
-25.562000
70
192
0
VERTEX
8
OBJECT__3
10
45.784000
20
-0.072000
30
-21.162001
70
192
0
VERTEX
8
OBJECT__3
10
45.780998
20
4.173000
30
-20.747000
70
192
0
VERTEX
8
OBJECT__3
10
45.784000
20
0.423000
30
-21.114000
70
192
0
VERTEX
8
OBJECT__3
10
44.542999
20
1.861000
30
-25.416000
70
192
0
VERTEX
8
OBJECT__3
10
44.537998
20
5.472000
30
-24.978001
70
192
0
VERTEX
8
OBJECT__3
10
44.539001
20
6.783000
30
-24.556999
70
192
0
VERTEX
8
OBJECT__3
10
45.780998
20
5.627000
30
-20.302999
70
192
0
VERTEX
8
OBJECT__3
10
45.780998
20
4.523000
30
-20.639999
70
192
0
VERTEX
8
OBJECT__3
10
44.539001
20
6.803000
30
-24.549999
70
192
0
VERTEX
8
OBJECT__3
10
44.541000
20
10.091000
30
-23.493999
70
192
0
VERTEX
8
OBJECT__3
10
45.780998
20
8.119000
30
-19.542999
70
192
0
VERTEX
8
OBJECT__3
10
45.785000
20
12.084000
30
-17.362000
70
192
0
VERTEX
8
OBJECT__3
10
45.782001
20
8.465000
30
-19.353001
70
192
0
VERTEX
8
OBJECT__3
10
44.542999
20
11.440000
30
-22.754000
70
192
0
VERTEX
8
OBJECT__3
10
44.549000
20
14.359000
30
-21.153999
70
192
0
VERTEX
8
OBJECT__3
10
45.785000
20
12.158000
30
-17.320999
70
192
0
VERTEX
8
OBJECT__3
10
44.548000
20
15.662000
30
-20.075001
70
192
0
VERTEX
8
OBJECT__3
10
45.785000
20
12.972000
30
-16.613001
70
192
0
VERTEX
8
OBJECT__3
10
44.548000
20
15.672000
30
-20.066999
70
192
0
VERTEX
8
OBJECT__3
10
44.546001
20
18.103001
30
-18.056000
70
192
0
VERTEX
8
OBJECT__3
10
45.784000
20
15.245000
30
-14.638000
70
192
0
VERTEX
8
OBJECT__3
10
45.783001
20
15.460000
30
-14.451000
70
192
0
VERTEX
8
OBJECT__3
10
45.780998
20
17.770000
30
-11.373000
70
192
0
VERTEX
8
OBJECT__3
10
44.542999
20
19.281000
30
-16.627001
70
192
0
VERTEX
8
OBJECT__3
10
44.537998
20
21.195999
30
-14.305000
70
192
0
VERTEX
8
OBJECT__3
10
44.537998
20
22.157000
30
-12.545000
70
192
0
VERTEX
8
OBJECT__3
10
45.779999
20
18.197001
30
-10.804000
70
192
0
VERTEX
8
OBJECT__3
10
45.779999
20
18.382999
30
-10.406000
70
192
0
VERTEX
8
OBJECT__3
10
44.537998
20
22.159000
30
-12.541000
70
192
0
VERTEX
8
OBJECT__3
10
44.537998
20
23.517000
30
-10.051000
70
192
0
VERTEX
8
OBJECT__3
10
45.782001
20
19.657000
30
-7.687000
70
192
0
VERTEX
8
OBJECT__3
10
44.541000
20
24.177999
30
-7.983000
70
192
0
VERTEX
8
OBJECT__3
10
45.782001
20
19.947001
30
-7.070000
70
192
0
VERTEX
8
OBJECT__3
10
45.785000
20
20.737000
30
-3.713000
70
192
0
VERTEX
8
OBJECT__3
10
44.543999
20
25.271000
30
-3.105000
70
192
0
VERTEX
8
OBJECT__3
10
45.785000
20
21.004000
30
-2.580000
70
192
0
VERTEX
8
OBJECT__3
10
44.543999
20
24.993999
30
-5.431000
70
192
0
VERTEX
8
OBJECT__3
10
44.543999
20
25.271999
30
-3.102000
70
192
0
VERTEX
8
OBJECT__3
10
45.784000
20
21.162001
30
0.086000
70
192
0
VERTEX
8
OBJECT__3
10
44.543999
20
25.570999
30
-0.589000
70
192
0
VERTEX
8
OBJECT__3
10
45.779999
20
20.674000
30
4.518000
70
192
0
VERTEX
8
OBJECT__3
10
45.784000
20
21.127001
30
0.402000
70
192
0
VERTEX
8
OBJECT__3
10
44.536999
20
25.225000
30
4.242000
70
192
0
VERTEX
8
OBJECT__3
10
45.779999
20
20.673000
30
4.524000
70
192
0
VERTEX
8
OBJECT__3
10
44.540001
20
25.393999
30
1.887000
70
192
0
VERTEX
8
OBJECT__3
10
44.536999
20
24.540001
30
6.791000
70
192
0
VERTEX
8
OBJECT__3
10
45.780998
20
20.327000
30
5.634000
70
192
0
VERTEX
8
OBJECT__3
10
44.536999
20
24.537001
30
6.804000
70
192
0
VERTEX
8
OBJECT__3
10
44.536999
20
23.964001
30
8.938000
70
192
0
VERTEX
8
OBJECT__3
10
44.542000
20
22.749001
30
11.433000
70
192
0
VERTEX
8
OBJECT__3
10
45.782001
20
19.351000
30
8.464000
70
192
0
VERTEX
8
OBJECT__3
10
45.780998
20
19.572001
30
8.048000
70
192
0
VERTEX
8
OBJECT__3
10
45.785000
20
17.590000
30
11.766000
70
192
0
VERTEX
8
OBJECT__3
10
44.546001
20
21.841000
30
13.298000
70
192
0
VERTEX
8
OBJECT__3
10
44.547001
20
20.084000
30
15.646000
70
192
0
VERTEX
8
OBJECT__3
10
45.785000
20
17.344000
30
12.068000
70
192
0
VERTEX
8
OBJECT__3
10
45.785000
20
16.608000
30
12.972000
70
192
0
VERTEX
8
OBJECT__3
10
44.547001
20
20.062000
30
15.675000
70
192
0
VERTEX
8
OBJECT__3
10
44.548000
20
18.930000
30
17.187000
70
192
0
VERTEX
8
OBJECT__3
10
45.779999
20
11.545000
30
17.736000
70
192
0
VERTEX
8
OBJECT__3
10
45.784000
20
14.624000
30
15.220000
70
192
0
VERTEX
8
OBJECT__3
10
44.543999
20
16.642000
30
19.270000
70
192
0
VERTEX
8
OBJECT__3
10
44.541000
20
15.336000
30
20.458000
70
192
0
VERTEX
8
OBJECT__3
10
45.784000
20
15.081000
30
14.846000
70
192
0
VERTEX
8
OBJECT__3
10
44.540001
20
12.564000
30
22.152000
70
192
0
VERTEX
8
OBJECT__3
10
45.780998
20
10.377000
30
18.329000
70
192
0
VERTEX
8
OBJECT__3
10
45.780998
20
11.405000
30
17.806999
70
192
0
VERTEX
8
OBJECT__3
10
44.540001
20
12.539000
30
22.167000
70
192
0
VERTEX
8
OBJECT__3
10
44.539001
20
11.197000
30
22.987000
70
192
0
VERTEX
8
OBJECT__3
10
44.543999
20
8.002000
30
24.183001
70
192
0
VERTEX
8
OBJECT__3
10
45.782001
20
7.516000
30
19.783001
70
192
0
VERTEX
8
OBJECT__3
10
45.782001
20
7.701000
30
19.688999
70
192
0
VERTEX
8
OBJECT__3
10
44.544998
20
6.647000
30
24.690001
70
192
0
VERTEX
8
OBJECT__3
10
44.547001
20
3.124000
30
25.287001
70
192
0
VERTEX
8
OBJECT__3
10
45.785000
20
3.516000
30
20.868000
70
192
0
VERTEX
8
OBJECT__3
10
45.785000
20
3.729000
30
20.811001
70
192
0
VERTEX
8
OBJECT__3
10
45.785000
20
2.576000
30
20.929001
70
192
0
VERTEX
8
OBJECT__3
10
44.547001
20
3.103000
30
25.291000
70
192
0
VERTEX
8
OBJECT__3
10
44.548000
20
1.856000
30
25.502001
70
192
0
VERTEX
8
OBJECT__3
10
44.542000
20
-1.877000
30
25.420000
70
192
0
VERTEX
8
OBJECT__3
10
45.783001
20
-0.429000
30
21.125000
70
192
0
VERTEX
8
OBJECT__3
10
45.783001
20
-0.786000
30
21.148001
70
192
0
VERTEX
8
OBJECT__3
10
44.541000
20
-3.000000
30
25.395000
70
192
0
VERTEX
8
OBJECT__3
10
44.537998
20
-6.803000
30
24.575001
70
192
0
VERTEX
8
OBJECT__3
10
45.780998
20
-4.525000
30
20.618000
70
192
0
VERTEX
8
OBJECT__3
10
45.779999
20
-5.123000
30
20.533001
70
192
0
VERTEX
8
OBJECT__3
10
45.780998
20
-5.638000
30
20.348000
70
192
0
VERTEX
8
OBJECT__3
10
44.537998
20
-6.817000
30
24.572001
70
192
0
VERTEX
8
OBJECT__3
10
44.537998
20
-7.744000
30
24.372000
70
192
0
VERTEX
8
OBJECT__3
10
44.542000
20
-11.471000
30
22.784000
70
192
0
VERTEX
8
OBJECT__3
10
45.782001
20
-8.464000
30
19.334000
70
192
0
VERTEX
8
OBJECT__3
10
45.782001
20
-9.098000
30
19.107000
70
192
0
VERTEX
8
OBJECT__3
10
44.542999
20
-12.214000
30
22.466999
70
192
0
VERTEX
8
OBJECT__3
10
44.547001
20
-15.707000
30
20.113001
70
192
0
VERTEX
8
OBJECT__3
10
45.785000
20
-12.064000
30
17.329000
70
192
0
VERTEX
8
OBJECT__3
10
45.785000
20
-12.564000
30
17.028999
70
192
0
VERTEX
8
OBJECT__3
10
45.785000
20
-12.994000
30
16.639999
70
192
0
VERTEX
8
OBJECT__3
10
44.547001
20
-15.713000
30
20.108000
70
192
0
VERTEX
8
OBJECT__3
10
44.547001
20
-16.247000
30
19.749001
70
192
0
VERTEX
8
OBJECT__3
10
44.540001
20
-19.344000
30
16.667999
70
192
0
VERTEX
8
OBJECT__3
10
45.783001
20
-15.228000
30
14.620000
70
192
0
VERTEX
8
OBJECT__3
10
45.783001
20
-15.679000
30
14.213000
70
192
0
VERTEX
8
OBJECT__3
10
44.540001
20
-19.691000
30
16.323000
70
192
0
VERTEX
8
OBJECT__3
10
44.535000
20
-22.238001
30
12.584000
70
192
0
VERTEX
8
OBJECT__3
10
45.780998
20
-17.761000
30
11.368000
70
192
0
VERTEX
8
OBJECT__3
10
45.779999
20
-18.292000
30
10.642000
70
192
0
VERTEX
8
OBJECT__3
10
45.779999
20
-18.396999
30
10.412000
70
192
0
VERTEX
8
OBJECT__3
10
44.535000
20
-22.239000
30
12.581000
70
192
0
VERTEX
8
OBJECT__3
10
44.535000
20
-22.422001
30
12.313000
70
192
0
VERTEX
8
OBJECT__3
10
44.539001
20
-24.278999
30
8.011000
70
192
0
VERTEX
8
OBJECT__3
10
45.782001
20
-19.645000
30
7.681000
70
192
0
VERTEX
8
OBJECT__3
10
45.782001
20
-20.018999
30
6.862000
70
192
0
VERTEX
8
OBJECT__3
10
44.539001
20
-24.344999
30
7.858000
70
192
0
VERTEX
8
OBJECT__3
10
44.543999
20
-25.391001
30
3.119000
70
192
0
VERTEX
8
OBJECT__3
10
45.785000
20
-20.743000
30
3.715000
70
192
0
VERTEX
8
OBJECT__3
10
45.785000
20
-21.004000
30
2.580000
70
192
0
VERTEX
8
OBJECT__3
10
44.543999
20
-25.392000
30
3.116000
70
192
0
VERTEX
8
OBJECT__3
10
45.784000
20
-21.056000
30
-0.423000
70
192
0
VERTEX
8
OBJECT__3
10
45.785000
20
-21.129000
30
1.181000
70
192
0
VERTEX
8
OBJECT__3
10
0
20
0
30
0
70
128
71
1
72
2
73
3
0
VERTEX
8
OBJECT__3
10
0
20
0
30
0
70
128
71
3
72
4
73
1
0
VERTEX
8
OBJECT__3
10
0
20
0
30
0
70
128
71
3
72
5
73
4
0
VERTEX
8
OBJECT__3
10
0
20
0
30
0
70
128
71
6
72
7
73
4
0
VERTEX
8
OBJECT__3
10
0
20
0
30
0
70
128
71
8
72
7
73
6
0
VERTEX
8
OBJECT__3
10
0
20
0
30
0
70
128
71
6
72
9
73
8
0
VERTEX
8
OBJECT__3
10
0
20
0
30
0
70
128
71
9
72
10
73
8
0
VERTEX
8
OBJECT__3
10
0
20
0
30
0
70
128
71
4
72
5
73
6
0
VERTEX
8
OBJECT__3
10
0
20
0
30
0
70
128
71
11
72
12
73
13
0
VERTEX
8
OBJECT__3
10
0
20
0
30
0
70
128
71
14
72
15
73
16
0
VERTEX
8
OBJECT__3
10
0
20
0
30
0
70
128
71
16
72
10
73
14
0
VERTEX
8
OBJECT__3
10
0
20
0
30
0
70
128
71
14
72
11
73
15
0
VERTEX
8
OBJECT__3
10
0
20
0
30
0
70
128
71
13
72
15
73
11
0
VERTEX
8
OBJECT__3
10
0
20
0
30
0
70
128
71
17
72
12
73
18
0
VERTEX
8
OBJECT__3
10
0
20
0
30
0
70
128
71
18
72
19
73
17
0
VERTEX
8
OBJECT__3
10
0
20
0
30
0
70
128
71
17
72
13
73
12
0
VERTEX
8
OBJECT__3
10
0
20
0
30
0
70
128
71
18
72
20
73
19
0
VERTEX
8
OBJECT__3
10
0
20
0
30
0
70
128
71
20
72
21
73
22
0
VERTEX
8
OBJECT__3
10
0
20
0
30
0
70
128
71
23
72
24
73
25
0
VERTEX
8
OBJECT__3
10
0
20
0
30
0
70
128
71
21
72
23
73
26
0
VERTEX
8
OBJECT__3
10
0
20
0
30
0
70
128
71
26
72
22
73
21
0
VERTEX
8
OBJECT__3
10
0
20
0
30
0
70
128
71
27
72
24
73
28
0
VERTEX
8
OBJECT__3
10
0
20
0
30
0
70
128
71
28
72
29
73
27
0
VERTEX
8
OBJECT__3
10
0
20
0
30
0
70
128
71
28
72
30
73
29
0
VERTEX
8
OBJECT__3
10
0
20
0
30
0
70
128
71
27
72
25
73
24
0
VERTEX
8
OBJECT__3
10
0
20
0
30
0
70
128
71
25
72
26
73
23
0
VERTEX
8
OBJECT__3
10
0
20
0
30
0
70
128
71
30
72
31
73
32
0
VERTEX
8
OBJECT__3
10
0
20
0
30
0
70
128
71
33
72
34
73
35
0
VERTEX
8
OBJECT__3
10
0
20
0
30
0
70
128
71
31
72
33
73
36
0
VERTEX
8
OBJECT__3
10
0
20
0
30
0
70
128
71
36
72
32
73
31
0
VERTEX
8
OBJECT__3
10
0
20
0
30
0
70
128
71
35
72
36
73
33
0
VERTEX
8
OBJECT__3
10
0
20
0
30
0
70
128
71
37
72
34
73
38
0
VERTEX
8
OBJECT__3
10
0
20
0
30
0
70
128
71
38
72
39
73
37
0
VERTEX
8
OBJECT__3
10
0
20
0
30
0
70
128
71
37
72
35
73
34
0
VERTEX
8
OBJECT__3
10
0
20
0
30
0
70
128
71
38
72
40
73
39
0
VERTEX
8
OBJECT__3
10
0
20
0
30
0
70
128
71
40
72
41
73
42
0
VERTEX
8
OBJECT__3
10
0
20
0
30
0
70
128
71
43
72
44
73
45
0
VERTEX
8
OBJECT__3
10
0
20
0
30
0
70
128
71
41
72
45
73
44
0
VERTEX
8
OBJECT__3
10
0
20
0
30
0
70
128
71
44
72
42
73
41
0
VERTEX
8
OBJECT__3
10
0
20
0
30
0
70
128
71
45
72
46
73
43
0
VERTEX
8
OBJECT__3
10
0
20
0
30
0
70
128
71
47
72
48
73
49
0
VERTEX
8
OBJECT__3
10
0
20
0
30
0
70
128
71
49
72
46
73
47
0
VERTEX
8
OBJECT__3
10
0
20
0
30
0
70
128
71
47
72
50
73
48
0
VERTEX
8
OBJECT__3
10
0
20
0
30
0
70
128
71
49
72
43
73
46
0
VERTEX
8
OBJECT__3
10
0
20
0
30
0
70
128
71
50
72
51
73
52
0
VERTEX
8
OBJECT__3
10
0
20
0
30
0
70
128
71
53
72
54
73
55
0
VERTEX
8
OBJECT__3
10
0
20
0
30
0
70
128
71
54
72
51
73
55
0
VERTEX
8
OBJECT__3
10
0
20
0
30
0
70
128
71
55
72
56
73
53
0
VERTEX
8
OBJECT__3
10
0
20
0
30
0
70
128
71
56
72
57
73
53
0
VERTEX
8
OBJECT__3
10
0
20
0
30
0
70
128
71
54
72
52
73
51
0
VERTEX
8
OBJECT__3
10
0
20
0
30
0
70
128
71
58
72
59
73
57
0
VERTEX
8
OBJECT__3
10
0
20
0
30
0
70
128
71
57
72
56
73
58
0
VERTEX
8
OBJECT__3
10
0
20
0
30
0
70
128
71
58
72
60
73
59
0
VERTEX
8
OBJECT__3
10
0
20
0
30
0
70
128
71
61
72
62
73
59
0
VERTEX
8
OBJECT__3
10
0
20
0
30
0
70
128
71
61
72
63
73
62
0
VERTEX
8
OBJECT__3
10
0
20
0
30
0
70
128
71
64
72
63
73
65
0
VERTEX
8
OBJECT__3
10
0
20
0
30
0
70
128
71
63
72
61
73
65
0
VERTEX
8
OBJECT__3
10
0
20
0
30
0
70
128
71
66
72
67
73
68
0
VERTEX
8
OBJECT__3
10
0
20
0
30
0
70
128
71
68
72
64
73
66
0
VERTEX
8
OBJECT__3
10
0
20
0
30
0
70
128
71
69
72
68
73
67
0
VERTEX
8
OBJECT__3
10
0
20
0
30
0
70
128
71
67
72
70
73
69
0
VERTEX
8
OBJECT__3
10
0
20
0
30
0
70
128
71
65
72
66
73
64
0
VERTEX
8
OBJECT__3
10
0
20
0
30
0
70
128
71
71
72
72
73
69
0
VERTEX
8
OBJECT__3
10
0
20
0
30
0
70
128
71
71
72
73
73
74
0
VERTEX
8
OBJECT__3
10
0
20
0
30
0
70
128
71
74
72
72
73
71
0
VERTEX
8
OBJECT__3
10
0
20
0
30
0
70
128
71
75
72
74
73
73
0
VERTEX
8
OBJECT__3
10
0
20
0
30
0
70
128
71
76
72
77
73
75
0
VERTEX
8
OBJECT__3
10
0
20
0
30
0
70
128
71
75
72
78
73
76
0
VERTEX
8
OBJECT__3
10
0
20
0
30
0
70
128
71
73
72
78
73
75
0
VERTEX
8
OBJECT__3
10
0
20
0
30
0
70
128
71
77
72
76
73
79
0
VERTEX
8
OBJECT__3
10
0
20
0
30
0
70
128
71
79
72
80
73
77
0
VERTEX
8
OBJECT__3
10
0
20
0
30
0
70
128
71
79
72
81
73
80
0
VERTEX
8
OBJECT__3
10
0
20
0
30
0
70
128
71
81
72
82
73
83
0
VERTEX
8
OBJECT__3
10
0
20
0
30
0
70
128
71
84
72
85
73
82
0
VERTEX
8
OBJECT__3
10
0
20
0
30
0
70
128
71
82
72
81
73
86
0
VERTEX
8
OBJECT__3
10
0
20
0
30
0
70
128
71
82
72
86
73
84
0
VERTEX
8
OBJECT__3
10
0
20
0
30
0
70
128
71
83
72
80
73
81
0
VERTEX
8
OBJECT__3
10
0
20
0
30
0
70
128
71
87
72
88
73
85
0
VERTEX
8
OBJECT__3
10
0
20
0
30
0
70
128
71
85
72
84
73
87
0
VERTEX
8
OBJECT__3
10
0
20
0
30
0
70
128
71
87
72
89
73
88
0
VERTEX
8
OBJECT__3
10
0
20
0
30
0
70
128
71
88
72
89
73
90
0
VERTEX
8
OBJECT__3
10
0
20
0
30
0
70
128
71
91
72
92
73
93
0
VERTEX
8
OBJECT__3
10
0
20
0
30
0
70
128
71
94
72
92
73
91
0
VERTEX
8
OBJECT__3
10
0
20
0
30
0
70
128
71
91
72
95
73
94
0
VERTEX
8
OBJECT__3
10
0
20
0
30
0
70
128
71
93
72
90
73
91
0
VERTEX
8
OBJECT__3
10
0
20
0
30
0
70
128
71
96
72
97
73
94
0
VERTEX
8
OBJECT__3
10
0
20
0
30
0
70
128
71
96
72
98
73
97
0
VERTEX
8
OBJECT__3
10
0
20
0
30
0
70
128
71
94
72
95
73
96
0
VERTEX
8
OBJECT__3
10
0
20
0
30
0
70
128
71
96
72
99
73
98
0
VERTEX
8
OBJECT__3
10
0
20
0
30
0
70
128
71
98
72
99
73
100
0
VERTEX
8
OBJECT__3
10
0
20
0
30
0
70
128
71
101
72
102
73
103
0
VERTEX
8
OBJECT__3
10
0
20
0
30
0
70
128
71
103
72
104
73
101
0
VERTEX
8
OBJECT__3
10
0
20
0
30
0
70
128
71
103
72
102
73
105
0
VERTEX
8
OBJECT__3
10
0
20
0
30
0
70
128
71
105
72
100
73
103
0
VERTEX
8
OBJECT__3
10
0
20
0
30
0
70
128
71
104
72
106
73
101
0
VERTEX
8
OBJECT__3
10
0
20
0
30
0
70
128
71
107
72
108
73
106
0
VERTEX
8
OBJECT__3
10
0
20
0
30
0
70
128
71
106
72
109
73
107
0
VERTEX
8
OBJECT__3
10
0
20
0
30
0
70
128
71
108
72
101
73
106
0
VERTEX
8
OBJECT__3
10
0
20
0
30
0
70
128
71
107
72
109
73
110
0
VERTEX
8
OBJECT__3
10
0
20
0
30
0
70
128
71
110
72
111
73
112
0
VERTEX
8
OBJECT__3
10
0
20
0
30
0
70
128
71
112
72
113
73
110
0
VERTEX
8
OBJECT__3
10
0
20
0
30
0
70
128
71
112
72
111
73
114
0
VERTEX
8
OBJECT__3
10
0
20
0
30
0
70
128
71
115
72
116
73
117
0
VERTEX
8
OBJECT__3
10
0
20
0
30
0
70
128
71
117
72
114
73
115
0
VERTEX
8
OBJECT__3
10
0
20
0
30
0
70
128
71
118
72
116
73
115
0
VERTEX
8
OBJECT__3
10
0
20
0
30
0
70
128
71
115
72
119
73
118
0
VERTEX
8
OBJECT__3
10
0
20
0
30
0
70
128
71
114
72
117
73
112
0
VERTEX
8
OBJECT__3
10
0
20
0
30
0
70
128
71
120
72
121
73
122
0
VERTEX
8
OBJECT__3
10
0
20
0
30
0
70
128
71
118
72
119
73
120
0
VERTEX
8
OBJECT__3
10
0
20
0
30
0
70
128
71
121
72
123
73
122
0
VERTEX
8
OBJECT__3
10
0
20
0
30
0
70
128
71
124
72
125
73
126
0
VERTEX
8
OBJECT__3
10
0
20
0
30
0
70
128
71
123
72
121
73
124
0
VERTEX
8
OBJECT__3
10
0
20
0
30
0
70
128
71
125
72
127
73
126
0
VERTEX
8
OBJECT__3
10
0
20
0
30
0
70
128
71
128
72
127
73
125
0
VERTEX
8
OBJECT__3
10
0
20
0
30
0
70
128
71
125
72
129
73
128
0
VERTEX
8
OBJECT__3
10
0
20
0
30
0
70
128
71
126
72
123
73
124
0
VERTEX
8
OBJECT__3
10
0
20
0
30
0
70
128
71
130
72
131
73
132
0
VERTEX
8
OBJECT__3
10
0
20
0
30
0
70
128
71
128
72
129
73
130
0
VERTEX
8
OBJECT__3
10
0
20
0
30
0
70
128
71
131
72
133
73
132
0
VERTEX
8
OBJECT__3
10
0
20
0
30
0
70
128
71
134
72
135
73
136
0
VERTEX
8
OBJECT__3
10
0
20
0
30
0
70
128
71
133
72
131
73
134
0
VERTEX
8
OBJECT__3
10
0
20
0
30
0
70
128
71
135
72
137
73
136
0
VERTEX
8
OBJECT__3
10
0
20
0
30
0
70
128
71
138
72
137
73
135
0
VERTEX
8
OBJECT__3
10
0
20
0
30
0
70
128
71
135
72
139
73
138
0
VERTEX
8
OBJECT__3
10
0
20
0
30
0
70
128
71
136
72
133
73
134
0
VERTEX
8
OBJECT__3
10
0
20
0
30
0
70
128
71
140
72
141
73
142
0
VERTEX
8
OBJECT__3
10
0
20
0
30
0
70
128
71
138
72
139
73
140
0
VERTEX
8
OBJECT__3
10
0
20
0
30
0
70
128
71
141
72
143
73
142
0
VERTEX
8
OBJECT__3
10
0
20
0
30
0
70
128
71
144
72
145
73
146
0
VERTEX
8
OBJECT__3
10
0
20
0
30
0
70
128
71
143
72
141
73
144
0
VERTEX
8
OBJECT__3
10
0
20
0
30
0
70
128
71
145
72
147
73
146
0
VERTEX
8
OBJECT__3
10
0
20
0
30
0
70
128
71
146
72
143
73
144
0
VERTEX
8
OBJECT__3
10
0
20
0
30
0
70
128
71
148
72
147
73
145
0
VERTEX
8
OBJECT__3
10
0
20
0
30
0
70
128
71
145
72
149
73
148
0
VERTEX
8
OBJECT__3
10
0
20
0
30
0
70
128
71
150
72
151
73
152
0
VERTEX
8
OBJECT__3
10
0
20
0
30
0
70
128
71
148
72
149
73
150
0
VERTEX
8
OBJECT__3
10
0
20
0
30
0
70
128
71
151
72
153
73
152
0
VERTEX
8
OBJECT__3
10
0
20
0
30
0
70
128
71
154
72
155
73
156
0
VERTEX
8
OBJECT__3
10
0
20
0
30
0
70
128
71
153
72
151
73
154
0
VERTEX
8
OBJECT__3
10
0
20
0
30
0
70
128
71
155
72
157
73
156
0
VERTEX
8
OBJECT__3
10
0
20
0
30
0
70
128
71
156
72
153
73
154
0
VERTEX
8
OBJECT__3
10
0
20
0
30
0
70
128
71
157
72
155
73
158
0
VERTEX
8
OBJECT__3
10
0
20
0
30
0
70
128
71
2
72
159
73
160
0
VERTEX
8
OBJECT__3
10
0
20
0
30
0
70
128
71
2
72
1
73
159
0
VERTEX
8
OBJECT__3
10
0
20
0
30
0
70
128
71
160
72
158
73
2
0
VERTEX
8
OBJECT__3
10
0
20
0
30
0
70
128
71
158
72
160
73
157
0
VERTEX
8
OBJECT__3
10
0
20
0
30
0
70
128
71
152
72
148
73
150
0
VERTEX
8
OBJECT__3
10
0
20
0
30
0
70
128
71
142
72
138
73
140
0
VERTEX
8
OBJECT__3
10
0
20
0
30
0
70
128
71
132
72
128
73
130
0
VERTEX
8
OBJECT__3
10
0
20
0
30
0
70
128
71
122
72
118
73
120
0
VERTEX
8
OBJECT__3
10
0
20
0
30
0
70
128
71
110
72
113
73
107
0
VERTEX
8
OBJECT__3
10
0
20
0
30
0
70
128
71
100
72
105
73
98
0
VERTEX
8
OBJECT__3
10
0
20
0
30
0
70
128
71
90
72
93
73
88
0
VERTEX
8
OBJECT__3
10
0
20
0
30
0
70
128
71
69
72
70
73
71
0
VERTEX
8
OBJECT__3
10
0
20
0
30
0
70
128
71
59
72
60
73
61
0
VERTEX
8
OBJECT__3
10
0
20
0
30
0
70
128
71
52
72
48
73
50
0
VERTEX
8
OBJECT__3
10
0
20
0
30
0
70
128
71
42
72
39
73
40
0
VERTEX
8
OBJECT__3
10
0
20
0
30
0
70
128
71
32
72
29
73
30
0
VERTEX
8
OBJECT__3
10
0
20
0
30
0
70
128
71
22
72
19
73
20
0
VERTEX
8
OBJECT__3
10
0
20
0
30
0
70
128
71
16
72
8
73
10
0
SEQEND
8
OBJECT__3
0
POLYLINE
8
OBJECT__5
66
1
70
64
71
168
72
170
62
253
0
VERTEX
8
OBJECT__5
10
44.541000
20
24.177999
30
-7.983000
70
192
0
VERTEX
8
OBJECT__5
10
42.668999
20
25.476000
30
-8.412000
70
192
0
VERTEX
8
OBJECT__5
10
42.672001
20
26.153000
30
-6.041000
70
192
0
VERTEX
8
OBJECT__5
10
42.672001
20
26.618999
30
-3.271000
70
192
0
VERTEX
8
OBJECT__5
10
44.543999
20
25.271999
30
-3.102000
70
192
0
VERTEX
8
OBJECT__5
10
44.543999
20
25.271000
30
-3.105000
70
192
0
VERTEX
8
OBJECT__5
10
42.673000
20
26.462000
30
-4.958000
70
192
0
VERTEX
8
OBJECT__5
10
44.543999
20
24.993999
30
-5.431000
70
192
0
VERTEX
8
OBJECT__5
10
43.820999
20
-26.354000
30
3.234000
70
192
0
VERTEX
8
OBJECT__5
10
44.543999
20
-25.392000
30
3.116000
70
192
0
VERTEX
8
OBJECT__5
10
44.543999
20
-25.391001
30
3.119000
70
192
0
VERTEX
8
OBJECT__5
10
43.816002
20
-25.212999
30
8.320000
70
192
0
VERTEX
8
OBJECT__5
10
44.539001
20
-24.344999
30
7.858000
70
192
0
VERTEX
8
OBJECT__5
10
42.672001
20
-7.496000
30
-25.851000
70
192
0
VERTEX
8
OBJECT__5
10
42.674999
20
-3.301000
30
-26.655001
70
192
0
VERTEX
8
OBJECT__5
10
44.548000
20
-4.193000
30
-25.224001
70
192
0
VERTEX
8
OBJECT__5
10
44.542000
20
-8.025000
30
-24.207001
70
192
0
VERTEX
8
OBJECT__5
10
42.669998
20
-8.435000
30
-25.482000
70
192
0
VERTEX
8
OBJECT__5
10
44.547001
20
-3.141000
30
-25.297001
70
192
0
VERTEX
8
OBJECT__5
10
42.671001
20
12.088000
30
-24.028000
70
192
0
VERTEX
8
OBJECT__5
10
42.676998
20
16.181999
30
-21.504000
70
192
0
VERTEX
8
OBJECT__5
10
44.549000
20
14.359000
30
-21.153999
70
192
0
VERTEX
8
OBJECT__5
10
44.548000
20
15.662000
30
-20.075001
70
192
0
VERTEX
8
OBJECT__5
10
42.676998
20
16.530001
30
-21.187000
70
192
0
VERTEX
8
OBJECT__5
10
44.537998
20
21.195999
30
-14.305000
70
192
0
VERTEX
8
OBJECT__5
10
44.542999
20
19.281000
30
-16.627001
70
192
0
VERTEX
8
OBJECT__5
10
42.669998
20
21.184000
30
-16.416000
70
192
0
VERTEX
8
OBJECT__5
10
42.671001
20
20.333000
30
-17.541000
70
192
0
VERTEX
8
OBJECT__5
10
44.537998
20
22.157000
30
-12.545000
70
192
0
VERTEX
8
OBJECT__5
10
42.666000
20
22.879999
30
-14.177000
70
192
0
VERTEX
8
OBJECT__5
10
42.666000
20
23.354000
30
-13.227000
70
192
0
VERTEX
8
OBJECT__5
10
44.537998
20
22.159000
30
-12.541000
70
192
0
VERTEX
8
OBJECT__5
10
42.667000
20
24.180000
30
-11.571000
70
192
0
VERTEX
8
OBJECT__5
10
44.537998
20
23.517000
30
-10.051000
70
192
0
VERTEX
8
OBJECT__5
10
42.667000
20
25.103001
30
-9.720000
70
192
0
VERTEX
8
OBJECT__5
10
42.675999
20
17.355000
30
-20.438000
70
192
0
VERTEX
8
OBJECT__5
10
42.672001
20
19.872000
30
-18.150000
70
192
0
VERTEX
8
OBJECT__5
10
44.546001
20
18.103001
30
-18.056000
70
192
0
VERTEX
8
OBJECT__5
10
44.548000
20
15.672000
30
-20.066999
70
192
0
VERTEX
8
OBJECT__5
10
42.669998
20
2.378000
30
-26.809000
70
192
0
VERTEX
8
OBJECT__5
10
42.667000
20
7.168000
30
-25.931000
70
192
0
VERTEX
8
OBJECT__5
10
44.537998
20
5.472000
30
-24.978001
70
192
0
VERTEX
8
OBJECT__5
10
44.542999
20
1.861000
30
-25.416000
70
192
0
VERTEX
8
OBJECT__5
10
42.671001
20
1.967000
30
-26.808001
70
192
0
VERTEX
8
OBJECT__5
10
44.539001
20
6.783000
30
-24.556999
70
192
0
VERTEX
8
OBJECT__5
10
42.667000
20
7.992000
30
-25.636999
70
192
0
VERTEX
8
OBJECT__5
10
42.671001
20
11.937000
30
-24.121000
70
192
0
VERTEX
8
OBJECT__5
10
44.541000
20
10.091000
30
-23.493999
70
192
0
VERTEX
8
OBJECT__5
10
44.539001
20
6.803000
30
-24.549999
70
192
0
VERTEX
8
OBJECT__5
10
42.666000
20
7.281000
30
-25.910000
70
192
0
VERTEX
8
OBJECT__5
10
44.542999
20
11.440000
30
-22.754000
70
192
0
VERTEX
8
OBJECT__5
10
42.675999
20
-2.314000
30
-26.790001
70
192
0
VERTEX
8
OBJECT__5
10
44.544998
20
0.651000
30
-25.562000
70
192
0
VERTEX
8
OBJECT__5
10
44.547001
20
-3.112000
30
-25.299000
70
192
0
VERTEX
8
OBJECT__5
10
42.675999
20
-2.603000
30
-26.789000
70
192
0
VERTEX
8
OBJECT__5
10
44.546001
20
-20.434000
30
-15.381000
70
192
0
VERTEX
8
OBJECT__5
10
44.539001
20
-22.837000
30
-11.472000
70
192
0
VERTEX
8
OBJECT__5
10
42.671001
20
-22.995001
30
-14.003000
70
192
0
VERTEX
8
OBJECT__5
10
42.667999
20
-23.952999
30
-12.042000
70
192
0
VERTEX
8
OBJECT__5
10
42.673000
20
-21.153999
30
-16.474001
70
192
0
VERTEX
8
OBJECT__5
10
44.546001
20
-20.153999
30
-15.688000
70
192
0
VERTEX
8
OBJECT__5
10
44.536999
20
-13.262000
30
-21.867001
70
192
0
VERTEX
8
OBJECT__5
10
44.542000
20
-16.693001
30
-19.312000
70
192
0
VERTEX
8
OBJECT__5
10
42.667000
20
-16.354000
30
-21.379999
70
192
0
VERTEX
8
OBJECT__5
10
42.668999
20
-17.534000
30
-20.292000
70
192
0
VERTEX
8
OBJECT__5
10
42.666000
20
-13.241000
30
-23.332001
70
192
0
VERTEX
8
OBJECT__5
10
44.537998
20
-12.600000
30
-22.186001
70
192
0
VERTEX
8
OBJECT__5
10
42.666000
20
-12.067000
30
-24.052999
70
192
0
VERTEX
8
OBJECT__5
10
44.541000
20
-8.893000
30
-23.976000
70
192
0
VERTEX
8
OBJECT__5
10
42.666000
20
-12.132000
30
-24.028000
70
192
0
VERTEX
8
OBJECT__5
10
44.537998
20
-12.567000
30
-22.202000
70
192
0
VERTEX
8
OBJECT__5
10
44.542000
20
-17.158001
30
-18.965000
70
192
0
VERTEX
8
OBJECT__5
10
44.546001
20
-20.125999
30
-15.718000
70
192
0
VERTEX
8
OBJECT__5
10
42.673000
20
-19.993000
30
-18.021999
70
192
0
VERTEX
8
OBJECT__5
10
42.673000
20
-20.017000
30
-18.000000
70
192
0
VERTEX
8
OBJECT__5
10
44.539001
20
-25.511000
30
-1.926000
70
192
0
VERTEX
8
OBJECT__5
10
42.667000
20
-26.740000
30
-1.985000
70
192
0
VERTEX
8
OBJECT__5
10
42.662998
20
-26.507999
30
-4.735000
70
192
0
VERTEX
8
OBJECT__5
10
44.533001
20
-24.690001
30
-6.704000
70
192
0
VERTEX
8
OBJECT__5
10
42.662998
20
-25.841000
30
-7.148000
70
192
0
VERTEX
8
OBJECT__5
10
44.533001
20
-24.648001
30
-6.816000
70
192
0
VERTEX
8
OBJECT__5
10
44.539001
20
-22.975000
30
-11.247000
70
192
0
VERTEX
8
OBJECT__5
10
44.533001
20
-24.642000
30
-6.831000
70
192
0
VERTEX
8
OBJECT__5
10
42.664001
20
-25.136000
30
-9.624000
70
192
0
VERTEX
8
OBJECT__5
10
42.662998
20
-25.184000
30
-9.525000
70
192
0
VERTEX
8
OBJECT__5
10
44.539001
20
-25.510000
30
-1.898000
70
192
0
VERTEX
8
OBJECT__5
10
44.539001
20
-25.510000
30
-1.888000
70
192
0
VERTEX
8
OBJECT__5
10
42.671001
20
-26.618000
30
3.269000
70
192
0
VERTEX
8
OBJECT__5
10
42.669998
20
-26.927000
30
0.218000
70
192
0
VERTEX
8
OBJECT__5
10
42.668999
20
-26.908001
30
0.003000
70
192
0
VERTEX
8
OBJECT__5
10
44.543999
20
8.002000
30
24.183001
70
192
0
VERTEX
8
OBJECT__5
10
42.672001
20
8.007000
30
25.669001
70
192
0
VERTEX
8
OBJECT__5
10
42.672001
20
7.739000
30
25.777000
70
192
0
VERTEX
8
OBJECT__5
10
42.671001
20
8.433000
30
25.496000
70
192
0
VERTEX
8
OBJECT__5
10
42.675999
20
3.297000
30
26.674000
70
192
0
VERTEX
8
OBJECT__5
10
44.547001
20
3.124000
30
25.287001
70
192
0
VERTEX
8
OBJECT__5
10
44.544998
20
6.647000
30
24.690001
70
192
0
VERTEX
8
OBJECT__5
10
42.674999
20
-15.975000
30
21.665001
70
192
0
VERTEX
8
OBJECT__5
10
44.547001
20
-15.707000
30
20.113001
70
192
0
VERTEX
8
OBJECT__5
10
44.542999
20
-12.214000
30
22.466999
70
192
0
VERTEX
8
OBJECT__5
10
42.669998
20
-12.084000
30
24.010000
70
192
0
VERTEX
8
OBJECT__5
10
42.674000
20
-16.525000
30
21.174999
70
192
0
VERTEX
8
OBJECT__5
10
44.540001
20
-19.691000
30
16.323000
70
192
0
VERTEX
8
OBJECT__5
10
42.668999
20
-20.329000
30
17.532000
70
192
0
VERTEX
8
OBJECT__5
10
42.664001
20
-22.743000
30
14.407000
70
192
0
VERTEX
8
OBJECT__5
10
44.535000
20
-22.238001
30
12.584000
70
192
0
VERTEX
8
OBJECT__5
10
42.664001
20
-23.349001
30
13.221000
70
192
0
VERTEX
8
OBJECT__5
10
44.535000
20
-22.422001
30
12.313000
70
192
0
VERTEX
8
OBJECT__5
10
44.535000
20
-22.239000
30
12.581000
70
192
0
VERTEX
8
OBJECT__5
10
42.665001
20
-25.114000
30
9.622000
70
192
0
VERTEX
8
OBJECT__5
10
42.667000
20
-25.472000
30
8.407000
70
192
0
VERTEX
8
OBJECT__5
10
42.665001
20
-25.010000
30
9.972000
70
192
0
VERTEX
8
OBJECT__5
10
44.539001
20
-24.278999
30
8.011000
70
192
0
VERTEX
8
OBJECT__5
10
42.671001
20
-26.424000
30
5.179000
70
192
0
VERTEX
8
OBJECT__5
10
44.547001
20
-16.247000
30
19.749001
70
192
0
VERTEX
8
OBJECT__5
10
44.547001
20
-15.713000
30
20.108000
70
192
0
VERTEX
8
OBJECT__5
10
42.669998
20
-19.697001
30
18.350000
70
192
0
VERTEX
8
OBJECT__5
10
44.540001
20
-19.344000
30
16.667999
70
192
0
VERTEX
8
OBJECT__5
10
42.669998
20
-19.964001
30
18.004000
70
192
0
VERTEX
8
OBJECT__5
10
44.542000
20
-1.877000
30
25.420000
70
192
0
VERTEX
8
OBJECT__5
10
42.669998
20
-2.125000
30
26.830999
70
192
0
VERTEX
8
OBJECT__5
10
42.669998
20
-2.308000
30
26.799999
70
192
0
VERTEX
8
OBJECT__5
10
42.669998
20
-1.974000
30
26.829000
70
192
0
VERTEX
8
OBJECT__5
10
42.666000
20
-7.034000
30
25.981001
70
192
0
VERTEX
8
OBJECT__5
10
44.537998
20
-6.803000
30
24.575001
70
192
0
VERTEX
8
OBJECT__5
10
44.541000
20
-3.000000
30
25.395000
70
192
0
VERTEX
8
OBJECT__5
10
42.666000
20
-7.172000
30
25.929001
70
192
0
VERTEX
8
OBJECT__5
10
44.537998
20
-7.744000
30
24.372000
70
192
0
VERTEX
8
OBJECT__5
10
44.537998
20
-6.817000
30
24.572001
70
192
0
VERTEX
8
OBJECT__5
10
42.668999
20
-11.705000
30
24.239000
70
192
0
VERTEX
8
OBJECT__5
10
44.542000
20
-11.471000
30
22.784000
70
192
0
VERTEX
8
OBJECT__5
10
42.669998
20
-12.049000
30
24.031000
70
192
0
VERTEX
8
OBJECT__5
10
44.547001
20
3.103000
30
25.291000
70
192
0
VERTEX
8
OBJECT__5
10
42.675999
20
2.856000
30
26.763000
70
192
0
VERTEX
8
OBJECT__5
10
44.548000
20
1.856000
30
25.502001
70
192
0
VERTEX
8
OBJECT__5
10
44.542000
20
22.749001
30
11.433000
70
192
0
VERTEX
8
OBJECT__5
10
42.669998
20
23.948000
30
12.041000
70
192
0
VERTEX
8
OBJECT__5
10
42.673000
20
23.100000
30
13.816000
70
192
0
VERTEX
8
OBJECT__5
10
42.674999
20
21.194000
30
16.422001
70
192
0
VERTEX
8
OBJECT__5
10
44.547001
20
20.084000
30
15.646000
70
192
0
VERTEX
8
OBJECT__5
10
44.546001
20
21.841000
30
13.298000
70
192
0
VERTEX
8
OBJECT__5
10
42.674999
20
21.150999
30
16.481001
70
192
0
VERTEX
8
OBJECT__5
10
44.543999
20
16.642000
30
19.270000
70
192
0
VERTEX
8
OBJECT__5
10
42.671001
20
17.370001
30
20.451000
70
192
0
VERTEX
8
OBJECT__5
10
42.669998
20
16.552999
30
21.219999
70
192
0
VERTEX
8
OBJECT__5
10
42.671001
20
17.533001
30
20.298000
70
192
0
VERTEX
8
OBJECT__5
10
42.667999
20
13.239000
30
23.343000
70
192
0
VERTEX
8
OBJECT__5
10
44.540001
20
12.564000
30
22.152000
70
192
0
VERTEX
8
OBJECT__5
10
44.541000
20
15.336000
30
20.458000
70
192
0
VERTEX
8
OBJECT__5
10
44.540001
20
12.539000
30
22.167000
70
192
0
VERTEX
8
OBJECT__5
10
42.667000
20
12.357000
30
23.908001
70
192
0
VERTEX
8
OBJECT__5
10
44.539001
20
11.197000
30
22.987000
70
192
0
VERTEX
8
OBJECT__5
10
44.547001
20
20.062000
30
15.675000
70
192
0
VERTEX
8
OBJECT__5
10
42.675999
20
20.183001
30
17.804001
70
192
0
VERTEX
8
OBJECT__5
10
44.548000
20
18.930000
30
17.187000
70
192
0
VERTEX
8
OBJECT__5
10
42.667999
20
26.757000
30
1.985000
70
192
0
VERTEX
8
OBJECT__5
10
42.665001
20
26.552000
30
4.450000
70
192
0
VERTEX
8
OBJECT__5
10
44.536999
20
25.225000
30
4.242000
70
192
0
VERTEX
8
OBJECT__5
10
42.665001
20
26.132000
30
6.034000
70
192
0
VERTEX
8
OBJECT__5
10
44.536999
20
24.540001
30
6.791000
70
192
0
VERTEX
8
OBJECT__5
10
42.665001
20
25.836000
30
7.151000
70
192
0
VERTEX
8
OBJECT__5
10
44.536999
20
24.537001
30
6.804000
70
192
0
VERTEX
8
OBJECT__5
10
42.665001
20
25.275999
30
9.261000
70
192
0
VERTEX
8
OBJECT__5
10
44.536999
20
23.964001
30
8.938000
70
192
0
VERTEX
8
OBJECT__5
10
42.668999
20
24.174000
30
11.567000
70
192
0
VERTEX
8
OBJECT__5
10
42.671001
20
26.923000
30
-0.002000
70
192
0
VERTEX
8
OBJECT__5
10
44.543999
20
25.570999
30
-0.589000
70
192
0
VERTEX
8
OBJECT__5
10
44.540001
20
25.393999
30
1.887000
70
192
0
VERTEX
8
OBJECT__5
10
0
20
0
30
0
70
128
71
1
72
2
73
3
0
VERTEX
8
OBJECT__5
10
0
20
0
30
0
70
128
71
4
72
5
73
6
0
VERTEX
8
OBJECT__5
10
0
20
0
30
0
70
128
71
6
72
3
73
7
0
VERTEX
8
OBJECT__5
10
0
20
0
30
0
70
128
71
6
72
7
73
4
0
VERTEX
8
OBJECT__5
10
0
20
0
30
0
70
128
71
6
72
8
73
3
0
VERTEX
8
OBJECT__5
10
0
20
0
30
0
70
128
71
9
72
10
73
11
0
VERTEX
8
OBJECT__5
10
0
20
0
30
0
70
128
71
11
72
12
73
9
0
VERTEX
8
OBJECT__5
10
0
20
0
30
0
70
128
71
11
72
13
73
12
0
VERTEX
8
OBJECT__5
10
0
20
0
30
0
70
128
71
14
72
15
73
16
0
VERTEX
8
OBJECT__5
10
0
20
0
30
0
70
128
71
17
72
18
73
14
0
VERTEX
8
OBJECT__5
10
0
20
0
30
0
70
128
71
15
72
19
73
16
0
VERTEX
8
OBJECT__5
10
0
20
0
30
0
70
128
71
20
72
21
73
22
0
VERTEX
8
OBJECT__5
10
0
20
0
30
0
70
128
71
23
72
22
73
21
0
VERTEX
8
OBJECT__5
10
0
20
0
30
0
70
128
71
21
72
24
73
23
0
VERTEX
8
OBJECT__5
10
0
20
0
30
0
70
128
71
25
72
26
73
27
0
VERTEX
8
OBJECT__5
10
0
20
0
30
0
70
128
71
26
72
28
73
27
0
VERTEX
8
OBJECT__5
10
0
20
0
30
0
70
128
71
29
72
25
73
30
0
VERTEX
8
OBJECT__5
10
0
20
0
30
0
70
128
71
30
72
31
73
29
0
VERTEX
8
OBJECT__5
10
0
20
0
30
0
70
128
71
32
72
31
73
33
0
VERTEX
8
OBJECT__5
10
0
20
0
30
0
70
128
71
33
72
34
73
32
0
VERTEX
8
OBJECT__5
10
0
20
0
30
0
70
128
71
32
72
29
73
31
0
VERTEX
8
OBJECT__5
10
0
20
0
30
0
70
128
71
1
72
34
73
35
0
VERTEX
8
OBJECT__5
10
0
20
0
30
0
70
128
71
35
72
2
73
1
0
VERTEX
8
OBJECT__5
10
0
20
0
30
0
70
128
71
36
72
37
73
38
0
VERTEX
8
OBJECT__5
10
0
20
0
30
0
70
128
71
39
72
24
73
36
0
VERTEX
8
OBJECT__5
10
0
20
0
30
0
70
128
71
38
72
39
73
36
0
VERTEX
8
OBJECT__5
10
0
20
0
30
0
70
128
71
26
72
38
73
37
0
VERTEX
8
OBJECT__5
10
0
20
0
30
0
70
128
71
37
72
28
73
26
0
VERTEX
8
OBJECT__5
10
0
20
0
30
0
70
128
71
40
72
41
73
42
0
VERTEX
8
OBJECT__5
10
0
20
0
30
0
70
128
71
43
72
44
73
40
0
VERTEX
8
OBJECT__5
10
0
20
0
30
0
70
128
71
41
72
45
73
42
0
VERTEX
8
OBJECT__5
10
0
20
0
30
0
70
128
71
46
72
47
73
48
0
VERTEX
8
OBJECT__5
10
0
20
0
30
0
70
128
71
49
72
45
73
41
0
VERTEX
8
OBJECT__5
10
0
20
0
30
0
70
128
71
41
72
50
73
49
0
VERTEX
8
OBJECT__5
10
0
20
0
30
0
70
128
71
50
72
46
73
49
0
VERTEX
8
OBJECT__5
10
0
20
0
30
0
70
128
71
51
72
48
73
47
0
VERTEX
8
OBJECT__5
10
0
20
0
30
0
70
128
71
47
72
20
73
51
0
VERTEX
8
OBJECT__5
10
0
20
0
30
0
70
128
71
52
72
44
73
53
0
VERTEX
8
OBJECT__5
10
0
20
0
30
0
70
128
71
54
72
15
73
55
0
VERTEX
8
OBJECT__5
10
0
20
0
30
0
70
128
71
55
72
52
73
54
0
VERTEX
8
OBJECT__5
10
0
20
0
30
0
70
128
71
53
72
54
73
52
0
VERTEX
8
OBJECT__5
10
0
20
0
30
0
70
128
71
44
72
43
73
53
0
VERTEX
8
OBJECT__5
10
0
20
0
30
0
70
128
71
56
72
57
73
58
0
VERTEX
8
OBJECT__5
10
0
20
0
30
0
70
128
71
57
72
59
73
58
0
VERTEX
8
OBJECT__5
10
0
20
0
30
0
70
128
71
60
72
61
73
56
0
VERTEX
8
OBJECT__5
10
0
20
0
30
0
70
128
71
62
72
63
73
64
0
VERTEX
8
OBJECT__5
10
0
20
0
30
0
70
128
71
63
72
65
73
64
0
VERTEX
8
OBJECT__5
10
0
20
0
30
0
70
128
71
66
72
67
73
62
0
VERTEX
8
OBJECT__5
10
0
20
0
30
0
70
128
71
68
72
18
73
69
0
VERTEX
8
OBJECT__5
10
0
20
0
30
0
70
128
71
66
72
70
73
71
0
VERTEX
8
OBJECT__5
10
0
20
0
30
0
70
128
71
71
72
67
73
66
0
VERTEX
8
OBJECT__5
10
0
20
0
30
0
70
128
71
70
72
68
73
71
0
VERTEX
8
OBJECT__5
10
0
20
0
30
0
70
128
71
18
72
17
73
69
0
VERTEX
8
OBJECT__5
10
0
20
0
30
0
70
128
71
72
72
73
73
74
0
VERTEX
8
OBJECT__5
10
0
20
0
30
0
70
128
71
60
72
75
73
73
0
VERTEX
8
OBJECT__5
10
0
20
0
30
0
70
128
71
73
72
61
73
60
0
VERTEX
8
OBJECT__5
10
0
20
0
30
0
70
128
71
75
72
74
73
73
0
VERTEX
8
OBJECT__5
10
0
20
0
30
0
70
128
71
65
72
63
73
72
0
VERTEX
8
OBJECT__5
10
0
20
0
30
0
70
128
71
76
72
77
73
78
0
VERTEX
8
OBJECT__5
10
0
20
0
30
0
70
128
71
78
72
79
73
76
0
VERTEX
8
OBJECT__5
10
0
20
0
30
0
70
128
71
80
72
81
73
79
0
VERTEX
8
OBJECT__5
10
0
20
0
30
0
70
128
71
78
72
80
73
79
0
VERTEX
8
OBJECT__5
10
0
20
0
30
0
70
128
71
82
72
83
73
84
0
VERTEX
8
OBJECT__5
10
0
20
0
30
0
70
128
71
80
72
85
73
83
0
VERTEX
8
OBJECT__5
10
0
20
0
30
0
70
128
71
83
72
81
73
80
0
VERTEX
8
OBJECT__5
10
0
20
0
30
0
70
128
71
85
72
84
73
83
0
VERTEX
8
OBJECT__5
10
0
20
0
30
0
70
128
71
59
72
57
73
82
0
VERTEX
8
OBJECT__5
10
0
20
0
30
0
70
128
71
77
72
86
73
87
0
VERTEX
8
OBJECT__5
10
0
20
0
30
0
70
128
71
9
72
88
73
89
0
VERTEX
8
OBJECT__5
10
0
20
0
30
0
70
128
71
89
72
87
73
9
0
VERTEX
8
OBJECT__5
10
0
20
0
30
0
70
128
71
89
72
90
73
87
0
VERTEX
8
OBJECT__5
10
0
20
0
30
0
70
128
71
87
72
90
73
77
0
VERTEX
8
OBJECT__5
10
0
20
0
30
0
70
128
71
87
72
10
73
9
0
VERTEX
8
OBJECT__5
10
0
20
0
30
0
70
128
71
91
72
92
73
93
0
VERTEX
8
OBJECT__5
10
0
20
0
30
0
70
128
71
91
72
94
73
92
0
VERTEX
8
OBJECT__5
10
0
20
0
30
0
70
128
71
95
72
96
73
97
0
VERTEX
8
OBJECT__5
10
0
20
0
30
0
70
128
71
97
72
93
73
95
0
VERTEX
8
OBJECT__5
10
0
20
0
30
0
70
128
71
98
72
99
73
100
0
VERTEX
8
OBJECT__5
10
0
20
0
30
0
70
128
71
100
72
101
73
98
0
VERTEX
8
OBJECT__5
10
0
20
0
30
0
70
128
71
98
72
102
73
99
0
VERTEX
8
OBJECT__5
10
0
20
0
30
0
70
128
71
103
72
104
73
105
0
VERTEX
8
OBJECT__5
10
0
20
0
30
0
70
128
71
105
72
106
73
103
0
VERTEX
8
OBJECT__5
10
0
20
0
30
0
70
128
71
105
72
107
73
106
0
VERTEX
8
OBJECT__5
10
0
20
0
30
0
70
128
71
107
72
108
73
109
0
VERTEX
8
OBJECT__5
10
0
20
0
30
0
70
128
71
110
72
111
73
12
0
VERTEX
8
OBJECT__5
10
0
20
0
30
0
70
128
71
108
72
107
73
112
0
VERTEX
8
OBJECT__5
10
0
20
0
30
0
70
128
71
112
72
113
73
108
0
VERTEX
8
OBJECT__5
10
0
20
0
30
0
70
128
71
112
72
110
73
113
0
VERTEX
8
OBJECT__5
10
0
20
0
30
0
70
128
71
12
72
113
73
110
0
VERTEX
8
OBJECT__5
10
0
20
0
30
0
70
128
71
12
72
111
73
114
0
VERTEX
8
OBJECT__5
10
0
20
0
30
0
70
128
71
114
72
9
73
12
0
VERTEX
8
OBJECT__5
10
0
20
0
30
0
70
128
71
102
72
115
73
116
0
VERTEX
8
OBJECT__5
10
0
20
0
30
0
70
128
71
117
72
118
73
115
0
VERTEX
8
OBJECT__5
10
0
20
0
30
0
70
128
71
115
72
102
73
117
0
VERTEX
8
OBJECT__5
10
0
20
0
30
0
70
128
71
117
72
119
73
118
0
VERTEX
8
OBJECT__5
10
0
20
0
30
0
70
128
71
119
72
104
73
118
0
VERTEX
8
OBJECT__5
10
0
20
0
30
0
70
128
71
120
72
121
73
122
0
VERTEX
8
OBJECT__5
10
0
20
0
30
0
70
128
71
120
72
123
73
121
0
VERTEX
8
OBJECT__5
10
0
20
0
30
0
70
128
71
124
72
125
73
126
0
VERTEX
8
OBJECT__5
10
0
20
0
30
0
70
128
71
126
72
122
73
124
0
VERTEX
8
OBJECT__5
10
0
20
0
30
0
70
128
71
124
72
127
73
125
0
VERTEX
8
OBJECT__5
10
0
20
0
30
0
70
128
71
127
72
128
73
129
0
VERTEX
8
OBJECT__5
10
0
20
0
30
0
70
128
71
130
72
131
73
128
0
VERTEX
8
OBJECT__5
10
0
20
0
30
0
70
128
71
128
72
127
73
130
0
VERTEX
8
OBJECT__5
10
0
20
0
30
0
70
128
71
130
72
132
73
131
0
VERTEX
8
OBJECT__5
10
0
20
0
30
0
70
128
71
132
72
101
73
131
0
VERTEX
8
OBJECT__5
10
0
20
0
30
0
70
128
71
133
72
95
73
134
0
VERTEX
8
OBJECT__5
10
0
20
0
30
0
70
128
71
134
72
135
73
133
0
VERTEX
8
OBJECT__5
10
0
20
0
30
0
70
128
71
123
72
120
73
135
0
VERTEX
8
OBJECT__5
10
0
20
0
30
0
70
128
71
135
72
134
73
123
0
VERTEX
8
OBJECT__5
10
0
20
0
30
0
70
128
71
136
72
137
73
138
0
VERTEX
8
OBJECT__5
10
0
20
0
30
0
70
128
71
139
72
140
73
141
0
VERTEX
8
OBJECT__5
10
0
20
0
30
0
70
128
71
141
72
138
73
139
0
VERTEX
8
OBJECT__5
10
0
20
0
30
0
70
128
71
139
72
142
73
140
0
VERTEX
8
OBJECT__5
10
0
20
0
30
0
70
128
71
143
72
144
73
145
0
VERTEX
8
OBJECT__5
10
0
20
0
30
0
70
128
71
143
72
146
73
144
0
VERTEX
8
OBJECT__5
10
0
20
0
30
0
70
128
71
147
72
148
73
149
0
VERTEX
8
OBJECT__5
10
0
20
0
30
0
70
128
71
149
72
145
73
147
0
VERTEX
8
OBJECT__5
10
0
20
0
30
0
70
128
71
150
72
147
73
151
0
VERTEX
8
OBJECT__5
10
0
20
0
30
0
70
128
71
151
72
152
73
150
0
VERTEX
8
OBJECT__5
10
0
20
0
30
0
70
128
71
94
72
91
73
152
0
VERTEX
8
OBJECT__5
10
0
20
0
30
0
70
128
71
152
72
151
73
94
0
VERTEX
8
OBJECT__5
10
0
20
0
30
0
70
128
71
153
72
142
73
154
0
VERTEX
8
OBJECT__5
10
0
20
0
30
0
70
128
71
154
72
155
73
153
0
VERTEX
8
OBJECT__5
10
0
20
0
30
0
70
128
71
146
72
143
73
155
0
VERTEX
8
OBJECT__5
10
0
20
0
30
0
70
128
71
155
72
154
73
146
0
VERTEX
8
OBJECT__5
10
0
20
0
30
0
70
128
71
156
72
157
73
158
0
VERTEX
8
OBJECT__5
10
0
20
0
30
0
70
128
71
158
72
157
73
159
0
VERTEX
8
OBJECT__5
10
0
20
0
30
0
70
128
71
159
72
160
73
158
0
VERTEX
8
OBJECT__5
10
0
20
0
30
0
70
128
71
159
72
161
73
160
0
VERTEX
8
OBJECT__5
10
0
20
0
30
0
70
128
71
162
72
161
73
163
0
VERTEX
8
OBJECT__5
10
0
20
0
30
0
70
128
71
163
72
164
73
162
0
VERTEX
8
OBJECT__5
10
0
20
0
30
0
70
128
71
164
72
163
73
165
0
VERTEX
8
OBJECT__5
10
0
20
0
30
0
70
128
71
165
72
136
73
164
0
VERTEX
8
OBJECT__5
10
0
20
0
30
0
70
128
71
165
72
137
73
136
0
VERTEX
8
OBJECT__5
10
0
20
0
30
0
70
128
71
4
72
166
73
167
0
VERTEX
8
OBJECT__5
10
0
20
0
30
0
70
128
71
168
72
167
73
166
0
VERTEX
8
OBJECT__5
10
0
20
0
30
0
70
128
71
166
72
156
73
168
0
VERTEX
8
OBJECT__5
10
0
20
0
30
0
70
128
71
167
72
5
73
4
0
VERTEX
8
OBJECT__5
10
0
20
0
30
0
70
128
71
162
72
160
73
161
0
VERTEX
8
OBJECT__5
10
0
20
0
30
0
70
128
71
158
72
168
73
156
0
VERTEX
8
OBJECT__5
10
0
20
0
30
0
70
128
71
153
72
140
73
142
0
VERTEX
8
OBJECT__5
10
0
20
0
30
0
70
128
71
150
72
148
73
147
0
VERTEX
8
OBJECT__5
10
0
20
0
30
0
70
128
71
145
72
149
73
143
0
VERTEX
8
OBJECT__5
10
0
20
0
30
0
70
128
71
138
72
141
73
136
0
VERTEX
8
OBJECT__5
10
0
20
0
30
0
70
128
71
133
72
96
73
95
0
VERTEX
8
OBJECT__5
10
0
20
0
30
0
70
128
71
129
72
125
73
127
0
VERTEX
8
OBJECT__5
10
0
20
0
30
0
70
128
71
122
72
126
73
120
0
VERTEX
8
OBJECT__5
10
0
20
0
30
0
70
128
71
116
72
99
73
102
0
VERTEX
8
OBJECT__5
10
0
20
0
30
0
70
128
71
114
72
88
73
9
0
VERTEX
8
OBJECT__5
10
0
20
0
30
0
70
128
71
109
72
106
73
107
0
VERTEX
8
OBJECT__5
10
0
20
0
30
0
70
128
71
103
72
118
73
104
0
VERTEX
8
OBJECT__5
10
0
20
0
30
0
70
128
71
100
72
131
73
101
0
VERTEX
8
OBJECT__5
10
0
20
0
30
0
70
128
71
93
72
97
73
91
0
VERTEX
8
OBJECT__5
10
0
20
0
30
0
70
128
71
84
72
59
73
82
0
VERTEX
8
OBJECT__5
10
0
20
0
30
0
70
128
71
76
72
86
73
77
0
VERTEX
8
OBJECT__5
10
0
20
0
30
0
70
128
71
74
72
65
73
72
0
VERTEX
8
OBJECT__5
10
0
20
0
30
0
70
128
71
69
72
71
73
68
0
VERTEX
8
OBJECT__5
10
0
20
0
30
0
70
128
71
64
72
66
73
62
0
VERTEX
8
OBJECT__5
10
0
20
0
30
0
70
128
71
58
72
60
73
56
0
VERTEX
8
OBJECT__5
10
0
20
0
30
0
70
128
71
54
72
19
73
15
0
VERTEX
8
OBJECT__5
10
0
20
0
30
0
70
128
71
48
72
49
73
46
0
VERTEX
8
OBJECT__5
10
0
20
0
30
0
70
128
71
42
72
43
73
40
0
VERTEX
8
OBJECT__5
10
0
20
0
30
0
70
128
71
39
72
23
73
24
0
VERTEX
8
OBJECT__5
10
0
20
0
30
0
70
128
71
33
72
35
73
34
0
VERTEX
8
OBJECT__5
10
0
20
0
30
0
70
128
71
27
72
30
73
25
0
VERTEX
8
OBJECT__5
10
0
20
0
30
0
70
128
71
22
72
51
73
20
0
VERTEX
8
OBJECT__5
10
0
20
0
30
0
70
128
71
16
72
17
73
14
0
VERTEX
8
OBJECT__5
10
0
20
0
30
0
70
128
71
13
72
113
73
12
0
VERTEX
8
OBJECT__5
10
0
20
0
30
0
70
128
71
3
72
8
73
1
0
SEQEND
8
OBJECT__5
0
POLYLINE
8
OBJECT__6
66
1
70
64
71
143
72
143
62
253
0
VERTEX
8
OBJECT__6
10
6.934000
20
27.049000
30
-3.173000
70
192
0
VERTEX
8
OBJECT__6
10
42.672001
20
26.618999
30
-3.271000
70
192
0
VERTEX
8
OBJECT__6
10
42.673000
20
26.462000
30
-4.958000
70
192
0
VERTEX
8
OBJECT__6
10
42.671001
20
26.923000
30
-0.002000
70
192
0
VERTEX
8
OBJECT__6
10
6.934000
20
27.163000
30
0.001000
70
192
0
VERTEX
8
OBJECT__6
10
6.934000
20
26.438999
30
-6.114000
70
192
0
VERTEX
8
OBJECT__6
10
6.934000
20
24.548000
30
-11.750000
70
192
0
VERTEX
8
OBJECT__6
10
6.934000
20
26.082001
30
-7.833000
70
192
0
VERTEX
8
OBJECT__6
10
42.667000
20
25.103001
30
-9.720000
70
192
0
VERTEX
8
OBJECT__6
10
42.672001
20
26.153000
30
-6.041000
70
192
0
VERTEX
8
OBJECT__6
10
42.668999
20
25.476000
30
-8.412000
70
192
0
VERTEX
8
OBJECT__6
10
42.669998
20
21.184000
30
-16.416000
70
192
0
VERTEX
8
OBJECT__6
10
6.934000
20
21.480000
30
-16.641001
70
192
0
VERTEX
8
OBJECT__6
10
6.934000
20
22.021999
30
-16.011000
70
192
0
VERTEX
8
OBJECT__6
10
6.934000
20
24.479000
30
-11.927000
70
192
0
VERTEX
8
OBJECT__6
10
42.666000
20
23.354000
30
-13.227000
70
192
0
VERTEX
8
OBJECT__6
10
42.666000
20
22.879999
30
-14.177000
70
192
0
VERTEX
8
OBJECT__6
10
42.667000
20
24.180000
30
-11.571000
70
192
0
VERTEX
8
OBJECT__6
10
42.675999
20
17.355000
30
-20.438000
70
192
0
VERTEX
8
OBJECT__6
10
6.934000
20
17.559000
30
-20.671000
70
192
0
VERTEX
8
OBJECT__6
10
6.934000
20
19.155001
30
-19.346001
70
192
0
VERTEX
8
OBJECT__6
10
42.671001
20
20.333000
30
-17.541000
70
192
0
VERTEX
8
OBJECT__6
10
42.672001
20
19.872000
30
-18.150000
70
192
0
VERTEX
8
OBJECT__6
10
42.667000
20
7.992000
30
-25.636999
70
192
0
VERTEX
8
OBJECT__6
10
6.934000
20
8.083000
30
-25.927999
70
192
0
VERTEX
8
OBJECT__6
10
6.934000
20
11.660000
30
-24.601000
70
192
0
VERTEX
8
OBJECT__6
10
42.671001
20
12.088000
30
-24.028000
70
192
0
VERTEX
8
OBJECT__6
10
6.934000
20
15.488000
30
-22.389000
70
192
0
VERTEX
8
OBJECT__6
10
42.676998
20
16.530001
30
-21.187000
70
192
0
VERTEX
8
OBJECT__6
10
42.676998
20
16.181999
30
-21.504000
70
192
0
VERTEX
8
OBJECT__6
10
42.671001
20
11.937000
30
-24.121000
70
192
0
VERTEX
8
OBJECT__6
10
42.675999
20
-2.314000
30
-26.790001
70
192
0
VERTEX
8
OBJECT__6
10
6.934000
20
-2.332000
30
-27.023001
70
192
0
VERTEX
8
OBJECT__6
10
6.934000
20
-0.002000
30
-27.226999
70
192
0
VERTEX
8
OBJECT__6
10
42.671001
20
1.967000
30
-26.808001
70
192
0
VERTEX
8
OBJECT__6
10
6.934000
20
2.848000
30
-27.077000
70
192
0
VERTEX
8
OBJECT__6
10
42.669998
20
2.378000
30
-26.809000
70
192
0
VERTEX
8
OBJECT__6
10
6.934000
20
7.195000
30
-26.257999
70
192
0
VERTEX
8
OBJECT__6
10
42.666000
20
7.281000
30
-25.910000
70
192
0
VERTEX
8
OBJECT__6
10
42.667000
20
7.168000
30
-25.931000
70
192
0
VERTEX
8
OBJECT__6
10
42.666000
20
-12.067000
30
-24.052999
70
192
0
VERTEX
8
OBJECT__6
10
6.934000
20
-12.175000
30
-24.263000
70
192
0
VERTEX
8
OBJECT__6
10
6.934000
20
-9.016000
30
-25.691999
70
192
0
VERTEX
8
OBJECT__6
10
42.672001
20
-7.496000
30
-25.851000
70
192
0
VERTEX
8
OBJECT__6
10
42.669998
20
-8.435000
30
-25.482000
70
192
0
VERTEX
8
OBJECT__6
10
6.934000
20
-4.746000
30
-26.811001
70
192
0
VERTEX
8
OBJECT__6
10
42.674999
20
-3.301000
30
-26.655001
70
192
0
VERTEX
8
OBJECT__6
10
42.675999
20
-2.603000
30
-26.789000
70
192
0
VERTEX
8
OBJECT__6
10
6.934000
20
-20.208000
30
-18.212999
70
192
0
VERTEX
8
OBJECT__6
10
42.667000
20
-16.354000
30
-21.379999
70
192
0
VERTEX
8
OBJECT__6
10
42.668999
20
-17.534000
30
-20.292000
70
192
0
VERTEX
8
OBJECT__6
10
42.666000
20
-12.132000
30
-24.028000
70
192
0
VERTEX
8
OBJECT__6
10
42.666000
20
-13.241000
30
-23.332001
70
192
0
VERTEX
8
OBJECT__6
10
6.934000
20
-17.014000
30
-21.261000
70
192
0
VERTEX
8
OBJECT__6
10
6.934000
20
-13.357000
30
-23.728001
70
192
0
VERTEX
8
OBJECT__6
10
42.673000
20
-19.993000
30
-18.021999
70
192
0
VERTEX
8
OBJECT__6
10
42.664001
20
-25.136000
30
-9.624000
70
192
0
VERTEX
8
OBJECT__6
10
6.934000
20
-25.403000
30
-9.729000
70
192
0
VERTEX
8
OBJECT__6
10
6.934000
20
-25.261000
30
-10.185000
70
192
0
VERTEX
8
OBJECT__6
10
6.934000
20
-23.098000
30
-14.428000
70
192
0
VERTEX
8
OBJECT__6
10
42.671001
20
-22.995001
30
-14.003000
70
192
0
VERTEX
8
OBJECT__6
10
42.667999
20
-23.952999
30
-12.042000
70
192
0
VERTEX
8
OBJECT__6
10
6.934000
20
-20.461000
30
-17.971001
70
192
0
VERTEX
8
OBJECT__6
10
42.673000
20
-21.153999
30
-16.474001
70
192
0
VERTEX
8
OBJECT__6
10
42.673000
20
-20.017000
30
-18.000000
70
192
0
VERTEX
8
OBJECT__6
10
6.934000
20
-27.167000
30
-0.001000
70
192
0
VERTEX
8
OBJECT__6
10
42.662998
20
-26.507999
30
-4.735000
70
192
0
VERTEX
8
OBJECT__6
10
42.667000
20
-26.740000
30
-1.985000
70
192
0
VERTEX
8
OBJECT__6
10
42.662998
20
-25.184000
30
-9.525000
70
192
0
VERTEX
8
OBJECT__6
10
42.662998
20
-25.841000
30
-7.148000
70
192
0
VERTEX
8
OBJECT__6
10
6.934000
20
-27.211000
30
-1.248000
70
192
0
VERTEX
8
OBJECT__6
10
6.934000
20
-26.577000
30
-5.967000
70
192
0
VERTEX
8
OBJECT__6
10
42.668999
20
-26.908001
30
0.003000
70
192
0
VERTEX
8
OBJECT__6
10
6.934000
20
-25.353001
30
9.710000
70
192
0
VERTEX
8
OBJECT__6
10
6.934000
20
-26.090000
30
7.823000
70
192
0
VERTEX
8
OBJECT__6
10
42.667000
20
-25.472000
30
8.407000
70
192
0
VERTEX
8
OBJECT__6
10
6.934000
20
-27.055000
30
3.160000
70
192
0
VERTEX
8
OBJECT__6
10
42.671001
20
-26.424000
30
5.179000
70
192
0
VERTEX
8
OBJECT__6
10
42.669998
20
-26.927000
30
0.218000
70
192
0
VERTEX
8
OBJECT__6
10
42.671001
20
-26.618000
30
3.269000
70
192
0
VERTEX
8
OBJECT__6
10
42.668999
20
-20.329000
30
17.532000
70
192
0
VERTEX
8
OBJECT__6
10
6.934000
20
-20.164000
30
18.183001
70
192
0
VERTEX
8
OBJECT__6
10
6.934000
20
-22.032000
30
16.007999
70
192
0
VERTEX
8
OBJECT__6
10
42.664001
20
-22.743000
30
14.407000
70
192
0
VERTEX
8
OBJECT__6
10
6.934000
20
-24.487000
30
11.925000
70
192
0
VERTEX
8
OBJECT__6
10
42.664001
20
-23.349001
30
13.221000
70
192
0
VERTEX
8
OBJECT__6
10
42.665001
20
-25.010000
30
9.972000
70
192
0
VERTEX
8
OBJECT__6
10
42.665001
20
-25.114000
30
9.622000
70
192
0
VERTEX
8
OBJECT__6
10
42.669998
20
-12.084000
30
24.010000
70
192
0
VERTEX
8
OBJECT__6
10
6.934000
20
-12.185000
30
24.302999
70
192
0
VERTEX
8
OBJECT__6
10
6.934000
20
-15.494000
30
22.392000
70
192
0
VERTEX
8
OBJECT__6
10
42.674000
20
-16.525000
30
21.174999
70
192
0
VERTEX
8
OBJECT__6
10
42.674999
20
-15.975000
30
21.665001
70
192
0
VERTEX
8
OBJECT__6
10
6.934000
20
-19.162001
30
19.349001
70
192
0
VERTEX
8
OBJECT__6
10
42.669998
20
-19.697001
30
18.350000
70
192
0
VERTEX
8
OBJECT__6
10
42.669998
20
-19.964001
30
18.004000
70
192
0
VERTEX
8
OBJECT__6
10
42.666000
20
-7.034000
30
25.981001
70
192
0
VERTEX
8
OBJECT__6
10
42.669998
20
-2.308000
30
26.799999
70
192
0
VERTEX
8
OBJECT__6
10
6.934000
20
-2.865000
30
27.076000
70
192
0
VERTEX
8
OBJECT__6
10
6.934000
20
-2.337000
30
27.104000
70
192
0
VERTEX
8
OBJECT__6
10
42.666000
20
-7.172000
30
25.929001
70
192
0
VERTEX
8
OBJECT__6
10
6.934000
20
-7.207000
30
26.257000
70
192
0
VERTEX
8
OBJECT__6
10
6.934000
20
-11.673000
30
24.599001
70
192
0
VERTEX
8
OBJECT__6
10
42.668999
20
-11.705000
30
24.239000
70
192
0
VERTEX
8
OBJECT__6
10
42.669998
20
-12.049000
30
24.031000
70
192
0
VERTEX
8
OBJECT__6
10
42.672001
20
7.739000
30
25.777000
70
192
0
VERTEX
8
OBJECT__6
10
6.934000
20
8.094000
30
25.931000
70
192
0
VERTEX
8
OBJECT__6
10
6.934000
20
4.746000
30
26.809000
70
192
0
VERTEX
8
OBJECT__6
10
42.669998
20
-1.974000
30
26.829000
70
192
0
VERTEX
8
OBJECT__6
10
42.675999
20
2.856000
30
26.763000
70
192
0
VERTEX
8
OBJECT__6
10
42.669998
20
-2.125000
30
26.830999
70
192
0
VERTEX
8
OBJECT__6
10
6.934000
20
0.002000
30
27.226999
70
192
0
VERTEX
8
OBJECT__6
10
42.675999
20
3.297000
30
26.674000
70
192
0
VERTEX
8
OBJECT__6
10
42.671001
20
17.370001
30
20.451000
70
192
0
VERTEX
8
OBJECT__6
10
6.934000
20
17.587000
30
20.705000
70
192
0
VERTEX
8
OBJECT__6
10
6.934000
20
17.009001
30
21.257000
70
192
0
VERTEX
8
OBJECT__6
10
6.934000
20
13.354000
30
23.724001
70
192
0
VERTEX
8
OBJECT__6
10
42.667999
20
13.239000
30
23.343000
70
192
0
VERTEX
8
OBJECT__6
10
42.669998
20
16.552999
30
21.219999
70
192
0
VERTEX
8
OBJECT__6
10
42.667000
20
12.357000
30
23.908001
70
192
0
VERTEX
8
OBJECT__6
10
6.934000
20
9.014000
30
25.690001
70
192
0
VERTEX
8
OBJECT__6
10
42.671001
20
8.433000
30
25.496000
70
192
0
VERTEX
8
OBJECT__6
10
42.672001
20
8.007000
30
25.669001
70
192
0
VERTEX
8
OBJECT__6
10
6.934000
20
20.457001
30
17.965000
70
192
0
VERTEX
8
OBJECT__6
10
42.675999
20
20.183001
30
17.804001
70
192
0
VERTEX
8
OBJECT__6
10
42.674999
20
21.150999
30
16.481001
70
192
0
VERTEX
8
OBJECT__6
10
42.671001
20
17.533001
30
20.298000
70
192
0
VERTEX
8
OBJECT__6
10
6.934000
20
21.455999
30
16.622999
70
192
0
VERTEX
8
OBJECT__6
10
6.934000
20
23.093000
30
14.424000
70
192
0
VERTEX
8
OBJECT__6
10
42.673000
20
23.100000
30
13.816000
70
192
0
VERTEX
8
OBJECT__6
10
42.669998
20
23.948000
30
12.041000
70
192
0
VERTEX
8
OBJECT__6
10
6.934000
20
24.476999
30
11.709000
70
192
0
VERTEX
8
OBJECT__6
10
42.674999
20
21.194000
30
16.422001
70
192
0
VERTEX
8
OBJECT__6
10
6.934000
20
25.256001
30
10.182000
70
192
0
VERTEX
8
OBJECT__6
10
42.665001
20
25.275999
30
9.261000
70
192
0
VERTEX
8
OBJECT__6
10
42.665001
20
25.836000
30
7.151000
70
192
0
VERTEX
8
OBJECT__6
10
6.934000
20
26.521000
30
6.126000
70
192
0
VERTEX
8
OBJECT__6
10
42.668999
20
24.174000
30
11.567000
70
192
0
VERTEX
8
OBJECT__6
10
6.934000
20
27.207001
30
1.239000
70
192
0
VERTEX
8
OBJECT__6
10
6.934000
20
26.575001
30
5.955000
70
192
0
VERTEX
8
OBJECT__6
10
42.665001
20
26.552000
30
4.450000
70
192
0
VERTEX
8
OBJECT__6
10
42.667999
20
26.757000
30
1.985000
70
192
0
VERTEX
8
OBJECT__6
10
42.665001
20
26.132000
30
6.034000
70
192
0
VERTEX
8
OBJECT__6
10
0
20
0
30
0
70
128
71
1
72
2
73
3
0
VERTEX
8
OBJECT__6
10
0
20
0
30
0
70
128
71
4
72
2
73
1
0
VERTEX
8
OBJECT__6
10
0
20
0
30
0
70
128
71
1
72
5
73
4
0
VERTEX
8
OBJECT__6
10
0
20
0
30
0
70
128
71
3
72
6
73
1
0
VERTEX
8
OBJECT__6
10
0
20
0
30
0
70
128
71
7
72
8
73
9
0
VERTEX
8
OBJECT__6
10
0
20
0
30
0
70
128
71
10
72
11
73
8
0
VERTEX
8
OBJECT__6
10
0
20
0
30
0
70
128
71
8
72
6
73
10
0
VERTEX
8
OBJECT__6
10
0
20
0
30
0
70
128
71
11
72
9
73
8
0
VERTEX
8
OBJECT__6
10
0
20
0
30
0
70
128
71
12
72
13
73
14
0
VERTEX
8
OBJECT__6
10
0
20
0
30
0
70
128
71
15
72
16
73
17
0
VERTEX
8
OBJECT__6
10
0
20
0
30
0
70
128
71
18
72
16
73
15
0
VERTEX
8
OBJECT__6
10
0
20
0
30
0
70
128
71
15
72
7
73
18
0
VERTEX
8
OBJECT__6
10
0
20
0
30
0
70
128
71
17
72
14
73
15
0
VERTEX
8
OBJECT__6
10
0
20
0
30
0
70
128
71
19
72
20
73
21
0
VERTEX
8
OBJECT__6
10
0
20
0
30
0
70
128
71
21
72
13
73
22
0
VERTEX
8
OBJECT__6
10
0
20
0
30
0
70
128
71
13
72
12
73
22
0
VERTEX
8
OBJECT__6
10
0
20
0
30
0
70
128
71
22
72
23
73
21
0
VERTEX
8
OBJECT__6
10
0
20
0
30
0
70
128
71
24
72
25
73
26
0
VERTEX
8
OBJECT__6
10
0
20
0
30
0
70
128
71
27
72
26
73
28
0
VERTEX
8
OBJECT__6
10
0
20
0
30
0
70
128
71
28
72
20
73
29
0
VERTEX
8
OBJECT__6
10
0
20
0
30
0
70
128
71
29
72
30
73
28
0
VERTEX
8
OBJECT__6
10
0
20
0
30
0
70
128
71
20
72
19
73
29
0
VERTEX
8
OBJECT__6
10
0
20
0
30
0
70
128
71
28
72
30
73
27
0
VERTEX
8
OBJECT__6
10
0
20
0
30
0
70
128
71
27
72
31
73
26
0
VERTEX
8
OBJECT__6
10
0
20
0
30
0
70
128
71
32
72
33
73
34
0
VERTEX
8
OBJECT__6
10
0
20
0
30
0
70
128
71
34
72
35
73
32
0
VERTEX
8
OBJECT__6
10
0
20
0
30
0
70
128
71
36
72
37
73
35
0
VERTEX
8
OBJECT__6
10
0
20
0
30
0
70
128
71
38
72
39
73
40
0
VERTEX
8
OBJECT__6
10
0
20
0
30
0
70
128
71
40
72
36
73
38
0
VERTEX
8
OBJECT__6
10
0
20
0
30
0
70
128
71
40
72
37
73
36
0
VERTEX
8
OBJECT__6
10
0
20
0
30
0
70
128
71
25
72
24
73
39
0
VERTEX
8
OBJECT__6
10
0
20
0
30
0
70
128
71
39
72
38
73
25
0
VERTEX
8
OBJECT__6
10
0
20
0
30
0
70
128
71
41
72
42
73
43
0
VERTEX
8
OBJECT__6
10
0
20
0
30
0
70
128
71
43
72
44
73
45
0
VERTEX
8
OBJECT__6
10
0
20
0
30
0
70
128
71
46
72
47
73
44
0
VERTEX
8
OBJECT__6
10
0
20
0
30
0
70
128
71
44
72
43
73
46
0
VERTEX
8
OBJECT__6
10
0
20
0
30
0
70
128
71
33
72
32
73
48
0
VERTEX
8
OBJECT__6
10
0
20
0
30
0
70
128
71
48
72
47
73
33
0
VERTEX
8
OBJECT__6
10
0
20
0
30
0
70
128
71
46
72
33
73
47
0
VERTEX
8
OBJECT__6
10
0
20
0
30
0
70
128
71
49
72
50
73
51
0
VERTEX
8
OBJECT__6
10
0
20
0
30
0
70
128
71
49
72
52
73
53
0
VERTEX
8
OBJECT__6
10
0
20
0
30
0
70
128
71
53
72
50
73
49
0
VERTEX
8
OBJECT__6
10
0
20
0
30
0
70
128
71
42
72
41
73
52
0
VERTEX
8
OBJECT__6
10
0
20
0
30
0
70
128
71
52
72
49
73
54
0
VERTEX
8
OBJECT__6
10
0
20
0
30
0
70
128
71
54
72
55
73
52
0
VERTEX
8
OBJECT__6
10
0
20
0
30
0
70
128
71
52
72
55
73
42
0
VERTEX
8
OBJECT__6
10
0
20
0
30
0
70
128
71
51
72
56
73
49
0
VERTEX
8
OBJECT__6
10
0
20
0
30
0
70
128
71
57
72
58
73
59
0
VERTEX
8
OBJECT__6
10
0
20
0
30
0
70
128
71
60
72
61
73
62
0
VERTEX
8
OBJECT__6
10
0
20
0
30
0
70
128
71
62
72
59
73
60
0
VERTEX
8
OBJECT__6
10
0
20
0
30
0
70
128
71
60
72
63
73
64
0
VERTEX
8
OBJECT__6
10
0
20
0
30
0
70
128
71
65
72
64
73
63
0
VERTEX
8
OBJECT__6
10
0
20
0
30
0
70
128
71
49
72
56
73
65
0
VERTEX
8
OBJECT__6
10
0
20
0
30
0
70
128
71
63
72
49
73
65
0
VERTEX
8
OBJECT__6
10
0
20
0
30
0
70
128
71
64
72
61
73
60
0
VERTEX
8
OBJECT__6
10
0
20
0
30
0
70
128
71
66
72
67
73
68
0
VERTEX
8
OBJECT__6
10
0
20
0
30
0
70
128
71
66
72
69
73
70
0
VERTEX
8
OBJECT__6
10
0
20
0
30
0
70
128
71
70
72
67
73
66
0
VERTEX
8
OBJECT__6
10
0
20
0
30
0
70
128
71
58
72
57
73
69
0
VERTEX
8
OBJECT__6
10
0
20
0
30
0
70
128
71
69
72
66
73
71
0
VERTEX
8
OBJECT__6
10
0
20
0
30
0
70
128
71
71
72
72
73
69
0
VERTEX
8
OBJECT__6
10
0
20
0
30
0
70
128
71
69
72
72
73
58
0
VERTEX
8
OBJECT__6
10
0
20
0
30
0
70
128
71
68
72
73
73
66
0
VERTEX
8
OBJECT__6
10
0
20
0
30
0
70
128
71
74
72
75
73
76
0
VERTEX
8
OBJECT__6
10
0
20
0
30
0
70
128
71
75
72
77
73
78
0
VERTEX
8
OBJECT__6
10
0
20
0
30
0
70
128
71
78
72
76
73
75
0
VERTEX
8
OBJECT__6
10
0
20
0
30
0
70
128
71
77
72
66
73
79
0
VERTEX
8
OBJECT__6
10
0
20
0
30
0
70
128
71
79
72
80
73
77
0
VERTEX
8
OBJECT__6
10
0
20
0
30
0
70
128
71
80
72
78
73
77
0
VERTEX
8
OBJECT__6
10
0
20
0
30
0
70
128
71
66
72
73
73
79
0
VERTEX
8
OBJECT__6
10
0
20
0
30
0
70
128
71
81
72
82
73
83
0
VERTEX
8
OBJECT__6
10
0
20
0
30
0
70
128
71
83
72
84
73
81
0
VERTEX
8
OBJECT__6
10
0
20
0
30
0
70
128
71
85
72
86
73
84
0
VERTEX
8
OBJECT__6
10
0
20
0
30
0
70
128
71
87
72
86
73
85
0
VERTEX
8
OBJECT__6
10
0
20
0
30
0
70
128
71
85
72
74
73
87
0
VERTEX
8
OBJECT__6
10
0
20
0
30
0
70
128
71
74
72
88
73
87
0
VERTEX
8
OBJECT__6
10
0
20
0
30
0
70
128
71
84
72
83
73
85
0
VERTEX
8
OBJECT__6
10
0
20
0
30
0
70
128
71
89
72
90
73
91
0
VERTEX
8
OBJECT__6
10
0
20
0
30
0
70
128
71
91
72
92
73
93
0
VERTEX
8
OBJECT__6
10
0
20
0
30
0
70
128
71
94
72
95
73
92
0
VERTEX
8
OBJECT__6
10
0
20
0
30
0
70
128
71
92
72
91
73
94
0
VERTEX
8
OBJECT__6
10
0
20
0
30
0
70
128
71
94
72
82
73
95
0
VERTEX
8
OBJECT__6
10
0
20
0
30
0
70
128
71
91
72
93
73
89
0
VERTEX
8
OBJECT__6
10
0
20
0
30
0
70
128
71
82
72
96
73
95
0
VERTEX
8
OBJECT__6
10
0
20
0
30
0
70
128
71
97
72
98
73
99
0
VERTEX
8
OBJECT__6
10
0
20
0
30
0
70
128
71
98
72
100
73
99
0
VERTEX
8
OBJECT__6
10
0
20
0
30
0
70
128
71
101
72
102
73
103
0
VERTEX
8
OBJECT__6
10
0
20
0
30
0
70
128
71
103
72
104
73
101
0
VERTEX
8
OBJECT__6
10
0
20
0
30
0
70
128
71
90
72
105
73
104
0
VERTEX
8
OBJECT__6
10
0
20
0
30
0
70
128
71
104
72
103
73
90
0
VERTEX
8
OBJECT__6
10
0
20
0
30
0
70
128
71
101
72
97
73
102
0
VERTEX
8
OBJECT__6
10
0
20
0
30
0
70
128
71
106
72
107
73
108
0
VERTEX
8
OBJECT__6
10
0
20
0
30
0
70
128
71
108
72
109
73
110
0
VERTEX
8
OBJECT__6
10
0
20
0
30
0
70
128
71
100
72
111
73
109
0
VERTEX
8
OBJECT__6
10
0
20
0
30
0
70
128
71
109
72
108
73
112
0
VERTEX
8
OBJECT__6
10
0
20
0
30
0
70
128
71
109
72
112
73
100
0
VERTEX
8
OBJECT__6
10
0
20
0
30
0
70
128
71
110
72
113
73
108
0
VERTEX
8
OBJECT__6
10
0
20
0
30
0
70
128
71
108
72
113
73
106
0
VERTEX
8
OBJECT__6
10
0
20
0
30
0
70
128
71
100
72
98
73
111
0
VERTEX
8
OBJECT__6
10
0
20
0
30
0
70
128
71
114
72
115
73
116
0
VERTEX
8
OBJECT__6
10
0
20
0
30
0
70
128
71
117
72
118
73
119
0
VERTEX
8
OBJECT__6
10
0
20
0
30
0
70
128
71
117
72
120
73
118
0
VERTEX
8
OBJECT__6
10
0
20
0
30
0
70
128
71
119
72
116
73
117
0
VERTEX
8
OBJECT__6
10
0
20
0
30
0
70
128
71
121
72
122
73
120
0
VERTEX
8
OBJECT__6
10
0
20
0
30
0
70
128
71
120
72
117
73
121
0
VERTEX
8
OBJECT__6
10
0
20
0
30
0
70
128
71
107
72
123
73
122
0
VERTEX
8
OBJECT__6
10
0
20
0
30
0
70
128
71
121
72
107
73
122
0
VERTEX
8
OBJECT__6
10
0
20
0
30
0
70
128
71
124
72
125
73
126
0
VERTEX
8
OBJECT__6
10
0
20
0
30
0
70
128
71
124
72
115
73
127
0
VERTEX
8
OBJECT__6
10
0
20
0
30
0
70
128
71
127
72
125
73
124
0
VERTEX
8
OBJECT__6
10
0
20
0
30
0
70
128
71
115
72
114
73
127
0
VERTEX
8
OBJECT__6
10
0
20
0
30
0
70
128
71
126
72
128
73
124
0
VERTEX
8
OBJECT__6
10
0
20
0
30
0
70
128
71
129
72
130
73
131
0
VERTEX
8
OBJECT__6
10
0
20
0
30
0
70
128
71
131
72
132
73
129
0
VERTEX
8
OBJECT__6
10
0
20
0
30
0
70
128
71
133
72
130
73
129
0
VERTEX
8
OBJECT__6
10
0
20
0
30
0
70
128
71
129
72
128
73
133
0
VERTEX
8
OBJECT__6
10
0
20
0
30
0
70
128
71
134
72
135
73
136
0
VERTEX
8
OBJECT__6
10
0
20
0
30
0
70
128
71
136
72
137
73
134
0
VERTEX
8
OBJECT__6
10
0
20
0
30
0
70
128
71
138
72
135
73
134
0
VERTEX
8
OBJECT__6
10
0
20
0
30
0
70
128
71
134
72
132
73
138
0
VERTEX
8
OBJECT__6
10
0
20
0
30
0
70
128
71
4
72
5
73
139
0
VERTEX
8
OBJECT__6
10
0
20
0
30
0
70
128
71
139
72
140
73
141
0
VERTEX
8
OBJECT__6
10
0
20
0
30
0
70
128
71
141
72
142
73
139
0
VERTEX
8
OBJECT__6
10
0
20
0
30
0
70
128
71
143
72
141
73
140
0
VERTEX
8
OBJECT__6
10
0
20
0
30
0
70
128
71
140
72
137
73
143
0
VERTEX
8
OBJECT__6
10
0
20
0
30
0
70
128
71
139
72
142
73
4
0
VERTEX
8
OBJECT__6
10
0
20
0
30
0
70
128
71
136
72
143
73
137
0
VERTEX
8
OBJECT__6
10
0
20
0
30
0
70
128
71
131
72
138
73
132
0
VERTEX
8
OBJECT__6
10
0
20
0
30
0
70
128
71
126
72
133
73
128
0
VERTEX
8
OBJECT__6
10
0
20
0
30
0
70
128
71
116
72
119
73
114
0
VERTEX
8
OBJECT__6
10
0
20
0
30
0
70
128
71
106
72
123
73
107
0
VERTEX
8
OBJECT__6
10
0
20
0
30
0
70
128
71
99
72
102
73
97
0
VERTEX
8
OBJECT__6
10
0
20
0
30
0
70
128
71
89
72
105
73
90
0
VERTEX
8
OBJECT__6
10
0
20
0
30
0
70
128
71
81
72
96
73
82
0
VERTEX
8
OBJECT__6
10
0
20
0
30
0
70
128
71
76
72
88
73
74
0
VERTEX
8
OBJECT__6
10
0
20
0
30
0
70
128
71
59
72
62
73
57
0
VERTEX
8
OBJECT__6
10
0
20
0
30
0
70
128
71
43
72
45
73
41
0
VERTEX
8
OBJECT__6
10
0
20
0
30
0
70
128
71
34
72
36
73
35
0
VERTEX
8
OBJECT__6
10
0
20
0
30
0
70
128
71
26
72
31
73
24
0
VERTEX
8
OBJECT__6
10
0
20
0
30
0
70
128
71
21
72
23
73
19
0
VERTEX
8
OBJECT__6
10
0
20
0
30
0
70
128
71
14
72
17
73
12
0
VERTEX
8
OBJECT__6
10
0
20
0
30
0
70
128
71
9
72
18
73
7
0
VERTEX
8
OBJECT__6
10
0
20
0
30
0
70
128
71
3
72
10
73
6
0
SEQEND
8
OBJECT__6
0
POLYLINE
8
OBJECT__7
66
1
70
64
71
61
72
60
62
253
0
VERTEX
8
OBJECT__7
10
13.000000
20
0.000000
30
0.000000
70
192
0
VERTEX
8
OBJECT__7
10
12.260000
20
88.239998
30
-33.117001
70
192
0
VERTEX
8
OBJECT__7
10
12.260000
20
92.511002
30
-17.642000
70
192
0
VERTEX
8
OBJECT__7
10
12.260000
20
80.908997
30
-48.341000
70
192
0
VERTEX
8
OBJECT__7
10
12.260000
20
84.942001
30
-39.966999
70
192
0
VERTEX
8
OBJECT__7
10
12.260000
20
70.976997
30
-62.011002
70
192
0
VERTEX
8
OBJECT__7
10
12.260000
20
72.463997
30
-59.964001
70
192
0
VERTEX
8
OBJECT__7
10
12.260000
20
44.661999
30
-82.996002
70
192
0
VERTEX
8
OBJECT__7
10
12.260000
20
55.242001
30
-76.012001
70
192
0
VERTEX
8
OBJECT__7
10
12.260000
20
29.125000
30
-89.637001
70
192
0
VERTEX
8
OBJECT__7
10
12.260000
20
34.560001
30
-87.314003
70
192
0
VERTEX
8
OBJECT__7
10
12.260000
20
-4.229000
30
-94.154999
70
192
0
VERTEX
8
OBJECT__7
10
12.260000
20
11.809000
30
-93.434998
70
192
0
VERTEX
8
OBJECT__7
10
12.260000
20
-20.973000
30
-91.887001
70
192
0
VERTEX
8
OBJECT__7
10
12.260000
20
-11.762000
30
-93.135002
70
192
0
VERTEX
8
OBJECT__7
10
12.260000
20
-37.042999
30
-86.665001
70
192
0
VERTEX
8
OBJECT__7
10
12.260000
20
-34.636002
30
-87.446999
70
192
0
VERTEX
8
OBJECT__7
10
12.260000
20
-65.133003
30
-68.123001
70
192
0
VERTEX
8
OBJECT__7
10
12.260000
20
-55.221001
30
-76.027000
70
192
0
VERTEX
8
OBJECT__7
10
12.260000
20
-76.250000
30
-55.398998
70
192
0
VERTEX
8
OBJECT__7
10
12.260000
20
-72.361000
30
-59.849998
70
192
0
VERTEX
8
OBJECT__7
10
12.260000
20
-90.852997
30
-25.073999
70
192
0
VERTEX
8
OBJECT__7
10
12.260000
20
-85.211998
30
-40.104000
70
192
0
VERTEX
8
OBJECT__7
10
12.260000
20
-93.871002
30
-8.449000
70
192
0
VERTEX
8
OBJECT__7
10
12.260000
20
-92.210999
30
-17.594000
70
192
0
VERTEX
8
OBJECT__7
10
12.260000
20
-93.871002
30
8.449000
70
192
0
VERTEX
8
OBJECT__7
10
12.260000
20
-93.871002
30
5.918000
70
192
0
VERTEX
8
OBJECT__7
10
12.260000
20
-84.916000
30
40.894001
70
192
0
VERTEX
8
OBJECT__7
10
12.260000
20
-89.371002
30
29.025000
70
192
0
VERTEX
8
OBJECT__7
10
12.260000
20
-76.250000
30
55.398998
70
192
0
VERTEX
8
OBJECT__7
10
12.260000
20
-79.281998
30
50.325001
70
192
0
VERTEX
8
OBJECT__7
10
12.260000
20
-51.922001
30
78.658997
70
192
0
VERTEX
8
OBJECT__7
10
12.260000
20
-64.473999
30
68.649002
70
192
0
VERTEX
8
OBJECT__7
10
12.260000
20
-37.042999
30
86.665001
70
192
0
VERTEX
8
OBJECT__7
10
12.260000
20
-45.227001
30
82.261002
70
192
0
VERTEX
8
OBJECT__7
10
12.260000
20
-20.973000
30
91.887001
70
192
0
VERTEX
8
OBJECT__7
10
12.260000
20
-23.379000
30
91.105003
70
192
0
VERTEX
8
OBJECT__7
10
12.260000
20
12.651000
30
93.397003
70
192
0
VERTEX
8
OBJECT__7
10
12.260000
20
0.000000
30
94.250000
70
192
0
VERTEX
8
OBJECT__7
10
12.260000
20
29.125000
30
89.637001
70
192
0
VERTEX
8
OBJECT__7
10
12.260000
20
23.362000
30
90.952003
70
192
0
VERTEX
8
OBJECT__7
10
12.260000
20
58.764000
30
73.688004
70
192
0
VERTEX
8
OBJECT__7
10
12.260000
20
45.366001
30
82.531998
70
192
0
VERTEX
8
OBJECT__7
10
12.260000
20
70.976997
30
62.011002
70
192
0
VERTEX
8
OBJECT__7
10
12.260000
20
64.259003
30
68.433998
70
192
0
VERTEX
8
OBJECT__7
10
12.260000
20
80.908997
30
48.341000
70
192
0
VERTEX
8
OBJECT__7
10
12.260000
20
79.420998
30
50.388000
70
192
0
VERTEX
8
OBJECT__7
10
12.260000
20
92.735001
30
16.829000
70
192
0
VERTEX
8
OBJECT__7
10
12.260000
20
89.362999
30
29.049000
70
192
0
VERTEX
8
OBJECT__7
10
12.260000
20
94.250000
30
0.000000
70
192
0
VERTEX
8
OBJECT__7
10
12.260000
20
93.720001
30
5.887000
70
192
0
VERTEX
8
OBJECT__7
10
12.260000
20
88.239998
30
33.117001
70
192
0
VERTEX
8
OBJECT__7
10
12.260000
20
44.661999
30
82.996002
70
192
0
VERTEX
8
OBJECT__7
10
12.260000
20
-4.229000
30
94.154999
70
192
0
VERTEX
8
OBJECT__7
10
12.260000
20
-65.133003
30
68.123001
70
192
0
VERTEX
8
OBJECT__7
10
12.260000
20
-90.852997
30
25.073999
70
192
0
VERTEX
8
OBJECT__7
10
12.260000
20
-84.916000
30
-40.894001
70
192
0
VERTEX
8
OBJECT__7
10
12.260000
20
-51.922001
30
-78.658997
70
192
0
VERTEX
8
OBJECT__7
10
12.260000
20
12.651000
30
-93.397003
70
192
0
VERTEX
8
OBJECT__7
10
12.260000
20
58.764000
30
-73.688004
70
192
0
VERTEX
8
OBJECT__7
10
12.260000
20
92.735001
30
-16.829000
70
192
0
VERTEX
8
OBJECT__7
10
0
20
0
30
0
70
128
71
1
72
2
73
3
0
VERTEX
8
OBJECT__7
10
0
20
0
30
0
70
128
71
1
72
4
73
5
0
VERTEX
8
OBJECT__7
10
0
20
0
30
0
70
128
71
1
72
6
73
7
0
VERTEX
8
OBJECT__7
10
0
20
0
30
0
70
128
71
1
72
8
73
9
0
VERTEX
8
OBJECT__7
10
0
20
0
30
0
70
128
71
1
72
10
73
11
0
VERTEX
8
OBJECT__7
10
0
20
0
30
0
70
128
71
1
72
12
73
13
0
VERTEX
8
OBJECT__7
10
0
20
0
30
0
70
128
71
1
72
14
73
15
0
VERTEX
8
OBJECT__7
10
0
20
0
30
0
70
128
71
1
72
16
73
17
0
VERTEX
8
OBJECT__7
10
0
20
0
30
0
70
128
71
1
72
18
73
19
0
VERTEX
8
OBJECT__7
10
0
20
0
30
0
70
128
71
1
72
20
73
21
0
VERTEX
8
OBJECT__7
10
0
20
0
30
0
70
128
71
1
72
22
73
23
0
VERTEX
8
OBJECT__7
10
0
20
0
30
0
70
128
71
1
72
24
73
25
0
VERTEX
8
OBJECT__7
10
0
20
0
30
0
70
128
71
1
72
26
73
27
0
VERTEX
8
OBJECT__7
10
0
20
0
30
0
70
128
71
1
72
28
73
29
0
VERTEX
8
OBJECT__7
10
0
20
0
30
0
70
128
71
1
72
30
73
31
0
VERTEX
8
OBJECT__7
10
0
20
0
30
0
70
128
71
1
72
32
73
33
0
VERTEX
8
OBJECT__7
10
0
20
0
30
0
70
128
71
1
72
34
73
35
0
VERTEX
8
OBJECT__7
10
0
20
0
30
0
70
128
71
1
72
36
73
37
0
VERTEX
8
OBJECT__7
10
0
20
0
30
0
70
128
71
1
72
38
73
39
0
VERTEX
8
OBJECT__7
10
0
20
0
30
0
70
128
71
1
72
40
73
41
0
VERTEX
8
OBJECT__7
10
0
20
0
30
0
70
128
71
1
72
42
73
43
0
VERTEX
8
OBJECT__7
10
0
20
0
30
0
70
128
71
1
72
44
73
45
0
VERTEX
8
OBJECT__7
10
0
20
0
30
0
70
128
71
1
72
46
73
47
0
VERTEX
8
OBJECT__7
10
0
20
0
30
0
70
128
71
1
72
48
73
49
0
VERTEX
8
OBJECT__7
10
0
20
0
30
0
70
128
71
1
72
50
73
51
0
VERTEX
8
OBJECT__7
10
0
20
0
30
0
70
128
71
51
72
48
73
1
0
VERTEX
8
OBJECT__7
10
0
20
0
30
0
70
128
71
49
72
52
73
1
0
VERTEX
8
OBJECT__7
10
0
20
0
30
0
70
128
71
52
72
46
73
1
0
VERTEX
8
OBJECT__7
10
0
20
0
30
0
70
128
71
47
72
44
73
1
0
VERTEX
8
OBJECT__7
10
0
20
0
30
0
70
128
71
45
72
42
73
1
0
VERTEX
8
OBJECT__7
10
0
20
0
30
0
70
128
71
43
72
53
73
1
0
VERTEX
8
OBJECT__7
10
0
20
0
30
0
70
128
71
53
72
40
73
1
0
VERTEX
8
OBJECT__7
10
0
20
0
30
0
70
128
71
41
72
38
73
1
0
VERTEX
8
OBJECT__7
10
0
20
0
30
0
70
128
71
39
72
54
73
1
0
VERTEX
8
OBJECT__7
10
0
20
0
30
0
70
128
71
54
72
36
73
1
0
VERTEX
8
OBJECT__7
10
0
20
0
30
0
70
128
71
37
72
34
73
1
0
VERTEX
8
OBJECT__7
10
0
20
0
30
0
70
128
71
35
72
32
73
1
0
VERTEX
8
OBJECT__7
10
0
20
0
30
0
70
128
71
33
72
55
73
1
0
VERTEX
8
OBJECT__7
10
0
20
0
30
0
70
128
71
55
72
30
73
1
0
VERTEX
8
OBJECT__7
10
0
20
0
30
0
70
128
71
31
72
28
73
1
0
VERTEX
8
OBJECT__7
10
0
20
0
30
0
70
128
71
29
72
56
73
1
0
VERTEX
8
OBJECT__7
10
0
20
0
30
0
70
128
71
56
72
26
73
1
0
VERTEX
8
OBJECT__7
10
0
20
0
30
0
70
128
71
27
72
24
73
1
0
VERTEX
8
OBJECT__7
10
0
20
0
30
0
70
128
71
25
72
22
73
1
0
VERTEX
8
OBJECT__7
10
0
20
0
30
0
70
128
71
23
72
57
73
1
0
VERTEX
8
OBJECT__7
10
0
20
0
30
0
70
128
71
57
72
20
73
1
0
VERTEX
8
OBJECT__7
10
0
20
0
30
0
70
128
71
21
72
18
73
1
0
VERTEX
8
OBJECT__7
10
0
20
0
30
0
70
128
71
19
72
58
73
1
0
VERTEX
8
OBJECT__7
10
0
20
0
30
0
70
128
71
58
72
16
73
1
0
VERTEX
8
OBJECT__7
10
0
20
0
30
0
70
128
71
17
72
14
73
1
0
VERTEX
8
OBJECT__7
10
0
20
0
30
0
70
128
71
15
72
12
73
1
0
VERTEX
8
OBJECT__7
10
0
20
0
30
0
70
128
71
13
72
59
73
1
0
VERTEX
8
OBJECT__7
10
0
20
0
30
0
70
128
71
59
72
10
73
1
0
VERTEX
8
OBJECT__7
10
0
20
0
30
0
70
128
71
11
72
8
73
1
0
VERTEX
8
OBJECT__7
10
0
20
0
30
0
70
128
71
9
72
60
73
1
0
VERTEX
8
OBJECT__7
10
0
20
0
30
0
70
128
71
60
72
6
73
1
0
VERTEX
8
OBJECT__7
10
0
20
0
30
0
70
128
71
7
72
4
73
1
0
VERTEX
8
OBJECT__7
10
0
20
0
30
0
70
128
71
5
72
2
73
1
0
VERTEX
8
OBJECT__7
10
0
20
0
30
0
70
128
71
3
72
61
73
1
0
VERTEX
8
OBJECT__7
10
0
20
0
30
0
70
128
71
61
72
50
73
1
0
SEQEND
8
OBJECT__7
0
POLYLINE
8
OBJECT__8
66
1
70
64
71
115
72
115
62
253
0
VERTEX
8
OBJECT__8
10
0.995000
20
0.000000
30
94.250000
70
192
0
VERTEX
8
OBJECT__8
10
12.260000
20
0.000000
30
94.250000
70
192
0
VERTEX
8
OBJECT__8
10
12.260000
20
12.651000
30
93.397003
70
192
0
VERTEX
8
OBJECT__8
10
12.260000
20
23.362000
30
90.952003
70
192
0
VERTEX
8
OBJECT__8
10
0.995000
20
23.341999
30
90.938004
70
192
0
VERTEX
8
OBJECT__8
10
0.995000
20
16.829000
30
92.735001
70
192
0
VERTEX
8
OBJECT__8
10
12.260000
20
44.661999
30
82.996002
70
192
0
VERTEX
8
OBJECT__8
10
0.995000
20
45.299999
30
82.373001
70
192
0
VERTEX
8
OBJECT__8
10
0.995000
20
33.117001
30
88.239998
70
192
0
VERTEX
8
OBJECT__8
10
12.260000
20
29.125000
30
89.637001
70
192
0
VERTEX
8
OBJECT__8
10
12.260000
20
64.259003
30
68.433998
70
192
0
VERTEX
8
OBJECT__8
10
0.995000
20
64.343002
30
68.538002
70
192
0
VERTEX
8
OBJECT__8
10
0.995000
20
62.011002
30
70.976997
70
192
0
VERTEX
8
OBJECT__8
10
0.995000
20
48.341000
30
80.908997
70
192
0
VERTEX
8
OBJECT__8
10
12.260000
20
45.366001
30
82.531998
70
192
0
VERTEX
8
OBJECT__8
10
12.260000
20
58.764000
30
73.688004
70
192
0
VERTEX
8
OBJECT__8
10
12.260000
20
79.420998
30
50.388000
70
192
0
VERTEX
8
OBJECT__8
10
0.995000
20
79.274002
30
50.300999
70
192
0
VERTEX
8
OBJECT__8
10
0.995000
20
73.688004
30
58.764000
70
192
0
VERTEX
8
OBJECT__8
10
12.260000
20
70.976997
30
62.011002
70
192
0
VERTEX
8
OBJECT__8
10
12.260000
20
80.908997
30
48.341000
70
192
0
VERTEX
8
OBJECT__8
10
12.260000
20
88.239998
30
33.117001
70
192
0
VERTEX
8
OBJECT__8
10
0.995000
20
89.637001
30
29.125000
70
192
0
VERTEX
8
OBJECT__8
10
0.995000
20
82.996002
30
44.661999
70
192
0
VERTEX
8
OBJECT__8
10
12.260000
20
89.362999
30
29.049000
70
192
0
VERTEX
8
OBJECT__8
10
12.260000
20
93.720001
30
5.887000
70
192
0
VERTEX
8
OBJECT__8
10
0.995000
20
93.699997
30
5.902000
70
192
0
VERTEX
8
OBJECT__8
10
0.995000
20
93.397003
30
12.651000
70
192
0
VERTEX
8
OBJECT__8
10
12.260000
20
92.735001
30
16.829000
70
192
0
VERTEX
8
OBJECT__8
10
12.260000
20
92.735001
30
-16.829000
70
192
0
VERTEX
8
OBJECT__8
10
0.995000
20
92.339996
30
-17.628000
70
192
0
VERTEX
8
OBJECT__8
10
0.995000
20
94.154999
30
-4.229000
70
192
0
VERTEX
8
OBJECT__8
10
12.260000
20
94.250000
30
0.000000
70
192
0
VERTEX
8
OBJECT__8
10
12.260000
20
84.942001
30
-39.966999
70
192
0
VERTEX
8
OBJECT__8
10
0.995000
20
85.066002
30
-40.014999
70
192
0
VERTEX
8
OBJECT__8
10
0.995000
20
86.665001
30
-37.042999
70
192
0
VERTEX
8
OBJECT__8
10
0.995000
20
91.887001
30
-20.973000
70
192
0
VERTEX
8
OBJECT__8
10
12.260000
20
92.511002
30
-17.642000
70
192
0
VERTEX
8
OBJECT__8
10
12.260000
20
88.239998
30
-33.117001
70
192
0
VERTEX
8
OBJECT__8
10
12.260000
20
80.908997
30
-48.341000
70
192
0
VERTEX
8
OBJECT__8
10
12.260000
20
72.463997
30
-59.964001
70
192
0
VERTEX
8
OBJECT__8
10
0.995000
20
72.335999
30
-59.849998
70
192
0
VERTEX
8
OBJECT__8
10
0.995000
20
78.658997
30
-51.922001
70
192
0
VERTEX
8
OBJECT__8
10
0.995000
20
68.123001
30
-65.133003
70
192
0
VERTEX
8
OBJECT__8
10
12.260000
20
70.976997
30
-62.011002
70
192
0
VERTEX
8
OBJECT__8
10
12.260000
20
58.764000
30
-73.688004
70
192
0
VERTEX
8
OBJECT__8
10
0.995000
20
55.398998
30
-76.250000
70
192
0
VERTEX
8
OBJECT__8
10
12.260000
20
34.560001
30
-87.314003
70
192
0
VERTEX
8
OBJECT__8
10
0.995000
20
34.568001
30
-87.290001
70
192
0
VERTEX
8
OBJECT__8
10
0.995000
20
40.894001
30
-84.916000
70
192
0
VERTEX
8
OBJECT__8
10
12.260000
20
55.242001
30
-76.012001
70
192
0
VERTEX
8
OBJECT__8
10
12.260000
20
44.661999
30
-82.996002
70
192
0
VERTEX
8
OBJECT__8
10
12.260000
20
29.125000
30
-89.637001
70
192
0
VERTEX
8
OBJECT__8
10
12.260000
20
12.651000
30
-93.397003
70
192
0
VERTEX
8
OBJECT__8
10
0.995000
20
11.769000
30
-93.267998
70
192
0
VERTEX
8
OBJECT__8
10
0.995000
20
25.073999
30
-90.852997
70
192
0
VERTEX
8
OBJECT__8
10
12.260000
20
11.809000
30
-93.434998
70
192
0
VERTEX
8
OBJECT__8
10
12.260000
20
-11.762000
30
-93.135002
70
192
0
VERTEX
8
OBJECT__8
10
0.995000
20
-11.769000
30
-93.267998
70
192
0
VERTEX
8
OBJECT__8
10
0.995000
20
-8.449000
30
-93.871002
70
192
0
VERTEX
8
OBJECT__8
10
0.995000
20
8.449000
30
-93.871002
70
192
0
VERTEX
8
OBJECT__8
10
12.260000
20
-4.229000
30
-94.154999
70
192
0
VERTEX
8
OBJECT__8
10
12.260000
20
-20.973000
30
-91.887001
70
192
0
VERTEX
8
OBJECT__8
10
12.260000
20
-34.636002
30
-87.446999
70
192
0
VERTEX
8
OBJECT__8
10
0.995000
20
-34.568001
30
-87.290001
70
192
0
VERTEX
8
OBJECT__8
10
0.995000
20
-25.073999
30
-90.852997
70
192
0
VERTEX
8
OBJECT__8
10
12.260000
20
-51.922001
30
-78.658997
70
192
0
VERTEX
8
OBJECT__8
10
0.995000
20
-55.398998
30
-76.250000
70
192
0
VERTEX
8
OBJECT__8
10
0.995000
20
-40.894001
30
-84.916000
70
192
0
VERTEX
8
OBJECT__8
10
12.260000
20
-37.042999
30
-86.665001
70
192
0
VERTEX
8
OBJECT__8
10
12.260000
20
-55.221001
30
-76.027000
70
192
0
VERTEX
8
OBJECT__8
10
12.260000
20
-65.133003
30
-68.123001
70
192
0
VERTEX
8
OBJECT__8
10
12.260000
20
-72.361000
30
-59.849998
70
192
0
VERTEX
8
OBJECT__8
10
0.995000
20
-72.335999
30
-59.849998
70
192
0
VERTEX
8
OBJECT__8
10
0.995000
20
-68.123001
30
-65.133003
70
192
0
VERTEX
8
OBJECT__8
10
12.260000
20
-84.916000
30
-40.894001
70
192
0
VERTEX
8
OBJECT__8
10
0.995000
20
-85.066002
30
-40.014999
70
192
0
VERTEX
8
OBJECT__8
10
0.995000
20
-78.658997
30
-51.922001
70
192
0
VERTEX
8
OBJECT__8
10
12.260000
20
-76.250000
30
-55.398998
70
192
0
VERTEX
8
OBJECT__8
10
12.260000
20
-92.210999
30
-17.594000
70
192
0
VERTEX
8
OBJECT__8
10
0.995000
20
-92.339996
30
-17.628000
70
192
0
VERTEX
8
OBJECT__8
10
0.995000
20
-91.887001
30
-20.973000
70
192
0
VERTEX
8
OBJECT__8
10
0.995000
20
-86.665001
30
-37.042999
70
192
0
VERTEX
8
OBJECT__8
10
12.260000
20
-85.211998
30
-40.104000
70
192
0
VERTEX
8
OBJECT__8
10
12.260000
20
-90.852997
30
-25.073999
70
192
0
VERTEX
8
OBJECT__8
10
12.260000
20
-93.871002
30
5.918000
70
192
0
VERTEX
8
OBJECT__8
10
0.995000
20
-93.699997
30
5.902000
70
192
0
VERTEX
8
OBJECT__8
10
0.995000
20
-94.154999
30
-4.229000
70
192
0
VERTEX
8
OBJECT__8
10
12.260000
20
-93.871002
30
-8.449000
70
192
0
VERTEX
8
OBJECT__8
10
0.995000
20
-93.397003
30
12.651000
70
192
0
VERTEX
8
OBJECT__8
10
12.260000
20
-93.871002
30
8.449000
70
192
0
VERTEX
8
OBJECT__8
10
12.260000
20
-90.852997
30
25.073999
70
192
0
VERTEX
8
OBJECT__8
10
0.995000
20
-89.637001
30
29.125000
70
192
0
VERTEX
8
OBJECT__8
10
12.260000
20
-79.281998
30
50.325001
70
192
0
VERTEX
8
OBJECT__8
10
0.995000
20
-79.274002
30
50.300999
70
192
0
VERTEX
8
OBJECT__8
10
0.995000
20
-82.996002
30
44.661999
70
192
0
VERTEX
8
OBJECT__8
10
12.260000
20
-89.371002
30
29.025000
70
192
0
VERTEX
8
OBJECT__8
10
12.260000
20
-84.916000
30
40.894001
70
192
0
VERTEX
8
OBJECT__8
10
12.260000
20
-65.133003
30
68.123001
70
192
0
VERTEX
8
OBJECT__8
10
0.995000
20
-64.343002
30
68.538002
70
192
0
VERTEX
8
OBJECT__8
10
0.995000
20
-73.688004
30
58.764000
70
192
0
VERTEX
8
OBJECT__8
10
12.260000
20
-76.250000
30
55.398998
70
192
0
VERTEX
8
OBJECT__8
10
0.995000
20
-62.011002
30
70.976997
70
192
0
VERTEX
8
OBJECT__8
10
12.260000
20
-64.473999
30
68.649002
70
192
0
VERTEX
8
OBJECT__8
10
12.260000
20
-51.922001
30
78.658997
70
192
0
VERTEX
8
OBJECT__8
10
0.995000
20
-48.341000
30
80.908997
70
192
0
VERTEX
8
OBJECT__8
10
12.260000
20
-45.227001
30
82.261002
70
192
0
VERTEX
8
OBJECT__8
10
0.995000
20
-45.299999
30
82.373001
70
192
0
VERTEX
8
OBJECT__8
10
12.260000
20
-23.379000
30
91.105003
70
192
0
VERTEX
8
OBJECT__8
10
0.995000
20
-23.341999
30
90.938004
70
192
0
VERTEX
8
OBJECT__8
10
0.995000
20
-33.117001
30
88.239998
70
192
0
VERTEX
8
OBJECT__8
10
12.260000
20
-37.042999
30
86.665001
70
192
0
VERTEX
8
OBJECT__8
10
12.260000
20
-20.973000
30
91.887001
70
192
0
VERTEX
8
OBJECT__8
10
0.995000
20
-16.829000
30
92.735001
70
192
0
VERTEX
8
OBJECT__8
10
12.260000
20
-4.229000
30
94.154999
70
192
0
VERTEX
8
OBJECT__8
10
0
20
0
30
0
70
128
71
1
72
2
73
3
0
VERTEX
8
OBJECT__8
10
0
20
0
30
0
70
128
71
4
72
5
73
6
0
VERTEX
8
OBJECT__8
10
0
20
0
30
0
70
128
71
6
72
3
73
4
0
VERTEX
8
OBJECT__8
10
0
20
0
30
0
70
128
71
7
72
8
73
9
0
VERTEX
8
OBJECT__8
10
0
20
0
30
0
70
128
71
9
72
10
73
7
0
VERTEX
8
OBJECT__8
10
0
20
0
30
0
70
128
71
5
72
4
73
10
0
VERTEX
8
OBJECT__8
10
0
20
0
30
0
70
128
71
10
72
9
73
5
0
VERTEX
8
OBJECT__8
10
0
20
0
30
0
70
128
71
11
72
12
73
13
0
VERTEX
8
OBJECT__8
10
0
20
0
30
0
70
128
71
14
72
15
73
16
0
VERTEX
8
OBJECT__8
10
0
20
0
30
0
70
128
71
16
72
13
73
14
0
VERTEX
8
OBJECT__8
10
0
20
0
30
0
70
128
71
14
72
8
73
15
0
VERTEX
8
OBJECT__8
10
0
20
0
30
0
70
128
71
17
72
18
73
19
0
VERTEX
8
OBJECT__8
10
0
20
0
30
0
70
128
71
12
72
11
73
20
0
VERTEX
8
OBJECT__8
10
0
20
0
30
0
70
128
71
20
72
19
73
12
0
VERTEX
8
OBJECT__8
10
0
20
0
30
0
70
128
71
18
72
17
73
21
0
VERTEX
8
OBJECT__8
10
0
20
0
30
0
70
128
71
22
72
23
73
24
0
VERTEX
8
OBJECT__8
10
0
20
0
30
0
70
128
71
24
72
21
73
22
0
VERTEX
8
OBJECT__8
10
0
20
0
30
0
70
128
71
22
72
25
73
23
0
VERTEX
8
OBJECT__8
10
0
20
0
30
0
70
128
71
26
72
27
73
28
0
VERTEX
8
OBJECT__8
10
0
20
0
30
0
70
128
71
23
72
25
73
29
0
VERTEX
8
OBJECT__8
10
0
20
0
30
0
70
128
71
29
72
28
73
23
0
VERTEX
8
OBJECT__8
10
0
20
0
30
0
70
128
71
30
72
31
73
32
0
VERTEX
8
OBJECT__8
10
0
20
0
30
0
70
128
71
32
72
33
73
30
0
VERTEX
8
OBJECT__8
10
0
20
0
30
0
70
128
71
27
72
26
73
33
0
VERTEX
8
OBJECT__8
10
0
20
0
30
0
70
128
71
33
72
32
73
27
0
VERTEX
8
OBJECT__8
10
0
20
0
30
0
70
128
71
34
72
35
73
36
0
VERTEX
8
OBJECT__8
10
0
20
0
30
0
70
128
71
37
72
38
73
39
0
VERTEX
8
OBJECT__8
10
0
20
0
30
0
70
128
71
39
72
36
73
37
0
VERTEX
8
OBJECT__8
10
0
20
0
30
0
70
128
71
37
72
31
73
38
0
VERTEX
8
OBJECT__8
10
0
20
0
30
0
70
128
71
35
72
34
73
40
0
VERTEX
8
OBJECT__8
10
0
20
0
30
0
70
128
71
41
72
42
73
43
0
VERTEX
8
OBJECT__8
10
0
20
0
30
0
70
128
71
43
72
40
73
41
0
VERTEX
8
OBJECT__8
10
0
20
0
30
0
70
128
71
44
72
45
73
46
0
VERTEX
8
OBJECT__8
10
0
20
0
30
0
70
128
71
46
72
47
73
44
0
VERTEX
8
OBJECT__8
10
0
20
0
30
0
70
128
71
44
72
42
73
45
0
VERTEX
8
OBJECT__8
10
0
20
0
30
0
70
128
71
42
72
41
73
45
0
VERTEX
8
OBJECT__8
10
0
20
0
30
0
70
128
71
48
72
49
73
50
0
VERTEX
8
OBJECT__8
10
0
20
0
30
0
70
128
71
47
72
51
73
52
0
VERTEX
8
OBJECT__8
10
0
20
0
30
0
70
128
71
52
72
50
73
47
0
VERTEX
8
OBJECT__8
10
0
20
0
30
0
70
128
71
49
72
48
73
53
0
VERTEX
8
OBJECT__8
10
0
20
0
30
0
70
128
71
54
72
55
73
56
0
VERTEX
8
OBJECT__8
10
0
20
0
30
0
70
128
71
56
72
53
73
54
0
VERTEX
8
OBJECT__8
10
0
20
0
30
0
70
128
71
54
72
57
73
55
0
VERTEX
8
OBJECT__8
10
0
20
0
30
0
70
128
71
58
72
59
73
60
0
VERTEX
8
OBJECT__8
10
0
20
0
30
0
70
128
71
61
72
57
73
62
0
VERTEX
8
OBJECT__8
10
0
20
0
30
0
70
128
71
62
72
60
73
61
0
VERTEX
8
OBJECT__8
10
0
20
0
30
0
70
128
71
61
72
55
73
57
0
VERTEX
8
OBJECT__8
10
0
20
0
30
0
70
128
71
59
72
58
73
63
0
VERTEX
8
OBJECT__8
10
0
20
0
30
0
70
128
71
64
72
65
73
66
0
VERTEX
8
OBJECT__8
10
0
20
0
30
0
70
128
71
66
72
63
73
64
0
VERTEX
8
OBJECT__8
10
0
20
0
30
0
70
128
71
67
72
68
73
69
0
VERTEX
8
OBJECT__8
10
0
20
0
30
0
70
128
71
69
72
70
73
67
0
VERTEX
8
OBJECT__8
10
0
20
0
30
0
70
128
71
69
72
65
73
70
0
VERTEX
8
OBJECT__8
10
0
20
0
30
0
70
128
71
65
72
64
73
70
0
VERTEX
8
OBJECT__8
10
0
20
0
30
0
70
128
71
68
72
71
73
72
0
VERTEX
8
OBJECT__8
10
0
20
0
30
0
70
128
71
73
72
74
73
75
0
VERTEX
8
OBJECT__8
10
0
20
0
30
0
70
128
71
75
72
72
73
73
0
VERTEX
8
OBJECT__8
10
0
20
0
30
0
70
128
71
76
72
77
73
78
0
VERTEX
8
OBJECT__8
10
0
20
0
30
0
70
128
71
78
72
79
73
76
0
VERTEX
8
OBJECT__8
10
0
20
0
30
0
70
128
71
74
72
73
73
79
0
VERTEX
8
OBJECT__8
10
0
20
0
30
0
70
128
71
79
72
78
73
74
0
VERTEX
8
OBJECT__8
10
0
20
0
30
0
70
128
71
80
72
81
73
82
0
VERTEX
8
OBJECT__8
10
0
20
0
30
0
70
128
71
83
72
84
73
85
0
VERTEX
8
OBJECT__8
10
0
20
0
30
0
70
128
71
85
72
82
73
83
0
VERTEX
8
OBJECT__8
10
0
20
0
30
0
70
128
71
83
72
77
73
84
0
VERTEX
8
OBJECT__8
10
0
20
0
30
0
70
128
71
86
72
87
73
88
0
VERTEX
8
OBJECT__8
10
0
20
0
30
0
70
128
71
81
72
80
73
89
0
VERTEX
8
OBJECT__8
10
0
20
0
30
0
70
128
71
89
72
88
73
81
0
VERTEX
8
OBJECT__8
10
0
20
0
30
0
70
128
71
90
72
91
73
92
0
VERTEX
8
OBJECT__8
10
0
20
0
30
0
70
128
71
92
72
93
73
90
0
VERTEX
8
OBJECT__8
10
0
20
0
30
0
70
128
71
87
72
86
73
91
0
VERTEX
8
OBJECT__8
10
0
20
0
30
0
70
128
71
90
72
87
73
91
0
VERTEX
8
OBJECT__8
10
0
20
0
30
0
70
128
71
94
72
95
73
96
0
VERTEX
8
OBJECT__8
10
0
20
0
30
0
70
128
71
93
72
97
73
98
0
VERTEX
8
OBJECT__8
10
0
20
0
30
0
70
128
71
98
72
96
73
93
0
VERTEX
8
OBJECT__8
10
0
20
0
30
0
70
128
71
99
72
100
73
101
0
VERTEX
8
OBJECT__8
10
0
20
0
30
0
70
128
71
101
72
102
73
99
0
VERTEX
8
OBJECT__8
10
0
20
0
30
0
70
128
71
95
72
94
73
102
0
VERTEX
8
OBJECT__8
10
0
20
0
30
0
70
128
71
102
72
101
73
95
0
VERTEX
8
OBJECT__8
10
0
20
0
30
0
70
128
71
103
72
104
73
105
0
VERTEX
8
OBJECT__8
10
0
20
0
30
0
70
128
71
105
72
106
73
103
0
VERTEX
8
OBJECT__8
10
0
20
0
30
0
70
128
71
105
72
107
73
106
0
VERTEX
8
OBJECT__8
10
0
20
0
30
0
70
128
71
107
72
108
73
106
0
VERTEX
8
OBJECT__8
10
0
20
0
30
0
70
128
71
109
72
110
73
111
0
VERTEX
8
OBJECT__8
10
0
20
0
30
0
70
128
71
108
72
107
73
112
0
VERTEX
8
OBJECT__8
10
0
20
0
30
0
70
128
71
112
72
111
73
108
0
VERTEX
8
OBJECT__8
10
0
20
0
30
0
70
128
71
110
72
109
73
113
0
VERTEX
8
OBJECT__8
10
0
20
0
30
0
70
128
71
114
72
113
73
115
0
VERTEX
8
OBJECT__8
10
0
20
0
30
0
70
128
71
115
72
1
73
114
0
VERTEX
8
OBJECT__8
10
0
20
0
30
0
70
128
71
115
72
2
73
1
0
VERTEX
8
OBJECT__8
10
0
20
0
30
0
70
128
71
113
72
114
73
110
0
VERTEX
8
OBJECT__8
10
0
20
0
30
0
70
128
71
111
72
112
73
109
0
VERTEX
8
OBJECT__8
10
0
20
0
30
0
70
128
71
103
72
100
73
104
0
VERTEX
8
OBJECT__8
10
0
20
0
30
0
70
128
71
99
72
104
73
100
0
VERTEX
8
OBJECT__8
10
0
20
0
30
0
70
128
71
96
72
98
73
94
0
VERTEX
8
OBJECT__8
10
0
20
0
30
0
70
128
71
92
72
97
73
93
0
VERTEX
8
OBJECT__8
10
0
20
0
30
0
70
128
71
88
72
89
73
86
0
VERTEX
8
OBJECT__8
10
0
20
0
30
0
70
128
71
82
72
85
73
80
0
VERTEX
8
OBJECT__8
10
0
20
0
30
0
70
128
71
76
72
84
73
77
0
VERTEX
8
OBJECT__8
10
0
20
0
30
0
70
128
71
72
72
75
73
68
0
VERTEX
8
OBJECT__8
10
0
20
0
30
0
70
128
71
67
72
71
73
68
0
VERTEX
8
OBJECT__8
10
0
20
0
30
0
70
128
71
63
72
66
73
59
0
VERTEX
8
OBJECT__8
10
0
20
0
30
0
70
128
71
60
72
62
73
58
0
VERTEX
8
OBJECT__8
10
0
20
0
30
0
70
128
71
53
72
56
73
49
0
VERTEX
8
OBJECT__8
10
0
20
0
30
0
70
128
71
50
72
52
73
48
0
VERTEX
8
OBJECT__8
10
0
20
0
30
0
70
128
71
46
72
51
73
47
0
VERTEX
8
OBJECT__8
10
0
20
0
30
0
70
128
71
40
72
43
73
35
0
VERTEX
8
OBJECT__8
10
0
20
0
30
0
70
128
71
36
72
39
73
34
0
VERTEX
8
OBJECT__8
10
0
20
0
30
0
70
128
71
30
72
38
73
31
0
VERTEX
8
OBJECT__8
10
0
20
0
30
0
70
128
71
28
72
29
73
26
0
VERTEX
8
OBJECT__8
10
0
20
0
30
0
70
128
71
21
72
24
73
18
0
VERTEX
8
OBJECT__8
10
0
20
0
30
0
70
128
71
19
72
20
73
17
0
VERTEX
8
OBJECT__8
10
0
20
0
30
0
70
128
71
13
72
16
73
11
0
VERTEX
8
OBJECT__8
10
0
20
0
30
0
70
128
71
7
72
15
73
8
0
VERTEX
8
OBJECT__8
10
0
20
0
30
0
70
128
71
3
72
6
73
1
0
SEQEND
8
OBJECT__8
0
POLYLINE
8
OBJECT__10
66
1
70
64
71
126
72
161
62
253
0
VERTEX
8
OBJECT__10
10
0.995000
20
0.000000
30
94.250000
70
192
0
VERTEX
8
OBJECT__10
10
0.995000
20
16.829000
30
92.735001
70
192
0
VERTEX
8
OBJECT__10
10
-0.454000
20
16.698000
30
92.015999
70
192
0
VERTEX
8
OBJECT__10
10
-0.454000
20
32.860001
30
87.555000
70
192
0
VERTEX
8
OBJECT__10
10
0.995000
20
23.341999
30
90.938004
70
192
0
VERTEX
8
OBJECT__10
10
0.995000
20
33.117001
30
88.239998
70
192
0
VERTEX
8
OBJECT__10
10
0.995000
20
45.299999
30
82.373001
70
192
0
VERTEX
8
OBJECT__10
10
-0.454000
20
47.966000
30
80.280998
70
192
0
VERTEX
8
OBJECT__10
10
0.995000
20
62.011002
30
70.976997
70
192
0
VERTEX
8
OBJECT__10
10
-0.454000
20
61.528999
30
70.426003
70
192
0
VERTEX
8
OBJECT__10
10
-0.454000
20
73.115997
30
58.307999
70
192
0
VERTEX
8
OBJECT__10
10
0.995000
20
64.343002
30
68.538002
70
192
0
VERTEX
8
OBJECT__10
10
0.995000
20
73.688004
30
58.764000
70
192
0
VERTEX
8
OBJECT__10
10
0.995000
20
79.274002
30
50.300999
70
192
0
VERTEX
8
OBJECT__10
10
-0.454000
20
82.351997
30
44.314999
70
192
0
VERTEX
8
OBJECT__10
10
0.995000
20
89.637001
30
29.125000
70
192
0
VERTEX
8
OBJECT__10
10
-0.454000
20
88.941002
30
28.899000
70
192
0
VERTEX
8
OBJECT__10
10
0.995000
20
93.397003
30
12.651000
70
192
0
VERTEX
8
OBJECT__10
10
-0.454000
20
92.671997
30
12.553000
70
192
0
VERTEX
8
OBJECT__10
10
-0.454000
20
93.424004
30
-4.196000
70
192
0
VERTEX
8
OBJECT__10
10
0.995000
20
93.699997
30
5.902000
70
192
0
VERTEX
8
OBJECT__10
10
0.995000
20
94.154999
30
-4.229000
70
192
0
VERTEX
8
OBJECT__10
10
0.995000
20
92.339996
30
-17.628000
70
192
0
VERTEX
8
OBJECT__10
10
-0.454000
20
91.174004
30
-20.809999
70
192
0
VERTEX
8
OBJECT__10
10
0.995000
20
91.887001
30
-20.973000
70
192
0
VERTEX
8
OBJECT__10
10
0.995000
20
86.665001
30
-37.042999
70
192
0
VERTEX
8
OBJECT__10
10
-0.454000
20
85.992996
30
-36.755001
70
192
0
VERTEX
8
OBJECT__10
10
-0.454000
20
78.047997
30
-51.519001
70
192
0
VERTEX
8
OBJECT__10
10
0.995000
20
85.066002
30
-40.014999
70
192
0
VERTEX
8
OBJECT__10
10
0.995000
20
78.658997
30
-51.922001
70
192
0
VERTEX
8
OBJECT__10
10
0.995000
20
72.335999
30
-59.849998
70
192
0
VERTEX
8
OBJECT__10
10
-0.454000
20
67.595001
30
-64.626999
70
192
0
VERTEX
8
OBJECT__10
10
0.995000
20
55.398998
30
-76.250000
70
192
0
VERTEX
8
OBJECT__10
10
-0.454000
20
54.969002
30
-75.657997
70
192
0
VERTEX
8
OBJECT__10
10
0.995000
20
40.894001
30
-84.916000
70
192
0
VERTEX
8
OBJECT__10
10
-0.454000
20
40.576000
30
-84.257004
70
192
0
VERTEX
8
OBJECT__10
10
-0.454000
20
24.879000
30
-90.148003
70
192
0
VERTEX
8
OBJECT__10
10
0.995000
20
34.568001
30
-87.290001
70
192
0
VERTEX
8
OBJECT__10
10
0.995000
20
25.073999
30
-90.852997
70
192
0
VERTEX
8
OBJECT__10
10
0.995000
20
11.769000
30
-93.267998
70
192
0
VERTEX
8
OBJECT__10
10
-0.454000
20
8.383000
30
-93.141998
70
192
0
VERTEX
8
OBJECT__10
10
0.995000
20
8.449000
30
-93.871002
70
192
0
VERTEX
8
OBJECT__10
10
0.995000
20
-8.449000
30
-93.871002
70
192
0
VERTEX
8
OBJECT__10
10
-0.454000
20
-8.383000
30
-93.141998
70
192
0
VERTEX
8
OBJECT__10
10
-0.454000
20
-24.879000
30
-90.148003
70
192
0
VERTEX
8
OBJECT__10
10
0.995000
20
-11.769000
30
-93.267998
70
192
0
VERTEX
8
OBJECT__10
10
0.995000
20
-25.073999
30
-90.852997
70
192
0
VERTEX
8
OBJECT__10
10
0.995000
20
-34.568001
30
-87.290001
70
192
0
VERTEX
8
OBJECT__10
10
-0.454000
20
-40.576000
30
-84.257004
70
192
0
VERTEX
8
OBJECT__10
10
0.995000
20
-55.398998
30
-76.250000
70
192
0
VERTEX
8
OBJECT__10
10
-0.454000
20
-54.969002
30
-75.657997
70
192
0
VERTEX
8
OBJECT__10
10
0.995000
20
-68.123001
30
-65.133003
70
192
0
VERTEX
8
OBJECT__10
10
-0.454000
20
-67.595001
30
-64.626999
70
192
0
VERTEX
8
OBJECT__10
10
-0.454000
20
-78.047997
30
-51.519001
70
192
0
VERTEX
8
OBJECT__10
10
0.995000
20
-72.335999
30
-59.849998
70
192
0
VERTEX
8
OBJECT__10
10
0.995000
20
-78.658997
30
-51.922001
70
192
0
VERTEX
8
OBJECT__10
10
0.995000
20
-85.066002
30
-40.014999
70
192
0
VERTEX
8
OBJECT__10
10
-0.454000
20
-85.992996
30
-36.755001
70
192
0
VERTEX
8
OBJECT__10
10
0.995000
20
-86.665001
30
-37.042999
70
192
0
VERTEX
8
OBJECT__10
10
0.995000
20
-91.887001
30
-20.973000
70
192
0
VERTEX
8
OBJECT__10
10
-0.454000
20
-91.174004
30
-20.809999
70
192
0
VERTEX
8
OBJECT__10
10
-0.454000
20
-93.424004
30
-4.196000
70
192
0
VERTEX
8
OBJECT__10
10
0.995000
20
-92.339996
30
-17.628000
70
192
0
VERTEX
8
OBJECT__10
10
0.995000
20
-94.154999
30
-4.229000
70
192
0
VERTEX
8
OBJECT__10
10
0.995000
20
-93.699997
30
5.902000
70
192
0
VERTEX
8
OBJECT__10
10
-0.454000
20
-92.671997
30
12.553000
70
192
0
VERTEX
8
OBJECT__10
10
0.995000
20
-89.637001
30
29.125000
70
192
0
VERTEX
8
OBJECT__10
10
-0.454000
20
-88.941002
30
28.899000
70
192
0
VERTEX
8
OBJECT__10
10
0.995000
20
-82.996002
30
44.661999
70
192
0
VERTEX
8
OBJECT__10
10
-0.454000
20
-82.351997
30
44.314999
70
192
0
VERTEX
8
OBJECT__10
10
-0.454000
20
-73.115997
30
58.307999
70
192
0
VERTEX
8
OBJECT__10
10
0.995000
20
-79.274002
30
50.300999
70
192
0
VERTEX
8
OBJECT__10
10
0.995000
20
-73.688004
30
58.764000
70
192
0
VERTEX
8
OBJECT__10
10
0.995000
20
-64.343002
30
68.538002
70
192
0
VERTEX
8
OBJECT__10
10
-0.454000
20
-61.528999
30
70.426003
70
192
0
VERTEX
8
OBJECT__10
10
0.995000
20
-62.011002
30
70.976997
70
192
0
VERTEX
8
OBJECT__10
10
0.995000
20
-48.341000
30
80.908997
70
192
0
VERTEX
8
OBJECT__10
10
-0.454000
20
-47.966000
30
80.280998
70
192
0
VERTEX
8
OBJECT__10
10
-0.454000
20
-32.860001
30
87.555000
70
192
0
VERTEX
8
OBJECT__10
10
0.995000
20
-45.299999
30
82.373001
70
192
0
VERTEX
8
OBJECT__10
10
0.995000
20
-33.117001
30
88.239998
70
192
0
VERTEX
8
OBJECT__10
10
0.995000
20
-23.341999
30
90.938004
70
192
0
VERTEX
8
OBJECT__10
10
-0.454000
20
-16.698000
30
92.015999
70
192
0
VERTEX
8
OBJECT__10
10
0.995000
20
-16.829000
30
92.735001
70
192
0
VERTEX
8
OBJECT__10
10
-0.454000
20
0.000000
30
93.517998
70
192
0
VERTEX
8
OBJECT__10
10
-0.725000
20
16.413000
30
90.441002
70
192
0
VERTEX
8
OBJECT__10
10
-0.725000
20
32.298000
30
86.056999
70
192
0
VERTEX
8
OBJECT__10
10
-0.725000
20
47.145000
30
78.906998
70
192
0
VERTEX
8
OBJECT__10
10
-0.725000
20
60.477001
30
69.221001
70
192
0
VERTEX
8
OBJECT__10
10
-0.725000
20
71.864998
30
57.310001
70
192
0
VERTEX
8
OBJECT__10
10
-0.725000
20
80.943001
30
43.556999
70
192
0
VERTEX
8
OBJECT__10
10
-0.725000
20
87.419998
30
28.403999
70
192
0
VERTEX
8
OBJECT__10
10
-0.725000
20
91.086998
30
12.339000
70
192
0
VERTEX
8
OBJECT__10
10
-0.725000
20
91.825996
30
-4.124000
70
192
0
VERTEX
8
OBJECT__10
10
-0.725000
20
89.613998
30
-20.454000
70
192
0
VERTEX
8
OBJECT__10
10
-0.725000
20
84.522003
30
-36.125999
70
192
0
VERTEX
8
OBJECT__10
10
-0.725000
20
76.712997
30
-50.638000
70
192
0
VERTEX
8
OBJECT__10
10
-0.725000
20
66.438004
30
-63.521000
70
192
0
VERTEX
8
OBJECT__10
10
-0.725000
20
54.028000
30
-74.363998
70
192
0
VERTEX
8
OBJECT__10
10
-0.725000
20
39.882000
30
-82.816002
70
192
0
VERTEX
8
OBJECT__10
10
-0.725000
20
24.454000
30
-88.606003
70
192
0
VERTEX
8
OBJECT__10
10
-0.725000
20
8.240000
30
-91.547997
70
192
0
VERTEX
8
OBJECT__10
10
-0.725000
20
-8.240000
30
-91.547997
70
192
0
VERTEX
8
OBJECT__10
10
-0.725000
20
0.000000
30
-91.917999
70
192
0
VERTEX
8
OBJECT__10
10
-0.725000
20
-24.454000
30
-88.606003
70
192
0
VERTEX
8
OBJECT__10
10
-0.725000
20
-39.882000
30
-82.816002
70
192
0
VERTEX
8
OBJECT__10
10
-0.725000
20
-54.028000
30
-74.363998
70
192
0
VERTEX
8
OBJECT__10
10
-0.725000
20
-66.438004
30
-63.521000
70
192
0
VERTEX
8
OBJECT__10
10
-0.725000
20
-76.712997
30
-50.638000
70
192
0
VERTEX
8
OBJECT__10
10
-0.725000
20
-84.522003
30
-36.125999
70
192
0
VERTEX
8
OBJECT__10
10
-0.725000
20
-89.613998
30
-20.454000
70
192
0
VERTEX
8
OBJECT__10
10
-0.725000
20
-91.825996
30
-4.124000
70
192
0
VERTEX
8
OBJECT__10
10
-0.725000
20
-91.086998
30
12.339000
70
192
0
VERTEX
8
OBJECT__10
10
-0.725000
20
-87.419998
30
28.403999
70
192
0
VERTEX
8
OBJECT__10
10
-0.725000
20
-80.943001
30
43.556999
70
192
0
VERTEX
8
OBJECT__10
10
-0.725000
20
-71.864998
30
57.310001
70
192
0
VERTEX
8
OBJECT__10
10
-0.725000
20
-60.477001
30
69.221001
70
192
0
VERTEX
8
OBJECT__10
10
-0.725000
20
-47.145000
30
78.906998
70
192
0
VERTEX
8
OBJECT__10
10
-0.725000
20
-32.298000
30
86.056999
70
192
0
VERTEX
8
OBJECT__10
10
-0.725000
20
-16.413000
30
90.441002
70
192
0
VERTEX
8
OBJECT__10
10
-0.725000
20
0.000000
30
91.917999
70
192
0
VERTEX
8
OBJECT__10
10
0.995000
20
-93.397003
30
12.651000
70
192
0
VERTEX
8
OBJECT__10
10
0.995000
20
-40.894001
30
-84.916000
70
192
0
VERTEX
8
OBJECT__10
10
0.995000
20
68.123001
30
-65.133003
70
192
0
VERTEX
8
OBJECT__10
10
0.995000
20
82.996002
30
44.661999
70
192
0
VERTEX
8
OBJECT__10
10
0.995000
20
48.341000
30
80.908997
70
192
0
VERTEX
8
OBJECT__10
10
0
20
0
30
0
70
128
71
1
72
2
73
3
0
VERTEX
8
OBJECT__10
10
0
20
0
30
0
70
128
71
4
72
3
73
5
0
VERTEX
8
OBJECT__10
10
0
20
0
30
0
70
128
71
3
72
2
73
5
0
VERTEX
8
OBJECT__10
10
0
20
0
30
0
70
128
71
4
72
6
73
7
0
VERTEX
8
OBJECT__10
10
0
20
0
30
0
70
128
71
7
72
8
73
4
0
VERTEX
8
OBJECT__10
10
0
20
0
30
0
70
128
71
9
72
10
73
8
0
VERTEX
8
OBJECT__10
10
0
20
0
30
0
70
128
71
11
72
10
73
12
0
VERTEX
8
OBJECT__10
10
0
20
0
30
0
70
128
71
10
72
9
73
12
0
VERTEX
8
OBJECT__10
10
0
20
0
30
0
70
128
71
11
72
13
73
14
0
VERTEX
8
OBJECT__10
10
0
20
0
30
0
70
128
71
14
72
15
73
11
0
VERTEX
8
OBJECT__10
10
0
20
0
30
0
70
128
71
16
72
17
73
15
0
VERTEX
8
OBJECT__10
10
0
20
0
30
0
70
128
71
18
72
19
73
17
0
VERTEX
8
OBJECT__10
10
0
20
0
30
0
70
128
71
20
72
19
73
21
0
VERTEX
8
OBJECT__10
10
0
20
0
30
0
70
128
71
19
72
18
73
21
0
VERTEX
8
OBJECT__10
10
0
20
0
30
0
70
128
71
20
72
22
73
23
0
VERTEX
8
OBJECT__10
10
0
20
0
30
0
70
128
71
23
72
24
73
20
0
VERTEX
8
OBJECT__10
10
0
20
0
30
0
70
128
71
25
72
26
73
27
0
VERTEX
8
OBJECT__10
10
0
20
0
30
0
70
128
71
28
72
27
73
29
0
VERTEX
8
OBJECT__10
10
0
20
0
30
0
70
128
71
27
72
26
73
29
0
VERTEX
8
OBJECT__10
10
0
20
0
30
0
70
128
71
28
72
30
73
31
0
VERTEX
8
OBJECT__10
10
0
20
0
30
0
70
128
71
31
72
32
73
28
0
VERTEX
8
OBJECT__10
10
0
20
0
30
0
70
128
71
33
72
34
73
32
0
VERTEX
8
OBJECT__10
10
0
20
0
30
0
70
128
71
35
72
36
73
34
0
VERTEX
8
OBJECT__10
10
0
20
0
30
0
70
128
71
37
72
36
73
38
0
VERTEX
8
OBJECT__10
10
0
20
0
30
0
70
128
71
36
72
35
73
38
0
VERTEX
8
OBJECT__10
10
0
20
0
30
0
70
128
71
37
72
39
73
40
0
VERTEX
8
OBJECT__10
10
0
20
0
30
0
70
128
71
40
72
41
73
37
0
VERTEX
8
OBJECT__10
10
0
20
0
30
0
70
128
71
42
72
43
73
44
0
VERTEX
8
OBJECT__10
10
0
20
0
30
0
70
128
71
45
72
44
73
46
0
VERTEX
8
OBJECT__10
10
0
20
0
30
0
70
128
71
44
72
43
73
46
0
VERTEX
8
OBJECT__10
10
0
20
0
30
0
70
128
71
45
72
47
73
48
0
VERTEX
8
OBJECT__10
10
0
20
0
30
0
70
128
71
48
72
49
73
45
0
VERTEX
8
OBJECT__10
10
0
20
0
30
0
70
128
71
50
72
51
73
49
0
VERTEX
8
OBJECT__10
10
0
20
0
30
0
70
128
71
52
72
53
73
51
0
VERTEX
8
OBJECT__10
10
0
20
0
30
0
70
128
71
54
72
53
73
55
0
VERTEX
8
OBJECT__10
10
0
20
0
30
0
70
128
71
53
72
52
73
55
0
VERTEX
8
OBJECT__10
10
0
20
0
30
0
70
128
71
54
72
56
73
57
0
VERTEX
8
OBJECT__10
10
0
20
0
30
0
70
128
71
57
72
58
73
54
0
VERTEX
8
OBJECT__10
10
0
20
0
30
0
70
128
71
59
72
60
73
61
0
VERTEX
8
OBJECT__10
10
0
20
0
30
0
70
128
71
62
72
61
73
63
0
VERTEX
8
OBJECT__10
10
0
20
0
30
0
70
128
71
61
72
60
73
63
0
VERTEX
8
OBJECT__10
10
0
20
0
30
0
70
128
71
62
72
64
73
65
0
VERTEX
8
OBJECT__10
10
0
20
0
30
0
70
128
71
65
72
66
73
62
0
VERTEX
8
OBJECT__10
10
0
20
0
30
0
70
128
71
67
72
68
73
66
0
VERTEX
8
OBJECT__10
10
0
20
0
30
0
70
128
71
69
72
70
73
68
0
VERTEX
8
OBJECT__10
10
0
20
0
30
0
70
128
71
71
72
70
73
72
0
VERTEX
8
OBJECT__10
10
0
20
0
30
0
70
128
71
70
72
69
73
72
0
VERTEX
8
OBJECT__10
10
0
20
0
30
0
70
128
71
71
72
73
73
74
0
VERTEX
8
OBJECT__10
10
0
20
0
30
0
70
128
71
74
72
75
73
71
0
VERTEX
8
OBJECT__10
10
0
20
0
30
0
70
128
71
76
72
77
73
78
0
VERTEX
8
OBJECT__10
10
0
20
0
30
0
70
128
71
79
72
78
73
80
0
VERTEX
8
OBJECT__10
10
0
20
0
30
0
70
128
71
78
72
77
73
80
0
VERTEX
8
OBJECT__10
10
0
20
0
30
0
70
128
71
79
72
81
73
82
0
VERTEX
8
OBJECT__10
10
0
20
0
30
0
70
128
71
82
72
83
73
79
0
VERTEX
8
OBJECT__10
10
0
20
0
30
0
70
128
71
84
72
1
73
85
0
VERTEX
8
OBJECT__10
10
0
20
0
30
0
70
128
71
85
72
3
73
86
0
VERTEX
8
OBJECT__10
10
0
20
0
30
0
70
128
71
4
72
87
73
86
0
VERTEX
8
OBJECT__10
10
0
20
0
30
0
70
128
71
4
72
8
73
88
0
VERTEX
8
OBJECT__10
10
0
20
0
30
0
70
128
71
8
72
10
73
89
0
VERTEX
8
OBJECT__10
10
0
20
0
30
0
70
128
71
11
72
90
73
89
0
VERTEX
8
OBJECT__10
10
0
20
0
30
0
70
128
71
15
72
91
73
90
0
VERTEX
8
OBJECT__10
10
0
20
0
30
0
70
128
71
17
72
92
73
91
0
VERTEX
8
OBJECT__10
10
0
20
0
30
0
70
128
71
17
72
19
73
93
0
VERTEX
8
OBJECT__10
10
0
20
0
30
0
70
128
71
20
72
94
73
93
0
VERTEX
8
OBJECT__10
10
0
20
0
30
0
70
128
71
24
72
95
73
94
0
VERTEX
8
OBJECT__10
10
0
20
0
30
0
70
128
71
27
72
96
73
95
0
VERTEX
8
OBJECT__10
10
0
20
0
30
0
70
128
71
28
72
97
73
96
0
VERTEX
8
OBJECT__10
10
0
20
0
30
0
70
128
71
28
72
32
73
98
0
VERTEX
8
OBJECT__10
10
0
20
0
30
0
70
128
71
32
72
34
73
99
0
VERTEX
8
OBJECT__10
10
0
20
0
30
0
70
128
71
36
72
100
73
99
0
VERTEX
8
OBJECT__10
10
0
20
0
30
0
70
128
71
37
72
101
73
100
0
VERTEX
8
OBJECT__10
10
0
20
0
30
0
70
128
71
37
72
41
73
102
0
VERTEX
8
OBJECT__10
10
0
20
0
30
0
70
128
71
44
72
103
73
104
0
VERTEX
8
OBJECT__10
10
0
20
0
30
0
70
128
71
104
72
41
73
44
0
VERTEX
8
OBJECT__10
10
0
20
0
30
0
70
128
71
44
72
45
73
105
0
VERTEX
8
OBJECT__10
10
0
20
0
30
0
70
128
71
49
72
106
73
105
0
VERTEX
8
OBJECT__10
10
0
20
0
30
0
70
128
71
49
72
51
73
107
0
VERTEX
8
OBJECT__10
10
0
20
0
30
0
70
128
71
51
72
53
73
108
0
VERTEX
8
OBJECT__10
10
0
20
0
30
0
70
128
71
53
72
54
73
109
0
VERTEX
8
OBJECT__10
10
0
20
0
30
0
70
128
71
58
72
110
73
109
0
VERTEX
8
OBJECT__10
10
0
20
0
30
0
70
128
71
61
72
111
73
110
0
VERTEX
8
OBJECT__10
10
0
20
0
30
0
70
128
71
62
72
112
73
111
0
VERTEX
8
OBJECT__10
10
0
20
0
30
0
70
128
71
66
72
113
73
112
0
VERTEX
8
OBJECT__10
10
0
20
0
30
0
70
128
71
66
72
68
73
114
0
VERTEX
8
OBJECT__10
10
0
20
0
30
0
70
128
71
68
72
70
73
115
0
VERTEX
8
OBJECT__10
10
0
20
0
30
0
70
128
71
70
72
71
73
116
0
VERTEX
8
OBJECT__10
10
0
20
0
30
0
70
128
71
71
72
75
73
117
0
VERTEX
8
OBJECT__10
10
0
20
0
30
0
70
128
71
78
72
118
73
117
0
VERTEX
8
OBJECT__10
10
0
20
0
30
0
70
128
71
79
72
119
73
118
0
VERTEX
8
OBJECT__10
10
0
20
0
30
0
70
128
71
79
72
83
73
120
0
VERTEX
8
OBJECT__10
10
0
20
0
30
0
70
128
71
83
72
85
73
121
0
VERTEX
8
OBJECT__10
10
0
20
0
30
0
70
128
71
121
72
120
73
83
0
VERTEX
8
OBJECT__10
10
0
20
0
30
0
70
128
71
120
72
119
73
79
0
VERTEX
8
OBJECT__10
10
0
20
0
30
0
70
128
71
118
72
78
73
79
0
VERTEX
8
OBJECT__10
10
0
20
0
30
0
70
128
71
117
72
75
73
78
0
VERTEX
8
OBJECT__10
10
0
20
0
30
0
70
128
71
117
72
116
73
71
0
VERTEX
8
OBJECT__10
10
0
20
0
30
0
70
128
71
116
72
115
73
70
0
VERTEX
8
OBJECT__10
10
0
20
0
30
0
70
128
71
115
72
114
73
68
0
VERTEX
8
OBJECT__10
10
0
20
0
30
0
70
128
71
114
72
113
73
66
0
VERTEX
8
OBJECT__10
10
0
20
0
30
0
70
128
71
112
72
62
73
66
0
VERTEX
8
OBJECT__10
10
0
20
0
30
0
70
128
71
111
72
61
73
62
0
VERTEX
8
OBJECT__10
10
0
20
0
30
0
70
128
71
110
72
58
73
61
0
VERTEX
8
OBJECT__10
10
0
20
0
30
0
70
128
71
109
72
54
73
58
0
VERTEX
8
OBJECT__10
10
0
20
0
30
0
70
128
71
109
72
108
73
53
0
VERTEX
8
OBJECT__10
10
0
20
0
30
0
70
128
71
108
72
107
73
51
0
VERTEX
8
OBJECT__10
10
0
20
0
30
0
70
128
71
107
72
106
73
49
0
VERTEX
8
OBJECT__10
10
0
20
0
30
0
70
128
71
105
72
45
73
49
0
VERTEX
8
OBJECT__10
10
0
20
0
30
0
70
128
71
105
72
103
73
44
0
VERTEX
8
OBJECT__10
10
0
20
0
30
0
70
128
71
104
72
102
73
41
0
VERTEX
8
OBJECT__10
10
0
20
0
30
0
70
128
71
102
72
101
73
37
0
VERTEX
8
OBJECT__10
10
0
20
0
30
0
70
128
71
100
72
36
73
37
0
VERTEX
8
OBJECT__10
10
0
20
0
30
0
70
128
71
99
72
34
73
36
0
VERTEX
8
OBJECT__10
10
0
20
0
30
0
70
128
71
99
72
98
73
32
0
VERTEX
8
OBJECT__10
10
0
20
0
30
0
70
128
71
98
72
97
73
28
0
VERTEX
8
OBJECT__10
10
0
20
0
30
0
70
128
71
96
72
27
73
28
0
VERTEX
8
OBJECT__10
10
0
20
0
30
0
70
128
71
95
72
24
73
27
0
VERTEX
8
OBJECT__10
10
0
20
0
30
0
70
128
71
94
72
20
73
24
0
VERTEX
8
OBJECT__10
10
0
20
0
30
0
70
128
71
93
72
19
73
20
0
VERTEX
8
OBJECT__10
10
0
20
0
30
0
70
128
71
93
72
92
73
17
0
VERTEX
8
OBJECT__10
10
0
20
0
30
0
70
128
71
91
72
15
73
17
0
VERTEX
8
OBJECT__10
10
0
20
0
30
0
70
128
71
90
72
11
73
15
0
VERTEX
8
OBJECT__10
10
0
20
0
30
0
70
128
71
89
72
10
73
11
0
VERTEX
8
OBJECT__10
10
0
20
0
30
0
70
128
71
89
72
88
73
8
0
VERTEX
8
OBJECT__10
10
0
20
0
30
0
70
128
71
88
72
87
73
4
0
VERTEX
8
OBJECT__10
10
0
20
0
30
0
70
128
71
86
72
3
73
4
0
VERTEX
8
OBJECT__10
10
0
20
0
30
0
70
128
71
86
72
121
73
85
0
VERTEX
8
OBJECT__10
10
0
20
0
30
0
70
128
71
85
72
83
73
84
0
VERTEX
8
OBJECT__10
10
0
20
0
30
0
70
128
71
82
72
84
73
83
0
VERTEX
8
OBJECT__10
10
0
20
0
30
0
70
128
71
80
72
81
73
79
0
VERTEX
8
OBJECT__10
10
0
20
0
30
0
70
128
71
78
72
75
73
76
0
VERTEX
8
OBJECT__10
10
0
20
0
30
0
70
128
71
74
72
76
73
75
0
VERTEX
8
OBJECT__10
10
0
20
0
30
0
70
128
71
72
72
73
73
71
0
VERTEX
8
OBJECT__10
10
0
20
0
30
0
70
128
71
68
72
67
73
69
0
VERTEX
8
OBJECT__10
10
0
20
0
30
0
70
128
71
66
72
122
73
67
0
VERTEX
8
OBJECT__10
10
0
20
0
30
0
70
128
71
65
72
122
73
66
0
VERTEX
8
OBJECT__10
10
0
20
0
30
0
70
128
71
63
72
64
73
62
0
VERTEX
8
OBJECT__10
10
0
20
0
30
0
70
128
71
61
72
58
73
59
0
VERTEX
8
OBJECT__10
10
0
20
0
30
0
70
128
71
57
72
59
73
58
0
VERTEX
8
OBJECT__10
10
0
20
0
30
0
70
128
71
55
72
56
73
54
0
VERTEX
8
OBJECT__10
10
0
20
0
30
0
70
128
71
51
72
50
73
52
0
VERTEX
8
OBJECT__10
10
0
20
0
30
0
70
128
71
49
72
123
73
50
0
VERTEX
8
OBJECT__10
10
0
20
0
30
0
70
128
71
48
72
123
73
49
0
VERTEX
8
OBJECT__10
10
0
20
0
30
0
70
128
71
46
72
47
73
45
0
VERTEX
8
OBJECT__10
10
0
20
0
30
0
70
128
71
44
72
41
73
42
0
VERTEX
8
OBJECT__10
10
0
20
0
30
0
70
128
71
40
72
42
73
41
0
VERTEX
8
OBJECT__10
10
0
20
0
30
0
70
128
71
38
72
39
73
37
0
VERTEX
8
OBJECT__10
10
0
20
0
30
0
70
128
71
34
72
33
73
35
0
VERTEX
8
OBJECT__10
10
0
20
0
30
0
70
128
71
32
72
124
73
33
0
VERTEX
8
OBJECT__10
10
0
20
0
30
0
70
128
71
31
72
124
73
32
0
VERTEX
8
OBJECT__10
10
0
20
0
30
0
70
128
71
29
72
30
73
28
0
VERTEX
8
OBJECT__10
10
0
20
0
30
0
70
128
71
27
72
24
73
25
0
VERTEX
8
OBJECT__10
10
0
20
0
30
0
70
128
71
23
72
25
73
24
0
VERTEX
8
OBJECT__10
10
0
20
0
30
0
70
128
71
21
72
22
73
20
0
VERTEX
8
OBJECT__10
10
0
20
0
30
0
70
128
71
17
72
16
73
18
0
VERTEX
8
OBJECT__10
10
0
20
0
30
0
70
128
71
15
72
125
73
16
0
VERTEX
8
OBJECT__10
10
0
20
0
30
0
70
128
71
14
72
125
73
15
0
VERTEX
8
OBJECT__10
10
0
20
0
30
0
70
128
71
12
72
13
73
11
0
VERTEX
8
OBJECT__10
10
0
20
0
30
0
70
128
71
8
72
126
73
9
0
VERTEX
8
OBJECT__10
10
0
20
0
30
0
70
128
71
7
72
126
73
8
0
VERTEX
8
OBJECT__10
10
0
20
0
30
0
70
128
71
5
72
6
73
4
0
VERTEX
8
OBJECT__10
10
0
20
0
30
0
70
128
71
3
72
85
73
1
0
SEQEND
8
OBJECT__10
0
POLYLINE
8
OBJECT__11
66
1
70
64
71
36
72
34
62
253
0
VERTEX
8
OBJECT__11
10
-0.725000
20
32.298000
30
86.056999
70
192
0
VERTEX
8
OBJECT__11
10
-0.725000
20
66.438004
30
-63.521000
70
192
0
VERTEX
8
OBJECT__11
10
-0.725000
20
54.028000
30
-74.363998
70
192
0
VERTEX
8
OBJECT__11
10
-0.725000
20
39.882000
30
-82.816002
70
192
0
VERTEX
8
OBJECT__11
10
-0.725000
20
47.145000
30
78.906998
70
192
0
VERTEX
8
OBJECT__11
10
-0.725000
20
80.943001
30
43.556999
70
192
0
VERTEX
8
OBJECT__11
10
-0.725000
20
87.419998
30
28.403999
70
192
0
VERTEX
8
OBJECT__11
10
-0.725000
20
60.477001
30
69.221001
70
192
0
VERTEX
8
OBJECT__11
10
-0.725000
20
0.000000
30
91.917999
70
192
0
VERTEX
8
OBJECT__11
10
-0.725000
20
-60.477001
30
69.221001
70
192
0
VERTEX
8
OBJECT__11
10
-0.725000
20
-47.145000
30
78.906998
70
192
0
VERTEX
8
OBJECT__11
10
-0.725000
20
-80.943001
30
43.556999
70
192
0
VERTEX
8
OBJECT__11
10
-0.725000
20
-71.864998
30
57.310001
70
192
0
VERTEX
8
OBJECT__11
10
-0.725000
20
-39.882000
30
-82.816002
70
192
0
VERTEX
8
OBJECT__11
10
-0.725000
20
-54.028000
30
-74.363998
70
192
0
VERTEX
8
OBJECT__11
10
-0.725000
20
76.712997
30
-50.638000
70
192
0
VERTEX
8
OBJECT__11
10
-0.725000
20
91.086998
30
12.339000
70
192
0
VERTEX
8
OBJECT__11
10
-0.725000
20
91.825996
30
-4.124000
70
192
0
VERTEX
8
OBJECT__11
10
-0.725000
20
71.864998
30
57.310001
70
192
0
VERTEX
8
OBJECT__11
10
-0.725000
20
-32.298000
30
86.056999
70
192
0
VERTEX
8
OBJECT__11
10
-0.725000
20
-87.419998
30
28.403999
70
192
0
VERTEX
8
OBJECT__11
10
-0.725000
20
-84.522003
30
-36.125999
70
192
0
VERTEX
8
OBJECT__11
10
-0.725000
20
-89.613998
30
-20.454000
70
192
0
VERTEX
8
OBJECT__11
10
-0.725000
20
-66.438004
30
-63.521000
70
192
0
VERTEX
8
OBJECT__11
10
-0.725000
20
-8.240000
30
-91.547997
70
192
0
VERTEX
8
OBJECT__11
10
-0.725000
20
-24.454000
30
-88.606003
70
192
0
VERTEX
8
OBJECT__11
10
-0.725000
20
84.522003
30
-36.125999
70
192
0
VERTEX
8
OBJECT__11
10
-0.725000
20
89.613998
30
-20.454000
70
192
0
VERTEX
8
OBJECT__11
10
-0.725000
20
-91.825996
30
-4.124000
70
192
0
VERTEX
8
OBJECT__11
10
-0.725000
20
-91.086998
30
12.339000
70
192
0
VERTEX
8
OBJECT__11
10
-0.725000
20
-76.712997
30
-50.638000
70
192
0
VERTEX
8
OBJECT__11
10
-0.725000
20
24.454000
30
-88.606003
70
192
0
VERTEX
8
OBJECT__11
10
-0.725000
20
8.240000
30
-91.547997
70
192
0
VERTEX
8
OBJECT__11
10
-0.725000
20
16.413000
30
90.441002
70
192
0
VERTEX
8
OBJECT__11
10
-0.725000
20
0.000000
30
-91.917999
70
192
0
VERTEX
8
OBJECT__11
10
-0.725000
20
-16.413000
30
90.441002
70
192
0
VERTEX
8
OBJECT__11
10
0
20
0
30
0
70
128
71
1
72
2
73
3
0
VERTEX
8
OBJECT__11
10
0
20
0
30
0
70
128
71
3
72
4
73
1
0
VERTEX
8
OBJECT__11
10
0
20
0
30
0
70
128
71
5
72
6
73
7
0
VERTEX
8
OBJECT__11
10
0
20
0
30
0
70
128
71
6
72
5
73
8
0
VERTEX
8
OBJECT__11
10
0
20
0
30
0
70
128
71
9
72
10
73
11
0
VERTEX
8
OBJECT__11
10
0
20
0
30
0
70
128
71
9
72
12
73
13
0
VERTEX
8
OBJECT__11
10
0
20
0
30
0
70
128
71
9
72
14
73
15
0
VERTEX
8
OBJECT__11
10
0
20
0
30
0
70
128
71
1
72
16
73
2
0
VERTEX
8
OBJECT__11
10
0
20
0
30
0
70
128
71
1
72
17
73
18
0
VERTEX
8
OBJECT__11
10
0
20
0
30
0
70
128
71
8
72
19
73
6
0
VERTEX
8
OBJECT__11
10
0
20
0
30
0
70
128
71
11
72
20
73
9
0
VERTEX
8
OBJECT__11
10
0
20
0
30
0
70
128
71
9
72
21
73
12
0
VERTEX
8
OBJECT__11
10
0
20
0
30
0
70
128
71
9
72
22
73
23
0
VERTEX
8
OBJECT__11
10
0
20
0
30
0
70
128
71
15
72
24
73
9
0
VERTEX
8
OBJECT__11
10
0
20
0
30
0
70
128
71
9
72
25
73
26
0
VERTEX
8
OBJECT__11
10
0
20
0
30
0
70
128
71
1
72
27
73
16
0
VERTEX
8
OBJECT__11
10
0
20
0
30
0
70
128
71
18
72
28
73
1
0
VERTEX
8
OBJECT__11
10
0
20
0
30
0
70
128
71
17
72
1
73
5
0
VERTEX
8
OBJECT__11
10
0
20
0
30
0
70
128
71
13
72
10
73
9
0
VERTEX
8
OBJECT__11
10
0
20
0
30
0
70
128
71
9
72
29
73
30
0
VERTEX
8
OBJECT__11
10
0
20
0
30
0
70
128
71
9
72
31
73
22
0
VERTEX
8
OBJECT__11
10
0
20
0
30
0
70
128
71
26
72
14
73
9
0
VERTEX
8
OBJECT__11
10
0
20
0
30
0
70
128
71
4
72
32
73
1
0
VERTEX
8
OBJECT__11
10
0
20
0
30
0
70
128
71
7
72
17
73
5
0
VERTEX
8
OBJECT__11
10
0
20
0
30
0
70
128
71
30
72
21
73
9
0
VERTEX
8
OBJECT__11
10
0
20
0
30
0
70
128
71
24
72
31
73
9
0
VERTEX
8
OBJECT__11
10
0
20
0
30
0
70
128
71
28
72
27
73
1
0
VERTEX
8
OBJECT__11
10
0
20
0
30
0
70
128
71
33
72
9
73
34
0
VERTEX
8
OBJECT__11
10
0
20
0
30
0
70
128
71
23
72
29
73
9
0
VERTEX
8
OBJECT__11
10
0
20
0
30
0
70
128
71
34
72
1
73
33
0
VERTEX
8
OBJECT__11
10
0
20
0
30
0
70
128
71
9
72
35
73
25
0
VERTEX
8
OBJECT__11
10
0
20
0
30
0
70
128
71
32
72
33
73
1
0
VERTEX
8
OBJECT__11
10
0
20
0
30
0
70
128
71
33
72
35
73
9
0
VERTEX
8
OBJECT__11
10
0
20
0
30
0
70
128
71
20
72
36
73
9
0
SEQEND
8
OBJECT__11
0
POLYLINE
8
OBJECT__12
66
1
70
64
71
29
72
29
62
253
0
VERTEX
8
OBJECT__12
10
44.007999
20
-10.401000
30
-18.013000
70
192
0
VERTEX
8
OBJECT__12
10
44.007999
20
-0.001000
30
-20.799999
70
192
0
VERTEX
8
OBJECT__12
10
39.763000
20
-2.536000
30
-20.645000
70
192
0
VERTEX
8
OBJECT__12
10
39.763000
20
-0.001000
30
-20.799999
70
192
0
VERTEX
8
OBJECT__12
10
39.763000
20
-18.014000
30
-10.399000
70
192
0
VERTEX
8
OBJECT__12
10
44.007999
20
-18.014000
30
-10.399000
70
192
0
VERTEX
8
OBJECT__12
10
44.007999
20
-20.799999
30
0.001000
70
192
0
VERTEX
8
OBJECT__12
10
39.763000
20
-19.214001
30
-7.967000
70
192
0
VERTEX
8
OBJECT__12
10
39.763000
20
-18.013000
30
10.401000
70
192
0
VERTEX
8
OBJECT__12
10
44.007999
20
-18.013000
30
10.401000
70
192
0
VERTEX
8
OBJECT__12
10
44.007999
20
-10.399000
30
18.014000
70
192
0
VERTEX
8
OBJECT__12
10
39.763000
20
-16.714001
30
12.380000
70
192
0
VERTEX
8
OBJECT__12
10
39.763000
20
0.001000
30
20.799999
70
192
0
VERTEX
8
OBJECT__12
10
44.007999
20
0.001000
30
20.799999
70
192
0
VERTEX
8
OBJECT__12
10
39.763000
20
10.401000
30
18.013000
70
192
0
VERTEX
8
OBJECT__12
10
44.007999
20
10.401000
30
18.013000
70
192
0
VERTEX
8
OBJECT__12
10
44.007999
20
18.014000
30
10.399000
70
192
0
VERTEX
8
OBJECT__12
10
44.007999
20
20.799999
30
-0.001000
70
192
0
VERTEX
8
OBJECT__12
10
39.763000
20
19.214001
30
7.967000
70
192
0
VERTEX
8
OBJECT__12
10
39.763000
20
18.014000
30
10.399000
70
192
0
VERTEX
8
OBJECT__12
10
44.007999
20
18.013000
30
-10.401000
70
192
0
VERTEX
8
OBJECT__12
10
39.763000
20
20.799999
30
-0.001000
70
192
0
VERTEX
8
OBJECT__12
10
44.007999
20
10.399000
30
-18.014000
70
192
0
VERTEX
8
OBJECT__12
10
39.763000
20
16.714001
30
-12.380000
70
192
0
VERTEX
8
OBJECT__12
10
39.763000
20
18.013000
30
-10.401000
70
192
0
VERTEX
8
OBJECT__12
10
39.763000
20
10.399000
30
-18.014000
70
192
0
VERTEX
8
OBJECT__12
10
39.763000
20
-10.399000
30
18.014000
70
192
0
VERTEX
8
OBJECT__12
10
39.763000
20
-20.799999
30
0.001000
70
192
0
VERTEX
8
OBJECT__12
10
39.763000
20
-10.401000
30
-18.013000
70
192
0
VERTEX
8
OBJECT__12
10
0
20
0
30
0
70
128
71
1
72
2
73
3
0
VERTEX
8
OBJECT__12
10
0
20
0
30
0
70
128
71
2
72
4
73
3
0
VERTEX
8
OBJECT__12
10
0
20
0
30
0
70
128
71
5
72
6
73
1
0
VERTEX
8
OBJECT__12
10
0
20
0
30
0
70
128
71
7
72
6
73
8
0
VERTEX
8
OBJECT__12
10
0
20
0
30
0
70
128
71
6
72
5
73
8
0
VERTEX
8
OBJECT__12
10
0
20
0
30
0
70
128
71
9
72
10
73
7
0
VERTEX
8
OBJECT__12
10
0
20
0
30
0
70
128
71
11
72
10
73
12
0
VERTEX
8
OBJECT__12
10
0
20
0
30
0
70
128
71
10
72
9
73
12
0
VERTEX
8
OBJECT__12
10
0
20
0
30
0
70
128
71
13
72
14
73
11
0
VERTEX
8
OBJECT__12
10
0
20
0
30
0
70
128
71
15
72
16
73
14
0
VERTEX
8
OBJECT__12
10
0
20
0
30
0
70
128
71
17
72
16
73
15
0
VERTEX
8
OBJECT__12
10
0
20
0
30
0
70
128
71
18
72
17
73
19
0
VERTEX
8
OBJECT__12
10
0
20
0
30
0
70
128
71
17
72
20
73
19
0
VERTEX
8
OBJECT__12
10
0
20
0
30
0
70
128
71
21
72
18
73
22
0
VERTEX
8
OBJECT__12
10
0
20
0
30
0
70
128
71
23
72
21
73
24
0
VERTEX
8
OBJECT__12
10
0
20
0
30
0
70
128
71
21
72
25
73
24
0
VERTEX
8
OBJECT__12
10
0
20
0
30
0
70
128
71
23
72
26
73
4
0
VERTEX
8
OBJECT__12
10
0
20
0
30
0
70
128
71
4
72
2
73
23
0
VERTEX
8
OBJECT__12
10
0
20
0
30
0
70
128
71
24
72
26
73
23
0
VERTEX
8
OBJECT__12
10
0
20
0
30
0
70
128
71
22
72
25
73
21
0
VERTEX
8
OBJECT__12
10
0
20
0
30
0
70
128
71
19
72
22
73
18
0
VERTEX
8
OBJECT__12
10
0
20
0
30
0
70
128
71
15
72
20
73
17
0
VERTEX
8
OBJECT__12
10
0
20
0
30
0
70
128
71
14
72
13
73
15
0
VERTEX
8
OBJECT__12
10
0
20
0
30
0
70
128
71
11
72
27
73
13
0
VERTEX
8
OBJECT__12
10
0
20
0
30
0
70
128
71
12
72
27
73
11
0
VERTEX
8
OBJECT__12
10
0
20
0
30
0
70
128
71
7
72
28
73
9
0
VERTEX
8
OBJECT__12
10
0
20
0
30
0
70
128
71
8
72
28
73
7
0
VERTEX
8
OBJECT__12
10
0
20
0
30
0
70
128
71
1
72
29
73
5
0
VERTEX
8
OBJECT__12
10
0
20
0
30
0
70
128
71
3
72
29
73
1
0
SEQEND
8
OBJECT__12
0
POLYLINE
8
OBJECT__14
66
1
70
64
71
36
72
48
62
253
0
VERTEX
8
OBJECT__14
10
69.257004
20
16.152000
30
-71.760002
70
192
0
VERTEX
8
OBJECT__14
10
66.657997
20
13.711000
30
-70.749001
70
192
0
VERTEX
8
OBJECT__14
10
67.011002
20
14.569000
30
-65.070000
70
192
0
VERTEX
8
OBJECT__14
10
66.657997
20
10.494000
30
-75.564003
70
192
0
VERTEX
8
OBJECT__14
10
69.257004
20
14.893000
30
-73.646004
70
192
0
VERTEX
8
OBJECT__14
10
69.257004
20
12.362000
30
-77.431999
70
192
0
VERTEX
8
OBJECT__14
10
69.257004
20
8.576000
30
-79.962997
70
192
0
VERTEX
8
OBJECT__14
10
66.657997
20
5.679000
30
-78.780998
70
192
0
VERTEX
8
OBJECT__14
10
69.257004
20
0.000000
30
-82.553001
70
192
0
VERTEX
8
OBJECT__14
10
66.657997
20
0.000000
30
-79.911003
70
192
0
VERTEX
8
OBJECT__14
10
69.257004
20
-6.690000
30
-81.222000
70
192
0
VERTEX
8
OBJECT__14
10
66.657997
20
-5.679000
30
-78.780998
70
192
0
VERTEX
8
OBJECT__14
10
66.657997
20
-10.494000
30
-75.564003
70
192
0
VERTEX
8
OBJECT__14
10
69.257004
20
-8.576000
30
-79.962997
70
192
0
VERTEX
8
OBJECT__14
10
69.257004
20
-12.362000
30
-77.431999
70
192
0
VERTEX
8
OBJECT__14
10
69.257004
20
-14.893000
30
-73.646004
70
192
0
VERTEX
8
OBJECT__14
10
66.657997
20
-13.711000
30
-70.749001
70
192
0
VERTEX
8
OBJECT__14
10
69.257004
20
-17.483000
30
-65.070000
70
192
0
VERTEX
8
OBJECT__14
10
66.657997
20
-14.841000
30
-65.070000
70
192
0
VERTEX
8
OBJECT__14
10
65.078003
20
8.908000
30
-68.760002
70
192
0
VERTEX
8
OBJECT__14
10
65.417999
20
9.594000
30
-65.070000
70
192
0
VERTEX
8
OBJECT__14
10
65.912003
20
13.143000
30
-65.070000
70
192
0
VERTEX
8
OBJECT__14
10
65.078003
20
6.818000
30
-71.888000
70
192
0
VERTEX
8
OBJECT__14
10
65.078003
20
3.690000
30
-73.977997
70
192
0
VERTEX
8
OBJECT__14
10
65.078003
20
0.000000
30
-74.711998
70
192
0
VERTEX
8
OBJECT__14
10
65.078003
20
-3.690000
30
-73.977997
70
192
0
VERTEX
8
OBJECT__14
10
65.078003
20
-6.818000
30
-71.888000
70
192
0
VERTEX
8
OBJECT__14
10
65.078003
20
-8.908000
30
-68.760002
70
192
0
VERTEX
8
OBJECT__14
10
66.122002
20
-13.079000
30
-65.070000
70
192
0
VERTEX
8
OBJECT__14
10
65.078003
20
-9.642000
30
-65.070000
70
192
0
VERTEX
8
OBJECT__14
10
64.621002
20
0.000000
30
-65.070000
70
192
0
VERTEX
8
OBJECT__14
10
64.663002
20
4.164000
30
-65.070000
70
192
0
VERTEX
8
OBJECT__14
10
64.818001
20
-4.157000
30
-65.070000
70
192
0
VERTEX
8
OBJECT__14
10
69.257004
20
-16.152000
30
-71.760002
70
192
0
VERTEX
8
OBJECT__14
10
69.257004
20
6.690000
30
-81.222000
70
192
0
VERTEX
8
OBJECT__14
10
69.257004
20
17.483000
30
-65.070000
70
192
0
VERTEX
8
OBJECT__14
10
0
20
0
30
0
70
128
71
1
72
2
73
3
0
VERTEX
8
OBJECT__14
10
0
20
0
30
0
70
128
71
4
72
2
73
5
0
VERTEX
8
OBJECT__14
10
0
20
0
30
0
70
128
71
2
72
1
73
5
0
VERTEX
8
OBJECT__14
10
0
20
0
30
0
70
128
71
4
72
6
73
7
0
VERTEX
8
OBJECT__14
10
0
20
0
30
0
70
128
71
7
72
8
73
4
0
VERTEX
8
OBJECT__14
10
0
20
0
30
0
70
128
71
9
72
10
73
8
0
VERTEX
8
OBJECT__14
10
0
20
0
30
0
70
128
71
11
72
12
73
10
0
VERTEX
8
OBJECT__14
10
0
20
0
30
0
70
128
71
13
72
12
73
14
0
VERTEX
8
OBJECT__14
10
0
20
0
30
0
70
128
71
12
72
11
73
14
0
VERTEX
8
OBJECT__14
10
0
20
0
30
0
70
128
71
13
72
15
73
16
0
VERTEX
8
OBJECT__14
10
0
20
0
30
0
70
128
71
16
72
17
73
13
0
VERTEX
8
OBJECT__14
10
0
20
0
30
0
70
128
71
18
72
19
73
17
0
VERTEX
8
OBJECT__14
10
0
20
0
30
0
70
128
71
2
72
20
73
21
0
VERTEX
8
OBJECT__14
10
0
20
0
30
0
70
128
71
21
72
22
73
2
0
VERTEX
8
OBJECT__14
10
0
20
0
30
0
70
128
71
2
72
4
73
23
0
VERTEX
8
OBJECT__14
10
0
20
0
30
0
70
128
71
4
72
8
73
24
0
VERTEX
8
OBJECT__14
10
0
20
0
30
0
70
128
71
8
72
10
73
25
0
VERTEX
8
OBJECT__14
10
0
20
0
30
0
70
128
71
10
72
12
73
26
0
VERTEX
8
OBJECT__14
10
0
20
0
30
0
70
128
71
12
72
13
73
27
0
VERTEX
8
OBJECT__14
10
0
20
0
30
0
70
128
71
13
72
17
73
28
0
VERTEX
8
OBJECT__14
10
0
20
0
30
0
70
128
71
29
72
30
73
28
0
VERTEX
8
OBJECT__14
10
0
20
0
30
0
70
128
71
17
72
19
73
29
0
VERTEX
8
OBJECT__14
10
0
20
0
30
0
70
128
71
20
72
31
73
32
0
VERTEX
8
OBJECT__14
10
0
20
0
30
0
70
128
71
28
72
30
73
33
0
VERTEX
8
OBJECT__14
10
0
20
0
30
0
70
128
71
33
72
31
73
28
0
VERTEX
8
OBJECT__14
10
0
20
0
30
0
70
128
71
31
72
27
73
28
0
VERTEX
8
OBJECT__14
10
0
20
0
30
0
70
128
71
31
72
26
73
27
0
VERTEX
8
OBJECT__14
10
0
20
0
30
0
70
128
71
31
72
25
73
26
0
VERTEX
8
OBJECT__14
10
0
20
0
30
0
70
128
71
31
72
24
73
25
0
VERTEX
8
OBJECT__14
10
0
20
0
30
0
70
128
71
31
72
23
73
24
0
VERTEX
8
OBJECT__14
10
0
20
0
30
0
70
128
71
31
72
20
73
23
0
VERTEX
8
OBJECT__14
10
0
20
0
30
0
70
128
71
32
72
21
73
20
0
VERTEX
8
OBJECT__14
10
0
20
0
30
0
70
128
71
28
72
17
73
29
0
VERTEX
8
OBJECT__14
10
0
20
0
30
0
70
128
71
28
72
27
73
13
0
VERTEX
8
OBJECT__14
10
0
20
0
30
0
70
128
71
27
72
26
73
12
0
VERTEX
8
OBJECT__14
10
0
20
0
30
0
70
128
71
26
72
25
73
10
0
VERTEX
8
OBJECT__14
10
0
20
0
30
0
70
128
71
25
72
24
73
8
0
VERTEX
8
OBJECT__14
10
0
20
0
30
0
70
128
71
24
72
23
73
4
0
VERTEX
8
OBJECT__14
10
0
20
0
30
0
70
128
71
23
72
20
73
2
0
VERTEX
8
OBJECT__14
10
0
20
0
30
0
70
128
71
22
72
3
73
2
0
VERTEX
8
OBJECT__14
10
0
20
0
30
0
70
128
71
17
72
34
73
18
0
VERTEX
8
OBJECT__14
10
0
20
0
30
0
70
128
71
16
72
34
73
17
0
VERTEX
8
OBJECT__14
10
0
20
0
30
0
70
128
71
14
72
15
73
13
0
VERTEX
8
OBJECT__14
10
0
20
0
30
0
70
128
71
10
72
9
73
11
0
VERTEX
8
OBJECT__14
10
0
20
0
30
0
70
128
71
8
72
35
73
9
0
VERTEX
8
OBJECT__14
10
0
20
0
30
0
70
128
71
7
72
35
73
8
0
VERTEX
8
OBJECT__14
10
0
20
0
30
0
70
128
71
5
72
6
73
4
0
VERTEX
8
OBJECT__14
10
0
20
0
30
0
70
128
71
3
72
36
73
1
0
SEQEND
8
OBJECT__14
0
POLYLINE
8
OBJECT__15
66
1
70
64
71
23
72
21
62
253
0
VERTEX
8
OBJECT__15
10
66.657997
20
-14.841000
30
-65.070000
70
192
0
VERTEX
8
OBJECT__15
10
66.095001
20
-13.634000
30
-10.677000
70
192
0
VERTEX
8
OBJECT__15
10
65.927002
20
-13.126000
30
-11.777000
70
192
0
VERTEX
8
OBJECT__15
10
66.122002
20
-13.079000
30
-65.070000
70
192
0
VERTEX
8
OBJECT__15
10
69.257004
20
-17.483000
30
0.000000
70
192
0
VERTEX
8
OBJECT__15
10
66.617996
20
-14.768000
30
-5.842000
70
192
0
VERTEX
8
OBJECT__15
10
66.475998
20
-14.459000
30
-7.159000
70
192
0
VERTEX
8
OBJECT__15
10
69.257004
20
-17.483000
30
-65.070000
70
192
0
VERTEX
8
OBJECT__15
10
67.929001
20
-16.542999
30
0.000000
70
192
0
VERTEX
8
OBJECT__15
10
66.848999
20
-15.172000
30
0.000000
70
192
0
VERTEX
8
OBJECT__15
10
65.078003
20
-9.642000
30
-65.070000
70
192
0
VERTEX
8
OBJECT__15
10
64.663002
20
-4.183000
30
-19.834000
70
192
0
VERTEX
8
OBJECT__15
10
64.663002
20
-4.164000
30
-19.836000
70
192
0
VERTEX
8
OBJECT__15
10
64.818001
20
-4.157000
30
-65.070000
70
192
0
VERTEX
8
OBJECT__15
10
64.827003
20
-7.426000
30
-18.583000
70
192
0
VERTEX
8
OBJECT__15
10
64.805000
20
-6.976000
30
-18.756001
70
192
0
VERTEX
8
OBJECT__15
10
65.124001
20
-9.935000
30
-16.743000
70
192
0
VERTEX
8
OBJECT__15
10
65.582001
20
-12.081000
30
-14.039000
70
192
0
VERTEX
8
OBJECT__15
10
65.125000
20
-9.941000
30
-16.736000
70
192
0
VERTEX
8
OBJECT__15
10
64.621002
20
0.000000
30
-65.070000
70
192
0
VERTEX
8
OBJECT__15
10
64.622002
20
-0.280000
30
-20.323999
70
192
0
VERTEX
8
OBJECT__15
10
64.656998
20
-3.596000
30
-19.908001
70
192
0
VERTEX
8
OBJECT__15
10
64.621002
20
0.000000
30
-20.326000
70
192
0
VERTEX
8
OBJECT__15
10
0
20
0
30
0
70
128
71
1
72
2
73
3
0
VERTEX
8
OBJECT__15
10
0
20
0
30
0
70
128
71
3
72
4
73
1
0
VERTEX
8
OBJECT__15
10
0
20
0
30
0
70
128
71
5
72
6
73
7
0
VERTEX
8
OBJECT__15
10
0
20
0
30
0
70
128
71
7
72
8
73
5
0
VERTEX
8
OBJECT__15
10
0
20
0
30
0
70
128
71
6
72
5
73
9
0
VERTEX
8
OBJECT__15
10
0
20
0
30
0
70
128
71
9
72
10
73
6
0
VERTEX
8
OBJECT__15
10
0
20
0
30
0
70
128
71
7
72
2
73
8
0
VERTEX
8
OBJECT__15
10
0
20
0
30
0
70
128
71
11
72
12
73
13
0
VERTEX
8
OBJECT__15
10
0
20
0
30
0
70
128
71
13
72
14
73
11
0
VERTEX
8
OBJECT__15
10
0
20
0
30
0
70
128
71
4
72
15
73
16
0
VERTEX
8
OBJECT__15
10
0
20
0
30
0
70
128
71
16
72
12
73
4
0
VERTEX
8
OBJECT__15
10
0
20
0
30
0
70
128
71
4
72
17
73
15
0
VERTEX
8
OBJECT__15
10
0
20
0
30
0
70
128
71
4
72
18
73
19
0
VERTEX
8
OBJECT__15
10
0
20
0
30
0
70
128
71
4
72
3
73
18
0
VERTEX
8
OBJECT__15
10
0
20
0
30
0
70
128
71
19
72
17
73
4
0
VERTEX
8
OBJECT__15
10
0
20
0
30
0
70
128
71
20
72
14
73
21
0
VERTEX
8
OBJECT__15
10
0
20
0
30
0
70
128
71
14
72
13
73
22
0
VERTEX
8
OBJECT__15
10
0
20
0
30
0
70
128
71
22
72
21
73
14
0
VERTEX
8
OBJECT__15
10
0
20
0
30
0
70
128
71
21
72
23
73
20
0
VERTEX
8
OBJECT__15
10
0
20
0
30
0
70
128
71
11
72
4
73
12
0
VERTEX
8
OBJECT__15
10
0
20
0
30
0
70
128
71
1
72
8
73
2
0
SEQEND
8
OBJECT__15
0
POLYLINE
8
OBJECT__17
66
1
70
64
71
23
72
21
62
253
0
VERTEX
8
OBJECT__17
10
64.663002
20
4.164000
30
-65.070000
70
192
0
VERTEX
8
OBJECT__17
10
64.621002
20
0.000000
30
-65.070000
70
192
0
VERTEX
8
OBJECT__17
10
64.621002
20
0.000000
30
-20.326000
70
192
0
VERTEX
8
OBJECT__17
10
64.654999
20
3.599000
30
-19.923000
70
192
0
VERTEX
8
OBJECT__17
10
64.658997
20
4.000000
30
-19.878000
70
192
0
VERTEX
8
OBJECT__17
10
65.912003
20
13.143000
30
-65.070000
70
192
0
VERTEX
8
OBJECT__17
10
65.508003
20
11.801000
30
-14.482000
70
192
0
VERTEX
8
OBJECT__17
10
65.599998
20
12.098000
30
-13.898000
70
192
0
VERTEX
8
OBJECT__17
10
65.072998
20
9.607000
30
-17.046000
70
192
0
VERTEX
8
OBJECT__17
10
65.130997
20
9.901000
30
-16.702999
70
192
0
VERTEX
8
OBJECT__17
10
65.417999
20
9.594000
30
-65.070000
70
192
0
VERTEX
8
OBJECT__17
10
64.666000
20
4.163000
30
-19.820000
70
192
0
VERTEX
8
OBJECT__17
10
64.795998
20
7.013000
30
-18.799000
70
192
0
VERTEX
8
OBJECT__17
10
66.813004
20
15.112000
30
-2.297000
70
192
0
VERTEX
8
OBJECT__17
10
66.848999
20
15.172000
30
0.000000
70
192
0
VERTEX
8
OBJECT__17
10
67.929001
20
16.542999
30
0.000000
70
192
0
VERTEX
8
OBJECT__17
10
69.257004
20
17.483000
30
0.000000
70
192
0
VERTEX
8
OBJECT__17
10
69.257004
20
17.483000
30
-65.070000
70
192
0
VERTEX
8
OBJECT__17
10
66.455002
20
14.450000
30
-7.657000
70
192
0
VERTEX
8
OBJECT__17
10
66.487000
20
14.510000
30
-7.177000
70
192
0
VERTEX
8
OBJECT__17
10
65.990997
20
13.364000
30
-11.414000
70
192
0
VERTEX
8
OBJECT__17
10
67.011002
20
14.569000
30
-65.070000
70
192
0
VERTEX
8
OBJECT__17
10
65.919998
20
13.134000
30
-11.865000
70
192
0
VERTEX
8
OBJECT__17
10
0
20
0
30
0
70
128
71
1
72
2
73
3
0
VERTEX
8
OBJECT__17
10
0
20
0
30
0
70
128
71
3
72
4
73
1
0
VERTEX
8
OBJECT__17
10
0
20
0
30
0
70
128
71
4
72
5
73
1
0
VERTEX
8
OBJECT__17
10
0
20
0
30
0
70
128
71
6
72
7
73
8
0
VERTEX
8
OBJECT__17
10
0
20
0
30
0
70
128
71
6
72
9
73
10
0
VERTEX
8
OBJECT__17
10
0
20
0
30
0
70
128
71
10
72
7
73
6
0
VERTEX
8
OBJECT__17
10
0
20
0
30
0
70
128
71
11
72
1
73
12
0
VERTEX
8
OBJECT__17
10
0
20
0
30
0
70
128
71
13
72
6
73
11
0
VERTEX
8
OBJECT__17
10
0
20
0
30
0
70
128
71
12
72
13
73
11
0
VERTEX
8
OBJECT__17
10
0
20
0
30
0
70
128
71
13
72
9
73
6
0
VERTEX
8
OBJECT__17
10
0
20
0
30
0
70
128
71
14
72
15
73
16
0
VERTEX
8
OBJECT__17
10
0
20
0
30
0
70
128
71
17
72
18
73
19
0
VERTEX
8
OBJECT__17
10
0
20
0
30
0
70
128
71
19
72
20
73
17
0
VERTEX
8
OBJECT__17
10
0
20
0
30
0
70
128
71
20
72
14
73
17
0
VERTEX
8
OBJECT__17
10
0
20
0
30
0
70
128
71
18
72
21
73
19
0
VERTEX
8
OBJECT__17
10
0
20
0
30
0
70
128
71
22
72
6
73
23
0
VERTEX
8
OBJECT__17
10
0
20
0
30
0
70
128
71
21
72
18
73
22
0
VERTEX
8
OBJECT__17
10
0
20
0
30
0
70
128
71
23
72
21
73
22
0
VERTEX
8
OBJECT__17
10
0
20
0
30
0
70
128
71
16
72
17
73
14
0
VERTEX
8
OBJECT__17
10
0
20
0
30
0
70
128
71
8
72
23
73
6
0
VERTEX
8
OBJECT__17
10
0
20
0
30
0
70
128
71
5
72
12
73
1
0
SEQEND
8
OBJECT__17
0
POLYLINE
8
OBJECT__18
66
1
70
64
71
26
72
24
62
253
0
VERTEX
8
OBJECT__18
10
69.257004
20
14.893000
30
-73.646004
70
192
0
VERTEX
8
OBJECT__18
10
69.257004
20
16.152000
30
-71.760002
70
192
0
VERTEX
8
OBJECT__18
10
71.153000
20
16.122000
30
-71.748001
70
192
0
VERTEX
8
OBJECT__18
10
69.257004
20
17.483000
30
-65.070000
70
192
0
VERTEX
8
OBJECT__18
10
71.153000
20
17.450001
30
-65.070000
70
192
0
VERTEX
8
OBJECT__18
10
69.257004
20
8.576000
30
-79.962997
70
192
0
VERTEX
8
OBJECT__18
10
69.257004
20
12.362000
30
-77.431999
70
192
0
VERTEX
8
OBJECT__18
10
71.153000
20
12.339000
30
-77.408997
70
192
0
VERTEX
8
OBJECT__18
10
71.153000
20
14.864000
30
-73.628998
70
192
0
VERTEX
8
OBJECT__18
10
69.257004
20
0.000000
30
-82.553001
70
192
0
VERTEX
8
OBJECT__18
10
69.257004
20
6.690000
30
-81.222000
70
192
0
VERTEX
8
OBJECT__18
10
71.153000
20
6.678000
30
-81.192001
70
192
0
VERTEX
8
OBJECT__18
10
71.153000
20
8.559000
30
-79.933998
70
192
0
VERTEX
8
OBJECT__18
10
69.257004
20
-8.576000
30
-79.962997
70
192
0
VERTEX
8
OBJECT__18
10
69.257004
20
-6.690000
30
-81.222000
70
192
0
VERTEX
8
OBJECT__18
10
71.153000
20
-6.678000
30
-81.192001
70
192
0
VERTEX
8
OBJECT__18
10
71.153000
20
0.000000
30
-82.519997
70
192
0
VERTEX
8
OBJECT__18
10
69.257004
20
-14.893000
30
-73.646004
70
192
0
VERTEX
8
OBJECT__18
10
69.257004
20
-12.362000
30
-77.431999
70
192
0
VERTEX
8
OBJECT__18
10
71.153000
20
-12.339000
30
-77.408997
70
192
0
VERTEX
8
OBJECT__18
10
71.153000
20
-8.559000
30
-79.933998
70
192
0
VERTEX
8
OBJECT__18
10
69.257004
20
-17.483000
30
-65.070000
70
192
0
VERTEX
8
OBJECT__18
10
69.257004
20
-16.152000
30
-71.760002
70
192
0
VERTEX
8
OBJECT__18
10
71.153000
20
-16.122000
30
-71.748001
70
192
0
VERTEX
8
OBJECT__18
10
71.153000
20
-14.864000
30
-73.628998
70
192
0
VERTEX
8
OBJECT__18
10
71.153000
20
-17.450001
30
-65.070000
70
192
0
VERTEX
8
OBJECT__18
10
0
20
0
30
0
70
128
71
1
72
2
73
3
0
VERTEX
8
OBJECT__18
10
0
20
0
30
0
70
128
71
4
72
5
73
3
0
VERTEX
8
OBJECT__18
10
0
20
0
30
0
70
128
71
3
72
2
73
4
0
VERTEX
8
OBJECT__18
10
0
20
0
30
0
70
128
71
6
72
7
73
8
0
VERTEX
8
OBJECT__18
10
0
20
0
30
0
70
128
71
1
72
9
73
8
0
VERTEX
8
OBJECT__18
10
0
20
0
30
0
70
128
71
8
72
7
73
1
0
VERTEX
8
OBJECT__18
10
0
20
0
30
0
70
128
71
10
72
11
73
12
0
VERTEX
8
OBJECT__18
10
0
20
0
30
0
70
128
71
6
72
13
73
12
0
VERTEX
8
OBJECT__18
10
0
20
0
30
0
70
128
71
12
72
11
73
6
0
VERTEX
8
OBJECT__18
10
0
20
0
30
0
70
128
71
14
72
15
73
16
0
VERTEX
8
OBJECT__18
10
0
20
0
30
0
70
128
71
10
72
17
73
16
0
VERTEX
8
OBJECT__18
10
0
20
0
30
0
70
128
71
16
72
15
73
10
0
VERTEX
8
OBJECT__18
10
0
20
0
30
0
70
128
71
18
72
19
73
20
0
VERTEX
8
OBJECT__18
10
0
20
0
30
0
70
128
71
14
72
21
73
20
0
VERTEX
8
OBJECT__18
10
0
20
0
30
0
70
128
71
20
72
19
73
14
0
VERTEX
8
OBJECT__18
10
0
20
0
30
0
70
128
71
22
72
23
73
24
0
VERTEX
8
OBJECT__18
10
0
20
0
30
0
70
128
71
18
72
25
73
24
0
VERTEX
8
OBJECT__18
10
0
20
0
30
0
70
128
71
24
72
23
73
18
0
VERTEX
8
OBJECT__18
10
0
20
0
30
0
70
128
71
24
72
26
73
22
0
VERTEX
8
OBJECT__18
10
0
20
0
30
0
70
128
71
20
72
25
73
18
0
VERTEX
8
OBJECT__18
10
0
20
0
30
0
70
128
71
16
72
21
73
14
0
VERTEX
8
OBJECT__18
10
0
20
0
30
0
70
128
71
12
72
17
73
10
0
VERTEX
8
OBJECT__18
10
0
20
0
30
0
70
128
71
8
72
13
73
6
0
VERTEX
8
OBJECT__18
10
0
20
0
30
0
70
128
71
3
72
9
73
1
0
SEQEND
8
OBJECT__18
0
POLYLINE
8
OBJECT__19
66
1
70
64
71
48
72
57
62
253
0
VERTEX
8
OBJECT__19
10
62.938999
20
-7.100000
30
-9.383000
70
192
0
VERTEX
8
OBJECT__19
10
62.919998
20
-3.936000
30
-11.409000
70
192
0
VERTEX
8
OBJECT__19
10
64.504997
20
-6.918000
30
-13.150000
70
192
0
VERTEX
8
OBJECT__19
10
64.419998
20
-4.903000
30
-14.316000
70
192
0
VERTEX
8
OBJECT__19
10
65.154999
20
-11.275000
30
-6.308000
70
192
0
VERTEX
8
OBJECT__19
10
65.237000
20
-12.508000
30
-0.042000
70
192
0
VERTEX
8
OBJECT__19
10
63.969002
20
-10.834000
30
-0.060000
70
192
0
VERTEX
8
OBJECT__19
10
59.796001
20
-3.580000
30
-10.002000
70
192
0
VERTEX
8
OBJECT__19
10
59.854000
20
-6.571000
30
-8.289000
70
192
0
VERTEX
8
OBJECT__19
10
55.422001
20
-5.919000
30
-8.372000
70
192
0
VERTEX
8
OBJECT__19
10
55.098999
20
-4.971000
30
-9.055000
70
192
0
VERTEX
8
OBJECT__19
10
60.771999
20
-9.177000
30
-5.001000
70
192
0
VERTEX
8
OBJECT__19
10
61.618000
20
-10.634000
30
-0.098000
70
192
0
VERTEX
8
OBJECT__19
10
58.125000
20
-10.128000
30
-1.788000
70
192
0
VERTEX
8
OBJECT__19
10
58.383999
20
-10.357000
30
-0.152000
70
192
0
VERTEX
8
OBJECT__19
10
57.986000
20
-10.005000
30
-2.670000
70
192
0
VERTEX
8
OBJECT__19
10
65.125000
20
-9.941000
30
-16.736000
70
192
0
VERTEX
8
OBJECT__19
10
65.582001
20
-12.081000
30
-14.039000
70
192
0
VERTEX
8
OBJECT__19
10
64.655998
20
-8.666000
30
-11.401000
70
192
0
VERTEX
8
OBJECT__19
10
64.197998
20
0.000000
30
-14.504000
70
192
0
VERTEX
8
OBJECT__19
10
64.252998
20
0.000000
30
-15.264000
70
192
0
VERTEX
8
OBJECT__19
10
64.375000
20
-2.568000
30
-15.020000
70
192
0
VERTEX
8
OBJECT__19
10
62.676998
20
0.000000
30
-12.268000
70
192
0
VERTEX
8
OBJECT__19
10
64.663002
20
-4.183000
30
-19.834000
70
192
0
VERTEX
8
OBJECT__19
10
64.805000
20
-6.976000
30
-18.756001
70
192
0
VERTEX
8
OBJECT__19
10
64.663002
20
-4.164000
30
-19.836000
70
192
0
VERTEX
8
OBJECT__19
10
64.656998
20
-3.596000
30
-19.908001
70
192
0
VERTEX
8
OBJECT__19
10
64.827003
20
-7.426000
30
-18.583000
70
192
0
VERTEX
8
OBJECT__19
10
65.124001
20
-9.935000
30
-16.743000
70
192
0
VERTEX
8
OBJECT__19
10
64.622002
20
-0.280000
30
-20.323999
70
192
0
VERTEX
8
OBJECT__19
10
64.621002
20
0.000000
30
-20.326000
70
192
0
VERTEX
8
OBJECT__19
10
63.487000
20
-9.650000
30
-5.474000
70
192
0
VERTEX
8
OBJECT__19
10
66.095001
20
-13.634000
30
-10.677000
70
192
0
VERTEX
8
OBJECT__19
10
65.927002
20
-13.126000
30
-11.777000
70
192
0
VERTEX
8
OBJECT__19
10
56.974998
20
-8.919000
30
-5.243000
70
192
0
VERTEX
8
OBJECT__19
10
55.805000
20
-7.048000
30
-7.560000
70
192
0
VERTEX
8
OBJECT__19
10
55.657001
20
-6.612000
30
-7.874000
70
192
0
VERTEX
8
OBJECT__19
10
57.002998
20
-8.949000
30
-5.172000
70
192
0
VERTEX
8
OBJECT__19
10
54.749001
20
-2.161000
30
-10.098000
70
192
0
VERTEX
8
OBJECT__19
10
54.709000
20
0.000000
30
-10.326000
70
192
0
VERTEX
8
OBJECT__19
10
58.051998
20
0.000000
30
-10.419000
70
192
0
VERTEX
8
OBJECT__19
10
54.876999
20
-3.191000
30
-9.716000
70
192
0
VERTEX
8
OBJECT__19
10
59.716000
20
0.000000
30
-10.857000
70
192
0
VERTEX
8
OBJECT__19
10
62.153000
20
0.000000
30
-11.498000
70
192
0
VERTEX
8
OBJECT__19
10
66.475998
20
-14.459000
30
-7.159000
70
192
0
VERTEX
8
OBJECT__19
10
66.055000
20
-13.588000
30
-0.030000
70
192
0
VERTEX
8
OBJECT__19
10
66.617996
20
-14.768000
30
-5.842000
70
192
0
VERTEX
8
OBJECT__19
10
66.848999
20
-15.172000
30
0.000000
70
192
0
VERTEX
8
OBJECT__19
10
0
20
0
30
0
70
128
71
1
72
2
73
3
0
VERTEX
8
OBJECT__19
10
0
20
0
30
0
70
128
71
2
72
4
73
3
0
VERTEX
8
OBJECT__19
10
0
20
0
30
0
70
128
71
5
72
6
73
7
0
VERTEX
8
OBJECT__19
10
0
20
0
30
0
70
128
71
8
72
9
73
10
0
VERTEX
8
OBJECT__19
10
0
20
0
30
0
70
128
71
10
72
11
73
8
0
VERTEX
8
OBJECT__19
10
0
20
0
30
0
70
128
71
12
72
13
73
14
0
VERTEX
8
OBJECT__19
10
0
20
0
30
0
70
128
71
13
72
15
73
14
0
VERTEX
8
OBJECT__19
10
0
20
0
30
0
70
128
71
14
72
16
73
12
0
VERTEX
8
OBJECT__19
10
0
20
0
30
0
70
128
71
17
72
18
73
19
0
VERTEX
8
OBJECT__19
10
0
20
0
30
0
70
128
71
20
72
21
73
22
0
VERTEX
8
OBJECT__19
10
0
20
0
30
0
70
128
71
4
72
2
73
23
0
VERTEX
8
OBJECT__19
10
0
20
0
30
0
70
128
71
23
72
20
73
4
0
VERTEX
8
OBJECT__19
10
0
20
0
30
0
70
128
71
24
72
25
73
4
0
VERTEX
8
OBJECT__19
10
0
20
0
30
0
70
128
71
22
72
26
73
24
0
VERTEX
8
OBJECT__19
10
0
20
0
30
0
70
128
71
22
72
27
73
26
0
VERTEX
8
OBJECT__19
10
0
20
0
30
0
70
128
71
28
72
29
73
3
0
VERTEX
8
OBJECT__19
10
0
20
0
30
0
70
128
71
3
72
4
73
28
0
VERTEX
8
OBJECT__19
10
0
20
0
30
0
70
128
71
4
72
25
73
28
0
VERTEX
8
OBJECT__19
10
0
20
0
30
0
70
128
71
30
72
27
73
22
0
VERTEX
8
OBJECT__19
10
0
20
0
30
0
70
128
71
21
72
31
73
30
0
VERTEX
8
OBJECT__19
10
0
20
0
30
0
70
128
71
5
72
32
73
1
0
VERTEX
8
OBJECT__19
10
0
20
0
30
0
70
128
71
5
72
19
73
33
0
VERTEX
8
OBJECT__19
10
0
20
0
30
0
70
128
71
19
72
34
73
33
0
VERTEX
8
OBJECT__19
10
0
20
0
30
0
70
128
71
19
72
18
73
34
0
VERTEX
8
OBJECT__19
10
0
20
0
30
0
70
128
71
32
72
7
73
13
0
VERTEX
8
OBJECT__19
10
0
20
0
30
0
70
128
71
9
72
12
73
35
0
VERTEX
8
OBJECT__19
10
0
20
0
30
0
70
128
71
35
72
36
73
9
0
VERTEX
8
OBJECT__19
10
0
20
0
30
0
70
128
71
36
72
37
73
9
0
VERTEX
8
OBJECT__19
10
0
20
0
30
0
70
128
71
12
72
38
73
35
0
VERTEX
8
OBJECT__19
10
0
20
0
30
0
70
128
71
1
72
32
73
12
0
VERTEX
8
OBJECT__19
10
0
20
0
30
0
70
128
71
39
72
40
73
41
0
VERTEX
8
OBJECT__19
10
0
20
0
30
0
70
128
71
8
72
42
73
39
0
VERTEX
8
OBJECT__19
10
0
20
0
30
0
70
128
71
41
72
8
73
39
0
VERTEX
8
OBJECT__19
10
0
20
0
30
0
70
128
71
1
72
9
73
8
0
VERTEX
8
OBJECT__19
10
0
20
0
30
0
70
128
71
8
72
43
73
44
0
VERTEX
8
OBJECT__19
10
0
20
0
30
0
70
128
71
44
72
2
73
8
0
VERTEX
8
OBJECT__19
10
0
20
0
30
0
70
128
71
45
72
46
73
6
0
VERTEX
8
OBJECT__19
10
0
20
0
30
0
70
128
71
46
72
45
73
47
0
VERTEX
8
OBJECT__19
10
0
20
0
30
0
70
128
71
47
72
48
73
46
0
VERTEX
8
OBJECT__19
10
0
20
0
30
0
70
128
71
6
72
5
73
45
0
VERTEX
8
OBJECT__19
10
0
20
0
30
0
70
128
71
44
72
23
73
2
0
VERTEX
8
OBJECT__19
10
0
20
0
30
0
70
128
71
8
72
2
73
1
0
VERTEX
8
OBJECT__19
10
0
20
0
30
0
70
128
71
41
72
43
73
8
0
VERTEX
8
OBJECT__19
10
0
20
0
30
0
70
128
71
12
72
9
73
1
0
VERTEX
8
OBJECT__19
10
0
20
0
30
0
70
128
71
37
72
10
73
9
0
VERTEX
8
OBJECT__19
10
0
20
0
30
0
70
128
71
13
72
12
73
32
0
VERTEX
8
OBJECT__19
10
0
20
0
30
0
70
128
71
33
72
45
73
5
0
VERTEX
8
OBJECT__19
10
0
20
0
30
0
70
128
71
1
72
19
73
5
0
VERTEX
8
OBJECT__19
10
0
20
0
30
0
70
128
71
22
72
21
73
30
0
VERTEX
8
OBJECT__19
10
0
20
0
30
0
70
128
71
29
72
17
73
3
0
VERTEX
8
OBJECT__19
10
0
20
0
30
0
70
128
71
4
72
22
73
24
0
VERTEX
8
OBJECT__19
10
0
20
0
30
0
70
128
71
22
72
4
73
20
0
VERTEX
8
OBJECT__19
10
0
20
0
30
0
70
128
71
19
72
3
73
17
0
VERTEX
8
OBJECT__19
10
0
20
0
30
0
70
128
71
16
72
38
73
12
0
VERTEX
8
OBJECT__19
10
0
20
0
30
0
70
128
71
11
72
42
73
8
0
VERTEX
8
OBJECT__19
10
0
20
0
30
0
70
128
71
7
72
32
73
5
0
VERTEX
8
OBJECT__19
10
0
20
0
30
0
70
128
71
3
72
19
73
1
0
SEQEND
8
OBJECT__19
0
POLYLINE
8
OBJECT__20
66
1
70
64
71
55
72
55
62
253
0
VERTEX
8
OBJECT__20
10
45.971001
20
8.877000
30
5.125000
70
192
0
VERTEX
8
OBJECT__20
10
58.386002
20
7.250000
30
7.259000
70
192
0
VERTEX
8
OBJECT__20
10
58.386002
20
8.660000
30
5.683000
70
192
0
VERTEX
8
OBJECT__20
10
45.971001
20
3.506000
30
9.632000
70
192
0
VERTEX
8
OBJECT__20
10
58.386002
20
6.607000
30
7.977000
70
192
0
VERTEX
8
OBJECT__20
10
58.384998
20
3.962000
30
9.570000
70
192
0
VERTEX
8
OBJECT__20
10
58.384998
20
3.964000
30
9.570000
70
192
0
VERTEX
8
OBJECT__20
10
58.384998
20
3.529000
30
9.678000
70
192
0
VERTEX
8
OBJECT__20
10
58.384998
20
0.000000
30
10.358000
70
192
0
VERTEX
8
OBJECT__20
10
58.386002
20
0.972000
30
10.312000
70
192
0
VERTEX
8
OBJECT__20
10
45.971001
20
-3.506000
30
9.632000
70
192
0
VERTEX
8
OBJECT__20
10
58.384998
20
-3.049000
30
9.900000
70
192
0
VERTEX
8
OBJECT__20
10
58.384998
20
-3.517000
30
9.679000
70
192
0
VERTEX
8
OBJECT__20
10
45.971001
20
-8.877000
30
5.125000
70
192
0
VERTEX
8
OBJECT__20
10
58.384998
20
-7.256000
30
7.250000
70
192
0
VERTEX
8
OBJECT__20
10
58.386002
20
-5.708000
30
8.643000
70
192
0
VERTEX
8
OBJECT__20
10
58.384998
20
-3.923000
30
9.487000
70
192
0
VERTEX
8
OBJECT__20
10
58.384998
20
-8.884000
30
5.126000
70
192
0
VERTEX
8
OBJECT__20
10
58.384998
20
-8.003000
30
6.576000
70
192
0
VERTEX
8
OBJECT__20
10
45.971001
20
10.094000
30
-1.780000
70
192
0
VERTEX
8
OBJECT__20
10
58.383999
20
10.357000
30
-0.152000
70
192
0
VERTEX
8
OBJECT__20
10
58.234001
20
10.229000
30
-1.625000
70
192
0
VERTEX
8
OBJECT__20
10
58.386002
20
10.358000
30
0.000000
70
192
0
VERTEX
8
OBJECT__20
10
58.384998
20
9.949000
30
2.883000
70
192
0
VERTEX
8
OBJECT__20
10
58.384998
20
9.471000
30
3.921000
70
192
0
VERTEX
8
OBJECT__20
10
58.384998
20
8.906000
30
5.149000
70
192
0
VERTEX
8
OBJECT__20
10
56.103001
20
7.628000
30
-6.979000
70
192
0
VERTEX
8
OBJECT__20
10
55.681000
20
6.578000
30
-7.838000
70
192
0
VERTEX
8
OBJECT__20
10
58.181999
20
10.177000
30
-1.792000
70
192
0
VERTEX
8
OBJECT__20
10
57.368000
20
9.380000
30
-4.374000
70
192
0
VERTEX
8
OBJECT__20
10
57.005001
20
8.877000
30
-5.122000
70
192
0
VERTEX
8
OBJECT__20
10
45.971001
20
0.000000
30
-10.250000
70
192
0
VERTEX
8
OBJECT__20
10
45.971001
20
6.589000
30
-7.852000
70
192
0
VERTEX
8
OBJECT__20
10
54.804001
20
2.994000
30
-9.884000
70
192
0
VERTEX
8
OBJECT__20
10
55.200001
20
5.380000
30
-8.819000
70
192
0
VERTEX
8
OBJECT__20
10
54.841000
20
3.218000
30
-9.784000
70
192
0
VERTEX
8
OBJECT__20
10
55.416000
20
5.918000
30
-8.378000
70
192
0
VERTEX
8
OBJECT__20
10
45.971001
20
-6.589000
30
-7.852000
70
192
0
VERTEX
8
OBJECT__20
10
55.098999
20
-4.971000
30
-9.055000
70
192
0
VERTEX
8
OBJECT__20
10
55.422001
20
-5.919000
30
-8.372000
70
192
0
VERTEX
8
OBJECT__20
10
54.749001
20
-2.161000
30
-10.098000
70
192
0
VERTEX
8
OBJECT__20
10
54.876999
20
-3.191000
30
-9.716000
70
192
0
VERTEX
8
OBJECT__20
10
54.709000
20
0.000000
30
-10.326000
70
192
0
VERTEX
8
OBJECT__20
10
45.971001
20
-10.094000
30
-1.780000
70
192
0
VERTEX
8
OBJECT__20
10
57.002998
20
-8.949000
30
-5.172000
70
192
0
VERTEX
8
OBJECT__20
10
57.986000
20
-10.005000
30
-2.670000
70
192
0
VERTEX
8
OBJECT__20
10
55.805000
20
-7.048000
30
-7.560000
70
192
0
VERTEX
8
OBJECT__20
10
56.974998
20
-8.919000
30
-5.243000
70
192
0
VERTEX
8
OBJECT__20
10
55.657001
20
-6.612000
30
-7.874000
70
192
0
VERTEX
8
OBJECT__20
10
58.384998
20
-9.554000
30
3.962000
70
192
0
VERTEX
8
OBJECT__20
10
58.384998
20
-9.527000
30
4.066000
70
192
0
VERTEX
8
OBJECT__20
10
58.384998
20
-10.306000
30
1.040000
70
192
0
VERTEX
8
OBJECT__20
10
58.125000
20
-10.128000
30
-1.788000
70
192
0
VERTEX
8
OBJECT__20
10
58.383999
20
-10.357000
30
-0.152000
70
192
0
VERTEX
8
OBJECT__20
10
58.386002
20
-10.358000
30
0.000000
70
192
0
VERTEX
8
OBJECT__20
10
0
20
0
30
0
70
128
71
1
72
2
73
3
0
VERTEX
8
OBJECT__20
10
0
20
0
30
0
70
128
71
1
72
4
73
5
0
VERTEX
8
OBJECT__20
10
0
20
0
30
0
70
128
71
4
72
6
73
7
0
VERTEX
8
OBJECT__20
10
0
20
0
30
0
70
128
71
7
72
5
73
4
0
VERTEX
8
OBJECT__20
10
0
20
0
30
0
70
128
71
5
72
2
73
1
0
VERTEX
8
OBJECT__20
10
0
20
0
30
0
70
128
71
4
72
8
73
6
0
VERTEX
8
OBJECT__20
10
0
20
0
30
0
70
128
71
4
72
9
73
10
0
VERTEX
8
OBJECT__20
10
0
20
0
30
0
70
128
71
11
72
12
73
9
0
VERTEX
8
OBJECT__20
10
0
20
0
30
0
70
128
71
11
72
13
73
12
0
VERTEX
8
OBJECT__20
10
0
20
0
30
0
70
128
71
9
72
4
73
11
0
VERTEX
8
OBJECT__20
10
0
20
0
30
0
70
128
71
11
72
14
73
15
0
VERTEX
8
OBJECT__20
10
0
20
0
30
0
70
128
71
15
72
16
73
11
0
VERTEX
8
OBJECT__20
10
0
20
0
30
0
70
128
71
16
72
17
73
11
0
VERTEX
8
OBJECT__20
10
0
20
0
30
0
70
128
71
14
72
18
73
19
0
VERTEX
8
OBJECT__20
10
0
20
0
30
0
70
128
71
19
72
15
73
14
0
VERTEX
8
OBJECT__20
10
0
20
0
30
0
70
128
71
20
72
21
73
22
0
VERTEX
8
OBJECT__20
10
0
20
0
30
0
70
128
71
20
72
23
73
21
0
VERTEX
8
OBJECT__20
10
0
20
0
30
0
70
128
71
20
72
1
73
24
0
VERTEX
8
OBJECT__20
10
0
20
0
30
0
70
128
71
24
72
23
73
20
0
VERTEX
8
OBJECT__20
10
0
20
0
30
0
70
128
71
1
72
25
73
24
0
VERTEX
8
OBJECT__20
10
0
20
0
30
0
70
128
71
1
72
26
73
25
0
VERTEX
8
OBJECT__20
10
0
20
0
30
0
70
128
71
20
72
27
73
28
0
VERTEX
8
OBJECT__20
10
0
20
0
30
0
70
128
71
20
72
29
73
30
0
VERTEX
8
OBJECT__20
10
0
20
0
30
0
70
128
71
30
72
31
73
20
0
VERTEX
8
OBJECT__20
10
0
20
0
30
0
70
128
71
31
72
27
73
20
0
VERTEX
8
OBJECT__20
10
0
20
0
30
0
70
128
71
32
72
33
73
34
0
VERTEX
8
OBJECT__20
10
0
20
0
30
0
70
128
71
33
72
35
73
36
0
VERTEX
8
OBJECT__20
10
0
20
0
30
0
70
128
71
36
72
34
73
33
0
VERTEX
8
OBJECT__20
10
0
20
0
30
0
70
128
71
33
72
28
73
37
0
VERTEX
8
OBJECT__20
10
0
20
0
30
0
70
128
71
37
72
35
73
33
0
VERTEX
8
OBJECT__20
10
0
20
0
30
0
70
128
71
38
72
39
73
40
0
VERTEX
8
OBJECT__20
10
0
20
0
30
0
70
128
71
38
72
32
73
41
0
VERTEX
8
OBJECT__20
10
0
20
0
30
0
70
128
71
41
72
42
73
38
0
VERTEX
8
OBJECT__20
10
0
20
0
30
0
70
128
71
43
72
41
73
32
0
VERTEX
8
OBJECT__20
10
0
20
0
30
0
70
128
71
42
72
39
73
38
0
VERTEX
8
OBJECT__20
10
0
20
0
30
0
70
128
71
44
72
45
73
46
0
VERTEX
8
OBJECT__20
10
0
20
0
30
0
70
128
71
44
72
47
73
48
0
VERTEX
8
OBJECT__20
10
0
20
0
30
0
70
128
71
48
72
45
73
44
0
VERTEX
8
OBJECT__20
10
0
20
0
30
0
70
128
71
38
72
49
73
47
0
VERTEX
8
OBJECT__20
10
0
20
0
30
0
70
128
71
47
72
44
73
38
0
VERTEX
8
OBJECT__20
10
0
20
0
30
0
70
128
71
14
72
50
73
51
0
VERTEX
8
OBJECT__20
10
0
20
0
30
0
70
128
71
14
72
44
73
52
0
VERTEX
8
OBJECT__20
10
0
20
0
30
0
70
128
71
44
72
53
73
54
0
VERTEX
8
OBJECT__20
10
0
20
0
30
0
70
128
71
54
72
55
73
44
0
VERTEX
8
OBJECT__20
10
0
20
0
30
0
70
128
71
55
72
52
73
44
0
VERTEX
8
OBJECT__20
10
0
20
0
30
0
70
128
71
52
72
50
73
14
0
VERTEX
8
OBJECT__20
10
0
20
0
30
0
70
128
71
51
72
18
73
14
0
VERTEX
8
OBJECT__20
10
0
20
0
30
0
70
128
71
46
72
53
73
44
0
VERTEX
8
OBJECT__20
10
0
20
0
30
0
70
128
71
40
72
49
73
38
0
VERTEX
8
OBJECT__20
10
0
20
0
30
0
70
128
71
34
72
43
73
32
0
VERTEX
8
OBJECT__20
10
0
20
0
30
0
70
128
71
28
72
33
73
20
0
VERTEX
8
OBJECT__20
10
0
20
0
30
0
70
128
71
22
72
29
73
20
0
VERTEX
8
OBJECT__20
10
0
20
0
30
0
70
128
71
17
72
13
73
11
0
VERTEX
8
OBJECT__20
10
0
20
0
30
0
70
128
71
10
72
8
73
4
0
VERTEX
8
OBJECT__20
10
0
20
0
30
0
70
128
71
3
72
26
73
1
0
SEQEND
8
OBJECT__20
0
POLYLINE
8
OBJECT__21
66
1
70
64
71
48
72
57
62
253
0
VERTEX
8
OBJECT__21
10
65.154999
20
11.275000
30
-6.308000
70
192
0
VERTEX
8
OBJECT__21
10
64.655998
20
8.665000
30
-11.401000
70
192
0
VERTEX
8
OBJECT__21
10
62.938999
20
7.100000
30
-9.383000
70
192
0
VERTEX
8
OBJECT__21
10
64.419998
20
4.903000
30
-14.316000
70
192
0
VERTEX
8
OBJECT__21
10
64.197998
20
0.000000
30
-14.504000
70
192
0
VERTEX
8
OBJECT__21
10
62.676998
20
0.000000
30
-12.268000
70
192
0
VERTEX
8
OBJECT__21
10
64.375000
20
2.568000
30
-15.020000
70
192
0
VERTEX
8
OBJECT__21
10
64.252998
20
0.000000
30
-15.264000
70
192
0
VERTEX
8
OBJECT__21
10
59.854000
20
6.571000
30
-8.289000
70
192
0
VERTEX
8
OBJECT__21
10
56.103001
20
7.628000
30
-6.979000
70
192
0
VERTEX
8
OBJECT__21
10
57.005001
20
8.877000
30
-5.122000
70
192
0
VERTEX
8
OBJECT__21
10
55.681000
20
6.578000
30
-7.838000
70
192
0
VERTEX
8
OBJECT__21
10
55.416000
20
5.918000
30
-8.378000
70
192
0
VERTEX
8
OBJECT__21
10
59.796001
20
3.580000
30
-10.002000
70
192
0
VERTEX
8
OBJECT__21
10
54.709000
20
0.000000
30
-10.326000
70
192
0
VERTEX
8
OBJECT__21
10
54.804001
20
2.994000
30
-9.884000
70
192
0
VERTEX
8
OBJECT__21
10
58.051998
20
0.000000
30
-10.419000
70
192
0
VERTEX
8
OBJECT__21
10
54.841000
20
3.218000
30
-9.784000
70
192
0
VERTEX
8
OBJECT__21
10
59.716000
20
0.000000
30
-10.857000
70
192
0
VERTEX
8
OBJECT__21
10
66.455002
20
14.450000
30
-7.657000
70
192
0
VERTEX
8
OBJECT__21
10
65.990997
20
13.364000
30
-11.414000
70
192
0
VERTEX
8
OBJECT__21
10
66.487000
20
14.510000
30
-7.177000
70
192
0
VERTEX
8
OBJECT__21
10
65.919998
20
13.134000
30
-11.865000
70
192
0
VERTEX
8
OBJECT__21
10
63.487000
20
9.650000
30
-5.474000
70
192
0
VERTEX
8
OBJECT__21
10
63.874001
20
11.098000
30
-0.062000
70
192
0
VERTEX
8
OBJECT__21
10
64.847000
20
11.448000
30
-0.056000
70
192
0
VERTEX
8
OBJECT__21
10
65.355003
20
12.393000
30
-0.042000
70
192
0
VERTEX
8
OBJECT__21
10
66.813004
20
15.112000
30
-2.297000
70
192
0
VERTEX
8
OBJECT__21
10
66.848999
20
15.172000
30
0.000000
70
192
0
VERTEX
8
OBJECT__21
10
64.504997
20
6.918000
30
-13.150000
70
192
0
VERTEX
8
OBJECT__21
10
62.919998
20
3.936000
30
-11.409000
70
192
0
VERTEX
8
OBJECT__21
10
64.666000
20
4.163000
30
-19.820000
70
192
0
VERTEX
8
OBJECT__21
10
64.658997
20
4.000000
30
-19.878000
70
192
0
VERTEX
8
OBJECT__21
10
64.795998
20
7.013000
30
-18.799000
70
192
0
VERTEX
8
OBJECT__21
10
65.072998
20
9.607000
30
-17.046000
70
192
0
VERTEX
8
OBJECT__21
10
65.130997
20
9.901000
30
-16.702999
70
192
0
VERTEX
8
OBJECT__21
10
65.508003
20
11.801000
30
-14.482000
70
192
0
VERTEX
8
OBJECT__21
10
65.599998
20
12.098000
30
-13.898000
70
192
0
VERTEX
8
OBJECT__21
10
62.153000
20
0.000000
30
-11.498000
70
192
0
VERTEX
8
OBJECT__21
10
55.200001
20
5.380000
30
-8.819000
70
192
0
VERTEX
8
OBJECT__21
10
62.018002
20
10.431000
30
-0.074000
70
192
0
VERTEX
8
OBJECT__21
10
58.234001
20
10.229000
30
-1.625000
70
192
0
VERTEX
8
OBJECT__21
10
58.383999
20
10.357000
30
-0.152000
70
192
0
VERTEX
8
OBJECT__21
10
60.771999
20
9.177000
30
-5.001000
70
192
0
VERTEX
8
OBJECT__21
10
57.368000
20
9.380000
30
-4.374000
70
192
0
VERTEX
8
OBJECT__21
10
58.181999
20
10.177000
30
-1.792000
70
192
0
VERTEX
8
OBJECT__21
10
64.621002
20
0.000000
30
-20.326000
70
192
0
VERTEX
8
OBJECT__21
10
64.654999
20
3.599000
30
-19.923000
70
192
0
VERTEX
8
OBJECT__21
10
0
20
0
30
0
70
128
71
1
72
2
73
3
0
VERTEX
8
OBJECT__21
10
0
20
0
30
0
70
128
71
4
72
5
73
6
0
VERTEX
8
OBJECT__21
10
0
20
0
30
0
70
128
71
5
72
4
73
7
0
VERTEX
8
OBJECT__21
10
0
20
0
30
0
70
128
71
7
72
8
73
5
0
VERTEX
8
OBJECT__21
10
0
20
0
30
0
70
128
71
9
72
10
73
11
0
VERTEX
8
OBJECT__21
10
0
20
0
30
0
70
128
71
9
72
12
73
10
0
VERTEX
8
OBJECT__21
10
0
20
0
30
0
70
128
71
9
72
13
73
12
0
VERTEX
8
OBJECT__21
10
0
20
0
30
0
70
128
71
14
72
15
73
16
0
VERTEX
8
OBJECT__21
10
0
20
0
30
0
70
128
71
15
72
14
73
17
0
VERTEX
8
OBJECT__21
10
0
20
0
30
0
70
128
71
16
72
18
73
14
0
VERTEX
8
OBJECT__21
10
0
20
0
30
0
70
128
71
14
72
19
73
17
0
VERTEX
8
OBJECT__21
10
0
20
0
30
0
70
128
71
1
72
20
73
21
0
VERTEX
8
OBJECT__21
10
0
20
0
30
0
70
128
71
21
72
2
73
1
0
VERTEX
8
OBJECT__21
10
0
20
0
30
0
70
128
71
1
72
22
73
20
0
VERTEX
8
OBJECT__21
10
0
20
0
30
0
70
128
71
21
72
23
73
2
0
VERTEX
8
OBJECT__21
10
0
20
0
30
0
70
128
71
1
72
24
73
25
0
VERTEX
8
OBJECT__21
10
0
20
0
30
0
70
128
71
25
72
26
73
1
0
VERTEX
8
OBJECT__21
10
0
20
0
30
0
70
128
71
1
72
27
73
28
0
VERTEX
8
OBJECT__21
10
0
20
0
30
0
70
128
71
27
72
29
73
28
0
VERTEX
8
OBJECT__21
10
0
20
0
30
0
70
128
71
3
72
2
73
30
0
VERTEX
8
OBJECT__21
10
0
20
0
30
0
70
128
71
30
72
31
73
3
0
VERTEX
8
OBJECT__21
10
0
20
0
30
0
70
128
71
7
72
32
73
33
0
VERTEX
8
OBJECT__21
10
0
20
0
30
0
70
128
71
32
72
7
73
4
0
VERTEX
8
OBJECT__21
10
0
20
0
30
0
70
128
71
4
72
34
73
32
0
VERTEX
8
OBJECT__21
10
0
20
0
30
0
70
128
71
35
72
34
73
4
0
VERTEX
8
OBJECT__21
10
0
20
0
30
0
70
128
71
30
72
36
73
35
0
VERTEX
8
OBJECT__21
10
0
20
0
30
0
70
128
71
37
72
36
73
30
0
VERTEX
8
OBJECT__21
10
0
20
0
30
0
70
128
71
2
72
38
73
37
0
VERTEX
8
OBJECT__21
10
0
20
0
30
0
70
128
71
14
72
31
73
39
0
VERTEX
8
OBJECT__21
10
0
20
0
30
0
70
128
71
31
72
6
73
39
0
VERTEX
8
OBJECT__21
10
0
20
0
30
0
70
128
71
14
72
40
73
13
0
VERTEX
8
OBJECT__21
10
0
20
0
30
0
70
128
71
14
72
18
73
40
0
VERTEX
8
OBJECT__21
10
0
20
0
30
0
70
128
71
3
72
31
73
14
0
VERTEX
8
OBJECT__21
10
0
20
0
30
0
70
128
71
41
72
24
73
42
0
VERTEX
8
OBJECT__21
10
0
20
0
30
0
70
128
71
42
72
43
73
41
0
VERTEX
8
OBJECT__21
10
0
20
0
30
0
70
128
71
44
72
45
73
46
0
VERTEX
8
OBJECT__21
10
0
20
0
30
0
70
128
71
44
72
11
73
45
0
VERTEX
8
OBJECT__21
10
0
20
0
30
0
70
128
71
42
72
24
73
44
0
VERTEX
8
OBJECT__21
10
0
20
0
30
0
70
128
71
46
72
42
73
44
0
VERTEX
8
OBJECT__21
10
0
20
0
30
0
70
128
71
3
72
9
73
44
0
VERTEX
8
OBJECT__21
10
0
20
0
30
0
70
128
71
47
72
8
73
7
0
VERTEX
8
OBJECT__21
10
0
20
0
30
0
70
128
71
7
72
48
73
47
0
VERTEX
8
OBJECT__21
10
0
20
0
30
0
70
128
71
44
72
24
73
3
0
VERTEX
8
OBJECT__21
10
0
20
0
30
0
70
128
71
41
72
25
73
24
0
VERTEX
8
OBJECT__21
10
0
20
0
30
0
70
128
71
14
72
9
73
3
0
VERTEX
8
OBJECT__21
10
0
20
0
30
0
70
128
71
13
72
9
73
14
0
VERTEX
8
OBJECT__21
10
0
20
0
30
0
70
128
71
39
72
19
73
14
0
VERTEX
8
OBJECT__21
10
0
20
0
30
0
70
128
71
30
72
2
73
37
0
VERTEX
8
OBJECT__21
10
0
20
0
30
0
70
128
71
4
72
30
73
35
0
VERTEX
8
OBJECT__21
10
0
20
0
30
0
70
128
71
33
72
48
73
7
0
VERTEX
8
OBJECT__21
10
0
20
0
30
0
70
128
71
30
72
4
73
31
0
VERTEX
8
OBJECT__21
10
0
20
0
30
0
70
128
71
28
72
22
73
1
0
VERTEX
8
OBJECT__21
10
0
20
0
30
0
70
128
71
26
72
27
73
1
0
VERTEX
8
OBJECT__21
10
0
20
0
30
0
70
128
71
23
72
38
73
2
0
VERTEX
8
OBJECT__21
10
0
20
0
30
0
70
128
71
11
72
44
73
9
0
VERTEX
8
OBJECT__21
10
0
20
0
30
0
70
128
71
6
72
31
73
4
0
VERTEX
8
OBJECT__21
10
0
20
0
30
0
70
128
71
3
72
24
73
1
0
SEQEND
8
OBJECT__21
0
POLYLINE
8
OBJECT__22
66
1
70
64
71
37
72
38
62
253
0
VERTEX
8
OBJECT__22
10
63.970001
20
7.661000
30
7.661000
70
192
0
VERTEX
8
OBJECT__22
10
63.970001
20
4.146000
30
10.010000
70
192
0
VERTEX
8
OBJECT__22
10
66.848999
20
8.405000
30
12.631000
70
192
0
VERTEX
8
OBJECT__22
10
66.848999
20
5.774000
30
13.954000
70
192
0
VERTEX
8
OBJECT__22
10
58.386002
20
6.607000
30
7.977000
70
192
0
VERTEX
8
OBJECT__22
10
58.386002
20
7.250000
30
7.259000
70
192
0
VERTEX
8
OBJECT__22
10
58.384998
20
3.964000
30
9.570000
70
192
0
VERTEX
8
OBJECT__22
10
58.384998
20
9.949000
30
2.883000
70
192
0
VERTEX
8
OBJECT__22
10
63.970001
20
10.009000
30
4.147000
70
192
0
VERTEX
8
OBJECT__22
10
62.018002
20
10.431000
30
-0.074000
70
192
0
VERTEX
8
OBJECT__22
10
58.383999
20
10.357000
30
-0.152000
70
192
0
VERTEX
8
OBJECT__22
10
58.386002
20
10.358000
30
0.000000
70
192
0
VERTEX
8
OBJECT__22
10
63.874001
20
11.098000
30
-0.062000
70
192
0
VERTEX
8
OBJECT__22
10
66.848999
20
2.904000
30
14.772000
70
192
0
VERTEX
8
OBJECT__22
10
66.848999
20
5.120000
30
14.283000
70
192
0
VERTEX
8
OBJECT__22
10
64.848000
20
0.000000
30
11.448000
70
192
0
VERTEX
8
OBJECT__22
10
66.848999
20
1.380000
30
15.109000
70
192
0
VERTEX
8
OBJECT__22
10
66.848999
20
0.000000
30
15.172000
70
192
0
VERTEX
8
OBJECT__22
10
63.875000
20
0.000000
30
11.098000
70
192
0
VERTEX
8
OBJECT__22
10
66.848999
20
12.437000
30
8.493000
70
192
0
VERTEX
8
OBJECT__22
10
66.848999
20
13.293000
30
7.314000
70
192
0
VERTEX
8
OBJECT__22
10
66.848999
20
11.070000
30
10.376000
70
192
0
VERTEX
8
OBJECT__22
10
66.848999
20
10.697000
30
10.691000
70
192
0
VERTEX
8
OBJECT__22
10
58.386002
20
8.660000
30
5.683000
70
192
0
VERTEX
8
OBJECT__22
10
58.384998
20
9.471000
30
3.921000
70
192
0
VERTEX
8
OBJECT__22
10
58.384998
20
8.906000
30
5.149000
70
192
0
VERTEX
8
OBJECT__22
10
58.384998
20
3.529000
30
9.678000
70
192
0
VERTEX
8
OBJECT__22
10
58.386002
20
0.972000
30
10.312000
70
192
0
VERTEX
8
OBJECT__22
10
58.384998
20
3.962000
30
9.570000
70
192
0
VERTEX
8
OBJECT__22
10
62.019001
20
0.000000
30
10.431000
70
192
0
VERTEX
8
OBJECT__22
10
58.384998
20
0.000000
30
10.358000
70
192
0
VERTEX
8
OBJECT__22
10
66.848999
20
14.773000
30
3.166000
70
192
0
VERTEX
8
OBJECT__22
10
66.848999
20
15.172000
30
0.000000
70
192
0
VERTEX
8
OBJECT__22
10
65.355003
20
12.393000
30
-0.042000
70
192
0
VERTEX
8
OBJECT__22
10
66.848999
20
13.907000
30
5.763000
70
192
0
VERTEX
8
OBJECT__22
10
66.848999
20
14.697000
30
3.770000
70
192
0
VERTEX
8
OBJECT__22
10
64.847000
20
11.448000
30
-0.056000
70
192
0
VERTEX
8
OBJECT__22
10
0
20
0
30
0
70
128
71
1
72
2
73
3
0
VERTEX
8
OBJECT__22
10
0
20
0
30
0
70
128
71
2
72
4
73
3
0
VERTEX
8
OBJECT__22
10
0
20
0
30
0
70
128
71
2
72
1
73
5
0
VERTEX
8
OBJECT__22
10
0
20
0
30
0
70
128
71
1
72
6
73
5
0
VERTEX
8
OBJECT__22
10
0
20
0
30
0
70
128
71
5
72
7
73
2
0
VERTEX
8
OBJECT__22
10
0
20
0
30
0
70
128
71
8
72
9
73
10
0
VERTEX
8
OBJECT__22
10
0
20
0
30
0
70
128
71
10
72
11
73
12
0
VERTEX
8
OBJECT__22
10
0
20
0
30
0
70
128
71
10
72
12
73
8
0
VERTEX
8
OBJECT__22
10
0
20
0
30
0
70
128
71
9
72
13
73
10
0
VERTEX
8
OBJECT__22
10
0
20
0
30
0
70
128
71
2
72
14
73
15
0
VERTEX
8
OBJECT__22
10
0
20
0
30
0
70
128
71
16
72
17
73
14
0
VERTEX
8
OBJECT__22
10
0
20
0
30
0
70
128
71
16
72
18
73
17
0
VERTEX
8
OBJECT__22
10
0
20
0
30
0
70
128
71
14
72
2
73
16
0
VERTEX
8
OBJECT__22
10
0
20
0
30
0
70
128
71
2
72
19
73
16
0
VERTEX
8
OBJECT__22
10
0
20
0
30
0
70
128
71
9
72
20
73
21
0
VERTEX
8
OBJECT__22
10
0
20
0
30
0
70
128
71
1
72
22
73
20
0
VERTEX
8
OBJECT__22
10
0
20
0
30
0
70
128
71
1
72
23
73
22
0
VERTEX
8
OBJECT__22
10
0
20
0
30
0
70
128
71
20
72
9
73
1
0
VERTEX
8
OBJECT__22
10
0
20
0
30
0
70
128
71
1
72
9
73
24
0
VERTEX
8
OBJECT__22
10
0
20
0
30
0
70
128
71
9
72
25
73
26
0
VERTEX
8
OBJECT__22
10
0
20
0
30
0
70
128
71
26
72
24
73
9
0
VERTEX
8
OBJECT__22
10
0
20
0
30
0
70
128
71
2
72
27
73
28
0
VERTEX
8
OBJECT__22
10
0
20
0
30
0
70
128
71
2
72
29
73
27
0
VERTEX
8
OBJECT__22
10
0
20
0
30
0
70
128
71
28
72
30
73
2
0
VERTEX
8
OBJECT__22
10
0
20
0
30
0
70
128
71
28
72
31
73
30
0
VERTEX
8
OBJECT__22
10
0
20
0
30
0
70
128
71
32
72
33
73
34
0
VERTEX
8
OBJECT__22
10
0
20
0
30
0
70
128
71
34
72
9
73
32
0
VERTEX
8
OBJECT__22
10
0
20
0
30
0
70
128
71
9
72
35
73
36
0
VERTEX
8
OBJECT__22
10
0
20
0
30
0
70
128
71
36
72
32
73
9
0
VERTEX
8
OBJECT__22
10
0
20
0
30
0
70
128
71
34
72
37
73
9
0
VERTEX
8
OBJECT__22
10
0
20
0
30
0
70
128
71
37
72
13
73
9
0
VERTEX
8
OBJECT__22
10
0
20
0
30
0
70
128
71
30
72
19
73
2
0
VERTEX
8
OBJECT__22
10
0
20
0
30
0
70
128
71
24
72
6
73
1
0
VERTEX
8
OBJECT__22
10
0
20
0
30
0
70
128
71
21
72
35
73
9
0
VERTEX
8
OBJECT__22
10
0
20
0
30
0
70
128
71
15
72
4
73
2
0
VERTEX
8
OBJECT__22
10
0
20
0
30
0
70
128
71
8
72
25
73
9
0
VERTEX
8
OBJECT__22
10
0
20
0
30
0
70
128
71
7
72
29
73
2
0
VERTEX
8
OBJECT__22
10
0
20
0
30
0
70
128
71
3
72
23
73
1
0
SEQEND
8
OBJECT__22
0
POLYLINE
8
OBJECT__23
66
1
70
64
71
37
72
38
62
253
0
VERTEX
8
OBJECT__23
10
63.970001
20
-7.661000
30
7.661000
70
192
0
VERTEX
8
OBJECT__23
10
63.970001
20
-10.009000
30
4.147000
70
192
0
VERTEX
8
OBJECT__23
10
66.848999
20
-12.631000
30
8.405000
70
192
0
VERTEX
8
OBJECT__23
10
66.848999
20
-13.954000
30
5.775000
70
192
0
VERTEX
8
OBJECT__23
10
66.848999
20
-2.919000
30
14.804000
70
192
0
VERTEX
8
OBJECT__23
10
66.848999
20
0.000000
30
15.172000
70
192
0
VERTEX
8
OBJECT__23
10
64.848000
20
0.000000
30
11.448000
70
192
0
VERTEX
8
OBJECT__23
10
63.970001
20
-4.146000
30
10.010000
70
192
0
VERTEX
8
OBJECT__23
10
66.848999
20
-5.763000
30
13.907000
70
192
0
VERTEX
8
OBJECT__23
10
66.848999
20
-3.770000
30
14.697000
70
192
0
VERTEX
8
OBJECT__23
10
58.384998
20
-8.003000
30
6.576000
70
192
0
VERTEX
8
OBJECT__23
10
58.384998
20
-8.884000
30
5.126000
70
192
0
VERTEX
8
OBJECT__23
10
58.384998
20
-7.256000
30
7.250000
70
192
0
VERTEX
8
OBJECT__23
10
58.384998
20
-9.527000
30
4.066000
70
192
0
VERTEX
8
OBJECT__23
10
58.384998
20
-3.049000
30
9.900000
70
192
0
VERTEX
8
OBJECT__23
10
58.384998
20
-3.517000
30
9.679000
70
192
0
VERTEX
8
OBJECT__23
10
62.019001
20
0.000000
30
10.431000
70
192
0
VERTEX
8
OBJECT__23
10
58.384998
20
0.000000
30
10.358000
70
192
0
VERTEX
8
OBJECT__23
10
63.875000
20
0.000000
30
11.098000
70
192
0
VERTEX
8
OBJECT__23
10
66.055000
20
-13.588000
30
-0.030000
70
192
0
VERTEX
8
OBJECT__23
10
66.848999
20
-14.719000
30
3.148000
70
192
0
VERTEX
8
OBJECT__23
10
66.848999
20
-14.283000
30
5.120000
70
192
0
VERTEX
8
OBJECT__23
10
66.848999
20
-15.172000
30
0.000000
70
192
0
VERTEX
8
OBJECT__23
10
66.848999
20
-15.109000
30
1.380000
70
192
0
VERTEX
8
OBJECT__23
10
63.969002
20
-10.834000
30
-0.060000
70
192
0
VERTEX
8
OBJECT__23
10
65.237000
20
-12.508000
30
-0.042000
70
192
0
VERTEX
8
OBJECT__23
10
66.848999
20
-8.291000
30
12.584000
70
192
0
VERTEX
8
OBJECT__23
10
66.848999
20
-7.314000
30
13.293000
70
192
0
VERTEX
8
OBJECT__23
10
66.848999
20
-10.376000
30
11.070000
70
192
0
VERTEX
8
OBJECT__23
10
66.848999
20
-10.692000
30
10.697000
70
192
0
VERTEX
8
OBJECT__23
10
58.386002
20
-5.708000
30
8.643000
70
192
0
VERTEX
8
OBJECT__23
10
58.384998
20
-3.923000
30
9.487000
70
192
0
VERTEX
8
OBJECT__23
10
58.386002
20
-10.358000
30
0.000000
70
192
0
VERTEX
8
OBJECT__23
10
58.383999
20
-10.357000
30
-0.152000
70
192
0
VERTEX
8
OBJECT__23
10
61.618000
20
-10.634000
30
-0.098000
70
192
0
VERTEX
8
OBJECT__23
10
58.384998
20
-10.306000
30
1.040000
70
192
0
VERTEX
8
OBJECT__23
10
58.384998
20
-9.554000
30
3.962000
70
192
0
VERTEX
8
OBJECT__23
10
0
20
0
30
0
70
128
71
1
72
2
73
3
0
VERTEX
8
OBJECT__23
10
0
20
0
30
0
70
128
71
2
72
4
73
3
0
VERTEX
8
OBJECT__23
10
0
20
0
30
0
70
128
71
5
72
6
73
7
0
VERTEX
8
OBJECT__23
10
0
20
0
30
0
70
128
71
8
72
9
73
10
0
VERTEX
8
OBJECT__23
10
0
20
0
30
0
70
128
71
10
72
5
73
8
0
VERTEX
8
OBJECT__23
10
0
20
0
30
0
70
128
71
7
72
8
73
5
0
VERTEX
8
OBJECT__23
10
0
20
0
30
0
70
128
71
1
72
11
73
12
0
VERTEX
8
OBJECT__23
10
0
20
0
30
0
70
128
71
12
72
2
73
1
0
VERTEX
8
OBJECT__23
10
0
20
0
30
0
70
128
71
1
72
13
73
11
0
VERTEX
8
OBJECT__23
10
0
20
0
30
0
70
128
71
12
72
14
73
2
0
VERTEX
8
OBJECT__23
10
0
20
0
30
0
70
128
71
8
72
15
73
16
0
VERTEX
8
OBJECT__23
10
0
20
0
30
0
70
128
71
15
72
8
73
17
0
VERTEX
8
OBJECT__23
10
0
20
0
30
0
70
128
71
17
72
18
73
15
0
VERTEX
8
OBJECT__23
10
0
20
0
30
0
70
128
71
8
72
19
73
17
0
VERTEX
8
OBJECT__23
10
0
20
0
30
0
70
128
71
20
72
21
73
22
0
VERTEX
8
OBJECT__23
10
0
20
0
30
0
70
128
71
20
72
23
73
24
0
VERTEX
8
OBJECT__23
10
0
20
0
30
0
70
128
71
24
72
21
73
20
0
VERTEX
8
OBJECT__23
10
0
20
0
30
0
70
128
71
2
72
25
73
26
0
VERTEX
8
OBJECT__23
10
0
20
0
30
0
70
128
71
26
72
4
73
2
0
VERTEX
8
OBJECT__23
10
0
20
0
30
0
70
128
71
26
72
20
73
4
0
VERTEX
8
OBJECT__23
10
0
20
0
30
0
70
128
71
8
72
27
73
28
0
VERTEX
8
OBJECT__23
10
0
20
0
30
0
70
128
71
1
72
29
73
27
0
VERTEX
8
OBJECT__23
10
0
20
0
30
0
70
128
71
1
72
30
73
29
0
VERTEX
8
OBJECT__23
10
0
20
0
30
0
70
128
71
27
72
8
73
1
0
VERTEX
8
OBJECT__23
10
0
20
0
30
0
70
128
71
1
72
8
73
31
0
VERTEX
8
OBJECT__23
10
0
20
0
30
0
70
128
71
8
72
32
73
31
0
VERTEX
8
OBJECT__23
10
0
20
0
30
0
70
128
71
33
72
34
73
35
0
VERTEX
8
OBJECT__23
10
0
20
0
30
0
70
128
71
25
72
36
73
33
0
VERTEX
8
OBJECT__23
10
0
20
0
30
0
70
128
71
2
72
37
73
36
0
VERTEX
8
OBJECT__23
10
0
20
0
30
0
70
128
71
36
72
25
73
2
0
VERTEX
8
OBJECT__23
10
0
20
0
30
0
70
128
71
35
72
25
73
33
0
VERTEX
8
OBJECT__23
10
0
20
0
30
0
70
128
71
31
72
13
73
1
0
VERTEX
8
OBJECT__23
10
0
20
0
30
0
70
128
71
28
72
9
73
8
0
VERTEX
8
OBJECT__23
10
0
20
0
30
0
70
128
71
22
72
4
73
20
0
VERTEX
8
OBJECT__23
10
0
20
0
30
0
70
128
71
16
72
32
73
8
0
VERTEX
8
OBJECT__23
10
0
20
0
30
0
70
128
71
14
72
37
73
2
0
VERTEX
8
OBJECT__23
10
0
20
0
30
0
70
128
71
7
72
19
73
8
0
VERTEX
8
OBJECT__23
10
0
20
0
30
0
70
128
71
3
72
30
73
1
0
SEQEND
8
OBJECT__23
0
POLYLINE
8
OBJECT__24
66
1
70
64
71
68
72
74
62
253
0
VERTEX
8
OBJECT__24
10
67.929001
20
-13.659000
30
9.332000
70
192
0
VERTEX
8
OBJECT__24
10
69.257004
20
-15.108000
30
8.726000
70
192
0
VERTEX
8
OBJECT__24
10
69.257004
20
-14.957000
30
9.052000
70
192
0
VERTEX
8
OBJECT__24
10
67.929001
20
-16.177000
30
3.461000
70
192
0
VERTEX
8
OBJECT__24
10
69.257004
20
-16.563000
30
5.596000
70
192
0
VERTEX
8
OBJECT__24
10
69.257004
20
-17.091999
30
3.657000
70
192
0
VERTEX
8
OBJECT__24
10
69.257004
20
-13.777000
30
10.763000
70
192
0
VERTEX
8
OBJECT__24
10
69.257004
20
-11.117000
30
13.493000
70
192
0
VERTEX
8
OBJECT__24
10
69.257004
20
-14.411000
30
9.845000
70
192
0
VERTEX
8
OBJECT__24
10
67.929001
20
-9.106000
30
13.811000
70
192
0
VERTEX
8
OBJECT__24
10
67.929001
20
-3.194000
30
16.232000
70
192
0
VERTEX
8
OBJECT__24
10
69.257004
20
-6.024000
30
16.412001
70
192
0
VERTEX
8
OBJECT__24
10
69.257004
20
-4.034000
30
17.011000
70
192
0
VERTEX
8
OBJECT__24
10
69.257004
20
-8.710000
30
15.078000
70
192
0
VERTEX
8
OBJECT__24
10
69.257004
20
-9.438000
30
14.717000
70
192
0
VERTEX
8
OBJECT__24
10
67.929001
20
3.194000
30
16.232000
70
192
0
VERTEX
8
OBJECT__24
10
69.257004
20
-0.001000
30
17.469999
70
192
0
VERTEX
8
OBJECT__24
10
69.257004
20
1.824000
30
17.388000
70
192
0
VERTEX
8
OBJECT__24
10
69.257004
20
-3.368000
30
17.094000
70
192
0
VERTEX
8
OBJECT__24
10
69.257004
20
-0.252000
30
17.481001
70
192
0
VERTEX
8
OBJECT__24
10
69.257004
20
5.548000
30
16.579000
70
192
0
VERTEX
8
OBJECT__24
10
69.257004
20
7.476000
30
15.804000
70
192
0
VERTEX
8
OBJECT__24
10
67.929001
20
9.106000
30
13.811000
70
192
0
VERTEX
8
OBJECT__24
10
69.257004
20
3.354000
30
17.056000
70
192
0
VERTEX
8
OBJECT__24
10
69.257004
20
8.690000
30
15.058000
70
192
0
VERTEX
8
OBJECT__24
10
67.929001
20
13.659000
30
9.332000
70
192
0
VERTEX
8
OBJECT__24
10
69.257004
20
12.286000
30
12.438000
70
192
0
VERTEX
8
OBJECT__24
10
69.257004
20
9.573000
30
14.515000
70
192
0
VERTEX
8
OBJECT__24
10
69.257004
20
10.723000
30
13.808000
70
192
0
VERTEX
8
OBJECT__24
10
67.929001
20
16.177000
30
3.461000
70
192
0
VERTEX
8
OBJECT__24
10
69.257004
20
15.711000
30
7.670000
70
192
0
VERTEX
8
OBJECT__24
10
69.257004
20
16.999001
30
4.084000
70
192
0
VERTEX
8
OBJECT__24
10
69.257004
20
15.115000
30
8.727000
70
192
0
VERTEX
8
OBJECT__24
10
69.257004
20
14.402000
30
9.835000
70
192
0
VERTEX
8
OBJECT__24
10
69.257004
20
14.690000
30
9.480000
70
192
0
VERTEX
8
OBJECT__24
10
69.257004
20
17.483000
30
0.000000
70
192
0
VERTEX
8
OBJECT__24
10
67.929001
20
16.542999
30
0.000000
70
192
0
VERTEX
8
OBJECT__24
10
66.848999
20
15.172000
30
0.000000
70
192
0
VERTEX
8
OBJECT__24
10
66.848999
20
13.907000
30
5.763000
70
192
0
VERTEX
8
OBJECT__24
10
66.848999
20
14.697000
30
3.770000
70
192
0
VERTEX
8
OBJECT__24
10
66.848999
20
13.293000
30
7.314000
70
192
0
VERTEX
8
OBJECT__24
10
66.848999
20
14.773000
30
3.166000
70
192
0
VERTEX
8
OBJECT__24
10
66.848999
20
11.070000
30
10.376000
70
192
0
VERTEX
8
OBJECT__24
10
66.848999
20
10.697000
30
10.691000
70
192
0
VERTEX
8
OBJECT__24
10
66.848999
20
12.437000
30
8.493000
70
192
0
VERTEX
8
OBJECT__24
10
66.848999
20
5.774000
30
13.954000
70
192
0
VERTEX
8
OBJECT__24
10
66.848999
20
5.120000
30
14.283000
70
192
0
VERTEX
8
OBJECT__24
10
66.848999
20
8.405000
30
12.631000
70
192
0
VERTEX
8
OBJECT__24
10
66.848999
20
1.380000
30
15.109000
70
192
0
VERTEX
8
OBJECT__24
10
66.848999
20
0.000000
30
15.172000
70
192
0
VERTEX
8
OBJECT__24
10
66.848999
20
2.904000
30
14.772000
70
192
0
VERTEX
8
OBJECT__24
10
66.848999
20
-5.763000
30
13.907000
70
192
0
VERTEX
8
OBJECT__24
10
66.848999
20
-3.770000
30
14.697000
70
192
0
VERTEX
8
OBJECT__24
10
66.848999
20
-7.314000
30
13.293000
70
192
0
VERTEX
8
OBJECT__24
10
66.848999
20
-2.919000
30
14.804000
70
192
0
VERTEX
8
OBJECT__24
10
66.848999
20
-10.376000
30
11.070000
70
192
0
VERTEX
8
OBJECT__24
10
66.848999
20
-10.692000
30
10.697000
70
192
0
VERTEX
8
OBJECT__24
10
66.848999
20
-8.291000
30
12.584000
70
192
0
VERTEX
8
OBJECT__24
10
66.848999
20
-13.954000
30
5.775000
70
192
0
VERTEX
8
OBJECT__24
10
66.848999
20
-12.631000
30
8.405000
70
192
0
VERTEX
8
OBJECT__24
10
66.848999
20
-14.283000
30
5.120000
70
192
0
VERTEX
8
OBJECT__24
10
66.848999
20
-14.719000
30
3.148000
70
192
0
VERTEX
8
OBJECT__24
10
66.848999
20
-15.109000
30
1.380000
70
192
0
VERTEX
8
OBJECT__24
10
67.929001
20
-16.542999
30
0.000000
70
192
0
VERTEX
8
OBJECT__24
10
69.257004
20
-17.110001
30
3.591000
70
192
0
VERTEX
8
OBJECT__24
10
69.257004
20
-17.483000
30
0.000000
70
192
0
VERTEX
8
OBJECT__24
10
66.848999
20
-15.172000
30
0.000000
70
192
0
VERTEX
8
OBJECT__24
10
69.257004
20
17.051001
30
3.652000
70
192
0
VERTEX
8
OBJECT__24
10
0
20
0
30
0
70
128
71
1
72
2
73
3
0
VERTEX
8
OBJECT__24
10
0
20
0
30
0
70
128
71
1
72
4
73
5
0
VERTEX
8
OBJECT__24
10
0
20
0
30
0
70
128
71
4
72
6
73
5
0
VERTEX
8
OBJECT__24
10
0
20
0
30
0
70
128
71
5
72
2
73
1
0
VERTEX
8
OBJECT__24
10
0
20
0
30
0
70
128
71
1
72
7
73
8
0
VERTEX
8
OBJECT__24
10
0
20
0
30
0
70
128
71
1
72
9
73
7
0
VERTEX
8
OBJECT__24
10
0
20
0
30
0
70
128
71
8
72
10
73
1
0
VERTEX
8
OBJECT__24
10
0
20
0
30
0
70
128
71
11
72
12
73
13
0
VERTEX
8
OBJECT__24
10
0
20
0
30
0
70
128
71
10
72
14
73
12
0
VERTEX
8
OBJECT__24
10
0
20
0
30
0
70
128
71
12
72
11
73
10
0
VERTEX
8
OBJECT__24
10
0
20
0
30
0
70
128
71
10
72
15
73
14
0
VERTEX
8
OBJECT__24
10
0
20
0
30
0
70
128
71
16
72
11
73
17
0
VERTEX
8
OBJECT__24
10
0
20
0
30
0
70
128
71
17
72
18
73
16
0
VERTEX
8
OBJECT__24
10
0
20
0
30
0
70
128
71
11
72
19
73
20
0
VERTEX
8
OBJECT__24
10
0
20
0
30
0
70
128
71
20
72
17
73
11
0
VERTEX
8
OBJECT__24
10
0
20
0
30
0
70
128
71
16
72
21
73
22
0
VERTEX
8
OBJECT__24
10
0
20
0
30
0
70
128
71
22
72
23
73
16
0
VERTEX
8
OBJECT__24
10
0
20
0
30
0
70
128
71
16
72
24
73
21
0
VERTEX
8
OBJECT__24
10
0
20
0
30
0
70
128
71
22
72
25
73
23
0
VERTEX
8
OBJECT__24
10
0
20
0
30
0
70
128
71
26
72
23
73
27
0
VERTEX
8
OBJECT__24
10
0
20
0
30
0
70
128
71
23
72
28
73
29
0
VERTEX
8
OBJECT__24
10
0
20
0
30
0
70
128
71
29
72
27
73
23
0
VERTEX
8
OBJECT__24
10
0
20
0
30
0
70
128
71
30
72
26
73
31
0
VERTEX
8
OBJECT__24
10
0
20
0
30
0
70
128
71
31
72
32
73
30
0
VERTEX
8
OBJECT__24
10
0
20
0
30
0
70
128
71
26
72
33
73
31
0
VERTEX
8
OBJECT__24
10
0
20
0
30
0
70
128
71
26
72
34
73
35
0
VERTEX
8
OBJECT__24
10
0
20
0
30
0
70
128
71
35
72
33
73
26
0
VERTEX
8
OBJECT__24
10
0
20
0
30
0
70
128
71
36
72
37
73
30
0
VERTEX
8
OBJECT__24
10
0
20
0
30
0
70
128
71
30
72
37
73
38
0
VERTEX
8
OBJECT__24
10
0
20
0
30
0
70
128
71
26
72
30
73
39
0
VERTEX
8
OBJECT__24
10
0
20
0
30
0
70
128
71
30
72
40
73
39
0
VERTEX
8
OBJECT__24
10
0
20
0
30
0
70
128
71
39
72
41
73
26
0
VERTEX
8
OBJECT__24
10
0
20
0
30
0
70
128
71
30
72
42
73
40
0
VERTEX
8
OBJECT__24
10
0
20
0
30
0
70
128
71
23
72
26
73
43
0
VERTEX
8
OBJECT__24
10
0
20
0
30
0
70
128
71
43
72
44
73
23
0
VERTEX
8
OBJECT__24
10
0
20
0
30
0
70
128
71
26
72
45
73
43
0
VERTEX
8
OBJECT__24
10
0
20
0
30
0
70
128
71
23
72
46
73
47
0
VERTEX
8
OBJECT__24
10
0
20
0
30
0
70
128
71
23
72
48
73
46
0
VERTEX
8
OBJECT__24
10
0
20
0
30
0
70
128
71
47
72
16
73
23
0
VERTEX
8
OBJECT__24
10
0
20
0
30
0
70
128
71
16
72
49
73
50
0
VERTEX
8
OBJECT__24
10
0
20
0
30
0
70
128
71
50
72
11
73
16
0
VERTEX
8
OBJECT__24
10
0
20
0
30
0
70
128
71
16
72
51
73
49
0
VERTEX
8
OBJECT__24
10
0
20
0
30
0
70
128
71
10
72
11
73
52
0
VERTEX
8
OBJECT__24
10
0
20
0
30
0
70
128
71
11
72
53
73
52
0
VERTEX
8
OBJECT__24
10
0
20
0
30
0
70
128
71
52
72
54
73
10
0
VERTEX
8
OBJECT__24
10
0
20
0
30
0
70
128
71
11
72
55
73
53
0
VERTEX
8
OBJECT__24
10
0
20
0
30
0
70
128
71
1
72
10
73
56
0
VERTEX
8
OBJECT__24
10
0
20
0
30
0
70
128
71
56
72
57
73
1
0
VERTEX
8
OBJECT__24
10
0
20
0
30
0
70
128
71
10
72
58
73
56
0
VERTEX
8
OBJECT__24
10
0
20
0
30
0
70
128
71
4
72
1
73
59
0
VERTEX
8
OBJECT__24
10
0
20
0
30
0
70
128
71
1
72
60
73
59
0
VERTEX
8
OBJECT__24
10
0
20
0
30
0
70
128
71
59
72
61
73
4
0
VERTEX
8
OBJECT__24
10
0
20
0
30
0
70
128
71
4
72
62
73
63
0
VERTEX
8
OBJECT__24
10
0
20
0
30
0
70
128
71
63
72
64
73
4
0
VERTEX
8
OBJECT__24
10
0
20
0
30
0
70
128
71
65
72
4
73
64
0
VERTEX
8
OBJECT__24
10
0
20
0
30
0
70
128
71
64
72
66
73
65
0
VERTEX
8
OBJECT__24
10
0
20
0
30
0
70
128
71
65
72
6
73
4
0
VERTEX
8
OBJECT__24
10
0
20
0
30
0
70
128
71
63
72
67
73
64
0
VERTEX
8
OBJECT__24
10
0
20
0
30
0
70
128
71
61
72
62
73
4
0
VERTEX
8
OBJECT__24
10
0
20
0
30
0
70
128
71
57
72
60
73
1
0
VERTEX
8
OBJECT__24
10
0
20
0
30
0
70
128
71
54
72
58
73
10
0
VERTEX
8
OBJECT__24
10
0
20
0
30
0
70
128
71
50
72
55
73
11
0
VERTEX
8
OBJECT__24
10
0
20
0
30
0
70
128
71
47
72
51
73
16
0
VERTEX
8
OBJECT__24
10
0
20
0
30
0
70
128
71
44
72
48
73
23
0
VERTEX
8
OBJECT__24
10
0
20
0
30
0
70
128
71
41
72
45
73
26
0
VERTEX
8
OBJECT__24
10
0
20
0
30
0
70
128
71
38
72
42
73
30
0
VERTEX
8
OBJECT__24
10
0
20
0
30
0
70
128
71
30
72
68
73
36
0
VERTEX
8
OBJECT__24
10
0
20
0
30
0
70
128
71
32
72
68
73
30
0
VERTEX
8
OBJECT__24
10
0
20
0
30
0
70
128
71
27
72
34
73
26
0
VERTEX
8
OBJECT__24
10
0
20
0
30
0
70
128
71
25
72
28
73
23
0
VERTEX
8
OBJECT__24
10
0
20
0
30
0
70
128
71
18
72
24
73
16
0
VERTEX
8
OBJECT__24
10
0
20
0
30
0
70
128
71
13
72
19
73
11
0
VERTEX
8
OBJECT__24
10
0
20
0
30
0
70
128
71
8
72
15
73
10
0
VERTEX
8
OBJECT__24
10
0
20
0
30
0
70
128
71
3
72
9
73
1
0
SEQEND
8
OBJECT__24
0
POLYLINE
8
OBJECT__25
66
1
70
64
71
4
72
2
62
253
0
VERTEX
8
OBJECT__25
10
69.257004
20
-17.483000
30
0.000000
70
192
0
VERTEX
8
OBJECT__25
10
69.257004
20
-17.483000
30
-65.070000
70
192
0
VERTEX
8
OBJECT__25
10
71.153000
20
-17.450001
30
-65.070000
70
192
0
VERTEX
8
OBJECT__25
10
71.153000
20
-17.450001
30
0.000000
70
192
0
VERTEX
8
OBJECT__25
10
0
20
0
30
0
70
128
71
1
72
2
73
3
0
VERTEX
8
OBJECT__25
10
0
20
0
30
0
70
128
71
3
72
4
73
1
0
SEQEND
8
OBJECT__25
0
POLYLINE
8
OBJECT__26
66
1
70
64
71
4
72
2
62
253
0
VERTEX
8
OBJECT__26
10
69.257004
20
17.483000
30
-65.070000
70
192
0
VERTEX
8
OBJECT__26
10
69.257004
20
17.483000
30
0.000000
70
192
0
VERTEX
8
OBJECT__26
10
71.153000
20
17.450001
30
0.000000
70
192
0
VERTEX
8
OBJECT__26
10
71.153000
20
17.450001
30
-65.070000
70
192
0
VERTEX
8
OBJECT__26
10
0
20
0
30
0
70
128
71
1
72
2
73
3
0
VERTEX
8
OBJECT__26
10
0
20
0
30
0
70
128
71
3
72
4
73
1
0
SEQEND
8
OBJECT__26
0
POLYLINE
8
OBJECT__27
66
1
70
64
71
44
72
42
62
253
0
VERTEX
8
OBJECT__27
10
71.153000
20
16.398001
30
5.968000
70
192
0
VERTEX
8
OBJECT__27
10
69.257004
20
17.051001
30
3.652000
70
192
0
VERTEX
8
OBJECT__27
10
69.257004
20
16.999001
30
4.084000
70
192
0
VERTEX
8
OBJECT__27
10
71.153000
20
17.450001
30
0.000000
70
192
0
VERTEX
8
OBJECT__27
10
69.257004
20
17.483000
30
0.000000
70
192
0
VERTEX
8
OBJECT__27
10
71.153000
20
14.883000
30
8.592000
70
192
0
VERTEX
8
OBJECT__27
10
69.257004
20
15.711000
30
7.670000
70
192
0
VERTEX
8
OBJECT__27
10
69.257004
20
15.115000
30
8.727000
70
192
0
VERTEX
8
OBJECT__27
10
69.257004
20
14.402000
30
9.835000
70
192
0
VERTEX
8
OBJECT__27
10
69.257004
20
12.286000
30
12.438000
70
192
0
VERTEX
8
OBJECT__27
10
71.153000
20
13.367000
30
11.217000
70
192
0
VERTEX
8
OBJECT__27
10
69.257004
20
14.690000
30
9.480000
70
192
0
VERTEX
8
OBJECT__27
10
69.257004
20
10.723000
30
13.808000
70
192
0
VERTEX
8
OBJECT__27
10
71.153000
20
8.725000
30
15.112000
70
192
0
VERTEX
8
OBJECT__27
10
69.257004
20
9.573000
30
14.515000
70
192
0
VERTEX
8
OBJECT__27
10
69.257004
20
8.690000
30
15.058000
70
192
0
VERTEX
8
OBJECT__27
10
69.257004
20
7.476000
30
15.804000
70
192
0
VERTEX
8
OBJECT__27
10
69.257004
20
5.548000
30
16.579000
70
192
0
VERTEX
8
OBJECT__27
10
71.153000
20
3.030000
30
17.184999
70
192
0
VERTEX
8
OBJECT__27
10
71.153000
20
0.000000
30
17.184999
70
192
0
VERTEX
8
OBJECT__27
10
69.257004
20
1.824000
30
17.388000
70
192
0
VERTEX
8
OBJECT__27
10
69.257004
20
3.354000
30
17.056000
70
192
0
VERTEX
8
OBJECT__27
10
69.257004
20
-0.001000
30
17.469999
70
192
0
VERTEX
8
OBJECT__27
10
69.257004
20
-0.252000
30
17.481001
70
192
0
VERTEX
8
OBJECT__27
10
69.257004
20
-3.368000
30
17.094000
70
192
0
VERTEX
8
OBJECT__27
10
71.153000
20
-3.030000
30
17.184999
70
192
0
VERTEX
8
OBJECT__27
10
69.257004
20
-4.034000
30
17.011000
70
192
0
VERTEX
8
OBJECT__27
10
69.257004
20
-6.024000
30
16.412001
70
192
0
VERTEX
8
OBJECT__27
10
71.153000
20
-8.725000
30
15.112000
70
192
0
VERTEX
8
OBJECT__27
10
69.257004
20
-8.710000
30
15.078000
70
192
0
VERTEX
8
OBJECT__27
10
71.153000
20
-13.367000
30
11.217000
70
192
0
VERTEX
8
OBJECT__27
10
69.257004
20
-11.117000
30
13.493000
70
192
0
VERTEX
8
OBJECT__27
10
69.257004
20
-9.438000
30
14.717000
70
192
0
VERTEX
8
OBJECT__27
10
71.153000
20
-14.883000
30
8.592000
70
192
0
VERTEX
8
OBJECT__27
10
69.257004
20
-14.411000
30
9.845000
70
192
0
VERTEX
8
OBJECT__27
10
69.257004
20
-14.957000
30
9.052000
70
192
0
VERTEX
8
OBJECT__27
10
69.257004
20
-13.777000
30
10.763000
70
192
0
VERTEX
8
OBJECT__27
10
69.257004
20
-15.108000
30
8.726000
70
192
0
VERTEX
8
OBJECT__27
10
69.257004
20
-16.563000
30
5.596000
70
192
0
VERTEX
8
OBJECT__27
10
71.153000
20
-16.398001
30
5.968000
70
192
0
VERTEX
8
OBJECT__27
10
71.153000
20
-17.450001
30
0.000000
70
192
0
VERTEX
8
OBJECT__27
10
69.257004
20
-17.110001
30
3.591000
70
192
0
VERTEX
8
OBJECT__27
10
69.257004
20
-17.091999
30
3.657000
70
192
0
VERTEX
8
OBJECT__27
10
69.257004
20
-17.483000
30
0.000000
70
192
0
VERTEX
8
OBJECT__27
10
0
20
0
30
0
70
128
71
1
72
2
73
3
0
VERTEX
8
OBJECT__27
10
0
20
0
30
0
70
128
71
4
72
5
73
2
0
VERTEX
8
OBJECT__27
10
0
20
0
30
0
70
128
71
2
72
1
73
4
0
VERTEX
8
OBJECT__27
10
0
20
0
30
0
70
128
71
6
72
1
73
7
0
VERTEX
8
OBJECT__27
10
0
20
0
30
0
70
128
71
7
72
8
73
6
0
VERTEX
8
OBJECT__27
10
0
20
0
30
0
70
128
71
9
72
10
73
11
0
VERTEX
8
OBJECT__27
10
0
20
0
30
0
70
128
71
6
72
8
73
12
0
VERTEX
8
OBJECT__27
10
0
20
0
30
0
70
128
71
12
72
9
73
6
0
VERTEX
8
OBJECT__27
10
0
20
0
30
0
70
128
71
11
72
10
73
13
0
VERTEX
8
OBJECT__27
10
0
20
0
30
0
70
128
71
13
72
14
73
11
0
VERTEX
8
OBJECT__27
10
0
20
0
30
0
70
128
71
13
72
15
73
14
0
VERTEX
8
OBJECT__27
10
0
20
0
30
0
70
128
71
15
72
16
73
14
0
VERTEX
8
OBJECT__27
10
0
20
0
30
0
70
128
71
14
72
17
73
18
0
VERTEX
8
OBJECT__27
10
0
20
0
30
0
70
128
71
14
72
16
73
17
0
VERTEX
8
OBJECT__27
10
0
20
0
30
0
70
128
71
18
72
19
73
14
0
VERTEX
8
OBJECT__27
10
0
20
0
30
0
70
128
71
20
72
19
73
21
0
VERTEX
8
OBJECT__27
10
0
20
0
30
0
70
128
71
19
72
22
73
21
0
VERTEX
8
OBJECT__27
10
0
20
0
30
0
70
128
71
21
72
23
73
20
0
VERTEX
8
OBJECT__27
10
0
20
0
30
0
70
128
71
24
72
25
73
26
0
VERTEX
8
OBJECT__27
10
0
20
0
30
0
70
128
71
20
72
23
73
24
0
VERTEX
8
OBJECT__27
10
0
20
0
30
0
70
128
71
26
72
27
73
28
0
VERTEX
8
OBJECT__27
10
0
20
0
30
0
70
128
71
26
72
25
73
27
0
VERTEX
8
OBJECT__27
10
0
20
0
30
0
70
128
71
28
72
29
73
26
0
VERTEX
8
OBJECT__27
10
0
20
0
30
0
70
128
71
28
72
30
73
29
0
VERTEX
8
OBJECT__27
10
0
20
0
30
0
70
128
71
31
72
29
73
32
0
VERTEX
8
OBJECT__27
10
0
20
0
30
0
70
128
71
29
72
30
73
33
0
VERTEX
8
OBJECT__27
10
0
20
0
30
0
70
128
71
33
72
32
73
29
0
VERTEX
8
OBJECT__27
10
0
20
0
30
0
70
128
71
34
72
35
73
36
0
VERTEX
8
OBJECT__27
10
0
20
0
30
0
70
128
71
31
72
37
73
35
0
VERTEX
8
OBJECT__27
10
0
20
0
30
0
70
128
71
35
72
34
73
31
0
VERTEX
8
OBJECT__27
10
0
20
0
30
0
70
128
71
36
72
38
73
34
0
VERTEX
8
OBJECT__27
10
0
20
0
30
0
70
128
71
38
72
39
73
40
0
VERTEX
8
OBJECT__27
10
0
20
0
30
0
70
128
71
41
72
40
73
42
0
VERTEX
8
OBJECT__27
10
0
20
0
30
0
70
128
71
40
72
43
73
42
0
VERTEX
8
OBJECT__27
10
0
20
0
30
0
70
128
71
40
72
39
73
43
0
VERTEX
8
OBJECT__27
10
0
20
0
30
0
70
128
71
42
72
44
73
41
0
VERTEX
8
OBJECT__27
10
0
20
0
30
0
70
128
71
40
72
34
73
38
0
VERTEX
8
OBJECT__27
10
0
20
0
30
0
70
128
71
32
72
37
73
31
0
VERTEX
8
OBJECT__27
10
0
20
0
30
0
70
128
71
26
72
20
73
24
0
VERTEX
8
OBJECT__27
10
0
20
0
30
0
70
128
71
18
72
22
73
19
0
VERTEX
8
OBJECT__27
10
0
20
0
30
0
70
128
71
11
72
6
73
9
0
VERTEX
8
OBJECT__27
10
0
20
0
30
0
70
128
71
3
72
7
73
1
0
SEQEND
8
OBJECT__27
0
POLYLINE
8
OBJECT__28
66
1
70
64
71
6
72
4
62
253
0
VERTEX
8
OBJECT__28
10
72.500999
20
-11.950000
30
0.000000
70
192
0
VERTEX
8
OBJECT__28
10
72.319000
20
-14.813000
30
0.000000
70
192
0
VERTEX
8
OBJECT__28
10
72.319000
20
-14.813000
30
-65.070000
70
192
0
VERTEX
8
OBJECT__28
10
71.153000
20
-17.450001
30
0.000000
70
192
0
VERTEX
8
OBJECT__28
10
71.153000
20
-17.450001
30
-65.070000
70
192
0
VERTEX
8
OBJECT__28
10
72.500999
20
-11.950000
30
-65.070000
70
192
0
VERTEX
8
OBJECT__28
10
0
20
0
30
0
70
128
71
1
72
2
73
3
0
VERTEX
8
OBJECT__28
10
0
20
0
30
0
70
128
71
3
72
2
73
4
0
VERTEX
8
OBJECT__28
10
0
20
0
30
0
70
128
71
4
72
5
73
3
0
VERTEX
8
OBJECT__28
10
0
20
0
30
0
70
128
71
3
72
6
73
1
0
SEQEND
8
OBJECT__28
0
POLYLINE
8
OBJECT__29
66
1
70
64
71
41
72
46
62
253
0
VERTEX
8
OBJECT__29
10
72.319000
20
13.686000
30
-70.738998
70
192
0
VERTEX
8
OBJECT__29
10
72.319000
20
14.813000
30
-65.070000
70
192
0
VERTEX
8
OBJECT__29
10
72.500999
20
11.872000
30
-66.430000
70
192
0
VERTEX
8
OBJECT__29
10
72.500999
20
11.950000
30
-65.070000
70
192
0
VERTEX
8
OBJECT__29
10
72.500999
20
11.040000
30
-69.642998
70
192
0
VERTEX
8
OBJECT__29
10
72.319000
20
10.475000
30
-75.544998
70
192
0
VERTEX
8
OBJECT__29
10
72.500999
20
9.494000
30
-72.327003
70
192
0
VERTEX
8
OBJECT__29
10
72.319000
20
5.669000
30
-78.755997
70
192
0
VERTEX
8
OBJECT__29
10
72.500999
20
7.128000
30
-74.661003
70
192
0
VERTEX
8
OBJECT__29
10
72.500999
20
8.369000
30
-73.436996
70
192
0
VERTEX
8
OBJECT__29
10
72.500999
20
4.218000
30
-76.250999
70
192
0
VERTEX
8
OBJECT__29
10
72.500999
20
0.982000
30
-76.980003
70
192
0
VERTEX
8
OBJECT__29
10
72.500999
20
4.551000
30
-76.069000
70
192
0
VERTEX
8
OBJECT__29
10
72.319000
20
0.000000
30
-79.883003
70
192
0
VERTEX
8
OBJECT__29
10
72.319000
20
-5.669000
30
-78.755997
70
192
0
VERTEX
8
OBJECT__29
10
72.500999
20
-2.331000
30
-76.791000
70
192
0
VERTEX
8
OBJECT__29
10
72.500999
20
0.005000
30
-76.924004
70
192
0
VERTEX
8
OBJECT__29
10
72.319000
20
-10.475000
30
-75.544998
70
192
0
VERTEX
8
OBJECT__29
10
72.500999
20
-5.271000
30
-75.794998
70
192
0
VERTEX
8
OBJECT__29
10
72.500999
20
-4.549000
30
-76.039001
70
192
0
VERTEX
8
OBJECT__29
10
72.500999
20
-8.015000
30
-73.932999
70
192
0
VERTEX
8
OBJECT__29
10
72.500999
20
-8.398000
30
-73.475998
70
192
0
VERTEX
8
OBJECT__29
10
72.500999
20
-10.144000
30
-71.387001
70
192
0
VERTEX
8
OBJECT__29
10
72.319000
20
-13.686000
30
-70.738998
70
192
0
VERTEX
8
OBJECT__29
10
72.319000
20
-14.813000
30
-65.070000
70
192
0
VERTEX
8
OBJECT__29
10
72.500999
20
-11.491000
30
-68.348999
70
192
0
VERTEX
8
OBJECT__29
10
72.500999
20
-10.938000
30
-69.597000
70
192
0
VERTEX
8
OBJECT__29
10
71.153000
20
16.122000
30
-71.748001
70
192
0
VERTEX
8
OBJECT__29
10
71.153000
20
17.450001
30
-65.070000
70
192
0
VERTEX
8
OBJECT__29
10
71.153000
20
12.339000
30
-77.408997
70
192
0
VERTEX
8
OBJECT__29
10
71.153000
20
14.864000
30
-73.628998
70
192
0
VERTEX
8
OBJECT__29
10
71.153000
20
8.559000
30
-79.933998
70
192
0
VERTEX
8
OBJECT__29
10
71.153000
20
6.678000
30
-81.192001
70
192
0
VERTEX
8
OBJECT__29
10
71.153000
20
0.000000
30
-82.519997
70
192
0
VERTEX
8
OBJECT__29
10
71.153000
20
-6.678000
30
-81.192001
70
192
0
VERTEX
8
OBJECT__29
10
71.153000
20
-12.339000
30
-77.408997
70
192
0
VERTEX
8
OBJECT__29
10
71.153000
20
-8.559000
30
-79.933998
70
192
0
VERTEX
8
OBJECT__29
10
71.153000
20
-14.864000
30
-73.628998
70
192
0
VERTEX
8
OBJECT__29
10
71.153000
20
-16.122000
30
-71.748001
70
192
0
VERTEX
8
OBJECT__29
10
71.153000
20
-17.450001
30
-65.070000
70
192
0
VERTEX
8
OBJECT__29
10
72.500999
20
-11.950000
30
-65.070000
70
192
0
VERTEX
8
OBJECT__29
10
0
20
0
30
0
70
128
71
1
72
2
73
3
0
VERTEX
8
OBJECT__29
10
0
20
0
30
0
70
128
71
2
72
4
73
3
0
VERTEX
8
OBJECT__29
10
0
20
0
30
0
70
128
71
5
72
6
73
1
0
VERTEX
8
OBJECT__29
10
0
20
0
30
0
70
128
71
5
72
7
73
6
0
VERTEX
8
OBJECT__29
10
0
20
0
30
0
70
128
71
8
72
6
73
9
0
VERTEX
8
OBJECT__29
10
0
20
0
30
0
70
128
71
6
72
10
73
9
0
VERTEX
8
OBJECT__29
10
0
20
0
30
0
70
128
71
8
72
11
73
12
0
VERTEX
8
OBJECT__29
10
0
20
0
30
0
70
128
71
8
72
13
73
11
0
VERTEX
8
OBJECT__29
10
0
20
0
30
0
70
128
71
12
72
14
73
8
0
VERTEX
8
OBJECT__29
10
0
20
0
30
0
70
128
71
15
72
14
73
16
0
VERTEX
8
OBJECT__29
10
0
20
0
30
0
70
128
71
14
72
17
73
16
0
VERTEX
8
OBJECT__29
10
0
20
0
30
0
70
128
71
18
72
15
73
19
0
VERTEX
8
OBJECT__29
10
0
20
0
30
0
70
128
71
15
72
20
73
19
0
VERTEX
8
OBJECT__29
10
0
20
0
30
0
70
128
71
19
72
21
73
18
0
VERTEX
8
OBJECT__29
10
0
20
0
30
0
70
128
71
18
72
22
73
23
0
VERTEX
8
OBJECT__29
10
0
20
0
30
0
70
128
71
23
72
24
73
18
0
VERTEX
8
OBJECT__29
10
0
20
0
30
0
70
128
71
25
72
24
73
26
0
VERTEX
8
OBJECT__29
10
0
20
0
30
0
70
128
71
24
72
27
73
26
0
VERTEX
8
OBJECT__29
10
0
20
0
30
0
70
128
71
28
72
29
73
2
0
VERTEX
8
OBJECT__29
10
0
20
0
30
0
70
128
71
6
72
30
73
31
0
VERTEX
8
OBJECT__29
10
0
20
0
30
0
70
128
71
31
72
1
73
6
0
VERTEX
8
OBJECT__29
10
0
20
0
30
0
70
128
71
6
72
8
73
32
0
VERTEX
8
OBJECT__29
10
0
20
0
30
0
70
128
71
8
72
33
73
32
0
VERTEX
8
OBJECT__29
10
0
20
0
30
0
70
128
71
34
72
33
73
8
0
VERTEX
8
OBJECT__29
10
0
20
0
30
0
70
128
71
35
72
34
73
14
0
VERTEX
8
OBJECT__29
10
0
20
0
30
0
70
128
71
18
72
36
73
37
0
VERTEX
8
OBJECT__29
10
0
20
0
30
0
70
128
71
37
72
15
73
18
0
VERTEX
8
OBJECT__29
10
0
20
0
30
0
70
128
71
18
72
24
73
38
0
VERTEX
8
OBJECT__29
10
0
20
0
30
0
70
128
71
24
72
39
73
38
0
VERTEX
8
OBJECT__29
10
0
20
0
30
0
70
128
71
40
72
39
73
24
0
VERTEX
8
OBJECT__29
10
0
20
0
30
0
70
128
71
24
72
25
73
40
0
VERTEX
8
OBJECT__29
10
0
20
0
30
0
70
128
71
38
72
36
73
18
0
VERTEX
8
OBJECT__29
10
0
20
0
30
0
70
128
71
37
72
35
73
15
0
VERTEX
8
OBJECT__29
10
0
20
0
30
0
70
128
71
14
72
15
73
35
0
VERTEX
8
OBJECT__29
10
0
20
0
30
0
70
128
71
8
72
14
73
34
0
VERTEX
8
OBJECT__29
10
0
20
0
30
0
70
128
71
32
72
30
73
6
0
VERTEX
8
OBJECT__29
10
0
20
0
30
0
70
128
71
31
72
28
73
1
0
VERTEX
8
OBJECT__29
10
0
20
0
30
0
70
128
71
2
72
1
73
28
0
VERTEX
8
OBJECT__29
10
0
20
0
30
0
70
128
71
26
72
41
73
25
0
VERTEX
8
OBJECT__29
10
0
20
0
30
0
70
128
71
23
72
27
73
24
0
VERTEX
8
OBJECT__29
10
0
20
0
30
0
70
128
71
21
72
22
73
18
0
VERTEX
8
OBJECT__29
10
0
20
0
30
0
70
128
71
16
72
20
73
15
0
VERTEX
8
OBJECT__29
10
0
20
0
30
0
70
128
71
12
72
17
73
14
0
VERTEX
8
OBJECT__29
10
0
20
0
30
0
70
128
71
9
72
13
73
8
0
VERTEX
8
OBJECT__29
10
0
20
0
30
0
70
128
71
7
72
10
73
6
0
VERTEX
8
OBJECT__29
10
0
20
0
30
0
70
128
71
3
72
5
73
1
0
SEQEND
8
OBJECT__29
0
POLYLINE
8
OBJECT__30
66
1
70
64
71
6
72
4
62
253
0
VERTEX
8
OBJECT__30
10
72.500999
20
11.950000
30
-65.070000
70
192
0
VERTEX
8
OBJECT__30
10
72.319000
20
14.813000
30
-65.070000
70
192
0
VERTEX
8
OBJECT__30
10
72.319000
20
14.813000
30
0.000000
70
192
0
VERTEX
8
OBJECT__30
10
71.153000
20
17.450001
30
-65.070000
70
192
0
VERTEX
8
OBJECT__30
10
71.153000
20
17.450001
30
0.000000
70
192
0
VERTEX
8
OBJECT__30
10
72.500999
20
11.950000
30
0.000000
70
192
0
VERTEX
8
OBJECT__30
10
0
20
0
30
0
70
128
71
1
72
2
73
3
0
VERTEX
8
OBJECT__30
10
0
20
0
30
0
70
128
71
3
72
2
73
4
0
VERTEX
8
OBJECT__30
10
0
20
0
30
0
70
128
71
4
72
5
73
3
0
VERTEX
8
OBJECT__30
10
0
20
0
30
0
70
128
71
3
72
6
73
1
0
SEQEND
8
OBJECT__30
0
POLYLINE
8
OBJECT__31
66
1
70
64
71
44
72
50
62
253
0
VERTEX
8
OBJECT__31
10
72.319000
20
-13.920000
30
5.067000
70
192
0
VERTEX
8
OBJECT__31
10
72.319000
20
-14.813000
30
0.000000
70
192
0
VERTEX
8
OBJECT__31
10
72.500999
20
-11.872000
30
1.360000
70
192
0
VERTEX
8
OBJECT__31
10
72.500999
20
-11.950000
30
0.000000
70
192
0
VERTEX
8
OBJECT__31
10
72.500999
20
-11.040000
30
4.574000
70
192
0
VERTEX
8
OBJECT__31
10
72.500999
20
-9.494000
30
7.257000
70
192
0
VERTEX
8
OBJECT__31
10
72.500999
20
-11.170000
30
4.072000
70
192
0
VERTEX
8
OBJECT__31
10
72.319000
20
-11.348000
30
9.522000
70
192
0
VERTEX
8
OBJECT__31
10
72.500999
20
-9.110000
30
7.636000
70
192
0
VERTEX
8
OBJECT__31
10
72.500999
20
-7.128000
30
9.591000
70
192
0
VERTEX
8
OBJECT__31
10
72.319000
20
-7.407000
30
12.829000
70
192
0
VERTEX
8
OBJECT__31
10
72.319000
20
-2.572000
30
14.588000
70
192
0
VERTEX
8
OBJECT__31
10
72.500999
20
-4.218000
30
11.181000
70
192
0
VERTEX
8
OBJECT__31
10
72.500999
20
-5.921000
30
10.251000
70
192
0
VERTEX
8
OBJECT__31
10
72.319000
20
2.572000
30
14.588000
70
192
0
VERTEX
8
OBJECT__31
10
72.500999
20
-0.982000
30
11.910000
70
192
0
VERTEX
8
OBJECT__31
10
72.500999
20
-2.053000
30
11.669000
70
192
0
VERTEX
8
OBJECT__31
10
72.500999
20
2.331000
30
11.721000
70
192
0
VERTEX
8
OBJECT__31
10
72.500999
20
5.271000
30
10.725000
70
192
0
VERTEX
8
OBJECT__31
10
72.319000
20
7.407000
30
12.829000
70
192
0
VERTEX
8
OBJECT__31
10
72.500999
20
2.073000
30
11.735000
70
192
0
VERTEX
8
OBJECT__31
10
72.500999
20
5.928000
30
10.279000
70
192
0
VERTEX
8
OBJECT__31
10
72.500999
20
8.015000
30
8.863000
70
192
0
VERTEX
8
OBJECT__31
10
72.319000
20
11.348000
30
9.522000
70
192
0
VERTEX
8
OBJECT__31
10
72.319000
20
13.920000
30
5.067000
70
192
0
VERTEX
8
OBJECT__31
10
72.500999
20
10.144000
30
6.317000
70
192
0
VERTEX
8
OBJECT__31
10
72.500999
20
9.065000
30
7.607000
70
192
0
VERTEX
8
OBJECT__31
10
72.319000
20
14.813000
30
0.000000
70
192
0
VERTEX
8
OBJECT__31
10
72.500999
20
11.491000
30
3.279000
70
192
0
VERTEX
8
OBJECT__31
10
72.500999
20
11.149000
30
4.051000
70
192
0
VERTEX
8
OBJECT__31
10
71.153000
20
-16.398001
30
5.968000
70
192
0
VERTEX
8
OBJECT__31
10
71.153000
20
-17.450001
30
0.000000
70
192
0
VERTEX
8
OBJECT__31
10
71.153000
20
-13.367000
30
11.217000
70
192
0
VERTEX
8
OBJECT__31
10
71.153000
20
-14.883000
30
8.592000
70
192
0
VERTEX
8
OBJECT__31
10
71.153000
20
-8.725000
30
15.112000
70
192
0
VERTEX
8
OBJECT__31
10
71.153000
20
-3.030000
30
17.184999
70
192
0
VERTEX
8
OBJECT__31
10
71.153000
20
3.030000
30
17.184999
70
192
0
VERTEX
8
OBJECT__31
10
71.153000
20
0.000000
30
17.184999
70
192
0
VERTEX
8
OBJECT__31
10
71.153000
20
8.725000
30
15.112000
70
192
0
VERTEX
8
OBJECT__31
10
71.153000
20
13.367000
30
11.217000
70
192
0
VERTEX
8
OBJECT__31
10
71.153000
20
16.398001
30
5.968000
70
192
0
VERTEX
8
OBJECT__31
10
71.153000
20
14.883000
30
8.592000
70
192
0
VERTEX
8
OBJECT__31
10
71.153000
20
17.450001
30
0.000000
70
192
0
VERTEX
8
OBJECT__31
10
72.500999
20
11.950000
30
0.000000
70
192
0
VERTEX
8
OBJECT__31
10
0
20
0
30
0
70
128
71
1
72
2
73
3
0
VERTEX
8
OBJECT__31
10
0
20
0
30
0
70
128
71
2
72
4
73
3
0
VERTEX
8
OBJECT__31
10
0
20
0
30
0
70
128
71
1
72
5
73
6
0
VERTEX
8
OBJECT__31
10
0
20
0
30
0
70
128
71
1
72
7
73
5
0
VERTEX
8
OBJECT__31
10
0
20
0
30
0
70
128
71
6
72
8
73
1
0
VERTEX
8
OBJECT__31
10
0
20
0
30
0
70
128
71
8
72
9
73
10
0
VERTEX
8
OBJECT__31
10
0
20
0
30
0
70
128
71
10
72
11
73
8
0
VERTEX
8
OBJECT__31
10
0
20
0
30
0
70
128
71
12
72
11
73
13
0
VERTEX
8
OBJECT__31
10
0
20
0
30
0
70
128
71
11
72
14
73
13
0
VERTEX
8
OBJECT__31
10
0
20
0
30
0
70
128
71
15
72
12
73
16
0
VERTEX
8
OBJECT__31
10
0
20
0
30
0
70
128
71
12
72
17
73
16
0
VERTEX
8
OBJECT__31
10
0
20
0
30
0
70
128
71
15
72
18
73
19
0
VERTEX
8
OBJECT__31
10
0
20
0
30
0
70
128
71
19
72
20
73
15
0
VERTEX
8
OBJECT__31
10
0
20
0
30
0
70
128
71
15
72
21
73
18
0
VERTEX
8
OBJECT__31
10
0
20
0
30
0
70
128
71
20
72
22
73
23
0
VERTEX
8
OBJECT__31
10
0
20
0
30
0
70
128
71
23
72
24
73
20
0
VERTEX
8
OBJECT__31
10
0
20
0
30
0
70
128
71
25
72
24
73
26
0
VERTEX
8
OBJECT__31
10
0
20
0
30
0
70
128
71
24
72
27
73
26
0
VERTEX
8
OBJECT__31
10
0
20
0
30
0
70
128
71
28
72
25
73
29
0
VERTEX
8
OBJECT__31
10
0
20
0
30
0
70
128
71
25
72
30
73
29
0
VERTEX
8
OBJECT__31
10
0
20
0
30
0
70
128
71
31
72
32
73
2
0
VERTEX
8
OBJECT__31
10
0
20
0
30
0
70
128
71
8
72
33
73
34
0
VERTEX
8
OBJECT__31
10
0
20
0
30
0
70
128
71
34
72
1
73
8
0
VERTEX
8
OBJECT__31
10
0
20
0
30
0
70
128
71
35
72
33
73
8
0
VERTEX
8
OBJECT__31
10
0
20
0
30
0
70
128
71
36
72
35
73
11
0
VERTEX
8
OBJECT__31
10
0
20
0
30
0
70
128
71
15
72
37
73
38
0
VERTEX
8
OBJECT__31
10
0
20
0
30
0
70
128
71
38
72
12
73
15
0
VERTEX
8
OBJECT__31
10
0
20
0
30
0
70
128
71
39
72
37
73
15
0
VERTEX
8
OBJECT__31
10
0
20
0
30
0
70
128
71
40
72
39
73
20
0
VERTEX
8
OBJECT__31
10
0
20
0
30
0
70
128
71
25
72
41
73
42
0
VERTEX
8
OBJECT__31
10
0
20
0
30
0
70
128
71
42
72
24
73
25
0
VERTEX
8
OBJECT__31
10
0
20
0
30
0
70
128
71
43
72
41
73
25
0
VERTEX
8
OBJECT__31
10
0
20
0
30
0
70
128
71
25
72
28
73
43
0
VERTEX
8
OBJECT__31
10
0
20
0
30
0
70
128
71
42
72
40
73
24
0
VERTEX
8
OBJECT__31
10
0
20
0
30
0
70
128
71
20
72
24
73
40
0
VERTEX
8
OBJECT__31
10
0
20
0
30
0
70
128
71
15
72
20
73
39
0
VERTEX
8
OBJECT__31
10
0
20
0
30
0
70
128
71
38
72
36
73
12
0
VERTEX
8
OBJECT__31
10
0
20
0
30
0
70
128
71
11
72
12
73
36
0
VERTEX
8
OBJECT__31
10
0
20
0
30
0
70
128
71
8
72
11
73
35
0
VERTEX
8
OBJECT__31
10
0
20
0
30
0
70
128
71
34
72
31
73
1
0
VERTEX
8
OBJECT__31
10
0
20
0
30
0
70
128
71
2
72
1
73
31
0
VERTEX
8
OBJECT__31
10
0
20
0
30
0
70
128
71
29
72
44
73
28
0
VERTEX
8
OBJECT__31
10
0
20
0
30
0
70
128
71
26
72
30
73
25
0
VERTEX
8
OBJECT__31
10
0
20
0
30
0
70
128
71
23
72
27
73
24
0
VERTEX
8
OBJECT__31
10
0
20
0
30
0
70
128
71
19
72
22
73
20
0
VERTEX
8
OBJECT__31
10
0
20
0
30
0
70
128
71
16
72
21
73
15
0
VERTEX
8
OBJECT__31
10
0
20
0
30
0
70
128
71
13
72
17
73
12
0
VERTEX
8
OBJECT__31
10
0
20
0
30
0
70
128
71
10
72
14
73
11
0
VERTEX
8
OBJECT__31
10
0
20
0
30
0
70
128
71
6
72
9
73
8
0
VERTEX
8
OBJECT__31
10
0
20
0
30
0
70
128
71
3
72
7
73
1
0
SEQEND
8
OBJECT__31
0
POLYLINE
8
OBJECT__32
66
1
70
64
71
40
72
38
62
253
0
VERTEX
8
OBJECT__32
10
72.500999
20
-9.110000
30
7.636000
70
192
0
VERTEX
8
OBJECT__32
10
72.500999
20
-11.950000
30
0.000000
70
192
0
VERTEX
8
OBJECT__32
10
72.500999
20
-11.950000
30
-65.070000
70
192
0
VERTEX
8
OBJECT__32
10
72.500999
20
8.369000
30
-73.436996
70
192
0
VERTEX
8
OBJECT__32
10
72.500999
20
11.950000
30
-65.070000
70
192
0
VERTEX
8
OBJECT__32
10
72.500999
20
11.950000
30
0.000000
70
192
0
VERTEX
8
OBJECT__32
10
72.500999
20
-10.938000
30
-69.597000
70
192
0
VERTEX
8
OBJECT__32
10
72.500999
20
-11.170000
30
4.072000
70
192
0
VERTEX
8
OBJECT__32
10
72.500999
20
-11.872000
30
1.360000
70
192
0
VERTEX
8
OBJECT__32
10
72.500999
20
11.149000
30
4.051000
70
192
0
VERTEX
8
OBJECT__32
10
72.500999
20
11.040000
30
-69.642998
70
192
0
VERTEX
8
OBJECT__32
10
72.500999
20
11.872000
30
-66.430000
70
192
0
VERTEX
8
OBJECT__32
10
72.500999
20
0.005000
30
-76.924004
70
192
0
VERTEX
8
OBJECT__32
10
72.500999
20
0.982000
30
-76.980003
70
192
0
VERTEX
8
OBJECT__32
10
72.500999
20
-9.494000
30
7.257000
70
192
0
VERTEX
8
OBJECT__32
10
72.500999
20
-11.040000
30
4.574000
70
192
0
VERTEX
8
OBJECT__32
10
72.500999
20
-8.398000
30
-73.475998
70
192
0
VERTEX
8
OBJECT__32
10
72.500999
20
-2.053000
30
11.669000
70
192
0
VERTEX
8
OBJECT__32
10
72.500999
20
-4.218000
30
11.181000
70
192
0
VERTEX
8
OBJECT__32
10
72.500999
20
2.073000
30
11.735000
70
192
0
VERTEX
8
OBJECT__32
10
72.500999
20
-0.982000
30
11.910000
70
192
0
VERTEX
8
OBJECT__32
10
72.500999
20
9.494000
30
-72.327003
70
192
0
VERTEX
8
OBJECT__32
10
72.500999
20
4.551000
30
-76.069000
70
192
0
VERTEX
8
OBJECT__32
10
72.500999
20
7.128000
30
-74.661003
70
192
0
VERTEX
8
OBJECT__32
10
72.500999
20
4.218000
30
-76.250999
70
192
0
VERTEX
8
OBJECT__32
10
72.500999
20
-10.144000
30
-71.387001
70
192
0
VERTEX
8
OBJECT__32
10
72.500999
20
-5.921000
30
10.251000
70
192
0
VERTEX
8
OBJECT__32
10
72.500999
20
-7.128000
30
9.591000
70
192
0
VERTEX
8
OBJECT__32
10
72.500999
20
9.065000
30
7.607000
70
192
0
VERTEX
8
OBJECT__32
10
72.500999
20
8.015000
30
8.863000
70
192
0
VERTEX
8
OBJECT__32
10
72.500999
20
10.144000
30
6.317000
70
192
0
VERTEX
8
OBJECT__32
10
72.500999
20
5.271000
30
10.725000
70
192
0
VERTEX
8
OBJECT__32
10
72.500999
20
-8.015000
30
-73.932999
70
192
0
VERTEX
8
OBJECT__32
10
72.500999
20
-11.491000
30
-68.348999
70
192
0
VERTEX
8
OBJECT__32
10
72.500999
20
-4.549000
30
-76.039001
70
192
0
VERTEX
8
OBJECT__32
10
72.500999
20
-2.331000
30
-76.791000
70
192
0
VERTEX
8
OBJECT__32
10
72.500999
20
-5.271000
30
-75.794998
70
192
0
VERTEX
8
OBJECT__32
10
72.500999
20
2.331000
30
11.721000
70
192
0
VERTEX
8
OBJECT__32
10
72.500999
20
11.491000
30
3.279000
70
192
0
VERTEX
8
OBJECT__32
10
72.500999
20
5.928000
30
10.279000
70
192
0
VERTEX
8
OBJECT__32
10
0
20
0
30
0
70
128
71
1
72
2
73
3
0
VERTEX
8
OBJECT__32
10
0
20
0
30
0
70
128
71
4
72
5
73
6
0
VERTEX
8
OBJECT__32
10
0
20
0
30
0
70
128
71
3
72
7
73
1
0
VERTEX
8
OBJECT__32
10
0
20
0
30
0
70
128
71
1
72
8
73
9
0
VERTEX
8
OBJECT__32
10
0
20
0
30
0
70
128
71
6
72
10
73
4
0
VERTEX
8
OBJECT__32
10
0
20
0
30
0
70
128
71
4
72
11
73
12
0
VERTEX
8
OBJECT__32
10
0
20
0
30
0
70
128
71
10
72
13
73
14
0
VERTEX
8
OBJECT__32
10
0
20
0
30
0
70
128
71
9
72
2
73
1
0
VERTEX
8
OBJECT__32
10
0
20
0
30
0
70
128
71
1
72
15
73
16
0
VERTEX
8
OBJECT__32
10
0
20
0
30
0
70
128
71
17
72
18
73
19
0
VERTEX
8
OBJECT__32
10
0
20
0
30
0
70
128
71
17
72
20
73
21
0
VERTEX
8
OBJECT__32
10
0
20
0
30
0
70
128
71
12
72
5
73
4
0
VERTEX
8
OBJECT__32
10
0
20
0
30
0
70
128
71
4
72
22
73
11
0
VERTEX
8
OBJECT__32
10
0
20
0
30
0
70
128
71
10
72
23
73
24
0
VERTEX
8
OBJECT__32
10
0
20
0
30
0
70
128
71
14
72
25
73
10
0
VERTEX
8
OBJECT__32
10
0
20
0
30
0
70
128
71
1
72
7
73
26
0
VERTEX
8
OBJECT__32
10
0
20
0
30
0
70
128
71
16
72
8
73
1
0
VERTEX
8
OBJECT__32
10
0
20
0
30
0
70
128
71
17
72
27
73
28
0
VERTEX
8
OBJECT__32
10
0
20
0
30
0
70
128
71
21
72
18
73
17
0
VERTEX
8
OBJECT__32
10
0
20
0
30
0
70
128
71
13
72
29
73
30
0
VERTEX
8
OBJECT__32
10
0
20
0
30
0
70
128
71
13
72
10
73
31
0
VERTEX
8
OBJECT__32
10
0
20
0
30
0
70
128
71
25
72
23
73
10
0
VERTEX
8
OBJECT__32
10
0
20
0
30
0
70
128
71
32
72
17
73
33
0
VERTEX
8
OBJECT__32
10
0
20
0
30
0
70
128
71
3
72
34
73
7
0
VERTEX
8
OBJECT__32
10
0
20
0
30
0
70
128
71
19
72
27
73
17
0
VERTEX
8
OBJECT__32
10
0
20
0
30
0
70
128
71
31
72
29
73
13
0
VERTEX
8
OBJECT__32
10
0
20
0
30
0
70
128
71
24
72
4
73
10
0
VERTEX
8
OBJECT__32
10
0
20
0
30
0
70
128
71
32
72
35
73
36
0
VERTEX
8
OBJECT__32
10
0
20
0
30
0
70
128
71
33
72
37
73
32
0
VERTEX
8
OBJECT__32
10
0
20
0
30
0
70
128
71
28
72
1
73
17
0
VERTEX
8
OBJECT__32
10
0
20
0
30
0
70
128
71
17
72
32
73
38
0
VERTEX
8
OBJECT__32
10
0
20
0
30
0
70
128
71
6
72
39
73
10
0
VERTEX
8
OBJECT__32
10
0
20
0
30
0
70
128
71
37
72
35
73
32
0
VERTEX
8
OBJECT__32
10
0
20
0
30
0
70
128
71
38
72
20
73
17
0
VERTEX
8
OBJECT__32
10
0
20
0
30
0
70
128
71
30
72
40
73
13
0
VERTEX
8
OBJECT__32
10
0
20
0
30
0
70
128
71
26
72
17
73
1
0
VERTEX
8
OBJECT__32
10
0
20
0
30
0
70
128
71
36
72
13
73
32
0
VERTEX
8
OBJECT__32
10
0
20
0
30
0
70
128
71
40
72
32
73
13
0
SEQEND
8
OBJECT__32
0
POLYLINE
8
OBJECT__33
66
1
70
64
71
76
72
76
62
253
0
VERTEX
8
OBJECT__33
10
44.834000
20
0.841000
30
14.811000
70
192
0
VERTEX
8
OBJECT__33
10
44.834000
20
4.441000
30
14.140000
70
192
0
VERTEX
8
OBJECT__33
10
44.433998
20
2.952000
30
14.937000
70
192
0
VERTEX
8
OBJECT__33
10
44.433998
20
5.742000
30
14.014000
70
192
0
VERTEX
8
OBJECT__33
10
44.433998
20
-0.005000
30
15.162000
70
192
0
VERTEX
8
OBJECT__33
10
44.834000
20
0.007000
30
14.752000
70
192
0
VERTEX
8
OBJECT__33
10
44.433998
20
-5.846000
30
-14.051000
70
192
0
VERTEX
8
OBJECT__33
10
44.433998
20
-2.244000
30
-15.063000
70
192
0
VERTEX
8
OBJECT__33
10
44.834000
20
-3.624000
30
-14.374000
70
192
0
VERTEX
8
OBJECT__33
10
44.834000
20
-5.652000
30
-13.578000
70
192
0
VERTEX
8
OBJECT__33
10
44.834000
20
-0.001000
30
-14.836000
70
192
0
VERTEX
8
OBJECT__33
10
44.433998
20
-0.001000
30
-15.236000
70
192
0
VERTEX
8
OBJECT__33
10
44.433998
20
14.371000
30
-5.010000
70
192
0
VERTEX
8
OBJECT__33
10
44.433998
20
15.174000
30
-1.346000
70
192
0
VERTEX
8
OBJECT__33
10
44.834000
20
14.548000
30
-2.860000
70
192
0
VERTEX
8
OBJECT__33
10
44.834000
20
13.655000
30
-5.558000
70
192
0
VERTEX
8
OBJECT__33
10
44.433998
20
14.031000
30
-5.699000
70
192
0
VERTEX
8
OBJECT__33
10
44.834000
20
14.771000
30
-0.034000
70
192
0
VERTEX
8
OBJECT__33
10
44.433998
20
15.125000
30
-0.044000
70
192
0
VERTEX
8
OBJECT__33
10
44.433998
20
14.088000
30
5.757000
70
192
0
VERTEX
8
OBJECT__33
10
44.433998
20
12.215000
30
9.096000
70
192
0
VERTEX
8
OBJECT__33
10
44.834000
20
12.730000
30
7.593000
70
192
0
VERTEX
8
OBJECT__33
10
44.834000
20
13.621000
30
5.564000
70
192
0
VERTEX
8
OBJECT__33
10
44.834000
20
10.483000
30
10.499000
70
192
0
VERTEX
8
OBJECT__33
10
44.433998
20
10.679000
30
10.699000
70
192
0
VERTEX
8
OBJECT__33
10
44.433998
20
9.595000
30
11.831000
70
192
0
VERTEX
8
OBJECT__33
10
44.433998
20
6.485000
30
13.769000
70
192
0
VERTEX
8
OBJECT__33
10
44.834000
20
7.853000
30
12.574000
70
192
0
VERTEX
8
OBJECT__33
10
44.834000
20
5.571000
30
13.621000
70
192
0
VERTEX
8
OBJECT__33
10
44.433998
20
15.031000
30
2.445000
70
192
0
VERTEX
8
OBJECT__33
10
44.834000
20
14.200000
30
4.246000
70
192
0
VERTEX
8
OBJECT__33
10
44.834000
20
14.823000
30
0.618000
70
192
0
VERTEX
8
OBJECT__33
10
44.433998
20
7.202000
30
-13.409000
70
192
0
VERTEX
8
OBJECT__33
10
44.433998
20
10.315000
30
-11.212000
70
192
0
VERTEX
8
OBJECT__33
10
44.834000
20
8.581000
30
-12.093000
70
192
0
VERTEX
8
OBJECT__33
10
44.834000
20
5.691000
30
-13.682000
70
192
0
VERTEX
8
OBJECT__33
10
44.433998
20
5.805000
30
-13.949000
70
192
0
VERTEX
8
OBJECT__33
10
44.834000
20
10.508000
30
-10.321000
70
192
0
VERTEX
8
OBJECT__33
10
44.433998
20
10.808000
30
-10.631000
70
192
0
VERTEX
8
OBJECT__33
10
44.834000
20
13.399000
30
-6.331000
70
192
0
VERTEX
8
OBJECT__33
10
44.834000
20
11.363000
30
-9.535000
70
192
0
VERTEX
8
OBJECT__33
10
44.433998
20
12.697000
30
-8.404000
70
192
0
VERTEX
8
OBJECT__33
10
44.433998
20
3.671000
30
-14.774000
70
192
0
VERTEX
8
OBJECT__33
10
44.834000
20
2.134000
30
-14.676000
70
192
0
VERTEX
8
OBJECT__33
10
44.433998
20
-14.555000
30
4.453000
70
192
0
VERTEX
8
OBJECT__33
10
44.433998
20
-15.215000
30
0.780000
70
192
0
VERTEX
8
OBJECT__33
10
44.834000
20
-14.624000
30
2.452000
70
192
0
VERTEX
8
OBJECT__33
10
44.834000
20
-13.717000
30
5.608000
70
192
0
VERTEX
8
OBJECT__33
10
44.433998
20
-13.993000
30
5.717000
70
192
0
VERTEX
8
OBJECT__33
10
44.834000
20
-14.727000
30
-0.041000
70
192
0
VERTEX
8
OBJECT__33
10
44.433998
20
-15.156000
30
-0.032000
70
192
0
VERTEX
8
OBJECT__33
10
44.433998
20
-13.760000
30
-6.502000
70
192
0
VERTEX
8
OBJECT__33
10
44.433998
20
-11.702000
30
-9.754000
70
192
0
VERTEX
8
OBJECT__33
10
44.834000
20
-12.398000
30
-8.129000
70
192
0
VERTEX
8
OBJECT__33
10
44.834000
20
-13.667000
30
-5.550000
70
192
0
VERTEX
8
OBJECT__33
10
44.433998
20
-14.023000
30
-5.706000
70
192
0
VERTEX
8
OBJECT__33
10
44.834000
20
-10.535000
30
-10.360000
70
192
0
VERTEX
8
OBJECT__33
10
44.433998
20
-10.792000
30
-10.598000
70
192
0
VERTEX
8
OBJECT__33
10
44.834000
20
-10.155000
30
-10.815000
70
192
0
VERTEX
8
OBJECT__33
10
44.433998
20
-8.894000
30
-12.362000
70
192
0
VERTEX
8
OBJECT__33
10
44.834000
20
-7.106000
30
-13.007000
70
192
0
VERTEX
8
OBJECT__33
10
44.834000
20
-13.986000
30
-4.900000
70
192
0
VERTEX
8
OBJECT__33
10
44.834000
20
-14.778000
30
-1.285000
70
192
0
VERTEX
8
OBJECT__33
10
44.433998
20
-14.947000
30
-2.902000
70
192
0
VERTEX
8
OBJECT__33
10
44.433998
20
-7.864000
30
13.035000
70
192
0
VERTEX
8
OBJECT__33
10
44.433998
20
-10.765000
30
10.783000
70
192
0
VERTEX
8
OBJECT__33
10
44.834000
20
-9.266000
30
11.582000
70
192
0
VERTEX
8
OBJECT__33
10
44.834000
20
-6.182000
30
13.468000
70
192
0
VERTEX
8
OBJECT__33
10
44.433998
20
-5.719000
30
13.986000
70
192
0
VERTEX
8
OBJECT__33
10
44.834000
20
-10.395000
30
10.416000
70
192
0
VERTEX
8
OBJECT__33
10
44.433998
20
-13.051000
30
7.836000
70
192
0
VERTEX
8
OBJECT__33
10
44.834000
20
-11.863000
30
8.899000
70
192
0
VERTEX
8
OBJECT__33
10
44.433998
20
-0.740000
30
15.217000
70
192
0
VERTEX
8
OBJECT__33
10
44.433998
20
-4.391000
30
14.574000
70
192
0
VERTEX
8
OBJECT__33
10
44.834000
20
-2.846000
30
14.551000
70
192
0
VERTEX
8
OBJECT__33
10
44.834000
20
-5.594000
30
13.659000
70
192
0
VERTEX
8
OBJECT__33
10
0
20
0
30
0
70
128
71
1
72
2
73
3
0
VERTEX
8
OBJECT__33
10
0
20
0
30
0
70
128
71
2
72
4
73
3
0
VERTEX
8
OBJECT__33
10
0
20
0
30
0
70
128
71
3
72
5
73
1
0
VERTEX
8
OBJECT__33
10
0
20
0
30
0
70
128
71
5
72
6
73
1
0
VERTEX
8
OBJECT__33
10
0
20
0
30
0
70
128
71
7
72
8
73
9
0
VERTEX
8
OBJECT__33
10
0
20
0
30
0
70
128
71
11
72
9
73
8
0
VERTEX
8
OBJECT__33
10
0
20
0
30
0
70
128
71
8
72
12
73
11
0
VERTEX
8
OBJECT__33
10
0
20
0
30
0
70
128
71
13
72
14
73
15
0
VERTEX
8
OBJECT__33
10
0
20
0
30
0
70
128
71
16
72
17
73
13
0
VERTEX
8
OBJECT__33
10
0
20
0
30
0
70
128
71
18
72
15
73
14
0
VERTEX
8
OBJECT__33
10
0
20
0
30
0
70
128
71
14
72
19
73
18
0
VERTEX
8
OBJECT__33
10
0
20
0
30
0
70
128
71
20
72
21
73
22
0
VERTEX
8
OBJECT__33
10
0
20
0
30
0
70
128
71
24
72
22
73
21
0
VERTEX
8
OBJECT__33
10
0
20
0
30
0
70
128
71
21
72
25
73
24
0
VERTEX
8
OBJECT__33
10
0
20
0
30
0
70
128
71
26
72
27
73
28
0
VERTEX
8
OBJECT__33
10
0
20
0
30
0
70
128
71
24
72
25
73
26
0
VERTEX
8
OBJECT__33
10
0
20
0
30
0
70
128
71
29
72
28
73
27
0
VERTEX
8
OBJECT__33
10
0
20
0
30
0
70
128
71
27
72
4
73
29
0
VERTEX
8
OBJECT__33
10
0
20
0
30
0
70
128
71
30
72
20
73
31
0
VERTEX
8
OBJECT__33
10
0
20
0
30
0
70
128
71
32
72
19
73
30
0
VERTEX
8
OBJECT__33
10
0
20
0
30
0
70
128
71
20
72
23
73
31
0
VERTEX
8
OBJECT__33
10
0
20
0
30
0
70
128
71
31
72
32
73
30
0
VERTEX
8
OBJECT__33
10
0
20
0
30
0
70
128
71
33
72
34
73
35
0
VERTEX
8
OBJECT__33
10
0
20
0
30
0
70
128
71
36
72
37
73
33
0
VERTEX
8
OBJECT__33
10
0
20
0
30
0
70
128
71
38
72
35
73
34
0
VERTEX
8
OBJECT__33
10
0
20
0
30
0
70
128
71
34
72
39
73
38
0
VERTEX
8
OBJECT__33
10
0
20
0
30
0
70
128
71
40
72
41
73
42
0
VERTEX
8
OBJECT__33
10
0
20
0
30
0
70
128
71
41
72
39
73
42
0
VERTEX
8
OBJECT__33
10
0
20
0
30
0
70
128
71
17
72
16
73
40
0
VERTEX
8
OBJECT__33
10
0
20
0
30
0
70
128
71
42
72
17
73
40
0
VERTEX
8
OBJECT__33
10
0
20
0
30
0
70
128
71
12
72
43
73
44
0
VERTEX
8
OBJECT__33
10
0
20
0
30
0
70
128
71
36
72
44
73
43
0
VERTEX
8
OBJECT__33
10
0
20
0
30
0
70
128
71
43
72
37
73
36
0
VERTEX
8
OBJECT__33
10
0
20
0
30
0
70
128
71
45
72
46
73
47
0
VERTEX
8
OBJECT__33
10
0
20
0
30
0
70
128
71
48
72
49
73
45
0
VERTEX
8
OBJECT__33
10
0
20
0
30
0
70
128
71
50
72
47
73
46
0
VERTEX
8
OBJECT__33
10
0
20
0
30
0
70
128
71
46
72
51
73
50
0
VERTEX
8
OBJECT__33
10
0
20
0
30
0
70
128
71
52
72
53
73
54
0
VERTEX
8
OBJECT__33
10
0
20
0
30
0
70
128
71
55
72
56
73
52
0
VERTEX
8
OBJECT__33
10
0
20
0
30
0
70
128
71
57
72
54
73
53
0
VERTEX
8
OBJECT__33
10
0
20
0
30
0
70
128
71
53
72
58
73
57
0
VERTEX
8
OBJECT__33
10
0
20
0
30
0
70
128
71
59
72
58
73
60
0
VERTEX
8
OBJECT__33
10
0
20
0
30
0
70
128
71
60
72
61
73
59
0
VERTEX
8
OBJECT__33
10
0
20
0
30
0
70
128
71
7
72
10
73
61
0
VERTEX
8
OBJECT__33
10
0
20
0
30
0
70
128
71
60
72
7
73
61
0
VERTEX
8
OBJECT__33
10
0
20
0
30
0
70
128
71
62
72
63
73
64
0
VERTEX
8
OBJECT__33
10
0
20
0
30
0
70
128
71
63
72
51
73
64
0
VERTEX
8
OBJECT__33
10
0
20
0
30
0
70
128
71
56
72
55
73
62
0
VERTEX
8
OBJECT__33
10
0
20
0
30
0
70
128
71
64
72
56
73
62
0
VERTEX
8
OBJECT__33
10
0
20
0
30
0
70
128
71
65
72
66
73
67
0
VERTEX
8
OBJECT__33
10
0
20
0
30
0
70
128
71
68
72
69
73
65
0
VERTEX
8
OBJECT__33
10
0
20
0
30
0
70
128
71
67
72
68
73
65
0
VERTEX
8
OBJECT__33
10
0
20
0
30
0
70
128
71
66
72
70
73
67
0
VERTEX
8
OBJECT__33
10
0
20
0
30
0
70
128
71
66
72
71
73
72
0
VERTEX
8
OBJECT__33
10
0
20
0
30
0
70
128
71
48
72
72
73
71
0
VERTEX
8
OBJECT__33
10
0
20
0
30
0
70
128
71
71
72
49
73
48
0
VERTEX
8
OBJECT__33
10
0
20
0
30
0
70
128
71
73
72
74
73
75
0
VERTEX
8
OBJECT__33
10
0
20
0
30
0
70
128
71
6
72
5
73
73
0
VERTEX
8
OBJECT__33
10
0
20
0
30
0
70
128
71
76
72
75
73
74
0
VERTEX
8
OBJECT__33
10
0
20
0
30
0
70
128
71
74
72
69
73
76
0
VERTEX
8
OBJECT__33
10
0
20
0
30
0
70
128
71
75
72
6
73
73
0
VERTEX
8
OBJECT__33
10
0
20
0
30
0
70
128
71
72
72
70
73
66
0
VERTEX
8
OBJECT__33
10
0
20
0
30
0
70
128
71
68
72
76
73
69
0
VERTEX
8
OBJECT__33
10
0
20
0
30
0
70
128
71
63
72
50
73
51
0
VERTEX
8
OBJECT__33
10
0
20
0
30
0
70
128
71
59
72
57
73
58
0
VERTEX
8
OBJECT__33
10
0
20
0
30
0
70
128
71
54
72
55
73
52
0
VERTEX
8
OBJECT__33
10
0
20
0
30
0
70
128
71
47
72
48
73
45
0
VERTEX
8
OBJECT__33
10
0
20
0
30
0
70
128
71
44
72
11
73
12
0
VERTEX
8
OBJECT__33
10
0
20
0
30
0
70
128
71
41
72
38
73
39
0
VERTEX
8
OBJECT__33
10
0
20
0
30
0
70
128
71
35
72
36
73
33
0
VERTEX
8
OBJECT__33
10
0
20
0
30
0
70
128
71
32
72
18
73
19
0
VERTEX
8
OBJECT__33
10
0
20
0
30
0
70
128
71
28
72
24
73
26
0
VERTEX
8
OBJECT__33
10
0
20
0
30
0
70
128
71
22
72
23
73
20
0
VERTEX
8
OBJECT__33
10
0
20
0
30
0
70
128
71
15
72
16
73
13
0
VERTEX
8
OBJECT__33
10
0
20
0
30
0
70
128
71
9
72
10
73
7
0
VERTEX
8
OBJECT__33
10
0
20
0
30
0
70
128
71
2
72
29
73
4
0
SEQEND
8
OBJECT__33
0
POLYLINE
8
OBJECT__34
66
1
70
64
71
38
72
36
62
253
0
VERTEX
8
OBJECT__34
10
44.834000
20
-5.652000
30
-13.578000
70
192
0
VERTEX
8
OBJECT__34
10
44.834000
20
5.691000
30
-13.682000
70
192
0
VERTEX
8
OBJECT__34
10
44.834000
20
8.581000
30
-12.093000
70
192
0
VERTEX
8
OBJECT__34
10
44.834000
20
10.508000
30
-10.321000
70
192
0
VERTEX
8
OBJECT__34
10
44.834000
20
-10.535000
30
-10.360000
70
192
0
VERTEX
8
OBJECT__34
10
44.834000
20
-10.155000
30
-10.815000
70
192
0
VERTEX
8
OBJECT__34
10
44.834000
20
-13.667000
30
-5.550000
70
192
0
VERTEX
8
OBJECT__34
10
44.834000
20
11.363000
30
-9.535000
70
192
0
VERTEX
8
OBJECT__34
10
44.834000
20
2.134000
30
-14.676000
70
192
0
VERTEX
8
OBJECT__34
10
44.834000
20
-3.624000
30
-14.374000
70
192
0
VERTEX
8
OBJECT__34
10
44.834000
20
-0.001000
30
-14.836000
70
192
0
VERTEX
8
OBJECT__34
10
44.834000
20
-7.106000
30
-13.007000
70
192
0
VERTEX
8
OBJECT__34
10
44.834000
20
-12.398000
30
-8.129000
70
192
0
VERTEX
8
OBJECT__34
10
44.834000
20
14.771000
30
-0.034000
70
192
0
VERTEX
8
OBJECT__34
10
44.834000
20
-6.182000
30
13.468000
70
192
0
VERTEX
8
OBJECT__34
10
44.834000
20
-9.266000
30
11.582000
70
192
0
VERTEX
8
OBJECT__34
10
44.834000
20
13.621000
30
5.564000
70
192
0
VERTEX
8
OBJECT__34
10
44.834000
20
4.441000
30
14.140000
70
192
0
VERTEX
8
OBJECT__34
10
44.834000
20
0.841000
30
14.811000
70
192
0
VERTEX
8
OBJECT__34
10
44.834000
20
7.853000
30
12.574000
70
192
0
VERTEX
8
OBJECT__34
10
44.834000
20
12.730000
30
7.593000
70
192
0
VERTEX
8
OBJECT__34
10
44.834000
20
13.655000
30
-5.558000
70
192
0
VERTEX
8
OBJECT__34
10
44.834000
20
14.548000
30
-2.860000
70
192
0
VERTEX
8
OBJECT__34
10
44.834000
20
13.399000
30
-6.331000
70
192
0
VERTEX
8
OBJECT__34
10
44.834000
20
-13.717000
30
5.608000
70
192
0
VERTEX
8
OBJECT__34
10
44.834000
20
-14.624000
30
2.452000
70
192
0
VERTEX
8
OBJECT__34
10
44.834000
20
-10.395000
30
10.416000
70
192
0
VERTEX
8
OBJECT__34
10
44.834000
20
-11.863000
30
8.899000
70
192
0
VERTEX
8
OBJECT__34
10
44.834000
20
-5.594000
30
13.659000
70
192
0
VERTEX
8
OBJECT__34
10
44.834000
20
0.007000
30
14.752000
70
192
0
VERTEX
8
OBJECT__34
10
44.834000
20
-2.846000
30
14.551000
70
192
0
VERTEX
8
OBJECT__34
10
44.834000
20
5.571000
30
13.621000
70
192
0
VERTEX
8
OBJECT__34
10
44.834000
20
10.483000
30
10.499000
70
192
0
VERTEX
8
OBJECT__34
10
44.834000
20
14.823000
30
0.618000
70
192
0
VERTEX
8
OBJECT__34
10
44.834000
20
-14.727000
30
-0.041000
70
192
0
VERTEX
8
OBJECT__34
10
44.834000
20
-14.778000
30
-1.285000
70
192
0
VERTEX
8
OBJECT__34
10
44.834000
20
14.200000
30
4.246000
70
192
0
VERTEX
8
OBJECT__34
10
44.834000
20
-13.986000
30
-4.900000
70
192
0
VERTEX
8
OBJECT__34
10
0
20
0
30
0
70
128
71
1
72
2
73
3
0
VERTEX
8
OBJECT__34
10
0
20
0
30
0
70
128
71
4
72
5
73
6
0
VERTEX
8
OBJECT__34
10
0
20
0
30
0
70
128
71
7
72
4
73
8
0
VERTEX
8
OBJECT__34
10
0
20
0
30
0
70
128
71
1
72
9
73
2
0
VERTEX
8
OBJECT__34
10
0
20
0
30
0
70
128
71
1
72
10
73
11
0
VERTEX
8
OBJECT__34
10
0
20
0
30
0
70
128
71
6
72
12
73
4
0
VERTEX
8
OBJECT__34
10
0
20
0
30
0
70
128
71
4
72
7
73
13
0
VERTEX
8
OBJECT__34
10
0
20
0
30
0
70
128
71
14
72
15
73
16
0
VERTEX
8
OBJECT__34
10
0
20
0
30
0
70
128
71
17
72
18
73
19
0
VERTEX
8
OBJECT__34
10
0
20
0
30
0
70
128
71
20
72
17
73
21
0
VERTEX
8
OBJECT__34
10
0
20
0
30
0
70
128
71
7
72
22
73
23
0
VERTEX
8
OBJECT__34
10
0
20
0
30
0
70
128
71
8
72
24
73
7
0
VERTEX
8
OBJECT__34
10
0
20
0
30
0
70
128
71
11
72
9
73
1
0
VERTEX
8
OBJECT__34
10
0
20
0
30
0
70
128
71
13
72
5
73
4
0
VERTEX
8
OBJECT__34
10
0
20
0
30
0
70
128
71
14
72
25
73
26
0
VERTEX
8
OBJECT__34
10
0
20
0
30
0
70
128
71
14
72
27
73
28
0
VERTEX
8
OBJECT__34
10
0
20
0
30
0
70
128
71
14
72
29
73
15
0
VERTEX
8
OBJECT__34
10
0
20
0
30
0
70
128
71
14
72
30
73
31
0
VERTEX
8
OBJECT__34
10
0
20
0
30
0
70
128
71
17
72
32
73
18
0
VERTEX
8
OBJECT__34
10
0
20
0
30
0
70
128
71
21
72
33
73
20
0
VERTEX
8
OBJECT__34
10
0
20
0
30
0
70
128
71
30
72
14
73
34
0
VERTEX
8
OBJECT__34
10
0
20
0
30
0
70
128
71
24
72
22
73
7
0
VERTEX
8
OBJECT__34
10
0
20
0
30
0
70
128
71
12
72
1
73
4
0
VERTEX
8
OBJECT__34
10
0
20
0
30
0
70
128
71
14
72
35
73
36
0
VERTEX
8
OBJECT__34
10
0
20
0
30
0
70
128
71
28
72
25
73
14
0
VERTEX
8
OBJECT__34
10
0
20
0
30
0
70
128
71
31
72
29
73
14
0
VERTEX
8
OBJECT__34
10
0
20
0
30
0
70
128
71
20
72
32
73
17
0
VERTEX
8
OBJECT__34
10
0
20
0
30
0
70
128
71
34
72
37
73
30
0
VERTEX
8
OBJECT__34
10
0
20
0
30
0
70
128
71
3
72
4
73
1
0
VERTEX
8
OBJECT__34
10
0
20
0
30
0
70
128
71
36
72
38
73
14
0
VERTEX
8
OBJECT__34
10
0
20
0
30
0
70
128
71
16
72
27
73
14
0
VERTEX
8
OBJECT__34
10
0
20
0
30
0
70
128
71
37
72
17
73
30
0
VERTEX
8
OBJECT__34
10
0
20
0
30
0
70
128
71
38
72
7
73
14
0
VERTEX
8
OBJECT__34
10
0
20
0
30
0
70
128
71
19
72
30
73
17
0
VERTEX
8
OBJECT__34
10
0
20
0
30
0
70
128
71
26
72
35
73
14
0
VERTEX
8
OBJECT__34
10
0
20
0
30
0
70
128
71
23
72
14
73
7
0
SEQEND
8
OBJECT__34
0
POLYLINE
8
OBJECT__36
66
1
70
64
71
43
72
41
62
253
0
VERTEX
8
OBJECT__36
10
44.647999
20
-15.236000
30
0.001000
70
192
0
VERTEX
8
OBJECT__36
10
44.834000
20
-15.232000
30
-0.002000
70
192
0
VERTEX
8
OBJECT__36
10
44.834000
20
-15.270000
30
-1.497000
70
192
0
VERTEX
8
OBJECT__36
10
44.647999
20
-14.005000
30
-5.806000
70
192
0
VERTEX
8
OBJECT__36
10
44.647999
20
-14.943000
30
-2.971000
70
192
0
VERTEX
8
OBJECT__36
10
44.834000
20
-14.448000
30
-5.165000
70
192
0
VERTEX
8
OBJECT__36
10
44.834000
20
-14.109000
30
-5.837000
70
192
0
VERTEX
8
OBJECT__36
10
44.834000
20
-2.991000
30
15.048000
70
192
0
VERTEX
8
OBJECT__36
10
44.647999
20
-2.971000
30
14.943000
70
192
0
VERTEX
8
OBJECT__36
10
44.647999
20
0.001000
30
15.236000
70
192
0
VERTEX
8
OBJECT__36
10
44.834000
20
-5.848000
30
14.107000
70
192
0
VERTEX
8
OBJECT__36
10
44.647999
20
-5.806000
30
14.005000
70
192
0
VERTEX
8
OBJECT__36
10
44.647999
20
-10.717000
30
-10.724000
70
192
0
VERTEX
8
OBJECT__36
10
44.834000
20
-10.794000
30
-10.800000
70
192
0
VERTEX
8
OBJECT__36
10
44.647999
20
-10.218000
30
-11.301000
70
192
0
VERTEX
8
OBJECT__36
10
44.834000
20
-10.306000
30
-11.367000
70
192
0
VERTEX
8
OBJECT__36
10
44.834000
20
-7.236000
30
-13.530000
70
192
0
VERTEX
8
OBJECT__36
10
44.647999
20
-8.465000
30
-12.667000
70
192
0
VERTEX
8
OBJECT__36
10
44.647999
20
-5.798000
30
-14.009000
70
192
0
VERTEX
8
OBJECT__36
10
44.834000
20
-5.833000
30
-14.071000
70
192
0
VERTEX
8
OBJECT__36
10
44.834000
20
-12.757000
30
-8.523000
70
192
0
VERTEX
8
OBJECT__36
10
44.647999
20
-12.668000
30
-8.464000
70
192
0
VERTEX
8
OBJECT__36
10
44.647999
20
-13.766000
30
-6.531000
70
192
0
VERTEX
8
OBJECT__36
10
44.834000
20
-3.722000
30
-14.884000
70
192
0
VERTEX
8
OBJECT__36
10
44.647999
20
-2.973000
30
-14.942000
70
192
0
VERTEX
8
OBJECT__36
10
44.647999
20
-5.116000
30
-14.352000
70
192
0
VERTEX
8
OBJECT__36
10
44.834000
20
-0.001000
30
-15.344000
70
192
0
VERTEX
8
OBJECT__36
10
44.647999
20
-0.001000
30
-15.236000
70
192
0
VERTEX
8
OBJECT__36
10
44.834000
20
-12.318000
30
9.146000
70
192
0
VERTEX
8
OBJECT__36
10
44.647999
20
-12.667000
30
8.465000
70
192
0
VERTEX
8
OBJECT__36
10
44.647999
20
-11.301000
30
10.219000
70
192
0
VERTEX
8
OBJECT__36
10
44.834000
20
-14.175000
30
5.873000
70
192
0
VERTEX
8
OBJECT__36
10
44.647999
20
-14.009000
30
5.798000
70
192
0
VERTEX
8
OBJECT__36
10
44.834000
20
-10.768000
30
10.773000
70
192
0
VERTEX
8
OBJECT__36
10
44.647999
20
-6.530000
30
13.766000
70
192
0
VERTEX
8
OBJECT__36
10
44.834000
20
-6.545000
30
13.878000
70
192
0
VERTEX
8
OBJECT__36
10
44.834000
20
-9.721000
30
11.870000
70
192
0
VERTEX
8
OBJECT__36
10
44.647999
20
-8.463000
30
12.668000
70
192
0
VERTEX
8
OBJECT__36
10
44.647999
20
-10.724000
30
10.717000
70
192
0
VERTEX
8
OBJECT__36
10
44.834000
20
-15.174000
30
2.270000
70
192
0
VERTEX
8
OBJECT__36
10
44.647999
20
-14.942000
30
2.973000
70
192
0
VERTEX
8
OBJECT__36
10
44.647999
20
-14.351000
30
5.116000
70
192
0
VERTEX
8
OBJECT__36
10
44.834000
20
0.001000
30
15.344000
70
192
0
VERTEX
8
OBJECT__36
10
0
20
0
30
0
70
128
71
1
72
2
73
3
0
VERTEX
8
OBJECT__36
10
0
20
0
30
0
70
128
71
4
72
5
73
6
0
VERTEX
8
OBJECT__36
10
0
20
0
30
0
70
128
71
6
72
7
73
4
0
VERTEX
8
OBJECT__36
10
0
20
0
30
0
70
128
71
5
72
3
73
6
0
VERTEX
8
OBJECT__36
10
0
20
0
30
0
70
128
71
8
72
9
73
10
0
VERTEX
8
OBJECT__36
10
0
20
0
30
0
70
128
71
11
72
12
73
9
0
VERTEX
8
OBJECT__36
10
0
20
0
30
0
70
128
71
9
72
8
73
11
0
VERTEX
8
OBJECT__36
10
0
20
0
30
0
70
128
71
14
72
15
73
13
0
VERTEX
8
OBJECT__36
10
0
20
0
30
0
70
128
71
14
72
16
73
15
0
VERTEX
8
OBJECT__36
10
0
20
0
30
0
70
128
71
16
72
17
73
18
0
VERTEX
8
OBJECT__36
10
0
20
0
30
0
70
128
71
19
72
18
73
17
0
VERTEX
8
OBJECT__36
10
0
20
0
30
0
70
128
71
17
72
20
73
19
0
VERTEX
8
OBJECT__36
10
0
20
0
30
0
70
128
71
18
72
15
73
16
0
VERTEX
8
OBJECT__36
10
0
20
0
30
0
70
128
71
21
72
22
73
23
0
VERTEX
8
OBJECT__36
10
0
20
0
30
0
70
128
71
14
72
13
73
22
0
VERTEX
8
OBJECT__36
10
0
20
0
30
0
70
128
71
22
72
21
73
14
0
VERTEX
8
OBJECT__36
10
0
20
0
30
0
70
128
71
23
72
7
73
21
0
VERTEX
8
OBJECT__36
10
0
20
0
30
0
70
128
71
24
72
25
73
26
0
VERTEX
8
OBJECT__36
10
0
20
0
30
0
70
128
71
27
72
28
73
25
0
VERTEX
8
OBJECT__36
10
0
20
0
30
0
70
128
71
25
72
24
73
27
0
VERTEX
8
OBJECT__36
10
0
20
0
30
0
70
128
71
26
72
20
73
24
0
VERTEX
8
OBJECT__36
10
0
20
0
30
0
70
128
71
29
72
30
73
31
0
VERTEX
8
OBJECT__36
10
0
20
0
30
0
70
128
71
32
72
33
73
30
0
VERTEX
8
OBJECT__36
10
0
20
0
30
0
70
128
71
30
72
29
73
32
0
VERTEX
8
OBJECT__36
10
0
20
0
30
0
70
128
71
31
72
34
73
29
0
VERTEX
8
OBJECT__36
10
0
20
0
30
0
70
128
71
11
72
35
73
12
0
VERTEX
8
OBJECT__36
10
0
20
0
30
0
70
128
71
11
72
36
73
35
0
VERTEX
8
OBJECT__36
10
0
20
0
30
0
70
128
71
36
72
37
73
38
0
VERTEX
8
OBJECT__36
10
0
20
0
30
0
70
128
71
39
72
38
73
37
0
VERTEX
8
OBJECT__36
10
0
20
0
30
0
70
128
71
37
72
34
73
39
0
VERTEX
8
OBJECT__36
10
0
20
0
30
0
70
128
71
38
72
35
73
36
0
VERTEX
8
OBJECT__36
10
0
20
0
30
0
70
128
71
40
72
41
73
42
0
VERTEX
8
OBJECT__36
10
0
20
0
30
0
70
128
71
1
72
41
73
40
0
VERTEX
8
OBJECT__36
10
0
20
0
30
0
70
128
71
40
72
2
73
1
0
VERTEX
8
OBJECT__36
10
0
20
0
30
0
70
128
71
42
72
32
73
40
0
VERTEX
8
OBJECT__36
10
0
20
0
30
0
70
128
71
32
72
42
73
33
0
VERTEX
8
OBJECT__36
10
0
20
0
30
0
70
128
71
31
72
39
73
34
0
VERTEX
8
OBJECT__36
10
0
20
0
30
0
70
128
71
26
72
19
73
20
0
VERTEX
8
OBJECT__36
10
0
20
0
30
0
70
128
71
23
72
4
73
7
0
VERTEX
8
OBJECT__36
10
0
20
0
30
0
70
128
71
10
72
43
73
8
0
VERTEX
8
OBJECT__36
10
0
20
0
30
0
70
128
71
3
72
5
73
1
0
SEQEND
8
OBJECT__36
0
POLYLINE
8
OBJECT__37
66
1
70
64
71
42
72
40
62
253
0
VERTEX
8
OBJECT__37
10
44.647999
20
14.020000
30
-5.803000
70
192
0
VERTEX
8
OBJECT__37
10
44.834000
20
14.175000
30
-5.873000
70
192
0
VERTEX
8
OBJECT__37
10
44.834000
20
15.174000
30
-2.270000
70
192
0
VERTEX
8
OBJECT__37
10
44.647999
20
15.122000
30
-1.858000
70
192
0
VERTEX
8
OBJECT__37
10
44.647999
20
14.297000
30
-5.268000
70
192
0
VERTEX
8
OBJECT__37
10
44.834000
20
15.232000
30
0.002000
70
192
0
VERTEX
8
OBJECT__37
10
44.647999
20
15.121000
30
-0.001000
70
192
0
VERTEX
8
OBJECT__37
10
44.834000
20
5.832000
30
14.071000
70
192
0
VERTEX
8
OBJECT__37
10
44.834000
20
3.722000
30
14.884000
70
192
0
VERTEX
8
OBJECT__37
10
44.647999
20
4.757000
30
14.474000
70
192
0
VERTEX
8
OBJECT__37
10
44.834000
20
0.001000
30
15.344000
70
192
0
VERTEX
8
OBJECT__37
10
44.647999
20
1.610000
30
15.150000
70
192
0
VERTEX
8
OBJECT__37
10
44.647999
20
0.001000
30
15.236000
70
192
0
VERTEX
8
OBJECT__37
10
44.647999
20
5.789000
30
-13.972000
70
192
0
VERTEX
8
OBJECT__37
10
44.834000
20
5.848000
30
-14.107000
70
192
0
VERTEX
8
OBJECT__37
10
44.647999
20
7.205000
30
-13.424000
70
192
0
VERTEX
8
OBJECT__37
10
44.834000
20
6.545000
30
-13.878000
70
192
0
VERTEX
8
OBJECT__37
10
44.834000
20
9.721000
30
-11.870000
70
192
0
VERTEX
8
OBJECT__37
10
44.647999
20
10.095000
30
-11.412000
70
192
0
VERTEX
8
OBJECT__37
10
44.834000
20
10.768000
30
-10.773000
70
192
0
VERTEX
8
OBJECT__37
10
44.647999
20
10.708000
30
-10.717000
70
192
0
VERTEX
8
OBJECT__37
10
44.834000
20
12.318000
30
-9.146000
70
192
0
VERTEX
8
OBJECT__37
10
44.647999
20
12.579000
30
-8.596000
70
192
0
VERTEX
8
OBJECT__37
10
44.647999
20
-0.001000
30
-15.236000
70
192
0
VERTEX
8
OBJECT__37
10
44.834000
20
-0.001000
30
-15.344000
70
192
0
VERTEX
8
OBJECT__37
10
44.834000
20
2.991000
30
-15.048000
70
192
0
VERTEX
8
OBJECT__37
10
44.647999
20
3.707000
30
-14.777000
70
192
0
VERTEX
8
OBJECT__37
10
44.647999
20
14.044000
30
5.812000
70
192
0
VERTEX
8
OBJECT__37
10
44.834000
20
14.109000
30
5.837000
70
192
0
VERTEX
8
OBJECT__37
10
44.834000
20
12.757000
30
8.523000
70
192
0
VERTEX
8
OBJECT__37
10
44.834000
20
10.794000
30
10.800000
70
192
0
VERTEX
8
OBJECT__37
10
44.647999
20
10.729000
30
10.733000
70
192
0
VERTEX
8
OBJECT__37
10
44.647999
20
12.433000
30
8.805000
70
192
0
VERTEX
8
OBJECT__37
10
44.647999
20
10.257000
30
11.267000
70
192
0
VERTEX
8
OBJECT__37
10
44.834000
20
10.306000
30
11.367000
70
192
0
VERTEX
8
OBJECT__37
10
44.834000
20
7.236000
30
13.530000
70
192
0
VERTEX
8
OBJECT__37
10
44.647999
20
7.690000
30
13.152000
70
192
0
VERTEX
8
OBJECT__37
10
44.647999
20
5.799000
30
14.004000
70
192
0
VERTEX
8
OBJECT__37
10
44.834000
20
15.270000
30
1.497000
70
192
0
VERTEX
8
OBJECT__37
10
44.834000
20
14.448000
30
5.165000
70
192
0
VERTEX
8
OBJECT__37
10
44.647999
20
14.202000
30
5.517000
70
192
0
VERTEX
8
OBJECT__37
10
44.647999
20
15.119000
30
1.877000
70
192
0
VERTEX
8
OBJECT__37
10
0
20
0
30
0
70
128
71
3
72
4
73
5
0
VERTEX
8
OBJECT__37
10
0
20
0
30
0
70
128
71
6
72
7
73
4
0
VERTEX
8
OBJECT__37
10
0
20
0
30
0
70
128
71
4
72
3
73
6
0
VERTEX
8
OBJECT__37
10
0
20
0
30
0
70
128
71
5
72
2
73
3
0
VERTEX
8
OBJECT__37
10
0
20
0
30
0
70
128
71
8
72
9
73
10
0
VERTEX
8
OBJECT__37
10
0
20
0
30
0
70
128
71
9
72
11
73
12
0
VERTEX
8
OBJECT__37
10
0
20
0
30
0
70
128
71
11
72
13
73
12
0
VERTEX
8
OBJECT__37
10
0
20
0
30
0
70
128
71
12
72
10
73
9
0
VERTEX
8
OBJECT__37
10
0
20
0
30
0
70
128
71
15
72
16
73
14
0
VERTEX
8
OBJECT__37
10
0
20
0
30
0
70
128
71
15
72
17
73
16
0
VERTEX
8
OBJECT__37
10
0
20
0
30
0
70
128
71
18
72
19
73
16
0
VERTEX
8
OBJECT__37
10
0
20
0
30
0
70
128
71
16
72
17
73
18
0
VERTEX
8
OBJECT__37
10
0
20
0
30
0
70
128
71
20
72
21
73
19
0
VERTEX
8
OBJECT__37
10
0
20
0
30
0
70
128
71
19
72
18
73
20
0
VERTEX
8
OBJECT__37
10
0
20
0
30
0
70
128
71
21
72
20
73
22
0
VERTEX
8
OBJECT__37
10
0
20
0
30
0
70
128
71
2
72
1
73
23
0
VERTEX
8
OBJECT__37
10
0
20
0
30
0
70
128
71
23
72
22
73
2
0
VERTEX
8
OBJECT__37
10
0
20
0
30
0
70
128
71
24
72
25
73
26
0
VERTEX
8
OBJECT__37
10
0
20
0
30
0
70
128
71
15
72
14
73
27
0
VERTEX
8
OBJECT__37
10
0
20
0
30
0
70
128
71
27
72
26
73
15
0
VERTEX
8
OBJECT__37
10
0
20
0
30
0
70
128
71
28
72
29
73
30
0
VERTEX
8
OBJECT__37
10
0
20
0
30
0
70
128
71
31
72
32
73
33
0
VERTEX
8
OBJECT__37
10
0
20
0
30
0
70
128
71
33
72
30
73
31
0
VERTEX
8
OBJECT__37
10
0
20
0
30
0
70
128
71
31
72
34
73
32
0
VERTEX
8
OBJECT__37
10
0
20
0
30
0
70
128
71
31
72
35
73
34
0
VERTEX
8
OBJECT__37
10
0
20
0
30
0
70
128
71
35
72
36
73
37
0
VERTEX
8
OBJECT__37
10
0
20
0
30
0
70
128
71
38
72
37
73
36
0
VERTEX
8
OBJECT__37
10
0
20
0
30
0
70
128
71
36
72
8
73
38
0
VERTEX
8
OBJECT__37
10
0
20
0
30
0
70
128
71
37
72
34
73
35
0
VERTEX
8
OBJECT__37
10
0
20
0
30
0
70
128
71
7
72
6
73
39
0
VERTEX
8
OBJECT__37
10
0
20
0
30
0
70
128
71
40
72
41
73
42
0
VERTEX
8
OBJECT__37
10
0
20
0
30
0
70
128
71
42
72
39
73
40
0
VERTEX
8
OBJECT__37
10
0
20
0
30
0
70
128
71
40
72
29
73
41
0
VERTEX
8
OBJECT__37
10
0
20
0
30
0
70
128
71
28
72
41
73
29
0
VERTEX
8
OBJECT__37
10
0
20
0
30
0
70
128
71
39
72
42
73
7
0
VERTEX
8
OBJECT__37
10
0
20
0
30
0
70
128
71
30
72
33
73
28
0
VERTEX
8
OBJECT__37
10
0
20
0
30
0
70
128
71
26
72
27
73
24
0
VERTEX
8
OBJECT__37
10
0
20
0
30
0
70
128
71
22
72
23
73
21
0
VERTEX
8
OBJECT__37
10
0
20
0
30
0
70
128
71
10
72
38
73
8
0
VERTEX
8
OBJECT__37
10
0
20
0
30
0
70
128
71
2
72
5
73
1
0
SEQEND
8
OBJECT__37
0
POLYLINE
8
OBJECT__39
66
1
70
64
71
45
72
43
62
253
0
VERTEX
8
OBJECT__39
10
46.221001
20
-17.577999
30
-4.051000
70
192
0
VERTEX
8
OBJECT__39
10
44.834000
20
-14.448000
30
-5.165000
70
192
0
VERTEX
8
OBJECT__39
10
44.834000
20
-15.270000
30
-1.497000
70
192
0
VERTEX
8
OBJECT__39
10
46.221001
20
-18.040001
30
0.001000
70
192
0
VERTEX
8
OBJECT__39
10
46.221001
20
-16.580999
30
-6.872000
70
192
0
VERTEX
8
OBJECT__39
10
44.834000
20
-14.109000
30
-5.837000
70
192
0
VERTEX
8
OBJECT__39
10
44.834000
20
-2.991000
30
15.048000
70
192
0
VERTEX
8
OBJECT__39
10
44.834000
20
0.001000
30
15.344000
70
192
0
VERTEX
8
OBJECT__39
10
44.842999
20
0.001000
30
15.349000
70
192
0
VERTEX
8
OBJECT__39
10
46.221001
20
-4.039000
30
17.580999
70
192
0
VERTEX
8
OBJECT__39
10
45.918999
20
0.001000
30
16.478001
70
192
0
VERTEX
8
OBJECT__39
10
46.221001
20
-6.872000
30
16.582001
70
192
0
VERTEX
8
OBJECT__39
10
44.834000
20
-5.848000
30
14.107000
70
192
0
VERTEX
8
OBJECT__39
10
44.834000
20
-10.794000
30
-10.801000
70
192
0
VERTEX
8
OBJECT__39
10
46.221001
20
-12.676000
30
-12.673000
70
192
0
VERTEX
8
OBJECT__39
10
46.221001
20
-11.120000
30
-14.204000
70
192
0
VERTEX
8
OBJECT__39
10
46.221001
20
-7.652000
30
-16.336000
70
192
0
VERTEX
8
OBJECT__39
10
44.834000
20
-7.236000
30
-13.530000
70
192
0
VERTEX
8
OBJECT__39
10
44.834000
20
-10.306000
30
-11.367000
70
192
0
VERTEX
8
OBJECT__39
10
44.834000
20
-5.833000
30
-14.071000
70
192
0
VERTEX
8
OBJECT__39
10
46.221001
20
-6.881000
30
-16.596001
70
192
0
VERTEX
8
OBJECT__39
10
46.221001
20
-16.219000
30
-7.898000
70
192
0
VERTEX
8
OBJECT__39
10
46.221001
20
-14.032000
30
-11.337000
70
192
0
VERTEX
8
OBJECT__39
10
44.834000
20
-12.757000
30
-8.523000
70
192
0
VERTEX
8
OBJECT__39
10
46.221001
20
-3.779000
30
-17.639000
70
192
0
VERTEX
8
OBJECT__39
10
44.834000
20
-3.722000
30
-14.884000
70
192
0
VERTEX
8
OBJECT__39
10
45.929001
20
-0.001000
30
-16.497000
70
192
0
VERTEX
8
OBJECT__39
10
46.221001
20
-0.001000
30
-18.040001
70
192
0
VERTEX
8
OBJECT__39
10
46.222000
20
-0.001000
30
-18.028999
70
192
0
VERTEX
8
OBJECT__39
10
44.834000
20
-0.001000
30
-15.344000
70
192
0
VERTEX
8
OBJECT__39
10
44.834000
20
-10.768000
30
10.773000
70
192
0
VERTEX
8
OBJECT__39
10
46.221001
20
-12.673000
30
12.675000
70
192
0
VERTEX
8
OBJECT__39
10
46.221001
20
-14.196000
30
11.130000
70
192
0
VERTEX
8
OBJECT__39
10
44.834000
20
-12.318000
30
9.146000
70
192
0
VERTEX
8
OBJECT__39
10
46.221001
20
-16.594999
30
6.881000
70
192
0
VERTEX
8
OBJECT__39
10
44.834000
20
-14.175000
30
5.873000
70
192
0
VERTEX
8
OBJECT__39
10
46.221001
20
-16.330999
30
7.664000
70
192
0
VERTEX
8
OBJECT__39
10
44.834000
20
-6.545000
30
13.878000
70
192
0
VERTEX
8
OBJECT__39
10
46.221001
20
-7.885000
30
16.225000
70
192
0
VERTEX
8
OBJECT__39
10
46.221001
20
-11.326000
30
14.041000
70
192
0
VERTEX
8
OBJECT__39
10
44.834000
20
-9.721000
30
11.870000
70
192
0
VERTEX
8
OBJECT__39
10
44.834000
20
-15.174000
30
2.270000
70
192
0
VERTEX
8
OBJECT__39
10
46.221001
20
-17.636000
30
3.792000
70
192
0
VERTEX
8
OBJECT__39
10
44.834000
20
-15.232000
30
-0.002000
70
192
0
VERTEX
8
OBJECT__39
10
46.221001
20
0.001000
30
18.040001
70
192
0
VERTEX
8
OBJECT__39
10
0
20
0
30
0
70
128
71
1
72
2
73
3
0
VERTEX
8
OBJECT__39
10
0
20
0
30
0
70
128
71
3
72
4
73
1
0
VERTEX
8
OBJECT__39
10
0
20
0
30
0
70
128
71
1
72
5
73
2
0
VERTEX
8
OBJECT__39
10
0
20
0
30
0
70
128
71
6
72
2
73
5
0
VERTEX
8
OBJECT__39
10
0
20
0
30
0
70
128
71
7
72
8
73
9
0
VERTEX
8
OBJECT__39
10
0
20
0
30
0
70
128
71
9
72
10
73
7
0
VERTEX
8
OBJECT__39
10
0
20
0
30
0
70
128
71
9
72
11
73
10
0
VERTEX
8
OBJECT__39
10
0
20
0
30
0
70
128
71
13
72
10
73
12
0
VERTEX
8
OBJECT__39
10
0
20
0
30
0
70
128
71
13
72
7
73
10
0
VERTEX
8
OBJECT__39
10
0
20
0
30
0
70
128
71
16
72
17
73
18
0
VERTEX
8
OBJECT__39
10
0
20
0
30
0
70
128
71
19
72
15
73
16
0
VERTEX
8
OBJECT__39
10
0
20
0
30
0
70
128
71
18
72
19
73
16
0
VERTEX
8
OBJECT__39
10
0
20
0
30
0
70
128
71
20
72
18
73
17
0
VERTEX
8
OBJECT__39
10
0
20
0
30
0
70
128
71
17
72
21
73
20
0
VERTEX
8
OBJECT__39
10
0
20
0
30
0
70
128
71
22
72
23
73
24
0
VERTEX
8
OBJECT__39
10
0
20
0
30
0
70
128
71
6
72
5
73
22
0
VERTEX
8
OBJECT__39
10
0
20
0
30
0
70
128
71
24
72
6
73
22
0
VERTEX
8
OBJECT__39
10
0
20
0
30
0
70
128
71
14
72
23
73
15
0
VERTEX
8
OBJECT__39
10
0
20
0
30
0
70
128
71
14
72
24
73
23
0
VERTEX
8
OBJECT__39
10
0
20
0
30
0
70
128
71
21
72
25
73
26
0
VERTEX
8
OBJECT__39
10
0
20
0
30
0
70
128
71
26
72
20
73
21
0
VERTEX
8
OBJECT__39
10
0
20
0
30
0
70
128
71
26
72
25
73
27
0
VERTEX
8
OBJECT__39
10
0
20
0
30
0
70
128
71
25
72
28
73
29
0
VERTEX
8
OBJECT__39
10
0
20
0
30
0
70
128
71
29
72
27
73
25
0
VERTEX
8
OBJECT__39
10
0
20
0
30
0
70
128
71
27
72
30
73
26
0
VERTEX
8
OBJECT__39
10
0
20
0
30
0
70
128
71
31
72
32
73
33
0
VERTEX
8
OBJECT__39
10
0
20
0
30
0
70
128
71
33
72
34
73
31
0
VERTEX
8
OBJECT__39
10
0
20
0
30
0
70
128
71
36
72
33
73
37
0
VERTEX
8
OBJECT__39
10
0
20
0
30
0
70
128
71
36
72
37
73
35
0
VERTEX
8
OBJECT__39
10
0
20
0
30
0
70
128
71
36
72
34
73
33
0
VERTEX
8
OBJECT__39
10
0
20
0
30
0
70
128
71
12
72
38
73
13
0
VERTEX
8
OBJECT__39
10
0
20
0
30
0
70
128
71
12
72
39
73
38
0
VERTEX
8
OBJECT__39
10
0
20
0
30
0
70
128
71
39
72
40
73
41
0
VERTEX
8
OBJECT__39
10
0
20
0
30
0
70
128
71
32
72
31
73
41
0
VERTEX
8
OBJECT__39
10
0
20
0
30
0
70
128
71
41
72
40
73
32
0
VERTEX
8
OBJECT__39
10
0
20
0
30
0
70
128
71
41
72
38
73
39
0
VERTEX
8
OBJECT__39
10
0
20
0
30
0
70
128
71
35
72
42
73
36
0
VERTEX
8
OBJECT__39
10
0
20
0
30
0
70
128
71
35
72
43
73
42
0
VERTEX
8
OBJECT__39
10
0
20
0
30
0
70
128
71
4
72
44
73
42
0
VERTEX
8
OBJECT__39
10
0
20
0
30
0
70
128
71
42
72
43
73
4
0
VERTEX
8
OBJECT__39
10
0
20
0
30
0
70
128
71
15
72
19
73
14
0
VERTEX
8
OBJECT__39
10
0
20
0
30
0
70
128
71
11
72
45
73
10
0
VERTEX
8
OBJECT__39
10
0
20
0
30
0
70
128
71
3
72
44
73
4
0
SEQEND
8
OBJECT__39
0
POLYLINE
8
OBJECT__40
66
1
70
64
71
45
72
43
62
253
0
VERTEX
8
OBJECT__40
10
44.834000
20
14.175000
30
-5.873000
70
192
0
VERTEX
8
OBJECT__40
10
46.221001
20
16.594999
30
-6.881000
70
192
0
VERTEX
8
OBJECT__40
10
44.834000
20
15.174000
30
-2.270000
70
192
0
VERTEX
8
OBJECT__40
10
46.221001
20
17.636000
30
-3.792000
70
192
0
VERTEX
8
OBJECT__40
10
46.221001
20
18.040001
30
-0.001000
70
192
0
VERTEX
8
OBJECT__40
10
44.834000
20
15.232000
30
0.002000
70
192
0
VERTEX
8
OBJECT__40
10
46.221001
20
6.881000
30
16.596001
70
192
0
VERTEX
8
OBJECT__40
10
46.221001
20
3.779000
30
17.639000
70
192
0
VERTEX
8
OBJECT__40
10
44.834000
20
3.722000
30
14.884000
70
192
0
VERTEX
8
OBJECT__40
10
44.834000
20
5.832000
30
14.071000
70
192
0
VERTEX
8
OBJECT__40
10
45.918999
20
0.001000
30
16.478001
70
192
0
VERTEX
8
OBJECT__40
10
44.842999
20
0.001000
30
15.349000
70
192
0
VERTEX
8
OBJECT__40
10
46.221001
20
0.001000
30
18.040001
70
192
0
VERTEX
8
OBJECT__40
10
44.834000
20
0.001000
30
15.344000
70
192
0
VERTEX
8
OBJECT__40
10
44.834000
20
5.848000
30
-14.107000
70
192
0
VERTEX
8
OBJECT__40
10
46.221001
20
6.872000
30
-16.582001
70
192
0
VERTEX
8
OBJECT__40
10
44.834000
20
6.545000
30
-13.878000
70
192
0
VERTEX
8
OBJECT__40
10
46.221001
20
7.885000
30
-16.225000
70
192
0
VERTEX
8
OBJECT__40
10
46.221001
20
11.326000
30
-14.041000
70
192
0
VERTEX
8
OBJECT__40
10
44.834000
20
9.721000
30
-11.870000
70
192
0
VERTEX
8
OBJECT__40
10
46.221001
20
12.673000
30
-12.675000
70
192
0
VERTEX
8
OBJECT__40
10
44.834000
20
10.768000
30
-10.773000
70
192
0
VERTEX
8
OBJECT__40
10
46.221001
20
14.196000
30
-11.130000
70
192
0
VERTEX
8
OBJECT__40
10
44.834000
20
12.318000
30
-9.146000
70
192
0
VERTEX
8
OBJECT__40
10
46.221001
20
16.330999
30
-7.664000
70
192
0
VERTEX
8
OBJECT__40
10
46.221001
20
4.039000
30
-17.580999
70
192
0
VERTEX
8
OBJECT__40
10
45.929001
20
-0.001000
30
-16.497000
70
192
0
VERTEX
8
OBJECT__40
10
46.222000
20
-0.001000
30
-18.028999
70
192
0
VERTEX
8
OBJECT__40
10
44.834000
20
2.991000
30
-15.048000
70
192
0
VERTEX
8
OBJECT__40
10
44.834000
20
-0.001000
30
-15.344000
70
192
0
VERTEX
8
OBJECT__40
10
46.221001
20
16.219000
30
7.898000
70
192
0
VERTEX
8
OBJECT__40
10
46.221001
20
14.032000
30
11.337000
70
192
0
VERTEX
8
OBJECT__40
10
44.834000
20
12.757000
30
8.523000
70
192
0
VERTEX
8
OBJECT__40
10
44.834000
20
14.109000
30
5.837000
70
192
0
VERTEX
8
OBJECT__40
10
46.221001
20
16.580999
30
6.872000
70
192
0
VERTEX
8
OBJECT__40
10
46.221001
20
12.676000
30
12.673000
70
192
0
VERTEX
8
OBJECT__40
10
44.834000
20
10.794000
30
10.801000
70
192
0
VERTEX
8
OBJECT__40
10
46.221001
20
11.120000
30
14.204000
70
192
0
VERTEX
8
OBJECT__40
10
46.221001
20
7.652000
30
16.336000
70
192
0
VERTEX
8
OBJECT__40
10
44.834000
20
7.236000
30
13.530000
70
192
0
VERTEX
8
OBJECT__40
10
44.834000
20
10.306000
30
11.367000
70
192
0
VERTEX
8
OBJECT__40
10
44.834000
20
15.270000
30
1.497000
70
192
0
VERTEX
8
OBJECT__40
10
46.221001
20
17.577999
30
4.051000
70
192
0
VERTEX
8
OBJECT__40
10
44.834000
20
14.448000
30
5.165000
70
192
0
VERTEX
8
OBJECT__40
10
46.221001
20
-0.001000
30
-18.040001
70
192
0
VERTEX
8
OBJECT__40
10
0
20
0
30
0
70
128
71
2
72
3
73
1
0
VERTEX
8
OBJECT__40
10
0
20
0
30
0
70
128
71
2
72
4
73
3
0
VERTEX
8
OBJECT__40
10
0
20
0
30
0
70
128
71
5
72
6
73
3
0
VERTEX
8
OBJECT__40
10
0
20
0
30
0
70
128
71
3
72
4
73
5
0
VERTEX
8
OBJECT__40
10
0
20
0
30
0
70
128
71
7
72
8
73
9
0
VERTEX
8
OBJECT__40
10
0
20
0
30
0
70
128
71
9
72
10
73
7
0
VERTEX
8
OBJECT__40
10
0
20
0
30
0
70
128
71
9
72
8
73
11
0
VERTEX
8
OBJECT__40
10
0
20
0
30
0
70
128
71
11
72
12
73
9
0
VERTEX
8
OBJECT__40
10
0
20
0
30
0
70
128
71
8
72
13
73
11
0
VERTEX
8
OBJECT__40
10
0
20
0
30
0
70
128
71
12
72
14
73
9
0
VERTEX
8
OBJECT__40
10
0
20
0
30
0
70
128
71
16
72
17
73
15
0
VERTEX
8
OBJECT__40
10
0
20
0
30
0
70
128
71
16
72
18
73
17
0
VERTEX
8
OBJECT__40
10
0
20
0
30
0
70
128
71
18
72
19
73
20
0
VERTEX
8
OBJECT__40
10
0
20
0
30
0
70
128
71
21
72
22
73
20
0
VERTEX
8
OBJECT__40
10
0
20
0
30
0
70
128
71
20
72
19
73
21
0
VERTEX
8
OBJECT__40
10
0
20
0
30
0
70
128
71
20
72
17
73
18
0
VERTEX
8
OBJECT__40
10
0
20
0
30
0
70
128
71
22
72
21
73
23
0
VERTEX
8
OBJECT__40
10
0
20
0
30
0
70
128
71
23
72
24
73
22
0
VERTEX
8
OBJECT__40
10
0
20
0
30
0
70
128
71
25
72
1
73
24
0
VERTEX
8
OBJECT__40
10
0
20
0
30
0
70
128
71
24
72
23
73
25
0
VERTEX
8
OBJECT__40
10
0
20
0
30
0
70
128
71
25
72
2
73
1
0
VERTEX
8
OBJECT__40
10
0
20
0
30
0
70
128
71
26
72
27
73
28
0
VERTEX
8
OBJECT__40
10
0
20
0
30
0
70
128
71
27
72
26
73
29
0
VERTEX
8
OBJECT__40
10
0
20
0
30
0
70
128
71
29
72
30
73
27
0
VERTEX
8
OBJECT__40
10
0
20
0
30
0
70
128
71
15
72
26
73
16
0
VERTEX
8
OBJECT__40
10
0
20
0
30
0
70
128
71
15
72
29
73
26
0
VERTEX
8
OBJECT__40
10
0
20
0
30
0
70
128
71
31
72
32
73
33
0
VERTEX
8
OBJECT__40
10
0
20
0
30
0
70
128
71
34
72
35
73
31
0
VERTEX
8
OBJECT__40
10
0
20
0
30
0
70
128
71
33
72
34
73
31
0
VERTEX
8
OBJECT__40
10
0
20
0
30
0
70
128
71
37
72
32
73
36
0
VERTEX
8
OBJECT__40
10
0
20
0
30
0
70
128
71
37
72
33
73
32
0
VERTEX
8
OBJECT__40
10
0
20
0
30
0
70
128
71
38
72
39
73
40
0
VERTEX
8
OBJECT__40
10
0
20
0
30
0
70
128
71
41
72
36
73
38
0
VERTEX
8
OBJECT__40
10
0
20
0
30
0
70
128
71
40
72
41
73
38
0
VERTEX
8
OBJECT__40
10
0
20
0
30
0
70
128
71
10
72
40
73
39
0
VERTEX
8
OBJECT__40
10
0
20
0
30
0
70
128
71
39
72
7
73
10
0
VERTEX
8
OBJECT__40
10
0
20
0
30
0
70
128
71
5
72
42
73
6
0
VERTEX
8
OBJECT__40
10
0
20
0
30
0
70
128
71
43
72
44
73
42
0
VERTEX
8
OBJECT__40
10
0
20
0
30
0
70
128
71
42
72
5
73
43
0
VERTEX
8
OBJECT__40
10
0
20
0
30
0
70
128
71
43
72
35
73
44
0
VERTEX
8
OBJECT__40
10
0
20
0
30
0
70
128
71
34
72
44
73
35
0
VERTEX
8
OBJECT__40
10
0
20
0
30
0
70
128
71
36
72
41
73
37
0
VERTEX
8
OBJECT__40
10
0
20
0
30
0
70
128
71
28
72
45
73
26
0
SEQEND
8
OBJECT__40
0
POLYLINE
8
OBJECT__41
66
1
70
64
71
49
72
47
62
253
0
VERTEX
8
OBJECT__41
10
45.886002
20
-20.389999
30
0.004000
70
192
0
VERTEX
8
OBJECT__41
10
46.221001
20
-18.040001
30
0.001000
70
192
0
VERTEX
8
OBJECT__41
10
45.886002
20
-20.330999
30
-2.633000
70
192
0
VERTEX
8
OBJECT__41
10
46.221001
20
-17.577999
30
-4.051000
70
192
0
VERTEX
8
OBJECT__41
10
45.886002
20
-19.322001
30
-6.854000
70
192
0
VERTEX
8
OBJECT__41
10
46.221001
20
-16.580999
30
-6.872000
70
192
0
VERTEX
8
OBJECT__41
10
45.886002
20
-18.864000
30
-7.807000
70
192
0
VERTEX
8
OBJECT__41
10
45.886002
20
-4.308000
30
20.042999
70
192
0
VERTEX
8
OBJECT__41
10
46.221001
20
-4.039000
30
17.580999
70
192
0
VERTEX
8
OBJECT__41
10
46.221001
20
0.001000
30
18.040001
70
192
0
VERTEX
8
OBJECT__41
10
45.886002
20
-7.826000
30
18.886000
70
192
0
VERTEX
8
OBJECT__41
10
46.221001
20
-6.873000
30
16.582001
70
192
0
VERTEX
8
OBJECT__41
10
46.221001
20
-12.675000
30
-12.673000
70
192
0
VERTEX
8
OBJECT__41
10
45.886002
20
-14.473000
30
-14.467000
70
192
0
VERTEX
8
OBJECT__41
10
45.886002
20
-14.467000
30
-14.472000
70
192
0
VERTEX
8
OBJECT__41
10
46.221001
20
-11.120000
30
-14.204000
70
192
0
VERTEX
8
OBJECT__41
10
45.886002
20
-11.441000
30
-17.011000
70
192
0
VERTEX
8
OBJECT__41
10
45.886002
20
-7.849000
30
-18.940001
70
192
0
VERTEX
8
OBJECT__41
10
46.221001
20
-7.652000
30
-16.336000
70
192
0
VERTEX
8
OBJECT__41
10
46.221001
20
-6.881000
30
-16.596001
70
192
0
VERTEX
8
OBJECT__41
10
45.886002
20
-7.847000
30
-18.941000
70
192
0
VERTEX
8
OBJECT__41
10
45.886002
20
-18.862000
30
-7.813000
70
192
0
VERTEX
8
OBJECT__41
10
46.221001
20
-16.219000
30
-7.898000
70
192
0
VERTEX
8
OBJECT__41
10
45.886002
20
-17.437000
30
-10.782000
70
192
0
VERTEX
8
OBJECT__41
10
45.886002
20
-14.776000
30
-14.213000
70
192
0
VERTEX
8
OBJECT__41
10
46.221001
20
-14.032000
30
-11.337000
70
192
0
VERTEX
8
OBJECT__41
10
45.886002
20
-3.676000
30
-20.167999
70
192
0
VERTEX
8
OBJECT__41
10
46.221001
20
-3.779000
30
-17.639000
70
192
0
VERTEX
8
OBJECT__41
10
46.221001
20
-0.001000
30
-18.040001
70
192
0
VERTEX
8
OBJECT__41
10
45.886002
20
-0.001000
30
-20.502001
70
192
0
VERTEX
8
OBJECT__41
10
46.221001
20
-12.673000
30
12.675000
70
192
0
VERTEX
8
OBJECT__41
10
45.886002
20
-14.430000
30
14.426000
70
192
0
VERTEX
8
OBJECT__41
10
45.886002
20
-15.395000
30
13.540000
70
192
0
VERTEX
8
OBJECT__41
10
46.221001
20
-14.196000
30
11.130000
70
192
0
VERTEX
8
OBJECT__41
10
45.886002
20
-17.900000
30
9.994000
70
192
0
VERTEX
8
OBJECT__41
10
46.221001
20
-16.330999
30
7.664000
70
192
0
VERTEX
8
OBJECT__41
10
45.886002
20
-18.832001
30
7.807000
70
192
0
VERTEX
8
OBJECT__41
10
45.886002
20
-18.834000
30
7.801000
70
192
0
VERTEX
8
OBJECT__41
10
46.221001
20
-16.594999
30
6.881000
70
192
0
VERTEX
8
OBJECT__41
10
45.886002
20
-7.829000
30
18.885000
70
192
0
VERTEX
8
OBJECT__41
10
46.221001
20
-7.885000
30
16.225000
70
192
0
VERTEX
8
OBJECT__41
10
45.886002
20
-8.440000
30
18.684000
70
192
0
VERTEX
8
OBJECT__41
10
45.886002
20
-12.187000
30
16.485001
70
192
0
VERTEX
8
OBJECT__41
10
46.221001
20
-11.326000
30
14.041000
70
192
0
VERTEX
8
OBJECT__41
10
45.886002
20
-14.424000
30
14.431000
70
192
0
VERTEX
8
OBJECT__41
10
45.886002
20
-19.608000
30
5.986000
70
192
0
VERTEX
8
OBJECT__41
10
45.886002
20
-20.429001
30
1.724000
70
192
0
VERTEX
8
OBJECT__41
10
46.221001
20
-17.636000
30
3.792000
70
192
0
VERTEX
8
OBJECT__41
10
45.886002
20
0.001000
30
20.502001
70
192
0
VERTEX
8
OBJECT__41
10
0
20
0
30
0
70
128
71
2
72
1
73
3
0
VERTEX
8
OBJECT__41
10
0
20
0
30
0
70
128
71
3
72
4
73
2
0
VERTEX
8
OBJECT__41
10
0
20
0
30
0
70
128
71
5
72
6
73
4
0
VERTEX
8
OBJECT__41
10
0
20
0
30
0
70
128
71
4
72
3
73
5
0
VERTEX
8
OBJECT__41
10
0
20
0
30
0
70
128
71
5
72
7
73
6
0
VERTEX
8
OBJECT__41
10
0
20
0
30
0
70
128
71
8
72
9
73
10
0
VERTEX
8
OBJECT__41
10
0
20
0
30
0
70
128
71
12
72
8
73
11
0
VERTEX
8
OBJECT__41
10
0
20
0
30
0
70
128
71
12
72
9
73
8
0
VERTEX
8
OBJECT__41
10
0
20
0
30
0
70
128
71
13
72
14
73
15
0
VERTEX
8
OBJECT__41
10
0
20
0
30
0
70
128
71
15
72
16
73
13
0
VERTEX
8
OBJECT__41
10
0
20
0
30
0
70
128
71
15
72
17
73
16
0
VERTEX
8
OBJECT__41
10
0
20
0
30
0
70
128
71
17
72
18
73
19
0
VERTEX
8
OBJECT__41
10
0
20
0
30
0
70
128
71
19
72
16
73
17
0
VERTEX
8
OBJECT__41
10
0
20
0
30
0
70
128
71
20
72
19
73
18
0
VERTEX
8
OBJECT__41
10
0
20
0
30
0
70
128
71
18
72
21
73
20
0
VERTEX
8
OBJECT__41
10
0
20
0
30
0
70
128
71
6
72
7
73
22
0
VERTEX
8
OBJECT__41
10
0
20
0
30
0
70
128
71
22
72
23
73
6
0
VERTEX
8
OBJECT__41
10
0
20
0
30
0
70
128
71
24
72
25
73
26
0
VERTEX
8
OBJECT__41
10
0
20
0
30
0
70
128
71
23
72
22
73
24
0
VERTEX
8
OBJECT__41
10
0
20
0
30
0
70
128
71
13
72
25
73
14
0
VERTEX
8
OBJECT__41
10
0
20
0
30
0
70
128
71
13
72
26
73
25
0
VERTEX
8
OBJECT__41
10
0
20
0
30
0
70
128
71
26
72
23
73
24
0
VERTEX
8
OBJECT__41
10
0
20
0
30
0
70
128
71
21
72
27
73
28
0
VERTEX
8
OBJECT__41
10
0
20
0
30
0
70
128
71
28
72
20
73
21
0
VERTEX
8
OBJECT__41
10
0
20
0
30
0
70
128
71
29
72
28
73
27
0
VERTEX
8
OBJECT__41
10
0
20
0
30
0
70
128
71
27
72
30
73
29
0
VERTEX
8
OBJECT__41
10
0
20
0
30
0
70
128
71
31
72
32
73
33
0
VERTEX
8
OBJECT__41
10
0
20
0
30
0
70
128
71
33
72
34
73
31
0
VERTEX
8
OBJECT__41
10
0
20
0
30
0
70
128
71
35
72
36
73
34
0
VERTEX
8
OBJECT__41
10
0
20
0
30
0
70
128
71
34
72
33
73
35
0
VERTEX
8
OBJECT__41
10
0
20
0
30
0
70
128
71
35
72
37
73
36
0
VERTEX
8
OBJECT__41
10
0
20
0
30
0
70
128
71
39
72
37
73
38
0
VERTEX
8
OBJECT__41
10
0
20
0
30
0
70
128
71
39
72
36
73
37
0
VERTEX
8
OBJECT__41
10
0
20
0
30
0
70
128
71
12
72
11
73
40
0
VERTEX
8
OBJECT__41
10
0
20
0
30
0
70
128
71
40
72
41
73
12
0
VERTEX
8
OBJECT__41
10
0
20
0
30
0
70
128
71
40
72
42
73
41
0
VERTEX
8
OBJECT__41
10
0
20
0
30
0
70
128
71
43
72
44
73
41
0
VERTEX
8
OBJECT__41
10
0
20
0
30
0
70
128
71
45
72
31
73
44
0
VERTEX
8
OBJECT__41
10
0
20
0
30
0
70
128
71
44
72
43
73
45
0
VERTEX
8
OBJECT__41
10
0
20
0
30
0
70
128
71
45
72
32
73
31
0
VERTEX
8
OBJECT__41
10
0
20
0
30
0
70
128
71
41
72
42
73
43
0
VERTEX
8
OBJECT__41
10
0
20
0
30
0
70
128
71
39
72
38
73
46
0
VERTEX
8
OBJECT__41
10
0
20
0
30
0
70
128
71
47
72
2
73
48
0
VERTEX
8
OBJECT__41
10
0
20
0
30
0
70
128
71
48
72
46
73
47
0
VERTEX
8
OBJECT__41
10
0
20
0
30
0
70
128
71
47
72
1
73
2
0
VERTEX
8
OBJECT__41
10
0
20
0
30
0
70
128
71
46
72
48
73
39
0
VERTEX
8
OBJECT__41
10
0
20
0
30
0
70
128
71
10
72
49
73
8
0
SEQEND
8
OBJECT__41
0
POLYLINE
8
OBJECT__42
66
1
70
64
71
49
72
47
62
253
0
VERTEX
8
OBJECT__42
10
45.886002
20
18.834000
30
-7.801000
70
192
0
VERTEX
8
OBJECT__42
10
46.221001
20
18.040001
30
-0.001000
70
192
0
VERTEX
8
OBJECT__42
10
46.221001
20
17.636000
30
-3.792000
70
192
0
VERTEX
8
OBJECT__42
10
45.886002
20
19.608000
30
-5.986000
70
192
0
VERTEX
8
OBJECT__42
10
45.886002
20
20.429001
30
-1.724000
70
192
0
VERTEX
8
OBJECT__42
10
45.886002
20
20.389999
30
-0.004000
70
192
0
VERTEX
8
OBJECT__42
10
46.221001
20
16.594999
30
-6.881000
70
192
0
VERTEX
8
OBJECT__42
10
45.886002
20
7.847000
30
18.941000
70
192
0
VERTEX
8
OBJECT__42
10
45.886002
20
3.676000
30
20.167999
70
192
0
VERTEX
8
OBJECT__42
10
46.221001
20
3.779000
30
17.639000
70
192
0
VERTEX
8
OBJECT__42
10
46.221001
20
6.881000
30
16.596001
70
192
0
VERTEX
8
OBJECT__42
10
46.221001
20
0.001000
30
18.040001
70
192
0
VERTEX
8
OBJECT__42
10
45.886002
20
0.001000
30
20.502001
70
192
0
VERTEX
8
OBJECT__42
10
46.221001
20
6.873000
30
-16.582001
70
192
0
VERTEX
8
OBJECT__42
10
45.886002
20
7.826000
30
-18.886000
70
192
0
VERTEX
8
OBJECT__42
10
45.886002
20
7.832000
30
-18.884001
70
192
0
VERTEX
8
OBJECT__42
10
46.221001
20
7.885000
30
-16.225000
70
192
0
VERTEX
8
OBJECT__42
10
45.886002
20
8.440000
30
-18.684000
70
192
0
VERTEX
8
OBJECT__42
10
45.886002
20
12.187000
30
-16.485001
70
192
0
VERTEX
8
OBJECT__42
10
46.221001
20
11.326000
30
-14.041000
70
192
0
VERTEX
8
OBJECT__42
10
45.886002
20
14.428000
30
-14.428000
70
192
0
VERTEX
8
OBJECT__42
10
46.221001
20
12.673000
30
-12.675000
70
192
0
VERTEX
8
OBJECT__42
10
45.886002
20
14.430000
30
-14.426000
70
192
0
VERTEX
8
OBJECT__42
10
45.886002
20
15.395000
30
-13.540000
70
192
0
VERTEX
8
OBJECT__42
10
46.221001
20
14.196000
30
-11.130000
70
192
0
VERTEX
8
OBJECT__42
10
45.886002
20
17.900000
30
-9.994000
70
192
0
VERTEX
8
OBJECT__42
10
46.221001
20
16.330999
30
-7.664000
70
192
0
VERTEX
8
OBJECT__42
10
45.886002
20
18.833000
30
-7.804000
70
192
0
VERTEX
8
OBJECT__42
10
45.886002
20
4.308000
30
-20.042999
70
192
0
VERTEX
8
OBJECT__42
10
46.221001
20
4.039000
30
-17.580999
70
192
0
VERTEX
8
OBJECT__42
10
46.221001
20
-0.001000
30
-18.040001
70
192
0
VERTEX
8
OBJECT__42
10
46.221001
20
16.580999
30
6.872000
70
192
0
VERTEX
8
OBJECT__42
10
45.886002
20
18.864000
30
7.807000
70
192
0
VERTEX
8
OBJECT__42
10
45.886002
20
18.863001
30
7.810000
70
192
0
VERTEX
8
OBJECT__42
10
46.221001
20
16.219000
30
7.898000
70
192
0
VERTEX
8
OBJECT__42
10
45.886002
20
17.437000
30
10.782000
70
192
0
VERTEX
8
OBJECT__42
10
45.886002
20
14.776000
30
14.213000
70
192
0
VERTEX
8
OBJECT__42
10
46.221001
20
14.032000
30
11.337000
70
192
0
VERTEX
8
OBJECT__42
10
45.886002
20
14.473000
30
14.467000
70
192
0
VERTEX
8
OBJECT__42
10
46.221001
20
12.675000
30
12.673000
70
192
0
VERTEX
8
OBJECT__42
10
45.886002
20
14.471000
30
14.469000
70
192
0
VERTEX
8
OBJECT__42
10
46.221001
20
11.120000
30
14.204000
70
192
0
VERTEX
8
OBJECT__42
10
45.886002
20
11.441000
30
17.011000
70
192
0
VERTEX
8
OBJECT__42
10
45.886002
20
7.852000
30
18.938000
70
192
0
VERTEX
8
OBJECT__42
10
46.221001
20
7.652000
30
16.336000
70
192
0
VERTEX
8
OBJECT__42
10
45.886002
20
20.330999
30
2.633000
70
192
0
VERTEX
8
OBJECT__42
10
45.886002
20
19.322001
30
6.854000
70
192
0
VERTEX
8
OBJECT__42
10
46.221001
20
17.577999
30
4.051000
70
192
0
VERTEX
8
OBJECT__42
10
45.886002
20
-0.001000
30
-20.502001
70
192
0
VERTEX
8
OBJECT__42
10
0
20
0
30
0
70
128
71
1
72
2
73
3
0
VERTEX
8
OBJECT__42
10
0
20
0
30
0
70
128
71
2
72
4
73
5
0
VERTEX
8
OBJECT__42
10
0
20
0
30
0
70
128
71
5
72
6
73
2
0
VERTEX
8
OBJECT__42
10
0
20
0
30
0
70
128
71
2
72
1
73
4
0
VERTEX
8
OBJECT__42
10
0
20
0
30
0
70
128
71
3
72
7
73
1
0
VERTEX
8
OBJECT__42
10
0
20
0
30
0
70
128
71
8
72
9
73
10
0
VERTEX
8
OBJECT__42
10
0
20
0
30
0
70
128
71
10
72
11
73
8
0
VERTEX
8
OBJECT__42
10
0
20
0
30
0
70
128
71
12
72
10
73
9
0
VERTEX
8
OBJECT__42
10
0
20
0
30
0
70
128
71
9
72
13
73
12
0
VERTEX
8
OBJECT__42
10
0
20
0
30
0
70
128
71
14
72
15
73
16
0
VERTEX
8
OBJECT__42
10
0
20
0
30
0
70
128
71
16
72
17
73
14
0
VERTEX
8
OBJECT__42
10
0
20
0
30
0
70
128
71
16
72
18
73
17
0
VERTEX
8
OBJECT__42
10
0
20
0
30
0
70
128
71
19
72
20
73
17
0
VERTEX
8
OBJECT__42
10
0
20
0
30
0
70
128
71
21
72
22
73
20
0
VERTEX
8
OBJECT__42
10
0
20
0
30
0
70
128
71
20
72
19
73
21
0
VERTEX
8
OBJECT__42
10
0
20
0
30
0
70
128
71
21
72
23
73
22
0
VERTEX
8
OBJECT__42
10
0
20
0
30
0
70
128
71
17
72
18
73
19
0
VERTEX
8
OBJECT__42
10
0
20
0
30
0
70
128
71
22
72
23
73
24
0
VERTEX
8
OBJECT__42
10
0
20
0
30
0
70
128
71
24
72
25
73
22
0
VERTEX
8
OBJECT__42
10
0
20
0
30
0
70
128
71
26
72
27
73
25
0
VERTEX
8
OBJECT__42
10
0
20
0
30
0
70
128
71
25
72
24
73
26
0
VERTEX
8
OBJECT__42
10
0
20
0
30
0
70
128
71
26
72
28
73
27
0
VERTEX
8
OBJECT__42
10
0
20
0
30
0
70
128
71
7
72
28
73
1
0
VERTEX
8
OBJECT__42
10
0
20
0
30
0
70
128
71
7
72
27
73
28
0
VERTEX
8
OBJECT__42
10
0
20
0
30
0
70
128
71
29
72
30
73
31
0
VERTEX
8
OBJECT__42
10
0
20
0
30
0
70
128
71
14
72
29
73
15
0
VERTEX
8
OBJECT__42
10
0
20
0
30
0
70
128
71
14
72
30
73
29
0
VERTEX
8
OBJECT__42
10
0
20
0
30
0
70
128
71
32
72
33
73
34
0
VERTEX
8
OBJECT__42
10
0
20
0
30
0
70
128
71
34
72
35
73
32
0
VERTEX
8
OBJECT__42
10
0
20
0
30
0
70
128
71
36
72
37
73
38
0
VERTEX
8
OBJECT__42
10
0
20
0
30
0
70
128
71
35
72
34
73
36
0
VERTEX
8
OBJECT__42
10
0
20
0
30
0
70
128
71
40
72
37
73
39
0
VERTEX
8
OBJECT__42
10
0
20
0
30
0
70
128
71
40
72
38
73
37
0
VERTEX
8
OBJECT__42
10
0
20
0
30
0
70
128
71
38
72
35
73
36
0
VERTEX
8
OBJECT__42
10
0
20
0
30
0
70
128
71
40
72
39
73
41
0
VERTEX
8
OBJECT__42
10
0
20
0
30
0
70
128
71
41
72
42
73
40
0
VERTEX
8
OBJECT__42
10
0
20
0
30
0
70
128
71
41
72
43
73
42
0
VERTEX
8
OBJECT__42
10
0
20
0
30
0
70
128
71
43
72
44
73
45
0
VERTEX
8
OBJECT__42
10
0
20
0
30
0
70
128
71
45
72
42
73
43
0
VERTEX
8
OBJECT__42
10
0
20
0
30
0
70
128
71
11
72
45
73
44
0
VERTEX
8
OBJECT__42
10
0
20
0
30
0
70
128
71
44
72
8
73
11
0
VERTEX
8
OBJECT__42
10
0
20
0
30
0
70
128
71
2
72
6
73
46
0
VERTEX
8
OBJECT__42
10
0
20
0
30
0
70
128
71
47
72
32
73
48
0
VERTEX
8
OBJECT__42
10
0
20
0
30
0
70
128
71
48
72
46
73
47
0
VERTEX
8
OBJECT__42
10
0
20
0
30
0
70
128
71
47
72
33
73
32
0
VERTEX
8
OBJECT__42
10
0
20
0
30
0
70
128
71
46
72
48
73
2
0
VERTEX
8
OBJECT__42
10
0
20
0
30
0
70
128
71
31
72
49
73
29
0
SEQEND
8
OBJECT__42
0
POLYLINE
8
OBJECT__43
66
1
70
64
71
59
72
57
62
253
0
VERTEX
8
OBJECT__43
10
45.591000
20
-20.750000
30
0.001000
70
192
0
VERTEX
8
OBJECT__43
10
45.591000
20
-20.290001
30
-4.343000
70
192
0
VERTEX
8
OBJECT__43
10
45.886002
20
-20.330999
30
-2.633000
70
192
0
VERTEX
8
OBJECT__43
10
45.591000
20
-19.171000
30
-7.939000
70
192
0
VERTEX
8
OBJECT__43
10
45.886002
20
-19.322001
30
-6.854000
70
192
0
VERTEX
8
OBJECT__43
10
45.886002
20
-18.864000
30
-7.807000
70
192
0
VERTEX
8
OBJECT__43
10
45.591000
20
-19.167999
30
-7.944000
70
192
0
VERTEX
8
OBJECT__43
10
45.886002
20
-18.862000
30
-7.813000
70
192
0
VERTEX
8
OBJECT__43
10
45.695000
20
0.001000
30
20.731001
70
192
0
VERTEX
8
OBJECT__43
10
45.591000
20
0.001000
30
20.750000
70
192
0
VERTEX
8
OBJECT__43
10
45.886002
20
-4.308000
30
20.042999
70
192
0
VERTEX
8
OBJECT__43
10
45.886002
20
0.001000
30
20.502001
70
192
0
VERTEX
8
OBJECT__43
10
45.591000
20
-4.343000
30
20.290001
70
192
0
VERTEX
8
OBJECT__43
10
45.591000
20
-7.939000
30
19.170000
70
192
0
VERTEX
8
OBJECT__43
10
45.886002
20
-7.826000
30
18.886000
70
192
0
VERTEX
8
OBJECT__43
10
45.591000
20
-7.942000
30
19.169001
70
192
0
VERTEX
8
OBJECT__43
10
45.886002
20
-7.829000
30
18.885000
70
192
0
VERTEX
8
OBJECT__43
10
45.591000
20
-14.667000
30
-14.677000
70
192
0
VERTEX
8
OBJECT__43
10
45.591000
20
-11.280000
30
-17.415001
70
192
0
VERTEX
8
OBJECT__43
10
45.886002
20
-11.441000
30
-17.011000
70
192
0
VERTEX
8
OBJECT__43
10
45.886002
20
-7.849000
30
-18.940001
70
192
0
VERTEX
8
OBJECT__43
10
45.591000
20
-10.344000
30
-17.907000
70
192
0
VERTEX
8
OBJECT__43
10
45.591000
20
-7.944000
30
-19.167999
70
192
0
VERTEX
8
OBJECT__43
10
45.591000
20
-17.875000
30
-10.322000
70
192
0
VERTEX
8
OBJECT__43
10
45.886002
20
-14.776000
30
-14.213000
70
192
0
VERTEX
8
OBJECT__43
10
45.886002
20
-17.437000
30
-10.782000
70
192
0
VERTEX
8
OBJECT__43
10
45.591000
20
-17.082001
30
-11.778000
70
192
0
VERTEX
8
OBJECT__43
10
45.591000
20
-15.398000
30
-13.909000
70
192
0
VERTEX
8
OBJECT__43
10
45.591000
20
-14.673000
30
-14.672000
70
192
0
VERTEX
8
OBJECT__43
10
45.886002
20
-14.473000
30
-14.467000
70
192
0
VERTEX
8
OBJECT__43
10
45.886002
20
-14.467000
30
-14.472000
70
192
0
VERTEX
8
OBJECT__43
10
45.886002
20
-7.847000
30
-18.941000
70
192
0
VERTEX
8
OBJECT__43
10
45.591000
20
-7.941000
30
-19.170000
70
192
0
VERTEX
8
OBJECT__43
10
45.591000
20
-0.001000
30
-20.750000
70
192
0
VERTEX
8
OBJECT__43
10
45.886002
20
-3.676000
30
-20.167999
70
192
0
VERTEX
8
OBJECT__43
10
45.849998
20
-0.001000
30
-20.601000
70
192
0
VERTEX
8
OBJECT__43
10
45.886002
20
-0.001000
30
-20.502001
70
192
0
VERTEX
8
OBJECT__43
10
45.886002
20
-14.424000
30
14.431000
70
192
0
VERTEX
8
OBJECT__43
10
45.591000
20
-14.665000
30
14.679000
70
192
0
VERTEX
8
OBJECT__43
10
45.591000
20
-14.671000
30
14.673000
70
192
0
VERTEX
8
OBJECT__43
10
45.886002
20
-15.395000
30
13.540000
70
192
0
VERTEX
8
OBJECT__43
10
45.886002
20
-14.430000
30
14.426000
70
192
0
VERTEX
8
OBJECT__43
10
45.591000
20
-17.420000
30
11.273000
70
192
0
VERTEX
8
OBJECT__43
10
45.886002
20
-17.900000
30
9.994000
70
192
0
VERTEX
8
OBJECT__43
10
45.591000
20
-17.908001
30
10.344000
70
192
0
VERTEX
8
OBJECT__43
10
45.591000
20
-19.167000
30
7.947000
70
192
0
VERTEX
8
OBJECT__43
10
45.886002
20
-18.832001
30
7.807000
70
192
0
VERTEX
8
OBJECT__43
10
45.886002
20
-12.187000
30
16.485001
70
192
0
VERTEX
8
OBJECT__43
10
45.886002
20
-8.440000
30
18.684000
70
192
0
VERTEX
8
OBJECT__43
10
45.591000
20
-10.335000
30
17.913000
70
192
0
VERTEX
8
OBJECT__43
10
45.591000
20
-9.671000
30
18.358000
70
192
0
VERTEX
8
OBJECT__43
10
45.591000
20
-13.297000
30
15.929000
70
192
0
VERTEX
8
OBJECT__43
10
45.591000
20
-13.967000
30
15.345000
70
192
0
VERTEX
8
OBJECT__43
10
45.591000
20
-19.170000
30
7.942000
70
192
0
VERTEX
8
OBJECT__43
10
45.886002
20
-18.834000
30
7.801000
70
192
0
VERTEX
8
OBJECT__43
10
45.886002
20
-19.608000
30
5.986000
70
192
0
VERTEX
8
OBJECT__43
10
45.591000
20
-20.407000
30
3.750000
70
192
0
VERTEX
8
OBJECT__43
10
45.886002
20
-20.429001
30
1.724000
70
192
0
VERTEX
8
OBJECT__43
10
45.886002
20
-20.389999
30
0.004000
70
192
0
VERTEX
8
OBJECT__43
10
0
20
0
30
0
70
128
71
1
72
2
73
3
0
VERTEX
8
OBJECT__43
10
0
20
0
30
0
70
128
71
2
72
4
73
5
0
VERTEX
8
OBJECT__43
10
0
20
0
30
0
70
128
71
5
72
3
73
2
0
VERTEX
8
OBJECT__43
10
0
20
0
30
0
70
128
71
6
72
5
73
4
0
VERTEX
8
OBJECT__43
10
0
20
0
30
0
70
128
71
7
72
8
73
6
0
VERTEX
8
OBJECT__43
10
0
20
0
30
0
70
128
71
4
72
7
73
6
0
VERTEX
8
OBJECT__43
10
0
20
0
30
0
70
128
71
11
72
12
73
9
0
VERTEX
8
OBJECT__43
10
0
20
0
30
0
70
128
71
10
72
11
73
9
0
VERTEX
8
OBJECT__43
10
0
20
0
30
0
70
128
71
10
72
13
73
11
0
VERTEX
8
OBJECT__43
10
0
20
0
30
0
70
128
71
14
72
15
73
11
0
VERTEX
8
OBJECT__43
10
0
20
0
30
0
70
128
71
15
72
14
73
16
0
VERTEX
8
OBJECT__43
10
0
20
0
30
0
70
128
71
16
72
17
73
15
0
VERTEX
8
OBJECT__43
10
0
20
0
30
0
70
128
71
11
72
13
73
14
0
VERTEX
8
OBJECT__43
10
0
20
0
30
0
70
128
71
18
72
19
73
20
0
VERTEX
8
OBJECT__43
10
0
20
0
30
0
70
128
71
21
72
20
73
22
0
VERTEX
8
OBJECT__43
10
0
20
0
30
0
70
128
71
20
72
19
73
22
0
VERTEX
8
OBJECT__43
10
0
20
0
30
0
70
128
71
22
72
23
73
21
0
VERTEX
8
OBJECT__43
10
0
20
0
30
0
70
128
71
8
72
7
73
24
0
VERTEX
8
OBJECT__43
10
0
20
0
30
0
70
128
71
25
72
26
73
27
0
VERTEX
8
OBJECT__43
10
0
20
0
30
0
70
128
71
26
72
24
73
27
0
VERTEX
8
OBJECT__43
10
0
20
0
30
0
70
128
71
27
72
28
73
25
0
VERTEX
8
OBJECT__43
10
0
20
0
30
0
70
128
71
28
72
29
73
25
0
VERTEX
8
OBJECT__43
10
0
20
0
30
0
70
128
71
30
72
25
73
29
0
VERTEX
8
OBJECT__43
10
0
20
0
30
0
70
128
71
18
72
31
73
30
0
VERTEX
8
OBJECT__43
10
0
20
0
30
0
70
128
71
29
72
18
73
30
0
VERTEX
8
OBJECT__43
10
0
20
0
30
0
70
128
71
32
72
23
73
33
0
VERTEX
8
OBJECT__43
10
0
20
0
30
0
70
128
71
33
72
34
73
35
0
VERTEX
8
OBJECT__43
10
0
20
0
30
0
70
128
71
35
72
34
73
36
0
VERTEX
8
OBJECT__43
10
0
20
0
30
0
70
128
71
36
72
37
73
35
0
VERTEX
8
OBJECT__43
10
0
20
0
30
0
70
128
71
33
72
35
73
32
0
VERTEX
8
OBJECT__43
10
0
20
0
30
0
70
128
71
38
72
39
73
40
0
VERTEX
8
OBJECT__43
10
0
20
0
30
0
70
128
71
40
72
41
73
42
0
VERTEX
8
OBJECT__43
10
0
20
0
30
0
70
128
71
43
72
44
73
41
0
VERTEX
8
OBJECT__43
10
0
20
0
30
0
70
128
71
41
72
40
73
43
0
VERTEX
8
OBJECT__43
10
0
20
0
30
0
70
128
71
43
72
45
73
44
0
VERTEX
8
OBJECT__43
10
0
20
0
30
0
70
128
71
46
72
47
73
44
0
VERTEX
8
OBJECT__43
10
0
20
0
30
0
70
128
71
44
72
45
73
46
0
VERTEX
8
OBJECT__43
10
0
20
0
30
0
70
128
71
48
72
49
73
50
0
VERTEX
8
OBJECT__43
10
0
20
0
30
0
70
128
71
49
72
16
73
51
0
VERTEX
8
OBJECT__43
10
0
20
0
30
0
70
128
71
51
72
50
73
49
0
VERTEX
8
OBJECT__43
10
0
20
0
30
0
70
128
71
38
72
48
73
52
0
VERTEX
8
OBJECT__43
10
0
20
0
30
0
70
128
71
52
72
53
73
38
0
VERTEX
8
OBJECT__43
10
0
20
0
30
0
70
128
71
53
72
39
73
38
0
VERTEX
8
OBJECT__43
10
0
20
0
30
0
70
128
71
50
72
52
73
48
0
VERTEX
8
OBJECT__43
10
0
20
0
30
0
70
128
71
54
72
55
73
47
0
VERTEX
8
OBJECT__43
10
0
20
0
30
0
70
128
71
54
72
56
73
55
0
VERTEX
8
OBJECT__43
10
0
20
0
30
0
70
128
71
57
72
58
73
56
0
VERTEX
8
OBJECT__43
10
0
20
0
30
0
70
128
71
56
72
54
73
57
0
VERTEX
8
OBJECT__43
10
0
20
0
30
0
70
128
71
57
72
1
73
58
0
VERTEX
8
OBJECT__43
10
0
20
0
30
0
70
128
71
59
72
58
73
1
0
VERTEX
8
OBJECT__43
10
0
20
0
30
0
70
128
71
47
72
46
73
54
0
VERTEX
8
OBJECT__43
10
0
20
0
30
0
70
128
71
49
72
17
73
16
0
VERTEX
8
OBJECT__43
10
0
20
0
30
0
70
128
71
40
72
42
73
38
0
VERTEX
8
OBJECT__43
10
0
20
0
30
0
70
128
71
32
72
21
73
23
0
VERTEX
8
OBJECT__43
10
0
20
0
30
0
70
128
71
24
72
26
73
8
0
VERTEX
8
OBJECT__43
10
0
20
0
30
0
70
128
71
20
72
31
73
18
0
VERTEX
8
OBJECT__43
10
0
20
0
30
0
70
128
71
3
72
59
73
1
0
SEQEND
8
OBJECT__43
0
POLYLINE
8
OBJECT__44
66
1
70
64
71
52
72
50
62
253
0
VERTEX
8
OBJECT__44
10
45.591000
20
19.171000
30
7.939000
70
192
0
VERTEX
8
OBJECT__44
10
45.886002
20
19.322001
30
6.854000
70
192
0
VERTEX
8
OBJECT__44
10
45.886002
20
20.330999
30
2.633000
70
192
0
VERTEX
8
OBJECT__44
10
45.886002
20
18.864000
30
7.807000
70
192
0
VERTEX
8
OBJECT__44
10
45.591000
20
19.170000
30
7.942000
70
192
0
VERTEX
8
OBJECT__44
10
45.886002
20
18.863001
30
7.810000
70
192
0
VERTEX
8
OBJECT__44
10
45.591000
20
20.750000
30
-0.001000
70
192
0
VERTEX
8
OBJECT__44
10
45.886002
20
4.308000
30
-20.042999
70
192
0
VERTEX
8
OBJECT__44
10
45.886002
20
-0.001000
30
-20.502001
70
192
0
VERTEX
8
OBJECT__44
10
45.849998
20
-0.001000
30
-20.601000
70
192
0
VERTEX
8
OBJECT__44
10
45.591000
20
-0.001000
30
-20.750000
70
192
0
VERTEX
8
OBJECT__44
10
45.591000
20
7.939000
30
-19.170000
70
192
0
VERTEX
8
OBJECT__44
10
45.886002
20
7.826000
30
-18.886000
70
192
0
VERTEX
8
OBJECT__44
10
45.591000
20
7.945000
30
-19.167999
70
192
0
VERTEX
8
OBJECT__44
10
45.886002
20
7.832000
30
-18.884001
70
192
0
VERTEX
8
OBJECT__44
10
45.591000
20
14.671000
30
14.673000
70
192
0
VERTEX
8
OBJECT__44
10
45.591000
20
10.376000
30
17.969000
70
192
0
VERTEX
8
OBJECT__44
10
45.886002
20
11.441000
30
17.011000
70
192
0
VERTEX
8
OBJECT__44
10
45.886002
20
7.852000
30
18.938000
70
192
0
VERTEX
8
OBJECT__44
10
45.591000
20
7.947000
30
19.167000
70
192
0
VERTEX
8
OBJECT__44
10
45.591000
20
17.971001
30
10.374000
70
192
0
VERTEX
8
OBJECT__44
10
45.591000
20
15.398000
30
13.909000
70
192
0
VERTEX
8
OBJECT__44
10
45.886002
20
14.776000
30
14.213000
70
192
0
VERTEX
8
OBJECT__44
10
45.886002
20
17.437000
30
10.782000
70
192
0
VERTEX
8
OBJECT__44
10
45.591000
20
14.673000
30
14.672000
70
192
0
VERTEX
8
OBJECT__44
10
45.886002
20
14.473000
30
14.467000
70
192
0
VERTEX
8
OBJECT__44
10
45.886002
20
14.471000
30
14.469000
70
192
0
VERTEX
8
OBJECT__44
10
45.886002
20
14.428000
30
-14.428000
70
192
0
VERTEX
8
OBJECT__44
10
45.591000
20
14.669000
30
-14.675000
70
192
0
VERTEX
8
OBJECT__44
10
45.591000
20
14.672000
30
-14.673000
70
192
0
VERTEX
8
OBJECT__44
10
45.886002
20
15.395000
30
-13.540000
70
192
0
VERTEX
8
OBJECT__44
10
45.886002
20
14.430000
30
-14.426000
70
192
0
VERTEX
8
OBJECT__44
10
45.591000
20
17.969000
30
-10.376000
70
192
0
VERTEX
8
OBJECT__44
10
45.886002
20
17.900000
30
-9.994000
70
192
0
VERTEX
8
OBJECT__44
10
45.591000
20
19.169001
30
-7.944000
70
192
0
VERTEX
8
OBJECT__44
10
45.886002
20
18.833000
30
-7.804000
70
192
0
VERTEX
8
OBJECT__44
10
45.591000
20
10.374000
30
-17.971001
70
192
0
VERTEX
8
OBJECT__44
10
45.591000
20
14.016000
30
-15.301000
70
192
0
VERTEX
8
OBJECT__44
10
45.886002
20
12.187000
30
-16.485001
70
192
0
VERTEX
8
OBJECT__44
10
45.886002
20
8.440000
30
-18.684000
70
192
0
VERTEX
8
OBJECT__44
10
45.591000
20
9.671000
30
-18.358000
70
192
0
VERTEX
8
OBJECT__44
10
45.591000
20
19.170000
30
-7.942000
70
192
0
VERTEX
8
OBJECT__44
10
45.886002
20
18.834000
30
-7.801000
70
192
0
VERTEX
8
OBJECT__44
10
45.886002
20
19.608000
30
-5.986000
70
192
0
VERTEX
8
OBJECT__44
10
45.886002
20
20.429001
30
-1.724000
70
192
0
VERTEX
8
OBJECT__44
10
45.886002
20
20.389999
30
-0.004000
70
192
0
VERTEX
8
OBJECT__44
10
45.886002
20
7.847000
30
18.941000
70
192
0
VERTEX
8
OBJECT__44
10
45.591000
20
7.942000
30
19.170000
70
192
0
VERTEX
8
OBJECT__44
10
45.591000
20
0.001000
30
20.750000
70
192
0
VERTEX
8
OBJECT__44
10
45.886002
20
3.676000
30
20.167999
70
192
0
VERTEX
8
OBJECT__44
10
45.695000
20
0.001000
30
20.731001
70
192
0
VERTEX
8
OBJECT__44
10
45.886002
20
0.001000
30
20.502001
70
192
0
VERTEX
8
OBJECT__44
10
0
20
0
30
0
70
128
71
1
72
2
73
3
0
VERTEX
8
OBJECT__44
10
0
20
0
30
0
70
128
71
4
72
2
73
1
0
VERTEX
8
OBJECT__44
10
0
20
0
30
0
70
128
71
5
72
6
73
4
0
VERTEX
8
OBJECT__44
10
0
20
0
30
0
70
128
71
1
72
5
73
4
0
VERTEX
8
OBJECT__44
10
0
20
0
30
0
70
128
71
3
72
7
73
1
0
VERTEX
8
OBJECT__44
10
0
20
0
30
0
70
128
71
8
72
9
73
10
0
VERTEX
8
OBJECT__44
10
0
20
0
30
0
70
128
71
11
72
12
73
8
0
VERTEX
8
OBJECT__44
10
0
20
0
30
0
70
128
71
13
72
12
73
14
0
VERTEX
8
OBJECT__44
10
0
20
0
30
0
70
128
71
14
72
15
73
13
0
VERTEX
8
OBJECT__44
10
0
20
0
30
0
70
128
71
13
72
8
73
12
0
VERTEX
8
OBJECT__44
10
0
20
0
30
0
70
128
71
16
72
17
73
18
0
VERTEX
8
OBJECT__44
10
0
20
0
30
0
70
128
71
19
72
18
73
17
0
VERTEX
8
OBJECT__44
10
0
20
0
30
0
70
128
71
17
72
20
73
19
0
VERTEX
8
OBJECT__44
10
0
20
0
30
0
70
128
71
6
72
5
73
21
0
VERTEX
8
OBJECT__44
10
0
20
0
30
0
70
128
71
22
72
23
73
24
0
VERTEX
8
OBJECT__44
10
0
20
0
30
0
70
128
71
24
72
21
73
22
0
VERTEX
8
OBJECT__44
10
0
20
0
30
0
70
128
71
22
72
25
73
23
0
VERTEX
8
OBJECT__44
10
0
20
0
30
0
70
128
71
26
72
23
73
25
0
VERTEX
8
OBJECT__44
10
0
20
0
30
0
70
128
71
16
72
27
73
26
0
VERTEX
8
OBJECT__44
10
0
20
0
30
0
70
128
71
25
72
16
73
26
0
VERTEX
8
OBJECT__44
10
0
20
0
30
0
70
128
71
28
72
29
73
30
0
VERTEX
8
OBJECT__44
10
0
20
0
30
0
70
128
71
30
72
31
73
32
0
VERTEX
8
OBJECT__44
10
0
20
0
30
0
70
128
71
33
72
34
73
31
0
VERTEX
8
OBJECT__44
10
0
20
0
30
0
70
128
71
35
72
36
73
34
0
VERTEX
8
OBJECT__44
10
0
20
0
30
0
70
128
71
34
72
33
73
35
0
VERTEX
8
OBJECT__44
10
0
20
0
30
0
70
128
71
31
72
30
73
33
0
VERTEX
8
OBJECT__44
10
0
20
0
30
0
70
128
71
37
72
38
73
39
0
VERTEX
8
OBJECT__44
10
0
20
0
30
0
70
128
71
40
72
41
73
37
0
VERTEX
8
OBJECT__44
10
0
20
0
30
0
70
128
71
40
72
14
73
41
0
VERTEX
8
OBJECT__44
10
0
20
0
30
0
70
128
71
28
72
39
73
38
0
VERTEX
8
OBJECT__44
10
0
20
0
30
0
70
128
71
38
72
29
73
28
0
VERTEX
8
OBJECT__44
10
0
20
0
30
0
70
128
71
39
72
40
73
37
0
VERTEX
8
OBJECT__44
10
0
20
0
30
0
70
128
71
42
72
43
73
36
0
VERTEX
8
OBJECT__44
10
0
20
0
30
0
70
128
71
42
72
44
73
43
0
VERTEX
8
OBJECT__44
10
0
20
0
30
0
70
128
71
44
72
42
73
7
0
VERTEX
8
OBJECT__44
10
0
20
0
30
0
70
128
71
7
72
45
73
44
0
VERTEX
8
OBJECT__44
10
0
20
0
30
0
70
128
71
7
72
46
73
45
0
VERTEX
8
OBJECT__44
10
0
20
0
30
0
70
128
71
47
72
20
73
48
0
VERTEX
8
OBJECT__44
10
0
20
0
30
0
70
128
71
48
72
49
73
50
0
VERTEX
8
OBJECT__44
10
0
20
0
30
0
70
128
71
50
72
49
73
51
0
VERTEX
8
OBJECT__44
10
0
20
0
30
0
70
128
71
51
72
52
73
50
0
VERTEX
8
OBJECT__44
10
0
20
0
30
0
70
128
71
48
72
50
73
47
0
VERTEX
8
OBJECT__44
10
0
20
0
30
0
70
128
71
47
72
19
73
20
0
VERTEX
8
OBJECT__44
10
0
20
0
30
0
70
128
71
36
72
35
73
42
0
VERTEX
8
OBJECT__44
10
0
20
0
30
0
70
128
71
40
72
15
73
14
0
VERTEX
8
OBJECT__44
10
0
20
0
30
0
70
128
71
30
72
32
73
28
0
VERTEX
8
OBJECT__44
10
0
20
0
30
0
70
128
71
21
72
24
73
6
0
VERTEX
8
OBJECT__44
10
0
20
0
30
0
70
128
71
18
72
27
73
16
0
VERTEX
8
OBJECT__44
10
0
20
0
30
0
70
128
71
10
72
11
73
8
0
VERTEX
8
OBJECT__44
10
0
20
0
30
0
70
128
71
3
72
46
73
7
0
SEQEND
8
OBJECT__44
0
POLYLINE
8
OBJECT__45
66
1
70
64
71
61
72
61
62
253
0
VERTEX
8
OBJECT__45
10
39.763000
20
-10.376000
30
-17.969000
70
192
0
VERTEX
8
OBJECT__45
10
45.591000
20
-7.941000
30
-19.170000
70
192
0
VERTEX
8
OBJECT__45
10
45.591000
20
-7.944000
30
-19.167999
70
192
0
VERTEX
8
OBJECT__45
10
39.763000
20
-0.001000
30
-20.750000
70
192
0
VERTEX
8
OBJECT__45
10
45.591000
20
-0.001000
30
-20.750000
70
192
0
VERTEX
8
OBJECT__45
10
39.763000
20
-17.971001
30
-10.374000
70
192
0
VERTEX
8
OBJECT__45
10
45.591000
20
-15.398000
30
-13.909000
70
192
0
VERTEX
8
OBJECT__45
10
45.591000
20
-17.082001
30
-11.778000
70
192
0
VERTEX
8
OBJECT__45
10
45.591000
20
-11.280000
30
-17.415001
70
192
0
VERTEX
8
OBJECT__45
10
45.591000
20
-14.667000
30
-14.677000
70
192
0
VERTEX
8
OBJECT__45
10
45.591000
20
-10.344000
30
-17.907000
70
192
0
VERTEX
8
OBJECT__45
10
45.591000
20
-14.673000
30
-14.672000
70
192
0
VERTEX
8
OBJECT__45
10
45.591000
20
-19.171000
30
-7.939000
70
192
0
VERTEX
8
OBJECT__45
10
45.591000
20
-20.290001
30
-4.343000
70
192
0
VERTEX
8
OBJECT__45
10
39.763000
20
-20.750000
30
0.001000
70
192
0
VERTEX
8
OBJECT__45
10
45.591000
20
-20.750000
30
0.001000
70
192
0
VERTEX
8
OBJECT__45
10
45.591000
20
-17.875000
30
-10.322000
70
192
0
VERTEX
8
OBJECT__45
10
45.591000
20
-19.167999
30
-7.944000
70
192
0
VERTEX
8
OBJECT__45
10
39.763000
20
-17.969000
30
10.376000
70
192
0
VERTEX
8
OBJECT__45
10
45.591000
20
-19.170000
30
7.942000
70
192
0
VERTEX
8
OBJECT__45
10
45.591000
20
-19.167000
30
7.947000
70
192
0
VERTEX
8
OBJECT__45
10
45.591000
20
-20.407000
30
3.750000
70
192
0
VERTEX
8
OBJECT__45
10
39.763000
20
-10.374000
30
17.971001
70
192
0
VERTEX
8
OBJECT__45
10
45.591000
20
-13.967000
30
15.345000
70
192
0
VERTEX
8
OBJECT__45
10
45.591000
20
-13.297000
30
15.929000
70
192
0
VERTEX
8
OBJECT__45
10
45.591000
20
-14.671000
30
14.673000
70
192
0
VERTEX
8
OBJECT__45
10
45.591000
20
-14.665000
30
14.679000
70
192
0
VERTEX
8
OBJECT__45
10
45.591000
20
-17.420000
30
11.273000
70
192
0
VERTEX
8
OBJECT__45
10
45.591000
20
-17.908001
30
10.344000
70
192
0
VERTEX
8
OBJECT__45
10
45.591000
20
-7.939000
30
19.170000
70
192
0
VERTEX
8
OBJECT__45
10
45.591000
20
-4.343000
30
20.290001
70
192
0
VERTEX
8
OBJECT__45
10
39.763000
20
0.001000
30
20.750000
70
192
0
VERTEX
8
OBJECT__45
10
45.591000
20
-7.942000
30
19.169001
70
192
0
VERTEX
8
OBJECT__45
10
45.591000
20
-9.671000
30
18.358000
70
192
0
VERTEX
8
OBJECT__45
10
45.591000
20
-10.335000
30
17.913000
70
192
0
VERTEX
8
OBJECT__45
10
39.763000
20
10.376000
30
17.969000
70
192
0
VERTEX
8
OBJECT__45
10
45.591000
20
0.001000
30
20.750000
70
192
0
VERTEX
8
OBJECT__45
10
45.591000
20
7.942000
30
19.170000
70
192
0
VERTEX
8
OBJECT__45
10
45.591000
20
7.947000
30
19.167000
70
192
0
VERTEX
8
OBJECT__45
10
45.591000
20
10.376000
30
17.969000
70
192
0
VERTEX
8
OBJECT__45
10
39.763000
20
17.971001
30
10.374000
70
192
0
VERTEX
8
OBJECT__45
10
45.591000
20
14.673000
30
14.672000
70
192
0
VERTEX
8
OBJECT__45
10
45.591000
20
14.671000
30
14.673000
70
192
0
VERTEX
8
OBJECT__45
10
45.591000
20
15.398000
30
13.909000
70
192
0
VERTEX
8
OBJECT__45
10
39.763000
20
20.750000
30
-0.001000
70
192
0
VERTEX
8
OBJECT__45
10
45.591000
20
19.171000
30
7.939000
70
192
0
VERTEX
8
OBJECT__45
10
45.591000
20
19.170000
30
7.942000
70
192
0
VERTEX
8
OBJECT__45
10
45.591000
20
17.971001
30
10.374000
70
192
0
VERTEX
8
OBJECT__45
10
45.591000
20
20.750000
30
-0.001000
70
192
0
VERTEX
8
OBJECT__45
10
39.763000
20
17.969000
30
-10.376000
70
192
0
VERTEX
8
OBJECT__45
10
45.591000
20
19.170000
30
-7.942000
70
192
0
VERTEX
8
OBJECT__45
10
45.591000
20
19.169001
30
-7.944000
70
192
0
VERTEX
8
OBJECT__45
10
45.591000
20
17.969000
30
-10.376000
70
192
0
VERTEX
8
OBJECT__45
10
39.763000
20
10.374000
30
-17.971001
70
192
0
VERTEX
8
OBJECT__45
10
45.591000
20
14.669000
30
-14.675000
70
192
0
VERTEX
8
OBJECT__45
10
45.591000
20
14.016000
30
-15.301000
70
192
0
VERTEX
8
OBJECT__45
10
45.591000
20
14.672000
30
-14.673000
70
192
0
VERTEX
8
OBJECT__45
10
45.591000
20
7.939000
30
-19.170000
70
192
0
VERTEX
8
OBJECT__45
10
45.591000
20
10.374000
30
-17.971001
70
192
0
VERTEX
8
OBJECT__45
10
45.591000
20
9.671000
30
-18.358000
70
192
0
VERTEX
8
OBJECT__45
10
45.591000
20
7.945000
30
-19.167999
70
192
0
VERTEX
8
OBJECT__45
10
0
20
0
30
0
70
128
71
1
72
2
73
3
0
VERTEX
8
OBJECT__45
10
0
20
0
30
0
70
128
71
4
72
5
73
2
0
VERTEX
8
OBJECT__45
10
0
20
0
30
0
70
128
71
2
72
1
73
4
0
VERTEX
8
OBJECT__45
10
0
20
0
30
0
70
128
71
6
72
7
73
8
0
VERTEX
8
OBJECT__45
10
0
20
0
30
0
70
128
71
1
72
9
73
10
0
VERTEX
8
OBJECT__45
10
0
20
0
30
0
70
128
71
1
72
11
73
9
0
VERTEX
8
OBJECT__45
10
0
20
0
30
0
70
128
71
10
72
6
73
1
0
VERTEX
8
OBJECT__45
10
0
20
0
30
0
70
128
71
10
72
12
73
6
0
VERTEX
8
OBJECT__45
10
0
20
0
30
0
70
128
71
12
72
7
73
6
0
VERTEX
8
OBJECT__45
10
0
20
0
30
0
70
128
71
6
72
13
73
14
0
VERTEX
8
OBJECT__45
10
0
20
0
30
0
70
128
71
14
72
15
73
6
0
VERTEX
8
OBJECT__45
10
0
20
0
30
0
70
128
71
14
72
16
73
15
0
VERTEX
8
OBJECT__45
10
0
20
0
30
0
70
128
71
6
72
17
73
18
0
VERTEX
8
OBJECT__45
10
0
20
0
30
0
70
128
71
18
72
13
73
6
0
VERTEX
8
OBJECT__45
10
0
20
0
30
0
70
128
71
19
72
20
73
21
0
VERTEX
8
OBJECT__45
10
0
20
0
30
0
70
128
71
19
72
15
73
22
0
VERTEX
8
OBJECT__45
10
0
20
0
30
0
70
128
71
15
72
16
73
22
0
VERTEX
8
OBJECT__45
10
0
20
0
30
0
70
128
71
22
72
20
73
19
0
VERTEX
8
OBJECT__45
10
0
20
0
30
0
70
128
71
23
72
24
73
25
0
VERTEX
8
OBJECT__45
10
0
20
0
30
0
70
128
71
23
72
26
73
27
0
VERTEX
8
OBJECT__45
10
0
20
0
30
0
70
128
71
19
72
28
73
26
0
VERTEX
8
OBJECT__45
10
0
20
0
30
0
70
128
71
19
72
29
73
28
0
VERTEX
8
OBJECT__45
10
0
20
0
30
0
70
128
71
26
72
23
73
19
0
VERTEX
8
OBJECT__45
10
0
20
0
30
0
70
128
71
27
72
24
73
23
0
VERTEX
8
OBJECT__45
10
0
20
0
30
0
70
128
71
23
72
30
73
31
0
VERTEX
8
OBJECT__45
10
0
20
0
30
0
70
128
71
31
72
32
73
23
0
VERTEX
8
OBJECT__45
10
0
20
0
30
0
70
128
71
23
72
33
73
30
0
VERTEX
8
OBJECT__45
10
0
20
0
30
0
70
128
71
23
72
34
73
33
0
VERTEX
8
OBJECT__45
10
0
20
0
30
0
70
128
71
23
72
35
73
34
0
VERTEX
8
OBJECT__45
10
0
20
0
30
0
70
128
71
36
72
37
73
38
0
VERTEX
8
OBJECT__45
10
0
20
0
30
0
70
128
71
38
72
39
73
36
0
VERTEX
8
OBJECT__45
10
0
20
0
30
0
70
128
71
37
72
36
73
32
0
VERTEX
8
OBJECT__45
10
0
20
0
30
0
70
128
71
39
72
40
73
36
0
VERTEX
8
OBJECT__45
10
0
20
0
30
0
70
128
71
41
72
36
73
42
0
VERTEX
8
OBJECT__45
10
0
20
0
30
0
70
128
71
36
72
43
73
42
0
VERTEX
8
OBJECT__45
10
0
20
0
30
0
70
128
71
42
72
44
73
41
0
VERTEX
8
OBJECT__45
10
0
20
0
30
0
70
128
71
36
72
40
73
43
0
VERTEX
8
OBJECT__45
10
0
20
0
30
0
70
128
71
45
72
41
73
46
0
VERTEX
8
OBJECT__45
10
0
20
0
30
0
70
128
71
41
72
47
73
46
0
VERTEX
8
OBJECT__45
10
0
20
0
30
0
70
128
71
41
72
48
73
47
0
VERTEX
8
OBJECT__45
10
0
20
0
30
0
70
128
71
46
72
49
73
45
0
VERTEX
8
OBJECT__45
10
0
20
0
30
0
70
128
71
50
72
49
73
51
0
VERTEX
8
OBJECT__45
10
0
20
0
30
0
70
128
71
51
72
52
73
50
0
VERTEX
8
OBJECT__45
10
0
20
0
30
0
70
128
71
49
72
50
73
45
0
VERTEX
8
OBJECT__45
10
0
20
0
30
0
70
128
71
52
72
53
73
50
0
VERTEX
8
OBJECT__45
10
0
20
0
30
0
70
128
71
54
72
50
73
55
0
VERTEX
8
OBJECT__45
10
0
20
0
30
0
70
128
71
55
72
56
73
54
0
VERTEX
8
OBJECT__45
10
0
20
0
30
0
70
128
71
50
72
53
73
57
0
VERTEX
8
OBJECT__45
10
0
20
0
30
0
70
128
71
57
72
55
73
50
0
VERTEX
8
OBJECT__45
10
0
20
0
30
0
70
128
71
4
72
54
73
58
0
VERTEX
8
OBJECT__45
10
0
20
0
30
0
70
128
71
54
72
59
73
60
0
VERTEX
8
OBJECT__45
10
0
20
0
30
0
70
128
71
60
72
61
73
54
0
VERTEX
8
OBJECT__45
10
0
20
0
30
0
70
128
71
61
72
58
73
54
0
VERTEX
8
OBJECT__45
10
0
20
0
30
0
70
128
71
58
72
5
73
4
0
VERTEX
8
OBJECT__45
10
0
20
0
30
0
70
128
71
56
72
59
73
54
0
VERTEX
8
OBJECT__45
10
0
20
0
30
0
70
128
71
44
72
48
73
41
0
VERTEX
8
OBJECT__45
10
0
20
0
30
0
70
128
71
31
72
37
73
32
0
VERTEX
8
OBJECT__45
10
0
20
0
30
0
70
128
71
25
72
35
73
23
0
VERTEX
8
OBJECT__45
10
0
20
0
30
0
70
128
71
21
72
29
73
19
0
VERTEX
8
OBJECT__45
10
0
20
0
30
0
70
128
71
8
72
17
73
6
0
VERTEX
8
OBJECT__45
10
0
20
0
30
0
70
128
71
3
72
11
73
1
0
SEQEND
8
OBJECT__45
0
POLYLINE
8
OBJECT__46
66
1
70
64
71
28
72
28
62
253
0
VERTEX
8
OBJECT__46
10
21.025000
20
5.931000
30
-54.092999
70
192
0
VERTEX
8
OBJECT__46
10
26.525000
20
11.368000
30
-53.262001
70
192
0
VERTEX
8
OBJECT__46
10
26.525000
20
10.597000
30
-57.118999
70
192
0
VERTEX
8
OBJECT__46
10
21.025000
20
5.126000
30
-58.118000
70
192
0
VERTEX
8
OBJECT__46
10
21.025000
20
3.961000
30
-50.493000
70
192
0
VERTEX
8
OBJECT__46
10
26.525000
20
7.591000
30
-46.362000
70
192
0
VERTEX
8
OBJECT__46
10
26.525000
20
9.480000
30
-49.812000
70
192
0
VERTEX
8
OBJECT__46
10
21.025000
20
0.137000
30
-49.001999
70
192
0
VERTEX
8
OBJECT__46
10
26.525000
20
0.263000
30
-43.502998
70
192
0
VERTEX
8
OBJECT__46
10
26.525000
20
3.927000
30
-44.931999
70
192
0
VERTEX
8
OBJECT__46
10
21.025000
20
-3.751000
30
-50.317001
70
192
0
VERTEX
8
OBJECT__46
10
26.525000
20
-3.463000
30
-44.763000
70
192
0
VERTEX
8
OBJECT__46
10
26.525000
20
-7.189000
30
-46.023998
70
192
0
VERTEX
8
OBJECT__46
10
26.525000
20
-11.277000
30
-52.744999
70
192
0
VERTEX
8
OBJECT__46
10
26.525000
20
-9.825000
30
-49.023998
70
192
0
VERTEX
8
OBJECT__46
10
21.025000
20
-5.126000
30
-51.882000
70
192
0
VERTEX
8
OBJECT__46
10
21.025000
20
-5.883000
30
-53.823002
70
192
0
VERTEX
8
OBJECT__46
10
21.025000
20
-5.263000
30
-57.880001
70
192
0
VERTEX
8
OBJECT__46
10
26.525000
20
-10.682000
30
-56.632999
70
192
0
VERTEX
8
OBJECT__46
10
26.525000
20
-10.088000
30
-60.521000
70
192
0
VERTEX
8
OBJECT__46
10
21.025000
20
-2.180000
30
-60.590000
70
192
0
VERTEX
8
OBJECT__46
10
26.525000
20
-7.134000
30
-63.117001
70
192
0
VERTEX
8
OBJECT__46
10
26.525000
20
-4.179000
30
-65.713997
70
192
0
VERTEX
8
OBJECT__46
10
21.025000
20
1.923000
30
-60.683998
70
192
0
VERTEX
8
OBJECT__46
10
26.525000
20
-0.247000
30
-65.804001
70
192
0
VERTEX
8
OBJECT__46
10
26.525000
20
3.685000
30
-65.893997
70
192
0
VERTEX
8
OBJECT__46
10
26.525000
20
9.825000
30
-60.976002
70
192
0
VERTEX
8
OBJECT__46
10
26.525000
20
6.755000
30
-63.435001
70
192
0
VERTEX
8
OBJECT__46
10
0
20
0
30
0
70
128
71
1
72
2
73
3
0
VERTEX
8
OBJECT__46
10
0
20
0
30
0
70
128
71
3
72
4
73
1
0
VERTEX
8
OBJECT__46
10
0
20
0
30
0
70
128
71
5
72
6
73
7
0
VERTEX
8
OBJECT__46
10
0
20
0
30
0
70
128
71
7
72
1
73
5
0
VERTEX
8
OBJECT__46
10
0
20
0
30
0
70
128
71
8
72
9
73
10
0
VERTEX
8
OBJECT__46
10
0
20
0
30
0
70
128
71
10
72
5
73
8
0
VERTEX
8
OBJECT__46
10
0
20
0
30
0
70
128
71
8
72
11
73
12
0
VERTEX
8
OBJECT__46
10
0
20
0
30
0
70
128
71
11
72
13
73
12
0
VERTEX
8
OBJECT__46
10
0
20
0
30
0
70
128
71
14
72
15
73
16
0
VERTEX
8
OBJECT__46
10
0
20
0
30
0
70
128
71
13
72
11
73
16
0
VERTEX
8
OBJECT__46
10
0
20
0
30
0
70
128
71
16
72
15
73
13
0
VERTEX
8
OBJECT__46
10
0
20
0
30
0
70
128
71
17
72
18
73
19
0
VERTEX
8
OBJECT__46
10
0
20
0
30
0
70
128
71
18
72
20
73
19
0
VERTEX
8
OBJECT__46
10
0
20
0
30
0
70
128
71
18
72
21
73
22
0
VERTEX
8
OBJECT__46
10
0
20
0
30
0
70
128
71
21
72
23
73
22
0
VERTEX
8
OBJECT__46
10
0
20
0
30
0
70
128
71
21
72
24
73
25
0
VERTEX
8
OBJECT__46
10
0
20
0
30
0
70
128
71
24
72
26
73
25
0
VERTEX
8
OBJECT__46
10
0
20
0
30
0
70
128
71
4
72
27
73
28
0
VERTEX
8
OBJECT__46
10
0
20
0
30
0
70
128
71
28
72
24
73
4
0
VERTEX
8
OBJECT__46
10
0
20
0
30
0
70
128
71
28
72
26
73
24
0
VERTEX
8
OBJECT__46
10
0
20
0
30
0
70
128
71
25
72
23
73
21
0
VERTEX
8
OBJECT__46
10
0
20
0
30
0
70
128
71
22
72
20
73
18
0
VERTEX
8
OBJECT__46
10
0
20
0
30
0
70
128
71
19
72
14
73
17
0
VERTEX
8
OBJECT__46
10
0
20
0
30
0
70
128
71
16
72
17
73
14
0
VERTEX
8
OBJECT__46
10
0
20
0
30
0
70
128
71
12
72
9
73
8
0
VERTEX
8
OBJECT__46
10
0
20
0
30
0
70
128
71
10
72
6
73
5
0
VERTEX
8
OBJECT__46
10
0
20
0
30
0
70
128
71
7
72
2
73
1
0
VERTEX
8
OBJECT__46
10
0
20
0
30
0
70
128
71
3
72
27
73
4
0
SEQEND
8
OBJECT__46
0
POLYLINE
8
OBJECT__47
66
1
70
64
71
27
72
27
62
253
0
VERTEX
8
OBJECT__47
10
29.025000
20
-9.825000
30
-49.023998
70
192
0
VERTEX
8
OBJECT__47
10
29.025000
20
-3.685000
30
-44.105999
70
192
0
VERTEX
8
OBJECT__47
10
26.525000
20
-7.189000
30
-46.023998
70
192
0
VERTEX
8
OBJECT__47
10
26.525000
20
-3.463000
30
-44.763000
70
192
0
VERTEX
8
OBJECT__47
10
29.025000
20
4.179000
30
-44.285999
70
192
0
VERTEX
8
OBJECT__47
10
26.525000
20
0.263000
30
-43.502998
70
192
0
VERTEX
8
OBJECT__47
10
26.525000
20
3.927000
30
-44.931999
70
192
0
VERTEX
8
OBJECT__47
10
29.025000
20
10.088000
30
-49.479000
70
192
0
VERTEX
8
OBJECT__47
10
26.525000
20
9.480000
30
-49.812000
70
192
0
VERTEX
8
OBJECT__47
10
26.525000
20
7.591000
30
-46.362000
70
192
0
VERTEX
8
OBJECT__47
10
29.025000
20
11.277000
30
-57.255001
70
192
0
VERTEX
8
OBJECT__47
10
26.525000
20
10.597000
30
-57.118999
70
192
0
VERTEX
8
OBJECT__47
10
26.525000
20
11.368000
30
-53.262001
70
192
0
VERTEX
8
OBJECT__47
10
29.025000
20
7.189000
30
-63.976002
70
192
0
VERTEX
8
OBJECT__47
10
26.525000
20
6.755000
30
-63.435001
70
192
0
VERTEX
8
OBJECT__47
10
26.525000
20
9.825000
30
-60.976002
70
192
0
VERTEX
8
OBJECT__47
10
29.025000
20
-0.263000
30
-66.497002
70
192
0
VERTEX
8
OBJECT__47
10
26.525000
20
-0.247000
30
-65.804001
70
192
0
VERTEX
8
OBJECT__47
10
26.525000
20
3.685000
30
-65.893997
70
192
0
VERTEX
8
OBJECT__47
10
29.025000
20
-7.591000
30
-63.638000
70
192
0
VERTEX
8
OBJECT__47
10
26.525000
20
-4.179000
30
-65.713997
70
192
0
VERTEX
8
OBJECT__47
10
26.525000
20
-7.134000
30
-63.117001
70
192
0
VERTEX
8
OBJECT__47
10
29.025000
20
-11.368000
30
-56.737999
70
192
0
VERTEX
8
OBJECT__47
10
26.525000
20
-10.088000
30
-60.521000
70
192
0
VERTEX
8
OBJECT__47
10
26.525000
20
-10.682000
30
-56.632999
70
192
0
VERTEX
8
OBJECT__47
10
26.525000
20
-11.277000
30
-52.744999
70
192
0
VERTEX
8
OBJECT__47
10
26.525000
20
-9.825000
30
-49.023998
70
192
0
VERTEX
8
OBJECT__47
10
0
20
0
30
0
70
128
71
1
72
2
73
3
0
VERTEX
8
OBJECT__47
10
0
20
0
30
0
70
128
71
2
72
4
73
3
0
VERTEX
8
OBJECT__47
10
0
20
0
30
0
70
128
71
2
72
5
73
6
0
VERTEX
8
OBJECT__47
10
0
20
0
30
0
70
128
71
5
72
7
73
6
0
VERTEX
8
OBJECT__47
10
0
20
0
30
0
70
128
71
8
72
9
73
10
0
VERTEX
8
OBJECT__47
10
0
20
0
30
0
70
128
71
10
72
5
73
8
0
VERTEX
8
OBJECT__47
10
0
20
0
30
0
70
128
71
11
72
12
73
13
0
VERTEX
8
OBJECT__47
10
0
20
0
30
0
70
128
71
13
72
8
73
11
0
VERTEX
8
OBJECT__47
10
0
20
0
30
0
70
128
71
14
72
15
73
16
0
VERTEX
8
OBJECT__47
10
0
20
0
30
0
70
128
71
16
72
11
73
14
0
VERTEX
8
OBJECT__47
10
0
20
0
30
0
70
128
71
17
72
18
73
19
0
VERTEX
8
OBJECT__47
10
0
20
0
30
0
70
128
71
19
72
14
73
17
0
VERTEX
8
OBJECT__47
10
0
20
0
30
0
70
128
71
17
72
20
73
21
0
VERTEX
8
OBJECT__47
10
0
20
0
30
0
70
128
71
20
72
22
73
21
0
VERTEX
8
OBJECT__47
10
0
20
0
30
0
70
128
71
20
72
23
73
24
0
VERTEX
8
OBJECT__47
10
0
20
0
30
0
70
128
71
23
72
25
73
24
0
VERTEX
8
OBJECT__47
10
0
20
0
30
0
70
128
71
23
72
1
73
26
0
VERTEX
8
OBJECT__47
10
0
20
0
30
0
70
128
71
1
72
27
73
26
0
VERTEX
8
OBJECT__47
10
0
20
0
30
0
70
128
71
26
72
25
73
23
0
VERTEX
8
OBJECT__47
10
0
20
0
30
0
70
128
71
24
72
22
73
20
0
VERTEX
8
OBJECT__47
10
0
20
0
30
0
70
128
71
21
72
18
73
17
0
VERTEX
8
OBJECT__47
10
0
20
0
30
0
70
128
71
19
72
15
73
14
0
VERTEX
8
OBJECT__47
10
0
20
0
30
0
70
128
71
16
72
12
73
11
0
VERTEX
8
OBJECT__47
10
0
20
0
30
0
70
128
71
13
72
9
73
8
0
VERTEX
8
OBJECT__47
10
0
20
0
30
0
70
128
71
10
72
7
73
5
0
VERTEX
8
OBJECT__47
10
0
20
0
30
0
70
128
71
6
72
4
73
2
0
VERTEX
8
OBJECT__47
10
0
20
0
30
0
70
128
71
3
72
27
73
1
0
SEQEND
8
OBJECT__47
0
POLYLINE
8
OBJECT__49
66
1
70
64
71
18
72
18
62
253
0
VERTEX
8
OBJECT__49
10
29.025000
20
-3.685000
30
-44.105999
70
192
0
VERTEX
8
OBJECT__49
10
29.025000
20
-9.825000
30
-49.023998
70
192
0
VERTEX
8
OBJECT__49
10
33.525002
20
-8.795000
30
-49.650002
70
192
0
VERTEX
8
OBJECT__49
10
33.525002
20
-3.299000
30
-45.249001
70
192
0
VERTEX
8
OBJECT__49
10
33.525002
20
3.741000
30
-45.410000
70
192
0
VERTEX
8
OBJECT__49
10
29.025000
20
10.088000
30
-49.479000
70
192
0
VERTEX
8
OBJECT__49
10
29.025000
20
4.179000
30
-44.285999
70
192
0
VERTEX
8
OBJECT__49
10
33.525002
20
9.030000
30
-50.057999
70
192
0
VERTEX
8
OBJECT__49
10
33.525002
20
10.094000
30
-57.019001
70
192
0
VERTEX
8
OBJECT__49
10
29.025000
20
7.189000
30
-63.976002
70
192
0
VERTEX
8
OBJECT__49
10
29.025000
20
11.277000
30
-57.255001
70
192
0
VERTEX
8
OBJECT__49
10
29.025000
20
-0.263000
30
-66.497002
70
192
0
VERTEX
8
OBJECT__49
10
33.525002
20
6.435000
30
-63.035000
70
192
0
VERTEX
8
OBJECT__49
10
29.025000
20
-7.591000
30
-63.638000
70
192
0
VERTEX
8
OBJECT__49
10
33.525002
20
-0.235000
30
-65.292000
70
192
0
VERTEX
8
OBJECT__49
10
29.025000
20
-11.368000
30
-56.737999
70
192
0
VERTEX
8
OBJECT__49
10
33.525002
20
-6.796000
30
-62.733002
70
192
0
VERTEX
8
OBJECT__49
10
33.525002
20
-10.176000
30
-56.555000
70
192
0
VERTEX
8
OBJECT__49
10
0
20
0
30
0
70
128
71
1
72
2
73
3
0
VERTEX
8
OBJECT__49
10
0
20
0
30
0
70
128
71
1
72
4
73
5
0
VERTEX
8
OBJECT__49
10
0
20
0
30
0
70
128
71
6
72
7
73
5
0
VERTEX
8
OBJECT__49
10
0
20
0
30
0
70
128
71
6
72
8
73
9
0
VERTEX
8
OBJECT__49
10
0
20
0
30
0
70
128
71
10
72
11
73
9
0
VERTEX
8
OBJECT__49
10
0
20
0
30
0
70
128
71
12
72
10
73
13
0
VERTEX
8
OBJECT__49
10
0
20
0
30
0
70
128
71
14
72
12
73
15
0
VERTEX
8
OBJECT__49
10
0
20
0
30
0
70
128
71
16
72
14
73
17
0
VERTEX
8
OBJECT__49
10
0
20
0
30
0
70
128
71
2
72
16
73
18
0
VERTEX
8
OBJECT__49
10
0
20
0
30
0
70
128
71
18
72
3
73
2
0
VERTEX
8
OBJECT__49
10
0
20
0
30
0
70
128
71
17
72
18
73
16
0
VERTEX
8
OBJECT__49
10
0
20
0
30
0
70
128
71
15
72
17
73
14
0
VERTEX
8
OBJECT__49
10
0
20
0
30
0
70
128
71
13
72
15
73
12
0
VERTEX
8
OBJECT__49
10
0
20
0
30
0
70
128
71
9
72
13
73
10
0
VERTEX
8
OBJECT__49
10
0
20
0
30
0
70
128
71
9
72
11
73
6
0
VERTEX
8
OBJECT__49
10
0
20
0
30
0
70
128
71
5
72
8
73
6
0
VERTEX
8
OBJECT__49
10
0
20
0
30
0
70
128
71
5
72
7
73
1
0
VERTEX
8
OBJECT__49
10
0
20
0
30
0
70
128
71
3
72
4
73
1
0
SEQEND
8
OBJECT__49
0
POLYLINE
8
OBJECT__50
66
1
70
64
71
9
72
7
62
253
0
VERTEX
8
OBJECT__50
10
33.525002
20
-0.235000
30
-65.292000
70
192
0
VERTEX
8
OBJECT__50
10
33.525002
20
9.030000
30
-50.057999
70
192
0
VERTEX
8
OBJECT__50
10
33.525002
20
3.741000
30
-45.410000
70
192
0
VERTEX
8
OBJECT__50
10
33.525002
20
6.435000
30
-63.035000
70
192
0
VERTEX
8
OBJECT__50
10
33.525002
20
-8.795000
30
-49.650002
70
192
0
VERTEX
8
OBJECT__50
10
33.525002
20
-10.176000
30
-56.555000
70
192
0
VERTEX
8
OBJECT__50
10
33.525002
20
10.094000
30
-57.019001
70
192
0
VERTEX
8
OBJECT__50
10
33.525002
20
-3.299000
30
-45.249001
70
192
0
VERTEX
8
OBJECT__50
10
33.525002
20
-6.796000
30
-62.733002
70
192
0
VERTEX
8
OBJECT__50
10
0
20
0
30
0
70
128
71
1
72
2
73
3
0
VERTEX
8
OBJECT__50
10
0
20
0
30
0
70
128
71
2
72
1
73
4
0
VERTEX
8
OBJECT__50
10
0
20
0
30
0
70
128
71
1
72
5
73
6
0
VERTEX
8
OBJECT__50
10
0
20
0
30
0
70
128
71
4
72
7
73
2
0
VERTEX
8
OBJECT__50
10
0
20
0
30
0
70
128
71
1
72
8
73
5
0
VERTEX
8
OBJECT__50
10
0
20
0
30
0
70
128
71
6
72
9
73
1
0
VERTEX
8
OBJECT__50
10
0
20
0
30
0
70
128
71
3
72
8
73
1
0
SEQEND
8
OBJECT__50
0
POLYLINE
8
OBJECT__51
66
1
70
64
71
8
72
6
62
253
0
VERTEX
8
OBJECT__51
10
18.971001
20
-4.423000
30
-59.054001
70
192
0
VERTEX
8
OBJECT__51
10
18.971001
20
2.227000
30
-49.428001
70
192
0
VERTEX
8
OBJECT__51
10
18.971001
20
-2.968000
30
-49.785000
70
192
0
VERTEX
8
OBJECT__51
10
18.971001
20
0.411000
30
-60.986000
70
192
0
VERTEX
8
OBJECT__51
10
18.971001
20
4.936000
30
-58.410000
70
192
0
VERTEX
8
OBJECT__51
10
18.971001
20
4.423000
30
-50.945999
70
192
0
VERTEX
8
OBJECT__51
10
18.971001
20
5.744000
30
-53.266998
70
192
0
VERTEX
8
OBJECT__51
10
18.971001
20
-5.927000
30
-54.069000
70
192
0
VERTEX
8
OBJECT__51
10
0
20
0
30
0
70
128
71
1
72
2
73
3
0
VERTEX
8
OBJECT__51
10
0
20
0
30
0
70
128
71
1
72
4
73
5
0
VERTEX
8
OBJECT__51
10
0
20
0
30
0
70
128
71
1
72
6
73
2
0
VERTEX
8
OBJECT__51
10
0
20
0
30
0
70
128
71
5
72
7
73
1
0
VERTEX
8
OBJECT__51
10
0
20
0
30
0
70
128
71
7
72
6
73
1
0
VERTEX
8
OBJECT__51
10
0
20
0
30
0
70
128
71
3
72
8
73
1
0
SEQEND
8
OBJECT__51
0
POLYLINE
8
OBJECT__52
66
1
70
64
71
16
72
16
62
253
0
VERTEX
8
OBJECT__52
10
6.646000
20
-5.927000
30
-54.069000
70
192
0
VERTEX
8
OBJECT__52
10
6.646000
20
-4.423000
30
-59.054001
70
192
0
VERTEX
8
OBJECT__52
10
18.971001
20
-4.423000
30
-59.054001
70
192
0
VERTEX
8
OBJECT__52
10
18.971001
20
-2.968000
30
-49.785000
70
192
0
VERTEX
8
OBJECT__52
10
6.646000
20
-2.968000
30
-49.785000
70
192
0
VERTEX
8
OBJECT__52
10
6.646000
20
2.227000
30
-49.428001
70
192
0
VERTEX
8
OBJECT__52
10
6.646000
20
5.744000
30
-53.266998
70
192
0
VERTEX
8
OBJECT__52
10
6.646000
20
4.423000
30
-50.945999
70
192
0
VERTEX
8
OBJECT__52
10
18.971001
20
4.423000
30
-50.945999
70
192
0
VERTEX
8
OBJECT__52
10
18.971001
20
2.227000
30
-49.428001
70
192
0
VERTEX
8
OBJECT__52
10
18.971001
20
4.936000
30
-58.410000
70
192
0
VERTEX
8
OBJECT__52
10
6.646000
20
4.936000
30
-58.410000
70
192
0
VERTEX
8
OBJECT__52
10
6.646000
20
0.411000
30
-60.986000
70
192
0
VERTEX
8
OBJECT__52
10
18.971001
20
0.411000
30
-60.986000
70
192
0
VERTEX
8
OBJECT__52
10
18.971001
20
5.744000
30
-53.266998
70
192
0
VERTEX
8
OBJECT__52
10
18.971001
20
-5.927000
30
-54.069000
70
192
0
VERTEX
8
OBJECT__52
10
0
20
0
30
0
70
128
71
1
72
2
73
3
0
VERTEX
8
OBJECT__52
10
0
20
0
30
0
70
128
71
4
72
5
73
1
0
VERTEX
8
OBJECT__52
10
0
20
0
30
0
70
128
71
6
72
5
73
4
0
VERTEX
8
OBJECT__52
10
0
20
0
30
0
70
128
71
7
72
8
73
9
0
VERTEX
8
OBJECT__52
10
0
20
0
30
0
70
128
71
10
72
9
73
8
0
VERTEX
8
OBJECT__52
10
0
20
0
30
0
70
128
71
8
72
6
73
10
0
VERTEX
8
OBJECT__52
10
0
20
0
30
0
70
128
71
11
72
12
73
7
0
VERTEX
8
OBJECT__52
10
0
20
0
30
0
70
128
71
13
72
12
73
11
0
VERTEX
8
OBJECT__52
10
0
20
0
30
0
70
128
71
3
72
2
73
13
0
VERTEX
8
OBJECT__52
10
0
20
0
30
0
70
128
71
13
72
14
73
3
0
VERTEX
8
OBJECT__52
10
0
20
0
30
0
70
128
71
11
72
14
73
13
0
VERTEX
8
OBJECT__52
10
0
20
0
30
0
70
128
71
7
72
15
73
11
0
VERTEX
8
OBJECT__52
10
0
20
0
30
0
70
128
71
9
72
15
73
7
0
VERTEX
8
OBJECT__52
10
0
20
0
30
0
70
128
71
4
72
10
73
6
0
VERTEX
8
OBJECT__52
10
0
20
0
30
0
70
128
71
1
72
16
73
4
0
VERTEX
8
OBJECT__52
10
0
20
0
30
0
70
128
71
3
72
16
73
1
0
SEQEND
8
OBJECT__52
0
ENDSEC
0
EOF
