999
Converted by 3D Exploration 
999
XDimension Software, LLC
999
http://www.xdsoft.com/explorer/
0
SECTION
2
HEADER
9
$ACADVER
1
AC1008
9
$UCSORG
10
0.0
20
0.0
30
0.0
9
$UCSXDIR
10
1.0
20
0.0
30
0.0
9
$TILEMODE
70
1
9
$UCSYDIR
10
0.0
20
1.0
30
0.0
9
$EXTMIN
10
0.000000
20
-80.500000
30
-80.500000
9
$EXTMAX
10
77.588997
20
80.500000
30
81.500000
0
ENDSEC
0
SECTION
2
TABLES
0
TABLE
2
LTYPE
70
1
0
LTYPE
2
CONTINUOUS
70
64
3
Solid line
72
65
73
0
40
0.0
0
ENDTAB
0
TABLE
2
LAYER
70
31
0
LAYER
2
OBJECT__0
70
0
62
253
6
CONTINUOUS
0
LAYER
2
OBJECT__1
70
0
62
253
6
CONTINUOUS
0
LAYER
2
OBJECT__3
70
0
62
253
6
CONTINUOUS
0
LAYER
2
OBJECT__4
70
0
62
253
6
CONTINUOUS
0
LAYER
2
OBJECT__5
70
0
62
253
6
CONTINUOUS
0
LAYER
2
OBJECT__6
70
0
62
253
6
CONTINUOUS
0
LAYER
2
OBJECT__7
70
0
62
253
6
CONTINUOUS
0
LAYER
2
OBJECT__9
70
0
62
253
6
CONTINUOUS
0
LAYER
2
OBJECT__10
70
0
62
253
6
CONTINUOUS
0
LAYER
2
OBJECT__11
70
0
62
253
6
CONTINUOUS
0
LAYER
2
OBJECT__13
70
0
62
253
6
CONTINUOUS
0
LAYER
2
OBJECT__14
70
0
62
253
6
CONTINUOUS
0
LAYER
2
OBJECT__15
70
0
62
253
6
CONTINUOUS
0
LAYER
2
OBJECT__16
70
0
62
253
6
CONTINUOUS
0
LAYER
2
OBJECT__18
70
0
62
253
6
CONTINUOUS
0
LAYER
2
OBJECT__19
70
0
62
253
6
CONTINUOUS
0
LAYER
2
OBJECT__20
70
0
62
253
6
CONTINUOUS
0
LAYER
2
OBJECT__21
70
0
62
253
6
CONTINUOUS
0
LAYER
2
OBJECT__22
70
0
62
253
6
CONTINUOUS
0
LAYER
2
OBJECT__23
70
0
62
253
6
CONTINUOUS
0
LAYER
2
OBJECT__24
70
0
62
253
6
CONTINUOUS
0
LAYER
2
OBJECT__26
70
0
62
253
6
CONTINUOUS
0
LAYER
2
OBJECT__27
70
0
62
253
6
CONTINUOUS
0
LAYER
2
OBJECT__28
70
0
62
253
6
CONTINUOUS
0
LAYER
2
OBJECT__30
70
0
62
253
6
CONTINUOUS
0
ENDTAB
0
TABLE
2
STYLE
70
1
0
STYLE
2
STANDARD
70
0
40
0.0
41
1.0
50
0.0
71
0
42
0.2
3
txt
4
1
0
ENDTAB
0
TABLE
2
UCS
70
0
0
ENDTAB
0
ENDSEC
0
SECTION
2
ENTITIES
0
POLYLINE
8
OBJECT__0
66
1
70
64
71
17
72
17
62
253
0
VERTEX
8
OBJECT__0
10
16.745001
20
4.500000
30
43.000000
70
192
0
VERTEX
8
OBJECT__0
10
32.776001
20
4.500000
30
43.000000
70
192
0
VERTEX
8
OBJECT__0
10
32.776001
20
3.182000
30
39.818001
70
192
0
VERTEX
8
OBJECT__0
10
16.745001
20
1.391000
30
38.720001
70
192
0
VERTEX
8
OBJECT__0
10
16.745001
20
-3.641000
30
40.355000
70
192
0
VERTEX
8
OBJECT__0
10
32.776001
20
0.000000
30
38.500000
70
192
0
VERTEX
8
OBJECT__0
10
32.776001
20
-3.182000
30
39.818001
70
192
0
VERTEX
8
OBJECT__0
10
32.776001
20
1.265000
30
39.023998
70
192
0
VERTEX
8
OBJECT__0
10
16.745001
20
-3.641000
30
45.645000
70
192
0
VERTEX
8
OBJECT__0
10
32.776001
20
-4.500000
30
43.000000
70
192
0
VERTEX
8
OBJECT__0
10
32.776001
20
-3.439000
30
40.438000
70
192
0
VERTEX
8
OBJECT__0
10
32.776001
20
-3.182000
30
46.181999
70
192
0
VERTEX
8
OBJECT__0
10
32.776001
20
0.000000
30
47.500000
70
192
0
VERTEX
8
OBJECT__0
10
16.745001
20
1.391000
30
47.279999
70
192
0
VERTEX
8
OBJECT__0
10
32.776001
20
-3.439000
30
45.562000
70
192
0
VERTEX
8
OBJECT__0
10
32.776001
20
3.182000
30
46.181999
70
192
0
VERTEX
8
OBJECT__0
10
32.776001
20
1.265000
30
46.976002
70
192
0
VERTEX
8
OBJECT__0
10
0
20
0
30
0
70
128
71
1
72
2
73
3
0
VERTEX
8
OBJECT__0
10
0
20
0
30
0
70
128
71
3
72
4
73
1
0
VERTEX
8
OBJECT__0
10
0
20
0
30
0
70
128
71
5
72
4
73
6
0
VERTEX
8
OBJECT__0
10
0
20
0
30
0
70
128
71
6
72
7
73
5
0
VERTEX
8
OBJECT__0
10
0
20
0
30
0
70
128
71
4
72
8
73
6
0
VERTEX
8
OBJECT__0
10
0
20
0
30
0
70
128
71
9
72
5
73
10
0
VERTEX
8
OBJECT__0
10
0
20
0
30
0
70
128
71
5
72
11
73
10
0
VERTEX
8
OBJECT__0
10
0
20
0
30
0
70
128
71
9
72
12
73
13
0
VERTEX
8
OBJECT__0
10
0
20
0
30
0
70
128
71
13
72
14
73
9
0
VERTEX
8
OBJECT__0
10
0
20
0
30
0
70
128
71
9
72
15
73
12
0
VERTEX
8
OBJECT__0
10
0
20
0
30
0
70
128
71
1
72
14
73
16
0
VERTEX
8
OBJECT__0
10
0
20
0
30
0
70
128
71
14
72
17
73
16
0
VERTEX
8
OBJECT__0
10
0
20
0
30
0
70
128
71
16
72
2
73
1
0
VERTEX
8
OBJECT__0
10
0
20
0
30
0
70
128
71
13
72
17
73
14
0
VERTEX
8
OBJECT__0
10
0
20
0
30
0
70
128
71
10
72
15
73
9
0
VERTEX
8
OBJECT__0
10
0
20
0
30
0
70
128
71
7
72
11
73
5
0
VERTEX
8
OBJECT__0
10
0
20
0
30
0
70
128
71
3
72
8
73
4
0
SEQEND
8
OBJECT__0
0
POLYLINE
8
OBJECT__1
66
1
70
64
71
20
72
20
62
253
0
VERTEX
8
OBJECT__1
10
33.744999
20
3.712000
30
39.287998
70
192
0
VERTEX
8
OBJECT__1
10
32.776001
20
3.182000
30
39.818001
70
192
0
VERTEX
8
OBJECT__1
10
32.776001
20
4.500000
30
43.000000
70
192
0
VERTEX
8
OBJECT__1
10
33.744999
20
0.000000
30
37.750000
70
192
0
VERTEX
8
OBJECT__1
10
32.776001
20
1.265000
30
39.023998
70
192
0
VERTEX
8
OBJECT__1
10
32.776001
20
0.000000
30
38.500000
70
192
0
VERTEX
8
OBJECT__1
10
33.744999
20
-3.712000
30
39.287998
70
192
0
VERTEX
8
OBJECT__1
10
32.776001
20
-3.182000
30
39.818001
70
192
0
VERTEX
8
OBJECT__1
10
33.744999
20
-5.250000
30
43.000000
70
192
0
VERTEX
8
OBJECT__1
10
32.776001
20
-4.500000
30
43.000000
70
192
0
VERTEX
8
OBJECT__1
10
32.776001
20
-3.439000
30
40.438000
70
192
0
VERTEX
8
OBJECT__1
10
33.744999
20
-3.712000
30
46.712002
70
192
0
VERTEX
8
OBJECT__1
10
32.776001
20
-3.439000
30
45.562000
70
192
0
VERTEX
8
OBJECT__1
10
32.776001
20
-3.182000
30
46.181999
70
192
0
VERTEX
8
OBJECT__1
10
33.744999
20
0.000000
30
48.250000
70
192
0
VERTEX
8
OBJECT__1
10
32.776001
20
0.000000
30
47.500000
70
192
0
VERTEX
8
OBJECT__1
10
33.744999
20
3.712000
30
46.712002
70
192
0
VERTEX
8
OBJECT__1
10
32.776001
20
3.182000
30
46.181999
70
192
0
VERTEX
8
OBJECT__1
10
32.776001
20
1.265000
30
46.976002
70
192
0
VERTEX
8
OBJECT__1
10
33.744999
20
5.250000
30
43.000000
70
192
0
VERTEX
8
OBJECT__1
10
0
20
0
30
0
70
128
71
1
72
2
73
3
0
VERTEX
8
OBJECT__1
10
0
20
0
30
0
70
128
71
1
72
4
73
5
0
VERTEX
8
OBJECT__1
10
0
20
0
30
0
70
128
71
4
72
6
73
5
0
VERTEX
8
OBJECT__1
10
0
20
0
30
0
70
128
71
4
72
7
73
8
0
VERTEX
8
OBJECT__1
10
0
20
0
30
0
70
128
71
9
72
10
73
11
0
VERTEX
8
OBJECT__1
10
0
20
0
30
0
70
128
71
11
72
7
73
9
0
VERTEX
8
OBJECT__1
10
0
20
0
30
0
70
128
71
9
72
12
73
13
0
VERTEX
8
OBJECT__1
10
0
20
0
30
0
70
128
71
12
72
14
73
13
0
VERTEX
8
OBJECT__1
10
0
20
0
30
0
70
128
71
12
72
15
73
16
0
VERTEX
8
OBJECT__1
10
0
20
0
30
0
70
128
71
17
72
18
73
19
0
VERTEX
8
OBJECT__1
10
0
20
0
30
0
70
128
71
19
72
15
73
17
0
VERTEX
8
OBJECT__1
10
0
20
0
30
0
70
128
71
17
72
20
73
3
0
VERTEX
8
OBJECT__1
10
0
20
0
30
0
70
128
71
3
72
18
73
17
0
VERTEX
8
OBJECT__1
10
0
20
0
30
0
70
128
71
19
72
16
73
15
0
VERTEX
8
OBJECT__1
10
0
20
0
30
0
70
128
71
16
72
14
73
12
0
VERTEX
8
OBJECT__1
10
0
20
0
30
0
70
128
71
13
72
10
73
9
0
VERTEX
8
OBJECT__1
10
0
20
0
30
0
70
128
71
11
72
8
73
7
0
VERTEX
8
OBJECT__1
10
0
20
0
30
0
70
128
71
8
72
6
73
4
0
VERTEX
8
OBJECT__1
10
0
20
0
30
0
70
128
71
5
72
2
73
1
0
VERTEX
8
OBJECT__1
10
0
20
0
30
0
70
128
71
3
72
20
73
1
0
SEQEND
8
OBJECT__1
0
POLYLINE
8
OBJECT__3
66
1
70
64
71
20
72
20
62
253
0
VERTEX
8
OBJECT__3
10
34.713001
20
6.000000
30
43.000000
70
192
0
VERTEX
8
OBJECT__3
10
34.713001
20
4.243000
30
38.757000
70
192
0
VERTEX
8
OBJECT__3
10
33.744999
20
3.712000
30
39.287998
70
192
0
VERTEX
8
OBJECT__3
10
33.744999
20
0.000000
30
37.750000
70
192
0
VERTEX
8
OBJECT__3
10
34.713001
20
2.845000
30
38.178001
70
192
0
VERTEX
8
OBJECT__3
10
34.713001
20
0.000000
30
37.000000
70
192
0
VERTEX
8
OBJECT__3
10
34.713001
20
-2.845000
30
38.178001
70
192
0
VERTEX
8
OBJECT__3
10
33.744999
20
-3.712000
30
39.287998
70
192
0
VERTEX
8
OBJECT__3
10
34.713001
20
-4.243000
30
38.757000
70
192
0
VERTEX
8
OBJECT__3
10
34.713001
20
-6.000000
30
43.000000
70
192
0
VERTEX
8
OBJECT__3
10
33.744999
20
-5.250000
30
43.000000
70
192
0
VERTEX
8
OBJECT__3
10
34.713001
20
-4.243000
30
47.243000
70
192
0
VERTEX
8
OBJECT__3
10
33.744999
20
-3.712000
30
46.712002
70
192
0
VERTEX
8
OBJECT__3
10
33.744999
20
0.000000
30
48.250000
70
192
0
VERTEX
8
OBJECT__3
10
34.713001
20
-2.845000
30
47.821999
70
192
0
VERTEX
8
OBJECT__3
10
34.713001
20
0.000000
30
49.000000
70
192
0
VERTEX
8
OBJECT__3
10
34.713001
20
2.845000
30
47.821999
70
192
0
VERTEX
8
OBJECT__3
10
33.744999
20
3.712000
30
46.712002
70
192
0
VERTEX
8
OBJECT__3
10
34.713001
20
4.243000
30
47.243000
70
192
0
VERTEX
8
OBJECT__3
10
33.744999
20
5.250000
30
43.000000
70
192
0
VERTEX
8
OBJECT__3
10
0
20
0
30
0
70
128
71
1
72
2
73
3
0
VERTEX
8
OBJECT__3
10
0
20
0
30
0
70
128
71
4
72
3
73
5
0
VERTEX
8
OBJECT__3
10
0
20
0
30
0
70
128
71
3
72
2
73
5
0
VERTEX
8
OBJECT__3
10
0
20
0
30
0
70
128
71
4
72
6
73
7
0
VERTEX
8
OBJECT__3
10
0
20
0
30
0
70
128
71
7
72
8
73
4
0
VERTEX
8
OBJECT__3
10
0
20
0
30
0
70
128
71
9
72
10
73
11
0
VERTEX
8
OBJECT__3
10
0
20
0
30
0
70
128
71
10
72
12
73
13
0
VERTEX
8
OBJECT__3
10
0
20
0
30
0
70
128
71
14
72
13
73
15
0
VERTEX
8
OBJECT__3
10
0
20
0
30
0
70
128
71
13
72
12
73
15
0
VERTEX
8
OBJECT__3
10
0
20
0
30
0
70
128
71
14
72
16
73
17
0
VERTEX
8
OBJECT__3
10
0
20
0
30
0
70
128
71
17
72
18
73
14
0
VERTEX
8
OBJECT__3
10
0
20
0
30
0
70
128
71
19
72
1
73
20
0
VERTEX
8
OBJECT__3
10
0
20
0
30
0
70
128
71
20
72
18
73
19
0
VERTEX
8
OBJECT__3
10
0
20
0
30
0
70
128
71
17
72
19
73
18
0
VERTEX
8
OBJECT__3
10
0
20
0
30
0
70
128
71
15
72
16
73
14
0
VERTEX
8
OBJECT__3
10
0
20
0
30
0
70
128
71
13
72
11
73
10
0
VERTEX
8
OBJECT__3
10
0
20
0
30
0
70
128
71
11
72
8
73
9
0
VERTEX
8
OBJECT__3
10
0
20
0
30
0
70
128
71
7
72
9
73
8
0
VERTEX
8
OBJECT__3
10
0
20
0
30
0
70
128
71
5
72
6
73
4
0
VERTEX
8
OBJECT__3
10
0
20
0
30
0
70
128
71
3
72
20
73
1
0
SEQEND
8
OBJECT__3
0
POLYLINE
8
OBJECT__4
66
1
70
64
71
24
72
24
62
253
0
VERTEX
8
OBJECT__4
10
34.713001
20
2.845000
30
38.178001
70
192
0
VERTEX
8
OBJECT__4
10
34.713001
20
4.243000
30
38.757000
70
192
0
VERTEX
8
OBJECT__4
10
38.382999
20
4.243000
30
38.757000
70
192
0
VERTEX
8
OBJECT__4
10
38.382999
20
6.000000
30
43.000000
70
192
0
VERTEX
8
OBJECT__4
10
34.713001
20
6.000000
30
43.000000
70
192
0
VERTEX
8
OBJECT__4
10
34.713001
20
-2.845000
30
38.178001
70
192
0
VERTEX
8
OBJECT__4
10
34.713001
20
0.000000
30
37.000000
70
192
0
VERTEX
8
OBJECT__4
10
38.382999
20
0.000000
30
37.000000
70
192
0
VERTEX
8
OBJECT__4
10
38.382999
20
2.845000
30
38.178001
70
192
0
VERTEX
8
OBJECT__4
10
34.713001
20
-6.000000
30
43.000000
70
192
0
VERTEX
8
OBJECT__4
10
34.713001
20
-4.243000
30
38.757000
70
192
0
VERTEX
8
OBJECT__4
10
38.382999
20
-4.243000
30
38.757000
70
192
0
VERTEX
8
OBJECT__4
10
38.382999
20
-2.845000
30
38.178001
70
192
0
VERTEX
8
OBJECT__4
10
34.713001
20
-2.845000
30
47.821999
70
192
0
VERTEX
8
OBJECT__4
10
34.713001
20
-4.243000
30
47.243000
70
192
0
VERTEX
8
OBJECT__4
10
38.382999
20
-4.243000
30
47.243000
70
192
0
VERTEX
8
OBJECT__4
10
38.382999
20
-6.000000
30
43.000000
70
192
0
VERTEX
8
OBJECT__4
10
38.382999
20
2.845000
30
47.821999
70
192
0
VERTEX
8
OBJECT__4
10
34.713001
20
2.845000
30
47.821999
70
192
0
VERTEX
8
OBJECT__4
10
34.713001
20
0.000000
30
49.000000
70
192
0
VERTEX
8
OBJECT__4
10
38.382999
20
-2.845000
30
47.821999
70
192
0
VERTEX
8
OBJECT__4
10
38.382999
20
0.000000
30
49.000000
70
192
0
VERTEX
8
OBJECT__4
10
34.713001
20
4.243000
30
47.243000
70
192
0
VERTEX
8
OBJECT__4
10
38.382999
20
4.243000
30
47.243000
70
192
0
VERTEX
8
OBJECT__4
10
0
20
0
30
0
70
128
71
1
72
2
73
3
0
VERTEX
8
OBJECT__4
10
0
20
0
30
0
70
128
71
4
72
3
73
2
0
VERTEX
8
OBJECT__4
10
0
20
0
30
0
70
128
71
2
72
5
73
4
0
VERTEX
8
OBJECT__4
10
0
20
0
30
0
70
128
71
6
72
7
73
8
0
VERTEX
8
OBJECT__4
10
0
20
0
30
0
70
128
71
9
72
8
73
7
0
VERTEX
8
OBJECT__4
10
0
20
0
30
0
70
128
71
7
72
1
73
9
0
VERTEX
8
OBJECT__4
10
0
20
0
30
0
70
128
71
10
72
11
73
12
0
VERTEX
8
OBJECT__4
10
0
20
0
30
0
70
128
71
11
72
6
73
13
0
VERTEX
8
OBJECT__4
10
0
20
0
30
0
70
128
71
13
72
12
73
11
0
VERTEX
8
OBJECT__4
10
0
20
0
30
0
70
128
71
14
72
15
73
16
0
VERTEX
8
OBJECT__4
10
0
20
0
30
0
70
128
71
17
72
16
73
15
0
VERTEX
8
OBJECT__4
10
0
20
0
30
0
70
128
71
15
72
10
73
17
0
VERTEX
8
OBJECT__4
10
0
20
0
30
0
70
128
71
18
72
19
73
20
0
VERTEX
8
OBJECT__4
10
0
20
0
30
0
70
128
71
14
72
21
73
22
0
VERTEX
8
OBJECT__4
10
0
20
0
30
0
70
128
71
22
72
20
73
14
0
VERTEX
8
OBJECT__4
10
0
20
0
30
0
70
128
71
5
72
23
73
24
0
VERTEX
8
OBJECT__4
10
0
20
0
30
0
70
128
71
18
72
24
73
23
0
VERTEX
8
OBJECT__4
10
0
20
0
30
0
70
128
71
23
72
19
73
18
0
VERTEX
8
OBJECT__4
10
0
20
0
30
0
70
128
71
24
72
4
73
5
0
VERTEX
8
OBJECT__4
10
0
20
0
30
0
70
128
71
20
72
22
73
18
0
VERTEX
8
OBJECT__4
10
0
20
0
30
0
70
128
71
16
72
21
73
14
0
VERTEX
8
OBJECT__4
10
0
20
0
30
0
70
128
71
12
72
17
73
10
0
VERTEX
8
OBJECT__4
10
0
20
0
30
0
70
128
71
8
72
13
73
6
0
VERTEX
8
OBJECT__4
10
0
20
0
30
0
70
128
71
3
72
9
73
1
0
SEQEND
8
OBJECT__4
0
POLYLINE
8
OBJECT__5
66
1
70
64
71
13
72
12
62
253
0
VERTEX
8
OBJECT__5
10
38.744999
20
0.000000
30
43.000000
70
192
0
VERTEX
8
OBJECT__5
10
38.382999
20
0.000000
30
37.000000
70
192
0
VERTEX
8
OBJECT__5
10
38.382999
20
2.845000
30
38.178001
70
192
0
VERTEX
8
OBJECT__5
10
38.382999
20
-4.243000
30
38.757000
70
192
0
VERTEX
8
OBJECT__5
10
38.382999
20
-2.845000
30
38.178001
70
192
0
VERTEX
8
OBJECT__5
10
38.382999
20
0.000000
30
49.000000
70
192
0
VERTEX
8
OBJECT__5
10
38.382999
20
-2.845000
30
47.821999
70
192
0
VERTEX
8
OBJECT__5
10
38.382999
20
4.243000
30
47.243000
70
192
0
VERTEX
8
OBJECT__5
10
38.382999
20
2.845000
30
47.821999
70
192
0
VERTEX
8
OBJECT__5
10
38.382999
20
6.000000
30
43.000000
70
192
0
VERTEX
8
OBJECT__5
10
38.382999
20
-4.243000
30
47.243000
70
192
0
VERTEX
8
OBJECT__5
10
38.382999
20
-6.000000
30
43.000000
70
192
0
VERTEX
8
OBJECT__5
10
38.382999
20
4.243000
30
38.757000
70
192
0
VERTEX
8
OBJECT__5
10
0
20
0
30
0
70
128
71
1
72
2
73
3
0
VERTEX
8
OBJECT__5
10
0
20
0
30
0
70
128
71
1
72
4
73
5
0
VERTEX
8
OBJECT__5
10
0
20
0
30
0
70
128
71
1
72
6
73
7
0
VERTEX
8
OBJECT__5
10
0
20
0
30
0
70
128
71
1
72
8
73
9
0
VERTEX
8
OBJECT__5
10
0
20
0
30
0
70
128
71
10
72
8
73
1
0
VERTEX
8
OBJECT__5
10
0
20
0
30
0
70
128
71
9
72
6
73
1
0
VERTEX
8
OBJECT__5
10
0
20
0
30
0
70
128
71
7
72
11
73
1
0
VERTEX
8
OBJECT__5
10
0
20
0
30
0
70
128
71
11
72
12
73
1
0
VERTEX
8
OBJECT__5
10
0
20
0
30
0
70
128
71
12
72
4
73
1
0
VERTEX
8
OBJECT__5
10
0
20
0
30
0
70
128
71
5
72
2
73
1
0
VERTEX
8
OBJECT__5
10
0
20
0
30
0
70
128
71
3
72
13
73
1
0
VERTEX
8
OBJECT__5
10
0
20
0
30
0
70
128
71
13
72
10
73
1
0
SEQEND
8
OBJECT__5
0
POLYLINE
8
OBJECT__6
66
1
70
64
71
28
72
28
62
253
0
VERTEX
8
OBJECT__6
10
13.397000
20
0.000000
30
20.000000
70
192
0
VERTEX
8
OBJECT__6
10
16.497000
20
0.000000
30
18.000000
70
192
0
VERTEX
8
OBJECT__6
10
16.497000
20
13.017000
30
15.029000
70
192
0
VERTEX
8
OBJECT__6
10
13.397000
20
25.018999
30
7.952000
70
192
0
VERTEX
8
OBJECT__6
10
13.397000
20
13.884000
30
16.830999
70
192
0
VERTEX
8
OBJECT__6
10
16.497000
20
23.455000
30
6.705000
70
192
0
VERTEX
8
OBJECT__6
10
16.497000
20
29.247999
30
-5.324000
70
192
0
VERTEX
8
OBJECT__6
10
13.397000
20
31.198000
30
-19.121000
70
192
0
VERTEX
8
OBJECT__6
10
13.397000
20
31.198000
30
-4.879000
70
192
0
VERTEX
8
OBJECT__6
10
16.497000
20
29.247999
30
-18.676001
70
192
0
VERTEX
8
OBJECT__6
10
16.497000
20
23.455000
30
-30.705000
70
192
0
VERTEX
8
OBJECT__6
10
13.397000
20
25.018999
30
-31.952000
70
192
0
VERTEX
8
OBJECT__6
10
16.497000
20
13.017000
30
-39.028999
70
192
0
VERTEX
8
OBJECT__6
10
13.397000
20
13.884000
30
-40.831001
70
192
0
VERTEX
8
OBJECT__6
10
16.497000
20
0.000000
30
-42.000000
70
192
0
VERTEX
8
OBJECT__6
10
13.397000
20
0.000000
30
-44.000000
70
192
0
VERTEX
8
OBJECT__6
10
16.497000
20
-13.017000
30
-39.028999
70
192
0
VERTEX
8
OBJECT__6
10
13.397000
20
-13.884000
30
-40.831001
70
192
0
VERTEX
8
OBJECT__6
10
16.497000
20
-23.455000
30
-30.705000
70
192
0
VERTEX
8
OBJECT__6
10
13.397000
20
-31.198000
30
-19.121000
70
192
0
VERTEX
8
OBJECT__6
10
13.397000
20
-25.018999
30
-31.952000
70
192
0
VERTEX
8
OBJECT__6
10
13.397000
20
-31.198000
30
-4.879000
70
192
0
VERTEX
8
OBJECT__6
10
16.497000
20
-29.247999
30
-18.676001
70
192
0
VERTEX
8
OBJECT__6
10
13.397000
20
-25.018999
30
7.952000
70
192
0
VERTEX
8
OBJECT__6
10
16.497000
20
-29.247999
30
-5.324000
70
192
0
VERTEX
8
OBJECT__6
10
13.397000
20
-13.884000
30
16.830999
70
192
0
VERTEX
8
OBJECT__6
10
16.497000
20
-23.455000
30
6.705000
70
192
0
VERTEX
8
OBJECT__6
10
16.497000
20
-13.017000
30
15.029000
70
192
0
VERTEX
8
OBJECT__6
10
0
20
0
30
0
70
128
71
1
72
2
73
3
0
VERTEX
8
OBJECT__6
10
0
20
0
30
0
70
128
71
4
72
5
73
3
0
VERTEX
8
OBJECT__6
10
0
20
0
30
0
70
128
71
4
72
6
73
7
0
VERTEX
8
OBJECT__6
10
0
20
0
30
0
70
128
71
8
72
9
73
7
0
VERTEX
8
OBJECT__6
10
0
20
0
30
0
70
128
71
8
72
10
73
11
0
VERTEX
8
OBJECT__6
10
0
20
0
30
0
70
128
71
12
72
11
73
13
0
VERTEX
8
OBJECT__6
10
0
20
0
30
0
70
128
71
14
72
13
73
15
0
VERTEX
8
OBJECT__6
10
0
20
0
30
0
70
128
71
16
72
15
73
17
0
VERTEX
8
OBJECT__6
10
0
20
0
30
0
70
128
71
18
72
17
73
19
0
VERTEX
8
OBJECT__6
10
0
20
0
30
0
70
128
71
20
72
21
73
19
0
VERTEX
8
OBJECT__6
10
0
20
0
30
0
70
128
71
22
72
20
73
23
0
VERTEX
8
OBJECT__6
10
0
20
0
30
0
70
128
71
24
72
22
73
25
0
VERTEX
8
OBJECT__6
10
0
20
0
30
0
70
128
71
26
72
24
73
27
0
VERTEX
8
OBJECT__6
10
0
20
0
30
0
70
128
71
1
72
26
73
28
0
VERTEX
8
OBJECT__6
10
0
20
0
30
0
70
128
71
28
72
2
73
1
0
VERTEX
8
OBJECT__6
10
0
20
0
30
0
70
128
71
27
72
28
73
26
0
VERTEX
8
OBJECT__6
10
0
20
0
30
0
70
128
71
25
72
27
73
24
0
VERTEX
8
OBJECT__6
10
0
20
0
30
0
70
128
71
23
72
25
73
22
0
VERTEX
8
OBJECT__6
10
0
20
0
30
0
70
128
71
19
72
23
73
20
0
VERTEX
8
OBJECT__6
10
0
20
0
30
0
70
128
71
19
72
21
73
18
0
VERTEX
8
OBJECT__6
10
0
20
0
30
0
70
128
71
17
72
18
73
16
0
VERTEX
8
OBJECT__6
10
0
20
0
30
0
70
128
71
15
72
16
73
14
0
VERTEX
8
OBJECT__6
10
0
20
0
30
0
70
128
71
13
72
14
73
12
0
VERTEX
8
OBJECT__6
10
0
20
0
30
0
70
128
71
11
72
12
73
8
0
VERTEX
8
OBJECT__6
10
0
20
0
30
0
70
128
71
7
72
10
73
8
0
VERTEX
8
OBJECT__6
10
0
20
0
30
0
70
128
71
7
72
9
73
4
0
VERTEX
8
OBJECT__6
10
0
20
0
30
0
70
128
71
3
72
6
73
4
0
VERTEX
8
OBJECT__6
10
0
20
0
30
0
70
128
71
3
72
5
73
1
0
SEQEND
8
OBJECT__6
0
POLYLINE
8
OBJECT__7
66
1
70
64
71
28
72
28
62
253
0
VERTEX
8
OBJECT__7
10
16.797001
20
0.000000
30
-42.000000
70
192
0
VERTEX
8
OBJECT__7
10
16.497000
20
0.000000
30
-42.000000
70
192
0
VERTEX
8
OBJECT__7
10
16.497000
20
13.017000
30
-39.028999
70
192
0
VERTEX
8
OBJECT__7
10
16.497000
20
23.455000
30
-30.705000
70
192
0
VERTEX
8
OBJECT__7
10
16.797001
20
23.455000
30
-30.705000
70
192
0
VERTEX
8
OBJECT__7
10
16.797001
20
13.017000
30
-39.028999
70
192
0
VERTEX
8
OBJECT__7
10
16.497000
20
29.247999
30
-18.676001
70
192
0
VERTEX
8
OBJECT__7
10
16.797001
20
29.247999
30
-18.676001
70
192
0
VERTEX
8
OBJECT__7
10
16.497000
20
29.247999
30
-5.324000
70
192
0
VERTEX
8
OBJECT__7
10
16.797001
20
29.247999
30
-5.324000
70
192
0
VERTEX
8
OBJECT__7
10
16.497000
20
23.455000
30
6.705000
70
192
0
VERTEX
8
OBJECT__7
10
16.797001
20
23.455000
30
6.705000
70
192
0
VERTEX
8
OBJECT__7
10
16.497000
20
13.017000
30
15.029000
70
192
0
VERTEX
8
OBJECT__7
10
16.797001
20
13.017000
30
15.029000
70
192
0
VERTEX
8
OBJECT__7
10
16.797001
20
0.000000
30
18.000000
70
192
0
VERTEX
8
OBJECT__7
10
16.497000
20
0.000000
30
18.000000
70
192
0
VERTEX
8
OBJECT__7
10
16.497000
20
-13.017000
30
15.029000
70
192
0
VERTEX
8
OBJECT__7
10
16.797001
20
-13.017000
30
15.029000
70
192
0
VERTEX
8
OBJECT__7
10
16.797001
20
-23.455000
30
6.705000
70
192
0
VERTEX
8
OBJECT__7
10
16.797001
20
-29.247999
30
-5.324000
70
192
0
VERTEX
8
OBJECT__7
10
16.497000
20
-23.455000
30
6.705000
70
192
0
VERTEX
8
OBJECT__7
10
16.497000
20
-29.247999
30
-18.676001
70
192
0
VERTEX
8
OBJECT__7
10
16.797001
20
-29.247999
30
-18.676001
70
192
0
VERTEX
8
OBJECT__7
10
16.497000
20
-23.455000
30
-30.705000
70
192
0
VERTEX
8
OBJECT__7
10
16.797001
20
-23.455000
30
-30.705000
70
192
0
VERTEX
8
OBJECT__7
10
16.497000
20
-13.017000
30
-39.028999
70
192
0
VERTEX
8
OBJECT__7
10
16.797001
20
-13.017000
30
-39.028999
70
192
0
VERTEX
8
OBJECT__7
10
16.497000
20
-29.247999
30
-5.324000
70
192
0
VERTEX
8
OBJECT__7
10
0
20
0
30
0
70
128
71
1
72
2
73
3
0
VERTEX
8
OBJECT__7
10
0
20
0
30
0
70
128
71
4
72
5
73
6
0
VERTEX
8
OBJECT__7
10
0
20
0
30
0
70
128
71
7
72
8
73
5
0
VERTEX
8
OBJECT__7
10
0
20
0
30
0
70
128
71
9
72
10
73
8
0
VERTEX
8
OBJECT__7
10
0
20
0
30
0
70
128
71
11
72
12
73
10
0
VERTEX
8
OBJECT__7
10
0
20
0
30
0
70
128
71
13
72
14
73
12
0
VERTEX
8
OBJECT__7
10
0
20
0
30
0
70
128
71
15
72
14
73
13
0
VERTEX
8
OBJECT__7
10
0
20
0
30
0
70
128
71
16
72
17
73
18
0
VERTEX
8
OBJECT__7
10
0
20
0
30
0
70
128
71
19
72
18
73
17
0
VERTEX
8
OBJECT__7
10
0
20
0
30
0
70
128
71
20
72
19
73
21
0
VERTEX
8
OBJECT__7
10
0
20
0
30
0
70
128
71
22
72
23
73
20
0
VERTEX
8
OBJECT__7
10
0
20
0
30
0
70
128
71
24
72
25
73
23
0
VERTEX
8
OBJECT__7
10
0
20
0
30
0
70
128
71
26
72
27
73
25
0
VERTEX
8
OBJECT__7
10
0
20
0
30
0
70
128
71
2
72
1
73
27
0
VERTEX
8
OBJECT__7
10
0
20
0
30
0
70
128
71
27
72
26
73
2
0
VERTEX
8
OBJECT__7
10
0
20
0
30
0
70
128
71
25
72
24
73
26
0
VERTEX
8
OBJECT__7
10
0
20
0
30
0
70
128
71
23
72
22
73
24
0
VERTEX
8
OBJECT__7
10
0
20
0
30
0
70
128
71
20
72
28
73
22
0
VERTEX
8
OBJECT__7
10
0
20
0
30
0
70
128
71
21
72
28
73
20
0
VERTEX
8
OBJECT__7
10
0
20
0
30
0
70
128
71
17
72
21
73
19
0
VERTEX
8
OBJECT__7
10
0
20
0
30
0
70
128
71
18
72
15
73
16
0
VERTEX
8
OBJECT__7
10
0
20
0
30
0
70
128
71
13
72
16
73
15
0
VERTEX
8
OBJECT__7
10
0
20
0
30
0
70
128
71
12
72
11
73
13
0
VERTEX
8
OBJECT__7
10
0
20
0
30
0
70
128
71
10
72
9
73
11
0
VERTEX
8
OBJECT__7
10
0
20
0
30
0
70
128
71
8
72
7
73
9
0
VERTEX
8
OBJECT__7
10
0
20
0
30
0
70
128
71
5
72
4
73
7
0
VERTEX
8
OBJECT__7
10
0
20
0
30
0
70
128
71
6
72
3
73
4
0
VERTEX
8
OBJECT__7
10
0
20
0
30
0
70
128
71
3
72
6
73
1
0
SEQEND
8
OBJECT__7
0
POLYLINE
8
OBJECT__9
66
1
70
64
71
28
72
28
62
253
0
VERTEX
8
OBJECT__9
10
16.797001
20
13.017000
30
15.029000
70
192
0
VERTEX
8
OBJECT__9
10
16.797001
20
0.000000
30
18.000000
70
192
0
VERTEX
8
OBJECT__9
10
18.497000
20
0.000000
30
13.450000
70
192
0
VERTEX
8
OBJECT__9
10
18.497000
20
11.042000
30
10.930000
70
192
0
VERTEX
8
OBJECT__9
10
18.497000
20
19.898001
30
3.868000
70
192
0
VERTEX
8
OBJECT__9
10
16.797001
20
23.455000
30
6.705000
70
192
0
VERTEX
8
OBJECT__9
10
18.497000
20
24.812000
30
-6.337000
70
192
0
VERTEX
8
OBJECT__9
10
16.797001
20
29.247999
30
-5.324000
70
192
0
VERTEX
8
OBJECT__9
10
18.497000
20
24.812000
30
-17.663000
70
192
0
VERTEX
8
OBJECT__9
10
16.797001
20
23.455000
30
-30.705000
70
192
0
VERTEX
8
OBJECT__9
10
16.797001
20
29.247999
30
-18.676001
70
192
0
VERTEX
8
OBJECT__9
10
16.797001
20
13.017000
30
-39.028999
70
192
0
VERTEX
8
OBJECT__9
10
18.497000
20
19.898001
30
-27.868000
70
192
0
VERTEX
8
OBJECT__9
10
18.497000
20
11.042000
30
-34.930000
70
192
0
VERTEX
8
OBJECT__9
10
18.497000
20
0.000000
30
-37.450001
70
192
0
VERTEX
8
OBJECT__9
10
16.797001
20
-13.017000
30
-39.028999
70
192
0
VERTEX
8
OBJECT__9
10
16.797001
20
0.000000
30
-42.000000
70
192
0
VERTEX
8
OBJECT__9
10
16.797001
20
-23.455000
30
-30.705000
70
192
0
VERTEX
8
OBJECT__9
10
18.497000
20
-11.042000
30
-34.930000
70
192
0
VERTEX
8
OBJECT__9
10
18.497000
20
-19.898001
30
-27.868000
70
192
0
VERTEX
8
OBJECT__9
10
18.497000
20
-24.812000
30
-17.663000
70
192
0
VERTEX
8
OBJECT__9
10
16.797001
20
-29.247999
30
-18.676001
70
192
0
VERTEX
8
OBJECT__9
10
18.497000
20
-24.812000
30
-6.337000
70
192
0
VERTEX
8
OBJECT__9
10
16.797001
20
-23.455000
30
6.705000
70
192
0
VERTEX
8
OBJECT__9
10
16.797001
20
-29.247999
30
-5.324000
70
192
0
VERTEX
8
OBJECT__9
10
18.497000
20
-19.898001
30
3.868000
70
192
0
VERTEX
8
OBJECT__9
10
18.497000
20
-11.042000
30
10.930000
70
192
0
VERTEX
8
OBJECT__9
10
16.797001
20
-13.017000
30
15.029000
70
192
0
VERTEX
8
OBJECT__9
10
0
20
0
30
0
70
128
71
1
72
2
73
3
0
VERTEX
8
OBJECT__9
10
0
20
0
30
0
70
128
71
1
72
4
73
5
0
VERTEX
8
OBJECT__9
10
0
20
0
30
0
70
128
71
6
72
5
73
7
0
VERTEX
8
OBJECT__9
10
0
20
0
30
0
70
128
71
8
72
7
73
9
0
VERTEX
8
OBJECT__9
10
0
20
0
30
0
70
128
71
10
72
11
73
9
0
VERTEX
8
OBJECT__9
10
0
20
0
30
0
70
128
71
12
72
10
73
13
0
VERTEX
8
OBJECT__9
10
0
20
0
30
0
70
128
71
12
72
14
73
15
0
VERTEX
8
OBJECT__9
10
0
20
0
30
0
70
128
71
16
72
17
73
15
0
VERTEX
8
OBJECT__9
10
0
20
0
30
0
70
128
71
18
72
16
73
19
0
VERTEX
8
OBJECT__9
10
0
20
0
30
0
70
128
71
18
72
20
73
21
0
VERTEX
8
OBJECT__9
10
0
20
0
30
0
70
128
71
22
72
21
73
23
0
VERTEX
8
OBJECT__9
10
0
20
0
30
0
70
128
71
24
72
25
73
23
0
VERTEX
8
OBJECT__9
10
0
20
0
30
0
70
128
71
24
72
26
73
27
0
VERTEX
8
OBJECT__9
10
0
20
0
30
0
70
128
71
2
72
28
73
27
0
VERTEX
8
OBJECT__9
10
0
20
0
30
0
70
128
71
27
72
3
73
2
0
VERTEX
8
OBJECT__9
10
0
20
0
30
0
70
128
71
27
72
28
73
24
0
VERTEX
8
OBJECT__9
10
0
20
0
30
0
70
128
71
23
72
26
73
24
0
VERTEX
8
OBJECT__9
10
0
20
0
30
0
70
128
71
23
72
25
73
22
0
VERTEX
8
OBJECT__9
10
0
20
0
30
0
70
128
71
21
72
22
73
18
0
VERTEX
8
OBJECT__9
10
0
20
0
30
0
70
128
71
19
72
20
73
18
0
VERTEX
8
OBJECT__9
10
0
20
0
30
0
70
128
71
15
72
19
73
16
0
VERTEX
8
OBJECT__9
10
0
20
0
30
0
70
128
71
15
72
17
73
12
0
VERTEX
8
OBJECT__9
10
0
20
0
30
0
70
128
71
13
72
14
73
12
0
VERTEX
8
OBJECT__9
10
0
20
0
30
0
70
128
71
9
72
13
73
10
0
VERTEX
8
OBJECT__9
10
0
20
0
30
0
70
128
71
9
72
11
73
8
0
VERTEX
8
OBJECT__9
10
0
20
0
30
0
70
128
71
7
72
8
73
6
0
VERTEX
8
OBJECT__9
10
0
20
0
30
0
70
128
71
5
72
6
73
1
0
VERTEX
8
OBJECT__9
10
0
20
0
30
0
70
128
71
3
72
4
73
1
0
SEQEND
8
OBJECT__9
0
POLYLINE
8
OBJECT__10
66
1
70
64
71
26
72
26
62
253
0
VERTEX
8
OBJECT__10
10
12.397000
20
-12.000000
30
43.000000
70
192
0
VERTEX
8
OBJECT__10
10
15.497000
20
-10.000000
30
43.000000
70
192
0
VERTEX
8
OBJECT__10
10
15.497000
20
-7.660000
30
49.428001
70
192
0
VERTEX
8
OBJECT__10
10
12.397000
20
-2.084000
30
54.818001
70
192
0
VERTEX
8
OBJECT__10
10
12.397000
20
-9.193000
30
50.713001
70
192
0
VERTEX
8
OBJECT__10
10
15.497000
20
-6.940000
30
49.844002
70
192
0
VERTEX
8
OBJECT__10
10
12.397000
20
6.000000
30
53.391998
70
192
0
VERTEX
8
OBJECT__10
10
15.497000
20
-0.078000
30
52.556000
70
192
0
VERTEX
8
OBJECT__10
10
15.497000
20
-1.736000
30
52.848000
70
192
0
VERTEX
8
OBJECT__10
10
12.397000
20
11.276000
30
47.104000
70
192
0
VERTEX
8
OBJECT__10
10
15.497000
20
6.638000
30
49.708000
70
192
0
VERTEX
8
OBJECT__10
10
15.497000
20
5.000000
30
51.660000
70
192
0
VERTEX
8
OBJECT__10
10
12.397000
20
11.276000
30
38.896000
70
192
0
VERTEX
8
OBJECT__10
10
12.397000
20
12.000000
30
43.000000
70
192
0
VERTEX
8
OBJECT__10
10
15.497000
20
10.000000
30
43.000000
70
192
0
VERTEX
8
OBJECT__10
10
15.497000
20
9.397000
30
46.419998
70
192
0
VERTEX
8
OBJECT__10
10
15.497000
20
9.397000
30
39.580002
70
192
0
VERTEX
8
OBJECT__10
10
15.497000
20
6.638000
30
36.292000
70
192
0
VERTEX
8
OBJECT__10
10
12.397000
20
6.000000
30
32.608002
70
192
0
VERTEX
8
OBJECT__10
10
15.497000
20
5.000000
30
34.340000
70
192
0
VERTEX
8
OBJECT__10
10
15.497000
20
-0.078000
30
33.444000
70
192
0
VERTEX
8
OBJECT__10
10
12.397000
20
-2.084000
30
31.181999
70
192
0
VERTEX
8
OBJECT__10
10
15.497000
20
-1.736000
30
33.152000
70
192
0
VERTEX
8
OBJECT__10
10
15.497000
20
-6.940000
30
36.155998
70
192
0
VERTEX
8
OBJECT__10
10
12.397000
20
-9.193000
30
35.286999
70
192
0
VERTEX
8
OBJECT__10
10
15.497000
20
-7.660000
30
36.571999
70
192
0
VERTEX
8
OBJECT__10
10
0
20
0
30
0
70
128
71
1
72
2
73
3
0
VERTEX
8
OBJECT__10
10
0
20
0
30
0
70
128
71
4
72
5
73
6
0
VERTEX
8
OBJECT__10
10
0
20
0
30
0
70
128
71
5
72
3
73
6
0
VERTEX
8
OBJECT__10
10
0
20
0
30
0
70
128
71
7
72
4
73
8
0
VERTEX
8
OBJECT__10
10
0
20
0
30
0
70
128
71
4
72
9
73
8
0
VERTEX
8
OBJECT__10
10
0
20
0
30
0
70
128
71
10
72
7
73
11
0
VERTEX
8
OBJECT__10
10
0
20
0
30
0
70
128
71
7
72
12
73
11
0
VERTEX
8
OBJECT__10
10
0
20
0
30
0
70
128
71
13
72
14
73
15
0
VERTEX
8
OBJECT__10
10
0
20
0
30
0
70
128
71
10
72
16
73
15
0
VERTEX
8
OBJECT__10
10
0
20
0
30
0
70
128
71
15
72
14
73
10
0
VERTEX
8
OBJECT__10
10
0
20
0
30
0
70
128
71
13
72
17
73
18
0
VERTEX
8
OBJECT__10
10
0
20
0
30
0
70
128
71
18
72
19
73
13
0
VERTEX
8
OBJECT__10
10
0
20
0
30
0
70
128
71
19
72
20
73
21
0
VERTEX
8
OBJECT__10
10
0
20
0
30
0
70
128
71
21
72
22
73
19
0
VERTEX
8
OBJECT__10
10
0
20
0
30
0
70
128
71
22
72
23
73
24
0
VERTEX
8
OBJECT__10
10
0
20
0
30
0
70
128
71
24
72
25
73
22
0
VERTEX
8
OBJECT__10
10
0
20
0
30
0
70
128
71
25
72
26
73
2
0
VERTEX
8
OBJECT__10
10
0
20
0
30
0
70
128
71
2
72
1
73
25
0
VERTEX
8
OBJECT__10
10
0
20
0
30
0
70
128
71
24
72
26
73
25
0
VERTEX
8
OBJECT__10
10
0
20
0
30
0
70
128
71
21
72
23
73
22
0
VERTEX
8
OBJECT__10
10
0
20
0
30
0
70
128
71
18
72
20
73
19
0
VERTEX
8
OBJECT__10
10
0
20
0
30
0
70
128
71
15
72
17
73
13
0
VERTEX
8
OBJECT__10
10
0
20
0
30
0
70
128
71
11
72
16
73
10
0
VERTEX
8
OBJECT__10
10
0
20
0
30
0
70
128
71
8
72
12
73
7
0
VERTEX
8
OBJECT__10
10
0
20
0
30
0
70
128
71
6
72
9
73
4
0
VERTEX
8
OBJECT__10
10
0
20
0
30
0
70
128
71
3
72
5
73
1
0
SEQEND
8
OBJECT__10
0
POLYLINE
8
OBJECT__11
66
1
70
64
71
24
72
24
62
253
0
VERTEX
8
OBJECT__11
10
15.797000
20
7.071000
30
50.070999
70
192
0
VERTEX
8
OBJECT__11
10
15.797000
20
10.000000
30
43.000000
70
192
0
VERTEX
8
OBJECT__11
10
15.497000
20
9.397000
30
46.419998
70
192
0
VERTEX
8
OBJECT__11
10
15.497000
20
6.638000
30
49.708000
70
192
0
VERTEX
8
OBJECT__11
10
15.497000
20
10.000000
30
43.000000
70
192
0
VERTEX
8
OBJECT__11
10
15.797000
20
0.000000
30
53.000000
70
192
0
VERTEX
8
OBJECT__11
10
15.497000
20
5.000000
30
51.660000
70
192
0
VERTEX
8
OBJECT__11
10
15.497000
20
-0.078000
30
52.556000
70
192
0
VERTEX
8
OBJECT__11
10
15.497000
20
-1.736000
30
52.848000
70
192
0
VERTEX
8
OBJECT__11
10
15.797000
20
-7.071000
30
50.070999
70
192
0
VERTEX
8
OBJECT__11
10
15.497000
20
-6.940000
30
49.844002
70
192
0
VERTEX
8
OBJECT__11
10
15.797000
20
-10.000000
30
43.000000
70
192
0
VERTEX
8
OBJECT__11
10
15.497000
20
-7.660000
30
49.428001
70
192
0
VERTEX
8
OBJECT__11
10
15.497000
20
-10.000000
30
43.000000
70
192
0
VERTEX
8
OBJECT__11
10
15.497000
20
-7.660000
30
36.571999
70
192
0
VERTEX
8
OBJECT__11
10
15.797000
20
-7.071000
30
35.929001
70
192
0
VERTEX
8
OBJECT__11
10
15.797000
20
0.000000
30
33.000000
70
192
0
VERTEX
8
OBJECT__11
10
15.497000
20
-1.736000
30
33.152000
70
192
0
VERTEX
8
OBJECT__11
10
15.497000
20
-0.078000
30
33.444000
70
192
0
VERTEX
8
OBJECT__11
10
15.497000
20
-6.940000
30
36.155998
70
192
0
VERTEX
8
OBJECT__11
10
15.497000
20
5.000000
30
34.340000
70
192
0
VERTEX
8
OBJECT__11
10
15.797000
20
7.071000
30
35.929001
70
192
0
VERTEX
8
OBJECT__11
10
15.497000
20
6.638000
30
36.292000
70
192
0
VERTEX
8
OBJECT__11
10
15.497000
20
9.397000
30
39.580002
70
192
0
VERTEX
8
OBJECT__11
10
0
20
0
30
0
70
128
71
1
72
2
73
3
0
VERTEX
8
OBJECT__11
10
0
20
0
30
0
70
128
71
3
72
4
73
1
0
VERTEX
8
OBJECT__11
10
0
20
0
30
0
70
128
71
2
72
5
73
3
0
VERTEX
8
OBJECT__11
10
0
20
0
30
0
70
128
71
6
72
1
73
7
0
VERTEX
8
OBJECT__11
10
0
20
0
30
0
70
128
71
7
72
8
73
6
0
VERTEX
8
OBJECT__11
10
0
20
0
30
0
70
128
71
1
72
4
73
7
0
VERTEX
8
OBJECT__11
10
0
20
0
30
0
70
128
71
6
72
8
73
9
0
VERTEX
8
OBJECT__11
10
0
20
0
30
0
70
128
71
9
72
10
73
6
0
VERTEX
8
OBJECT__11
10
0
20
0
30
0
70
128
71
9
72
11
73
10
0
VERTEX
8
OBJECT__11
10
0
20
0
30
0
70
128
71
12
72
10
73
13
0
VERTEX
8
OBJECT__11
10
0
20
0
30
0
70
128
71
10
72
11
73
13
0
VERTEX
8
OBJECT__11
10
0
20
0
30
0
70
128
71
12
72
14
73
15
0
VERTEX
8
OBJECT__11
10
0
20
0
30
0
70
128
71
15
72
16
73
12
0
VERTEX
8
OBJECT__11
10
0
20
0
30
0
70
128
71
17
72
16
73
18
0
VERTEX
8
OBJECT__11
10
0
20
0
30
0
70
128
71
18
72
19
73
17
0
VERTEX
8
OBJECT__11
10
0
20
0
30
0
70
128
71
16
72
20
73
18
0
VERTEX
8
OBJECT__11
10
0
20
0
30
0
70
128
71
17
72
19
73
21
0
VERTEX
8
OBJECT__11
10
0
20
0
30
0
70
128
71
21
72
22
73
17
0
VERTEX
8
OBJECT__11
10
0
20
0
30
0
70
128
71
21
72
23
73
22
0
VERTEX
8
OBJECT__11
10
0
20
0
30
0
70
128
71
22
72
23
73
24
0
VERTEX
8
OBJECT__11
10
0
20
0
30
0
70
128
71
24
72
2
73
22
0
VERTEX
8
OBJECT__11
10
0
20
0
30
0
70
128
71
24
72
5
73
2
0
VERTEX
8
OBJECT__11
10
0
20
0
30
0
70
128
71
15
72
20
73
16
0
VERTEX
8
OBJECT__11
10
0
20
0
30
0
70
128
71
13
72
14
73
12
0
SEQEND
8
OBJECT__11
0
POLYLINE
8
OBJECT__13
66
1
70
64
71
16
72
16
62
253
0
VERTEX
8
OBJECT__13
10
15.797000
20
-10.000000
30
43.000000
70
192
0
VERTEX
8
OBJECT__13
10
17.497000
20
-5.750000
30
43.000000
70
192
0
VERTEX
8
OBJECT__13
10
17.497000
20
-4.066000
30
47.066002
70
192
0
VERTEX
8
OBJECT__13
10
15.797000
20
-7.071000
30
50.070999
70
192
0
VERTEX
8
OBJECT__13
10
17.497000
20
0.000000
30
48.750000
70
192
0
VERTEX
8
OBJECT__13
10
15.797000
20
0.000000
30
53.000000
70
192
0
VERTEX
8
OBJECT__13
10
17.497000
20
4.066000
30
47.066002
70
192
0
VERTEX
8
OBJECT__13
10
15.797000
20
7.071000
30
50.070999
70
192
0
VERTEX
8
OBJECT__13
10
17.497000
20
5.750000
30
43.000000
70
192
0
VERTEX
8
OBJECT__13
10
15.797000
20
10.000000
30
43.000000
70
192
0
VERTEX
8
OBJECT__13
10
17.497000
20
4.066000
30
38.933998
70
192
0
VERTEX
8
OBJECT__13
10
15.797000
20
7.071000
30
35.929001
70
192
0
VERTEX
8
OBJECT__13
10
17.497000
20
0.000000
30
37.250000
70
192
0
VERTEX
8
OBJECT__13
10
15.797000
20
0.000000
30
33.000000
70
192
0
VERTEX
8
OBJECT__13
10
17.497000
20
-4.066000
30
38.933998
70
192
0
VERTEX
8
OBJECT__13
10
15.797000
20
-7.071000
30
35.929001
70
192
0
VERTEX
8
OBJECT__13
10
0
20
0
30
0
70
128
71
1
72
2
73
3
0
VERTEX
8
OBJECT__13
10
0
20
0
30
0
70
128
71
4
72
3
73
5
0
VERTEX
8
OBJECT__13
10
0
20
0
30
0
70
128
71
6
72
5
73
7
0
VERTEX
8
OBJECT__13
10
0
20
0
30
0
70
128
71
8
72
7
73
9
0
VERTEX
8
OBJECT__13
10
0
20
0
30
0
70
128
71
10
72
9
73
11
0
VERTEX
8
OBJECT__13
10
0
20
0
30
0
70
128
71
12
72
11
73
13
0
VERTEX
8
OBJECT__13
10
0
20
0
30
0
70
128
71
14
72
13
73
15
0
VERTEX
8
OBJECT__13
10
0
20
0
30
0
70
128
71
16
72
15
73
2
0
VERTEX
8
OBJECT__13
10
0
20
0
30
0
70
128
71
2
72
1
73
16
0
VERTEX
8
OBJECT__13
10
0
20
0
30
0
70
128
71
15
72
16
73
14
0
VERTEX
8
OBJECT__13
10
0
20
0
30
0
70
128
71
13
72
14
73
12
0
VERTEX
8
OBJECT__13
10
0
20
0
30
0
70
128
71
11
72
12
73
10
0
VERTEX
8
OBJECT__13
10
0
20
0
30
0
70
128
71
9
72
10
73
8
0
VERTEX
8
OBJECT__13
10
0
20
0
30
0
70
128
71
7
72
8
73
6
0
VERTEX
8
OBJECT__13
10
0
20
0
30
0
70
128
71
5
72
6
73
4
0
VERTEX
8
OBJECT__13
10
0
20
0
30
0
70
128
71
3
72
4
73
1
0
SEQEND
8
OBJECT__13
0
POLYLINE
8
OBJECT__14
66
1
70
64
71
8
72
6
62
253
0
VERTEX
8
OBJECT__14
10
17.497000
20
0.000000
30
48.750000
70
192
0
VERTEX
8
OBJECT__14
10
17.497000
20
-4.066000
30
47.066002
70
192
0
VERTEX
8
OBJECT__14
10
17.497000
20
-5.750000
30
43.000000
70
192
0
VERTEX
8
OBJECT__14
10
17.497000
20
4.066000
30
38.933998
70
192
0
VERTEX
8
OBJECT__14
10
17.497000
20
5.750000
30
43.000000
70
192
0
VERTEX
8
OBJECT__14
10
17.497000
20
-4.066000
30
38.933998
70
192
0
VERTEX
8
OBJECT__14
10
17.497000
20
0.000000
30
37.250000
70
192
0
VERTEX
8
OBJECT__14
10
17.497000
20
4.066000
30
47.066002
70
192
0
VERTEX
8
OBJECT__14
10
0
20
0
30
0
70
128
71
1
72
2
73
3
0
VERTEX
8
OBJECT__14
10
0
20
0
30
0
70
128
71
1
72
4
73
5
0
VERTEX
8
OBJECT__14
10
0
20
0
30
0
70
128
71
3
72
6
73
1
0
VERTEX
8
OBJECT__14
10
0
20
0
30
0
70
128
71
1
72
7
73
4
0
VERTEX
8
OBJECT__14
10
0
20
0
30
0
70
128
71
5
72
8
73
1
0
VERTEX
8
OBJECT__14
10
0
20
0
30
0
70
128
71
6
72
7
73
1
0
SEQEND
8
OBJECT__14
0
POLYLINE
8
OBJECT__15
66
1
70
64
71
37
72
37
62
253
0
VERTEX
8
OBJECT__15
10
75.306000
20
4.836000
30
-81.610001
70
192
0
VERTEX
8
OBJECT__15
10
75.318001
20
-5.494000
30
-78.382004
70
192
0
VERTEX
8
OBJECT__15
10
75.442001
20
-7.800000
30
-80.676003
70
192
0
VERTEX
8
OBJECT__15
10
75.254997
20
-0.010000
30
-76.667999
70
192
0
VERTEX
8
OBJECT__15
10
75.265999
20
-2.713000
30
-77.012001
70
192
0
VERTEX
8
OBJECT__15
10
75.656998
20
-9.254000
30
-83.644997
70
192
0
VERTEX
8
OBJECT__15
10
75.915001
20
-9.642000
30
-86.487999
70
192
0
VERTEX
8
OBJECT__15
10
75.919998
20
9.546000
30
-86.487000
70
192
0
VERTEX
8
OBJECT__15
10
75.763000
20
9.533000
30
-84.874001
70
192
0
VERTEX
8
OBJECT__15
10
75.513000
20
8.472000
30
-81.749001
70
192
0
VERTEX
8
OBJECT__15
10
75.793999
20
9.582000
30
-85.220001
70
192
0
VERTEX
8
OBJECT__15
10
75.254997
20
0.817000
30
-76.639000
70
192
0
VERTEX
8
OBJECT__15
10
75.253998
20
0.423000
30
-76.612000
70
192
0
VERTEX
8
OBJECT__15
10
75.277000
20
3.628000
30
-77.343002
70
192
0
VERTEX
8
OBJECT__15
10
75.281998
20
3.960000
30
-77.489998
70
192
0
VERTEX
8
OBJECT__15
10
75.353996
20
6.426000
30
-79.133003
70
192
0
VERTEX
8
OBJECT__15
10
75.365997
20
6.676000
30
-79.367996
70
192
0
VERTEX
8
OBJECT__15
10
75.679001
20
0.210000
30
-88.184998
70
192
0
VERTEX
8
OBJECT__15
10
76.129997
20
9.421000
30
-88.565002
70
192
0
VERTEX
8
OBJECT__15
10
76.088997
20
9.498000
30
-88.184998
70
192
0
VERTEX
8
OBJECT__15
10
76.271004
20
8.943000
30
-89.786003
70
192
0
VERTEX
8
OBJECT__15
10
77.005997
20
3.509000
30
-95.546997
70
192
0
VERTEX
8
OBJECT__15
10
76.774002
20
6.232000
30
-93.873001
70
192
0
VERTEX
8
OBJECT__15
10
76.448997
20
8.339000
30
-91.330002
70
192
0
VERTEX
8
OBJECT__15
10
77.024002
20
3.183000
30
-95.672997
70
192
0
VERTEX
8
OBJECT__15
10
77.103996
20
-0.010000
30
-96.218002
70
192
0
VERTEX
8
OBJECT__15
10
77.108002
20
0.375000
30
-96.239998
70
192
0
VERTEX
8
OBJECT__15
10
76.933998
20
-4.565000
30
-95.039001
70
192
0
VERTEX
8
OBJECT__15
10
77.081001
20
-1.842000
30
-96.056999
70
192
0
VERTEX
8
OBJECT__15
10
76.908997
20
-4.878000
30
-94.858002
70
192
0
VERTEX
8
OBJECT__15
10
76.308998
20
-8.919000
30
-90.152000
70
192
0
VERTEX
8
OBJECT__15
10
76.652000
20
-7.172000
30
-92.945000
70
192
0
VERTEX
8
OBJECT__15
10
76.273003
20
-9.042000
30
-89.838997
70
192
0
VERTEX
8
OBJECT__15
10
76.266998
20
-9.053000
30
-89.788002
70
192
0
VERTEX
8
OBJECT__15
10
77.093002
20
-1.393000
30
-96.139000
70
192
0
VERTEX
8
OBJECT__15
10
75.924004
20
-9.656000
30
-86.587997
70
192
0
VERTEX
8
OBJECT__15
10
75.959000
20
-9.644000
30
-86.935997
70
192
0
VERTEX
8
OBJECT__15
10
0
20
0
30
0
70
128
71
1
72
2
73
3
0
VERTEX
8
OBJECT__15
10
0
20
0
30
0
70
128
71
1
72
4
73
5
0
VERTEX
8
OBJECT__15
10
0
20
0
30
0
70
128
71
5
72
2
73
1
0
VERTEX
8
OBJECT__15
10
0
20
0
30
0
70
128
71
3
72
6
73
1
0
VERTEX
8
OBJECT__15
10
0
20
0
30
0
70
128
71
7
72
8
73
1
0
VERTEX
8
OBJECT__15
10
0
20
0
30
0
70
128
71
1
72
9
73
10
0
VERTEX
8
OBJECT__15
10
0
20
0
30
0
70
128
71
1
72
11
73
9
0
VERTEX
8
OBJECT__15
10
0
20
0
30
0
70
128
71
1
72
8
73
11
0
VERTEX
8
OBJECT__15
10
0
20
0
30
0
70
128
71
1
72
12
73
13
0
VERTEX
8
OBJECT__15
10
0
20
0
30
0
70
128
71
1
72
14
73
12
0
VERTEX
8
OBJECT__15
10
0
20
0
30
0
70
128
71
1
72
15
73
14
0
VERTEX
8
OBJECT__15
10
0
20
0
30
0
70
128
71
1
72
16
73
15
0
VERTEX
8
OBJECT__15
10
0
20
0
30
0
70
128
71
1
72
17
73
16
0
VERTEX
8
OBJECT__15
10
0
20
0
30
0
70
128
71
13
72
4
73
1
0
VERTEX
8
OBJECT__15
10
0
20
0
30
0
70
128
71
10
72
17
73
1
0
VERTEX
8
OBJECT__15
10
0
20
0
30
0
70
128
71
18
72
19
73
20
0
VERTEX
8
OBJECT__15
10
0
20
0
30
0
70
128
71
18
72
21
73
19
0
VERTEX
8
OBJECT__15
10
0
20
0
30
0
70
128
71
18
72
22
73
23
0
VERTEX
8
OBJECT__15
10
0
20
0
30
0
70
128
71
23
72
24
73
18
0
VERTEX
8
OBJECT__15
10
0
20
0
30
0
70
128
71
18
72
25
73
22
0
VERTEX
8
OBJECT__15
10
0
20
0
30
0
70
128
71
18
72
26
73
27
0
VERTEX
8
OBJECT__15
10
0
20
0
30
0
70
128
71
27
72
25
73
18
0
VERTEX
8
OBJECT__15
10
0
20
0
30
0
70
128
71
18
72
28
73
29
0
VERTEX
8
OBJECT__15
10
0
20
0
30
0
70
128
71
18
72
30
73
28
0
VERTEX
8
OBJECT__15
10
0
20
0
30
0
70
128
71
18
72
31
73
32
0
VERTEX
8
OBJECT__15
10
0
20
0
30
0
70
128
71
18
72
33
73
31
0
VERTEX
8
OBJECT__15
10
0
20
0
30
0
70
128
71
32
72
30
73
18
0
VERTEX
8
OBJECT__15
10
0
20
0
30
0
70
128
71
18
72
34
73
33
0
VERTEX
8
OBJECT__15
10
0
20
0
30
0
70
128
71
29
72
35
73
18
0
VERTEX
8
OBJECT__15
10
0
20
0
30
0
70
128
71
35
72
26
73
18
0
VERTEX
8
OBJECT__15
10
0
20
0
30
0
70
128
71
24
72
21
73
18
0
VERTEX
8
OBJECT__15
10
0
20
0
30
0
70
128
71
18
72
36
73
37
0
VERTEX
8
OBJECT__15
10
0
20
0
30
0
70
128
71
18
72
7
73
36
0
VERTEX
8
OBJECT__15
10
0
20
0
30
0
70
128
71
37
72
34
73
18
0
VERTEX
8
OBJECT__15
10
0
20
0
30
0
70
128
71
18
72
8
73
7
0
VERTEX
8
OBJECT__15
10
0
20
0
30
0
70
128
71
20
72
8
73
18
0
VERTEX
8
OBJECT__15
10
0
20
0
30
0
70
128
71
6
72
7
73
1
0
SEQEND
8
OBJECT__15
0
POLYLINE
8
OBJECT__16
66
1
70
64
71
129
72
140
62
253
0
VERTEX
8
OBJECT__16
10
68.382004
20
-0.010000
30
-20.820999
70
192
0
VERTEX
8
OBJECT__16
10
67.622002
20
-14.322000
30
-20.815001
70
192
0
VERTEX
8
OBJECT__16
10
72.456001
20
-14.322000
30
-59.526001
70
192
0
VERTEX
8
OBJECT__16
10
66.087997
20
-0.010000
30
-3.931000
70
192
0
VERTEX
8
OBJECT__16
10
65.391998
20
-14.322000
30
-3.926000
70
192
0
VERTEX
8
OBJECT__16
10
73.274002
20
-0.010000
30
-59.533001
70
192
0
VERTEX
8
OBJECT__16
10
72.458000
20
14.305000
30
-59.526001
70
192
0
VERTEX
8
OBJECT__16
10
67.624001
20
14.305000
30
-20.815001
70
192
0
VERTEX
8
OBJECT__16
10
75.265999
20
-2.713000
30
-77.012001
70
192
0
VERTEX
8
OBJECT__16
10
75.442001
20
-7.800000
30
-80.676003
70
192
0
VERTEX
8
OBJECT__16
10
75.318001
20
-5.494000
30
-78.382004
70
192
0
VERTEX
8
OBJECT__16
10
75.856003
20
-14.322000
30
-89.785004
70
192
0
VERTEX
8
OBJECT__16
10
75.915001
20
-9.642000
30
-86.487999
70
192
0
VERTEX
8
OBJECT__16
10
75.656998
20
-9.254000
30
-83.644997
70
192
0
VERTEX
8
OBJECT__16
10
75.924004
20
-9.656000
30
-86.587997
70
192
0
VERTEX
8
OBJECT__16
10
75.959000
20
-9.644000
30
-86.935997
70
192
0
VERTEX
8
OBJECT__16
10
76.266998
20
-9.053000
30
-89.788002
70
192
0
VERTEX
8
OBJECT__16
10
75.858002
20
14.305000
30
-89.785004
70
192
0
VERTEX
8
OBJECT__16
10
76.088997
20
9.498000
30
-88.184998
70
192
0
VERTEX
8
OBJECT__16
10
76.129997
20
9.421000
30
-88.565002
70
192
0
VERTEX
8
OBJECT__16
10
75.793999
20
9.582000
30
-85.220001
70
192
0
VERTEX
8
OBJECT__16
10
75.919998
20
9.546000
30
-86.487000
70
192
0
VERTEX
8
OBJECT__16
10
75.763000
20
9.533000
30
-84.874001
70
192
0
VERTEX
8
OBJECT__16
10
75.513000
20
8.472000
30
-81.749001
70
192
0
VERTEX
8
OBJECT__16
10
75.281998
20
3.960000
30
-77.489998
70
192
0
VERTEX
8
OBJECT__16
10
75.353996
20
6.426000
30
-79.133003
70
192
0
VERTEX
8
OBJECT__16
10
75.365997
20
6.676000
30
-79.367996
70
192
0
VERTEX
8
OBJECT__16
10
75.277000
20
3.628000
30
-77.343002
70
192
0
VERTEX
8
OBJECT__16
10
75.254997
20
0.817000
30
-76.639000
70
192
0
VERTEX
8
OBJECT__16
10
75.253998
20
0.423000
30
-76.612000
70
192
0
VERTEX
8
OBJECT__16
10
75.254997
20
-0.010000
30
-76.667999
70
192
0
VERTEX
8
OBJECT__16
10
69.696999
20
-23.312000
30
-47.738998
70
192
0
VERTEX
8
OBJECT__16
10
70.169998
20
-23.165001
30
-51.367001
70
192
0
VERTEX
8
OBJECT__16
10
67.262001
20
-24.341999
30
-28.510000
70
192
0
VERTEX
8
OBJECT__16
10
66.309998
20
-24.643000
30
-20.806000
70
192
0
VERTEX
8
OBJECT__16
10
74.268997
20
-21.882999
30
-82.845001
70
192
0
VERTEX
8
OBJECT__16
10
75.031998
20
-21.511999
30
-89.108002
70
192
0
VERTEX
8
OBJECT__16
10
73.699997
20
-22.061001
30
-78.474998
70
192
0
VERTEX
8
OBJECT__16
10
71.231003
20
-22.833000
30
-59.512001
70
192
0
VERTEX
8
OBJECT__16
10
76.503998
20
-16.917000
30
-101.523003
70
192
0
VERTEX
8
OBJECT__16
10
76.710999
20
-15.513000
30
-103.237000
70
192
0
VERTEX
8
OBJECT__16
10
76.027000
20
-19.559000
30
-97.530998
70
192
0
VERTEX
8
OBJECT__16
10
76.305000
20
-18.275999
30
-99.865997
70
192
0
VERTEX
8
OBJECT__16
10
75.574997
20
-20.822001
30
-93.699997
70
192
0
VERTEX
8
OBJECT__16
10
75.111000
20
-21.410999
30
-89.778000
70
192
0
VERTEX
8
OBJECT__16
10
75.573997
20
-20.823000
30
-93.695999
70
192
0
VERTEX
8
OBJECT__16
10
76.308998
20
-8.919000
30
-90.152000
70
192
0
VERTEX
8
OBJECT__16
10
76.273003
20
-9.042000
30
-89.838997
70
192
0
VERTEX
8
OBJECT__16
10
76.847000
20
-14.319000
30
-104.327003
70
192
0
VERTEX
8
OBJECT__16
10
76.652000
20
-7.172000
30
-92.945000
70
192
0
VERTEX
8
OBJECT__16
10
76.908997
20
-4.878000
30
-94.858002
70
192
0
VERTEX
8
OBJECT__16
10
76.907997
20
-13.788000
30
-104.810997
70
192
0
VERTEX
8
OBJECT__16
10
77.103996
20
-11.612000
30
-106.320999
70
192
0
VERTEX
8
OBJECT__16
10
77.226997
20
-10.247000
30
-107.267998
70
192
0
VERTEX
8
OBJECT__16
10
76.933998
20
-4.565000
30
-95.039001
70
192
0
VERTEX
8
OBJECT__16
10
77.411003
20
-7.279000
30
-108.630997
70
192
0
VERTEX
8
OBJECT__16
10
77.081001
20
-1.842000
30
-96.056999
70
192
0
VERTEX
8
OBJECT__16
10
77.459999
20
-5.887000
30
-108.970001
70
192
0
VERTEX
8
OBJECT__16
10
77.556999
20
-3.101000
30
-109.648003
70
192
0
VERTEX
8
OBJECT__16
10
77.093002
20
-1.393000
30
-96.139000
70
192
0
VERTEX
8
OBJECT__16
10
77.588997
20
-0.030000
30
-109.855003
70
192
0
VERTEX
8
OBJECT__16
10
77.103996
20
-0.010000
30
-96.218002
70
192
0
VERTEX
8
OBJECT__16
10
77.587997
20
-0.010000
30
-109.852997
70
192
0
VERTEX
8
OBJECT__16
10
77.584000
20
0.298000
30
-109.824997
70
192
0
VERTEX
8
OBJECT__16
10
77.528999
20
4.266000
30
-109.456001
70
192
0
VERTEX
8
OBJECT__16
10
77.024002
20
3.183000
30
-95.672997
70
192
0
VERTEX
8
OBJECT__16
10
77.108002
20
0.375000
30
-96.239998
70
192
0
VERTEX
8
OBJECT__16
10
77.445000
20
6.474000
30
-108.870003
70
192
0
VERTEX
8
OBJECT__16
10
77.426003
20
6.980000
30
-108.736000
70
192
0
VERTEX
8
OBJECT__16
10
77.180000
20
10.852000
30
-106.914001
70
192
0
VERTEX
8
OBJECT__16
10
77.005997
20
3.509000
30
-95.546997
70
192
0
VERTEX
8
OBJECT__16
10
76.964996
20
13.240000
30
-105.254997
70
192
0
VERTEX
8
OBJECT__16
10
76.841003
20
14.293000
30
-104.266998
70
192
0
VERTEX
8
OBJECT__16
10
76.774002
20
6.232000
30
-93.873001
70
192
0
VERTEX
8
OBJECT__16
10
77.060997
20
12.168000
30
-106.000000
70
192
0
VERTEX
8
OBJECT__16
10
76.271004
20
8.943000
30
-89.786003
70
192
0
VERTEX
8
OBJECT__16
10
76.448997
20
8.339000
30
-91.330002
70
192
0
VERTEX
8
OBJECT__16
10
76.331001
20
18.125999
30
-100.091003
70
192
0
VERTEX
8
OBJECT__16
10
75.901001
20
20.000000
30
-96.469002
70
192
0
VERTEX
8
OBJECT__16
10
76.438004
20
17.436001
30
-100.977997
70
192
0
VERTEX
8
OBJECT__16
10
75.476997
20
20.996000
30
-92.871002
70
192
0
VERTEX
8
OBJECT__16
10
76.587997
20
16.459999
30
-102.232002
70
192
0
VERTEX
8
OBJECT__16
10
75.453003
20
21.018000
30
-92.670998
70
192
0
VERTEX
8
OBJECT__16
10
73.431999
20
22.075001
30
-76.385002
70
192
0
VERTEX
8
OBJECT__16
10
75.109001
20
21.339001
30
-89.778999
70
192
0
VERTEX
8
OBJECT__16
10
74.702003
20
21.716999
30
-86.372002
70
192
0
VERTEX
8
OBJECT__16
10
72.223999
20
22.416000
30
-66.887001
70
192
0
VERTEX
8
OBJECT__16
10
68.995003
20
23.603001
30
-42.311001
70
192
0
VERTEX
8
OBJECT__16
10
66.689003
20
24.572001
30
-23.856001
70
192
0
VERTEX
8
OBJECT__16
10
66.442001
20
24.641001
30
-21.858000
70
192
0
VERTEX
8
OBJECT__16
10
69.797997
20
23.308001
30
-48.418999
70
192
0
VERTEX
8
OBJECT__16
10
71.254997
20
22.771999
30
-59.512001
70
192
0
VERTEX
8
OBJECT__16
10
65.393997
20
14.305000
30
-3.926000
70
192
0
VERTEX
8
OBJECT__16
10
65.295998
20
24.965000
30
-12.595000
70
192
0
VERTEX
8
OBJECT__16
10
64.633003
20
24.739000
30
-7.373000
70
192
0
VERTEX
8
OBJECT__16
10
66.311996
20
24.677999
30
-20.805000
70
192
0
VERTEX
8
OBJECT__16
10
64.416000
20
24.450001
30
-5.690000
70
192
0
VERTEX
8
OBJECT__16
10
62.588001
20
17.100000
30
7.939000
70
192
0
VERTEX
8
OBJECT__16
10
62.296001
20
14.895000
30
9.810000
70
192
0
VERTEX
8
OBJECT__16
10
63.728001
20
22.900999
30
-0.326000
70
192
0
VERTEX
8
OBJECT__16
10
63.618000
20
22.599001
30
0.532000
70
192
0
VERTEX
8
OBJECT__16
10
63.147999
20
20.527000
30
4.076000
70
192
0
VERTEX
8
OBJECT__16
10
62.641998
20
17.504000
30
7.596000
70
192
0
VERTEX
8
OBJECT__16
10
64.188004
20
24.146000
30
-3.916000
70
192
0
VERTEX
8
OBJECT__16
10
64.175003
20
24.128000
30
-3.814000
70
192
0
VERTEX
8
OBJECT__16
10
61.653999
20
7.686000
30
13.564000
70
192
0
VERTEX
8
OBJECT__16
10
61.460999
20
3.111000
30
14.612000
70
192
0
VERTEX
8
OBJECT__16
10
61.748001
20
8.984000
30
13.037000
70
192
0
VERTEX
8
OBJECT__16
10
61.431999
20
-0.002000
30
14.764000
70
192
0
VERTEX
8
OBJECT__16
10
62.236000
20
14.304000
30
10.168000
70
192
0
VERTEX
8
OBJECT__16
10
61.875999
20
10.763000
30
12.314000
70
192
0
VERTEX
8
OBJECT__16
10
62.127998
20
-13.406000
30
10.836000
70
192
0
VERTEX
8
OBJECT__16
10
62.236000
20
-14.321000
30
10.166000
70
192
0
VERTEX
8
OBJECT__16
10
61.743000
20
-9.000000
30
13.071000
70
192
0
VERTEX
8
OBJECT__16
10
61.754002
20
-9.195000
30
13.010000
70
192
0
VERTEX
8
OBJECT__16
10
61.431999
20
-0.010000
30
14.764000
70
192
0
VERTEX
8
OBJECT__16
10
61.424999
20
-0.763000
30
14.801000
70
192
0
VERTEX
8
OBJECT__16
10
61.535000
20
-5.368000
30
14.210000
70
192
0
VERTEX
8
OBJECT__16
10
63.729000
20
-22.885000
30
-0.342000
70
192
0
VERTEX
8
OBJECT__16
10
63.882999
20
-23.447001
30
-1.529000
70
192
0
VERTEX
8
OBJECT__16
10
64.071999
20
-23.917999
30
-3.011000
70
192
0
VERTEX
8
OBJECT__16
10
62.951000
20
-19.445999
30
5.491000
70
192
0
VERTEX
8
OBJECT__16
10
63.348000
20
-21.496000
30
2.594000
70
192
0
VERTEX
8
OBJECT__16
10
62.591000
20
-17.052000
30
7.895000
70
192
0
VERTEX
8
OBJECT__16
10
62.441002
20
-16.052000
30
8.901000
70
192
0
VERTEX
8
OBJECT__16
10
64.663002
20
-24.763000
30
-7.606000
70
192
0
VERTEX
8
OBJECT__16
10
65.295998
20
-24.965000
30
-12.595000
70
192
0
VERTEX
8
OBJECT__16
10
64.417000
20
-24.412001
30
-5.697000
70
192
0
VERTEX
8
OBJECT__16
10
64.189003
20
-24.084999
30
-3.917000
70
192
0
VERTEX
8
OBJECT__16
10
0
20
0
30
0
70
128
71
1
72
2
73
3
0
VERTEX
8
OBJECT__16
10
0
20
0
30
0
70
128
71
4
72
5
73
2
0
VERTEX
8
OBJECT__16
10
0
20
0
30
0
70
128
71
1
72
6
73
7
0
VERTEX
8
OBJECT__16
10
0
20
0
30
0
70
128
71
4
72
1
73
8
0
VERTEX
8
OBJECT__16
10
0
20
0
30
0
70
128
71
6
72
3
73
9
0
VERTEX
8
OBJECT__16
10
0
20
0
30
0
70
128
71
3
72
10
73
11
0
VERTEX
8
OBJECT__16
10
0
20
0
30
0
70
128
71
11
72
9
73
3
0
VERTEX
8
OBJECT__16
10
0
20
0
30
0
70
128
71
12
72
13
73
14
0
VERTEX
8
OBJECT__16
10
0
20
0
30
0
70
128
71
12
72
15
73
13
0
VERTEX
8
OBJECT__16
10
0
20
0
30
0
70
128
71
12
72
16
73
15
0
VERTEX
8
OBJECT__16
10
0
20
0
30
0
70
128
71
12
72
17
73
16
0
VERTEX
8
OBJECT__16
10
0
20
0
30
0
70
128
71
14
72
3
73
12
0
VERTEX
8
OBJECT__16
10
0
20
0
30
0
70
128
71
14
72
10
73
3
0
VERTEX
8
OBJECT__16
10
0
20
0
30
0
70
128
71
18
72
19
73
20
0
VERTEX
8
OBJECT__16
10
0
20
0
30
0
70
128
71
18
72
21
73
22
0
VERTEX
8
OBJECT__16
10
0
20
0
30
0
70
128
71
18
72
23
73
21
0
VERTEX
8
OBJECT__16
10
0
20
0
30
0
70
128
71
22
72
19
73
18
0
VERTEX
8
OBJECT__16
10
0
20
0
30
0
70
128
71
7
72
24
73
23
0
VERTEX
8
OBJECT__16
10
0
20
0
30
0
70
128
71
23
72
18
73
7
0
VERTEX
8
OBJECT__16
10
0
20
0
30
0
70
128
71
7
72
25
73
26
0
VERTEX
8
OBJECT__16
10
0
20
0
30
0
70
128
71
26
72
27
73
7
0
VERTEX
8
OBJECT__16
10
0
20
0
30
0
70
128
71
7
72
28
73
25
0
VERTEX
8
OBJECT__16
10
0
20
0
30
0
70
128
71
7
72
6
73
29
0
VERTEX
8
OBJECT__16
10
0
20
0
30
0
70
128
71
29
72
28
73
7
0
VERTEX
8
OBJECT__16
10
0
20
0
30
0
70
128
71
6
72
30
73
29
0
VERTEX
8
OBJECT__16
10
0
20
0
30
0
70
128
71
6
72
31
73
30
0
VERTEX
8
OBJECT__16
10
0
20
0
30
0
70
128
71
27
72
24
73
7
0
VERTEX
8
OBJECT__16
10
0
20
0
30
0
70
128
71
3
72
32
73
33
0
VERTEX
8
OBJECT__16
10
0
20
0
30
0
70
128
71
2
72
34
73
32
0
VERTEX
8
OBJECT__16
10
0
20
0
30
0
70
128
71
2
72
35
73
34
0
VERTEX
8
OBJECT__16
10
0
20
0
30
0
70
128
71
32
72
3
73
2
0
VERTEX
8
OBJECT__16
10
0
20
0
30
0
70
128
71
12
72
36
73
37
0
VERTEX
8
OBJECT__16
10
0
20
0
30
0
70
128
71
12
72
38
73
36
0
VERTEX
8
OBJECT__16
10
0
20
0
30
0
70
128
71
3
72
39
73
38
0
VERTEX
8
OBJECT__16
10
0
20
0
30
0
70
128
71
38
72
12
73
3
0
VERTEX
8
OBJECT__16
10
0
20
0
30
0
70
128
71
12
72
40
73
41
0
VERTEX
8
OBJECT__16
10
0
20
0
30
0
70
128
71
12
72
42
73
43
0
VERTEX
8
OBJECT__16
10
0
20
0
30
0
70
128
71
12
72
44
73
42
0
VERTEX
8
OBJECT__16
10
0
20
0
30
0
70
128
71
12
72
45
73
46
0
VERTEX
8
OBJECT__16
10
0
20
0
30
0
70
128
71
46
72
44
73
12
0
VERTEX
8
OBJECT__16
10
0
20
0
30
0
70
128
71
43
72
40
73
12
0
VERTEX
8
OBJECT__16
10
0
20
0
30
0
70
128
71
12
72
47
73
48
0
VERTEX
8
OBJECT__16
10
0
20
0
30
0
70
128
71
49
72
50
73
47
0
VERTEX
8
OBJECT__16
10
0
20
0
30
0
70
128
71
47
72
12
73
49
0
VERTEX
8
OBJECT__16
10
0
20
0
30
0
70
128
71
51
72
50
73
49
0
VERTEX
8
OBJECT__16
10
0
20
0
30
0
70
128
71
49
72
52
73
51
0
VERTEX
8
OBJECT__16
10
0
20
0
30
0
70
128
71
53
72
54
73
55
0
VERTEX
8
OBJECT__16
10
0
20
0
30
0
70
128
71
55
72
51
73
53
0
VERTEX
8
OBJECT__16
10
0
20
0
30
0
70
128
71
56
72
57
73
55
0
VERTEX
8
OBJECT__16
10
0
20
0
30
0
70
128
71
55
72
54
73
56
0
VERTEX
8
OBJECT__16
10
0
20
0
30
0
70
128
71
56
72
58
73
57
0
VERTEX
8
OBJECT__16
10
0
20
0
30
0
70
128
71
59
72
60
73
57
0
VERTEX
8
OBJECT__16
10
0
20
0
30
0
70
128
71
61
72
62
73
60
0
VERTEX
8
OBJECT__16
10
0
20
0
30
0
70
128
71
60
72
59
73
61
0
VERTEX
8
OBJECT__16
10
0
20
0
30
0
70
128
71
61
72
63
73
62
0
VERTEX
8
OBJECT__16
10
0
20
0
30
0
70
128
71
57
72
58
73
59
0
VERTEX
8
OBJECT__16
10
0
20
0
30
0
70
128
71
52
72
53
73
51
0
VERTEX
8
OBJECT__16
10
0
20
0
30
0
70
128
71
62
72
63
73
64
0
VERTEX
8
OBJECT__16
10
0
20
0
30
0
70
128
71
65
72
66
73
67
0
VERTEX
8
OBJECT__16
10
0
20
0
30
0
70
128
71
67
72
64
73
65
0
VERTEX
8
OBJECT__16
10
0
20
0
30
0
70
128
71
65
72
68
73
66
0
VERTEX
8
OBJECT__16
10
0
20
0
30
0
70
128
71
69
72
70
73
71
0
VERTEX
8
OBJECT__16
10
0
20
0
30
0
70
128
71
71
72
66
73
69
0
VERTEX
8
OBJECT__16
10
0
20
0
30
0
70
128
71
72
72
73
73
74
0
VERTEX
8
OBJECT__16
10
0
20
0
30
0
70
128
71
71
72
75
73
72
0
VERTEX
8
OBJECT__16
10
0
20
0
30
0
70
128
71
71
72
70
73
75
0
VERTEX
8
OBJECT__16
10
0
20
0
30
0
70
128
71
74
72
71
73
72
0
VERTEX
8
OBJECT__16
10
0
20
0
30
0
70
128
71
68
72
69
73
66
0
VERTEX
8
OBJECT__16
10
0
20
0
30
0
70
128
71
18
72
76
73
77
0
VERTEX
8
OBJECT__16
10
0
20
0
30
0
70
128
71
77
72
73
73
18
0
VERTEX
8
OBJECT__16
10
0
20
0
30
0
70
128
71
77
72
74
73
73
0
VERTEX
8
OBJECT__16
10
0
20
0
30
0
70
128
71
18
72
78
73
79
0
VERTEX
8
OBJECT__16
10
0
20
0
30
0
70
128
71
18
72
80
73
78
0
VERTEX
8
OBJECT__16
10
0
20
0
30
0
70
128
71
79
72
81
73
18
0
VERTEX
8
OBJECT__16
10
0
20
0
30
0
70
128
71
18
72
73
73
82
0
VERTEX
8
OBJECT__16
10
0
20
0
30
0
70
128
71
82
72
80
73
18
0
VERTEX
8
OBJECT__16
10
0
20
0
30
0
70
128
71
81
72
83
73
18
0
VERTEX
8
OBJECT__16
10
0
20
0
30
0
70
128
71
7
72
18
73
84
0
VERTEX
8
OBJECT__16
10
0
20
0
30
0
70
128
71
18
72
85
73
86
0
VERTEX
8
OBJECT__16
10
0
20
0
30
0
70
128
71
86
72
84
73
18
0
VERTEX
8
OBJECT__16
10
0
20
0
30
0
70
128
71
84
72
87
73
7
0
VERTEX
8
OBJECT__16
10
0
20
0
30
0
70
128
71
8
72
88
73
89
0
VERTEX
8
OBJECT__16
10
0
20
0
30
0
70
128
71
89
72
90
73
8
0
VERTEX
8
OBJECT__16
10
0
20
0
30
0
70
128
71
7
72
91
73
88
0
VERTEX
8
OBJECT__16
10
0
20
0
30
0
70
128
71
7
72
92
73
91
0
VERTEX
8
OBJECT__16
10
0
20
0
30
0
70
128
71
88
72
8
73
7
0
VERTEX
8
OBJECT__16
10
0
20
0
30
0
70
128
71
93
72
8
73
94
0
VERTEX
8
OBJECT__16
10
0
20
0
30
0
70
128
71
94
72
95
73
93
0
VERTEX
8
OBJECT__16
10
0
20
0
30
0
70
128
71
8
72
96
73
94
0
VERTEX
8
OBJECT__16
10
0
20
0
30
0
70
128
71
95
72
97
73
93
0
VERTEX
8
OBJECT__16
10
0
20
0
30
0
70
128
71
93
72
98
73
99
0
VERTEX
8
OBJECT__16
10
0
20
0
30
0
70
128
71
93
72
100
73
101
0
VERTEX
8
OBJECT__16
10
0
20
0
30
0
70
128
71
101
72
102
73
93
0
VERTEX
8
OBJECT__16
10
0
20
0
30
0
70
128
71
102
72
103
73
93
0
VERTEX
8
OBJECT__16
10
0
20
0
30
0
70
128
71
93
72
104
73
105
0
VERTEX
8
OBJECT__16
10
0
20
0
30
0
70
128
71
105
72
100
73
93
0
VERTEX
8
OBJECT__16
10
0
20
0
30
0
70
128
71
103
72
98
73
93
0
VERTEX
8
OBJECT__16
10
0
20
0
30
0
70
128
71
4
72
106
73
107
0
VERTEX
8
OBJECT__16
10
0
20
0
30
0
70
128
71
4
72
108
73
106
0
VERTEX
8
OBJECT__16
10
0
20
0
30
0
70
128
71
107
72
109
73
4
0
VERTEX
8
OBJECT__16
10
0
20
0
30
0
70
128
71
4
72
93
73
110
0
VERTEX
8
OBJECT__16
10
0
20
0
30
0
70
128
71
110
72
111
73
4
0
VERTEX
8
OBJECT__16
10
0
20
0
30
0
70
128
71
111
72
108
73
4
0
VERTEX
8
OBJECT__16
10
0
20
0
30
0
70
128
71
4
72
112
73
113
0
VERTEX
8
OBJECT__16
10
0
20
0
30
0
70
128
71
4
72
114
73
115
0
VERTEX
8
OBJECT__16
10
0
20
0
30
0
70
128
71
115
72
112
73
4
0
VERTEX
8
OBJECT__16
10
0
20
0
30
0
70
128
71
4
72
116
73
117
0
VERTEX
8
OBJECT__16
10
0
20
0
30
0
70
128
71
117
72
118
73
4
0
VERTEX
8
OBJECT__16
10
0
20
0
30
0
70
128
71
118
72
114
73
4
0
VERTEX
8
OBJECT__16
10
0
20
0
30
0
70
128
71
5
72
119
73
120
0
VERTEX
8
OBJECT__16
10
0
20
0
30
0
70
128
71
120
72
121
73
5
0
VERTEX
8
OBJECT__16
10
0
20
0
30
0
70
128
71
5
72
122
73
123
0
VERTEX
8
OBJECT__16
10
0
20
0
30
0
70
128
71
5
72
124
73
122
0
VERTEX
8
OBJECT__16
10
0
20
0
30
0
70
128
71
123
72
119
73
5
0
VERTEX
8
OBJECT__16
10
0
20
0
30
0
70
128
71
5
72
113
73
125
0
VERTEX
8
OBJECT__16
10
0
20
0
30
0
70
128
71
125
72
124
73
5
0
VERTEX
8
OBJECT__16
10
0
20
0
30
0
70
128
71
5
72
126
73
127
0
VERTEX
8
OBJECT__16
10
0
20
0
30
0
70
128
71
5
72
128
73
126
0
VERTEX
8
OBJECT__16
10
0
20
0
30
0
70
128
71
127
72
2
73
5
0
VERTEX
8
OBJECT__16
10
0
20
0
30
0
70
128
71
5
72
129
73
128
0
VERTEX
8
OBJECT__16
10
0
20
0
30
0
70
128
71
127
72
35
73
2
0
VERTEX
8
OBJECT__16
10
0
20
0
30
0
70
128
71
121
72
129
73
5
0
VERTEX
8
OBJECT__16
10
0
20
0
30
0
70
128
71
113
72
5
73
4
0
VERTEX
8
OBJECT__16
10
0
20
0
30
0
70
128
71
109
72
116
73
4
0
VERTEX
8
OBJECT__16
10
0
20
0
30
0
70
128
71
99
72
110
73
93
0
VERTEX
8
OBJECT__16
10
0
20
0
30
0
70
128
71
97
72
104
73
93
0
VERTEX
8
OBJECT__16
10
0
20
0
30
0
70
128
71
90
72
96
73
8
0
VERTEX
8
OBJECT__16
10
0
20
0
30
0
70
128
71
87
72
92
73
7
0
VERTEX
8
OBJECT__16
10
0
20
0
30
0
70
128
71
83
72
85
73
18
0
VERTEX
8
OBJECT__16
10
0
20
0
30
0
70
128
71
64
72
67
73
62
0
VERTEX
8
OBJECT__16
10
0
20
0
30
0
70
128
71
48
72
17
73
12
0
VERTEX
8
OBJECT__16
10
0
20
0
30
0
70
128
71
41
72
49
73
12
0
VERTEX
8
OBJECT__16
10
0
20
0
30
0
70
128
71
37
72
45
73
12
0
VERTEX
8
OBJECT__16
10
0
20
0
30
0
70
128
71
33
72
39
73
3
0
VERTEX
8
OBJECT__16
10
0
20
0
30
0
70
128
71
20
72
76
73
18
0
VERTEX
8
OBJECT__16
10
0
20
0
30
0
70
128
71
9
72
31
73
6
0
VERTEX
8
OBJECT__16
10
0
20
0
30
0
70
128
71
8
72
93
73
4
0
VERTEX
8
OBJECT__16
10
0
20
0
30
0
70
128
71
7
72
8
73
1
0
VERTEX
8
OBJECT__16
10
0
20
0
30
0
70
128
71
2
72
1
73
4
0
VERTEX
8
OBJECT__16
10
0
20
0
30
0
70
128
71
3
72
6
73
1
0
SEQEND
8
OBJECT__16
0
POLYLINE
8
OBJECT__18
66
1
70
64
71
65
72
63
62
253
0
VERTEX
8
OBJECT__18
10
64.663002
20
-24.763000
30
-7.606000
70
192
0
VERTEX
8
OBJECT__18
10
64.417000
20
-24.412001
30
-5.697000
70
192
0
VERTEX
8
OBJECT__18
10
40.311001
20
-26.177999
30
-5.457000
70
192
0
VERTEX
8
OBJECT__18
10
39.092999
20
-26.667000
30
-7.406000
70
192
0
VERTEX
8
OBJECT__18
10
35.851002
20
-27.145000
30
-12.595000
70
192
0
VERTEX
8
OBJECT__18
10
65.295998
20
-24.965000
30
-12.595000
70
192
0
VERTEX
8
OBJECT__18
10
63.882999
20
-23.447001
30
-1.529000
70
192
0
VERTEX
8
OBJECT__18
10
63.729000
20
-22.885000
30
-0.342000
70
192
0
VERTEX
8
OBJECT__18
10
43.723999
20
-24.167999
30
0.006000
70
192
0
VERTEX
8
OBJECT__18
10
41.806000
20
-25.579000
30
-3.065000
70
192
0
VERTEX
8
OBJECT__18
10
64.071999
20
-23.917999
30
-3.011000
70
192
0
VERTEX
8
OBJECT__18
10
64.189003
20
-24.084999
30
-3.917000
70
192
0
VERTEX
8
OBJECT__18
10
46.522999
20
-21.334000
30
4.484000
70
192
0
VERTEX
8
OBJECT__18
10
63.348000
20
-21.496000
30
2.594000
70
192
0
VERTEX
8
OBJECT__18
10
62.951000
20
-19.445999
30
5.491000
70
192
0
VERTEX
8
OBJECT__18
10
62.591000
20
-17.052000
30
7.895000
70
192
0
VERTEX
8
OBJECT__18
10
48.848999
20
-17.652000
30
8.207000
70
192
0
VERTEX
8
OBJECT__18
10
48.701000
20
-17.952000
30
7.971000
70
192
0
VERTEX
8
OBJECT__18
10
44.452999
20
-23.632000
30
1.173000
70
192
0
VERTEX
8
OBJECT__18
10
49.813000
20
-15.694000
30
9.750000
70
192
0
VERTEX
8
OBJECT__18
10
62.441002
20
-16.052000
30
8.901000
70
192
0
VERTEX
8
OBJECT__18
10
62.236000
20
-14.321000
30
10.166000
70
192
0
VERTEX
8
OBJECT__18
10
51.358002
20
-11.532000
30
12.222000
70
192
0
VERTEX
8
OBJECT__18
10
62.127998
20
-13.406000
30
10.836000
70
192
0
VERTEX
8
OBJECT__18
10
61.754002
20
-9.195000
30
13.010000
70
192
0
VERTEX
8
OBJECT__18
10
51.990002
20
-9.175000
30
13.234000
70
192
0
VERTEX
8
OBJECT__18
10
61.743000
20
-9.000000
30
13.071000
70
192
0
VERTEX
8
OBJECT__18
10
51.997002
20
-9.152000
30
13.244000
70
192
0
VERTEX
8
OBJECT__18
10
61.535000
20
-5.368000
30
14.210000
70
192
0
VERTEX
8
OBJECT__18
10
52.768002
20
-4.762000
30
14.479000
70
192
0
VERTEX
8
OBJECT__18
10
61.424999
20
-0.763000
30
14.801000
70
192
0
VERTEX
8
OBJECT__18
10
53.025002
20
-1.408000
30
14.890000
70
192
0
VERTEX
8
OBJECT__18
10
52.997002
20
-0.003000
30
14.845000
70
192
0
VERTEX
8
OBJECT__18
10
61.431999
20
-0.010000
30
14.764000
70
192
0
VERTEX
8
OBJECT__18
10
61.431999
20
-0.002000
30
14.764000
70
192
0
VERTEX
8
OBJECT__18
10
61.460999
20
3.111000
30
14.612000
70
192
0
VERTEX
8
OBJECT__18
10
52.937000
20
3.018000
30
14.748000
70
192
0
VERTEX
8
OBJECT__18
10
61.653999
20
7.686000
30
13.564000
70
192
0
VERTEX
8
OBJECT__18
10
52.575001
20
6.177000
30
14.169000
70
192
0
VERTEX
8
OBJECT__18
10
51.945999
20
9.151000
30
13.163000
70
192
0
VERTEX
8
OBJECT__18
10
61.748001
20
8.984000
30
13.037000
70
192
0
VERTEX
8
OBJECT__18
10
61.875999
20
10.763000
30
12.314000
70
192
0
VERTEX
8
OBJECT__18
10
51.680000
20
10.406000
30
12.738000
70
192
0
VERTEX
8
OBJECT__18
10
50.103001
20
15.023000
30
10.214000
70
192
0
VERTEX
8
OBJECT__18
10
62.236000
20
14.304000
30
10.168000
70
192
0
VERTEX
8
OBJECT__18
10
62.296001
20
14.895000
30
9.810000
70
192
0
VERTEX
8
OBJECT__18
10
62.588001
20
17.100000
30
7.939000
70
192
0
VERTEX
8
OBJECT__18
10
48.819000
20
17.611000
30
8.159000
70
192
0
VERTEX
8
OBJECT__18
10
62.641998
20
17.504000
30
7.596000
70
192
0
VERTEX
8
OBJECT__18
10
48.270000
20
18.718000
30
7.280000
70
192
0
VERTEX
8
OBJECT__18
10
63.147999
20
20.527000
30
4.076000
70
192
0
VERTEX
8
OBJECT__18
10
46.070000
20
21.903999
30
3.759000
70
192
0
VERTEX
8
OBJECT__18
10
63.618000
20
22.599001
30
0.532000
70
192
0
VERTEX
8
OBJECT__18
10
63.728001
20
22.900999
30
-0.326000
70
192
0
VERTEX
8
OBJECT__18
10
43.740002
20
24.228001
30
0.030000
70
192
0
VERTEX
8
OBJECT__18
10
40.310001
20
26.174000
30
-5.459000
70
192
0
VERTEX
8
OBJECT__18
10
64.175003
20
24.128000
30
-3.814000
70
192
0
VERTEX
8
OBJECT__18
10
64.188004
20
24.146000
30
-3.916000
70
192
0
VERTEX
8
OBJECT__18
10
43.583000
20
24.384001
30
-0.220000
70
192
0
VERTEX
8
OBJECT__18
10
41.646000
20
25.666000
30
-3.321000
70
192
0
VERTEX
8
OBJECT__18
10
64.633003
20
24.739000
30
-7.373000
70
192
0
VERTEX
8
OBJECT__18
10
38.845001
20
26.730000
30
-7.802000
70
192
0
VERTEX
8
OBJECT__18
10
35.851002
20
27.145000
30
-12.595000
70
192
0
VERTEX
8
OBJECT__18
10
64.416000
20
24.450001
30
-5.690000
70
192
0
VERTEX
8
OBJECT__18
10
65.295998
20
24.965000
30
-12.595000
70
192
0
VERTEX
8
OBJECT__18
10
0
20
0
30
0
70
128
71
1
72
2
73
3
0
VERTEX
8
OBJECT__18
10
0
20
0
30
0
70
128
71
3
72
4
73
1
0
VERTEX
8
OBJECT__18
10
0
20
0
30
0
70
128
71
5
72
6
73
1
0
VERTEX
8
OBJECT__18
10
0
20
0
30
0
70
128
71
7
72
8
73
9
0
VERTEX
8
OBJECT__18
10
0
20
0
30
0
70
128
71
10
72
11
73
7
0
VERTEX
8
OBJECT__18
10
0
20
0
30
0
70
128
71
10
72
2
73
12
0
VERTEX
8
OBJECT__18
10
0
20
0
30
0
70
128
71
12
72
11
73
10
0
VERTEX
8
OBJECT__18
10
0
20
0
30
0
70
128
71
9
72
10
73
7
0
VERTEX
8
OBJECT__18
10
0
20
0
30
0
70
128
71
13
72
8
73
14
0
VERTEX
8
OBJECT__18
10
0
20
0
30
0
70
128
71
15
72
16
73
17
0
VERTEX
8
OBJECT__18
10
0
20
0
30
0
70
128
71
18
72
14
73
15
0
VERTEX
8
OBJECT__18
10
0
20
0
30
0
70
128
71
17
72
18
73
15
0
VERTEX
8
OBJECT__18
10
0
20
0
30
0
70
128
71
14
72
18
73
13
0
VERTEX
8
OBJECT__18
10
0
20
0
30
0
70
128
71
13
72
19
73
8
0
VERTEX
8
OBJECT__18
10
0
20
0
30
0
70
128
71
20
72
21
73
22
0
VERTEX
8
OBJECT__18
10
0
20
0
30
0
70
128
71
20
72
16
73
21
0
VERTEX
8
OBJECT__18
10
0
20
0
30
0
70
128
71
22
72
23
73
20
0
VERTEX
8
OBJECT__18
10
0
20
0
30
0
70
128
71
24
72
25
73
26
0
VERTEX
8
OBJECT__18
10
0
20
0
30
0
70
128
71
23
72
22
73
24
0
VERTEX
8
OBJECT__18
10
0
20
0
30
0
70
128
71
26
72
23
73
24
0
VERTEX
8
OBJECT__18
10
0
20
0
30
0
70
128
71
25
72
27
73
26
0
VERTEX
8
OBJECT__18
10
0
20
0
30
0
70
128
71
28
72
27
73
29
0
VERTEX
8
OBJECT__18
10
0
20
0
30
0
70
128
71
29
72
30
73
28
0
VERTEX
8
OBJECT__18
10
0
20
0
30
0
70
128
71
29
72
31
73
32
0
VERTEX
8
OBJECT__18
10
0
20
0
30
0
70
128
71
32
72
30
73
29
0
VERTEX
8
OBJECT__18
10
0
20
0
30
0
70
128
71
33
72
32
73
31
0
VERTEX
8
OBJECT__18
10
0
20
0
30
0
70
128
71
31
72
34
73
33
0
VERTEX
8
OBJECT__18
10
0
20
0
30
0
70
128
71
34
72
35
73
33
0
VERTEX
8
OBJECT__18
10
0
20
0
30
0
70
128
71
36
72
37
73
33
0
VERTEX
8
OBJECT__18
10
0
20
0
30
0
70
128
71
38
72
39
73
37
0
VERTEX
8
OBJECT__18
10
0
20
0
30
0
70
128
71
40
72
39
73
38
0
VERTEX
8
OBJECT__18
10
0
20
0
30
0
70
128
71
38
72
41
73
40
0
VERTEX
8
OBJECT__18
10
0
20
0
30
0
70
128
71
37
72
36
73
38
0
VERTEX
8
OBJECT__18
10
0
20
0
30
0
70
128
71
42
72
43
73
40
0
VERTEX
8
OBJECT__18
10
0
20
0
30
0
70
128
71
40
72
41
73
42
0
VERTEX
8
OBJECT__18
10
0
20
0
30
0
70
128
71
44
72
43
73
45
0
VERTEX
8
OBJECT__18
10
0
20
0
30
0
70
128
71
45
72
46
73
44
0
VERTEX
8
OBJECT__18
10
0
20
0
30
0
70
128
71
47
72
48
73
44
0
VERTEX
8
OBJECT__18
10
0
20
0
30
0
70
128
71
46
72
47
73
44
0
VERTEX
8
OBJECT__18
10
0
20
0
30
0
70
128
71
49
72
50
73
48
0
VERTEX
8
OBJECT__18
10
0
20
0
30
0
70
128
71
48
72
47
73
49
0
VERTEX
8
OBJECT__18
10
0
20
0
30
0
70
128
71
49
72
51
73
50
0
VERTEX
8
OBJECT__18
10
0
20
0
30
0
70
128
71
52
72
50
73
53
0
VERTEX
8
OBJECT__18
10
0
20
0
30
0
70
128
71
53
72
54
73
52
0
VERTEX
8
OBJECT__18
10
0
20
0
30
0
70
128
71
54
72
55
73
52
0
VERTEX
8
OBJECT__18
10
0
20
0
30
0
70
128
71
56
72
57
73
58
0
VERTEX
8
OBJECT__18
10
0
20
0
30
0
70
128
71
57
72
59
73
55
0
VERTEX
8
OBJECT__18
10
0
20
0
30
0
70
128
71
57
72
56
73
60
0
VERTEX
8
OBJECT__18
10
0
20
0
30
0
70
128
71
60
72
59
73
57
0
VERTEX
8
OBJECT__18
10
0
20
0
30
0
70
128
71
55
72
54
73
57
0
VERTEX
8
OBJECT__18
10
0
20
0
30
0
70
128
71
61
72
62
73
56
0
VERTEX
8
OBJECT__18
10
0
20
0
30
0
70
128
71
61
72
63
73
62
0
VERTEX
8
OBJECT__18
10
0
20
0
30
0
70
128
71
56
72
64
73
61
0
VERTEX
8
OBJECT__18
10
0
20
0
30
0
70
128
71
61
72
65
73
63
0
VERTEX
8
OBJECT__18
10
0
20
0
30
0
70
128
71
58
72
64
73
56
0
VERTEX
8
OBJECT__18
10
0
20
0
30
0
70
128
71
51
72
53
73
50
0
VERTEX
8
OBJECT__18
10
0
20
0
30
0
70
128
71
42
72
45
73
43
0
VERTEX
8
OBJECT__18
10
0
20
0
30
0
70
128
71
33
72
35
73
36
0
VERTEX
8
OBJECT__18
10
0
20
0
30
0
70
128
71
28
72
26
73
27
0
VERTEX
8
OBJECT__18
10
0
20
0
30
0
70
128
71
20
72
17
73
16
0
VERTEX
8
OBJECT__18
10
0
20
0
30
0
70
128
71
19
72
9
73
8
0
VERTEX
8
OBJECT__18
10
0
20
0
30
0
70
128
71
10
72
3
73
2
0
VERTEX
8
OBJECT__18
10
0
20
0
30
0
70
128
71
4
72
5
73
1
0
SEQEND
8
OBJECT__18
0
POLYLINE
8
OBJECT__19
66
1
70
64
71
36
72
34
62
253
0
VERTEX
8
OBJECT__19
10
52.997002
20
-0.003000
30
14.845000
70
192
0
VERTEX
8
OBJECT__19
10
51.997002
20
-9.152000
30
13.244000
70
192
0
VERTEX
8
OBJECT__19
10
52.768002
20
-4.762000
30
14.479000
70
192
0
VERTEX
8
OBJECT__19
10
49.813000
20
-15.694000
30
9.750000
70
192
0
VERTEX
8
OBJECT__19
10
51.358002
20
-11.532000
30
12.222000
70
192
0
VERTEX
8
OBJECT__19
10
43.723999
20
-24.167999
30
0.006000
70
192
0
VERTEX
8
OBJECT__19
10
44.452999
20
-23.632000
30
1.173000
70
192
0
VERTEX
8
OBJECT__19
10
51.990002
20
-9.175000
30
13.234000
70
192
0
VERTEX
8
OBJECT__19
10
48.848999
20
-17.652000
30
8.207000
70
192
0
VERTEX
8
OBJECT__19
10
46.522999
20
-21.334000
30
4.484000
70
192
0
VERTEX
8
OBJECT__19
10
48.701000
20
-17.952000
30
7.971000
70
192
0
VERTEX
8
OBJECT__19
10
35.851002
20
-27.145000
30
-12.595000
70
192
0
VERTEX
8
OBJECT__19
10
39.092999
20
-26.667000
30
-7.406000
70
192
0
VERTEX
8
OBJECT__19
10
34.425999
20
-27.195999
30
-14.875000
70
192
0
VERTEX
8
OBJECT__19
10
35.158001
20
-27.176001
30
-13.704000
70
192
0
VERTEX
8
OBJECT__19
10
40.311001
20
-26.177999
30
-5.457000
70
192
0
VERTEX
8
OBJECT__19
10
41.806000
20
-25.579000
30
-3.065000
70
192
0
VERTEX
8
OBJECT__19
10
35.784000
20
-27.148001
30
-12.702000
70
192
0
VERTEX
8
OBJECT__19
10
34.397999
20
-27.197001
30
-14.920000
70
192
0
VERTEX
8
OBJECT__19
10
52.937000
20
3.018000
30
14.748000
70
192
0
VERTEX
8
OBJECT__19
10
40.310001
20
26.174000
30
-5.459000
70
192
0
VERTEX
8
OBJECT__19
10
38.845001
20
26.730000
30
-7.802000
70
192
0
VERTEX
8
OBJECT__19
10
51.945999
20
9.151000
30
13.163000
70
192
0
VERTEX
8
OBJECT__19
10
51.680000
20
10.406000
30
12.738000
70
192
0
VERTEX
8
OBJECT__19
10
52.575001
20
6.177000
30
14.169000
70
192
0
VERTEX
8
OBJECT__19
10
35.851002
20
27.145000
30
-12.595000
70
192
0
VERTEX
8
OBJECT__19
10
43.740002
20
24.228001
30
0.030000
70
192
0
VERTEX
8
OBJECT__19
10
43.583000
20
24.384001
30
-0.220000
70
192
0
VERTEX
8
OBJECT__19
10
48.270000
20
18.718000
30
7.280000
70
192
0
VERTEX
8
OBJECT__19
10
46.070000
20
21.903999
30
3.759000
70
192
0
VERTEX
8
OBJECT__19
10
50.103001
20
15.023000
30
10.214000
70
192
0
VERTEX
8
OBJECT__19
10
53.025002
20
-1.408000
30
14.890000
70
192
0
VERTEX
8
OBJECT__19
10
35.158001
20
27.176001
30
-13.704000
70
192
0
VERTEX
8
OBJECT__19
10
41.646000
20
25.666000
30
-3.321000
70
192
0
VERTEX
8
OBJECT__19
10
48.819000
20
17.611000
30
8.159000
70
192
0
VERTEX
8
OBJECT__19
10
34.397999
20
27.197001
30
-14.920000
70
192
0
VERTEX
8
OBJECT__19
10
0
20
0
30
0
70
128
71
1
72
2
73
3
0
VERTEX
8
OBJECT__19
10
0
20
0
30
0
70
128
71
1
72
4
73
5
0
VERTEX
8
OBJECT__19
10
0
20
0
30
0
70
128
71
1
72
6
73
7
0
VERTEX
8
OBJECT__19
10
0
20
0
30
0
70
128
71
1
72
8
73
2
0
VERTEX
8
OBJECT__19
10
0
20
0
30
0
70
128
71
1
72
9
73
4
0
VERTEX
8
OBJECT__19
10
0
20
0
30
0
70
128
71
7
72
10
73
1
0
VERTEX
8
OBJECT__19
10
0
20
0
30
0
70
128
71
5
72
8
73
1
0
VERTEX
8
OBJECT__19
10
0
20
0
30
0
70
128
71
10
72
11
73
1
0
VERTEX
8
OBJECT__19
10
0
20
0
30
0
70
128
71
1
72
12
73
13
0
VERTEX
8
OBJECT__19
10
0
20
0
30
0
70
128
71
1
72
14
73
15
0
VERTEX
8
OBJECT__19
10
0
20
0
30
0
70
128
71
11
72
9
73
1
0
VERTEX
8
OBJECT__19
10
0
20
0
30
0
70
128
71
1
72
16
73
17
0
VERTEX
8
OBJECT__19
10
0
20
0
30
0
70
128
71
1
72
18
73
12
0
VERTEX
8
OBJECT__19
10
0
20
0
30
0
70
128
71
1
72
19
73
14
0
VERTEX
8
OBJECT__19
10
0
20
0
30
0
70
128
71
19
72
1
73
20
0
VERTEX
8
OBJECT__19
10
0
20
0
30
0
70
128
71
17
72
6
73
1
0
VERTEX
8
OBJECT__19
10
0
20
0
30
0
70
128
71
15
72
18
73
1
0
VERTEX
8
OBJECT__19
10
0
20
0
30
0
70
128
71
19
72
21
73
22
0
VERTEX
8
OBJECT__19
10
0
20
0
30
0
70
128
71
19
72
23
73
24
0
VERTEX
8
OBJECT__19
10
0
20
0
30
0
70
128
71
20
72
25
73
19
0
VERTEX
8
OBJECT__19
10
0
20
0
30
0
70
128
71
13
72
16
73
1
0
VERTEX
8
OBJECT__19
10
0
20
0
30
0
70
128
71
22
72
26
73
19
0
VERTEX
8
OBJECT__19
10
0
20
0
30
0
70
128
71
19
72
27
73
28
0
VERTEX
8
OBJECT__19
10
0
20
0
30
0
70
128
71
19
72
29
73
30
0
VERTEX
8
OBJECT__19
10
0
20
0
30
0
70
128
71
24
72
31
73
19
0
VERTEX
8
OBJECT__19
10
0
20
0
30
0
70
128
71
3
72
32
73
1
0
VERTEX
8
OBJECT__19
10
0
20
0
30
0
70
128
71
26
72
33
73
19
0
VERTEX
8
OBJECT__19
10
0
20
0
30
0
70
128
71
28
72
34
73
19
0
VERTEX
8
OBJECT__19
10
0
20
0
30
0
70
128
71
19
72
35
73
29
0
VERTEX
8
OBJECT__19
10
0
20
0
30
0
70
128
71
25
72
23
73
19
0
VERTEX
8
OBJECT__19
10
0
20
0
30
0
70
128
71
34
72
21
73
19
0
VERTEX
8
OBJECT__19
10
0
20
0
30
0
70
128
71
31
72
35
73
19
0
VERTEX
8
OBJECT__19
10
0
20
0
30
0
70
128
71
30
72
27
73
19
0
VERTEX
8
OBJECT__19
10
0
20
0
30
0
70
128
71
33
72
36
73
19
0
SEQEND
8
OBJECT__19
0
POLYLINE
8
OBJECT__20
66
1
70
64
71
139
72
137
62
253
0
VERTEX
8
OBJECT__20
10
49.273998
20
25.936001
30
-19.667999
70
192
0
VERTEX
8
OBJECT__20
10
34.397999
20
27.141001
30
-16.354000
70
192
0
VERTEX
8
OBJECT__20
10
34.397999
20
27.197001
30
-14.920000
70
192
0
VERTEX
8
OBJECT__20
10
35.158001
20
27.176001
30
-13.704000
70
192
0
VERTEX
8
OBJECT__20
10
34.397999
20
26.997000
30
-19.240000
70
192
0
VERTEX
8
OBJECT__20
10
65.295998
20
24.965000
30
-12.595000
70
192
0
VERTEX
8
OBJECT__20
10
50.109001
20
25.875999
30
-19.691999
70
192
0
VERTEX
8
OBJECT__20
10
35.851002
20
27.145000
30
-12.595000
70
192
0
VERTEX
8
OBJECT__20
10
55.893002
20
25.458000
30
-19.966999
70
192
0
VERTEX
8
OBJECT__20
10
58.728001
20
25.226000
30
-20.799999
70
192
0
VERTEX
8
OBJECT__20
10
56.791000
20
25.385000
30
-20.231001
70
192
0
VERTEX
8
OBJECT__20
10
66.311996
20
24.677999
30
-20.805000
70
192
0
VERTEX
8
OBJECT__20
10
60.240002
20
25.076000
30
-21.889999
70
192
0
VERTEX
8
OBJECT__20
10
59.423000
20
25.157000
30
-21.301001
70
192
0
VERTEX
8
OBJECT__20
10
66.442001
20
24.641001
30
-21.858000
70
192
0
VERTEX
8
OBJECT__20
10
66.689003
20
24.572001
30
-23.856001
70
192
0
VERTEX
8
OBJECT__20
10
63.097000
20
24.743000
30
-25.150999
70
192
0
VERTEX
8
OBJECT__20
10
61.370998
20
24.955000
30
-22.917000
70
192
0
VERTEX
8
OBJECT__20
10
64.740997
20
24.462999
30
-29.044001
70
192
0
VERTEX
8
OBJECT__20
10
63.978001
20
24.593000
30
-27.238001
70
192
0
VERTEX
8
OBJECT__20
10
69.797997
20
23.308001
30
-48.418999
70
192
0
VERTEX
8
OBJECT__20
10
67.540001
20
23.423000
30
-48.421001
70
192
0
VERTEX
8
OBJECT__20
10
66.837997
20
23.679001
30
-43.009998
70
192
0
VERTEX
8
OBJECT__20
10
68.995003
20
23.603001
30
-42.311001
70
192
0
VERTEX
8
OBJECT__20
10
65.838997
20
24.093000
30
-35.355999
70
192
0
VERTEX
8
OBJECT__20
10
65.611000
20
24.193001
30
-33.612999
70
192
0
VERTEX
8
OBJECT__20
10
66.555000
20
23.782000
30
-40.827000
70
192
0
VERTEX
8
OBJECT__20
10
61.000999
20
25.000000
30
-22.438000
70
192
0
VERTEX
8
OBJECT__20
10
68.882004
20
22.934999
30
-58.761002
70
192
0
VERTEX
8
OBJECT__20
10
71.254997
20
22.771999
30
-59.512001
70
192
0
VERTEX
8
OBJECT__20
10
72.223999
20
22.416000
30
-66.887001
70
192
0
VERTEX
8
OBJECT__20
10
70.940002
20
22.187000
30
-74.615997
70
192
0
VERTEX
8
OBJECT__20
10
73.431999
20
22.075001
30
-76.385002
70
192
0
VERTEX
8
OBJECT__20
10
71.095001
20
22.131001
30
-75.810997
70
192
0
VERTEX
8
OBJECT__20
10
71.160004
20
22.105000
30
-76.389000
70
192
0
VERTEX
8
OBJECT__20
10
74.702003
20
21.716999
30
-86.372002
70
192
0
VERTEX
8
OBJECT__20
10
72.544998
20
21.542999
30
-88.807999
70
192
0
VERTEX
8
OBJECT__20
10
75.109001
20
21.339001
30
-89.778999
70
192
0
VERTEX
8
OBJECT__20
10
75.453003
20
21.018000
30
-92.670998
70
192
0
VERTEX
8
OBJECT__20
10
72.969002
20
20.907000
30
-92.652000
70
192
0
VERTEX
8
OBJECT__20
10
72.695999
20
21.316000
30
-90.180000
70
192
0
VERTEX
8
OBJECT__20
10
75.476997
20
20.996000
30
-92.871002
70
192
0
VERTEX
8
OBJECT__20
10
73.206001
20
20.548000
30
-94.792999
70
192
0
VERTEX
8
OBJECT__20
10
73.200996
20
20.559000
30
-94.751999
70
192
0
VERTEX
8
OBJECT__20
10
75.901001
20
20.000000
30
-96.469002
70
192
0
VERTEX
8
OBJECT__20
10
73.242996
20
20.448999
30
-95.134003
70
192
0
VERTEX
8
OBJECT__20
10
73.200996
20
20.561001
30
-94.747002
70
192
0
VERTEX
8
OBJECT__20
10
73.570000
20
19.169001
30
-98.334000
70
192
0
VERTEX
8
OBJECT__20
10
73.546997
20
19.261000
30
-98.102997
70
192
0
VERTEX
8
OBJECT__20
10
76.331001
20
18.125999
30
-100.091003
70
192
0
VERTEX
8
OBJECT__20
10
73.853996
20
17.403000
30
-100.959000
70
192
0
VERTEX
8
OBJECT__20
10
76.438004
20
17.436001
30
-100.977997
70
192
0
VERTEX
8
OBJECT__20
10
74.210999
20
14.529000
30
-104.002998
70
192
0
VERTEX
8
OBJECT__20
10
73.943001
20
16.850000
30
-101.779999
70
192
0
VERTEX
8
OBJECT__20
10
76.587997
20
16.459999
30
-102.232002
70
192
0
VERTEX
8
OBJECT__20
10
74.371002
20
13.140000
30
-105.333000
70
192
0
VERTEX
8
OBJECT__20
10
76.841003
20
14.293000
30
-104.266998
70
192
0
VERTEX
8
OBJECT__20
10
76.964996
20
13.240000
30
-105.254997
70
192
0
VERTEX
8
OBJECT__20
10
77.060997
20
12.168000
30
-106.000000
70
192
0
VERTEX
8
OBJECT__20
10
74.439003
20
12.144000
30
-105.959000
70
192
0
VERTEX
8
OBJECT__20
10
77.180000
20
10.852000
30
-106.914001
70
192
0
VERTEX
8
OBJECT__20
10
77.426003
20
6.980000
30
-108.736000
70
192
0
VERTEX
8
OBJECT__20
10
74.694000
20
7.860000
30
-108.308998
70
192
0
VERTEX
8
OBJECT__20
10
74.640999
20
9.158000
30
-107.836998
70
192
0
VERTEX
8
OBJECT__20
10
74.750999
20
6.453000
30
-108.820000
70
192
0
VERTEX
8
OBJECT__20
10
77.445000
20
6.474000
30
-108.870003
70
192
0
VERTEX
8
OBJECT__20
10
74.869003
20
1.085000
30
-109.830002
70
192
0
VERTEX
8
OBJECT__20
10
74.793999
20
5.377000
30
-109.209999
70
192
0
VERTEX
8
OBJECT__20
10
77.528999
20
4.266000
30
-109.456001
70
192
0
VERTEX
8
OBJECT__20
10
77.584000
20
0.298000
30
-109.824997
70
192
0
VERTEX
8
OBJECT__20
10
74.862999
20
0.304000
30
-109.787003
70
192
0
VERTEX
8
OBJECT__20
10
74.861000
20
0.013000
30
-109.769997
70
192
0
VERTEX
8
OBJECT__20
10
77.588997
20
-0.030000
30
-109.855003
70
192
0
VERTEX
8
OBJECT__20
10
77.556999
20
-3.101000
30
-109.648003
70
192
0
VERTEX
8
OBJECT__20
10
77.587997
20
-0.010000
30
-109.852997
70
192
0
VERTEX
8
OBJECT__20
10
74.836998
20
-3.644000
30
-109.567001
70
192
0
VERTEX
8
OBJECT__20
10
77.459999
20
-5.887000
30
-108.970001
70
192
0
VERTEX
8
OBJECT__20
10
74.765999
20
-5.881000
30
-108.958000
70
192
0
VERTEX
8
OBJECT__20
10
77.411003
20
-7.279000
30
-108.630997
70
192
0
VERTEX
8
OBJECT__20
10
74.700996
20
-7.874000
30
-108.393997
70
192
0
VERTEX
8
OBJECT__20
10
77.226997
20
-10.247000
30
-107.267998
70
192
0
VERTEX
8
OBJECT__20
10
74.503998
20
-11.429000
30
-106.553001
70
192
0
VERTEX
8
OBJECT__20
10
77.103996
20
-11.612000
30
-106.320999
70
192
0
VERTEX
8
OBJECT__20
10
74.706001
20
-7.788000
30
-108.439003
70
192
0
VERTEX
8
OBJECT__20
10
74.484001
20
-11.648000
30
-106.375999
70
192
0
VERTEX
8
OBJECT__20
10
76.907997
20
-13.788000
30
-104.810997
70
192
0
VERTEX
8
OBJECT__20
10
74.211998
20
-14.546000
30
-104.031998
70
192
0
VERTEX
8
OBJECT__20
10
76.710999
20
-15.513000
30
-103.237000
70
192
0
VERTEX
8
OBJECT__20
10
74.127998
20
-15.443000
30
-103.306999
70
192
0
VERTEX
8
OBJECT__20
10
76.847000
20
-14.319000
30
-104.327003
70
192
0
VERTEX
8
OBJECT__20
10
76.503998
20
-16.917000
30
-101.523003
70
192
0
VERTEX
8
OBJECT__20
10
73.918999
20
-16.915001
30
-101.519997
70
192
0
VERTEX
8
OBJECT__20
10
76.305000
20
-18.275999
30
-99.865997
70
192
0
VERTEX
8
OBJECT__20
10
73.725998
20
-18.268000
30
-99.876999
70
192
0
VERTEX
8
OBJECT__20
10
76.027000
20
-19.559000
30
-97.530998
70
192
0
VERTEX
8
OBJECT__20
10
73.544998
20
-19.184000
30
-98.077003
70
192
0
VERTEX
8
OBJECT__20
10
73.384003
20
-19.992001
30
-96.490997
70
192
0
VERTEX
8
OBJECT__20
10
75.574997
20
-20.822001
30
-93.699997
70
192
0
VERTEX
8
OBJECT__20
10
73.078003
20
-20.743999
30
-93.679001
70
192
0
VERTEX
8
OBJECT__20
10
75.573997
20
-20.823000
30
-93.695999
70
192
0
VERTEX
8
OBJECT__20
10
75.111000
20
-21.410999
30
-89.778000
70
192
0
VERTEX
8
OBJECT__20
10
72.699997
20
-21.309000
30
-90.198997
70
192
0
VERTEX
8
OBJECT__20
10
72.941002
20
-21.079000
30
-92.429001
70
192
0
VERTEX
8
OBJECT__20
10
75.031998
20
-21.511999
30
-89.108002
70
192
0
VERTEX
8
OBJECT__20
10
74.268997
20
-21.882999
30
-82.845001
70
192
0
VERTEX
8
OBJECT__20
10
72.244003
20
-21.745001
30
-85.985001
70
192
0
VERTEX
8
OBJECT__20
10
71.305000
20
-22.042999
30
-78.471001
70
192
0
VERTEX
8
OBJECT__20
10
73.699997
20
-22.061001
30
-78.474998
70
192
0
VERTEX
8
OBJECT__20
10
71.231003
20
-22.833000
30
-59.512001
70
192
0
VERTEX
8
OBJECT__20
10
68.843002
20
-22.825001
30
-58.775002
70
192
0
VERTEX
8
OBJECT__20
10
70.827003
20
-22.195000
30
-74.644997
70
192
0
VERTEX
8
OBJECT__20
10
68.695999
20
-22.872000
30
-57.602001
70
192
0
VERTEX
8
OBJECT__20
10
70.169998
20
-23.165001
30
-51.367001
70
192
0
VERTEX
8
OBJECT__20
10
67.901001
20
-23.214001
30
-51.370998
70
192
0
VERTEX
8
OBJECT__20
10
69.696999
20
-23.312000
30
-47.738998
70
192
0
VERTEX
8
OBJECT__20
10
67.262001
20
-24.341999
30
-28.510000
70
192
0
VERTEX
8
OBJECT__20
10
65.859001
20
-24.093000
30
-35.365002
70
192
0
VERTEX
8
OBJECT__20
10
66.835999
20
-23.672001
30
-43.027000
70
192
0
VERTEX
8
OBJECT__20
10
65.817001
20
-24.111000
30
-35.035999
70
192
0
VERTEX
8
OBJECT__20
10
64.961998
20
-24.420000
30
-29.666000
70
192
0
VERTEX
8
OBJECT__20
10
66.309998
20
-24.643000
30
-20.806000
70
192
0
VERTEX
8
OBJECT__20
10
63.382000
20
-24.701000
30
-25.686001
70
192
0
VERTEX
8
OBJECT__20
10
64.000999
20
-24.591000
30
-27.245001
70
192
0
VERTEX
8
OBJECT__20
10
61.627998
20
-24.929001
30
-23.111000
70
192
0
VERTEX
8
OBJECT__20
10
65.295998
20
-24.965000
30
-12.595000
70
192
0
VERTEX
8
OBJECT__20
10
61.402000
20
-24.952999
30
-22.922001
70
192
0
VERTEX
8
OBJECT__20
10
59.342999
20
-25.166000
30
-21.202999
70
192
0
VERTEX
8
OBJECT__20
10
35.851002
20
-27.145000
30
-12.595000
70
192
0
VERTEX
8
OBJECT__20
10
49.277000
20
-25.934999
30
-19.674000
70
192
0
VERTEX
8
OBJECT__20
10
42.293999
20
-26.436001
30
-19.443001
70
192
0
VERTEX
8
OBJECT__20
10
34.425999
20
-27.195999
30
-14.875000
70
192
0
VERTEX
8
OBJECT__20
10
34.397999
20
-27.197001
30
-14.920000
70
192
0
VERTEX
8
OBJECT__20
10
34.397999
20
-27.141001
30
-16.354000
70
192
0
VERTEX
8
OBJECT__20
10
35.784000
20
-27.148001
30
-12.702000
70
192
0
VERTEX
8
OBJECT__20
10
35.158001
20
-27.176001
30
-13.704000
70
192
0
VERTEX
8
OBJECT__20
10
34.397999
20
-26.997000
30
-19.240000
70
192
0
VERTEX
8
OBJECT__20
10
50.145000
20
-25.872999
30
-19.702999
70
192
0
VERTEX
8
OBJECT__20
10
53.872002
20
-25.604000
30
-19.865999
70
192
0
VERTEX
8
OBJECT__20
10
56.761002
20
-25.388000
30
-20.201000
70
192
0
VERTEX
8
OBJECT__20
10
0
20
0
30
0
70
128
71
1
72
2
73
3
0
VERTEX
8
OBJECT__20
10
0
20
0
30
0
70
128
71
3
72
4
73
1
0
VERTEX
8
OBJECT__20
10
0
20
0
30
0
70
128
71
1
72
5
73
2
0
VERTEX
8
OBJECT__20
10
0
20
0
30
0
70
128
71
6
72
7
73
1
0
VERTEX
8
OBJECT__20
10
0
20
0
30
0
70
128
71
1
72
8
73
6
0
VERTEX
8
OBJECT__20
10
0
20
0
30
0
70
128
71
6
72
9
73
7
0
VERTEX
8
OBJECT__20
10
0
20
0
30
0
70
128
71
6
72
10
73
11
0
VERTEX
8
OBJECT__20
10
0
20
0
30
0
70
128
71
11
72
9
73
6
0
VERTEX
8
OBJECT__20
10
0
20
0
30
0
70
128
71
6
72
12
73
13
0
VERTEX
8
OBJECT__20
10
0
20
0
30
0
70
128
71
13
72
14
73
6
0
VERTEX
8
OBJECT__20
10
0
20
0
30
0
70
128
71
12
72
15
73
13
0
VERTEX
8
OBJECT__20
10
0
20
0
30
0
70
128
71
14
72
10
73
6
0
VERTEX
8
OBJECT__20
10
0
20
0
30
0
70
128
71
15
72
16
73
17
0
VERTEX
8
OBJECT__20
10
0
20
0
30
0
70
128
71
17
72
18
73
15
0
VERTEX
8
OBJECT__20
10
0
20
0
30
0
70
128
71
16
72
19
73
20
0
VERTEX
8
OBJECT__20
10
0
20
0
30
0
70
128
71
21
72
22
73
23
0
VERTEX
8
OBJECT__20
10
0
20
0
30
0
70
128
71
24
72
25
73
26
0
VERTEX
8
OBJECT__20
10
0
20
0
30
0
70
128
71
24
72
27
73
25
0
VERTEX
8
OBJECT__20
10
0
20
0
30
0
70
128
71
24
72
23
73
27
0
VERTEX
8
OBJECT__20
10
0
20
0
30
0
70
128
71
26
72
16
73
24
0
VERTEX
8
OBJECT__20
10
0
20
0
30
0
70
128
71
23
72
24
73
21
0
VERTEX
8
OBJECT__20
10
0
20
0
30
0
70
128
71
26
72
19
73
16
0
VERTEX
8
OBJECT__20
10
0
20
0
30
0
70
128
71
20
72
17
73
16
0
VERTEX
8
OBJECT__20
10
0
20
0
30
0
70
128
71
18
72
28
73
15
0
VERTEX
8
OBJECT__20
10
0
20
0
30
0
70
128
71
29
72
30
73
31
0
VERTEX
8
OBJECT__20
10
0
20
0
30
0
70
128
71
31
72
32
73
29
0
VERTEX
8
OBJECT__20
10
0
20
0
30
0
70
128
71
33
72
34
73
32
0
VERTEX
8
OBJECT__20
10
0
20
0
30
0
70
128
71
21
72
30
73
29
0
VERTEX
8
OBJECT__20
10
0
20
0
30
0
70
128
71
29
72
22
73
21
0
VERTEX
8
OBJECT__20
10
0
20
0
30
0
70
128
71
33
72
35
73
34
0
VERTEX
8
OBJECT__20
10
0
20
0
30
0
70
128
71
35
72
33
73
36
0
VERTEX
8
OBJECT__20
10
0
20
0
30
0
70
128
71
36
72
37
73
35
0
VERTEX
8
OBJECT__20
10
0
20
0
30
0
70
128
71
38
72
39
73
40
0
VERTEX
8
OBJECT__20
10
0
20
0
30
0
70
128
71
40
72
41
73
38
0
VERTEX
8
OBJECT__20
10
0
20
0
30
0
70
128
71
41
72
37
73
38
0
VERTEX
8
OBJECT__20
10
0
20
0
30
0
70
128
71
40
72
39
73
42
0
VERTEX
8
OBJECT__20
10
0
20
0
30
0
70
128
71
42
72
43
73
44
0
VERTEX
8
OBJECT__20
10
0
20
0
30
0
70
128
71
45
72
46
73
43
0
VERTEX
8
OBJECT__20
10
0
20
0
30
0
70
128
71
43
72
42
73
45
0
VERTEX
8
OBJECT__20
10
0
20
0
30
0
70
128
71
44
72
47
73
42
0
VERTEX
8
OBJECT__20
10
0
20
0
30
0
70
128
71
45
72
48
73
49
0
VERTEX
8
OBJECT__20
10
0
20
0
30
0
70
128
71
50
72
51
73
48
0
VERTEX
8
OBJECT__20
10
0
20
0
30
0
70
128
71
48
72
45
73
50
0
VERTEX
8
OBJECT__20
10
0
20
0
30
0
70
128
71
50
72
52
73
51
0
VERTEX
8
OBJECT__20
10
0
20
0
30
0
70
128
71
49
72
46
73
45
0
VERTEX
8
OBJECT__20
10
0
20
0
30
0
70
128
71
53
72
54
73
55
0
VERTEX
8
OBJECT__20
10
0
20
0
30
0
70
128
71
54
72
52
73
55
0
VERTEX
8
OBJECT__20
10
0
20
0
30
0
70
128
71
56
72
53
73
57
0
VERTEX
8
OBJECT__20
10
0
20
0
30
0
70
128
71
57
72
58
73
56
0
VERTEX
8
OBJECT__20
10
0
20
0
30
0
70
128
71
55
72
57
73
53
0
VERTEX
8
OBJECT__20
10
0
20
0
30
0
70
128
71
58
72
59
73
60
0
VERTEX
8
OBJECT__20
10
0
20
0
30
0
70
128
71
60
72
56
73
58
0
VERTEX
8
OBJECT__20
10
0
20
0
30
0
70
128
71
60
72
59
73
61
0
VERTEX
8
OBJECT__20
10
0
20
0
30
0
70
128
71
62
72
63
73
64
0
VERTEX
8
OBJECT__20
10
0
20
0
30
0
70
128
71
65
72
63
73
62
0
VERTEX
8
OBJECT__20
10
0
20
0
30
0
70
128
71
62
72
66
73
65
0
VERTEX
8
OBJECT__20
10
0
20
0
30
0
70
128
71
64
72
61
73
62
0
VERTEX
8
OBJECT__20
10
0
20
0
30
0
70
128
71
67
72
68
73
69
0
VERTEX
8
OBJECT__20
10
0
20
0
30
0
70
128
71
68
72
66
73
69
0
VERTEX
8
OBJECT__20
10
0
20
0
30
0
70
128
71
69
72
70
73
67
0
VERTEX
8
OBJECT__20
10
0
20
0
30
0
70
128
71
70
72
71
73
67
0
VERTEX
8
OBJECT__20
10
0
20
0
30
0
70
128
71
72
72
71
73
70
0
VERTEX
8
OBJECT__20
10
0
20
0
30
0
70
128
71
72
72
73
73
74
0
VERTEX
8
OBJECT__20
10
0
20
0
30
0
70
128
71
72
72
75
73
73
0
VERTEX
8
OBJECT__20
10
0
20
0
30
0
70
128
71
74
72
76
73
72
0
VERTEX
8
OBJECT__20
10
0
20
0
30
0
70
128
71
77
72
78
73
76
0
VERTEX
8
OBJECT__20
10
0
20
0
30
0
70
128
71
76
72
74
73
77
0
VERTEX
8
OBJECT__20
10
0
20
0
30
0
70
128
71
78
72
77
73
79
0
VERTEX
8
OBJECT__20
10
0
20
0
30
0
70
128
71
80
72
79
73
81
0
VERTEX
8
OBJECT__20
10
0
20
0
30
0
70
128
71
81
72
82
73
80
0
VERTEX
8
OBJECT__20
10
0
20
0
30
0
70
128
71
81
72
83
73
82
0
VERTEX
8
OBJECT__20
10
0
20
0
30
0
70
128
71
80
72
84
73
79
0
VERTEX
8
OBJECT__20
10
0
20
0
30
0
70
128
71
83
72
85
73
82
0
VERTEX
8
OBJECT__20
10
0
20
0
30
0
70
128
71
85
72
83
73
86
0
VERTEX
8
OBJECT__20
10
0
20
0
30
0
70
128
71
86
72
87
73
85
0
VERTEX
8
OBJECT__20
10
0
20
0
30
0
70
128
71
88
72
89
73
87
0
VERTEX
8
OBJECT__20
10
0
20
0
30
0
70
128
71
87
72
90
73
88
0
VERTEX
8
OBJECT__20
10
0
20
0
30
0
70
128
71
89
72
88
73
91
0
VERTEX
8
OBJECT__20
10
0
20
0
30
0
70
128
71
91
72
92
73
89
0
VERTEX
8
OBJECT__20
10
0
20
0
30
0
70
128
71
93
72
94
73
92
0
VERTEX
8
OBJECT__20
10
0
20
0
30
0
70
128
71
93
72
95
73
96
0
VERTEX
8
OBJECT__20
10
0
20
0
30
0
70
128
71
96
72
94
73
93
0
VERTEX
8
OBJECT__20
10
0
20
0
30
0
70
128
71
95
72
97
73
96
0
VERTEX
8
OBJECT__20
10
0
20
0
30
0
70
128
71
98
72
99
73
97
0
VERTEX
8
OBJECT__20
10
0
20
0
30
0
70
128
71
97
72
95
73
98
0
VERTEX
8
OBJECT__20
10
0
20
0
30
0
70
128
71
99
72
98
73
100
0
VERTEX
8
OBJECT__20
10
0
20
0
30
0
70
128
71
101
72
102
73
103
0
VERTEX
8
OBJECT__20
10
0
20
0
30
0
70
128
71
104
72
105
73
106
0
VERTEX
8
OBJECT__20
10
0
20
0
30
0
70
128
71
102
72
101
73
104
0
VERTEX
8
OBJECT__20
10
0
20
0
30
0
70
128
71
106
72
102
73
104
0
VERTEX
8
OBJECT__20
10
0
20
0
30
0
70
128
71
103
72
100
73
101
0
VERTEX
8
OBJECT__20
10
0
20
0
30
0
70
128
71
107
72
106
73
105
0
VERTEX
8
OBJECT__20
10
0
20
0
30
0
70
128
71
105
72
108
73
107
0
VERTEX
8
OBJECT__20
10
0
20
0
30
0
70
128
71
109
72
110
73
111
0
VERTEX
8
OBJECT__20
10
0
20
0
30
0
70
128
71
111
72
108
73
109
0
VERTEX
8
OBJECT__20
10
0
20
0
30
0
70
128
71
109
72
112
73
110
0
VERTEX
8
OBJECT__20
10
0
20
0
30
0
70
128
71
113
72
114
73
112
0
VERTEX
8
OBJECT__20
10
0
20
0
30
0
70
128
71
112
72
109
73
113
0
VERTEX
8
OBJECT__20
10
0
20
0
30
0
70
128
71
115
72
116
73
117
0
VERTEX
8
OBJECT__20
10
0
20
0
30
0
70
128
71
117
72
118
73
115
0
VERTEX
8
OBJECT__20
10
0
20
0
30
0
70
128
71
116
72
119
73
117
0
VERTEX
8
OBJECT__20
10
0
20
0
30
0
70
128
71
114
72
113
73
115
0
VERTEX
8
OBJECT__20
10
0
20
0
30
0
70
128
71
116
72
120
73
119
0
VERTEX
8
OBJECT__20
10
0
20
0
30
0
70
128
71
121
72
122
73
123
0
VERTEX
8
OBJECT__20
10
0
20
0
30
0
70
128
71
123
72
116
73
121
0
VERTEX
8
OBJECT__20
10
0
20
0
30
0
70
128
71
121
72
124
73
122
0
VERTEX
8
OBJECT__20
10
0
20
0
30
0
70
128
71
123
72
120
73
116
0
VERTEX
8
OBJECT__20
10
0
20
0
30
0
70
128
71
125
72
126
73
124
0
VERTEX
8
OBJECT__20
10
0
20
0
30
0
70
128
71
125
72
127
73
126
0
VERTEX
8
OBJECT__20
10
0
20
0
30
0
70
128
71
124
72
121
73
125
0
VERTEX
8
OBJECT__20
10
0
20
0
30
0
70
128
71
125
72
128
73
129
0
VERTEX
8
OBJECT__20
10
0
20
0
30
0
70
128
71
128
72
130
73
129
0
VERTEX
8
OBJECT__20
10
0
20
0
30
0
70
128
71
130
72
131
73
132
0
VERTEX
8
OBJECT__20
10
0
20
0
30
0
70
128
71
132
72
133
73
130
0
VERTEX
8
OBJECT__20
10
0
20
0
30
0
70
128
71
130
72
134
73
135
0
VERTEX
8
OBJECT__20
10
0
20
0
30
0
70
128
71
135
72
131
73
130
0
VERTEX
8
OBJECT__20
10
0
20
0
30
0
70
128
71
130
72
128
73
134
0
VERTEX
8
OBJECT__20
10
0
20
0
30
0
70
128
71
133
72
136
73
130
0
VERTEX
8
OBJECT__20
10
0
20
0
30
0
70
128
71
129
72
137
73
125
0
VERTEX
8
OBJECT__20
10
0
20
0
30
0
70
128
71
137
72
138
73
125
0
VERTEX
8
OBJECT__20
10
0
20
0
30
0
70
128
71
138
72
139
73
125
0
VERTEX
8
OBJECT__20
10
0
20
0
30
0
70
128
71
139
72
127
73
125
0
VERTEX
8
OBJECT__20
10
0
20
0
30
0
70
128
71
118
72
114
73
115
0
VERTEX
8
OBJECT__20
10
0
20
0
30
0
70
128
71
111
72
107
73
108
0
VERTEX
8
OBJECT__20
10
0
20
0
30
0
70
128
71
100
72
103
73
99
0
VERTEX
8
OBJECT__20
10
0
20
0
30
0
70
128
71
92
72
91
73
93
0
VERTEX
8
OBJECT__20
10
0
20
0
30
0
70
128
71
86
72
90
73
87
0
VERTEX
8
OBJECT__20
10
0
20
0
30
0
70
128
71
79
72
84
73
78
0
VERTEX
8
OBJECT__20
10
0
20
0
30
0
70
128
71
70
72
75
73
72
0
VERTEX
8
OBJECT__20
10
0
20
0
30
0
70
128
71
68
72
65
73
66
0
VERTEX
8
OBJECT__20
10
0
20
0
30
0
70
128
71
61
72
64
73
60
0
VERTEX
8
OBJECT__20
10
0
20
0
30
0
70
128
71
54
72
51
73
52
0
VERTEX
8
OBJECT__20
10
0
20
0
30
0
70
128
71
42
72
47
73
40
0
VERTEX
8
OBJECT__20
10
0
20
0
30
0
70
128
71
36
72
38
73
37
0
VERTEX
8
OBJECT__20
10
0
20
0
30
0
70
128
71
31
72
33
73
32
0
VERTEX
8
OBJECT__20
10
0
20
0
30
0
70
128
71
28
72
13
73
15
0
VERTEX
8
OBJECT__20
10
0
20
0
30
0
70
128
71
4
72
8
73
1
0
SEQEND
8
OBJECT__20
0
POLYLINE
8
OBJECT__21
66
1
70
64
71
280
72
387
62
253
0
VERTEX
8
OBJECT__21
10
73.640999
20
0.008000
30
-109.599998
70
192
0
VERTEX
8
OBJECT__21
10
73.472000
20
-7.728000
30
-108.188004
70
192
0
VERTEX
8
OBJECT__21
10
72.359001
20
-7.374000
30
-107.447998
70
192
0
VERTEX
8
OBJECT__21
10
71.878998
20
0.007000
30
-107.563004
70
192
0
VERTEX
8
OBJECT__21
10
71.788002
20
-2.025000
30
-106.209000
70
192
0
VERTEX
8
OBJECT__21
10
71.785004
20
-0.013000
30
-106.191002
70
192
0
VERTEX
8
OBJECT__21
10
71.711998
20
-6.892000
30
-106.324997
70
192
0
VERTEX
8
OBJECT__21
10
71.658997
20
-6.015000
30
-105.316002
70
192
0
VERTEX
8
OBJECT__21
10
71.635002
20
-6.404000
30
-105.123001
70
192
0
VERTEX
8
OBJECT__21
10
66.540001
20
-21.900000
30
-59.039001
70
192
0
VERTEX
8
OBJECT__21
10
64.681999
20
-22.944000
30
-43.278999
70
192
0
VERTEX
8
OBJECT__21
10
64.085999
20
-22.327999
30
-43.325001
70
192
0
VERTEX
8
OBJECT__21
10
74.765999
20
-5.881000
30
-108.958000
70
192
0
VERTEX
8
OBJECT__21
10
74.706001
20
-7.788000
30
-108.439003
70
192
0
VERTEX
8
OBJECT__21
10
74.836998
20
-3.644000
30
-109.567001
70
192
0
VERTEX
8
OBJECT__21
10
74.861000
20
0.013000
30
-109.769997
70
192
0
VERTEX
8
OBJECT__21
10
68.635002
20
-21.193001
30
-74.897003
70
192
0
VERTEX
8
OBJECT__21
10
68.066002
20
-20.382999
30
-74.944000
70
192
0
VERTEX
8
OBJECT__21
10
70.057999
20
-20.000000
30
-90.351997
70
192
0
VERTEX
8
OBJECT__21
10
72.996002
20
-14.347000
30
-103.987999
70
192
0
VERTEX
8
OBJECT__21
10
72.257004
20
-18.945999
30
-98.162003
70
192
0
VERTEX
8
OBJECT__21
10
71.095001
20
-18.069000
30
-97.906998
70
192
0
VERTEX
8
OBJECT__21
10
71.883003
20
-13.714000
30
-103.445999
70
192
0
VERTEX
8
OBJECT__21
10
70.620003
20
-20.618000
30
-90.359001
70
192
0
VERTEX
8
OBJECT__21
10
71.293999
20
-21.062000
30
-90.332001
70
192
0
VERTEX
8
OBJECT__21
10
65.955002
20
-21.127001
30
-59.080002
70
192
0
VERTEX
8
OBJECT__21
10
69.380997
20
-21.768000
30
-74.819000
70
192
0
VERTEX
8
OBJECT__21
10
70.182999
20
-22.080999
30
-74.724998
70
192
0
VERTEX
8
OBJECT__21
10
73.918999
20
-16.915001
30
-101.519997
70
192
0
VERTEX
8
OBJECT__21
10
73.725998
20
-18.268000
30
-99.876999
70
192
0
VERTEX
8
OBJECT__21
10
74.211998
20
-14.546000
30
-104.031998
70
192
0
VERTEX
8
OBJECT__21
10
74.127998
20
-15.443000
30
-103.306999
70
192
0
VERTEX
8
OBJECT__21
10
74.484001
20
-11.648000
30
-106.375999
70
192
0
VERTEX
8
OBJECT__21
10
74.700996
20
-7.874000
30
-108.393997
70
192
0
VERTEX
8
OBJECT__21
10
74.503998
20
-11.429000
30
-106.553001
70
192
0
VERTEX
8
OBJECT__21
10
72.941002
20
-21.079000
30
-92.429001
70
192
0
VERTEX
8
OBJECT__21
10
72.699997
20
-21.309000
30
-90.198997
70
192
0
VERTEX
8
OBJECT__21
10
72.008003
20
-21.316999
30
-90.278999
70
192
0
VERTEX
8
OBJECT__21
10
73.078003
20
-20.743999
30
-93.679001
70
192
0
VERTEX
8
OBJECT__21
10
73.384003
20
-19.992001
30
-96.490997
70
192
0
VERTEX
8
OBJECT__21
10
73.544998
20
-19.184000
30
-98.077003
70
192
0
VERTEX
8
OBJECT__21
10
67.288002
20
-22.445000
30
-58.965000
70
192
0
VERTEX
8
OBJECT__21
10
72.244003
20
-21.745001
30
-85.985001
70
192
0
VERTEX
8
OBJECT__21
10
71.305000
20
-22.042999
30
-78.471001
70
192
0
VERTEX
8
OBJECT__21
10
68.084999
20
-22.739000
30
-58.872002
70
192
0
VERTEX
8
OBJECT__21
10
70.827003
20
-22.195000
30
-74.644997
70
192
0
VERTEX
8
OBJECT__21
10
66.127998
20
-23.604000
30
-43.118999
70
192
0
VERTEX
8
OBJECT__21
10
65.389000
20
-23.374001
30
-43.207001
70
192
0
VERTEX
8
OBJECT__21
10
63.029999
20
-24.455000
30
-28.011999
70
192
0
VERTEX
8
OBJECT__21
10
60.653000
20
-24.864000
30
-23.871000
70
192
0
VERTEX
8
OBJECT__21
10
59.877998
20
-24.580000
30
-24.827999
70
192
0
VERTEX
8
OBJECT__21
10
64.514999
20
-23.860001
30
-35.577000
70
192
0
VERTEX
8
OBJECT__21
10
63.270000
20
-22.976000
30
-35.734001
70
192
0
VERTEX
8
OBJECT__21
10
62.009998
20
-23.993999
30
-28.764000
70
192
0
VERTEX
8
OBJECT__21
10
49.214001
20
-25.798000
30
-20.917000
70
192
0
VERTEX
8
OBJECT__21
10
49.139999
20
-25.495001
30
-22.143999
70
192
0
VERTEX
8
OBJECT__21
10
56.303001
20
-25.042999
30
-22.434000
70
192
0
VERTEX
8
OBJECT__21
10
56.556000
20
-25.284000
30
-21.327999
70
192
0
VERTEX
8
OBJECT__21
10
63.382000
20
-24.701000
30
-25.686001
70
192
0
VERTEX
8
OBJECT__21
10
61.627998
20
-24.929001
30
-23.111000
70
192
0
VERTEX
8
OBJECT__21
10
64.000999
20
-24.591000
30
-27.245001
70
192
0
VERTEX
8
OBJECT__21
10
65.859001
20
-24.093000
30
-35.365002
70
192
0
VERTEX
8
OBJECT__21
10
67.901001
20
-23.214001
30
-51.370998
70
192
0
VERTEX
8
OBJECT__21
10
68.843002
20
-22.825001
30
-58.775002
70
192
0
VERTEX
8
OBJECT__21
10
68.695999
20
-22.872000
30
-57.602001
70
192
0
VERTEX
8
OBJECT__21
10
65.817001
20
-24.111000
30
-35.035999
70
192
0
VERTEX
8
OBJECT__21
10
64.961998
20
-24.420000
30
-29.666000
70
192
0
VERTEX
8
OBJECT__21
10
53.872002
20
-25.604000
30
-19.865999
70
192
0
VERTEX
8
OBJECT__21
10
56.761002
20
-25.388000
30
-20.201000
70
192
0
VERTEX
8
OBJECT__21
10
50.145000
20
-25.872999
30
-19.702999
70
192
0
VERTEX
8
OBJECT__21
10
59.342999
20
-25.166000
30
-21.202999
70
192
0
VERTEX
8
OBJECT__21
10
61.402000
20
-24.952999
30
-22.922001
70
192
0
VERTEX
8
OBJECT__21
10
63.446999
20
-19.997999
30
-43.278999
70
192
0
VERTEX
8
OBJECT__21
10
64.867996
20
-18.415001
30
-50.844002
70
192
0
VERTEX
8
OBJECT__21
10
65.239998
20
-18.253000
30
-53.349998
70
192
0
VERTEX
8
OBJECT__21
10
64.333000
20
-18.797001
30
-47.424999
70
192
0
VERTEX
8
OBJECT__21
10
65.752998
20
-18.457001
30
-58.978001
70
192
0
VERTEX
8
OBJECT__21
10
63.672001
20
-19.268999
30
-43.203999
70
192
0
VERTEX
8
OBJECT__21
10
72.527000
20
0.007000
30
-108.782997
70
192
0
VERTEX
8
OBJECT__21
10
69.492996
20
-17.722000
30
-90.153999
70
192
0
VERTEX
8
OBJECT__21
10
68.002998
20
-17.660999
30
-74.862999
70
192
0
VERTEX
8
OBJECT__21
10
68.943001
20
-16.907000
30
-79.774002
70
192
0
VERTEX
8
OBJECT__21
10
68.314003
20
-17.068001
30
-74.917999
70
192
0
VERTEX
8
OBJECT__21
10
69.503998
20
-17.003000
30
-87.807999
70
192
0
VERTEX
8
OBJECT__21
10
68.300003
20
-17.070999
30
-74.805000
70
192
0
VERTEX
8
OBJECT__21
10
71.240997
20
-12.843000
30
-102.572998
70
192
0
VERTEX
8
OBJECT__21
10
70.456001
20
-16.840000
30
-97.392998
70
192
0
VERTEX
8
OBJECT__21
10
70.651001
20
-14.929000
30
-98.174004
70
192
0
VERTEX
8
OBJECT__21
10
71.030998
20
-12.930000
30
-100.661003
70
192
0
VERTEX
8
OBJECT__21
10
71.099998
20
-12.567000
30
-101.112999
70
192
0
VERTEX
8
OBJECT__21
10
70.447998
20
-15.531000
30
-96.748001
70
192
0
VERTEX
8
OBJECT__21
10
71.459000
20
-9.178000
30
-103.744003
70
192
0
VERTEX
8
OBJECT__21
10
71.623001
20
-6.597000
30
-105.027000
70
192
0
VERTEX
8
OBJECT__21
10
71.166000
20
-11.950000
30
-101.591003
70
192
0
VERTEX
8
OBJECT__21
10
69.486000
20
-18.476999
30
-90.241997
70
192
0
VERTEX
8
OBJECT__21
10
69.691002
20
-17.034000
30
-90.473000
70
192
0
VERTEX
8
OBJECT__21
10
70.155998
20
-16.399000
30
-94.691002
70
192
0
VERTEX
8
OBJECT__21
10
69.661003
20
-17.028999
30
-90.056999
70
192
0
VERTEX
8
OBJECT__21
10
67.764999
20
-18.493000
30
-74.920998
70
192
0
VERTEX
8
OBJECT__21
10
66.065002
20
-17.893000
30
-58.910000
70
192
0
VERTEX
8
OBJECT__21
10
67.460999
20
-17.285000
30
-68.325996
70
192
0
VERTEX
8
OBJECT__21
10
67.768997
20
-19.438000
30
-74.952003
70
192
0
VERTEX
8
OBJECT__21
10
69.669998
20
-19.261000
30
-90.311996
70
192
0
VERTEX
8
OBJECT__21
10
65.569000
20
-19.289000
30
-59.042999
70
192
0
VERTEX
8
OBJECT__21
10
65.622002
20
-20.216000
30
-59.081001
70
192
0
VERTEX
8
OBJECT__21
10
63.457001
20
-20.775999
30
-43.321999
70
192
0
VERTEX
8
OBJECT__21
10
61.098000
20
-23.232000
30
-29.403000
70
192
0
VERTEX
8
OBJECT__21
10
59.126999
20
-24.107000
30
-25.728001
70
192
0
VERTEX
8
OBJECT__21
10
58.375999
20
-23.445999
30
-26.565001
70
192
0
VERTEX
8
OBJECT__21
10
63.311001
20
-19.525999
30
-40.901001
70
192
0
VERTEX
8
OBJECT__21
10
62.549000
20
-21.622000
30
-35.776001
70
192
0
VERTEX
8
OBJECT__21
10
62.839001
20
-19.863001
30
-37.884998
70
192
0
VERTEX
8
OBJECT__21
10
62.417000
20
-20.318001
30
-35.735001
70
192
0
VERTEX
8
OBJECT__21
10
60.516998
20
-22.121000
30
-30.225000
70
192
0
VERTEX
8
OBJECT__21
10
62.081001
20
-20.681000
30
-34.019001
70
192
0
VERTEX
8
OBJECT__21
10
60.380001
20
-22.247000
30
-29.893000
70
192
0
VERTEX
8
OBJECT__21
10
62.171001
20
-20.584000
30
-34.479000
70
192
0
VERTEX
8
OBJECT__21
10
49.056000
20
-25.031000
30
-23.319000
70
192
0
VERTEX
8
OBJECT__21
10
48.966000
20
-24.429001
30
-24.406000
70
192
0
VERTEX
8
OBJECT__21
10
53.862999
20
-24.263000
30
-24.374001
70
192
0
VERTEX
8
OBJECT__21
10
56.048000
20
-24.667000
30
-23.500000
70
192
0
VERTEX
8
OBJECT__21
10
54.931000
20
-24.226999
30
-24.367001
70
192
0
VERTEX
8
OBJECT__21
10
58.123001
20
-23.598000
30
-26.143999
70
192
0
VERTEX
8
OBJECT__21
10
58.155998
20
-23.577999
30
-26.198999
70
192
0
VERTEX
8
OBJECT__21
10
56.580002
20
-24.054001
30
-24.799999
70
192
0
VERTEX
8
OBJECT__21
10
55.770000
20
-24.139000
30
-24.587999
70
192
0
VERTEX
8
OBJECT__21
10
63.667000
20
-21.579000
30
-43.339001
70
192
0
VERTEX
8
OBJECT__21
10
65.750999
20
18.458000
30
-58.964001
70
192
0
VERTEX
8
OBJECT__21
10
68.000999
20
17.662001
30
-74.848000
70
192
0
VERTEX
8
OBJECT__21
10
68.250000
20
17.040001
30
-73.719002
70
192
0
VERTEX
8
OBJECT__21
10
68.353996
20
17.031000
30
-74.779999
70
192
0
VERTEX
8
OBJECT__21
10
62.548000
20
21.624001
30
-35.764999
70
192
0
VERTEX
8
OBJECT__21
10
62.150002
20
20.569000
30
-34.506001
70
192
0
VERTEX
8
OBJECT__21
10
61.272999
20
21.384001
30
-31.839001
70
192
0
VERTEX
8
OBJECT__21
10
61.091999
20
23.235001
30
-29.389999
70
192
0
VERTEX
8
OBJECT__21
10
60.509998
20
21.990999
30
-30.336000
70
192
0
VERTEX
8
OBJECT__21
10
62.453999
20
20.283001
30
-35.706001
70
192
0
VERTEX
8
OBJECT__21
10
62.369999
20
20.363001
30
-35.178001
70
192
0
VERTEX
8
OBJECT__21
10
49.064999
20
25.028000
30
-23.318001
70
192
0
VERTEX
8
OBJECT__21
10
52.270000
20
24.853001
30
-23.320999
70
192
0
VERTEX
8
OBJECT__21
10
51.845001
20
24.287001
30
-24.400999
70
192
0
VERTEX
8
OBJECT__21
10
52.192001
20
24.271999
30
-24.410000
70
192
0
VERTEX
8
OBJECT__21
10
56.039001
20
24.639000
30
-23.488001
70
192
0
VERTEX
8
OBJECT__21
10
59.091000
20
24.096001
30
-25.712000
70
192
0
VERTEX
8
OBJECT__21
10
57.424999
20
23.785999
30
-25.459000
70
192
0
VERTEX
8
OBJECT__21
10
58.291000
20
23.416000
30
-26.584000
70
192
0
VERTEX
8
OBJECT__21
10
58.104000
20
23.496000
30
-26.341000
70
192
0
VERTEX
8
OBJECT__21
10
55.761002
20
24.117001
30
-24.504999
70
192
0
VERTEX
8
OBJECT__21
10
53.853001
20
24.200001
30
-24.454000
70
192
0
VERTEX
8
OBJECT__21
10
60.278000
20
22.176001
30
-29.877001
70
192
0
VERTEX
8
OBJECT__21
10
59.214001
20
23.023001
30
-27.781000
70
192
0
VERTEX
8
OBJECT__21
10
65.242996
20
18.277000
30
-53.339001
70
192
0
VERTEX
8
OBJECT__21
10
64.459999
20
18.781000
30
-48.389999
70
192
0
VERTEX
8
OBJECT__21
10
63.445000
20
20.000000
30
-43.263000
70
192
0
VERTEX
8
OBJECT__21
10
66.099998
20
17.795000
30
-58.884998
70
192
0
VERTEX
8
OBJECT__21
10
65.864998
20
17.877001
30
-57.268002
70
192
0
VERTEX
8
OBJECT__21
10
63.637001
20
19.309000
30
-43.195999
70
192
0
VERTEX
8
OBJECT__21
10
63.112999
20
19.646000
30
-39.883999
70
192
0
VERTEX
8
OBJECT__21
10
63.455002
20
20.778000
30
-43.306000
70
192
0
VERTEX
8
OBJECT__21
10
65.567001
20
19.290001
30
-59.028999
70
192
0
VERTEX
8
OBJECT__21
10
63.269001
20
22.976999
30
-35.723999
70
192
0
VERTEX
8
OBJECT__21
10
56.304001
20
25.032000
30
-22.400999
70
192
0
VERTEX
8
OBJECT__21
10
49.145000
20
25.493999
30
-22.141001
70
192
0
VERTEX
8
OBJECT__21
10
59.854000
20
24.576000
30
-24.811001
70
192
0
VERTEX
8
OBJECT__21
10
62.004002
20
23.996000
30
-28.750000
70
192
0
VERTEX
8
OBJECT__21
10
63.665001
20
21.580999
30
-43.323002
70
192
0
VERTEX
8
OBJECT__21
10
65.620003
20
20.216000
30
-59.067001
70
192
0
VERTEX
8
OBJECT__21
10
64.084999
20
22.330000
30
-43.308998
70
192
0
VERTEX
8
OBJECT__21
10
65.953003
20
21.128000
30
-59.067001
70
192
0
VERTEX
8
OBJECT__21
10
67.766998
20
19.438000
30
-74.936996
70
192
0
VERTEX
8
OBJECT__21
10
69.491997
20
17.723000
30
-90.139000
70
192
0
VERTEX
8
OBJECT__21
10
70.455002
20
16.844999
30
-97.382004
70
192
0
VERTEX
8
OBJECT__21
10
70.083000
20
16.545000
30
-94.117996
70
192
0
VERTEX
8
OBJECT__21
10
69.655998
20
17.035999
30
-90.041000
70
192
0
VERTEX
8
OBJECT__21
10
70.446999
20
15.572000
30
-96.758003
70
192
0
VERTEX
8
OBJECT__21
10
70.385002
20
15.739000
30
-96.306000
70
192
0
VERTEX
8
OBJECT__21
10
67.764000
20
18.493000
30
-74.906998
70
192
0
VERTEX
8
OBJECT__21
10
69.242996
20
16.954000
30
-83.833000
70
192
0
VERTEX
8
OBJECT__21
10
69.638000
20
17.056999
30
-89.869003
70
192
0
VERTEX
8
OBJECT__21
10
68.369003
20
17.030001
30
-74.931999
70
192
0
VERTEX
8
OBJECT__21
10
69.484001
20
18.478001
30
-90.227997
70
192
0
VERTEX
8
OBJECT__21
10
71.710999
20
6.904000
30
-106.320000
70
192
0
VERTEX
8
OBJECT__21
10
71.642998
20
6.348000
30
-105.190002
70
192
0
VERTEX
8
OBJECT__21
10
71.417000
20
9.685000
30
-103.417000
70
192
0
VERTEX
8
OBJECT__21
10
71.239998
20
12.852000
30
-102.564003
70
192
0
VERTEX
8
OBJECT__21
10
71.024002
20
13.072000
30
-100.607002
70
192
0
VERTEX
8
OBJECT__21
10
71.156998
20
11.931000
30
-101.553001
70
192
0
VERTEX
8
OBJECT__21
10
71.041000
20
12.925000
30
-100.728996
70
192
0
VERTEX
8
OBJECT__21
10
70.555000
20
15.284000
30
-97.540001
70
192
0
VERTEX
8
OBJECT__21
10
71.781998
20
2.384000
30
-106.168999
70
192
0
VERTEX
8
OBJECT__21
10
71.785004
20
0.005000
30
-106.191002
70
192
0
VERTEX
8
OBJECT__21
10
69.667999
20
19.261999
30
-90.296997
70
192
0
VERTEX
8
OBJECT__21
10
71.093002
20
18.075001
30
-97.896004
70
192
0
VERTEX
8
OBJECT__21
10
68.064003
20
20.382999
30
-74.930000
70
192
0
VERTEX
8
OBJECT__21
10
70.056000
20
20.000999
30
-90.337997
70
192
0
VERTEX
8
OBJECT__21
10
71.882004
20
13.725000
30
-103.435997
70
192
0
VERTEX
8
OBJECT__21
10
72.358002
20
7.387000
30
-107.443001
70
192
0
VERTEX
8
OBJECT__21
10
66.538002
20
21.900999
30
-59.026001
70
192
0
VERTEX
8
OBJECT__21
10
68.633003
20
21.193001
30
-74.883003
70
192
0
VERTEX
8
OBJECT__21
10
64.514000
20
23.860001
30
-35.566002
70
192
0
VERTEX
8
OBJECT__21
10
49.215000
20
25.798000
30
-20.912001
70
192
0
VERTEX
8
OBJECT__21
10
56.567001
20
25.282000
30
-21.271999
70
192
0
VERTEX
8
OBJECT__21
10
58.911999
20
25.066999
30
-22.296000
70
192
0
VERTEX
8
OBJECT__21
10
63.025002
20
24.457001
30
-27.997000
70
192
0
VERTEX
8
OBJECT__21
10
65.387001
20
23.375000
30
-43.191002
70
192
0
VERTEX
8
OBJECT__21
10
64.681000
20
22.945000
30
-43.262001
70
192
0
VERTEX
8
OBJECT__21
10
67.286003
20
22.445999
30
-58.952000
70
192
0
VERTEX
8
OBJECT__21
10
64.740997
20
24.462999
30
-29.044001
70
192
0
VERTEX
8
OBJECT__21
10
65.611000
20
24.193001
30
-33.612999
70
192
0
VERTEX
8
OBJECT__21
10
63.978001
20
24.593000
30
-27.238001
70
192
0
VERTEX
8
OBJECT__21
10
50.109001
20
25.875999
30
-19.691999
70
192
0
VERTEX
8
OBJECT__21
10
55.893002
20
25.458000
30
-19.966999
70
192
0
VERTEX
8
OBJECT__21
10
49.273998
20
25.936001
30
-19.667999
70
192
0
VERTEX
8
OBJECT__21
10
56.791000
20
25.385000
30
-20.231001
70
192
0
VERTEX
8
OBJECT__21
10
58.728001
20
25.226000
30
-20.799999
70
192
0
VERTEX
8
OBJECT__21
10
60.643002
20
24.864000
30
-23.851999
70
192
0
VERTEX
8
OBJECT__21
10
63.097000
20
24.743000
30
-25.150999
70
192
0
VERTEX
8
OBJECT__21
10
61.370998
20
24.955000
30
-22.917000
70
192
0
VERTEX
8
OBJECT__21
10
60.240002
20
25.076000
30
-21.889999
70
192
0
VERTEX
8
OBJECT__21
10
61.000999
20
25.000000
30
-22.438000
70
192
0
VERTEX
8
OBJECT__21
10
59.423000
20
25.157000
30
-21.301001
70
192
0
VERTEX
8
OBJECT__21
10
68.084000
20
22.739000
30
-58.859001
70
192
0
VERTEX
8
OBJECT__21
10
66.555000
20
23.782000
30
-40.827000
70
192
0
VERTEX
8
OBJECT__21
10
66.837997
20
23.679001
30
-43.009998
70
192
0
VERTEX
8
OBJECT__21
10
66.125999
20
23.605000
30
-43.103001
70
192
0
VERTEX
8
OBJECT__21
10
65.838997
20
24.093000
30
-35.355999
70
192
0
VERTEX
8
OBJECT__21
10
67.540001
20
23.423000
30
-48.421001
70
192
0
VERTEX
8
OBJECT__21
10
70.181000
20
22.082001
30
-74.710999
70
192
0
VERTEX
8
OBJECT__21
10
70.617996
20
20.618999
30
-90.344002
70
192
0
VERTEX
8
OBJECT__21
10
72.254997
20
18.952000
30
-98.150002
70
192
0
VERTEX
8
OBJECT__21
10
69.378998
20
21.768000
30
-74.805000
70
192
0
VERTEX
8
OBJECT__21
10
71.292999
20
21.063999
30
-90.318001
70
192
0
VERTEX
8
OBJECT__21
10
73.472000
20
7.742000
30
-108.182999
70
192
0
VERTEX
8
OBJECT__21
10
72.995003
20
14.357000
30
-103.978996
70
192
0
VERTEX
8
OBJECT__21
10
73.206001
20
20.548000
30
-94.792999
70
192
0
VERTEX
8
OBJECT__21
10
73.242996
20
20.448999
30
-95.134003
70
192
0
VERTEX
8
OBJECT__21
10
73.200996
20
20.559000
30
-94.751999
70
192
0
VERTEX
8
OBJECT__21
10
72.969002
20
20.907000
30
-92.652000
70
192
0
VERTEX
8
OBJECT__21
10
73.200996
20
20.561001
30
-94.747002
70
192
0
VERTEX
8
OBJECT__21
10
72.007004
20
21.319000
30
-90.264000
70
192
0
VERTEX
8
OBJECT__21
10
72.695999
20
21.316000
30
-90.180000
70
192
0
VERTEX
8
OBJECT__21
10
68.882004
20
22.934999
30
-58.761002
70
192
0
VERTEX
8
OBJECT__21
10
70.940002
20
22.187000
30
-74.615997
70
192
0
VERTEX
8
OBJECT__21
10
71.160004
20
22.105000
30
-76.389000
70
192
0
VERTEX
8
OBJECT__21
10
72.544998
20
21.542999
30
-88.807999
70
192
0
VERTEX
8
OBJECT__21
10
71.095001
20
22.131001
30
-75.810997
70
192
0
VERTEX
8
OBJECT__21
10
74.439003
20
12.144000
30
-105.959000
70
192
0
VERTEX
8
OBJECT__21
10
74.640999
20
9.158000
30
-107.836998
70
192
0
VERTEX
8
OBJECT__21
10
74.210999
20
14.529000
30
-104.002998
70
192
0
VERTEX
8
OBJECT__21
10
74.371002
20
13.140000
30
-105.333000
70
192
0
VERTEX
8
OBJECT__21
10
73.853996
20
17.403000
30
-100.959000
70
192
0
VERTEX
8
OBJECT__21
10
73.943001
20
16.850000
30
-101.779999
70
192
0
VERTEX
8
OBJECT__21
10
73.546997
20
19.261000
30
-98.102997
70
192
0
VERTEX
8
OBJECT__21
10
73.570000
20
19.169001
30
-98.334000
70
192
0
VERTEX
8
OBJECT__21
10
74.793999
20
5.377000
30
-109.209999
70
192
0
VERTEX
8
OBJECT__21
10
74.869003
20
1.085000
30
-109.830002
70
192
0
VERTEX
8
OBJECT__21
10
74.750999
20
6.453000
30
-108.820000
70
192
0
VERTEX
8
OBJECT__21
10
74.862999
20
0.304000
30
-109.787003
70
192
0
VERTEX
8
OBJECT__21
10
74.694000
20
7.860000
30
-108.308998
70
192
0
VERTEX
8
OBJECT__21
10
34.397999
20
-26.694000
30
-20.587999
70
192
0
VERTEX
8
OBJECT__21
10
42.293999
20
-26.436001
30
-19.443001
70
192
0
VERTEX
8
OBJECT__21
10
49.277000
20
-25.934999
30
-19.674000
70
192
0
VERTEX
8
OBJECT__21
10
34.397999
20
-26.386999
30
-21.952000
70
192
0
VERTEX
8
OBJECT__21
10
34.397999
20
-26.306999
30
-22.308001
70
192
0
VERTEX
8
OBJECT__21
10
34.397999
20
-25.801001
30
-23.204000
70
192
0
VERTEX
8
OBJECT__21
10
36.655998
20
-25.027000
30
-24.389000
70
192
0
VERTEX
8
OBJECT__21
10
48.466999
20
-24.445000
30
-24.410000
70
192
0
VERTEX
8
OBJECT__21
10
34.397999
20
-25.122999
30
-24.405001
70
192
0
VERTEX
8
OBJECT__21
10
34.466000
20
-25.118999
30
-24.406000
70
192
0
VERTEX
8
OBJECT__21
10
34.397999
20
25.801001
30
-23.204000
70
192
0
VERTEX
8
OBJECT__21
10
45.858002
20
24.577000
30
-24.388000
70
192
0
VERTEX
8
OBJECT__21
10
48.978001
20
24.426001
30
-24.395000
70
192
0
VERTEX
8
OBJECT__21
10
35.039001
20
25.096001
30
-24.400999
70
192
0
VERTEX
8
OBJECT__21
10
34.397999
20
26.306999
30
-22.308001
70
192
0
VERTEX
8
OBJECT__21
10
34.397999
20
26.694000
30
-20.587999
70
192
0
VERTEX
8
OBJECT__21
10
34.397999
20
26.997000
30
-19.240000
70
192
0
VERTEX
8
OBJECT__21
10
34.397999
20
26.386999
30
-21.952999
70
192
0
VERTEX
8
OBJECT__21
10
34.397999
20
25.122000
30
-24.406000
70
192
0
VERTEX
8
OBJECT__21
10
34.397999
20
-26.997000
30
-19.240000
70
192
0
VERTEX
8
OBJECT__21
10
66.835999
20
-23.672001
30
-43.027000
70
192
0
VERTEX
8
OBJECT__21
10
0
20
0
30
0
70
128
71
1
72
2
73
3
0
VERTEX
8
OBJECT__21
10
0
20
0
30
0
70
128
71
4
72
5
73
6
0
VERTEX
8
OBJECT__21
10
0
20
0
30
0
70
128
71
7
72
8
73
5
0
VERTEX
8
OBJECT__21
10
0
20
0
30
0
70
128
71
5
72
4
73
7
0
VERTEX
8
OBJECT__21
10
0
20
0
30
0
70
128
71
7
72
9
73
8
0
VERTEX
8
OBJECT__21
10
0
20
0
30
0
70
128
71
10
72
11
73
12
0
VERTEX
8
OBJECT__21
10
0
20
0
30
0
70
128
71
2
72
13
73
14
0
VERTEX
8
OBJECT__21
10
0
20
0
30
0
70
128
71
2
72
1
73
15
0
VERTEX
8
OBJECT__21
10
0
20
0
30
0
70
128
71
1
72
16
73
15
0
VERTEX
8
OBJECT__21
10
0
20
0
30
0
70
128
71
15
72
13
73
2
0
VERTEX
8
OBJECT__21
10
0
20
0
30
0
70
128
71
17
72
18
73
19
0
VERTEX
8
OBJECT__21
10
0
20
0
30
0
70
128
71
20
72
21
73
22
0
VERTEX
8
OBJECT__21
10
0
20
0
30
0
70
128
71
2
72
20
73
23
0
VERTEX
8
OBJECT__21
10
0
20
0
30
0
70
128
71
24
72
19
73
22
0
VERTEX
8
OBJECT__21
10
0
20
0
30
0
70
128
71
21
72
25
73
24
0
VERTEX
8
OBJECT__21
10
0
20
0
30
0
70
128
71
26
72
18
73
17
0
VERTEX
8
OBJECT__21
10
0
20
0
30
0
70
128
71
27
72
17
73
24
0
VERTEX
8
OBJECT__21
10
0
20
0
30
0
70
128
71
10
72
17
73
27
0
VERTEX
8
OBJECT__21
10
0
20
0
30
0
70
128
71
28
72
27
73
25
0
VERTEX
8
OBJECT__21
10
0
20
0
30
0
70
128
71
21
72
20
73
29
0
VERTEX
8
OBJECT__21
10
0
20
0
30
0
70
128
71
29
72
30
73
21
0
VERTEX
8
OBJECT__21
10
0
20
0
30
0
70
128
71
20
72
31
73
32
0
VERTEX
8
OBJECT__21
10
0
20
0
30
0
70
128
71
32
72
29
73
20
0
VERTEX
8
OBJECT__21
10
0
20
0
30
0
70
128
71
20
72
2
73
33
0
VERTEX
8
OBJECT__21
10
0
20
0
30
0
70
128
71
2
72
34
73
35
0
VERTEX
8
OBJECT__21
10
0
20
0
30
0
70
128
71
35
72
33
73
2
0
VERTEX
8
OBJECT__21
10
0
20
0
30
0
70
128
71
36
72
37
73
38
0
VERTEX
8
OBJECT__21
10
0
20
0
30
0
70
128
71
25
72
39
73
36
0
VERTEX
8
OBJECT__21
10
0
20
0
30
0
70
128
71
21
72
40
73
39
0
VERTEX
8
OBJECT__21
10
0
20
0
30
0
70
128
71
21
72
41
73
40
0
VERTEX
8
OBJECT__21
10
0
20
0
30
0
70
128
71
39
72
25
73
21
0
VERTEX
8
OBJECT__21
10
0
20
0
30
0
70
128
71
42
72
27
73
28
0
VERTEX
8
OBJECT__21
10
0
20
0
30
0
70
128
71
38
72
43
73
44
0
VERTEX
8
OBJECT__21
10
0
20
0
30
0
70
128
71
38
72
37
73
43
0
VERTEX
8
OBJECT__21
10
0
20
0
30
0
70
128
71
44
72
28
73
38
0
VERTEX
8
OBJECT__21
10
0
20
0
30
0
70
128
71
45
72
28
73
46
0
VERTEX
8
OBJECT__21
10
0
20
0
30
0
70
128
71
45
72
47
73
48
0
VERTEX
8
OBJECT__21
10
0
20
0
30
0
70
128
71
49
72
50
73
51
0
VERTEX
8
OBJECT__21
10
0
20
0
30
0
70
128
71
52
72
53
73
11
0
VERTEX
8
OBJECT__21
10
0
20
0
30
0
70
128
71
53
72
12
73
11
0
VERTEX
8
OBJECT__21
10
0
20
0
30
0
70
128
71
42
72
48
73
11
0
VERTEX
8
OBJECT__21
10
0
20
0
30
0
70
128
71
52
72
49
73
54
0
VERTEX
8
OBJECT__21
10
0
20
0
30
0
70
128
71
55
72
56
73
57
0
VERTEX
8
OBJECT__21
10
0
20
0
30
0
70
128
71
50
72
58
73
57
0
VERTEX
8
OBJECT__21
10
0
20
0
30
0
70
128
71
50
72
49
73
59
0
VERTEX
8
OBJECT__21
10
0
20
0
30
0
70
128
71
59
72
60
73
50
0
VERTEX
8
OBJECT__21
10
0
20
0
30
0
70
128
71
49
72
61
73
59
0
VERTEX
8
OBJECT__21
10
0
20
0
30
0
70
128
71
62
72
52
73
47
0
VERTEX
8
OBJECT__21
10
0
20
0
30
0
70
128
71
52
72
48
73
47
0
VERTEX
8
OBJECT__21
10
0
20
0
30
0
70
128
71
47
72
45
73
63
0
VERTEX
8
OBJECT__21
10
0
20
0
30
0
70
128
71
45
72
64
73
65
0
VERTEX
8
OBJECT__21
10
0
20
0
30
0
70
128
71
65
72
63
73
45
0
VERTEX
8
OBJECT__21
10
0
20
0
30
0
70
128
71
52
72
66
73
67
0
VERTEX
8
OBJECT__21
10
0
20
0
30
0
70
128
71
67
72
49
73
52
0
VERTEX
8
OBJECT__21
10
0
20
0
30
0
70
128
71
52
72
62
73
66
0
VERTEX
8
OBJECT__21
10
0
20
0
30
0
70
128
71
55
72
58
73
68
0
VERTEX
8
OBJECT__21
10
0
20
0
30
0
70
128
71
58
72
69
73
68
0
VERTEX
8
OBJECT__21
10
0
20
0
30
0
70
128
71
68
72
70
73
55
0
VERTEX
8
OBJECT__21
10
0
20
0
30
0
70
128
71
58
72
50
73
71
0
VERTEX
8
OBJECT__21
10
0
20
0
30
0
70
128
71
50
72
72
73
71
0
VERTEX
8
OBJECT__21
10
0
20
0
30
0
70
128
71
73
72
74
73
75
0
VERTEX
8
OBJECT__21
10
0
20
0
30
0
70
128
71
73
72
76
73
74
0
VERTEX
8
OBJECT__21
10
0
20
0
30
0
70
128
71
75
72
77
73
73
0
VERTEX
8
OBJECT__21
10
0
20
0
30
0
70
128
71
73
72
78
73
76
0
VERTEX
8
OBJECT__21
10
0
20
0
30
0
70
128
71
79
72
3
73
7
0
VERTEX
8
OBJECT__21
10
0
20
0
30
0
70
128
71
80
72
81
73
82
0
VERTEX
8
OBJECT__21
10
0
20
0
30
0
70
128
71
81
72
83
73
82
0
VERTEX
8
OBJECT__21
10
0
20
0
30
0
70
128
71
82
72
84
73
80
0
VERTEX
8
OBJECT__21
10
0
20
0
30
0
70
128
71
81
72
85
73
83
0
VERTEX
8
OBJECT__21
10
0
20
0
30
0
70
128
71
86
72
87
73
88
0
VERTEX
8
OBJECT__21
10
0
20
0
30
0
70
128
71
88
72
89
73
86
0
VERTEX
8
OBJECT__21
10
0
20
0
30
0
70
128
71
89
72
90
73
86
0
VERTEX
8
OBJECT__21
10
0
20
0
30
0
70
128
71
87
72
91
73
88
0
VERTEX
8
OBJECT__21
10
0
20
0
30
0
70
128
71
7
72
92
73
93
0
VERTEX
8
OBJECT__21
10
0
20
0
30
0
70
128
71
86
72
94
73
92
0
VERTEX
8
OBJECT__21
10
0
20
0
30
0
70
128
71
92
72
7
73
86
0
VERTEX
8
OBJECT__21
10
0
20
0
30
0
70
128
71
95
72
96
73
97
0
VERTEX
8
OBJECT__21
10
0
20
0
30
0
70
128
71
96
72
95
73
80
0
VERTEX
8
OBJECT__21
10
0
20
0
30
0
70
128
71
80
72
98
73
96
0
VERTEX
8
OBJECT__21
10
0
20
0
30
0
70
128
71
97
72
87
73
95
0
VERTEX
8
OBJECT__21
10
0
20
0
30
0
70
128
71
99
72
81
73
80
0
VERTEX
8
OBJECT__21
10
0
20
0
30
0
70
128
71
77
72
100
73
101
0
VERTEX
8
OBJECT__21
10
0
20
0
30
0
70
128
71
101
72
81
73
77
0
VERTEX
8
OBJECT__21
10
0
20
0
30
0
70
128
71
77
72
81
73
99
0
VERTEX
8
OBJECT__21
10
0
20
0
30
0
70
128
71
102
72
99
73
95
0
VERTEX
8
OBJECT__21
10
0
20
0
30
0
70
128
71
23
72
22
73
87
0
VERTEX
8
OBJECT__21
10
0
20
0
30
0
70
128
71
23
72
86
73
7
0
VERTEX
8
OBJECT__21
10
0
20
0
30
0
70
128
71
103
72
95
73
87
0
VERTEX
8
OBJECT__21
10
0
20
0
30
0
70
128
71
22
72
19
73
103
0
VERTEX
8
OBJECT__21
10
0
20
0
30
0
70
128
71
18
72
102
73
103
0
VERTEX
8
OBJECT__21
10
0
20
0
30
0
70
128
71
104
72
99
73
102
0
VERTEX
8
OBJECT__21
10
0
20
0
30
0
70
128
71
105
72
102
73
18
0
VERTEX
8
OBJECT__21
10
0
20
0
30
0
70
128
71
106
72
104
73
105
0
VERTEX
8
OBJECT__21
10
0
20
0
30
0
70
128
71
107
72
108
73
109
0
VERTEX
8
OBJECT__21
10
0
20
0
30
0
70
128
71
110
72
78
73
73
0
VERTEX
8
OBJECT__21
10
0
20
0
30
0
70
128
71
106
72
111
73
112
0
VERTEX
8
OBJECT__21
10
0
20
0
30
0
70
128
71
111
72
113
73
112
0
VERTEX
8
OBJECT__21
10
0
20
0
30
0
70
128
71
112
72
110
73
106
0
VERTEX
8
OBJECT__21
10
0
20
0
30
0
70
128
71
73
72
77
73
104
0
VERTEX
8
OBJECT__21
10
0
20
0
30
0
70
128
71
107
72
114
73
115
0
VERTEX
8
OBJECT__21
10
0
20
0
30
0
70
128
71
115
72
111
73
107
0
VERTEX
8
OBJECT__21
10
0
20
0
30
0
70
128
71
107
72
116
73
114
0
VERTEX
8
OBJECT__21
10
0
20
0
30
0
70
128
71
115
72
117
73
111
0
VERTEX
8
OBJECT__21
10
0
20
0
30
0
70
128
71
118
72
119
73
120
0
VERTEX
8
OBJECT__21
10
0
20
0
30
0
70
128
71
120
72
121
73
118
0
VERTEX
8
OBJECT__21
10
0
20
0
30
0
70
128
71
120
72
122
73
121
0
VERTEX
8
OBJECT__21
10
0
20
0
30
0
70
128
71
108
72
123
73
124
0
VERTEX
8
OBJECT__21
10
0
20
0
30
0
70
128
71
108
72
121
73
125
0
VERTEX
8
OBJECT__21
10
0
20
0
30
0
70
128
71
125
72
123
73
108
0
VERTEX
8
OBJECT__21
10
0
20
0
30
0
70
128
71
121
72
126
73
125
0
VERTEX
8
OBJECT__21
10
0
20
0
30
0
70
128
71
54
72
51
73
108
0
VERTEX
8
OBJECT__21
10
0
20
0
30
0
70
128
71
53
72
111
73
127
0
VERTEX
8
OBJECT__21
10
0
20
0
30
0
70
128
71
111
72
106
73
127
0
VERTEX
8
OBJECT__21
10
0
20
0
30
0
70
128
71
26
72
12
73
127
0
VERTEX
8
OBJECT__21
10
0
20
0
30
0
70
128
71
53
72
54
73
107
0
VERTEX
8
OBJECT__21
10
0
20
0
30
0
70
128
71
56
72
118
73
121
0
VERTEX
8
OBJECT__21
10
0
20
0
30
0
70
128
71
51
72
57
73
121
0
VERTEX
8
OBJECT__21
10
0
20
0
30
0
70
128
71
128
72
129
73
130
0
VERTEX
8
OBJECT__21
10
0
20
0
30
0
70
128
71
129
72
131
73
130
0
VERTEX
8
OBJECT__21
10
0
20
0
30
0
70
128
71
132
72
133
73
134
0
VERTEX
8
OBJECT__21
10
0
20
0
30
0
70
128
71
134
72
135
73
132
0
VERTEX
8
OBJECT__21
10
0
20
0
30
0
70
128
71
134
72
136
73
135
0
VERTEX
8
OBJECT__21
10
0
20
0
30
0
70
128
71
132
72
137
73
138
0
VERTEX
8
OBJECT__21
10
0
20
0
30
0
70
128
71
138
72
133
73
132
0
VERTEX
8
OBJECT__21
10
0
20
0
30
0
70
128
71
139
72
140
73
141
0
VERTEX
8
OBJECT__21
10
0
20
0
30
0
70
128
71
140
72
142
73
141
0
VERTEX
8
OBJECT__21
10
0
20
0
30
0
70
128
71
143
72
144
73
145
0
VERTEX
8
OBJECT__21
10
0
20
0
30
0
70
128
71
144
72
146
73
147
0
VERTEX
8
OBJECT__21
10
0
20
0
30
0
70
128
71
147
72
145
73
144
0
VERTEX
8
OBJECT__21
10
0
20
0
30
0
70
128
71
143
72
148
73
149
0
VERTEX
8
OBJECT__21
10
0
20
0
30
0
70
128
71
149
72
140
73
143
0
VERTEX
8
OBJECT__21
10
0
20
0
30
0
70
128
71
135
72
150
73
151
0
VERTEX
8
OBJECT__21
10
0
20
0
30
0
70
128
71
151
72
144
73
135
0
VERTEX
8
OBJECT__21
10
0
20
0
30
0
70
128
71
128
72
152
73
153
0
VERTEX
8
OBJECT__21
10
0
20
0
30
0
70
128
71
153
72
154
73
128
0
VERTEX
8
OBJECT__21
10
0
20
0
30
0
70
128
71
128
72
155
73
156
0
VERTEX
8
OBJECT__21
10
0
20
0
30
0
70
128
71
156
72
152
73
128
0
VERTEX
8
OBJECT__21
10
0
20
0
30
0
70
128
71
154
72
157
73
158
0
VERTEX
8
OBJECT__21
10
0
20
0
30
0
70
128
71
137
72
132
73
159
0
VERTEX
8
OBJECT__21
10
0
20
0
30
0
70
128
71
159
72
154
73
137
0
VERTEX
8
OBJECT__21
10
0
20
0
30
0
70
128
71
154
72
159
73
160
0
VERTEX
8
OBJECT__21
10
0
20
0
30
0
70
128
71
161
72
132
73
135
0
VERTEX
8
OBJECT__21
10
0
20
0
30
0
70
128
71
162
72
143
73
140
0
VERTEX
8
OBJECT__21
10
0
20
0
30
0
70
128
71
140
72
163
73
162
0
VERTEX
8
OBJECT__21
10
0
20
0
30
0
70
128
71
164
72
144
73
143
0
VERTEX
8
OBJECT__21
10
0
20
0
30
0
70
128
71
165
72
135
73
144
0
VERTEX
8
OBJECT__21
10
0
20
0
30
0
70
128
71
159
72
166
73
167
0
VERTEX
8
OBJECT__21
10
0
20
0
30
0
70
128
71
161
72
168
73
166
0
VERTEX
8
OBJECT__21
10
0
20
0
30
0
70
128
71
166
72
132
73
161
0
VERTEX
8
OBJECT__21
10
0
20
0
30
0
70
128
71
169
72
167
73
166
0
VERTEX
8
OBJECT__21
10
0
20
0
30
0
70
128
71
160
72
167
73
170
0
VERTEX
8
OBJECT__21
10
0
20
0
30
0
70
128
71
171
72
172
73
173
0
VERTEX
8
OBJECT__21
10
0
20
0
30
0
70
128
71
173
72
174
73
171
0
VERTEX
8
OBJECT__21
10
0
20
0
30
0
70
128
71
172
72
175
73
176
0
VERTEX
8
OBJECT__21
10
0
20
0
30
0
70
128
71
176
72
173
73
172
0
VERTEX
8
OBJECT__21
10
0
20
0
30
0
70
128
71
128
72
160
73
177
0
VERTEX
8
OBJECT__21
10
0
20
0
30
0
70
128
71
129
72
171
73
178
0
VERTEX
8
OBJECT__21
10
0
20
0
30
0
70
128
71
171
72
179
73
178
0
VERTEX
8
OBJECT__21
10
0
20
0
30
0
70
128
71
178
72
180
73
129
0
VERTEX
8
OBJECT__21
10
0
20
0
30
0
70
128
71
171
72
174
73
179
0
VERTEX
8
OBJECT__21
10
0
20
0
30
0
70
128
71
177
72
181
73
171
0
VERTEX
8
OBJECT__21
10
0
20
0
30
0
70
128
71
182
72
183
73
184
0
VERTEX
8
OBJECT__21
10
0
20
0
30
0
70
128
71
184
72
185
73
182
0
VERTEX
8
OBJECT__21
10
0
20
0
30
0
70
128
71
172
72
185
73
186
0
VERTEX
8
OBJECT__21
10
0
20
0
30
0
70
128
71
185
72
187
73
188
0
VERTEX
8
OBJECT__21
10
0
20
0
30
0
70
128
71
188
72
186
73
185
0
VERTEX
8
OBJECT__21
10
0
20
0
30
0
70
128
71
186
72
189
73
172
0
VERTEX
8
OBJECT__21
10
0
20
0
30
0
70
128
71
182
72
4
73
190
0
VERTEX
8
OBJECT__21
10
0
20
0
30
0
70
128
71
4
72
191
73
190
0
VERTEX
8
OBJECT__21
10
0
20
0
30
0
70
128
71
192
72
193
73
172
0
VERTEX
8
OBJECT__21
10
0
20
0
30
0
70
128
71
172
72
181
73
192
0
VERTEX
8
OBJECT__21
10
0
20
0
30
0
70
128
71
167
72
169
73
194
0
VERTEX
8
OBJECT__21
10
0
20
0
30
0
70
128
71
170
72
192
73
181
0
VERTEX
8
OBJECT__21
10
0
20
0
30
0
70
128
71
194
72
195
73
192
0
VERTEX
8
OBJECT__21
10
0
20
0
30
0
70
128
71
196
72
197
73
182
0
VERTEX
8
OBJECT__21
10
0
20
0
30
0
70
128
71
196
72
185
73
172
0
VERTEX
8
OBJECT__21
10
0
20
0
30
0
70
128
71
79
72
4
73
182
0
VERTEX
8
OBJECT__21
10
0
20
0
30
0
70
128
71
169
72
198
73
199
0
VERTEX
8
OBJECT__21
10
0
20
0
30
0
70
128
71
200
72
161
73
165
0
VERTEX
8
OBJECT__21
10
0
20
0
30
0
70
128
71
201
72
202
73
162
0
VERTEX
8
OBJECT__21
10
0
20
0
30
0
70
128
71
162
72
202
73
203
0
VERTEX
8
OBJECT__21
10
0
20
0
30
0
70
128
71
203
72
164
73
162
0
VERTEX
8
OBJECT__21
10
0
20
0
30
0
70
128
71
204
72
165
73
164
0
VERTEX
8
OBJECT__21
10
0
20
0
30
0
70
128
71
198
72
169
73
168
0
VERTEX
8
OBJECT__21
10
0
20
0
30
0
70
128
71
200
72
205
73
206
0
VERTEX
8
OBJECT__21
10
0
20
0
30
0
70
128
71
206
72
161
73
200
0
VERTEX
8
OBJECT__21
10
0
20
0
30
0
70
128
71
207
72
198
73
206
0
VERTEX
8
OBJECT__21
10
0
20
0
30
0
70
128
71
204
72
208
73
209
0
VERTEX
8
OBJECT__21
10
0
20
0
30
0
70
128
71
204
72
210
73
208
0
VERTEX
8
OBJECT__21
10
0
20
0
30
0
70
128
71
209
72
200
73
204
0
VERTEX
8
OBJECT__21
10
0
20
0
30
0
70
128
71
202
72
201
73
211
0
VERTEX
8
OBJECT__21
10
0
20
0
30
0
70
128
71
211
72
212
73
202
0
VERTEX
8
OBJECT__21
10
0
20
0
30
0
70
128
71
201
72
213
73
211
0
VERTEX
8
OBJECT__21
10
0
20
0
30
0
70
128
71
202
72
214
73
215
0
VERTEX
8
OBJECT__21
10
0
20
0
30
0
70
128
71
215
72
203
73
202
0
VERTEX
8
OBJECT__21
10
0
20
0
30
0
70
128
71
204
72
216
73
217
0
VERTEX
8
OBJECT__21
10
0
20
0
30
0
70
128
71
216
72
218
73
217
0
VERTEX
8
OBJECT__21
10
0
20
0
30
0
70
128
71
216
72
203
73
219
0
VERTEX
8
OBJECT__21
10
0
20
0
30
0
70
128
71
219
72
220
73
216
0
VERTEX
8
OBJECT__21
10
0
20
0
30
0
70
128
71
203
72
221
73
219
0
VERTEX
8
OBJECT__21
10
0
20
0
30
0
70
128
71
222
72
207
73
205
0
VERTEX
8
OBJECT__21
10
0
20
0
30
0
70
128
71
223
72
224
73
225
0
VERTEX
8
OBJECT__21
10
0
20
0
30
0
70
128
71
200
72
226
73
223
0
VERTEX
8
OBJECT__21
10
0
20
0
30
0
70
128
71
223
72
205
73
200
0
VERTEX
8
OBJECT__21
10
0
20
0
30
0
70
128
71
222
72
225
73
227
0
VERTEX
8
OBJECT__21
10
0
20
0
30
0
70
128
71
225
72
224
73
227
0
VERTEX
8
OBJECT__21
10
0
20
0
30
0
70
128
71
207
72
222
73
228
0
VERTEX
8
OBJECT__21
10
0
20
0
30
0
70
128
71
229
72
230
73
193
0
VERTEX
8
OBJECT__21
10
0
20
0
30
0
70
128
71
193
72
195
73
229
0
VERTEX
8
OBJECT__21
10
0
20
0
30
0
70
128
71
199
72
229
73
195
0
VERTEX
8
OBJECT__21
10
0
20
0
30
0
70
128
71
198
72
207
73
231
0
VERTEX
8
OBJECT__21
10
0
20
0
30
0
70
128
71
231
72
232
73
229
0
VERTEX
8
OBJECT__21
10
0
20
0
30
0
70
128
71
233
72
197
73
196
0
VERTEX
8
OBJECT__21
10
0
20
0
30
0
70
128
71
234
72
196
73
193
0
VERTEX
8
OBJECT__21
10
0
20
0
30
0
70
128
71
1
72
79
73
197
0
VERTEX
8
OBJECT__21
10
0
20
0
30
0
70
128
71
230
72
235
73
236
0
VERTEX
8
OBJECT__21
10
0
20
0
30
0
70
128
71
230
72
237
73
235
0
VERTEX
8
OBJECT__21
10
0
20
0
30
0
70
128
71
232
72
238
73
239
0
VERTEX
8
OBJECT__21
10
0
20
0
30
0
70
128
71
239
72
230
73
232
0
VERTEX
8
OBJECT__21
10
0
20
0
30
0
70
128
71
239
72
237
73
230
0
VERTEX
8
OBJECT__21
10
0
20
0
30
0
70
128
71
238
72
232
73
240
0
VERTEX
8
OBJECT__21
10
0
20
0
30
0
70
128
71
240
72
241
73
238
0
VERTEX
8
OBJECT__21
10
0
20
0
30
0
70
128
71
228
72
240
73
232
0
VERTEX
8
OBJECT__21
10
0
20
0
30
0
70
128
71
242
72
243
73
228
0
VERTEX
8
OBJECT__21
10
0
20
0
30
0
70
128
71
240
72
228
73
244
0
VERTEX
8
OBJECT__21
10
0
20
0
30
0
70
128
71
244
72
245
73
240
0
VERTEX
8
OBJECT__21
10
0
20
0
30
0
70
128
71
228
72
243
73
246
0
VERTEX
8
OBJECT__21
10
0
20
0
30
0
70
128
71
246
72
244
73
228
0
VERTEX
8
OBJECT__21
10
0
20
0
30
0
70
128
71
233
72
234
73
247
0
VERTEX
8
OBJECT__21
10
0
20
0
30
0
70
128
71
247
72
248
73
233
0
VERTEX
8
OBJECT__21
10
0
20
0
30
0
70
128
71
234
72
249
73
250
0
VERTEX
8
OBJECT__21
10
0
20
0
30
0
70
128
71
250
72
247
73
234
0
VERTEX
8
OBJECT__21
10
0
20
0
30
0
70
128
71
234
72
230
73
251
0
VERTEX
8
OBJECT__21
10
0
20
0
30
0
70
128
71
251
72
252
73
234
0
VERTEX
8
OBJECT__21
10
0
20
0
30
0
70
128
71
230
72
253
73
254
0
VERTEX
8
OBJECT__21
10
0
20
0
30
0
70
128
71
254
72
251
73
230
0
VERTEX
8
OBJECT__21
10
0
20
0
30
0
70
128
71
1
72
233
73
255
0
VERTEX
8
OBJECT__21
10
0
20
0
30
0
70
128
71
255
72
256
73
1
0
VERTEX
8
OBJECT__21
10
0
20
0
30
0
70
128
71
233
72
257
73
255
0
VERTEX
8
OBJECT__21
10
0
20
0
30
0
70
128
71
256
72
258
73
1
0
VERTEX
8
OBJECT__21
10
0
20
0
30
0
70
128
71
233
72
259
73
257
0
VERTEX
8
OBJECT__21
10
0
20
0
30
0
70
128
71
260
72
55
73
261
0
VERTEX
8
OBJECT__21
10
0
20
0
30
0
70
128
71
55
72
262
73
261
0
VERTEX
8
OBJECT__21
10
0
20
0
30
0
70
128
71
260
72
263
73
56
0
VERTEX
8
OBJECT__21
10
0
20
0
30
0
70
128
71
264
72
265
73
118
0
VERTEX
8
OBJECT__21
10
0
20
0
30
0
70
128
71
56
72
263
73
264
0
VERTEX
8
OBJECT__21
10
0
20
0
30
0
70
128
71
118
72
265
73
266
0
VERTEX
8
OBJECT__21
10
0
20
0
30
0
70
128
71
266
72
267
73
118
0
VERTEX
8
OBJECT__21
10
0
20
0
30
0
70
128
71
265
72
268
73
269
0
VERTEX
8
OBJECT__21
10
0
20
0
30
0
70
128
71
269
72
266
73
265
0
VERTEX
8
OBJECT__21
10
0
20
0
30
0
70
128
71
270
72
139
73
271
0
VERTEX
8
OBJECT__21
10
0
20
0
30
0
70
128
71
139
72
272
73
271
0
VERTEX
8
OBJECT__21
10
0
20
0
30
0
70
128
71
271
72
273
73
270
0
VERTEX
8
OBJECT__21
10
0
20
0
30
0
70
128
71
274
72
163
73
139
0
VERTEX
8
OBJECT__21
10
0
20
0
30
0
70
128
71
139
72
270
73
274
0
VERTEX
8
OBJECT__21
10
0
20
0
30
0
70
128
71
275
72
201
73
163
0
VERTEX
8
OBJECT__21
10
0
20
0
30
0
70
128
71
213
72
201
73
275
0
VERTEX
8
OBJECT__21
10
0
20
0
30
0
70
128
71
275
72
276
73
213
0
VERTEX
8
OBJECT__21
10
0
20
0
30
0
70
128
71
163
72
277
73
275
0
VERTEX
8
OBJECT__21
10
0
20
0
30
0
70
128
71
274
72
277
73
163
0
VERTEX
8
OBJECT__21
10
0
20
0
30
0
70
128
71
273
72
278
73
270
0
VERTEX
8
OBJECT__21
10
0
20
0
30
0
70
128
71
267
72
119
73
118
0
VERTEX
8
OBJECT__21
10
0
20
0
30
0
70
128
71
118
72
56
73
264
0
VERTEX
8
OBJECT__21
10
0
20
0
30
0
70
128
71
56
72
55
73
260
0
VERTEX
8
OBJECT__21
10
0
20
0
30
0
70
128
71
261
72
279
73
260
0
VERTEX
8
OBJECT__21
10
0
20
0
30
0
70
128
71
258
72
16
73
1
0
VERTEX
8
OBJECT__21
10
0
20
0
30
0
70
128
71
252
72
249
73
234
0
VERTEX
8
OBJECT__21
10
0
20
0
30
0
70
128
71
248
72
259
73
233
0
VERTEX
8
OBJECT__21
10
0
20
0
30
0
70
128
71
245
72
241
73
240
0
VERTEX
8
OBJECT__21
10
0
20
0
30
0
70
128
71
228
72
222
73
242
0
VERTEX
8
OBJECT__21
10
0
20
0
30
0
70
128
71
232
72
231
73
228
0
VERTEX
8
OBJECT__21
10
0
20
0
30
0
70
128
71
236
72
253
73
230
0
VERTEX
8
OBJECT__21
10
0
20
0
30
0
70
128
71
197
72
233
73
1
0
VERTEX
8
OBJECT__21
10
0
20
0
30
0
70
128
71
193
72
230
73
234
0
VERTEX
8
OBJECT__21
10
0
20
0
30
0
70
128
71
196
72
234
73
233
0
VERTEX
8
OBJECT__21
10
0
20
0
30
0
70
128
71
229
72
199
73
231
0
VERTEX
8
OBJECT__21
10
0
20
0
30
0
70
128
71
231
72
199
73
198
0
VERTEX
8
OBJECT__21
10
0
20
0
30
0
70
128
71
195
72
194
73
199
0
VERTEX
8
OBJECT__21
10
0
20
0
30
0
70
128
71
229
72
232
73
230
0
VERTEX
8
OBJECT__21
10
0
20
0
30
0
70
128
71
228
72
231
73
207
0
VERTEX
8
OBJECT__21
10
0
20
0
30
0
70
128
71
227
72
242
73
222
0
VERTEX
8
OBJECT__21
10
0
20
0
30
0
70
128
71
225
72
205
73
223
0
VERTEX
8
OBJECT__21
10
0
20
0
30
0
70
128
71
205
72
225
73
222
0
VERTEX
8
OBJECT__21
10
0
20
0
30
0
70
128
71
220
72
218
73
216
0
VERTEX
8
OBJECT__21
10
0
20
0
30
0
70
128
71
217
72
210
73
204
0
VERTEX
8
OBJECT__21
10
0
20
0
30
0
70
128
71
215
72
221
73
203
0
VERTEX
8
OBJECT__21
10
0
20
0
30
0
70
128
71
212
72
214
73
202
0
VERTEX
8
OBJECT__21
10
0
20
0
30
0
70
128
71
209
72
226
73
200
0
VERTEX
8
OBJECT__21
10
0
20
0
30
0
70
128
71
206
72
205
73
207
0
VERTEX
8
OBJECT__21
10
0
20
0
30
0
70
128
71
206
72
168
73
161
0
VERTEX
8
OBJECT__21
10
0
20
0
30
0
70
128
71
168
72
206
73
198
0
VERTEX
8
OBJECT__21
10
0
20
0
30
0
70
128
71
164
72
216
73
204
0
VERTEX
8
OBJECT__21
10
0
20
0
30
0
70
128
71
203
72
216
73
164
0
VERTEX
8
OBJECT__21
10
0
20
0
30
0
70
128
71
162
72
163
73
201
0
VERTEX
8
OBJECT__21
10
0
20
0
30
0
70
128
71
165
72
204
73
200
0
VERTEX
8
OBJECT__21
10
0
20
0
30
0
70
128
71
199
72
194
73
169
0
VERTEX
8
OBJECT__21
10
0
20
0
30
0
70
128
71
182
72
197
73
79
0
VERTEX
8
OBJECT__21
10
0
20
0
30
0
70
128
71
172
72
193
73
196
0
VERTEX
8
OBJECT__21
10
0
20
0
30
0
70
128
71
182
72
185
73
196
0
VERTEX
8
OBJECT__21
10
0
20
0
30
0
70
128
71
192
72
170
73
194
0
VERTEX
8
OBJECT__21
10
0
20
0
30
0
70
128
71
181
72
177
73
170
0
VERTEX
8
OBJECT__21
10
0
20
0
30
0
70
128
71
194
72
170
73
167
0
VERTEX
8
OBJECT__21
10
0
20
0
30
0
70
128
71
192
72
195
73
193
0
VERTEX
8
OBJECT__21
10
0
20
0
30
0
70
128
71
190
72
183
73
182
0
VERTEX
8
OBJECT__21
10
0
20
0
30
0
70
128
71
189
72
175
73
172
0
VERTEX
8
OBJECT__21
10
0
20
0
30
0
70
128
71
184
72
187
73
185
0
VERTEX
8
OBJECT__21
10
0
20
0
30
0
70
128
71
171
72
129
73
177
0
VERTEX
8
OBJECT__21
10
0
20
0
30
0
70
128
71
180
72
131
73
129
0
VERTEX
8
OBJECT__21
10
0
20
0
30
0
70
128
71
177
72
129
73
128
0
VERTEX
8
OBJECT__21
10
0
20
0
30
0
70
128
71
171
72
181
73
172
0
VERTEX
8
OBJECT__21
10
0
20
0
30
0
70
128
71
170
72
177
73
160
0
VERTEX
8
OBJECT__21
10
0
20
0
30
0
70
128
71
166
72
168
73
169
0
VERTEX
8
OBJECT__21
10
0
20
0
30
0
70
128
71
166
72
159
73
132
0
VERTEX
8
OBJECT__21
10
0
20
0
30
0
70
128
71
167
72
160
73
159
0
VERTEX
8
OBJECT__21
10
0
20
0
30
0
70
128
71
144
72
164
73
165
0
VERTEX
8
OBJECT__21
10
0
20
0
30
0
70
128
71
143
72
162
73
164
0
VERTEX
8
OBJECT__21
10
0
20
0
30
0
70
128
71
140
72
139
73
163
0
VERTEX
8
OBJECT__21
10
0
20
0
30
0
70
128
71
135
72
165
73
161
0
VERTEX
8
OBJECT__21
10
0
20
0
30
0
70
128
71
160
72
128
73
154
0
VERTEX
8
OBJECT__21
10
0
20
0
30
0
70
128
71
158
72
137
73
154
0
VERTEX
8
OBJECT__21
10
0
20
0
30
0
70
128
71
153
72
157
73
154
0
VERTEX
8
OBJECT__21
10
0
20
0
30
0
70
128
71
151
72
146
73
144
0
VERTEX
8
OBJECT__21
10
0
20
0
30
0
70
128
71
149
72
142
73
140
0
VERTEX
8
OBJECT__21
10
0
20
0
30
0
70
128
71
145
72
148
73
143
0
VERTEX
8
OBJECT__21
10
0
20
0
30
0
70
128
71
141
72
272
73
139
0
VERTEX
8
OBJECT__21
10
0
20
0
30
0
70
128
71
136
72
150
73
135
0
VERTEX
8
OBJECT__21
10
0
20
0
30
0
70
128
71
130
72
155
73
128
0
VERTEX
8
OBJECT__21
10
0
20
0
30
0
70
128
71
121
72
108
73
51
0
VERTEX
8
OBJECT__21
10
0
20
0
30
0
70
128
71
121
72
57
73
56
0
VERTEX
8
OBJECT__21
10
0
20
0
30
0
70
128
71
107
72
111
73
53
0
VERTEX
8
OBJECT__21
10
0
20
0
30
0
70
128
71
127
72
105
73
26
0
VERTEX
8
OBJECT__21
10
0
20
0
30
0
70
128
71
127
72
12
73
53
0
VERTEX
8
OBJECT__21
10
0
20
0
30
0
70
128
71
108
72
107
73
54
0
VERTEX
8
OBJECT__21
10
0
20
0
30
0
70
128
71
124
72
109
73
108
0
VERTEX
8
OBJECT__21
10
0
20
0
30
0
70
128
71
122
72
126
73
121
0
VERTEX
8
OBJECT__21
10
0
20
0
30
0
70
128
71
117
72
113
73
111
0
VERTEX
8
OBJECT__21
10
0
20
0
30
0
70
128
71
104
72
106
73
73
0
VERTEX
8
OBJECT__21
10
0
20
0
30
0
70
128
71
73
72
106
73
110
0
VERTEX
8
OBJECT__21
10
0
20
0
30
0
70
128
71
109
72
116
73
107
0
VERTEX
8
OBJECT__21
10
0
20
0
30
0
70
128
71
105
72
127
73
106
0
VERTEX
8
OBJECT__21
10
0
20
0
30
0
70
128
71
18
72
26
73
105
0
VERTEX
8
OBJECT__21
10
0
20
0
30
0
70
128
71
102
72
105
73
104
0
VERTEX
8
OBJECT__21
10
0
20
0
30
0
70
128
71
103
72
19
73
18
0
VERTEX
8
OBJECT__21
10
0
20
0
30
0
70
128
71
87
72
22
73
103
0
VERTEX
8
OBJECT__21
10
0
20
0
30
0
70
128
71
7
72
3
73
23
0
VERTEX
8
OBJECT__21
10
0
20
0
30
0
70
128
71
87
72
86
73
23
0
VERTEX
8
OBJECT__21
10
0
20
0
30
0
70
128
71
95
72
103
73
102
0
VERTEX
8
OBJECT__21
10
0
20
0
30
0
70
128
71
99
72
104
73
77
0
VERTEX
8
OBJECT__21
10
0
20
0
30
0
70
128
71
101
72
85
73
81
0
VERTEX
8
OBJECT__21
10
0
20
0
30
0
70
128
71
80
72
95
73
99
0
VERTEX
8
OBJECT__21
10
0
20
0
30
0
70
128
71
97
72
91
73
87
0
VERTEX
8
OBJECT__21
10
0
20
0
30
0
70
128
71
93
72
9
73
7
0
VERTEX
8
OBJECT__21
10
0
20
0
30
0
70
128
71
90
72
94
73
86
0
VERTEX
8
OBJECT__21
10
0
20
0
30
0
70
128
71
84
72
98
73
80
0
VERTEX
8
OBJECT__21
10
0
20
0
30
0
70
128
71
7
72
4
73
79
0
VERTEX
8
OBJECT__21
10
0
20
0
30
0
70
128
71
75
72
100
73
77
0
VERTEX
8
OBJECT__21
10
0
20
0
30
0
70
128
71
71
72
69
73
58
0
VERTEX
8
OBJECT__21
10
0
20
0
30
0
70
128
71
70
72
262
73
55
0
VERTEX
8
OBJECT__21
10
0
20
0
30
0
70
128
71
67
72
61
73
49
0
VERTEX
8
OBJECT__21
10
0
20
0
30
0
70
128
71
63
72
280
73
47
0
VERTEX
8
OBJECT__21
10
0
20
0
30
0
70
128
71
47
72
280
73
62
0
VERTEX
8
OBJECT__21
10
0
20
0
30
0
70
128
71
60
72
72
73
50
0
VERTEX
8
OBJECT__21
10
0
20
0
30
0
70
128
71
57
72
51
73
50
0
VERTEX
8
OBJECT__21
10
0
20
0
30
0
70
128
71
57
72
58
73
55
0
VERTEX
8
OBJECT__21
10
0
20
0
30
0
70
128
71
54
72
53
73
52
0
VERTEX
8
OBJECT__21
10
0
20
0
30
0
70
128
71
11
72
10
73
42
0
VERTEX
8
OBJECT__21
10
0
20
0
30
0
70
128
71
11
72
48
73
52
0
VERTEX
8
OBJECT__21
10
0
20
0
30
0
70
128
71
51
72
54
73
49
0
VERTEX
8
OBJECT__21
10
0
20
0
30
0
70
128
71
48
72
42
73
45
0
VERTEX
8
OBJECT__21
10
0
20
0
30
0
70
128
71
46
72
64
73
45
0
VERTEX
8
OBJECT__21
10
0
20
0
30
0
70
128
71
44
72
46
73
28
0
VERTEX
8
OBJECT__21
10
0
20
0
30
0
70
128
71
28
72
45
73
42
0
VERTEX
8
OBJECT__21
10
0
20
0
30
0
70
128
71
38
72
25
73
36
0
VERTEX
8
OBJECT__21
10
0
20
0
30
0
70
128
71
33
72
31
73
20
0
VERTEX
8
OBJECT__21
10
0
20
0
30
0
70
128
71
30
72
41
73
21
0
VERTEX
8
OBJECT__21
10
0
20
0
30
0
70
128
71
25
72
38
73
28
0
VERTEX
8
OBJECT__21
10
0
20
0
30
0
70
128
71
27
72
42
73
10
0
VERTEX
8
OBJECT__21
10
0
20
0
30
0
70
128
71
24
72
25
73
27
0
VERTEX
8
OBJECT__21
10
0
20
0
30
0
70
128
71
17
72
10
73
26
0
VERTEX
8
OBJECT__21
10
0
20
0
30
0
70
128
71
22
72
21
73
24
0
VERTEX
8
OBJECT__21
10
0
20
0
30
0
70
128
71
23
72
3
73
2
0
VERTEX
8
OBJECT__21
10
0
20
0
30
0
70
128
71
22
72
23
73
20
0
VERTEX
8
OBJECT__21
10
0
20
0
30
0
70
128
71
19
72
24
73
17
0
VERTEX
8
OBJECT__21
10
0
20
0
30
0
70
128
71
14
72
34
73
2
0
VERTEX
8
OBJECT__21
10
0
20
0
30
0
70
128
71
12
72
26
73
10
0
VERTEX
8
OBJECT__21
10
0
20
0
30
0
70
128
71
6
72
191
73
4
0
VERTEX
8
OBJECT__21
10
0
20
0
30
0
70
128
71
3
72
79
73
1
0
SEQEND
8
OBJECT__21
0
POLYLINE
8
OBJECT__22
66
1
70
64
71
151
72
197
62
253
0
VERTEX
8
OBJECT__22
10
67.343002
20
-6.809000
30
-41.363998
70
192
0
VERTEX
8
OBJECT__22
10
64.213997
20
-6.797000
30
-39.324001
70
192
0
VERTEX
8
OBJECT__22
10
65.385002
20
-0.013000
30
-40.254002
70
192
0
VERTEX
8
OBJECT__22
10
62.327000
20
-13.182000
30
-36.841000
70
192
0
VERTEX
8
OBJECT__22
10
64.983002
20
-13.087000
30
-39.192001
70
192
0
VERTEX
8
OBJECT__22
10
62.724998
20
-18.868999
30
-35.783001
70
192
0
VERTEX
8
OBJECT__22
10
59.542999
20
-0.013000
30
-39.272999
70
192
0
VERTEX
8
OBJECT__22
10
59.057999
20
-6.844000
30
-38.353001
70
192
0
VERTEX
8
OBJECT__22
10
52.757000
20
-13.511000
30
-35.340000
70
192
0
VERTEX
8
OBJECT__22
10
58.296001
20
-13.330000
30
-35.723999
70
192
0
VERTEX
8
OBJECT__22
10
58.001999
20
-19.176001
30
-31.496000
70
192
0
VERTEX
8
OBJECT__22
10
61.056000
20
-18.990000
30
-33.040001
70
192
0
VERTEX
8
OBJECT__22
10
69.734001
20
-0.013000
30
-46.998001
70
192
0
VERTEX
8
OBJECT__22
10
71.432999
20
-0.013000
30
-61.152000
70
192
0
VERTEX
8
OBJECT__22
10
71.126999
20
-6.855000
30
-60.074001
70
192
0
VERTEX
8
OBJECT__22
10
74.000999
20
-0.013000
30
-84.396004
70
192
0
VERTEX
8
OBJECT__22
10
73.533997
20
-6.855000
30
-83.279999
70
192
0
VERTEX
8
OBJECT__22
10
73.920998
20
-0.013000
30
-97.774002
70
192
0
VERTEX
8
OBJECT__22
10
73.374001
20
-6.767000
30
-96.569000
70
192
0
VERTEX
8
OBJECT__22
10
71.594002
20
-13.097000
30
-92.709999
70
192
0
VERTEX
8
OBJECT__22
10
71.723999
20
-13.096000
30
-79.612000
70
192
0
VERTEX
8
OBJECT__22
10
69.195000
20
-6.824000
30
-46.327000
70
192
0
VERTEX
8
OBJECT__22
10
68.473000
20
-0.013000
30
-42.219002
70
192
0
VERTEX
8
OBJECT__22
10
69.408997
20
-13.081000
30
-57.619999
70
192
0
VERTEX
8
OBJECT__22
10
67.139000
20
-13.054000
30
-44.748001
70
192
0
VERTEX
8
OBJECT__22
10
63.557999
20
-18.840000
30
-41.423000
70
192
0
VERTEX
8
OBJECT__22
10
63.568001
20
18.819000
30
-41.441002
70
192
0
VERTEX
8
OBJECT__22
10
67.150002
20
13.033000
30
-44.756001
70
192
0
VERTEX
8
OBJECT__22
10
64.990997
20
13.065000
30
-39.202000
70
192
0
VERTEX
8
OBJECT__22
10
69.199997
20
6.800000
30
-46.331001
70
192
0
VERTEX
8
OBJECT__22
10
69.419998
20
13.060000
30
-57.632000
70
192
0
VERTEX
8
OBJECT__22
10
71.128998
20
6.831000
30
-60.081001
70
192
0
VERTEX
8
OBJECT__22
10
71.735001
20
13.075000
30
-79.630997
70
192
0
VERTEX
8
OBJECT__22
10
73.538002
20
6.830000
30
-83.288002
70
192
0
VERTEX
8
OBJECT__22
10
71.602997
20
13.075000
30
-92.731003
70
192
0
VERTEX
8
OBJECT__22
10
73.377998
20
6.743000
30
-96.578003
70
192
0
VERTEX
8
OBJECT__22
10
67.349998
20
6.785000
30
-41.369999
70
192
0
VERTEX
8
OBJECT__22
10
64.221001
20
6.772000
30
-39.330002
70
192
0
VERTEX
8
OBJECT__22
10
62.333000
20
13.159000
30
-36.852001
70
192
0
VERTEX
8
OBJECT__22
10
61.060001
20
18.969999
30
-33.056000
70
192
0
VERTEX
8
OBJECT__22
10
62.733002
20
18.848000
30
-35.798000
70
192
0
VERTEX
8
OBJECT__22
10
58.299000
20
13.308000
30
-35.737000
70
192
0
VERTEX
8
OBJECT__22
10
58.001999
20
19.150999
30
-31.511999
70
192
0
VERTEX
8
OBJECT__22
10
59.061001
20
6.819000
30
-38.360001
70
192
0
VERTEX
8
OBJECT__22
10
52.756001
20
13.488000
30
-35.354000
70
192
0
VERTEX
8
OBJECT__22
10
53.174000
20
19.417000
30
-30.695000
70
192
0
VERTEX
8
OBJECT__22
10
57.424999
20
23.785999
30
-25.459000
70
192
0
VERTEX
8
OBJECT__22
10
58.104000
20
23.496000
30
-26.341000
70
192
0
VERTEX
8
OBJECT__22
10
53.853001
20
24.200001
30
-24.454000
70
192
0
VERTEX
8
OBJECT__22
10
55.761002
20
24.117001
30
-24.504999
70
192
0
VERTEX
8
OBJECT__22
10
60.278000
20
22.176001
30
-29.877001
70
192
0
VERTEX
8
OBJECT__22
10
60.509998
20
21.990999
30
-30.336000
70
192
0
VERTEX
8
OBJECT__22
10
58.291000
20
23.416000
30
-26.584000
70
192
0
VERTEX
8
OBJECT__22
10
59.214001
20
23.023001
30
-27.781000
70
192
0
VERTEX
8
OBJECT__22
10
61.272999
20
21.384001
30
-31.839001
70
192
0
VERTEX
8
OBJECT__22
10
62.150002
20
20.569000
30
-34.506001
70
192
0
VERTEX
8
OBJECT__22
10
63.112999
20
19.646000
30
-39.883999
70
192
0
VERTEX
8
OBJECT__22
10
63.637001
20
19.309000
30
-43.195999
70
192
0
VERTEX
8
OBJECT__22
10
62.453999
20
20.283001
30
-35.706001
70
192
0
VERTEX
8
OBJECT__22
10
62.369999
20
20.363001
30
-35.178001
70
192
0
VERTEX
8
OBJECT__22
10
64.459999
20
18.781000
30
-48.389999
70
192
0
VERTEX
8
OBJECT__22
10
65.242996
20
18.277000
30
-53.339001
70
192
0
VERTEX
8
OBJECT__22
10
68.353996
20
17.031000
30
-74.779999
70
192
0
VERTEX
8
OBJECT__22
10
68.369003
20
17.030001
30
-74.931999
70
192
0
VERTEX
8
OBJECT__22
10
69.705002
20
15.679000
30
-76.771004
70
192
0
VERTEX
8
OBJECT__22
10
68.250000
20
17.040001
30
-73.719002
70
192
0
VERTEX
8
OBJECT__22
10
66.099998
20
17.795000
30
-58.884998
70
192
0
VERTEX
8
OBJECT__22
10
65.864998
20
17.877001
30
-57.268002
70
192
0
VERTEX
8
OBJECT__22
10
69.655998
20
17.035999
30
-90.041000
70
192
0
VERTEX
8
OBJECT__22
10
70.083000
20
16.545000
30
-94.117996
70
192
0
VERTEX
8
OBJECT__22
10
69.242996
20
16.954000
30
-83.833000
70
192
0
VERTEX
8
OBJECT__22
10
69.638000
20
17.056999
30
-89.869003
70
192
0
VERTEX
8
OBJECT__22
10
70.446999
20
15.572000
30
-96.758003
70
192
0
VERTEX
8
OBJECT__22
10
70.555000
20
15.284000
30
-97.540001
70
192
0
VERTEX
8
OBJECT__22
10
71.024002
20
13.072000
30
-100.607002
70
192
0
VERTEX
8
OBJECT__22
10
70.385002
20
15.739000
30
-96.306000
70
192
0
VERTEX
8
OBJECT__22
10
71.156998
20
11.931000
30
-101.553001
70
192
0
VERTEX
8
OBJECT__22
10
71.417000
20
9.685000
30
-103.417000
70
192
0
VERTEX
8
OBJECT__22
10
71.041000
20
12.925000
30
-100.728996
70
192
0
VERTEX
8
OBJECT__22
10
71.642998
20
6.348000
30
-105.190002
70
192
0
VERTEX
8
OBJECT__22
10
71.781998
20
2.384000
30
-106.168999
70
192
0
VERTEX
8
OBJECT__22
10
71.785004
20
0.005000
30
-106.191002
70
192
0
VERTEX
8
OBJECT__22
10
71.635002
20
-6.404000
30
-105.123001
70
192
0
VERTEX
8
OBJECT__22
10
71.623001
20
-6.597000
30
-105.027000
70
192
0
VERTEX
8
OBJECT__22
10
71.788002
20
-2.025000
30
-106.209000
70
192
0
VERTEX
8
OBJECT__22
10
71.658997
20
-6.015000
30
-105.316002
70
192
0
VERTEX
8
OBJECT__22
10
71.785004
20
-0.013000
30
-106.191002
70
192
0
VERTEX
8
OBJECT__22
10
71.099998
20
-12.567000
30
-101.112999
70
192
0
VERTEX
8
OBJECT__22
10
71.030998
20
-12.930000
30
-100.661003
70
192
0
VERTEX
8
OBJECT__22
10
71.166000
20
-11.950000
30
-101.591003
70
192
0
VERTEX
8
OBJECT__22
10
71.459000
20
-9.178000
30
-103.744003
70
192
0
VERTEX
8
OBJECT__22
10
70.447998
20
-15.531000
30
-96.748001
70
192
0
VERTEX
8
OBJECT__22
10
70.155998
20
-16.399000
30
-94.691002
70
192
0
VERTEX
8
OBJECT__22
10
69.691002
20
-17.034000
30
-90.473000
70
192
0
VERTEX
8
OBJECT__22
10
70.651001
20
-14.929000
30
-98.174004
70
192
0
VERTEX
8
OBJECT__22
10
69.661003
20
-17.028999
30
-90.056999
70
192
0
VERTEX
8
OBJECT__22
10
69.503998
20
-17.003000
30
-87.807999
70
192
0
VERTEX
8
OBJECT__22
10
68.943001
20
-16.907000
30
-79.774002
70
192
0
VERTEX
8
OBJECT__22
10
67.460999
20
-17.285000
30
-68.325996
70
192
0
VERTEX
8
OBJECT__22
10
66.065002
20
-17.893000
30
-58.910000
70
192
0
VERTEX
8
OBJECT__22
10
68.300003
20
-17.070999
30
-74.805000
70
192
0
VERTEX
8
OBJECT__22
10
68.314003
20
-17.068001
30
-74.917999
70
192
0
VERTEX
8
OBJECT__22
10
64.867996
20
-18.415001
30
-50.844002
70
192
0
VERTEX
8
OBJECT__22
10
64.333000
20
-18.797001
30
-47.424999
70
192
0
VERTEX
8
OBJECT__22
10
65.239998
20
-18.253000
30
-53.349998
70
192
0
VERTEX
8
OBJECT__22
10
63.672001
20
-19.268999
30
-43.203999
70
192
0
VERTEX
8
OBJECT__22
10
62.839001
20
-19.863001
30
-37.884998
70
192
0
VERTEX
8
OBJECT__22
10
62.417000
20
-20.318001
30
-35.735001
70
192
0
VERTEX
8
OBJECT__22
10
63.311001
20
-19.525999
30
-40.901001
70
192
0
VERTEX
8
OBJECT__22
10
62.171001
20
-20.584000
30
-34.479000
70
192
0
VERTEX
8
OBJECT__22
10
62.081001
20
-20.681000
30
-34.019001
70
192
0
VERTEX
8
OBJECT__22
10
60.516998
20
-22.121000
30
-30.225000
70
192
0
VERTEX
8
OBJECT__22
10
60.380001
20
-22.247000
30
-29.893000
70
192
0
VERTEX
8
OBJECT__22
10
58.375999
20
-23.445999
30
-26.565001
70
192
0
VERTEX
8
OBJECT__22
10
53.175999
20
-19.448000
30
-30.680000
70
192
0
VERTEX
8
OBJECT__22
10
55.770000
20
-24.139000
30
-24.587999
70
192
0
VERTEX
8
OBJECT__22
10
54.931000
20
-24.226999
30
-24.367001
70
192
0
VERTEX
8
OBJECT__22
10
58.123001
20
-23.598000
30
-26.143999
70
192
0
VERTEX
8
OBJECT__22
10
56.580002
20
-24.054001
30
-24.799999
70
192
0
VERTEX
8
OBJECT__22
10
58.155998
20
-23.577999
30
-26.198999
70
192
0
VERTEX
8
OBJECT__22
10
36.655998
20
-25.027000
30
-24.389000
70
192
0
VERTEX
8
OBJECT__22
10
34.466000
20
-25.118999
30
-24.406000
70
192
0
VERTEX
8
OBJECT__22
10
34.397999
20
-21.478001
30
-28.823999
70
192
0
VERTEX
8
OBJECT__22
10
34.397999
20
-20.054001
30
-30.153000
70
192
0
VERTEX
8
OBJECT__22
10
48.466999
20
-24.445000
30
-24.410000
70
192
0
VERTEX
8
OBJECT__22
10
53.862999
20
-24.263000
30
-24.374001
70
192
0
VERTEX
8
OBJECT__22
10
48.966000
20
-24.429001
30
-24.406000
70
192
0
VERTEX
8
OBJECT__22
10
34.397999
20
-17.472000
30
-32.562000
70
192
0
VERTEX
8
OBJECT__22
10
34.397999
20
-14.688000
30
-34.556000
70
192
0
VERTEX
8
OBJECT__22
10
34.397999
20
-10.272000
30
-36.873001
70
192
0
VERTEX
8
OBJECT__22
10
34.397999
20
-13.879000
30
-34.980999
70
192
0
VERTEX
8
OBJECT__22
10
34.397999
20
-6.214000
30
-38.200001
70
192
0
VERTEX
8
OBJECT__22
10
34.397999
20
-1.372000
30
-38.907001
70
192
0
VERTEX
8
OBJECT__22
10
34.397999
20
-7.090000
30
-37.914001
70
192
0
VERTEX
8
OBJECT__22
10
34.397999
20
3.014000
30
-38.770000
70
192
0
VERTEX
8
OBJECT__22
10
34.397999
20
-0.016000
30
-38.863998
70
192
0
VERTEX
8
OBJECT__22
10
34.397999
20
11.536000
30
-36.308998
70
192
0
VERTEX
8
OBJECT__22
10
34.397999
20
13.826000
30
-34.952999
70
192
0
VERTEX
8
OBJECT__22
10
34.397999
20
7.831000
30
-37.756001
70
192
0
VERTEX
8
OBJECT__22
10
34.397999
20
7.069000
30
-37.916000
70
192
0
VERTEX
8
OBJECT__22
10
34.397999
20
16.042999
30
-33.641998
70
192
0
VERTEX
8
OBJECT__22
10
34.397999
20
19.014999
30
-31.254999
70
192
0
VERTEX
8
OBJECT__22
10
48.978001
20
24.426001
30
-24.395000
70
192
0
VERTEX
8
OBJECT__22
10
51.845001
20
24.287001
30
-24.400999
70
192
0
VERTEX
8
OBJECT__22
10
52.192001
20
24.271999
30
-24.410000
70
192
0
VERTEX
8
OBJECT__22
10
34.397999
20
23.231001
30
-26.820000
70
192
0
VERTEX
8
OBJECT__22
10
34.397999
20
25.122000
30
-24.406000
70
192
0
VERTEX
8
OBJECT__22
10
35.039001
20
25.096001
30
-24.400999
70
192
0
VERTEX
8
OBJECT__22
10
45.858002
20
24.577000
30
-24.388000
70
192
0
VERTEX
8
OBJECT__22
10
34.397999
20
20.034000
30
-30.184000
70
192
0
VERTEX
8
OBJECT__22
10
34.397999
20
-25.122999
30
-24.405001
70
192
0
VERTEX
8
OBJECT__22
10
0
20
0
30
0
70
128
71
1
72
2
73
3
0
VERTEX
8
OBJECT__22
10
0
20
0
30
0
70
128
71
4
72
5
73
6
0
VERTEX
8
OBJECT__22
10
0
20
0
30
0
70
128
71
2
72
1
73
5
0
VERTEX
8
OBJECT__22
10
0
20
0
30
0
70
128
71
7
72
3
73
2
0
VERTEX
8
OBJECT__22
10
0
20
0
30
0
70
128
71
8
72
2
73
4
0
VERTEX
8
OBJECT__22
10
0
20
0
30
0
70
128
71
9
72
10
73
11
0
VERTEX
8
OBJECT__22
10
0
20
0
30
0
70
128
71
10
72
4
73
12
0
VERTEX
8
OBJECT__22
10
0
20
0
30
0
70
128
71
13
72
14
73
15
0
VERTEX
8
OBJECT__22
10
0
20
0
30
0
70
128
71
14
72
16
73
17
0
VERTEX
8
OBJECT__22
10
0
20
0
30
0
70
128
71
16
72
18
73
19
0
VERTEX
8
OBJECT__22
10
0
20
0
30
0
70
128
71
17
72
19
73
20
0
VERTEX
8
OBJECT__22
10
0
20
0
30
0
70
128
71
15
72
17
73
21
0
VERTEX
8
OBJECT__22
10
0
20
0
30
0
70
128
71
22
72
1
73
23
0
VERTEX
8
OBJECT__22
10
0
20
0
30
0
70
128
71
22
72
15
73
24
0
VERTEX
8
OBJECT__22
10
0
20
0
30
0
70
128
71
25
72
5
73
1
0
VERTEX
8
OBJECT__22
10
0
20
0
30
0
70
128
71
26
72
6
73
5
0
VERTEX
8
OBJECT__22
10
0
20
0
30
0
70
128
71
27
72
28
73
29
0
VERTEX
8
OBJECT__22
10
0
20
0
30
0
70
128
71
30
72
28
73
31
0
VERTEX
8
OBJECT__22
10
0
20
0
30
0
70
128
71
32
72
31
73
33
0
VERTEX
8
OBJECT__22
10
0
20
0
30
0
70
128
71
34
72
33
73
35
0
VERTEX
8
OBJECT__22
10
0
20
0
30
0
70
128
71
14
72
32
73
34
0
VERTEX
8
OBJECT__22
10
0
20
0
30
0
70
128
71
16
72
34
73
36
0
VERTEX
8
OBJECT__22
10
0
20
0
30
0
70
128
71
13
72
30
73
32
0
VERTEX
8
OBJECT__22
10
0
20
0
30
0
70
128
71
28
72
30
73
37
0
VERTEX
8
OBJECT__22
10
0
20
0
30
0
70
128
71
30
72
13
73
23
0
VERTEX
8
OBJECT__22
10
0
20
0
30
0
70
128
71
38
72
39
73
29
0
VERTEX
8
OBJECT__22
10
0
20
0
30
0
70
128
71
39
72
40
73
41
0
VERTEX
8
OBJECT__22
10
0
20
0
30
0
70
128
71
42
72
43
73
40
0
VERTEX
8
OBJECT__22
10
0
20
0
30
0
70
128
71
44
72
42
73
39
0
VERTEX
8
OBJECT__22
10
0
20
0
30
0
70
128
71
37
72
23
73
3
0
VERTEX
8
OBJECT__22
10
0
20
0
30
0
70
128
71
7
72
44
73
38
0
VERTEX
8
OBJECT__22
10
0
20
0
30
0
70
128
71
45
72
46
73
43
0
VERTEX
8
OBJECT__22
10
0
20
0
30
0
70
128
71
46
72
47
73
48
0
VERTEX
8
OBJECT__22
10
0
20
0
30
0
70
128
71
46
72
49
73
50
0
VERTEX
8
OBJECT__22
10
0
20
0
30
0
70
128
71
50
72
47
73
46
0
VERTEX
8
OBJECT__22
10
0
20
0
30
0
70
128
71
43
72
51
73
52
0
VERTEX
8
OBJECT__22
10
0
20
0
30
0
70
128
71
43
72
53
73
54
0
VERTEX
8
OBJECT__22
10
0
20
0
30
0
70
128
71
54
72
51
73
43
0
VERTEX
8
OBJECT__22
10
0
20
0
30
0
70
128
71
43
72
48
73
53
0
VERTEX
8
OBJECT__22
10
0
20
0
30
0
70
128
71
40
72
55
73
56
0
VERTEX
8
OBJECT__22
10
0
20
0
30
0
70
128
71
40
72
52
73
55
0
VERTEX
8
OBJECT__22
10
0
20
0
30
0
70
128
71
27
72
57
73
58
0
VERTEX
8
OBJECT__22
10
0
20
0
30
0
70
128
71
41
72
59
73
57
0
VERTEX
8
OBJECT__22
10
0
20
0
30
0
70
128
71
41
72
60
73
59
0
VERTEX
8
OBJECT__22
10
0
20
0
30
0
70
128
71
57
72
27
73
41
0
VERTEX
8
OBJECT__22
10
0
20
0
30
0
70
128
71
41
72
56
73
60
0
VERTEX
8
OBJECT__22
10
0
20
0
30
0
70
128
71
28
72
61
73
62
0
VERTEX
8
OBJECT__22
10
0
20
0
30
0
70
128
71
28
72
27
73
61
0
VERTEX
8
OBJECT__22
10
0
20
0
30
0
70
128
71
63
72
64
73
65
0
VERTEX
8
OBJECT__22
10
0
20
0
30
0
70
128
71
33
72
66
73
63
0
VERTEX
8
OBJECT__22
10
0
20
0
30
0
70
128
71
31
72
67
73
66
0
VERTEX
8
OBJECT__22
10
0
20
0
30
0
70
128
71
31
72
68
73
67
0
VERTEX
8
OBJECT__22
10
0
20
0
30
0
70
128
71
31
72
62
73
68
0
VERTEX
8
OBJECT__22
10
0
20
0
30
0
70
128
71
66
72
33
73
31
0
VERTEX
8
OBJECT__22
10
0
20
0
30
0
70
128
71
65
72
69
73
70
0
VERTEX
8
OBJECT__22
10
0
20
0
30
0
70
128
71
65
72
71
73
72
0
VERTEX
8
OBJECT__22
10
0
20
0
30
0
70
128
71
72
72
69
73
65
0
VERTEX
8
OBJECT__22
10
0
20
0
30
0
70
128
71
65
72
64
73
71
0
VERTEX
8
OBJECT__22
10
0
20
0
30
0
70
128
71
35
72
73
73
74
0
VERTEX
8
OBJECT__22
10
0
20
0
30
0
70
128
71
74
72
75
73
35
0
VERTEX
8
OBJECT__22
10
0
20
0
30
0
70
128
71
65
72
76
73
35
0
VERTEX
8
OBJECT__22
10
0
20
0
30
0
70
128
71
35
72
33
73
65
0
VERTEX
8
OBJECT__22
10
0
20
0
30
0
70
128
71
76
72
73
73
35
0
VERTEX
8
OBJECT__22
10
0
20
0
30
0
70
128
71
36
72
77
73
78
0
VERTEX
8
OBJECT__22
10
0
20
0
30
0
70
128
71
36
72
35
73
79
0
VERTEX
8
OBJECT__22
10
0
20
0
30
0
70
128
71
79
72
77
73
36
0
VERTEX
8
OBJECT__22
10
0
20
0
30
0
70
128
71
18
72
36
73
80
0
VERTEX
8
OBJECT__22
10
0
20
0
30
0
70
128
71
80
72
81
73
18
0
VERTEX
8
OBJECT__22
10
0
20
0
30
0
70
128
71
81
72
82
73
18
0
VERTEX
8
OBJECT__22
10
0
20
0
30
0
70
128
71
18
72
83
73
84
0
VERTEX
8
OBJECT__22
10
0
20
0
30
0
70
128
71
18
72
85
73
86
0
VERTEX
8
OBJECT__22
10
0
20
0
30
0
70
128
71
18
72
87
73
85
0
VERTEX
8
OBJECT__22
10
0
20
0
30
0
70
128
71
86
72
83
73
18
0
VERTEX
8
OBJECT__22
10
0
20
0
30
0
70
128
71
19
72
88
73
89
0
VERTEX
8
OBJECT__22
10
0
20
0
30
0
70
128
71
19
72
90
73
88
0
VERTEX
8
OBJECT__22
10
0
20
0
30
0
70
128
71
19
72
84
73
91
0
VERTEX
8
OBJECT__22
10
0
20
0
30
0
70
128
71
91
72
90
73
19
0
VERTEX
8
OBJECT__22
10
0
20
0
30
0
70
128
71
20
72
92
73
93
0
VERTEX
8
OBJECT__22
10
0
20
0
30
0
70
128
71
93
72
94
73
20
0
VERTEX
8
OBJECT__22
10
0
20
0
30
0
70
128
71
20
72
89
73
95
0
VERTEX
8
OBJECT__22
10
0
20
0
30
0
70
128
71
95
72
92
73
20
0
VERTEX
8
OBJECT__22
10
0
20
0
30
0
70
128
71
94
72
96
73
20
0
VERTEX
8
OBJECT__22
10
0
20
0
30
0
70
128
71
21
72
20
73
97
0
VERTEX
8
OBJECT__22
10
0
20
0
30
0
70
128
71
97
72
98
73
21
0
VERTEX
8
OBJECT__22
10
0
20
0
30
0
70
128
71
24
72
99
73
100
0
VERTEX
8
OBJECT__22
10
0
20
0
30
0
70
128
71
21
72
101
73
99
0
VERTEX
8
OBJECT__22
10
0
20
0
30
0
70
128
71
21
72
102
73
101
0
VERTEX
8
OBJECT__22
10
0
20
0
30
0
70
128
71
99
72
24
73
21
0
VERTEX
8
OBJECT__22
10
0
20
0
30
0
70
128
71
25
72
103
73
104
0
VERTEX
8
OBJECT__22
10
0
20
0
30
0
70
128
71
25
72
24
73
105
0
VERTEX
8
OBJECT__22
10
0
20
0
30
0
70
128
71
105
72
103
73
25
0
VERTEX
8
OBJECT__22
10
0
20
0
30
0
70
128
71
26
72
104
73
106
0
VERTEX
8
OBJECT__22
10
0
20
0
30
0
70
128
71
6
72
107
73
108
0
VERTEX
8
OBJECT__22
10
0
20
0
30
0
70
128
71
26
72
109
73
107
0
VERTEX
8
OBJECT__22
10
0
20
0
30
0
70
128
71
107
72
6
73
26
0
VERTEX
8
OBJECT__22
10
0
20
0
30
0
70
128
71
12
72
6
73
110
0
VERTEX
8
OBJECT__22
10
0
20
0
30
0
70
128
71
110
72
111
73
12
0
VERTEX
8
OBJECT__22
10
0
20
0
30
0
70
128
71
11
72
12
73
112
0
VERTEX
8
OBJECT__22
10
0
20
0
30
0
70
128
71
112
72
113
73
11
0
VERTEX
8
OBJECT__22
10
0
20
0
30
0
70
128
71
113
72
114
73
11
0
VERTEX
8
OBJECT__22
10
0
20
0
30
0
70
128
71
115
72
116
73
117
0
VERTEX
8
OBJECT__22
10
0
20
0
30
0
70
128
71
115
72
118
73
119
0
VERTEX
8
OBJECT__22
10
0
20
0
30
0
70
128
71
115
72
11
73
120
0
VERTEX
8
OBJECT__22
10
0
20
0
30
0
70
128
71
120
72
118
73
115
0
VERTEX
8
OBJECT__22
10
0
20
0
30
0
70
128
71
119
72
116
73
115
0
VERTEX
8
OBJECT__22
10
0
20
0
30
0
70
128
71
121
72
122
73
123
0
VERTEX
8
OBJECT__22
10
0
20
0
30
0
70
128
71
124
72
115
73
125
0
VERTEX
8
OBJECT__22
10
0
20
0
30
0
70
128
71
125
72
121
73
124
0
VERTEX
8
OBJECT__22
10
0
20
0
30
0
70
128
71
115
72
126
73
127
0
VERTEX
8
OBJECT__22
10
0
20
0
30
0
70
128
71
127
72
125
73
115
0
VERTEX
8
OBJECT__22
10
0
20
0
30
0
70
128
71
123
72
124
73
121
0
VERTEX
8
OBJECT__22
10
0
20
0
30
0
70
128
71
9
72
115
73
128
0
VERTEX
8
OBJECT__22
10
0
20
0
30
0
70
128
71
115
72
124
73
128
0
VERTEX
8
OBJECT__22
10
0
20
0
30
0
70
128
71
128
72
129
73
9
0
VERTEX
8
OBJECT__22
10
0
20
0
30
0
70
128
71
8
72
10
73
130
0
VERTEX
8
OBJECT__22
10
0
20
0
30
0
70
128
71
130
72
10
73
9
0
VERTEX
8
OBJECT__22
10
0
20
0
30
0
70
128
71
9
72
131
73
130
0
VERTEX
8
OBJECT__22
10
0
20
0
30
0
70
128
71
8
72
132
73
133
0
VERTEX
8
OBJECT__22
10
0
20
0
30
0
70
128
71
8
72
134
73
132
0
VERTEX
8
OBJECT__22
10
0
20
0
30
0
70
128
71
133
72
7
73
8
0
VERTEX
8
OBJECT__22
10
0
20
0
30
0
70
128
71
44
72
7
73
135
0
VERTEX
8
OBJECT__22
10
0
20
0
30
0
70
128
71
7
72
136
73
135
0
VERTEX
8
OBJECT__22
10
0
20
0
30
0
70
128
71
137
72
138
73
45
0
VERTEX
8
OBJECT__22
10
0
20
0
30
0
70
128
71
44
72
139
73
137
0
VERTEX
8
OBJECT__22
10
0
20
0
30
0
70
128
71
137
72
42
73
44
0
VERTEX
8
OBJECT__22
10
0
20
0
30
0
70
128
71
44
72
140
73
139
0
VERTEX
8
OBJECT__22
10
0
20
0
30
0
70
128
71
46
72
45
73
141
0
VERTEX
8
OBJECT__22
10
0
20
0
30
0
70
128
71
141
72
142
73
46
0
VERTEX
8
OBJECT__22
10
0
20
0
30
0
70
128
71
45
72
138
73
141
0
VERTEX
8
OBJECT__22
10
0
20
0
30
0
70
128
71
46
72
143
73
144
0
VERTEX
8
OBJECT__22
10
0
20
0
30
0
70
128
71
144
72
145
73
46
0
VERTEX
8
OBJECT__22
10
0
20
0
30
0
70
128
71
146
72
147
73
148
0
VERTEX
8
OBJECT__22
10
0
20
0
30
0
70
128
71
148
72
149
73
146
0
VERTEX
8
OBJECT__22
10
0
20
0
30
0
70
128
71
150
72
146
73
143
0
VERTEX
8
OBJECT__22
10
0
20
0
30
0
70
128
71
143
72
46
73
150
0
VERTEX
8
OBJECT__22
10
0
20
0
30
0
70
128
71
149
72
143
73
146
0
VERTEX
8
OBJECT__22
10
0
20
0
30
0
70
128
71
145
72
49
73
46
0
VERTEX
8
OBJECT__22
10
0
20
0
30
0
70
128
71
142
72
150
73
46
0
VERTEX
8
OBJECT__22
10
0
20
0
30
0
70
128
71
45
72
42
73
137
0
VERTEX
8
OBJECT__22
10
0
20
0
30
0
70
128
71
135
72
140
73
44
0
VERTEX
8
OBJECT__22
10
0
20
0
30
0
70
128
71
133
72
136
73
7
0
VERTEX
8
OBJECT__22
10
0
20
0
30
0
70
128
71
130
72
134
73
8
0
VERTEX
8
OBJECT__22
10
0
20
0
30
0
70
128
71
129
72
131
73
9
0
VERTEX
8
OBJECT__22
10
0
20
0
30
0
70
128
71
122
72
151
73
123
0
VERTEX
8
OBJECT__22
10
0
20
0
30
0
70
128
71
117
72
126
73
115
0
VERTEX
8
OBJECT__22
10
0
20
0
30
0
70
128
71
114
72
120
73
11
0
VERTEX
8
OBJECT__22
10
0
20
0
30
0
70
128
71
111
72
112
73
12
0
VERTEX
8
OBJECT__22
10
0
20
0
30
0
70
128
71
108
72
110
73
6
0
VERTEX
8
OBJECT__22
10
0
20
0
30
0
70
128
71
106
72
109
73
26
0
VERTEX
8
OBJECT__22
10
0
20
0
30
0
70
128
71
104
72
26
73
25
0
VERTEX
8
OBJECT__22
10
0
20
0
30
0
70
128
71
100
72
105
73
24
0
VERTEX
8
OBJECT__22
10
0
20
0
30
0
70
128
71
98
72
102
73
21
0
VERTEX
8
OBJECT__22
10
0
20
0
30
0
70
128
71
96
72
97
73
20
0
VERTEX
8
OBJECT__22
10
0
20
0
30
0
70
128
71
89
72
20
73
19
0
VERTEX
8
OBJECT__22
10
0
20
0
30
0
70
128
71
84
72
19
73
18
0
VERTEX
8
OBJECT__22
10
0
20
0
30
0
70
128
71
82
72
87
73
18
0
VERTEX
8
OBJECT__22
10
0
20
0
30
0
70
128
71
78
72
80
73
36
0
VERTEX
8
OBJECT__22
10
0
20
0
30
0
70
128
71
75
72
79
73
35
0
VERTEX
8
OBJECT__22
10
0
20
0
30
0
70
128
71
70
72
76
73
65
0
VERTEX
8
OBJECT__22
10
0
20
0
30
0
70
128
71
65
72
33
73
63
0
VERTEX
8
OBJECT__22
10
0
20
0
30
0
70
128
71
62
72
31
73
28
0
VERTEX
8
OBJECT__22
10
0
20
0
30
0
70
128
71
58
72
61
73
27
0
VERTEX
8
OBJECT__22
10
0
20
0
30
0
70
128
71
56
72
41
73
40
0
VERTEX
8
OBJECT__22
10
0
20
0
30
0
70
128
71
52
72
40
73
43
0
VERTEX
8
OBJECT__22
10
0
20
0
30
0
70
128
71
48
72
43
73
46
0
VERTEX
8
OBJECT__22
10
0
20
0
30
0
70
128
71
43
72
42
73
45
0
VERTEX
8
OBJECT__22
10
0
20
0
30
0
70
128
71
38
72
3
73
7
0
VERTEX
8
OBJECT__22
10
0
20
0
30
0
70
128
71
3
72
38
73
37
0
VERTEX
8
OBJECT__22
10
0
20
0
30
0
70
128
71
39
72
38
73
44
0
VERTEX
8
OBJECT__22
10
0
20
0
30
0
70
128
71
40
72
39
73
42
0
VERTEX
8
OBJECT__22
10
0
20
0
30
0
70
128
71
41
72
29
73
39
0
VERTEX
8
OBJECT__22
10
0
20
0
30
0
70
128
71
29
72
37
73
38
0
VERTEX
8
OBJECT__22
10
0
20
0
30
0
70
128
71
23
72
37
73
30
0
VERTEX
8
OBJECT__22
10
0
20
0
30
0
70
128
71
37
72
29
73
28
0
VERTEX
8
OBJECT__22
10
0
20
0
30
0
70
128
71
32
72
14
73
13
0
VERTEX
8
OBJECT__22
10
0
20
0
30
0
70
128
71
36
72
18
73
16
0
VERTEX
8
OBJECT__22
10
0
20
0
30
0
70
128
71
34
72
16
73
14
0
VERTEX
8
OBJECT__22
10
0
20
0
30
0
70
128
71
35
72
36
73
34
0
VERTEX
8
OBJECT__22
10
0
20
0
30
0
70
128
71
33
72
34
73
32
0
VERTEX
8
OBJECT__22
10
0
20
0
30
0
70
128
71
31
72
32
73
30
0
VERTEX
8
OBJECT__22
10
0
20
0
30
0
70
128
71
29
72
41
73
27
0
VERTEX
8
OBJECT__22
10
0
20
0
30
0
70
128
71
5
72
25
73
26
0
VERTEX
8
OBJECT__22
10
0
20
0
30
0
70
128
71
1
72
22
73
25
0
VERTEX
8
OBJECT__22
10
0
20
0
30
0
70
128
71
24
72
25
73
22
0
VERTEX
8
OBJECT__22
10
0
20
0
30
0
70
128
71
23
72
13
73
22
0
VERTEX
8
OBJECT__22
10
0
20
0
30
0
70
128
71
21
72
24
73
15
0
VERTEX
8
OBJECT__22
10
0
20
0
30
0
70
128
71
20
72
21
73
17
0
VERTEX
8
OBJECT__22
10
0
20
0
30
0
70
128
71
19
72
17
73
16
0
VERTEX
8
OBJECT__22
10
0
20
0
30
0
70
128
71
17
72
15
73
14
0
VERTEX
8
OBJECT__22
10
0
20
0
30
0
70
128
71
15
72
22
73
13
0
VERTEX
8
OBJECT__22
10
0
20
0
30
0
70
128
71
12
72
11
73
10
0
VERTEX
8
OBJECT__22
10
0
20
0
30
0
70
128
71
11
72
115
73
9
0
VERTEX
8
OBJECT__22
10
0
20
0
30
0
70
128
71
4
72
10
73
8
0
VERTEX
8
OBJECT__22
10
0
20
0
30
0
70
128
71
2
72
8
73
7
0
VERTEX
8
OBJECT__22
10
0
20
0
30
0
70
128
71
5
72
4
73
2
0
VERTEX
8
OBJECT__22
10
0
20
0
30
0
70
128
71
6
72
12
73
4
0
VERTEX
8
OBJECT__22
10
0
20
0
30
0
70
128
71
3
72
23
73
1
0
SEQEND
8
OBJECT__22
0
POLYLINE
8
OBJECT__23
66
1
70
64
71
27
72
27
62
253
0
VERTEX
8
OBJECT__23
10
6.487000
20
23.150000
30
-24.150000
70
192
0
VERTEX
8
OBJECT__23
10
6.487000
20
26.145000
30
-12.000000
70
192
0
VERTEX
8
OBJECT__23
10
32.400002
20
25.919001
30
-12.000000
70
192
0
VERTEX
8
OBJECT__23
10
6.487000
20
14.852000
30
-33.516998
70
192
0
VERTEX
8
OBJECT__23
10
32.400002
20
22.950001
30
-24.045000
70
192
0
VERTEX
8
OBJECT__23
10
6.487000
20
3.151000
30
-37.953999
70
192
0
VERTEX
8
OBJECT__23
10
32.400002
20
14.724000
30
-33.331001
70
192
0
VERTEX
8
OBJECT__23
10
6.487000
20
-9.271000
30
-36.445999
70
192
0
VERTEX
8
OBJECT__23
10
32.400002
20
3.124000
30
-37.730000
70
192
0
VERTEX
8
OBJECT__23
10
6.487000
20
-19.570000
30
-29.337000
70
192
0
VERTEX
8
OBJECT__23
10
32.400002
20
-9.191000
30
-36.235001
70
192
0
VERTEX
8
OBJECT__23
10
6.487000
20
-25.385000
30
-18.257000
70
192
0
VERTEX
8
OBJECT__23
10
32.400002
20
-19.400999
30
-29.187000
70
192
0
VERTEX
8
OBJECT__23
10
32.400002
20
-25.166000
30
-18.202999
70
192
0
VERTEX
8
OBJECT__23
10
32.400002
20
-25.166000
30
-5.797000
70
192
0
VERTEX
8
OBJECT__23
10
6.487000
20
-26.145000
30
-12.000000
70
192
0
VERTEX
8
OBJECT__23
10
6.487000
20
-25.385000
30
-5.743000
70
192
0
VERTEX
8
OBJECT__23
10
32.400002
20
-19.400999
30
5.187000
70
192
0
VERTEX
8
OBJECT__23
10
6.487000
20
-19.570000
30
5.337000
70
192
0
VERTEX
8
OBJECT__23
10
32.400002
20
-9.191000
30
12.235000
70
192
0
VERTEX
8
OBJECT__23
10
6.487000
20
-9.271000
30
12.446000
70
192
0
VERTEX
8
OBJECT__23
10
32.400002
20
3.124000
30
13.730000
70
192
0
VERTEX
8
OBJECT__23
10
6.487000
20
3.151000
30
13.954000
70
192
0
VERTEX
8
OBJECT__23
10
32.400002
20
14.724000
30
9.331000
70
192
0
VERTEX
8
OBJECT__23
10
6.487000
20
14.852000
30
9.517000
70
192
0
VERTEX
8
OBJECT__23
10
32.400002
20
22.950001
30
0.045000
70
192
0
VERTEX
8
OBJECT__23
10
6.487000
20
23.150000
30
0.150000
70
192
0
VERTEX
8
OBJECT__23
10
0
20
0
30
0
70
128
71
1
72
2
73
3
0
VERTEX
8
OBJECT__23
10
0
20
0
30
0
70
128
71
4
72
1
73
5
0
VERTEX
8
OBJECT__23
10
0
20
0
30
0
70
128
71
6
72
4
73
7
0
VERTEX
8
OBJECT__23
10
0
20
0
30
0
70
128
71
8
72
6
73
9
0
VERTEX
8
OBJECT__23
10
0
20
0
30
0
70
128
71
10
72
8
73
11
0
VERTEX
8
OBJECT__23
10
0
20
0
30
0
70
128
71
12
72
10
73
13
0
VERTEX
8
OBJECT__23
10
0
20
0
30
0
70
128
71
14
72
15
73
16
0
VERTEX
8
OBJECT__23
10
0
20
0
30
0
70
128
71
15
72
17
73
16
0
VERTEX
8
OBJECT__23
10
0
20
0
30
0
70
128
71
17
72
15
73
18
0
VERTEX
8
OBJECT__23
10
0
20
0
30
0
70
128
71
19
72
18
73
20
0
VERTEX
8
OBJECT__23
10
0
20
0
30
0
70
128
71
21
72
20
73
22
0
VERTEX
8
OBJECT__23
10
0
20
0
30
0
70
128
71
23
72
22
73
24
0
VERTEX
8
OBJECT__23
10
0
20
0
30
0
70
128
71
25
72
24
73
26
0
VERTEX
8
OBJECT__23
10
0
20
0
30
0
70
128
71
2
72
27
73
26
0
VERTEX
8
OBJECT__23
10
0
20
0
30
0
70
128
71
26
72
3
73
2
0
VERTEX
8
OBJECT__23
10
0
20
0
30
0
70
128
71
26
72
27
73
25
0
VERTEX
8
OBJECT__23
10
0
20
0
30
0
70
128
71
24
72
25
73
23
0
VERTEX
8
OBJECT__23
10
0
20
0
30
0
70
128
71
22
72
23
73
21
0
VERTEX
8
OBJECT__23
10
0
20
0
30
0
70
128
71
20
72
21
73
19
0
VERTEX
8
OBJECT__23
10
0
20
0
30
0
70
128
71
18
72
19
73
17
0
VERTEX
8
OBJECT__23
10
0
20
0
30
0
70
128
71
16
72
12
73
14
0
VERTEX
8
OBJECT__23
10
0
20
0
30
0
70
128
71
13
72
14
73
12
0
VERTEX
8
OBJECT__23
10
0
20
0
30
0
70
128
71
11
72
13
73
10
0
VERTEX
8
OBJECT__23
10
0
20
0
30
0
70
128
71
9
72
11
73
8
0
VERTEX
8
OBJECT__23
10
0
20
0
30
0
70
128
71
7
72
9
73
6
0
VERTEX
8
OBJECT__23
10
0
20
0
30
0
70
128
71
5
72
7
73
4
0
VERTEX
8
OBJECT__23
10
0
20
0
30
0
70
128
71
3
72
5
73
1
0
SEQEND
8
OBJECT__23
0
POLYLINE
8
OBJECT__24
66
1
70
64
71
31
72
31
62
253
0
VERTEX
8
OBJECT__24
10
32.400002
20
-19.400999
30
5.187000
70
192
0
VERTEX
8
OBJECT__24
10
32.400002
20
-19.167999
30
4.084000
70
192
0
VERTEX
8
OBJECT__24
10
32.400002
20
-12.511000
30
9.669000
70
192
0
VERTEX
8
OBJECT__24
10
32.400002
20
-25.166000
30
-5.797000
70
192
0
VERTEX
8
OBJECT__24
10
32.400002
20
-23.513000
30
-3.442000
70
192
0
VERTEX
8
OBJECT__24
10
32.400002
20
14.724000
30
9.331000
70
192
0
VERTEX
8
OBJECT__24
10
32.400002
20
12.511000
30
9.669000
70
192
0
VERTEX
8
OBJECT__24
10
32.400002
20
19.167999
30
4.084000
70
192
0
VERTEX
8
OBJECT__24
10
32.400002
20
3.124000
30
13.730000
70
192
0
VERTEX
8
OBJECT__24
10
32.400002
20
4.345000
30
12.641000
70
192
0
VERTEX
8
OBJECT__24
10
32.400002
20
-9.191000
30
12.235000
70
192
0
VERTEX
8
OBJECT__24
10
32.400002
20
-4.345000
30
12.641000
70
192
0
VERTEX
8
OBJECT__24
10
32.400002
20
-25.166000
30
-18.202999
70
192
0
VERTEX
8
OBJECT__24
10
32.400002
20
-23.513000
30
-20.558001
70
192
0
VERTEX
8
OBJECT__24
10
32.400002
20
-25.021999
30
-12.000000
70
192
0
VERTEX
8
OBJECT__24
10
32.400002
20
-19.400999
30
-29.187000
70
192
0
VERTEX
8
OBJECT__24
10
32.400002
20
-19.167999
30
-28.084000
70
192
0
VERTEX
8
OBJECT__24
10
32.400002
20
3.124000
30
-37.730000
70
192
0
VERTEX
8
OBJECT__24
10
32.400002
20
4.345000
30
-36.640999
70
192
0
VERTEX
8
OBJECT__24
10
32.400002
20
-4.345000
30
-36.640999
70
192
0
VERTEX
8
OBJECT__24
10
32.400002
20
-9.191000
30
-36.235001
70
192
0
VERTEX
8
OBJECT__24
10
32.400002
20
-12.511000
30
-33.668999
70
192
0
VERTEX
8
OBJECT__24
10
32.400002
20
14.724000
30
-33.331001
70
192
0
VERTEX
8
OBJECT__24
10
32.400002
20
12.511000
30
-33.668999
70
192
0
VERTEX
8
OBJECT__24
10
32.400002
20
22.950001
30
0.045000
70
192
0
VERTEX
8
OBJECT__24
10
32.400002
20
22.950001
30
-24.045000
70
192
0
VERTEX
8
OBJECT__24
10
32.400002
20
19.167999
30
-28.084000
70
192
0
VERTEX
8
OBJECT__24
10
32.400002
20
23.513000
30
-3.442000
70
192
0
VERTEX
8
OBJECT__24
10
32.400002
20
23.513000
30
-20.558001
70
192
0
VERTEX
8
OBJECT__24
10
32.400002
20
25.919001
30
-12.000000
70
192
0
VERTEX
8
OBJECT__24
10
32.400002
20
25.021999
30
-12.000000
70
192
0
VERTEX
8
OBJECT__24
10
0
20
0
30
0
70
128
71
1
72
2
73
3
0
VERTEX
8
OBJECT__24
10
0
20
0
30
0
70
128
71
1
72
4
73
5
0
VERTEX
8
OBJECT__24
10
0
20
0
30
0
70
128
71
6
72
7
73
8
0
VERTEX
8
OBJECT__24
10
0
20
0
30
0
70
128
71
9
72
10
73
7
0
VERTEX
8
OBJECT__24
10
0
20
0
30
0
70
128
71
9
72
11
73
12
0
VERTEX
8
OBJECT__24
10
0
20
0
30
0
70
128
71
5
72
2
73
1
0
VERTEX
8
OBJECT__24
10
0
20
0
30
0
70
128
71
13
72
14
73
15
0
VERTEX
8
OBJECT__24
10
0
20
0
30
0
70
128
71
16
72
17
73
14
0
VERTEX
8
OBJECT__24
10
0
20
0
30
0
70
128
71
7
72
6
73
9
0
VERTEX
8
OBJECT__24
10
0
20
0
30
0
70
128
71
11
72
3
73
12
0
VERTEX
8
OBJECT__24
10
0
20
0
30
0
70
128
71
4
72
15
73
5
0
VERTEX
8
OBJECT__24
10
0
20
0
30
0
70
128
71
14
72
13
73
16
0
VERTEX
8
OBJECT__24
10
0
20
0
30
0
70
128
71
18
72
19
73
20
0
VERTEX
8
OBJECT__24
10
0
20
0
30
0
70
128
71
12
72
10
73
9
0
VERTEX
8
OBJECT__24
10
0
20
0
30
0
70
128
71
15
72
4
73
13
0
VERTEX
8
OBJECT__24
10
0
20
0
30
0
70
128
71
16
72
21
73
22
0
VERTEX
8
OBJECT__24
10
0
20
0
30
0
70
128
71
20
72
21
73
18
0
VERTEX
8
OBJECT__24
10
0
20
0
30
0
70
128
71
18
72
23
73
24
0
VERTEX
8
OBJECT__24
10
0
20
0
30
0
70
128
71
8
72
25
73
6
0
VERTEX
8
OBJECT__24
10
0
20
0
30
0
70
128
71
22
72
17
73
16
0
VERTEX
8
OBJECT__24
10
0
20
0
30
0
70
128
71
24
72
19
73
18
0
VERTEX
8
OBJECT__24
10
0
20
0
30
0
70
128
71
23
72
26
73
27
0
VERTEX
8
OBJECT__24
10
0
20
0
30
0
70
128
71
8
72
28
73
25
0
VERTEX
8
OBJECT__24
10
0
20
0
30
0
70
128
71
20
72
22
73
21
0
VERTEX
8
OBJECT__24
10
0
20
0
30
0
70
128
71
26
72
29
73
27
0
VERTEX
8
OBJECT__24
10
0
20
0
30
0
70
128
71
30
72
31
73
29
0
VERTEX
8
OBJECT__24
10
0
20
0
30
0
70
128
71
3
72
11
73
1
0
VERTEX
8
OBJECT__24
10
0
20
0
30
0
70
128
71
29
72
26
73
30
0
VERTEX
8
OBJECT__24
10
0
20
0
30
0
70
128
71
27
72
24
73
23
0
VERTEX
8
OBJECT__24
10
0
20
0
30
0
70
128
71
28
72
31
73
25
0
VERTEX
8
OBJECT__24
10
0
20
0
30
0
70
128
71
31
72
30
73
25
0
SEQEND
8
OBJECT__24
0
POLYLINE
8
OBJECT__26
66
1
70
64
71
54
72
72
62
253
0
VERTEX
8
OBJECT__26
10
39.973999
20
19.844999
30
-19.223000
70
192
0
VERTEX
8
OBJECT__26
10
39.973999
20
21.118999
30
-12.000000
70
192
0
VERTEX
8
OBJECT__26
10
45.903000
20
15.000000
30
-12.000000
70
192
0
VERTEX
8
OBJECT__26
10
39.973999
20
16.177999
30
-25.575001
70
192
0
VERTEX
8
OBJECT__26
10
45.903000
20
14.095000
30
-17.129999
70
192
0
VERTEX
8
OBJECT__26
10
45.903000
20
11.491000
30
-21.642000
70
192
0
VERTEX
8
OBJECT__26
10
45.903000
20
7.500000
30
-24.990000
70
192
0
VERTEX
8
OBJECT__26
10
39.973999
20
3.667000
30
-32.798000
70
192
0
VERTEX
8
OBJECT__26
10
39.973999
20
10.560000
30
-30.290001
70
192
0
VERTEX
8
OBJECT__26
10
39.973999
20
-3.667000
30
-32.798000
70
192
0
VERTEX
8
OBJECT__26
10
45.903000
20
2.605000
30
-26.771999
70
192
0
VERTEX
8
OBJECT__26
10
39.973999
20
-10.560000
30
-30.290001
70
192
0
VERTEX
8
OBJECT__26
10
45.903000
20
-2.605000
30
-26.771999
70
192
0
VERTEX
8
OBJECT__26
10
45.903000
20
-7.500000
30
-24.990000
70
192
0
VERTEX
8
OBJECT__26
10
45.903000
20
-11.491000
30
-21.642000
70
192
0
VERTEX
8
OBJECT__26
10
39.973999
20
-16.177999
30
-25.575001
70
192
0
VERTEX
8
OBJECT__26
10
45.903000
20
-14.095000
30
-17.129999
70
192
0
VERTEX
8
OBJECT__26
10
39.973999
20
-21.118999
30
-12.000000
70
192
0
VERTEX
8
OBJECT__26
10
39.973999
20
-19.844999
30
-19.223000
70
192
0
VERTEX
8
OBJECT__26
10
39.973999
20
-19.844999
30
-4.777000
70
192
0
VERTEX
8
OBJECT__26
10
45.903000
20
-15.000000
30
-12.000000
70
192
0
VERTEX
8
OBJECT__26
10
45.903000
20
-14.095000
30
-6.870000
70
192
0
VERTEX
8
OBJECT__26
10
45.903000
20
-11.491000
30
-2.358000
70
192
0
VERTEX
8
OBJECT__26
10
39.973999
20
-16.177999
30
1.575000
70
192
0
VERTEX
8
OBJECT__26
10
45.903000
20
-7.500000
30
0.990000
70
192
0
VERTEX
8
OBJECT__26
10
39.973999
20
-3.667000
30
8.798000
70
192
0
VERTEX
8
OBJECT__26
10
39.973999
20
-10.560000
30
6.290000
70
192
0
VERTEX
8
OBJECT__26
10
45.903000
20
-2.605000
30
2.772000
70
192
0
VERTEX
8
OBJECT__26
10
45.903000
20
2.605000
30
2.772000
70
192
0
VERTEX
8
OBJECT__26
10
39.973999
20
3.667000
30
8.798000
70
192
0
VERTEX
8
OBJECT__26
10
45.903000
20
7.500000
30
0.990000
70
192
0
VERTEX
8
OBJECT__26
10
39.973999
20
10.560000
30
6.290000
70
192
0
VERTEX
8
OBJECT__26
10
45.903000
20
11.491000
30
-2.358000
70
192
0
VERTEX
8
OBJECT__26
10
39.973999
20
16.177999
30
1.575000
70
192
0
VERTEX
8
OBJECT__26
10
45.903000
20
14.095000
30
-6.870000
70
192
0
VERTEX
8
OBJECT__26
10
39.973999
20
19.844999
30
-4.777000
70
192
0
VERTEX
8
OBJECT__26
10
32.400002
20
25.021999
30
-12.000000
70
192
0
VERTEX
8
OBJECT__26
10
32.400002
20
23.513000
30
-20.558001
70
192
0
VERTEX
8
OBJECT__26
10
32.400002
20
12.511000
30
-33.668999
70
192
0
VERTEX
8
OBJECT__26
10
32.400002
20
19.167999
30
-28.084000
70
192
0
VERTEX
8
OBJECT__26
10
32.400002
20
4.345000
30
-36.640999
70
192
0
VERTEX
8
OBJECT__26
10
32.400002
20
-4.345000
30
-36.640999
70
192
0
VERTEX
8
OBJECT__26
10
32.400002
20
-12.511000
30
-33.668999
70
192
0
VERTEX
8
OBJECT__26
10
32.400002
20
-19.167999
30
-28.084000
70
192
0
VERTEX
8
OBJECT__26
10
32.400002
20
-25.021999
30
-12.000000
70
192
0
VERTEX
8
OBJECT__26
10
32.400002
20
-23.513000
30
-20.558001
70
192
0
VERTEX
8
OBJECT__26
10
32.400002
20
-23.513000
30
-3.442000
70
192
0
VERTEX
8
OBJECT__26
10
32.400002
20
-19.167999
30
4.084000
70
192
0
VERTEX
8
OBJECT__26
10
32.400002
20
-12.511000
30
9.669000
70
192
0
VERTEX
8
OBJECT__26
10
32.400002
20
-4.345000
30
12.641000
70
192
0
VERTEX
8
OBJECT__26
10
32.400002
20
4.345000
30
12.641000
70
192
0
VERTEX
8
OBJECT__26
10
32.400002
20
19.167999
30
4.084000
70
192
0
VERTEX
8
OBJECT__26
10
32.400002
20
12.511000
30
9.669000
70
192
0
VERTEX
8
OBJECT__26
10
32.400002
20
23.513000
30
-3.442000
70
192
0
VERTEX
8
OBJECT__26
10
0
20
0
30
0
70
128
71
1
72
2
73
3
0
VERTEX
8
OBJECT__26
10
0
20
0
30
0
70
128
71
4
72
1
73
5
0
VERTEX
8
OBJECT__26
10
0
20
0
30
0
70
128
71
4
72
6
73
7
0
VERTEX
8
OBJECT__26
10
0
20
0
30
0
70
128
71
8
72
9
73
7
0
VERTEX
8
OBJECT__26
10
0
20
0
30
0
70
128
71
10
72
8
73
11
0
VERTEX
8
OBJECT__26
10
0
20
0
30
0
70
128
71
12
72
10
73
13
0
VERTEX
8
OBJECT__26
10
0
20
0
30
0
70
128
71
12
72
14
73
15
0
VERTEX
8
OBJECT__26
10
0
20
0
30
0
70
128
71
16
72
15
73
17
0
VERTEX
8
OBJECT__26
10
0
20
0
30
0
70
128
71
18
72
19
73
17
0
VERTEX
8
OBJECT__26
10
0
20
0
30
0
70
128
71
20
72
18
73
21
0
VERTEX
8
OBJECT__26
10
0
20
0
30
0
70
128
71
20
72
22
73
23
0
VERTEX
8
OBJECT__26
10
0
20
0
30
0
70
128
71
24
72
23
73
25
0
VERTEX
8
OBJECT__26
10
0
20
0
30
0
70
128
71
26
72
27
73
25
0
VERTEX
8
OBJECT__26
10
0
20
0
30
0
70
128
71
26
72
28
73
29
0
VERTEX
8
OBJECT__26
10
0
20
0
30
0
70
128
71
30
72
29
73
31
0
VERTEX
8
OBJECT__26
10
0
20
0
30
0
70
128
71
32
72
31
73
33
0
VERTEX
8
OBJECT__26
10
0
20
0
30
0
70
128
71
34
72
33
73
35
0
VERTEX
8
OBJECT__26
10
0
20
0
30
0
70
128
71
2
72
36
73
35
0
VERTEX
8
OBJECT__26
10
0
20
0
30
0
70
128
71
37
72
2
73
1
0
VERTEX
8
OBJECT__26
10
0
20
0
30
0
70
128
71
38
72
1
73
4
0
VERTEX
8
OBJECT__26
10
0
20
0
30
0
70
128
71
39
72
40
73
4
0
VERTEX
8
OBJECT__26
10
0
20
0
30
0
70
128
71
41
72
39
73
9
0
VERTEX
8
OBJECT__26
10
0
20
0
30
0
70
128
71
42
72
41
73
8
0
VERTEX
8
OBJECT__26
10
0
20
0
30
0
70
128
71
43
72
42
73
10
0
VERTEX
8
OBJECT__26
10
0
20
0
30
0
70
128
71
44
72
43
73
12
0
VERTEX
8
OBJECT__26
10
0
20
0
30
0
70
128
71
44
72
16
73
19
0
VERTEX
8
OBJECT__26
10
0
20
0
30
0
70
128
71
45
72
46
73
19
0
VERTEX
8
OBJECT__26
10
0
20
0
30
0
70
128
71
47
72
45
73
18
0
VERTEX
8
OBJECT__26
10
0
20
0
30
0
70
128
71
48
72
47
73
20
0
VERTEX
8
OBJECT__26
10
0
20
0
30
0
70
128
71
49
72
48
73
24
0
VERTEX
8
OBJECT__26
10
0
20
0
30
0
70
128
71
49
72
27
73
26
0
VERTEX
8
OBJECT__26
10
0
20
0
30
0
70
128
71
50
72
26
73
30
0
VERTEX
8
OBJECT__26
10
0
20
0
30
0
70
128
71
51
72
30
73
32
0
VERTEX
8
OBJECT__26
10
0
20
0
30
0
70
128
71
52
72
53
73
32
0
VERTEX
8
OBJECT__26
10
0
20
0
30
0
70
128
71
52
72
34
73
36
0
VERTEX
8
OBJECT__26
10
0
20
0
30
0
70
128
71
37
72
54
73
36
0
VERTEX
8
OBJECT__26
10
0
20
0
30
0
70
128
71
36
72
2
73
37
0
VERTEX
8
OBJECT__26
10
0
20
0
30
0
70
128
71
36
72
54
73
52
0
VERTEX
8
OBJECT__26
10
0
20
0
30
0
70
128
71
32
72
34
73
52
0
VERTEX
8
OBJECT__26
10
0
20
0
30
0
70
128
71
32
72
53
73
51
0
VERTEX
8
OBJECT__26
10
0
20
0
30
0
70
128
71
30
72
51
73
50
0
VERTEX
8
OBJECT__26
10
0
20
0
30
0
70
128
71
26
72
50
73
49
0
VERTEX
8
OBJECT__26
10
0
20
0
30
0
70
128
71
24
72
27
73
49
0
VERTEX
8
OBJECT__26
10
0
20
0
30
0
70
128
71
20
72
24
73
48
0
VERTEX
8
OBJECT__26
10
0
20
0
30
0
70
128
71
18
72
20
73
47
0
VERTEX
8
OBJECT__26
10
0
20
0
30
0
70
128
71
19
72
18
73
45
0
VERTEX
8
OBJECT__26
10
0
20
0
30
0
70
128
71
19
72
46
73
44
0
VERTEX
8
OBJECT__26
10
0
20
0
30
0
70
128
71
12
72
16
73
44
0
VERTEX
8
OBJECT__26
10
0
20
0
30
0
70
128
71
10
72
12
73
43
0
VERTEX
8
OBJECT__26
10
0
20
0
30
0
70
128
71
8
72
10
73
42
0
VERTEX
8
OBJECT__26
10
0
20
0
30
0
70
128
71
9
72
8
73
41
0
VERTEX
8
OBJECT__26
10
0
20
0
30
0
70
128
71
4
72
9
73
39
0
VERTEX
8
OBJECT__26
10
0
20
0
30
0
70
128
71
4
72
40
73
38
0
VERTEX
8
OBJECT__26
10
0
20
0
30
0
70
128
71
1
72
38
73
37
0
VERTEX
8
OBJECT__26
10
0
20
0
30
0
70
128
71
35
72
3
73
2
0
VERTEX
8
OBJECT__26
10
0
20
0
30
0
70
128
71
35
72
36
73
34
0
VERTEX
8
OBJECT__26
10
0
20
0
30
0
70
128
71
33
72
34
73
32
0
VERTEX
8
OBJECT__26
10
0
20
0
30
0
70
128
71
31
72
32
73
30
0
VERTEX
8
OBJECT__26
10
0
20
0
30
0
70
128
71
29
72
30
73
26
0
VERTEX
8
OBJECT__26
10
0
20
0
30
0
70
128
71
25
72
28
73
26
0
VERTEX
8
OBJECT__26
10
0
20
0
30
0
70
128
71
25
72
27
73
24
0
VERTEX
8
OBJECT__26
10
0
20
0
30
0
70
128
71
23
72
24
73
20
0
VERTEX
8
OBJECT__26
10
0
20
0
30
0
70
128
71
21
72
22
73
20
0
VERTEX
8
OBJECT__26
10
0
20
0
30
0
70
128
71
17
72
21
73
18
0
VERTEX
8
OBJECT__26
10
0
20
0
30
0
70
128
71
17
72
19
73
16
0
VERTEX
8
OBJECT__26
10
0
20
0
30
0
70
128
71
15
72
16
73
12
0
VERTEX
8
OBJECT__26
10
0
20
0
30
0
70
128
71
13
72
14
73
12
0
VERTEX
8
OBJECT__26
10
0
20
0
30
0
70
128
71
11
72
13
73
10
0
VERTEX
8
OBJECT__26
10
0
20
0
30
0
70
128
71
7
72
11
73
8
0
VERTEX
8
OBJECT__26
10
0
20
0
30
0
70
128
71
7
72
9
73
4
0
VERTEX
8
OBJECT__26
10
0
20
0
30
0
70
128
71
5
72
6
73
4
0
VERTEX
8
OBJECT__26
10
0
20
0
30
0
70
128
71
3
72
5
73
1
0
SEQEND
8
OBJECT__26
0
POLYLINE
8
OBJECT__27
66
1
70
64
71
22
72
20
62
253
0
VERTEX
8
OBJECT__27
10
0.000000
20
-52.716000
30
61.838001
70
192
0
VERTEX
8
OBJECT__27
10
0.000000
20
-80.500000
30
1.000000
70
192
0
VERTEX
8
OBJECT__27
10
0.000000
20
-77.238998
30
23.679001
70
192
0
VERTEX
8
OBJECT__27
10
0.000000
20
-52.716000
30
-59.838001
70
192
0
VERTEX
8
OBJECT__27
10
0.000000
20
-67.721001
30
-42.521999
70
192
0
VERTEX
8
OBJECT__27
10
0.000000
20
52.716000
30
-59.838001
70
192
0
VERTEX
8
OBJECT__27
10
0.000000
20
80.500000
30
1.000000
70
192
0
VERTEX
8
OBJECT__27
10
0.000000
20
77.238998
30
-21.679001
70
192
0
VERTEX
8
OBJECT__27
10
0.000000
20
-77.238998
30
-21.679001
70
192
0
VERTEX
8
OBJECT__27
10
0.000000
20
-33.441002
30
-72.224998
70
192
0
VERTEX
8
OBJECT__27
10
0.000000
20
77.238998
30
23.679001
70
192
0
VERTEX
8
OBJECT__27
10
0.000000
20
33.441002
30
-72.224998
70
192
0
VERTEX
8
OBJECT__27
10
0.000000
20
11.456000
30
-78.681000
70
192
0
VERTEX
8
OBJECT__27
10
0.000000
20
67.721001
30
44.521999
70
192
0
VERTEX
8
OBJECT__27
10
0.000000
20
33.441002
30
74.224998
70
192
0
VERTEX
8
OBJECT__27
10
0.000000
20
52.716000
30
61.838001
70
192
0
VERTEX
8
OBJECT__27
10
0.000000
20
-11.456000
30
80.681000
70
192
0
VERTEX
8
OBJECT__27
10
0.000000
20
11.456000
30
80.681000
70
192
0
VERTEX
8
OBJECT__27
10
0.000000
20
-33.441002
30
74.224998
70
192
0
VERTEX
8
OBJECT__27
10
0.000000
20
-11.456000
30
-78.681000
70
192
0
VERTEX
8
OBJECT__27
10
0.000000
20
67.721001
30
-42.521999
70
192
0
VERTEX
8
OBJECT__27
10
0.000000
20
-67.721001
30
44.521999
70
192
0
VERTEX
8
OBJECT__27
10
0
20
0
30
0
70
128
71
1
72
2
73
3
0
VERTEX
8
OBJECT__27
10
0
20
0
30
0
70
128
71
1
72
4
73
5
0
VERTEX
8
OBJECT__27
10
0
20
0
30
0
70
128
71
6
72
7
73
8
0
VERTEX
8
OBJECT__27
10
0
20
0
30
0
70
128
71
1
72
9
73
2
0
VERTEX
8
OBJECT__27
10
0
20
0
30
0
70
128
71
1
72
10
73
4
0
VERTEX
8
OBJECT__27
10
0
20
0
30
0
70
128
71
6
72
11
73
7
0
VERTEX
8
OBJECT__27
10
0
20
0
30
0
70
128
71
5
72
9
73
1
0
VERTEX
8
OBJECT__27
10
0
20
0
30
0
70
128
71
1
72
12
73
13
0
VERTEX
8
OBJECT__27
10
0
20
0
30
0
70
128
71
6
72
14
73
11
0
VERTEX
8
OBJECT__27
10
0
20
0
30
0
70
128
71
6
72
15
73
16
0
VERTEX
8
OBJECT__27
10
0
20
0
30
0
70
128
71
6
72
17
73
18
0
VERTEX
8
OBJECT__27
10
0
20
0
30
0
70
128
71
6
72
1
73
19
0
VERTEX
8
OBJECT__27
10
0
20
0
30
0
70
128
71
1
72
20
73
10
0
VERTEX
8
OBJECT__27
10
0
20
0
30
0
70
128
71
1
72
6
73
12
0
VERTEX
8
OBJECT__27
10
0
20
0
30
0
70
128
71
16
72
14
73
6
0
VERTEX
8
OBJECT__27
10
0
20
0
30
0
70
128
71
19
72
17
73
6
0
VERTEX
8
OBJECT__27
10
0
20
0
30
0
70
128
71
13
72
20
73
1
0
VERTEX
8
OBJECT__27
10
0
20
0
30
0
70
128
71
18
72
15
73
6
0
VERTEX
8
OBJECT__27
10
0
20
0
30
0
70
128
71
8
72
21
73
6
0
VERTEX
8
OBJECT__27
10
0
20
0
30
0
70
128
71
3
72
22
73
1
0
SEQEND
8
OBJECT__27
0
POLYLINE
8
OBJECT__28
66
1
70
64
71
75
72
75
62
253
0
VERTEX
8
OBJECT__28
10
0.000000
20
80.500000
30
1.000000
70
192
0
VERTEX
8
OBJECT__28
10
0.000000
20
77.238998
30
23.679001
70
192
0
VERTEX
8
OBJECT__28
10
10.000000
20
79.571999
30
13.190000
70
192
0
VERTEX
8
OBJECT__28
10
10.000000
20
76.879997
30
23.586000
70
192
0
VERTEX
8
OBJECT__28
10
0.000000
20
67.721001
30
44.521999
70
192
0
VERTEX
8
OBJECT__28
10
10.000000
20
68.316002
30
43.582001
70
192
0
VERTEX
8
OBJECT__28
10
10.000000
20
75.488998
30
28.958000
70
192
0
VERTEX
8
OBJECT__28
10
10.000000
20
67.638000
30
44.457001
70
192
0
VERTEX
8
OBJECT__28
10
0.000000
20
52.716000
30
61.838001
70
192
0
VERTEX
8
OBJECT__28
10
10.000000
20
58.346001
30
56.462002
70
192
0
VERTEX
8
OBJECT__28
10
10.000000
20
52.448002
30
61.525002
70
192
0
VERTEX
8
OBJECT__28
10
0.000000
20
33.441002
30
74.224998
70
192
0
VERTEX
8
OBJECT__28
10
10.000000
20
33.360001
30
74.080002
70
192
0
VERTEX
8
OBJECT__28
10
10.000000
20
45.987000
30
67.070999
70
192
0
VERTEX
8
OBJECT__28
10
0.000000
20
11.456000
30
80.681000
70
192
0
VERTEX
8
OBJECT__28
10
10.000000
20
16.205000
30
79.851997
70
192
0
VERTEX
8
OBJECT__28
10
10.000000
20
31.746000
30
74.975998
70
192
0
VERTEX
8
OBJECT__28
10
10.000000
20
11.422000
30
80.338997
70
192
0
VERTEX
8
OBJECT__28
10
0.000000
20
-11.456000
30
80.681000
70
192
0
VERTEX
8
OBJECT__28
10
10.000000
20
-11.422000
30
80.338997
70
192
0
VERTEX
8
OBJECT__28
10
10.000000
20
0.000000
30
81.500000
70
192
0
VERTEX
8
OBJECT__28
10
0.000000
20
-33.441002
30
74.224998
70
192
0
VERTEX
8
OBJECT__28
10
10.000000
20
-31.746000
30
74.975998
70
192
0
VERTEX
8
OBJECT__28
10
10.000000
20
-16.205000
30
79.851997
70
192
0
VERTEX
8
OBJECT__28
10
10.000000
20
-33.360001
30
74.080002
70
192
0
VERTEX
8
OBJECT__28
10
0.000000
20
-52.716000
30
61.838001
70
192
0
VERTEX
8
OBJECT__28
10
10.000000
20
-45.987000
30
67.070999
70
192
0
VERTEX
8
OBJECT__28
10
10.000000
20
-52.448002
30
61.525002
70
192
0
VERTEX
8
OBJECT__28
10
0.000000
20
-67.721001
30
44.521999
70
192
0
VERTEX
8
OBJECT__28
10
10.000000
20
-67.638000
30
44.457001
70
192
0
VERTEX
8
OBJECT__28
10
10.000000
20
-58.346001
30
56.462002
70
192
0
VERTEX
8
OBJECT__28
10
0.000000
20
-77.238998
30
23.679001
70
192
0
VERTEX
8
OBJECT__28
10
10.000000
20
-75.488998
30
28.958000
70
192
0
VERTEX
8
OBJECT__28
10
10.000000
20
-68.316002
30
43.582001
70
192
0
VERTEX
8
OBJECT__28
10
10.000000
20
-76.879997
30
23.586000
70
192
0
VERTEX
8
OBJECT__28
10
0.000000
20
-80.500000
30
1.000000
70
192
0
VERTEX
8
OBJECT__28
10
10.000000
20
-80.191002
30
0.984000
70
192
0
VERTEX
8
OBJECT__28
10
10.000000
20
-79.571999
30
13.190000
70
192
0
VERTEX
8
OBJECT__28
10
0.000000
20
-77.238998
30
-21.679001
70
192
0
VERTEX
8
OBJECT__28
10
10.000000
20
-77.930000
30
-19.177999
70
192
0
VERTEX
8
OBJECT__28
10
10.000000
20
-80.397003
30
-3.077000
70
192
0
VERTEX
8
OBJECT__28
10
10.000000
20
-77.031998
30
-21.603001
70
192
0
VERTEX
8
OBJECT__28
10
0.000000
20
-67.721001
30
-42.521999
70
192
0
VERTEX
8
OBJECT__28
10
10.000000
20
-72.273003
30
-34.452000
70
192
0
VERTEX
8
OBJECT__28
10
10.000000
20
-67.376999
30
-42.306999
70
192
0
VERTEX
8
OBJECT__28
10
0.000000
20
-52.716000
30
-59.838001
70
192
0
VERTEX
8
OBJECT__28
10
10.000000
20
-52.689999
30
-59.813000
70
192
0
VERTEX
8
OBJECT__28
10
10.000000
20
-63.657001
30
-48.275002
70
192
0
VERTEX
8
OBJECT__28
10
0.000000
20
-33.441002
30
-72.224998
70
192
0
VERTEX
8
OBJECT__28
10
10.000000
20
-39.067001
30
-69.385002
70
192
0
VERTEX
8
OBJECT__28
10
10.000000
20
-52.435001
30
-60.080002
70
192
0
VERTEX
8
OBJECT__28
10
10.000000
20
-33.285999
30
-71.864998
70
192
0
VERTEX
8
OBJECT__28
10
0.000000
20
-11.456000
30
-78.681000
70
192
0
VERTEX
8
OBJECT__28
10
10.000000
20
-11.402000
30
-78.417000
70
192
0
VERTEX
8
OBJECT__28
10
10.000000
20
-24.099001
30
-75.807999
70
192
0
VERTEX
8
OBJECT__28
10
0.000000
20
11.456000
30
-78.681000
70
192
0
VERTEX
8
OBJECT__28
10
10.000000
20
8.144000
30
-79.086998
70
192
0
VERTEX
8
OBJECT__28
10
10.000000
20
-8.144000
30
-79.086998
70
192
0
VERTEX
8
OBJECT__28
10
10.000000
20
11.402000
30
-78.417000
70
192
0
VERTEX
8
OBJECT__28
10
0.000000
20
33.441002
30
-72.224998
70
192
0
VERTEX
8
OBJECT__28
10
10.000000
20
24.099001
30
-75.807999
70
192
0
VERTEX
8
OBJECT__28
10
10.000000
20
33.285999
30
-71.864998
70
192
0
VERTEX
8
OBJECT__28
10
0.000000
20
52.716000
30
-59.838001
70
192
0
VERTEX
8
OBJECT__28
10
10.000000
20
52.435001
30
-60.080002
70
192
0
VERTEX
8
OBJECT__28
10
10.000000
20
39.067001
30
-69.385002
70
192
0
VERTEX
8
OBJECT__28
10
10.000000
20
52.689999
30
-59.813000
70
192
0
VERTEX
8
OBJECT__28
10
0.000000
20
67.721001
30
-42.521999
70
192
0
VERTEX
8
OBJECT__28
10
10.000000
20
63.657001
30
-48.275002
70
192
0
VERTEX
8
OBJECT__28
10
10.000000
20
67.376999
30
-42.306999
70
192
0
VERTEX
8
OBJECT__28
10
0.000000
20
77.238998
30
-21.679001
70
192
0
VERTEX
8
OBJECT__28
10
10.000000
20
77.031998
30
-21.603001
70
192
0
VERTEX
8
OBJECT__28
10
10.000000
20
72.273003
30
-34.452000
70
192
0
VERTEX
8
OBJECT__28
10
10.000000
20
80.397003
30
-3.077000
70
192
0
VERTEX
8
OBJECT__28
10
10.000000
20
77.930000
30
-19.177999
70
192
0
VERTEX
8
OBJECT__28
10
10.000000
20
80.500000
30
1.000000
70
192
0
VERTEX
8
OBJECT__28
10
0
20
0
30
0
70
128
71
1
72
2
73
3
0
VERTEX
8
OBJECT__28
10
0
20
0
30
0
70
128
71
2
72
4
73
3
0
VERTEX
8
OBJECT__28
10
0
20
0
30
0
70
128
71
5
72
6
73
7
0
VERTEX
8
OBJECT__28
10
0
20
0
30
0
70
128
71
7
72
2
73
5
0
VERTEX
8
OBJECT__28
10
0
20
0
30
0
70
128
71
5
72
8
73
6
0
VERTEX
8
OBJECT__28
10
0
20
0
30
0
70
128
71
5
72
9
73
10
0
VERTEX
8
OBJECT__28
10
0
20
0
30
0
70
128
71
9
72
11
73
10
0
VERTEX
8
OBJECT__28
10
0
20
0
30
0
70
128
71
12
72
13
73
14
0
VERTEX
8
OBJECT__28
10
0
20
0
30
0
70
128
71
14
72
9
73
12
0
VERTEX
8
OBJECT__28
10
0
20
0
30
0
70
128
71
12
72
15
73
16
0
VERTEX
8
OBJECT__28
10
0
20
0
30
0
70
128
71
16
72
17
73
12
0
VERTEX
8
OBJECT__28
10
0
20
0
30
0
70
128
71
15
72
18
73
16
0
VERTEX
8
OBJECT__28
10
0
20
0
30
0
70
128
71
19
72
20
73
21
0
VERTEX
8
OBJECT__28
10
0
20
0
30
0
70
128
71
21
72
15
73
19
0
VERTEX
8
OBJECT__28
10
0
20
0
30
0
70
128
71
22
72
23
73
24
0
VERTEX
8
OBJECT__28
10
0
20
0
30
0
70
128
71
24
72
19
73
22
0
VERTEX
8
OBJECT__28
10
0
20
0
30
0
70
128
71
22
72
25
73
23
0
VERTEX
8
OBJECT__28
10
0
20
0
30
0
70
128
71
22
72
26
73
27
0
VERTEX
8
OBJECT__28
10
0
20
0
30
0
70
128
71
26
72
28
73
27
0
VERTEX
8
OBJECT__28
10
0
20
0
30
0
70
128
71
29
72
30
73
31
0
VERTEX
8
OBJECT__28
10
0
20
0
30
0
70
128
71
31
72
26
73
29
0
VERTEX
8
OBJECT__28
10
0
20
0
30
0
70
128
71
29
72
32
73
33
0
VERTEX
8
OBJECT__28
10
0
20
0
30
0
70
128
71
33
72
34
73
29
0
VERTEX
8
OBJECT__28
10
0
20
0
30
0
70
128
71
32
72
35
73
33
0
VERTEX
8
OBJECT__28
10
0
20
0
30
0
70
128
71
36
72
37
73
38
0
VERTEX
8
OBJECT__28
10
0
20
0
30
0
70
128
71
38
72
32
73
36
0
VERTEX
8
OBJECT__28
10
0
20
0
30
0
70
128
71
39
72
40
73
41
0
VERTEX
8
OBJECT__28
10
0
20
0
30
0
70
128
71
41
72
36
73
39
0
VERTEX
8
OBJECT__28
10
0
20
0
30
0
70
128
71
39
72
42
73
40
0
VERTEX
8
OBJECT__28
10
0
20
0
30
0
70
128
71
39
72
43
73
44
0
VERTEX
8
OBJECT__28
10
0
20
0
30
0
70
128
71
43
72
45
73
44
0
VERTEX
8
OBJECT__28
10
0
20
0
30
0
70
128
71
46
72
47
73
48
0
VERTEX
8
OBJECT__28
10
0
20
0
30
0
70
128
71
48
72
43
73
46
0
VERTEX
8
OBJECT__28
10
0
20
0
30
0
70
128
71
46
72
49
73
50
0
VERTEX
8
OBJECT__28
10
0
20
0
30
0
70
128
71
50
72
51
73
46
0
VERTEX
8
OBJECT__28
10
0
20
0
30
0
70
128
71
49
72
52
73
50
0
VERTEX
8
OBJECT__28
10
0
20
0
30
0
70
128
71
53
72
54
73
55
0
VERTEX
8
OBJECT__28
10
0
20
0
30
0
70
128
71
55
72
49
73
53
0
VERTEX
8
OBJECT__28
10
0
20
0
30
0
70
128
71
56
72
57
73
58
0
VERTEX
8
OBJECT__28
10
0
20
0
30
0
70
128
71
58
72
53
73
56
0
VERTEX
8
OBJECT__28
10
0
20
0
30
0
70
128
71
56
72
59
73
57
0
VERTEX
8
OBJECT__28
10
0
20
0
30
0
70
128
71
56
72
60
73
61
0
VERTEX
8
OBJECT__28
10
0
20
0
30
0
70
128
71
60
72
62
73
61
0
VERTEX
8
OBJECT__28
10
0
20
0
30
0
70
128
71
63
72
64
73
65
0
VERTEX
8
OBJECT__28
10
0
20
0
30
0
70
128
71
65
72
60
73
63
0
VERTEX
8
OBJECT__28
10
0
20
0
30
0
70
128
71
63
72
66
73
64
0
VERTEX
8
OBJECT__28
10
0
20
0
30
0
70
128
71
63
72
67
73
68
0
VERTEX
8
OBJECT__28
10
0
20
0
30
0
70
128
71
67
72
69
73
68
0
VERTEX
8
OBJECT__28
10
0
20
0
30
0
70
128
71
70
72
71
73
72
0
VERTEX
8
OBJECT__28
10
0
20
0
30
0
70
128
71
72
72
67
73
70
0
VERTEX
8
OBJECT__28
10
0
20
0
30
0
70
128
71
70
72
1
73
73
0
VERTEX
8
OBJECT__28
10
0
20
0
30
0
70
128
71
73
72
74
73
70
0
VERTEX
8
OBJECT__28
10
0
20
0
30
0
70
128
71
1
72
75
73
73
0
VERTEX
8
OBJECT__28
10
0
20
0
30
0
70
128
71
74
72
71
73
70
0
VERTEX
8
OBJECT__28
10
0
20
0
30
0
70
128
71
72
72
69
73
67
0
VERTEX
8
OBJECT__28
10
0
20
0
30
0
70
128
71
68
72
66
73
63
0
VERTEX
8
OBJECT__28
10
0
20
0
30
0
70
128
71
65
72
62
73
60
0
VERTEX
8
OBJECT__28
10
0
20
0
30
0
70
128
71
61
72
59
73
56
0
VERTEX
8
OBJECT__28
10
0
20
0
30
0
70
128
71
58
72
54
73
53
0
VERTEX
8
OBJECT__28
10
0
20
0
30
0
70
128
71
55
72
52
73
49
0
VERTEX
8
OBJECT__28
10
0
20
0
30
0
70
128
71
51
72
47
73
46
0
VERTEX
8
OBJECT__28
10
0
20
0
30
0
70
128
71
48
72
45
73
43
0
VERTEX
8
OBJECT__28
10
0
20
0
30
0
70
128
71
44
72
42
73
39
0
VERTEX
8
OBJECT__28
10
0
20
0
30
0
70
128
71
41
72
37
73
36
0
VERTEX
8
OBJECT__28
10
0
20
0
30
0
70
128
71
38
72
35
73
32
0
VERTEX
8
OBJECT__28
10
0
20
0
30
0
70
128
71
34
72
30
73
29
0
VERTEX
8
OBJECT__28
10
0
20
0
30
0
70
128
71
31
72
28
73
26
0
VERTEX
8
OBJECT__28
10
0
20
0
30
0
70
128
71
27
72
25
73
22
0
VERTEX
8
OBJECT__28
10
0
20
0
30
0
70
128
71
24
72
20
73
19
0
VERTEX
8
OBJECT__28
10
0
20
0
30
0
70
128
71
21
72
18
73
15
0
VERTEX
8
OBJECT__28
10
0
20
0
30
0
70
128
71
17
72
13
73
12
0
VERTEX
8
OBJECT__28
10
0
20
0
30
0
70
128
71
14
72
11
73
9
0
VERTEX
8
OBJECT__28
10
0
20
0
30
0
70
128
71
10
72
8
73
5
0
VERTEX
8
OBJECT__28
10
0
20
0
30
0
70
128
71
7
72
4
73
2
0
VERTEX
8
OBJECT__28
10
0
20
0
30
0
70
128
71
3
72
75
73
1
0
SEQEND
8
OBJECT__28
0
POLYLINE
8
OBJECT__30
66
1
70
64
71
85
72
115
62
253
0
VERTEX
8
OBJECT__30
10
10.000000
20
-11.422000
30
80.338997
70
192
0
VERTEX
8
OBJECT__30
10
14.889000
20
-8.129000
30
40.555000
70
192
0
VERTEX
8
OBJECT__30
10
14.889000
20
0.000000
30
41.382000
70
192
0
VERTEX
8
OBJECT__30
10
10.000000
20
0.000000
30
81.500000
70
192
0
VERTEX
8
OBJECT__30
10
10.000000
20
-16.205000
30
79.851997
70
192
0
VERTEX
8
OBJECT__30
10
10.000000
20
-31.746000
30
74.975998
70
192
0
VERTEX
8
OBJECT__30
10
14.889000
20
-15.925000
30
38.109001
70
192
0
VERTEX
8
OBJECT__30
10
10.000000
20
-33.360001
30
74.080002
70
192
0
VERTEX
8
OBJECT__30
10
10.000000
20
-45.987000
30
67.070999
70
192
0
VERTEX
8
OBJECT__30
10
14.889000
20
-23.069000
30
34.144001
70
192
0
VERTEX
8
OBJECT__30
10
10.000000
20
-52.448002
30
61.525002
70
192
0
VERTEX
8
OBJECT__30
10
14.889000
20
-29.268999
30
28.822001
70
192
0
VERTEX
8
OBJECT__30
10
10.000000
20
-67.638000
30
44.457001
70
192
0
VERTEX
8
OBJECT__30
10
14.889000
20
-34.270000
30
22.361000
70
192
0
VERTEX
8
OBJECT__30
10
10.000000
20
-58.346001
30
56.462002
70
192
0
VERTEX
8
OBJECT__30
10
10.000000
20
-68.316002
30
43.582001
70
192
0
VERTEX
8
OBJECT__30
10
10.000000
20
-75.488998
30
28.958000
70
192
0
VERTEX
8
OBJECT__30
10
14.889000
20
-37.868000
30
15.025000
70
192
0
VERTEX
8
OBJECT__30
10
10.000000
20
-76.879997
30
23.586000
70
192
0
VERTEX
8
OBJECT__30
10
10.000000
20
-79.571999
30
13.190000
70
192
0
VERTEX
8
OBJECT__30
10
14.889000
20
-39.916000
30
7.115000
70
192
0
VERTEX
8
OBJECT__30
10
10.000000
20
-80.191002
30
0.984000
70
192
0
VERTEX
8
OBJECT__30
10
14.889000
20
-40.330002
30
-1.045000
70
192
0
VERTEX
8
OBJECT__30
10
10.000000
20
-80.397003
30
-3.077000
70
192
0
VERTEX
8
OBJECT__30
10
10.000000
20
-77.930000
30
-19.177999
70
192
0
VERTEX
8
OBJECT__30
10
14.889000
20
-39.092999
30
-9.122000
70
192
0
VERTEX
8
OBJECT__30
10
10.000000
20
-77.031998
30
-21.603001
70
192
0
VERTEX
8
OBJECT__30
10
10.000000
20
-72.273003
30
-34.452000
70
192
0
VERTEX
8
OBJECT__30
10
14.889000
20
-36.255001
30
-16.784000
70
192
0
VERTEX
8
OBJECT__30
10
10.000000
20
-67.376999
30
-42.306999
70
192
0
VERTEX
8
OBJECT__30
10
14.889000
20
-31.933001
30
-23.718000
70
192
0
VERTEX
8
OBJECT__30
10
10.000000
20
-52.689999
30
-59.813000
70
192
0
VERTEX
8
OBJECT__30
10
14.889000
20
-26.304001
30
-29.639999
70
192
0
VERTEX
8
OBJECT__30
10
10.000000
20
-63.657001
30
-48.275002
70
192
0
VERTEX
8
OBJECT__30
10
10.000000
20
-39.067001
30
-69.385002
70
192
0
VERTEX
8
OBJECT__30
10
14.889000
20
-19.597000
30
-34.307999
70
192
0
VERTEX
8
OBJECT__30
10
10.000000
20
-33.285999
30
-71.864998
70
192
0
VERTEX
8
OBJECT__30
10
10.000000
20
-24.099001
30
-75.807999
70
192
0
VERTEX
8
OBJECT__30
10
14.889000
20
-12.089000
30
-37.529999
70
192
0
VERTEX
8
OBJECT__30
10
10.000000
20
-11.402000
30
-78.417000
70
192
0
VERTEX
8
OBJECT__30
10
14.889000
20
-4.085000
30
-39.174999
70
192
0
VERTEX
8
OBJECT__30
10
10.000000
20
-8.144000
30
-79.086998
70
192
0
VERTEX
8
OBJECT__30
10
10.000000
20
8.144000
30
-79.086998
70
192
0
VERTEX
8
OBJECT__30
10
14.889000
20
4.085000
30
-39.174999
70
192
0
VERTEX
8
OBJECT__30
10
10.000000
20
11.402000
30
-78.417000
70
192
0
VERTEX
8
OBJECT__30
10
10.000000
20
24.099001
30
-75.807999
70
192
0
VERTEX
8
OBJECT__30
10
14.889000
20
12.089000
30
-37.529999
70
192
0
VERTEX
8
OBJECT__30
10
10.000000
20
33.285999
30
-71.864998
70
192
0
VERTEX
8
OBJECT__30
10
14.889000
20
19.597000
30
-34.307999
70
192
0
VERTEX
8
OBJECT__30
10
10.000000
20
52.435001
30
-60.080002
70
192
0
VERTEX
8
OBJECT__30
10
14.889000
20
26.304001
30
-29.639999
70
192
0
VERTEX
8
OBJECT__30
10
10.000000
20
52.689999
30
-59.813000
70
192
0
VERTEX
8
OBJECT__30
10
10.000000
20
63.657001
30
-48.275002
70
192
0
VERTEX
8
OBJECT__30
10
14.889000
20
31.933001
30
-23.718000
70
192
0
VERTEX
8
OBJECT__30
10
10.000000
20
67.376999
30
-42.306999
70
192
0
VERTEX
8
OBJECT__30
10
10.000000
20
72.273003
30
-34.452000
70
192
0
VERTEX
8
OBJECT__30
10
14.889000
20
36.255001
30
-16.784000
70
192
0
VERTEX
8
OBJECT__30
10
10.000000
20
77.031998
30
-21.603001
70
192
0
VERTEX
8
OBJECT__30
10
14.889000
20
39.092999
30
-9.122000
70
192
0
VERTEX
8
OBJECT__30
10
10.000000
20
80.397003
30
-3.077000
70
192
0
VERTEX
8
OBJECT__30
10
14.889000
20
40.330002
30
-1.045000
70
192
0
VERTEX
8
OBJECT__30
10
10.000000
20
80.500000
30
1.000000
70
192
0
VERTEX
8
OBJECT__30
10
10.000000
20
79.571999
30
13.190000
70
192
0
VERTEX
8
OBJECT__30
10
14.889000
20
39.916000
30
7.115000
70
192
0
VERTEX
8
OBJECT__30
10
10.000000
20
76.879997
30
23.586000
70
192
0
VERTEX
8
OBJECT__30
10
14.889000
20
37.868000
30
15.025000
70
192
0
VERTEX
8
OBJECT__30
10
10.000000
20
75.488998
30
28.958000
70
192
0
VERTEX
8
OBJECT__30
10
10.000000
20
68.316002
30
43.582001
70
192
0
VERTEX
8
OBJECT__30
10
14.889000
20
34.270000
30
22.361000
70
192
0
VERTEX
8
OBJECT__30
10
10.000000
20
67.638000
30
44.457001
70
192
0
VERTEX
8
OBJECT__30
10
10.000000
20
58.346001
30
56.462002
70
192
0
VERTEX
8
OBJECT__30
10
14.889000
20
29.268999
30
28.822001
70
192
0
VERTEX
8
OBJECT__30
10
10.000000
20
52.448002
30
61.525002
70
192
0
VERTEX
8
OBJECT__30
10
10.000000
20
45.987000
30
67.070999
70
192
0
VERTEX
8
OBJECT__30
10
14.889000
20
23.069000
30
34.144001
70
192
0
VERTEX
8
OBJECT__30
10
10.000000
20
33.360001
30
74.080002
70
192
0
VERTEX
8
OBJECT__30
10
14.889000
20
15.925000
30
38.109001
70
192
0
VERTEX
8
OBJECT__30
10
10.000000
20
16.205000
30
79.851997
70
192
0
VERTEX
8
OBJECT__30
10
14.889000
20
8.129000
30
40.555000
70
192
0
VERTEX
8
OBJECT__30
10
10.000000
20
11.422000
30
80.338997
70
192
0
VERTEX
8
OBJECT__30
10
16.523001
20
0.000000
30
1.000000
70
192
0
VERTEX
8
OBJECT__30
10
10.000000
20
31.746000
30
74.975998
70
192
0
VERTEX
8
OBJECT__30
10
10.000000
20
77.930000
30
-19.177999
70
192
0
VERTEX
8
OBJECT__30
10
10.000000
20
39.067001
30
-69.385002
70
192
0
VERTEX
8
OBJECT__30
10
10.000000
20
-52.435001
30
-60.080002
70
192
0
VERTEX
8
OBJECT__30
10
0
20
0
30
0
70
128
71
1
72
2
73
3
0
VERTEX
8
OBJECT__30
10
0
20
0
30
0
70
128
71
3
72
4
73
1
0
VERTEX
8
OBJECT__30
10
0
20
0
30
0
70
128
71
5
72
6
73
7
0
VERTEX
8
OBJECT__30
10
0
20
0
30
0
70
128
71
8
72
9
73
10
0
VERTEX
8
OBJECT__30
10
0
20
0
30
0
70
128
71
7
72
6
73
8
0
VERTEX
8
OBJECT__30
10
0
20
0
30
0
70
128
71
11
72
12
73
10
0
VERTEX
8
OBJECT__30
10
0
20
0
30
0
70
128
71
10
72
9
73
11
0
VERTEX
8
OBJECT__30
10
0
20
0
30
0
70
128
71
13
72
14
73
12
0
VERTEX
8
OBJECT__30
10
0
20
0
30
0
70
128
71
12
72
15
73
13
0
VERTEX
8
OBJECT__30
10
0
20
0
30
0
70
128
71
16
72
17
73
18
0
VERTEX
8
OBJECT__30
10
0
20
0
30
0
70
128
71
19
72
20
73
21
0
VERTEX
8
OBJECT__30
10
0
20
0
30
0
70
128
71
18
72
17
73
19
0
VERTEX
8
OBJECT__30
10
0
20
0
30
0
70
128
71
22
72
23
73
21
0
VERTEX
8
OBJECT__30
10
0
20
0
30
0
70
128
71
21
72
20
73
22
0
VERTEX
8
OBJECT__30
10
0
20
0
30
0
70
128
71
24
72
25
73
26
0
VERTEX
8
OBJECT__30
10
0
20
0
30
0
70
128
71
27
72
28
73
29
0
VERTEX
8
OBJECT__30
10
0
20
0
30
0
70
128
71
26
72
25
73
27
0
VERTEX
8
OBJECT__30
10
0
20
0
30
0
70
128
71
30
72
31
73
29
0
VERTEX
8
OBJECT__30
10
0
20
0
30
0
70
128
71
29
72
28
73
30
0
VERTEX
8
OBJECT__30
10
0
20
0
30
0
70
128
71
32
72
33
73
31
0
VERTEX
8
OBJECT__30
10
0
20
0
30
0
70
128
71
31
72
34
73
32
0
VERTEX
8
OBJECT__30
10
0
20
0
30
0
70
128
71
35
72
36
73
33
0
VERTEX
8
OBJECT__30
10
0
20
0
30
0
70
128
71
37
72
38
73
39
0
VERTEX
8
OBJECT__30
10
0
20
0
30
0
70
128
71
36
72
35
73
37
0
VERTEX
8
OBJECT__30
10
0
20
0
30
0
70
128
71
40
72
41
73
39
0
VERTEX
8
OBJECT__30
10
0
20
0
30
0
70
128
71
39
72
38
73
40
0
VERTEX
8
OBJECT__30
10
0
20
0
30
0
70
128
71
42
72
43
73
44
0
VERTEX
8
OBJECT__30
10
0
20
0
30
0
70
128
71
45
72
46
73
47
0
VERTEX
8
OBJECT__30
10
0
20
0
30
0
70
128
71
44
72
43
73
45
0
VERTEX
8
OBJECT__30
10
0
20
0
30
0
70
128
71
48
72
49
73
47
0
VERTEX
8
OBJECT__30
10
0
20
0
30
0
70
128
71
47
72
46
73
48
0
VERTEX
8
OBJECT__30
10
0
20
0
30
0
70
128
71
50
72
51
73
49
0
VERTEX
8
OBJECT__30
10
0
20
0
30
0
70
128
71
52
72
53
73
54
0
VERTEX
8
OBJECT__30
10
0
20
0
30
0
70
128
71
51
72
50
73
52
0
VERTEX
8
OBJECT__30
10
0
20
0
30
0
70
128
71
55
72
56
73
57
0
VERTEX
8
OBJECT__30
10
0
20
0
30
0
70
128
71
54
72
53
73
55
0
VERTEX
8
OBJECT__30
10
0
20
0
30
0
70
128
71
58
72
59
73
57
0
VERTEX
8
OBJECT__30
10
0
20
0
30
0
70
128
71
57
72
56
73
58
0
VERTEX
8
OBJECT__30
10
0
20
0
30
0
70
128
71
60
72
61
73
59
0
VERTEX
8
OBJECT__30
10
0
20
0
30
0
70
128
71
62
72
63
73
64
0
VERTEX
8
OBJECT__30
10
0
20
0
30
0
70
128
71
61
72
60
73
62
0
VERTEX
8
OBJECT__30
10
0
20
0
30
0
70
128
71
65
72
66
73
64
0
VERTEX
8
OBJECT__30
10
0
20
0
30
0
70
128
71
64
72
63
73
65
0
VERTEX
8
OBJECT__30
10
0
20
0
30
0
70
128
71
67
72
68
73
69
0
VERTEX
8
OBJECT__30
10
0
20
0
30
0
70
128
71
70
72
71
73
72
0
VERTEX
8
OBJECT__30
10
0
20
0
30
0
70
128
71
69
72
68
73
70
0
VERTEX
8
OBJECT__30
10
0
20
0
30
0
70
128
71
73
72
74
73
75
0
VERTEX
8
OBJECT__30
10
0
20
0
30
0
70
128
71
72
72
71
73
73
0
VERTEX
8
OBJECT__30
10
0
20
0
30
0
70
128
71
76
72
77
73
75
0
VERTEX
8
OBJECT__30
10
0
20
0
30
0
70
128
71
75
72
74
73
76
0
VERTEX
8
OBJECT__30
10
0
20
0
30
0
70
128
71
78
72
79
73
77
0
VERTEX
8
OBJECT__30
10
0
20
0
30
0
70
128
71
80
72
4
73
3
0
VERTEX
8
OBJECT__30
10
0
20
0
30
0
70
128
71
79
72
78
73
80
0
VERTEX
8
OBJECT__30
10
0
20
0
30
0
70
128
71
81
72
79
73
3
0
VERTEX
8
OBJECT__30
10
0
20
0
30
0
70
128
71
81
72
77
73
79
0
VERTEX
8
OBJECT__30
10
0
20
0
30
0
70
128
71
81
72
75
73
77
0
VERTEX
8
OBJECT__30
10
0
20
0
30
0
70
128
71
81
72
72
73
75
0
VERTEX
8
OBJECT__30
10
0
20
0
30
0
70
128
71
81
72
69
73
72
0
VERTEX
8
OBJECT__30
10
0
20
0
30
0
70
128
71
81
72
66
73
69
0
VERTEX
8
OBJECT__30
10
0
20
0
30
0
70
128
71
81
72
64
73
66
0
VERTEX
8
OBJECT__30
10
0
20
0
30
0
70
128
71
81
72
61
73
64
0
VERTEX
8
OBJECT__30
10
0
20
0
30
0
70
128
71
81
72
59
73
61
0
VERTEX
8
OBJECT__30
10
0
20
0
30
0
70
128
71
81
72
57
73
59
0
VERTEX
8
OBJECT__30
10
0
20
0
30
0
70
128
71
81
72
54
73
57
0
VERTEX
8
OBJECT__30
10
0
20
0
30
0
70
128
71
81
72
51
73
54
0
VERTEX
8
OBJECT__30
10
0
20
0
30
0
70
128
71
81
72
49
73
51
0
VERTEX
8
OBJECT__30
10
0
20
0
30
0
70
128
71
81
72
47
73
49
0
VERTEX
8
OBJECT__30
10
0
20
0
30
0
70
128
71
81
72
44
73
47
0
VERTEX
8
OBJECT__30
10
0
20
0
30
0
70
128
71
81
72
41
73
44
0
VERTEX
8
OBJECT__30
10
0
20
0
30
0
70
128
71
81
72
39
73
41
0
VERTEX
8
OBJECT__30
10
0
20
0
30
0
70
128
71
81
72
36
73
39
0
VERTEX
8
OBJECT__30
10
0
20
0
30
0
70
128
71
81
72
33
73
36
0
VERTEX
8
OBJECT__30
10
0
20
0
30
0
70
128
71
81
72
31
73
33
0
VERTEX
8
OBJECT__30
10
0
20
0
30
0
70
128
71
81
72
29
73
31
0
VERTEX
8
OBJECT__30
10
0
20
0
30
0
70
128
71
81
72
26
73
29
0
VERTEX
8
OBJECT__30
10
0
20
0
30
0
70
128
71
81
72
23
73
26
0
VERTEX
8
OBJECT__30
10
0
20
0
30
0
70
128
71
81
72
21
73
23
0
VERTEX
8
OBJECT__30
10
0
20
0
30
0
70
128
71
81
72
18
73
21
0
VERTEX
8
OBJECT__30
10
0
20
0
30
0
70
128
71
81
72
14
73
18
0
VERTEX
8
OBJECT__30
10
0
20
0
30
0
70
128
71
81
72
12
73
14
0
VERTEX
8
OBJECT__30
10
0
20
0
30
0
70
128
71
81
72
10
73
12
0
VERTEX
8
OBJECT__30
10
0
20
0
30
0
70
128
71
81
72
7
73
10
0
VERTEX
8
OBJECT__30
10
0
20
0
30
0
70
128
71
81
72
2
73
7
0
VERTEX
8
OBJECT__30
10
0
20
0
30
0
70
128
71
81
72
3
73
2
0
VERTEX
8
OBJECT__30
10
0
20
0
30
0
70
128
71
3
72
79
73
80
0
VERTEX
8
OBJECT__30
10
0
20
0
30
0
70
128
71
77
72
82
73
78
0
VERTEX
8
OBJECT__30
10
0
20
0
30
0
70
128
71
76
72
82
73
77
0
VERTEX
8
OBJECT__30
10
0
20
0
30
0
70
128
71
75
72
72
73
73
0
VERTEX
8
OBJECT__30
10
0
20
0
30
0
70
128
71
72
72
69
73
70
0
VERTEX
8
OBJECT__30
10
0
20
0
30
0
70
128
71
69
72
66
73
67
0
VERTEX
8
OBJECT__30
10
0
20
0
30
0
70
128
71
65
72
67
73
66
0
VERTEX
8
OBJECT__30
10
0
20
0
30
0
70
128
71
64
72
61
73
62
0
VERTEX
8
OBJECT__30
10
0
20
0
30
0
70
128
71
59
72
83
73
60
0
VERTEX
8
OBJECT__30
10
0
20
0
30
0
70
128
71
58
72
83
73
59
0
VERTEX
8
OBJECT__30
10
0
20
0
30
0
70
128
71
57
72
54
73
55
0
VERTEX
8
OBJECT__30
10
0
20
0
30
0
70
128
71
54
72
51
73
52
0
VERTEX
8
OBJECT__30
10
0
20
0
30
0
70
128
71
49
72
84
73
50
0
VERTEX
8
OBJECT__30
10
0
20
0
30
0
70
128
71
48
72
84
73
49
0
VERTEX
8
OBJECT__30
10
0
20
0
30
0
70
128
71
47
72
44
73
45
0
VERTEX
8
OBJECT__30
10
0
20
0
30
0
70
128
71
44
72
41
73
42
0
VERTEX
8
OBJECT__30
10
0
20
0
30
0
70
128
71
40
72
42
73
41
0
VERTEX
8
OBJECT__30
10
0
20
0
30
0
70
128
71
39
72
36
73
37
0
VERTEX
8
OBJECT__30
10
0
20
0
30
0
70
128
71
33
72
85
73
35
0
VERTEX
8
OBJECT__30
10
0
20
0
30
0
70
128
71
32
72
85
73
33
0
VERTEX
8
OBJECT__30
10
0
20
0
30
0
70
128
71
30
72
34
73
31
0
VERTEX
8
OBJECT__30
10
0
20
0
30
0
70
128
71
29
72
26
73
27
0
VERTEX
8
OBJECT__30
10
0
20
0
30
0
70
128
71
26
72
23
73
24
0
VERTEX
8
OBJECT__30
10
0
20
0
30
0
70
128
71
22
72
24
73
23
0
VERTEX
8
OBJECT__30
10
0
20
0
30
0
70
128
71
21
72
18
73
19
0
VERTEX
8
OBJECT__30
10
0
20
0
30
0
70
128
71
18
72
14
73
16
0
VERTEX
8
OBJECT__30
10
0
20
0
30
0
70
128
71
13
72
16
73
14
0
VERTEX
8
OBJECT__30
10
0
20
0
30
0
70
128
71
11
72
15
73
12
0
VERTEX
8
OBJECT__30
10
0
20
0
30
0
70
128
71
10
72
7
73
8
0
VERTEX
8
OBJECT__30
10
0
20
0
30
0
70
128
71
7
72
2
73
5
0
VERTEX
8
OBJECT__30
10
0
20
0
30
0
70
128
71
1
72
5
73
2
0
SEQEND
8
OBJECT__30
0
ENDSEC
0
EOF
