999
Converted by 3D Exploration 
999
XDimension Software, LLC
999
http://www.xdsoft.com/explorer/
0
SECTION
2
HEADER
9
$ACADVER
1
AC1008
9
$UCSORG
10
0.0
20
0.0
30
0.0
9
$UCSXDIR
10
1.0
20
0.0
30
0.0
9
$TILEMODE
70
1
9
$UCSYDIR
10
0.0
20
1.0
30
0.0
9
$EXTMIN
10
-29.212999
20
-29.000000
30
-29.000000
9
$EXTMAX
10
257.657990
20
29.000000
30
159.334000
0
ENDSEC
0
SECTION
2
TABLES
0
TABLE
2
LTYPE
70
1
0
LTYPE
2
CONTINUOUS
70
64
3
Solid line
72
65
73
0
40
0.0
0
ENDTAB
0
TABLE
2
LAYER
70
31
0
LAYER
2
OBJECT__0
70
0
62
253
6
CONTINUOUS
0
LAYER
2
OBJECT__1
70
0
62
253
6
CONTINUOUS
0
LAYER
2
OBJECT__3
70
0
62
253
6
CONTINUOUS
0
LAYER
2
OBJECT__4
70
0
62
253
6
CONTINUOUS
0
LAYER
2
OBJECT__5
70
0
62
253
6
CONTINUOUS
0
LAYER
2
OBJECT__6
70
0
62
253
6
CONTINUOUS
0
LAYER
2
OBJECT__7
70
0
62
253
6
CONTINUOUS
0
LAYER
2
OBJECT__9
70
0
62
253
6
CONTINUOUS
0
LAYER
2
OBJECT__10
70
0
62
253
6
CONTINUOUS
0
LAYER
2
OBJECT__11
70
0
62
253
6
CONTINUOUS
0
LAYER
2
OBJECT__12
70
0
62
253
6
CONTINUOUS
0
LAYER
2
OBJECT__13
70
0
62
253
6
CONTINUOUS
0
LAYER
2
OBJECT__14
70
0
62
253
6
CONTINUOUS
0
LAYER
2
OBJECT__15
70
0
62
253
6
CONTINUOUS
0
LAYER
2
OBJECT__16
70
0
62
253
6
CONTINUOUS
0
LAYER
2
OBJECT__17
70
0
62
253
6
CONTINUOUS
0
LAYER
2
OBJECT__18
70
0
62
253
6
CONTINUOUS
0
LAYER
2
OBJECT__19
70
0
62
253
6
CONTINUOUS
0
LAYER
2
OBJECT__21
70
0
62
253
6
CONTINUOUS
0
LAYER
2
OBJECT__22
70
0
62
253
6
CONTINUOUS
0
LAYER
2
OBJECT__23
70
0
62
253
6
CONTINUOUS
0
LAYER
2
OBJECT__24
70
0
62
253
6
CONTINUOUS
0
LAYER
2
OBJECT__25
70
0
62
253
6
CONTINUOUS
0
LAYER
2
OBJECT__26
70
0
62
253
6
CONTINUOUS
0
LAYER
2
OBJECT__28
70
0
62
253
6
CONTINUOUS
0
LAYER
2
OBJECT__29
70
0
62
253
6
CONTINUOUS
0
ENDTAB
0
TABLE
2
STYLE
70
1
0
STYLE
2
STANDARD
70
0
40
0.0
41
1.0
50
0.0
71
0
42
0.2
3
txt
4
1
0
ENDTAB
0
TABLE
2
UCS
70
0
0
ENDTAB
0
ENDSEC
0
SECTION
2
ENTITIES
0
POLYLINE
8
OBJECT__0
66
1
70
64
71
12
72
10
62
253
0
VERTEX
8
OBJECT__0
10
-28.993000
20
0.000000
30
-18.450001
70
192
0
VERTEX
8
OBJECT__0
10
0.007000
20
-29.000000
30
-18.450001
70
192
0
VERTEX
8
OBJECT__0
10
-14.493000
20
-25.115000
30
-18.450001
70
192
0
VERTEX
8
OBJECT__0
10
14.507000
20
-25.115000
30
-18.450001
70
192
0
VERTEX
8
OBJECT__0
10
14.507000
20
25.115000
30
-18.450001
70
192
0
VERTEX
8
OBJECT__0
10
-25.108000
20
14.500000
30
-18.450001
70
192
0
VERTEX
8
OBJECT__0
10
-14.493000
20
25.115000
30
-18.450001
70
192
0
VERTEX
8
OBJECT__0
10
25.121000
20
-14.500000
30
-18.450001
70
192
0
VERTEX
8
OBJECT__0
10
25.121000
20
14.500000
30
-18.450001
70
192
0
VERTEX
8
OBJECT__0
10
29.007000
20
0.000000
30
-18.450001
70
192
0
VERTEX
8
OBJECT__0
10
0.007000
20
29.000000
30
-18.450001
70
192
0
VERTEX
8
OBJECT__0
10
-25.108000
20
-14.500000
30
-18.450001
70
192
0
VERTEX
8
OBJECT__0
10
0
20
0
30
0
70
128
71
1
72
2
73
3
0
VERTEX
8
OBJECT__0
10
0
20
0
30
0
70
128
71
1
72
4
73
2
0
VERTEX
8
OBJECT__0
10
0
20
0
30
0
70
128
71
5
72
6
73
7
0
VERTEX
8
OBJECT__0
10
0
20
0
30
0
70
128
71
1
72
8
73
4
0
VERTEX
8
OBJECT__0
10
0
20
0
30
0
70
128
71
1
72
5
73
9
0
VERTEX
8
OBJECT__0
10
0
20
0
30
0
70
128
71
5
72
1
73
6
0
VERTEX
8
OBJECT__0
10
0
20
0
30
0
70
128
71
1
72
10
73
8
0
VERTEX
8
OBJECT__0
10
0
20
0
30
0
70
128
71
7
72
11
73
5
0
VERTEX
8
OBJECT__0
10
0
20
0
30
0
70
128
71
9
72
10
73
1
0
VERTEX
8
OBJECT__0
10
0
20
0
30
0
70
128
71
3
72
12
73
1
0
SEQEND
8
OBJECT__0
0
POLYLINE
8
OBJECT__1
66
1
70
64
71
67
72
69
62
253
0
VERTEX
8
OBJECT__1
10
-25.108000
20
14.500000
30
49.549999
70
192
0
VERTEX
8
OBJECT__1
10
-25.108000
20
14.500000
30
-18.450001
70
192
0
VERTEX
8
OBJECT__1
10
-28.993000
20
0.000000
30
-18.450001
70
192
0
VERTEX
8
OBJECT__1
10
-14.493000
20
25.115000
30
49.549999
70
192
0
VERTEX
8
OBJECT__1
10
-14.493000
20
25.115000
30
-18.450001
70
192
0
VERTEX
8
OBJECT__1
10
0.007000
20
29.000000
30
49.549999
70
192
0
VERTEX
8
OBJECT__1
10
0.007000
20
29.000000
30
-18.450001
70
192
0
VERTEX
8
OBJECT__1
10
14.507000
20
25.115000
30
49.549999
70
192
0
VERTEX
8
OBJECT__1
10
14.507000
20
25.115000
30
-18.450001
70
192
0
VERTEX
8
OBJECT__1
10
25.121000
20
14.500000
30
49.549999
70
192
0
VERTEX
8
OBJECT__1
10
25.121000
20
14.500000
30
-18.450001
70
192
0
VERTEX
8
OBJECT__1
10
14.507000
20
-25.115000
30
49.549999
70
192
0
VERTEX
8
OBJECT__1
10
14.507000
20
-25.115000
30
-18.450001
70
192
0
VERTEX
8
OBJECT__1
10
25.121000
20
-14.500000
30
-18.450001
70
192
0
VERTEX
8
OBJECT__1
10
0.007000
20
-29.000000
30
49.549999
70
192
0
VERTEX
8
OBJECT__1
10
0.007000
20
-29.000000
30
-18.450001
70
192
0
VERTEX
8
OBJECT__1
10
-14.493000
20
-25.115000
30
49.549999
70
192
0
VERTEX
8
OBJECT__1
10
-14.493000
20
-25.115000
30
-18.450001
70
192
0
VERTEX
8
OBJECT__1
10
-25.108000
20
-14.500000
30
49.549999
70
192
0
VERTEX
8
OBJECT__1
10
-25.108000
20
-14.500000
30
-18.450001
70
192
0
VERTEX
8
OBJECT__1
10
-28.993000
20
0.000000
30
49.549999
70
192
0
VERTEX
8
OBJECT__1
10
29.007000
20
0.000000
30
49.549999
70
192
0
VERTEX
8
OBJECT__1
10
25.121000
20
-14.500000
30
49.549999
70
192
0
VERTEX
8
OBJECT__1
10
28.846001
20
-3.045000
30
35.657001
70
192
0
VERTEX
8
OBJECT__1
10
28.400000
20
-5.899000
30
34.282001
70
192
0
VERTEX
8
OBJECT__1
10
28.577999
20
-4.763000
30
34.828999
70
192
0
VERTEX
8
OBJECT__1
10
26.414000
20
-11.985000
30
26.829000
70
192
0
VERTEX
8
OBJECT__1
10
27.389999
20
-9.549000
30
30.858999
70
192
0
VERTEX
8
OBJECT__1
10
27.608999
20
-8.893000
30
31.649000
70
192
0
VERTEX
8
OBJECT__1
10
26.017000
20
-12.824000
30
24.729000
70
192
0
VERTEX
8
OBJECT__1
10
26.355000
20
-12.111000
30
26.514000
70
192
0
VERTEX
8
OBJECT__1
10
25.492001
20
-13.839000
30
20.386999
70
192
0
VERTEX
8
OBJECT__1
10
25.403999
20
-13.999000
30
17.666000
70
192
0
VERTEX
8
OBJECT__1
10
25.673000
20
-13.500000
30
13.763000
70
192
0
VERTEX
8
OBJECT__1
10
25.573999
20
-13.683000
30
15.199000
70
192
0
VERTEX
8
OBJECT__1
10
25.788000
20
-13.278000
30
12.990000
70
192
0
VERTEX
8
OBJECT__1
10
26.552000
20
-11.677000
30
9.636000
70
192
0
VERTEX
8
OBJECT__1
10
27.760000
20
-8.412000
30
6.329000
70
192
0
VERTEX
8
OBJECT__1
10
27.570000
20
-8.941000
30
6.825000
70
192
0
VERTEX
8
OBJECT__1
10
29.007000
20
0.000000
30
-18.450001
70
192
0
VERTEX
8
OBJECT__1
10
29.007000
20
0.000000
30
3.805000
70
192
0
VERTEX
8
OBJECT__1
10
28.743000
20
-3.905000
30
4.294000
70
192
0
VERTEX
8
OBJECT__1
10
28.660999
20
-4.465000
30
4.449000
70
192
0
VERTEX
8
OBJECT__1
10
27.893999
20
-7.956000
30
6.026000
70
192
0
VERTEX
8
OBJECT__1
10
26.792000
20
-11.115000
30
8.863000
70
192
0
VERTEX
8
OBJECT__1
10
28.743999
20
3.891000
30
4.290000
70
192
0
VERTEX
8
OBJECT__1
10
28.636000
20
4.621000
30
4.497000
70
192
0
VERTEX
8
OBJECT__1
10
27.858000
20
8.082000
30
6.108000
70
192
0
VERTEX
8
OBJECT__1
10
27.664000
20
8.723000
30
6.551000
70
192
0
VERTEX
8
OBJECT__1
10
26.700001
20
11.335000
30
9.151000
70
192
0
VERTEX
8
OBJECT__1
10
27.573000
20
8.967000
30
6.794000
70
192
0
VERTEX
8
OBJECT__1
10
26.497999
20
11.800000
30
9.822000
70
192
0
VERTEX
8
OBJECT__1
10
25.663000
20
13.519000
30
13.838000
70
192
0
VERTEX
8
OBJECT__1
10
25.753000
20
13.346000
30
13.209000
70
192
0
VERTEX
8
OBJECT__1
10
25.405001
20
13.997000
30
18.212999
70
192
0
VERTEX
8
OBJECT__1
10
25.582001
20
13.668000
30
15.204000
70
192
0
VERTEX
8
OBJECT__1
10
26.849001
20
10.977000
30
28.759001
70
192
0
VERTEX
8
OBJECT__1
10
26.382000
20
12.009000
30
26.459999
70
192
0
VERTEX
8
OBJECT__1
10
28.046000
20
7.404000
30
33.136002
70
192
0
VERTEX
8
OBJECT__1
10
27.174999
20
10.143000
30
30.055000
70
192
0
VERTEX
8
OBJECT__1
10
28.240999
20
6.620000
30
33.772999
70
192
0
VERTEX
8
OBJECT__1
10
25.961000
20
12.936000
30
24.393000
70
192
0
VERTEX
8
OBJECT__1
10
25.715000
20
13.419000
30
22.677000
70
192
0
VERTEX
8
OBJECT__1
10
28.818001
20
3.304000
30
35.570999
70
192
0
VERTEX
8
OBJECT__1
10
28.566999
20
4.749000
30
34.787998
70
192
0
VERTEX
8
OBJECT__1
10
29.006001
20
0.140000
30
36.134998
70
192
0
VERTEX
8
OBJECT__1
10
28.999001
20
0.000000
30
36.115002
70
192
0
VERTEX
8
OBJECT__1
10
0
20
0
30
0
70
128
71
1
72
2
73
3
0
VERTEX
8
OBJECT__1
10
0
20
0
30
0
70
128
71
4
72
5
73
2
0
VERTEX
8
OBJECT__1
10
0
20
0
30
0
70
128
71
6
72
7
73
5
0
VERTEX
8
OBJECT__1
10
0
20
0
30
0
70
128
71
8
72
9
73
7
0
VERTEX
8
OBJECT__1
10
0
20
0
30
0
70
128
71
10
72
11
73
9
0
VERTEX
8
OBJECT__1
10
0
20
0
30
0
70
128
71
12
72
13
73
14
0
VERTEX
8
OBJECT__1
10
0
20
0
30
0
70
128
71
15
72
16
73
13
0
VERTEX
8
OBJECT__1
10
0
20
0
30
0
70
128
71
17
72
18
73
16
0
VERTEX
8
OBJECT__1
10
0
20
0
30
0
70
128
71
19
72
20
73
18
0
VERTEX
8
OBJECT__1
10
0
20
0
30
0
70
128
71
21
72
3
73
20
0
VERTEX
8
OBJECT__1
10
0
20
0
30
0
70
128
71
22
72
23
73
24
0
VERTEX
8
OBJECT__1
10
0
20
0
30
0
70
128
71
23
72
25
73
26
0
VERTEX
8
OBJECT__1
10
0
20
0
30
0
70
128
71
23
72
27
73
28
0
VERTEX
8
OBJECT__1
10
0
20
0
30
0
70
128
71
28
72
29
73
23
0
VERTEX
8
OBJECT__1
10
0
20
0
30
0
70
128
71
23
72
30
73
31
0
VERTEX
8
OBJECT__1
10
0
20
0
30
0
70
128
71
23
72
32
73
30
0
VERTEX
8
OBJECT__1
10
0
20
0
30
0
70
128
71
31
72
27
73
23
0
VERTEX
8
OBJECT__1
10
0
20
0
30
0
70
128
71
23
72
14
73
33
0
VERTEX
8
OBJECT__1
10
0
20
0
30
0
70
128
71
33
72
32
73
23
0
VERTEX
8
OBJECT__1
10
0
20
0
30
0
70
128
71
14
72
34
73
35
0
VERTEX
8
OBJECT__1
10
0
20
0
30
0
70
128
71
14
72
36
73
34
0
VERTEX
8
OBJECT__1
10
0
20
0
30
0
70
128
71
14
72
37
73
36
0
VERTEX
8
OBJECT__1
10
0
20
0
30
0
70
128
71
14
72
38
73
39
0
VERTEX
8
OBJECT__1
10
0
20
0
30
0
70
128
71
40
72
41
73
42
0
VERTEX
8
OBJECT__1
10
0
20
0
30
0
70
128
71
42
72
14
73
40
0
VERTEX
8
OBJECT__1
10
0
20
0
30
0
70
128
71
42
72
43
73
14
0
VERTEX
8
OBJECT__1
10
0
20
0
30
0
70
128
71
43
72
44
73
14
0
VERTEX
8
OBJECT__1
10
0
20
0
30
0
70
128
71
44
72
38
73
14
0
VERTEX
8
OBJECT__1
10
0
20
0
30
0
70
128
71
39
72
45
73
14
0
VERTEX
8
OBJECT__1
10
0
20
0
30
0
70
128
71
45
72
37
73
14
0
VERTEX
8
OBJECT__1
10
0
20
0
30
0
70
128
71
35
72
33
73
14
0
VERTEX
8
OBJECT__1
10
0
20
0
30
0
70
128
71
29
72
25
73
23
0
VERTEX
8
OBJECT__1
10
0
20
0
30
0
70
128
71
26
72
24
73
23
0
VERTEX
8
OBJECT__1
10
0
20
0
30
0
70
128
71
40
72
11
73
46
0
VERTEX
8
OBJECT__1
10
0
20
0
30
0
70
128
71
11
72
47
73
46
0
VERTEX
8
OBJECT__1
10
0
20
0
30
0
70
128
71
11
72
48
73
47
0
VERTEX
8
OBJECT__1
10
0
20
0
30
0
70
128
71
11
72
49
73
48
0
VERTEX
8
OBJECT__1
10
0
20
0
30
0
70
128
71
11
72
50
73
51
0
VERTEX
8
OBJECT__1
10
0
20
0
30
0
70
128
71
51
72
49
73
11
0
VERTEX
8
OBJECT__1
10
0
20
0
30
0
70
128
71
11
72
52
73
50
0
VERTEX
8
OBJECT__1
10
0
20
0
30
0
70
128
71
11
72
53
73
54
0
VERTEX
8
OBJECT__1
10
0
20
0
30
0
70
128
71
11
72
55
73
56
0
VERTEX
8
OBJECT__1
10
0
20
0
30
0
70
128
71
11
72
10
73
55
0
VERTEX
8
OBJECT__1
10
0
20
0
30
0
70
128
71
56
72
53
73
11
0
VERTEX
8
OBJECT__1
10
0
20
0
30
0
70
128
71
54
72
52
73
11
0
VERTEX
8
OBJECT__1
10
0
20
0
30
0
70
128
71
10
72
57
73
58
0
VERTEX
8
OBJECT__1
10
0
20
0
30
0
70
128
71
10
72
59
73
60
0
VERTEX
8
OBJECT__1
10
0
20
0
30
0
70
128
71
60
72
57
73
10
0
VERTEX
8
OBJECT__1
10
0
20
0
30
0
70
128
71
10
72
61
73
59
0
VERTEX
8
OBJECT__1
10
0
20
0
30
0
70
128
71
58
72
62
73
10
0
VERTEX
8
OBJECT__1
10
0
20
0
30
0
70
128
71
62
72
63
73
10
0
VERTEX
8
OBJECT__1
10
0
20
0
30
0
70
128
71
10
72
64
73
65
0
VERTEX
8
OBJECT__1
10
0
20
0
30
0
70
128
71
65
72
61
73
10
0
VERTEX
8
OBJECT__1
10
0
20
0
30
0
70
128
71
63
72
55
73
10
0
VERTEX
8
OBJECT__1
10
0
20
0
30
0
70
128
71
22
72
66
73
64
0
VERTEX
8
OBJECT__1
10
0
20
0
30
0
70
128
71
64
72
10
73
22
0
VERTEX
8
OBJECT__1
10
0
20
0
30
0
70
128
71
22
72
67
73
66
0
VERTEX
8
OBJECT__1
10
0
20
0
30
0
70
128
71
46
72
41
73
40
0
VERTEX
8
OBJECT__1
10
0
20
0
30
0
70
128
71
24
72
67
73
22
0
VERTEX
8
OBJECT__1
10
0
20
0
30
0
70
128
71
20
72
19
73
21
0
VERTEX
8
OBJECT__1
10
0
20
0
30
0
70
128
71
18
72
17
73
19
0
VERTEX
8
OBJECT__1
10
0
20
0
30
0
70
128
71
16
72
15
73
17
0
VERTEX
8
OBJECT__1
10
0
20
0
30
0
70
128
71
13
72
12
73
15
0
VERTEX
8
OBJECT__1
10
0
20
0
30
0
70
128
71
14
72
23
73
12
0
VERTEX
8
OBJECT__1
10
0
20
0
30
0
70
128
71
9
72
8
73
10
0
VERTEX
8
OBJECT__1
10
0
20
0
30
0
70
128
71
7
72
6
73
8
0
VERTEX
8
OBJECT__1
10
0
20
0
30
0
70
128
71
5
72
4
73
6
0
VERTEX
8
OBJECT__1
10
0
20
0
30
0
70
128
71
2
72
1
73
4
0
VERTEX
8
OBJECT__1
10
0
20
0
30
0
70
128
71
3
72
21
73
1
0
SEQEND
8
OBJECT__1
0
POLYLINE
8
OBJECT__3
66
1
70
64
71
12
72
10
62
253
0
VERTEX
8
OBJECT__3
10
0.007000
20
29.000000
30
49.549999
70
192
0
VERTEX
8
OBJECT__3
10
29.007000
20
0.000000
30
49.549999
70
192
0
VERTEX
8
OBJECT__3
10
25.121000
20
14.500000
30
49.549999
70
192
0
VERTEX
8
OBJECT__3
10
0.007000
20
-29.000000
30
49.549999
70
192
0
VERTEX
8
OBJECT__3
10
-25.108000
20
14.500000
30
49.549999
70
192
0
VERTEX
8
OBJECT__3
10
-28.993000
20
0.000000
30
49.549999
70
192
0
VERTEX
8
OBJECT__3
10
25.121000
20
-14.500000
30
49.549999
70
192
0
VERTEX
8
OBJECT__3
10
-25.108000
20
-14.500000
30
49.549999
70
192
0
VERTEX
8
OBJECT__3
10
-14.493000
20
25.115000
30
49.549999
70
192
0
VERTEX
8
OBJECT__3
10
14.507000
20
-25.115000
30
49.549999
70
192
0
VERTEX
8
OBJECT__3
10
14.507000
20
25.115000
30
49.549999
70
192
0
VERTEX
8
OBJECT__3
10
-14.493000
20
-25.115000
30
49.549999
70
192
0
VERTEX
8
OBJECT__3
10
0
20
0
30
0
70
128
71
1
72
2
73
3
0
VERTEX
8
OBJECT__3
10
0
20
0
30
0
70
128
71
4
72
5
73
6
0
VERTEX
8
OBJECT__3
10
0
20
0
30
0
70
128
71
1
72
7
73
2
0
VERTEX
8
OBJECT__3
10
0
20
0
30
0
70
128
71
6
72
8
73
4
0
VERTEX
8
OBJECT__3
10
0
20
0
30
0
70
128
71
4
72
1
73
9
0
VERTEX
8
OBJECT__3
10
0
20
0
30
0
70
128
71
1
72
10
73
7
0
VERTEX
8
OBJECT__3
10
0
20
0
30
0
70
128
71
9
72
5
73
4
0
VERTEX
8
OBJECT__3
10
0
20
0
30
0
70
128
71
1
72
4
73
10
0
VERTEX
8
OBJECT__3
10
0
20
0
30
0
70
128
71
3
72
11
73
1
0
VERTEX
8
OBJECT__3
10
0
20
0
30
0
70
128
71
8
72
12
73
4
0
SEQEND
8
OBJECT__3
0
POLYLINE
8
OBJECT__4
66
1
70
64
71
52
72
52
62
253
0
VERTEX
8
OBJECT__4
10
257.657990
20
0.000000
30
135.817001
70
192
0
VERTEX
8
OBJECT__4
10
27.664000
20
8.723000
30
6.551000
70
192
0
VERTEX
8
OBJECT__4
10
27.573000
20
8.967000
30
6.794000
70
192
0
VERTEX
8
OBJECT__4
10
27.858000
20
8.082000
30
6.108000
70
192
0
VERTEX
8
OBJECT__4
10
28.636000
20
4.621000
30
4.497000
70
192
0
VERTEX
8
OBJECT__4
10
28.743999
20
3.891000
30
4.290000
70
192
0
VERTEX
8
OBJECT__4
10
29.007000
20
0.000000
30
3.805000
70
192
0
VERTEX
8
OBJECT__4
10
256.019989
20
8.999000
30
138.653000
70
192
0
VERTEX
8
OBJECT__4
10
25.663000
20
13.519000
30
13.838000
70
192
0
VERTEX
8
OBJECT__4
10
25.582001
20
13.668000
30
15.204000
70
192
0
VERTEX
8
OBJECT__4
10
25.753000
20
13.346000
30
13.209000
70
192
0
VERTEX
8
OBJECT__4
10
26.497999
20
11.800000
30
9.822000
70
192
0
VERTEX
8
OBJECT__4
10
26.700001
20
11.335000
30
9.151000
70
192
0
VERTEX
8
OBJECT__4
10
251.873993
20
13.787000
30
145.835999
70
192
0
VERTEX
8
OBJECT__4
10
25.961000
20
12.936000
30
24.393000
70
192
0
VERTEX
8
OBJECT__4
10
26.382000
20
12.009000
30
26.459999
70
192
0
VERTEX
8
OBJECT__4
10
25.405001
20
13.997000
30
18.212999
70
192
0
VERTEX
8
OBJECT__4
10
25.715000
20
13.419000
30
22.677000
70
192
0
VERTEX
8
OBJECT__4
10
247.158005
20
12.124000
30
154.003006
70
192
0
VERTEX
8
OBJECT__4
10
28.240999
20
6.620000
30
33.772999
70
192
0
VERTEX
8
OBJECT__4
10
28.566999
20
4.749000
30
34.787998
70
192
0
VERTEX
8
OBJECT__4
10
26.849001
20
10.977000
30
28.759001
70
192
0
VERTEX
8
OBJECT__4
10
27.174999
20
10.143000
30
30.055000
70
192
0
VERTEX
8
OBJECT__4
10
28.046000
20
7.404000
30
33.136002
70
192
0
VERTEX
8
OBJECT__4
10
244.080002
20
-4.788000
30
159.334000
70
192
0
VERTEX
8
OBJECT__4
10
244.080002
20
4.788000
30
159.334000
70
192
0
VERTEX
8
OBJECT__4
10
29.006001
20
0.140000
30
36.134998
70
192
0
VERTEX
8
OBJECT__4
10
28.999001
20
0.000000
30
36.115002
70
192
0
VERTEX
8
OBJECT__4
10
28.846001
20
-3.045000
30
35.657001
70
192
0
VERTEX
8
OBJECT__4
10
28.818001
20
3.304000
30
35.570999
70
192
0
VERTEX
8
OBJECT__4
10
247.158005
20
-12.124000
30
154.003006
70
192
0
VERTEX
8
OBJECT__4
10
27.608999
20
-8.893000
30
31.649000
70
192
0
VERTEX
8
OBJECT__4
10
27.389999
20
-9.549000
30
30.858999
70
192
0
VERTEX
8
OBJECT__4
10
26.414000
20
-11.985000
30
26.829000
70
192
0
VERTEX
8
OBJECT__4
10
26.355000
20
-12.111000
30
26.514000
70
192
0
VERTEX
8
OBJECT__4
10
28.400000
20
-5.899000
30
34.282001
70
192
0
VERTEX
8
OBJECT__4
10
28.577999
20
-4.763000
30
34.828999
70
192
0
VERTEX
8
OBJECT__4
10
251.873993
20
-13.787000
30
145.835999
70
192
0
VERTEX
8
OBJECT__4
10
25.492001
20
-13.839000
30
20.386999
70
192
0
VERTEX
8
OBJECT__4
10
25.403999
20
-13.999000
30
17.666000
70
192
0
VERTEX
8
OBJECT__4
10
26.017000
20
-12.824000
30
24.729000
70
192
0
VERTEX
8
OBJECT__4
10
256.019989
20
-8.999000
30
138.653000
70
192
0
VERTEX
8
OBJECT__4
10
25.573999
20
-13.683000
30
15.199000
70
192
0
VERTEX
8
OBJECT__4
10
25.673000
20
-13.500000
30
13.763000
70
192
0
VERTEX
8
OBJECT__4
10
25.788000
20
-13.278000
30
12.990000
70
192
0
VERTEX
8
OBJECT__4
10
26.552000
20
-11.677000
30
9.636000
70
192
0
VERTEX
8
OBJECT__4
10
26.792000
20
-11.115000
30
8.863000
70
192
0
VERTEX
8
OBJECT__4
10
27.570000
20
-8.941000
30
6.825000
70
192
0
VERTEX
8
OBJECT__4
10
27.760000
20
-8.412000
30
6.329000
70
192
0
VERTEX
8
OBJECT__4
10
27.893999
20
-7.956000
30
6.026000
70
192
0
VERTEX
8
OBJECT__4
10
28.660999
20
-4.465000
30
4.449000
70
192
0
VERTEX
8
OBJECT__4
10
28.743000
20
-3.905000
30
4.294000
70
192
0
VERTEX
8
OBJECT__4
10
0
20
0
30
0
70
128
71
1
72
2
73
3
0
VERTEX
8
OBJECT__4
10
0
20
0
30
0
70
128
71
1
72
4
73
2
0
VERTEX
8
OBJECT__4
10
0
20
0
30
0
70
128
71
1
72
5
73
4
0
VERTEX
8
OBJECT__4
10
0
20
0
30
0
70
128
71
1
72
6
73
5
0
VERTEX
8
OBJECT__4
10
0
20
0
30
0
70
128
71
1
72
7
73
6
0
VERTEX
8
OBJECT__4
10
0
20
0
30
0
70
128
71
8
72
9
73
10
0
VERTEX
8
OBJECT__4
10
0
20
0
30
0
70
128
71
8
72
11
73
9
0
VERTEX
8
OBJECT__4
10
0
20
0
30
0
70
128
71
8
72
12
73
11
0
VERTEX
8
OBJECT__4
10
0
20
0
30
0
70
128
71
8
72
13
73
12
0
VERTEX
8
OBJECT__4
10
0
20
0
30
0
70
128
71
8
72
3
73
13
0
VERTEX
8
OBJECT__4
10
0
20
0
30
0
70
128
71
14
72
15
73
16
0
VERTEX
8
OBJECT__4
10
0
20
0
30
0
70
128
71
14
72
10
73
17
0
VERTEX
8
OBJECT__4
10
0
20
0
30
0
70
128
71
17
72
18
73
14
0
VERTEX
8
OBJECT__4
10
0
20
0
30
0
70
128
71
18
72
15
73
14
0
VERTEX
8
OBJECT__4
10
0
20
0
30
0
70
128
71
19
72
20
73
21
0
VERTEX
8
OBJECT__4
10
0
20
0
30
0
70
128
71
19
72
16
73
22
0
VERTEX
8
OBJECT__4
10
0
20
0
30
0
70
128
71
22
72
23
73
19
0
VERTEX
8
OBJECT__4
10
0
20
0
30
0
70
128
71
23
72
24
73
19
0
VERTEX
8
OBJECT__4
10
0
20
0
30
0
70
128
71
24
72
20
73
19
0
VERTEX
8
OBJECT__4
10
0
20
0
30
0
70
128
71
25
72
26
73
27
0
VERTEX
8
OBJECT__4
10
0
20
0
30
0
70
128
71
27
72
28
73
25
0
VERTEX
8
OBJECT__4
10
0
20
0
30
0
70
128
71
28
72
29
73
25
0
VERTEX
8
OBJECT__4
10
0
20
0
30
0
70
128
71
26
72
30
73
27
0
VERTEX
8
OBJECT__4
10
0
20
0
30
0
70
128
71
26
72
21
73
30
0
VERTEX
8
OBJECT__4
10
0
20
0
30
0
70
128
71
31
72
32
73
33
0
VERTEX
8
OBJECT__4
10
0
20
0
30
0
70
128
71
33
72
34
73
31
0
VERTEX
8
OBJECT__4
10
0
20
0
30
0
70
128
71
34
72
35
73
31
0
VERTEX
8
OBJECT__4
10
0
20
0
30
0
70
128
71
31
72
36
73
32
0
VERTEX
8
OBJECT__4
10
0
20
0
30
0
70
128
71
31
72
25
73
37
0
VERTEX
8
OBJECT__4
10
0
20
0
30
0
70
128
71
37
72
36
73
31
0
VERTEX
8
OBJECT__4
10
0
20
0
30
0
70
128
71
38
72
39
73
40
0
VERTEX
8
OBJECT__4
10
0
20
0
30
0
70
128
71
38
72
41
73
39
0
VERTEX
8
OBJECT__4
10
0
20
0
30
0
70
128
71
38
72
31
73
35
0
VERTEX
8
OBJECT__4
10
0
20
0
30
0
70
128
71
35
72
41
73
38
0
VERTEX
8
OBJECT__4
10
0
20
0
30
0
70
128
71
42
72
38
73
43
0
VERTEX
8
OBJECT__4
10
0
20
0
30
0
70
128
71
43
72
44
73
42
0
VERTEX
8
OBJECT__4
10
0
20
0
30
0
70
128
71
44
72
45
73
42
0
VERTEX
8
OBJECT__4
10
0
20
0
30
0
70
128
71
45
72
46
73
42
0
VERTEX
8
OBJECT__4
10
0
20
0
30
0
70
128
71
46
72
47
73
42
0
VERTEX
8
OBJECT__4
10
0
20
0
30
0
70
128
71
1
72
42
73
48
0
VERTEX
8
OBJECT__4
10
0
20
0
30
0
70
128
71
48
72
49
73
1
0
VERTEX
8
OBJECT__4
10
0
20
0
30
0
70
128
71
49
72
50
73
1
0
VERTEX
8
OBJECT__4
10
0
20
0
30
0
70
128
71
50
72
51
73
1
0
VERTEX
8
OBJECT__4
10
0
20
0
30
0
70
128
71
51
72
52
73
1
0
VERTEX
8
OBJECT__4
10
0
20
0
30
0
70
128
71
52
72
7
73
1
0
VERTEX
8
OBJECT__4
10
0
20
0
30
0
70
128
71
47
72
48
73
42
0
VERTEX
8
OBJECT__4
10
0
20
0
30
0
70
128
71
40
72
43
73
38
0
VERTEX
8
OBJECT__4
10
0
20
0
30
0
70
128
71
29
72
37
73
25
0
VERTEX
8
OBJECT__4
10
0
20
0
30
0
70
128
71
21
72
26
73
19
0
VERTEX
8
OBJECT__4
10
0
20
0
30
0
70
128
71
16
72
19
73
14
0
VERTEX
8
OBJECT__4
10
0
20
0
30
0
70
128
71
10
72
14
73
8
0
VERTEX
8
OBJECT__4
10
0
20
0
30
0
70
128
71
3
72
8
73
1
0
SEQEND
8
OBJECT__4
0
POLYLINE
8
OBJECT__5
66
1
70
64
71
9
72
7
62
253
0
VERTEX
8
OBJECT__5
10
244.080002
20
-4.788000
30
159.334000
70
192
0
VERTEX
8
OBJECT__5
10
251.873993
20
-13.787000
30
145.835999
70
192
0
VERTEX
8
OBJECT__5
10
256.019989
20
-8.999000
30
138.653000
70
192
0
VERTEX
8
OBJECT__5
10
257.657990
20
0.000000
30
135.817001
70
192
0
VERTEX
8
OBJECT__5
10
251.873993
20
13.787000
30
145.835999
70
192
0
VERTEX
8
OBJECT__5
10
247.158005
20
12.124000
30
154.003006
70
192
0
VERTEX
8
OBJECT__5
10
247.158005
20
-12.124000
30
154.003006
70
192
0
VERTEX
8
OBJECT__5
10
256.019989
20
8.999000
30
138.653000
70
192
0
VERTEX
8
OBJECT__5
10
244.080002
20
4.788000
30
159.334000
70
192
0
VERTEX
8
OBJECT__5
10
0
20
0
30
0
70
128
71
1
72
2
73
3
0
VERTEX
8
OBJECT__5
10
0
20
0
30
0
70
128
71
4
72
5
73
6
0
VERTEX
8
OBJECT__5
10
0
20
0
30
0
70
128
71
1
72
7
73
2
0
VERTEX
8
OBJECT__5
10
0
20
0
30
0
70
128
71
4
72
8
73
5
0
VERTEX
8
OBJECT__5
10
0
20
0
30
0
70
128
71
4
72
9
73
1
0
VERTEX
8
OBJECT__5
10
0
20
0
30
0
70
128
71
3
72
4
73
1
0
VERTEX
8
OBJECT__5
10
0
20
0
30
0
70
128
71
6
72
9
73
4
0
SEQEND
8
OBJECT__5
0
POLYLINE
8
OBJECT__6
66
1
70
64
71
15
72
13
62
253
0
VERTEX
8
OBJECT__6
10
-19.017000
20
20.808001
30
96.005997
70
192
0
VERTEX
8
OBJECT__6
10
13.707000
20
-24.249001
30
96.862999
70
192
0
VERTEX
8
OBJECT__6
10
2.638000
20
-27.847000
30
96.572998
70
192
0
VERTEX
8
OBJECT__6
10
-19.017000
20
-20.808001
30
96.005997
70
192
0
VERTEX
8
OBJECT__6
10
-28.278000
20
0.000000
30
95.763000
70
192
0
VERTEX
8
OBJECT__6
10
-25.858000
20
11.389000
30
95.827003
70
192
0
VERTEX
8
OBJECT__6
10
22.357000
20
-16.458000
30
97.088997
70
192
0
VERTEX
8
OBJECT__6
10
22.357000
20
16.458000
30
97.088997
70
192
0
VERTEX
8
OBJECT__6
10
27.091000
20
5.822000
30
97.212997
70
192
0
VERTEX
8
OBJECT__6
10
2.638000
20
27.847000
30
96.572998
70
192
0
VERTEX
8
OBJECT__6
10
13.707000
20
24.249001
30
96.862999
70
192
0
VERTEX
8
OBJECT__6
10
-25.858000
20
-11.389000
30
95.827003
70
192
0
VERTEX
8
OBJECT__6
10
-8.937000
20
-26.629999
30
96.269997
70
192
0
VERTEX
8
OBJECT__6
10
-8.937000
20
26.629999
30
96.269997
70
192
0
VERTEX
8
OBJECT__6
10
27.091000
20
-5.822000
30
97.212997
70
192
0
VERTEX
8
OBJECT__6
10
0
20
0
30
0
70
128
71
1
72
2
73
3
0
VERTEX
8
OBJECT__6
10
0
20
0
30
0
70
128
71
4
72
5
73
6
0
VERTEX
8
OBJECT__6
10
0
20
0
30
0
70
128
71
1
72
7
73
2
0
VERTEX
8
OBJECT__6
10
0
20
0
30
0
70
128
71
7
72
8
73
9
0
VERTEX
8
OBJECT__6
10
0
20
0
30
0
70
128
71
7
72
10
73
11
0
VERTEX
8
OBJECT__6
10
0
20
0
30
0
70
128
71
4
72
12
73
5
0
VERTEX
8
OBJECT__6
10
0
20
0
30
0
70
128
71
3
72
13
73
1
0
VERTEX
8
OBJECT__6
10
0
20
0
30
0
70
128
71
11
72
8
73
7
0
VERTEX
8
OBJECT__6
10
0
20
0
30
0
70
128
71
7
72
1
73
14
0
VERTEX
8
OBJECT__6
10
0
20
0
30
0
70
128
71
13
72
4
73
1
0
VERTEX
8
OBJECT__6
10
0
20
0
30
0
70
128
71
14
72
10
73
7
0
VERTEX
8
OBJECT__6
10
0
20
0
30
0
70
128
71
9
72
15
73
7
0
VERTEX
8
OBJECT__6
10
0
20
0
30
0
70
128
71
6
72
1
73
4
0
SEQEND
8
OBJECT__6
0
POLYLINE
8
OBJECT__7
66
1
70
64
71
70
72
70
62
253
0
VERTEX
8
OBJECT__7
10
27.091000
20
-5.822000
30
97.212997
70
192
0
VERTEX
8
OBJECT__7
10
26.893000
20
-3.249000
30
120.904999
70
192
0
VERTEX
8
OBJECT__7
10
26.729000
20
-4.204000
30
121.474998
70
192
0
VERTEX
8
OBJECT__7
10
26.525000
20
-5.393000
30
122.184998
70
192
0
VERTEX
8
OBJECT__7
10
27.076000
20
-1.115000
30
120.301003
70
192
0
VERTEX
8
OBJECT__7
10
27.091000
20
5.822000
30
97.212997
70
192
0
VERTEX
8
OBJECT__7
10
27.072001
20
-0.013000
30
120.316002
70
192
0
VERTEX
8
OBJECT__7
10
27.066000
20
1.323000
30
120.333000
70
192
0
VERTEX
8
OBJECT__7
10
26.421000
20
5.821000
30
122.567001
70
192
0
VERTEX
8
OBJECT__7
10
26.738001
20
4.203000
30
121.440002
70
192
0
VERTEX
8
OBJECT__7
10
26.813999
20
3.820000
30
121.174004
70
192
0
VERTEX
8
OBJECT__7
10
21.441000
20
-16.458000
30
132.076996
70
192
0
VERTEX
8
OBJECT__7
10
24.936001
20
-10.059000
30
131.470001
70
192
0
VERTEX
8
OBJECT__7
10
24.952000
20
-9.994000
30
131.824997
70
192
0
VERTEX
8
OBJECT__7
10
24.934999
20
-10.061000
30
131.464005
70
192
0
VERTEX
8
OBJECT__7
10
22.357000
20
-16.458000
30
97.088997
70
192
0
VERTEX
8
OBJECT__7
10
25.479000
20
-8.894000
30
126.752998
70
192
0
VERTEX
8
OBJECT__7
10
25.340000
20
-9.213000
30
127.741997
70
192
0
VERTEX
8
OBJECT__7
10
25.084999
20
-9.799000
30
129.557007
70
192
0
VERTEX
8
OBJECT__7
10
26.037001
20
-7.276000
30
124.070999
70
192
0
VERTEX
8
OBJECT__7
10
26.004000
20
-7.372000
30
124.231003
70
192
0
VERTEX
8
OBJECT__7
10
26.414000
20
-5.819000
30
122.612000
70
192
0
VERTEX
8
OBJECT__7
10
12.791000
20
-24.249001
30
131.850998
70
192
0
VERTEX
8
OBJECT__7
10
13.707000
20
-24.249001
30
96.862999
70
192
0
VERTEX
8
OBJECT__7
10
1.722000
20
-27.847000
30
131.561005
70
192
0
VERTEX
8
OBJECT__7
10
-9.854000
20
-26.629999
30
131.257996
70
192
0
VERTEX
8
OBJECT__7
10
-8.937000
20
-26.629999
30
96.269997
70
192
0
VERTEX
8
OBJECT__7
10
-19.933001
20
-20.808001
30
130.994003
70
192
0
VERTEX
8
OBJECT__7
10
-19.017000
20
-20.808001
30
96.005997
70
192
0
VERTEX
8
OBJECT__7
10
-26.775000
20
-11.389000
30
130.815002
70
192
0
VERTEX
8
OBJECT__7
10
-28.278000
20
0.000000
30
95.763000
70
192
0
VERTEX
8
OBJECT__7
10
-28.628000
20
-5.773000
30
132.100998
70
192
0
VERTEX
8
OBJECT__7
10
-29.212999
20
-1.084000
30
132.246994
70
192
0
VERTEX
8
OBJECT__7
10
-27.349001
20
-10.000000
30
130.800003
70
192
0
VERTEX
8
OBJECT__7
10
-27.375000
20
-10.000000
30
131.798996
70
192
0
VERTEX
8
OBJECT__7
10
-25.858000
20
-11.389000
30
95.827003
70
192
0
VERTEX
8
OBJECT__7
10
-25.858000
20
11.389000
30
95.827003
70
192
0
VERTEX
8
OBJECT__7
10
-27.271000
20
10.200000
30
130.802002
70
192
0
VERTEX
8
OBJECT__7
10
-29.169001
20
-0.003000
30
132.235992
70
192
0
VERTEX
8
OBJECT__7
10
-27.351999
20
10.002000
30
130.968994
70
192
0
VERTEX
8
OBJECT__7
10
-27.316000
20
10.090000
30
130.895004
70
192
0
VERTEX
8
OBJECT__7
10
-27.354000
20
10.000000
30
131.000000
70
192
0
VERTEX
8
OBJECT__7
10
-29.034000
20
3.324000
30
132.201996
70
192
0
VERTEX
8
OBJECT__7
10
-28.070999
20
7.958000
30
131.964996
70
192
0
VERTEX
8
OBJECT__7
10
-27.375000
20
10.000000
30
131.798996
70
192
0
VERTEX
8
OBJECT__7
10
-26.775000
20
11.389000
30
130.815002
70
192
0
VERTEX
8
OBJECT__7
10
-19.933001
20
20.808001
30
130.994003
70
192
0
VERTEX
8
OBJECT__7
10
-19.017000
20
20.808001
30
96.005997
70
192
0
VERTEX
8
OBJECT__7
10
-9.854000
20
26.629999
30
131.257996
70
192
0
VERTEX
8
OBJECT__7
10
-8.937000
20
26.629999
30
96.269997
70
192
0
VERTEX
8
OBJECT__7
10
1.722000
20
27.847000
30
131.561005
70
192
0
VERTEX
8
OBJECT__7
10
12.791000
20
24.249001
30
131.850998
70
192
0
VERTEX
8
OBJECT__7
10
13.707000
20
24.249001
30
96.862999
70
192
0
VERTEX
8
OBJECT__7
10
21.441000
20
16.458000
30
132.076996
70
192
0
VERTEX
8
OBJECT__7
10
22.357000
20
16.458000
30
97.088997
70
192
0
VERTEX
8
OBJECT__7
10
25.839001
20
7.901000
30
124.936996
70
192
0
VERTEX
8
OBJECT__7
10
26.003000
20
7.329000
30
124.265999
70
192
0
VERTEX
8
OBJECT__7
10
25.330000
20
9.258000
30
127.652000
70
192
0
VERTEX
8
OBJECT__7
10
24.863001
20
10.200000
30
132.167007
70
192
0
VERTEX
8
OBJECT__7
10
24.976000
20
10.000000
30
130.804001
70
192
0
VERTEX
8
OBJECT__7
10
25.323000
20
9.274000
30
127.717003
70
192
0
VERTEX
8
OBJECT__7
10
26.391001
20
5.975000
30
122.674004
70
192
0
VERTEX
8
OBJECT__7
10
24.903000
20
10.091000
30
132.261993
70
192
0
VERTEX
8
OBJECT__7
10
24.940001
20
10.000000
30
132.169006
70
192
0
VERTEX
8
OBJECT__7
10
24.952000
20
10.000000
30
131.722000
70
192
0
VERTEX
8
OBJECT__7
10
24.934999
20
10.002000
30
132.341003
70
192
0
VERTEX
8
OBJECT__7
10
24.934999
20
10.000000
30
132.369003
70
192
0
VERTEX
8
OBJECT__7
10
2.638000
20
27.847000
30
96.572998
70
192
0
VERTEX
8
OBJECT__7
10
2.638000
20
-27.847000
30
96.572998
70
192
0
VERTEX
8
OBJECT__7
10
24.940001
20
-10.000000
30
132.169006
70
192
0
VERTEX
8
OBJECT__7
10
0
20
0
30
0
70
128
71
1
72
2
73
3
0
VERTEX
8
OBJECT__7
10
0
20
0
30
0
70
128
71
3
72
4
73
1
0
VERTEX
8
OBJECT__7
10
0
20
0
30
0
70
128
71
1
72
5
73
2
0
VERTEX
8
OBJECT__7
10
0
20
0
30
0
70
128
71
1
72
6
73
7
0
VERTEX
8
OBJECT__7
10
0
20
0
30
0
70
128
71
6
72
8
73
7
0
VERTEX
8
OBJECT__7
10
0
20
0
30
0
70
128
71
7
72
5
73
1
0
VERTEX
8
OBJECT__7
10
0
20
0
30
0
70
128
71
6
72
9
73
10
0
VERTEX
8
OBJECT__7
10
0
20
0
30
0
70
128
71
10
72
11
73
6
0
VERTEX
8
OBJECT__7
10
0
20
0
30
0
70
128
71
11
72
8
73
6
0
VERTEX
8
OBJECT__7
10
0
20
0
30
0
70
128
71
12
72
13
73
14
0
VERTEX
8
OBJECT__7
10
0
20
0
30
0
70
128
71
12
72
15
73
13
0
VERTEX
8
OBJECT__7
10
0
20
0
30
0
70
128
71
12
72
16
73
17
0
VERTEX
8
OBJECT__7
10
0
20
0
30
0
70
128
71
17
72
18
73
12
0
VERTEX
8
OBJECT__7
10
0
20
0
30
0
70
128
71
18
72
19
73
12
0
VERTEX
8
OBJECT__7
10
0
20
0
30
0
70
128
71
16
72
20
73
21
0
VERTEX
8
OBJECT__7
10
0
20
0
30
0
70
128
71
21
72
17
73
16
0
VERTEX
8
OBJECT__7
10
0
20
0
30
0
70
128
71
16
72
1
73
22
0
VERTEX
8
OBJECT__7
10
0
20
0
30
0
70
128
71
22
72
20
73
16
0
VERTEX
8
OBJECT__7
10
0
20
0
30
0
70
128
71
19
72
15
73
12
0
VERTEX
8
OBJECT__7
10
0
20
0
30
0
70
128
71
16
72
12
73
23
0
VERTEX
8
OBJECT__7
10
0
20
0
30
0
70
128
71
24
72
23
73
25
0
VERTEX
8
OBJECT__7
10
0
20
0
30
0
70
128
71
25
72
26
73
27
0
VERTEX
8
OBJECT__7
10
0
20
0
30
0
70
128
71
26
72
28
73
29
0
VERTEX
8
OBJECT__7
10
0
20
0
30
0
70
128
71
29
72
28
73
30
0
VERTEX
8
OBJECT__7
10
0
20
0
30
0
70
128
71
31
72
32
73
33
0
VERTEX
8
OBJECT__7
10
0
20
0
30
0
70
128
71
32
72
31
73
34
0
VERTEX
8
OBJECT__7
10
0
20
0
30
0
70
128
71
34
72
35
73
32
0
VERTEX
8
OBJECT__7
10
0
20
0
30
0
70
128
71
36
72
30
73
34
0
VERTEX
8
OBJECT__7
10
0
20
0
30
0
70
128
71
34
72
31
73
36
0
VERTEX
8
OBJECT__7
10
0
20
0
30
0
70
128
71
37
72
31
73
38
0
VERTEX
8
OBJECT__7
10
0
20
0
30
0
70
128
71
31
72
39
73
40
0
VERTEX
8
OBJECT__7
10
0
20
0
30
0
70
128
71
40
72
41
73
31
0
VERTEX
8
OBJECT__7
10
0
20
0
30
0
70
128
71
41
72
38
73
31
0
VERTEX
8
OBJECT__7
10
0
20
0
30
0
70
128
71
42
72
39
73
43
0
VERTEX
8
OBJECT__7
10
0
20
0
30
0
70
128
71
43
72
44
73
42
0
VERTEX
8
OBJECT__7
10
0
20
0
30
0
70
128
71
44
72
45
73
42
0
VERTEX
8
OBJECT__7
10
0
20
0
30
0
70
128
71
42
72
40
73
39
0
VERTEX
8
OBJECT__7
10
0
20
0
30
0
70
128
71
46
72
47
73
48
0
VERTEX
8
OBJECT__7
10
0
20
0
30
0
70
128
71
48
72
47
73
49
0
VERTEX
8
OBJECT__7
10
0
20
0
30
0
70
128
71
50
72
49
73
51
0
VERTEX
8
OBJECT__7
10
0
20
0
30
0
70
128
71
51
72
52
73
53
0
VERTEX
8
OBJECT__7
10
0
20
0
30
0
70
128
71
52
72
54
73
55
0
VERTEX
8
OBJECT__7
10
0
20
0
30
0
70
128
71
6
72
56
73
57
0
VERTEX
8
OBJECT__7
10
0
20
0
30
0
70
128
71
6
72
58
73
56
0
VERTEX
8
OBJECT__7
10
0
20
0
30
0
70
128
71
6
72
59
73
60
0
VERTEX
8
OBJECT__7
10
0
20
0
30
0
70
128
71
60
72
61
73
6
0
VERTEX
8
OBJECT__7
10
0
20
0
30
0
70
128
71
61
72
58
73
6
0
VERTEX
8
OBJECT__7
10
0
20
0
30
0
70
128
71
57
72
62
73
6
0
VERTEX
8
OBJECT__7
10
0
20
0
30
0
70
128
71
59
72
63
73
64
0
VERTEX
8
OBJECT__7
10
0
20
0
30
0
70
128
71
64
72
65
73
59
0
VERTEX
8
OBJECT__7
10
0
20
0
30
0
70
128
71
63
72
66
73
64
0
VERTEX
8
OBJECT__7
10
0
20
0
30
0
70
128
71
65
72
60
73
59
0
VERTEX
8
OBJECT__7
10
0
20
0
30
0
70
128
71
55
72
54
73
59
0
VERTEX
8
OBJECT__7
10
0
20
0
30
0
70
128
71
59
72
6
73
55
0
VERTEX
8
OBJECT__7
10
0
20
0
30
0
70
128
71
62
72
9
73
6
0
VERTEX
8
OBJECT__7
10
0
20
0
30
0
70
128
71
66
72
67
73
64
0
VERTEX
8
OBJECT__7
10
0
20
0
30
0
70
128
71
55
72
53
73
52
0
VERTEX
8
OBJECT__7
10
0
20
0
30
0
70
128
71
53
72
68
73
51
0
VERTEX
8
OBJECT__7
10
0
20
0
30
0
70
128
71
51
72
68
73
50
0
VERTEX
8
OBJECT__7
10
0
20
0
30
0
70
128
71
49
72
50
73
48
0
VERTEX
8
OBJECT__7
10
0
20
0
30
0
70
128
71
48
72
37
73
46
0
VERTEX
8
OBJECT__7
10
0
20
0
30
0
70
128
71
38
72
46
73
37
0
VERTEX
8
OBJECT__7
10
0
20
0
30
0
70
128
71
33
72
39
73
31
0
VERTEX
8
OBJECT__7
10
0
20
0
30
0
70
128
71
30
72
36
73
29
0
VERTEX
8
OBJECT__7
10
0
20
0
30
0
70
128
71
29
72
27
73
26
0
VERTEX
8
OBJECT__7
10
0
20
0
30
0
70
128
71
27
72
69
73
25
0
VERTEX
8
OBJECT__7
10
0
20
0
30
0
70
128
71
25
72
69
73
24
0
VERTEX
8
OBJECT__7
10
0
20
0
30
0
70
128
71
23
72
24
73
16
0
VERTEX
8
OBJECT__7
10
0
20
0
30
0
70
128
71
14
72
70
73
12
0
VERTEX
8
OBJECT__7
10
0
20
0
30
0
70
128
71
4
72
22
73
1
0
SEQEND
8
OBJECT__7
0
POLYLINE
8
OBJECT__9
66
1
70
64
71
8
72
6
62
253
0
VERTEX
8
OBJECT__9
10
24.903000
20
10.091000
30
132.261993
70
192
0
VERTEX
8
OBJECT__9
10
24.863001
20
10.200000
30
132.167007
70
192
0
VERTEX
8
OBJECT__9
10
-27.271000
20
10.200000
30
130.802002
70
192
0
VERTEX
8
OBJECT__9
10
24.934999
20
10.002000
30
132.341003
70
192
0
VERTEX
8
OBJECT__9
10
-27.316000
20
10.090000
30
130.895004
70
192
0
VERTEX
8
OBJECT__9
10
-27.351999
20
10.002000
30
130.968994
70
192
0
VERTEX
8
OBJECT__9
10
-27.354000
20
10.000000
30
131.000000
70
192
0
VERTEX
8
OBJECT__9
10
24.934999
20
10.000000
30
132.369003
70
192
0
VERTEX
8
OBJECT__9
10
0
20
0
30
0
70
128
71
1
72
2
73
3
0
VERTEX
8
OBJECT__9
10
0
20
0
30
0
70
128
71
4
72
1
73
5
0
VERTEX
8
OBJECT__9
10
0
20
0
30
0
70
128
71
5
72
6
73
4
0
VERTEX
8
OBJECT__9
10
0
20
0
30
0
70
128
71
7
72
8
73
4
0
VERTEX
8
OBJECT__9
10
0
20
0
30
0
70
128
71
6
72
7
73
4
0
VERTEX
8
OBJECT__9
10
0
20
0
30
0
70
128
71
3
72
5
73
1
0
SEQEND
8
OBJECT__9
0
POLYLINE
8
OBJECT__10
66
1
70
64
71
53
72
56
62
253
0
VERTEX
8
OBJECT__10
10
27.237000
20
-3.880000
30
122.497002
70
192
0
VERTEX
8
OBJECT__10
10
27.639999
20
-0.011000
30
121.640999
70
192
0
VERTEX
8
OBJECT__10
10
28.889999
20
-1.855000
30
122.442001
70
192
0
VERTEX
8
OBJECT__10
10
28.996000
20
-0.004000
30
122.328003
70
192
0
VERTEX
8
OBJECT__10
10
28.504000
20
-3.373000
30
122.896004
70
192
0
VERTEX
8
OBJECT__10
10
28.358000
20
-3.946000
30
123.067001
70
192
0
VERTEX
8
OBJECT__10
10
27.298000
20
-6.397000
30
124.541000
70
192
0
VERTEX
8
OBJECT__10
10
26.344000
20
-7.012000
30
124.725998
70
192
0
VERTEX
8
OBJECT__10
10
26.344999
20
7.009000
30
124.723000
70
192
0
VERTEX
8
OBJECT__10
10
27.010000
20
6.883000
30
125.069000
70
192
0
VERTEX
8
OBJECT__10
10
27.874001
20
5.195000
30
123.697998
70
192
0
VERTEX
8
OBJECT__10
10
27.240000
20
3.866000
30
122.490997
70
192
0
VERTEX
8
OBJECT__10
10
28.653000
20
2.965000
30
122.711998
70
192
0
VERTEX
8
OBJECT__10
10
29.031000
20
0.598000
30
122.290001
70
192
0
VERTEX
8
OBJECT__10
10
28.511999
20
3.369000
30
122.890999
70
192
0
VERTEX
8
OBJECT__10
10
28.362000
20
3.798000
30
123.081001
70
192
0
VERTEX
8
OBJECT__10
10
25.059000
20
-9.976000
30
131.477005
70
192
0
VERTEX
8
OBJECT__10
10
24.954000
20
-10.027000
30
131.466995
70
192
0
VERTEX
8
OBJECT__10
10
25.084999
20
-9.799000
30
129.557007
70
192
0
VERTEX
8
OBJECT__10
10
25.340000
20
-9.213000
30
127.741997
70
192
0
VERTEX
8
OBJECT__10
10
25.429001
20
-9.460000
30
128.938995
70
192
0
VERTEX
8
OBJECT__10
10
25.756001
20
-8.966000
30
127.959999
70
192
0
VERTEX
8
OBJECT__10
10
26.032000
20
-8.549000
30
127.135002
70
192
0
VERTEX
8
OBJECT__10
10
25.479000
20
-8.894000
30
126.752998
70
192
0
VERTEX
8
OBJECT__10
10
26.221001
20
-8.263000
30
126.569000
70
192
0
VERTEX
8
OBJECT__10
10
27.018999
20
-6.881000
30
125.067001
70
192
0
VERTEX
8
OBJECT__10
10
26.004000
20
-7.372000
30
124.231003
70
192
0
VERTEX
8
OBJECT__10
10
26.414000
20
-5.819000
30
122.612000
70
192
0
VERTEX
8
OBJECT__10
10
26.525000
20
-5.393000
30
122.184998
70
192
0
VERTEX
8
OBJECT__10
10
26.037001
20
-7.276000
30
124.070999
70
192
0
VERTEX
8
OBJECT__10
10
26.893000
20
-3.249000
30
120.904999
70
192
0
VERTEX
8
OBJECT__10
10
27.076000
20
-1.115000
30
120.301003
70
192
0
VERTEX
8
OBJECT__10
10
26.729000
20
-4.204000
30
121.474998
70
192
0
VERTEX
8
OBJECT__10
10
27.066000
20
1.323000
30
120.333000
70
192
0
VERTEX
8
OBJECT__10
10
27.072001
20
-0.013000
30
120.316002
70
192
0
VERTEX
8
OBJECT__10
10
26.813999
20
3.820000
30
121.174004
70
192
0
VERTEX
8
OBJECT__10
10
26.391001
20
5.975000
30
122.674004
70
192
0
VERTEX
8
OBJECT__10
10
26.421000
20
5.821000
30
122.567001
70
192
0
VERTEX
8
OBJECT__10
10
26.738001
20
4.203000
30
121.440002
70
192
0
VERTEX
8
OBJECT__10
10
26.743999
20
7.401000
30
125.488998
70
192
0
VERTEX
8
OBJECT__10
10
25.839001
20
7.901000
30
124.936996
70
192
0
VERTEX
8
OBJECT__10
10
25.330000
20
9.258000
30
127.652000
70
192
0
VERTEX
8
OBJECT__10
10
25.813000
20
8.894000
30
127.619003
70
192
0
VERTEX
8
OBJECT__10
10
26.023001
20
8.558000
30
127.139000
70
192
0
VERTEX
8
OBJECT__10
10
25.736000
20
9.006000
30
127.924004
70
192
0
VERTEX
8
OBJECT__10
10
25.323000
20
9.274000
30
127.717003
70
192
0
VERTEX
8
OBJECT__10
10
25.059000
20
9.976000
30
131.477005
70
192
0
VERTEX
8
OBJECT__10
10
25.222000
20
9.753000
30
129.968002
70
192
0
VERTEX
8
OBJECT__10
10
24.974001
20
10.000000
30
130.884995
70
192
0
VERTEX
8
OBJECT__10
10
24.976000
20
10.000000
30
130.804001
70
192
0
VERTEX
8
OBJECT__10
10
24.983000
20
10.000000
30
131.470993
70
192
0
VERTEX
8
OBJECT__10
10
26.003000
20
7.329000
30
124.265999
70
192
0
VERTEX
8
OBJECT__10
10
24.934999
20
-10.061000
30
131.464005
70
192
0
VERTEX
8
OBJECT__10
10
0
20
0
30
0
70
128
71
1
72
2
73
3
0
VERTEX
8
OBJECT__10
10
0
20
0
30
0
70
128
71
2
72
4
73
3
0
VERTEX
8
OBJECT__10
10
0
20
0
30
0
70
128
71
3
72
5
73
1
0
VERTEX
8
OBJECT__10
10
0
20
0
30
0
70
128
71
1
72
6
73
7
0
VERTEX
8
OBJECT__10
10
0
20
0
30
0
70
128
71
7
72
8
73
1
0
VERTEX
8
OBJECT__10
10
0
20
0
30
0
70
128
71
9
72
10
73
11
0
VERTEX
8
OBJECT__10
10
0
20
0
30
0
70
128
71
11
72
12
73
9
0
VERTEX
8
OBJECT__10
10
0
20
0
30
0
70
128
71
2
72
12
73
13
0
VERTEX
8
OBJECT__10
10
0
20
0
30
0
70
128
71
13
72
14
73
2
0
VERTEX
8
OBJECT__10
10
0
20
0
30
0
70
128
71
12
72
15
73
13
0
VERTEX
8
OBJECT__10
10
0
20
0
30
0
70
128
71
12
72
16
73
15
0
VERTEX
8
OBJECT__10
10
0
20
0
30
0
70
128
71
17
72
18
73
19
0
VERTEX
8
OBJECT__10
10
0
20
0
30
0
70
128
71
19
72
20
73
21
0
VERTEX
8
OBJECT__10
10
0
20
0
30
0
70
128
71
19
72
21
73
17
0
VERTEX
8
OBJECT__10
10
0
20
0
30
0
70
128
71
20
72
22
73
21
0
VERTEX
8
OBJECT__10
10
0
20
0
30
0
70
128
71
23
72
22
73
20
0
VERTEX
8
OBJECT__10
10
0
20
0
30
0
70
128
71
24
72
25
73
23
0
VERTEX
8
OBJECT__10
10
0
20
0
30
0
70
128
71
8
72
26
73
25
0
VERTEX
8
OBJECT__10
10
0
20
0
30
0
70
128
71
24
72
27
73
8
0
VERTEX
8
OBJECT__10
10
0
20
0
30
0
70
128
71
25
72
24
73
8
0
VERTEX
8
OBJECT__10
10
0
20
0
30
0
70
128
71
1
72
28
73
29
0
VERTEX
8
OBJECT__10
10
0
20
0
30
0
70
128
71
8
72
30
73
28
0
VERTEX
8
OBJECT__10
10
0
20
0
30
0
70
128
71
8
72
27
73
30
0
VERTEX
8
OBJECT__10
10
0
20
0
30
0
70
128
71
28
72
1
73
8
0
VERTEX
8
OBJECT__10
10
0
20
0
30
0
70
128
71
2
72
1
73
31
0
VERTEX
8
OBJECT__10
10
0
20
0
30
0
70
128
71
31
72
32
73
2
0
VERTEX
8
OBJECT__10
10
0
20
0
30
0
70
128
71
1
72
33
73
31
0
VERTEX
8
OBJECT__10
10
0
20
0
30
0
70
128
71
12
72
2
73
34
0
VERTEX
8
OBJECT__10
10
0
20
0
30
0
70
128
71
2
72
35
73
34
0
VERTEX
8
OBJECT__10
10
0
20
0
30
0
70
128
71
34
72
36
73
12
0
VERTEX
8
OBJECT__10
10
0
20
0
30
0
70
128
71
9
72
12
73
37
0
VERTEX
8
OBJECT__10
10
0
20
0
30
0
70
128
71
12
72
38
73
37
0
VERTEX
8
OBJECT__10
10
0
20
0
30
0
70
128
71
12
72
39
73
38
0
VERTEX
8
OBJECT__10
10
0
20
0
30
0
70
128
71
40
72
10
73
9
0
VERTEX
8
OBJECT__10
10
0
20
0
30
0
70
128
71
9
72
41
73
40
0
VERTEX
8
OBJECT__10
10
0
20
0
30
0
70
128
71
42
72
43
73
44
0
VERTEX
8
OBJECT__10
10
0
20
0
30
0
70
128
71
44
72
41
73
42
0
VERTEX
8
OBJECT__10
10
0
20
0
30
0
70
128
71
44
72
40
73
41
0
VERTEX
8
OBJECT__10
10
0
20
0
30
0
70
128
71
45
72
43
73
42
0
VERTEX
8
OBJECT__10
10
0
20
0
30
0
70
128
71
42
72
46
73
45
0
VERTEX
8
OBJECT__10
10
0
20
0
30
0
70
128
71
47
72
48
73
49
0
VERTEX
8
OBJECT__10
10
0
20
0
30
0
70
128
71
48
72
50
73
49
0
VERTEX
8
OBJECT__10
10
0
20
0
30
0
70
128
71
49
72
51
73
47
0
VERTEX
8
OBJECT__10
10
0
20
0
30
0
70
128
71
48
72
46
73
50
0
VERTEX
8
OBJECT__10
10
0
20
0
30
0
70
128
71
48
72
45
73
46
0
VERTEX
8
OBJECT__10
10
0
20
0
30
0
70
128
71
9
72
52
73
41
0
VERTEX
8
OBJECT__10
10
0
20
0
30
0
70
128
71
37
72
52
73
9
0
VERTEX
8
OBJECT__10
10
0
20
0
30
0
70
128
71
36
72
39
73
12
0
VERTEX
8
OBJECT__10
10
0
20
0
30
0
70
128
71
32
72
35
73
2
0
VERTEX
8
OBJECT__10
10
0
20
0
30
0
70
128
71
29
72
33
73
1
0
VERTEX
8
OBJECT__10
10
0
20
0
30
0
70
128
71
20
72
24
73
23
0
VERTEX
8
OBJECT__10
10
0
20
0
30
0
70
128
71
18
72
53
73
19
0
VERTEX
8
OBJECT__10
10
0
20
0
30
0
70
128
71
14
72
4
73
2
0
VERTEX
8
OBJECT__10
10
0
20
0
30
0
70
128
71
11
72
16
73
12
0
VERTEX
8
OBJECT__10
10
0
20
0
30
0
70
128
71
7
72
26
73
8
0
VERTEX
8
OBJECT__10
10
0
20
0
30
0
70
128
71
5
72
6
73
1
0
SEQEND
8
OBJECT__10
0
POLYLINE
8
OBJECT__11
66
1
70
64
71
8
72
6
62
253
0
VERTEX
8
OBJECT__11
10
-9.854000
20
-26.629999
30
131.257996
70
192
0
VERTEX
8
OBJECT__11
10
1.722000
20
-27.847000
30
131.561005
70
192
0
VERTEX
8
OBJECT__11
10
12.791000
20
-24.249001
30
131.850998
70
192
0
VERTEX
8
OBJECT__11
10
21.441000
20
-16.458000
30
132.076996
70
192
0
VERTEX
8
OBJECT__11
10
-19.933001
20
-20.808001
30
130.994003
70
192
0
VERTEX
8
OBJECT__11
10
-26.775000
20
-11.389000
30
130.815002
70
192
0
VERTEX
8
OBJECT__11
10
24.940001
20
-10.000000
30
132.169006
70
192
0
VERTEX
8
OBJECT__11
10
-27.349001
20
-10.000000
30
130.800003
70
192
0
VERTEX
8
OBJECT__11
10
0
20
0
30
0
70
128
71
1
72
2
73
3
0
VERTEX
8
OBJECT__11
10
0
20
0
30
0
70
128
71
4
72
5
73
1
0
VERTEX
8
OBJECT__11
10
0
20
0
30
0
70
128
71
4
72
6
73
5
0
VERTEX
8
OBJECT__11
10
0
20
0
30
0
70
128
71
3
72
4
73
1
0
VERTEX
8
OBJECT__11
10
0
20
0
30
0
70
128
71
7
72
8
73
6
0
VERTEX
8
OBJECT__11
10
0
20
0
30
0
70
128
71
4
72
7
73
6
0
SEQEND
8
OBJECT__11
0
POLYLINE
8
OBJECT__12
66
1
70
64
71
8
72
6
62
253
0
VERTEX
8
OBJECT__12
10
-26.775000
20
11.389000
30
130.815002
70
192
0
VERTEX
8
OBJECT__12
10
1.722000
20
27.847000
30
131.561005
70
192
0
VERTEX
8
OBJECT__12
10
-9.854000
20
26.629999
30
131.257996
70
192
0
VERTEX
8
OBJECT__12
10
21.441000
20
16.458000
30
132.076996
70
192
0
VERTEX
8
OBJECT__12
10
12.791000
20
24.249001
30
131.850998
70
192
0
VERTEX
8
OBJECT__12
10
24.863001
20
10.200000
30
132.167007
70
192
0
VERTEX
8
OBJECT__12
10
-19.933001
20
20.808001
30
130.994003
70
192
0
VERTEX
8
OBJECT__12
10
-27.271000
20
10.200000
30
130.802002
70
192
0
VERTEX
8
OBJECT__12
10
0
20
0
30
0
70
128
71
1
72
2
73
3
0
VERTEX
8
OBJECT__12
10
0
20
0
30
0
70
128
71
1
72
4
73
5
0
VERTEX
8
OBJECT__12
10
0
20
0
30
0
70
128
71
5
72
2
73
1
0
VERTEX
8
OBJECT__12
10
0
20
0
30
0
70
128
71
1
72
6
73
4
0
VERTEX
8
OBJECT__12
10
0
20
0
30
0
70
128
71
3
72
7
73
1
0
VERTEX
8
OBJECT__12
10
0
20
0
30
0
70
128
71
1
72
8
73
6
0
SEQEND
8
OBJECT__12
0
POLYLINE
8
OBJECT__13
66
1
70
64
71
6
72
4
62
253
0
VERTEX
8
OBJECT__13
10
-27.375000
20
10.000000
30
131.798996
70
192
0
VERTEX
8
OBJECT__13
10
90.311996
20
10.000000
30
134.880997
70
192
0
VERTEX
8
OBJECT__13
10
24.934999
20
10.000000
30
132.369003
70
192
0
VERTEX
8
OBJECT__13
10
89.872002
20
10.000000
30
133.869003
70
192
0
VERTEX
8
OBJECT__13
10
24.940001
20
10.000000
30
132.169006
70
192
0
VERTEX
8
OBJECT__13
10
-27.354000
20
10.000000
30
131.000000
70
192
0
VERTEX
8
OBJECT__13
10
0
20
0
30
0
70
128
71
1
72
2
73
3
0
VERTEX
8
OBJECT__13
10
0
20
0
30
0
70
128
71
3
72
2
73
4
0
VERTEX
8
OBJECT__13
10
0
20
0
30
0
70
128
71
4
72
5
73
3
0
VERTEX
8
OBJECT__13
10
0
20
0
30
0
70
128
71
3
72
6
73
1
0
SEQEND
8
OBJECT__13
0
POLYLINE
8
OBJECT__14
66
1
70
64
71
5
72
3
62
253
0
VERTEX
8
OBJECT__14
10
90.311996
20
-10.000000
30
134.880997
70
192
0
VERTEX
8
OBJECT__14
10
-27.375000
20
-10.000000
30
131.798996
70
192
0
VERTEX
8
OBJECT__14
10
24.940001
20
-10.000000
30
132.169006
70
192
0
VERTEX
8
OBJECT__14
10
-27.349001
20
-10.000000
30
130.800003
70
192
0
VERTEX
8
OBJECT__14
10
89.872002
20
-10.000000
30
133.869003
70
192
0
VERTEX
8
OBJECT__14
10
0
20
0
30
0
70
128
71
1
72
2
73
3
0
VERTEX
8
OBJECT__14
10
0
20
0
30
0
70
128
71
2
72
4
73
3
0
VERTEX
8
OBJECT__14
10
0
20
0
30
0
70
128
71
3
72
5
73
1
0
SEQEND
8
OBJECT__14
0
POLYLINE
8
OBJECT__15
66
1
70
64
71
52
72
50
62
253
0
VERTEX
8
OBJECT__15
10
25.059000
20
-9.976000
30
131.477005
70
192
0
VERTEX
8
OBJECT__15
10
88.982002
20
-9.745000
30
131.602005
70
192
0
VERTEX
8
OBJECT__15
10
89.180000
20
-9.855000
30
132.151993
70
192
0
VERTEX
8
OBJECT__15
10
88.246002
20
-8.857000
30
129.182007
70
192
0
VERTEX
8
OBJECT__15
10
25.756001
20
-8.966000
30
127.959999
70
192
0
VERTEX
8
OBJECT__15
10
26.032000
20
-8.549000
30
127.135002
70
192
0
VERTEX
8
OBJECT__15
10
25.429001
20
-9.460000
30
128.938995
70
192
0
VERTEX
8
OBJECT__15
10
88.135002
20
-8.604000
30
128.733002
70
192
0
VERTEX
8
OBJECT__15
10
89.872002
20
-10.000000
30
133.869003
70
192
0
VERTEX
8
OBJECT__15
10
24.940001
20
-10.000000
30
132.169006
70
192
0
VERTEX
8
OBJECT__15
10
24.952000
20
-9.994000
30
131.824997
70
192
0
VERTEX
8
OBJECT__15
10
87.417999
20
-3.532000
30
124.445999
70
192
0
VERTEX
8
OBJECT__15
10
28.358000
20
-3.946000
30
123.067001
70
192
0
VERTEX
8
OBJECT__15
10
28.504000
20
-3.373000
30
122.896004
70
192
0
VERTEX
8
OBJECT__15
10
87.415001
20
-3.383000
30
124.412003
70
192
0
VERTEX
8
OBJECT__15
10
87.443001
20
-4.163000
30
124.709999
70
192
0
VERTEX
8
OBJECT__15
10
87.621002
20
-6.395000
30
126.120003
70
192
0
VERTEX
8
OBJECT__15
10
87.694000
20
-6.910000
30
126.581001
70
192
0
VERTEX
8
OBJECT__15
10
88.105003
20
-8.539000
30
128.615997
70
192
0
VERTEX
8
OBJECT__15
10
26.221001
20
-8.263000
30
126.569000
70
192
0
VERTEX
8
OBJECT__15
10
27.018999
20
-6.881000
30
125.067001
70
192
0
VERTEX
8
OBJECT__15
10
27.298000
20
-6.397000
30
124.541000
70
192
0
VERTEX
8
OBJECT__15
10
87.419998
20
3.367000
30
124.436996
70
192
0
VERTEX
8
OBJECT__15
10
29.031000
20
0.598000
30
122.290001
70
192
0
VERTEX
8
OBJECT__15
10
28.653000
20
2.965000
30
122.711998
70
192
0
VERTEX
8
OBJECT__15
10
87.366997
20
-0.938000
30
123.844002
70
192
0
VERTEX
8
OBJECT__15
10
28.889999
20
-1.855000
30
122.442001
70
192
0
VERTEX
8
OBJECT__15
10
28.996000
20
-0.004000
30
122.328003
70
192
0
VERTEX
8
OBJECT__15
10
87.364998
20
-0.280000
30
123.804001
70
192
0
VERTEX
8
OBJECT__15
10
87.386002
20
2.373000
30
124.085999
70
192
0
VERTEX
8
OBJECT__15
10
87.366997
20
0.000000
30
123.834000
70
192
0
VERTEX
8
OBJECT__15
10
87.400002
20
2.974000
30
124.253998
70
192
0
VERTEX
8
OBJECT__15
10
87.877998
20
7.822000
30
127.584000
70
192
0
VERTEX
8
OBJECT__15
10
27.010000
20
6.883000
30
125.069000
70
192
0
VERTEX
8
OBJECT__15
10
26.743999
20
7.401000
30
125.488998
70
192
0
VERTEX
8
OBJECT__15
10
27.874001
20
5.195000
30
123.697998
70
192
0
VERTEX
8
OBJECT__15
10
87.518997
20
5.380000
30
125.375000
70
192
0
VERTEX
8
OBJECT__15
10
28.511999
20
3.369000
30
122.890999
70
192
0
VERTEX
8
OBJECT__15
10
28.362000
20
3.798000
30
123.081001
70
192
0
VERTEX
8
OBJECT__15
10
87.569000
20
5.939000
30
125.760002
70
192
0
VERTEX
8
OBJECT__15
10
26.023001
20
8.558000
30
127.139000
70
192
0
VERTEX
8
OBJECT__15
10
88.030998
20
8.337000
30
128.296997
70
192
0
VERTEX
8
OBJECT__15
10
88.153999
20
8.561000
30
128.755005
70
192
0
VERTEX
8
OBJECT__15
10
25.059000
20
9.976000
30
131.477005
70
192
0
VERTEX
8
OBJECT__15
10
24.681999
20
10.000000
30
132.162003
70
192
0
VERTEX
8
OBJECT__15
10
24.940001
20
10.000000
30
132.169006
70
192
0
VERTEX
8
OBJECT__15
10
88.654999
20
9.465000
30
130.610001
70
192
0
VERTEX
8
OBJECT__15
10
25.736000
20
9.006000
30
127.924004
70
192
0
VERTEX
8
OBJECT__15
10
25.222000
20
9.753000
30
129.968002
70
192
0
VERTEX
8
OBJECT__15
10
25.813000
20
8.894000
30
127.619003
70
192
0
VERTEX
8
OBJECT__15
10
88.888000
20
9.679000
30
131.328003
70
192
0
VERTEX
8
OBJECT__15
10
89.872002
20
10.000000
30
133.869003
70
192
0
VERTEX
8
OBJECT__15
10
0
20
0
30
0
70
128
71
1
72
2
73
3
0
VERTEX
8
OBJECT__15
10
0
20
0
30
0
70
128
71
4
72
5
73
6
0
VERTEX
8
OBJECT__15
10
0
20
0
30
0
70
128
71
4
72
1
73
7
0
VERTEX
8
OBJECT__15
10
0
20
0
30
0
70
128
71
7
72
5
73
4
0
VERTEX
8
OBJECT__15
10
0
20
0
30
0
70
128
71
6
72
8
73
4
0
VERTEX
8
OBJECT__15
10
0
20
0
30
0
70
128
71
4
72
2
73
1
0
VERTEX
8
OBJECT__15
10
0
20
0
30
0
70
128
71
9
72
10
73
11
0
VERTEX
8
OBJECT__15
10
0
20
0
30
0
70
128
71
11
72
1
73
9
0
VERTEX
8
OBJECT__15
10
0
20
0
30
0
70
128
71
12
72
13
73
14
0
VERTEX
8
OBJECT__15
10
0
20
0
30
0
70
128
71
14
72
15
73
12
0
VERTEX
8
OBJECT__15
10
0
20
0
30
0
70
128
71
12
72
16
73
13
0
VERTEX
8
OBJECT__15
10
0
20
0
30
0
70
128
71
16
72
17
73
13
0
VERTEX
8
OBJECT__15
10
0
20
0
30
0
70
128
71
17
72
18
73
13
0
VERTEX
8
OBJECT__15
10
0
20
0
30
0
70
128
71
18
72
19
73
13
0
VERTEX
8
OBJECT__15
10
0
20
0
30
0
70
128
71
8
72
6
73
20
0
VERTEX
8
OBJECT__15
10
0
20
0
30
0
70
128
71
20
72
21
73
8
0
VERTEX
8
OBJECT__15
10
0
20
0
30
0
70
128
71
21
72
22
73
8
0
VERTEX
8
OBJECT__15
10
0
20
0
30
0
70
128
71
22
72
13
73
8
0
VERTEX
8
OBJECT__15
10
0
20
0
30
0
70
128
71
23
72
24
73
25
0
VERTEX
8
OBJECT__15
10
0
20
0
30
0
70
128
71
26
72
27
73
28
0
VERTEX
8
OBJECT__15
10
0
20
0
30
0
70
128
71
29
72
28
73
24
0
VERTEX
8
OBJECT__15
10
0
20
0
30
0
70
128
71
24
72
30
73
31
0
VERTEX
8
OBJECT__15
10
0
20
0
30
0
70
128
71
24
72
31
73
29
0
VERTEX
8
OBJECT__15
10
0
20
0
30
0
70
128
71
28
72
29
73
26
0
VERTEX
8
OBJECT__15
10
0
20
0
30
0
70
128
71
24
72
32
73
30
0
VERTEX
8
OBJECT__15
10
0
20
0
30
0
70
128
71
24
72
23
73
32
0
VERTEX
8
OBJECT__15
10
0
20
0
30
0
70
128
71
15
72
14
73
27
0
VERTEX
8
OBJECT__15
10
0
20
0
30
0
70
128
71
26
72
15
73
27
0
VERTEX
8
OBJECT__15
10
0
20
0
30
0
70
128
71
33
72
34
73
35
0
VERTEX
8
OBJECT__15
10
0
20
0
30
0
70
128
71
33
72
36
73
34
0
VERTEX
8
OBJECT__15
10
0
20
0
30
0
70
128
71
37
72
23
73
38
0
VERTEX
8
OBJECT__15
10
0
20
0
30
0
70
128
71
38
72
39
73
37
0
VERTEX
8
OBJECT__15
10
0
20
0
30
0
70
128
71
36
72
40
73
37
0
VERTEX
8
OBJECT__15
10
0
20
0
30
0
70
128
71
36
72
33
73
40
0
VERTEX
8
OBJECT__15
10
0
20
0
30
0
70
128
71
39
72
36
73
37
0
VERTEX
8
OBJECT__15
10
0
20
0
30
0
70
128
71
41
72
42
73
33
0
VERTEX
8
OBJECT__15
10
0
20
0
30
0
70
128
71
41
72
43
73
42
0
VERTEX
8
OBJECT__15
10
0
20
0
30
0
70
128
71
44
72
45
73
46
0
VERTEX
8
OBJECT__15
10
0
20
0
30
0
70
128
71
47
72
48
73
49
0
VERTEX
8
OBJECT__15
10
0
20
0
30
0
70
128
71
47
72
43
73
41
0
VERTEX
8
OBJECT__15
10
0
20
0
30
0
70
128
71
41
72
50
73
47
0
VERTEX
8
OBJECT__15
10
0
20
0
30
0
70
128
71
50
72
48
73
47
0
VERTEX
8
OBJECT__15
10
0
20
0
30
0
70
128
71
44
72
51
73
47
0
VERTEX
8
OBJECT__15
10
0
20
0
30
0
70
128
71
44
72
52
73
51
0
VERTEX
8
OBJECT__15
10
0
20
0
30
0
70
128
71
49
72
44
73
47
0
VERTEX
8
OBJECT__15
10
0
20
0
30
0
70
128
71
46
72
52
73
44
0
VERTEX
8
OBJECT__15
10
0
20
0
30
0
70
128
71
35
72
41
73
33
0
VERTEX
8
OBJECT__15
10
0
20
0
30
0
70
128
71
25
72
38
73
23
0
VERTEX
8
OBJECT__15
10
0
20
0
30
0
70
128
71
19
72
8
73
13
0
VERTEX
8
OBJECT__15
10
0
20
0
30
0
70
128
71
3
72
9
73
1
0
SEQEND
8
OBJECT__15
0
POLYLINE
8
OBJECT__16
66
1
70
64
71
32
72
30
62
253
0
VERTEX
8
OBJECT__16
10
92.336998
20
0.000000
30
135.414001
70
192
0
VERTEX
8
OBJECT__16
10
87.366997
20
-0.938000
30
123.844002
70
192
0
VERTEX
8
OBJECT__16
10
87.364998
20
-0.280000
30
123.804001
70
192
0
VERTEX
8
OBJECT__16
10
87.415001
20
-3.383000
30
124.412003
70
192
0
VERTEX
8
OBJECT__16
10
88.105003
20
-8.539000
30
128.615997
70
192
0
VERTEX
8
OBJECT__16
10
87.694000
20
-6.910000
30
126.581001
70
192
0
VERTEX
8
OBJECT__16
10
88.135002
20
-8.604000
30
128.733002
70
192
0
VERTEX
8
OBJECT__16
10
87.621002
20
-6.395000
30
126.120003
70
192
0
VERTEX
8
OBJECT__16
10
87.443001
20
-4.163000
30
124.709999
70
192
0
VERTEX
8
OBJECT__16
10
87.417999
20
-3.532000
30
124.445999
70
192
0
VERTEX
8
OBJECT__16
10
88.982002
20
-9.745000
30
131.602005
70
192
0
VERTEX
8
OBJECT__16
10
88.246002
20
-8.857000
30
129.182007
70
192
0
VERTEX
8
OBJECT__16
10
89.180000
20
-9.855000
30
132.151993
70
192
0
VERTEX
8
OBJECT__16
10
89.872002
20
-10.000000
30
133.869003
70
192
0
VERTEX
8
OBJECT__16
10
92.330002
20
-2.139000
30
135.412003
70
192
0
VERTEX
8
OBJECT__16
10
91.661003
20
-6.062000
30
135.233994
70
192
0
VERTEX
8
OBJECT__16
10
90.311996
20
-10.000000
30
134.880997
70
192
0
VERTEX
8
OBJECT__16
10
88.153999
20
8.561000
30
128.755005
70
192
0
VERTEX
8
OBJECT__16
10
91.681000
20
5.982000
30
135.238998
70
192
0
VERTEX
8
OBJECT__16
10
92.344002
20
1.981000
30
135.416000
70
192
0
VERTEX
8
OBJECT__16
10
88.654999
20
9.465000
30
130.610001
70
192
0
VERTEX
8
OBJECT__16
10
88.888000
20
9.679000
30
131.328003
70
192
0
VERTEX
8
OBJECT__16
10
89.872002
20
10.000000
30
133.869003
70
192
0
VERTEX
8
OBJECT__16
10
90.311996
20
10.000000
30
134.880997
70
192
0
VERTEX
8
OBJECT__16
10
87.569000
20
5.939000
30
125.760002
70
192
0
VERTEX
8
OBJECT__16
10
87.877998
20
7.822000
30
127.584000
70
192
0
VERTEX
8
OBJECT__16
10
88.030998
20
8.337000
30
128.296997
70
192
0
VERTEX
8
OBJECT__16
10
87.518997
20
5.380000
30
125.375000
70
192
0
VERTEX
8
OBJECT__16
10
87.419998
20
3.367000
30
124.436996
70
192
0
VERTEX
8
OBJECT__16
10
87.386002
20
2.373000
30
124.085999
70
192
0
VERTEX
8
OBJECT__16
10
87.400002
20
2.974000
30
124.253998
70
192
0
VERTEX
8
OBJECT__16
10
87.366997
20
0.000000
30
123.834000
70
192
0
VERTEX
8
OBJECT__16
10
0
20
0
30
0
70
128
71
1
72
2
73
3
0
VERTEX
8
OBJECT__16
10
0
20
0
30
0
70
128
71
1
72
4
73
2
0
VERTEX
8
OBJECT__16
10
0
20
0
30
0
70
128
71
1
72
5
73
6
0
VERTEX
8
OBJECT__16
10
0
20
0
30
0
70
128
71
1
72
7
73
5
0
VERTEX
8
OBJECT__16
10
0
20
0
30
0
70
128
71
6
72
8
73
1
0
VERTEX
8
OBJECT__16
10
0
20
0
30
0
70
128
71
8
72
9
73
1
0
VERTEX
8
OBJECT__16
10
0
20
0
30
0
70
128
71
9
72
10
73
1
0
VERTEX
8
OBJECT__16
10
0
20
0
30
0
70
128
71
1
72
11
73
12
0
VERTEX
8
OBJECT__16
10
0
20
0
30
0
70
128
71
1
72
13
73
11
0
VERTEX
8
OBJECT__16
10
0
20
0
30
0
70
128
71
1
72
14
73
13
0
VERTEX
8
OBJECT__16
10
0
20
0
30
0
70
128
71
14
72
1
73
15
0
VERTEX
8
OBJECT__16
10
0
20
0
30
0
70
128
71
15
72
16
73
14
0
VERTEX
8
OBJECT__16
10
0
20
0
30
0
70
128
71
16
72
17
73
14
0
VERTEX
8
OBJECT__16
10
0
20
0
30
0
70
128
71
12
72
7
73
1
0
VERTEX
8
OBJECT__16
10
0
20
0
30
0
70
128
71
10
72
4
73
1
0
VERTEX
8
OBJECT__16
10
0
20
0
30
0
70
128
71
18
72
19
73
20
0
VERTEX
8
OBJECT__16
10
0
20
0
30
0
70
128
71
19
72
18
73
21
0
VERTEX
8
OBJECT__16
10
0
20
0
30
0
70
128
71
21
72
22
73
19
0
VERTEX
8
OBJECT__16
10
0
20
0
30
0
70
128
71
22
72
23
73
19
0
VERTEX
8
OBJECT__16
10
0
20
0
30
0
70
128
71
23
72
24
73
19
0
VERTEX
8
OBJECT__16
10
0
20
0
30
0
70
128
71
1
72
25
73
26
0
VERTEX
8
OBJECT__16
10
0
20
0
30
0
70
128
71
26
72
27
73
1
0
VERTEX
8
OBJECT__16
10
0
20
0
30
0
70
128
71
1
72
28
73
25
0
VERTEX
8
OBJECT__16
10
0
20
0
30
0
70
128
71
1
72
29
73
28
0
VERTEX
8
OBJECT__16
10
0
20
0
30
0
70
128
71
27
72
18
73
1
0
VERTEX
8
OBJECT__16
10
0
20
0
30
0
70
128
71
1
72
30
73
31
0
VERTEX
8
OBJECT__16
10
0
20
0
30
0
70
128
71
1
72
32
73
30
0
VERTEX
8
OBJECT__16
10
0
20
0
30
0
70
128
71
31
72
29
73
1
0
VERTEX
8
OBJECT__16
10
0
20
0
30
0
70
128
71
20
72
1
73
18
0
VERTEX
8
OBJECT__16
10
0
20
0
30
0
70
128
71
3
72
32
73
1
0
SEQEND
8
OBJECT__16
0
POLYLINE
8
OBJECT__17
66
1
70
64
71
14
72
12
62
253
0
VERTEX
8
OBJECT__17
10
92.336998
20
0.000000
30
135.414001
70
192
0
VERTEX
8
OBJECT__17
10
-28.070999
20
7.958000
30
131.964996
70
192
0
VERTEX
8
OBJECT__17
10
-29.034000
20
3.324000
30
132.201996
70
192
0
VERTEX
8
OBJECT__17
10
91.681000
20
5.982000
30
135.238998
70
192
0
VERTEX
8
OBJECT__17
10
90.311996
20
10.000000
30
134.880997
70
192
0
VERTEX
8
OBJECT__17
10
92.344002
20
1.981000
30
135.416000
70
192
0
VERTEX
8
OBJECT__17
10
-27.375000
20
10.000000
30
131.798996
70
192
0
VERTEX
8
OBJECT__17
10
-29.169001
20
-0.003000
30
132.235992
70
192
0
VERTEX
8
OBJECT__17
10
91.661003
20
-6.062000
30
135.233994
70
192
0
VERTEX
8
OBJECT__17
10
92.330002
20
-2.139000
30
135.412003
70
192
0
VERTEX
8
OBJECT__17
10
-28.628000
20
-5.773000
30
132.100998
70
192
0
VERTEX
8
OBJECT__17
10
-27.375000
20
-10.000000
30
131.798996
70
192
0
VERTEX
8
OBJECT__17
10
90.311996
20
-10.000000
30
134.880997
70
192
0
VERTEX
8
OBJECT__17
10
-29.212999
20
-1.084000
30
132.246994
70
192
0
VERTEX
8
OBJECT__17
10
0
20
0
30
0
70
128
71
1
72
2
73
3
0
VERTEX
8
OBJECT__17
10
0
20
0
30
0
70
128
71
2
72
4
73
5
0
VERTEX
8
OBJECT__17
10
0
20
0
30
0
70
128
71
2
72
1
73
6
0
VERTEX
8
OBJECT__17
10
0
20
0
30
0
70
128
71
6
72
4
73
2
0
VERTEX
8
OBJECT__17
10
0
20
0
30
0
70
128
71
5
72
7
73
2
0
VERTEX
8
OBJECT__17
10
0
20
0
30
0
70
128
71
8
72
9
73
10
0
VERTEX
8
OBJECT__17
10
0
20
0
30
0
70
128
71
11
72
12
73
13
0
VERTEX
8
OBJECT__17
10
0
20
0
30
0
70
128
71
9
72
8
73
14
0
VERTEX
8
OBJECT__17
10
0
20
0
30
0
70
128
71
14
72
11
73
9
0
VERTEX
8
OBJECT__17
10
0
20
0
30
0
70
128
71
13
72
9
73
11
0
VERTEX
8
OBJECT__17
10
0
20
0
30
0
70
128
71
10
72
1
73
8
0
VERTEX
8
OBJECT__17
10
0
20
0
30
0
70
128
71
3
72
8
73
1
0
SEQEND
8
OBJECT__17
0
POLYLINE
8
OBJECT__18
66
1
70
64
71
80
72
120
62
253
0
VERTEX
8
OBJECT__18
10
-18.353001
20
5.963000
30
103.415001
70
192
0
VERTEX
8
OBJECT__18
10
-19.297001
20
0.000000
30
103.415001
70
192
0
VERTEX
8
OBJECT__18
10
-15.000000
20
0.000000
30
107.150002
70
192
0
VERTEX
8
OBJECT__18
10
-15.612000
20
11.343000
30
103.415001
70
192
0
VERTEX
8
OBJECT__18
10
-14.266000
20
4.635000
30
107.150002
70
192
0
VERTEX
8
OBJECT__18
10
-11.343000
20
15.612000
30
103.415001
70
192
0
VERTEX
8
OBJECT__18
10
-12.135000
20
8.817000
30
107.150002
70
192
0
VERTEX
8
OBJECT__18
10
-8.817000
20
12.135000
30
107.150002
70
192
0
VERTEX
8
OBJECT__18
10
-4.635000
20
14.266000
30
107.150002
70
192
0
VERTEX
8
OBJECT__18
10
0.000000
20
19.297001
30
103.415001
70
192
0
VERTEX
8
OBJECT__18
10
-5.963000
20
18.353001
30
103.415001
70
192
0
VERTEX
8
OBJECT__18
10
5.963000
20
18.353001
30
103.415001
70
192
0
VERTEX
8
OBJECT__18
10
0.000000
20
15.000000
30
107.150002
70
192
0
VERTEX
8
OBJECT__18
10
11.343000
20
15.612000
30
103.415001
70
192
0
VERTEX
8
OBJECT__18
10
4.635000
20
14.266000
30
107.150002
70
192
0
VERTEX
8
OBJECT__18
10
15.612000
20
11.343000
30
103.415001
70
192
0
VERTEX
8
OBJECT__18
10
8.817000
20
12.135000
30
107.150002
70
192
0
VERTEX
8
OBJECT__18
10
18.353001
20
5.963000
30
103.415001
70
192
0
VERTEX
8
OBJECT__18
10
12.135000
20
8.817000
30
107.150002
70
192
0
VERTEX
8
OBJECT__18
10
19.297001
20
0.000000
30
103.415001
70
192
0
VERTEX
8
OBJECT__18
10
14.266000
20
4.635000
30
107.150002
70
192
0
VERTEX
8
OBJECT__18
10
18.353001
20
-5.963000
30
103.415001
70
192
0
VERTEX
8
OBJECT__18
10
15.000000
20
0.000000
30
107.150002
70
192
0
VERTEX
8
OBJECT__18
10
15.612000
20
-11.343000
30
103.415001
70
192
0
VERTEX
8
OBJECT__18
10
14.266000
20
-4.635000
30
107.150002
70
192
0
VERTEX
8
OBJECT__18
10
11.343000
20
-15.612000
30
103.415001
70
192
0
VERTEX
8
OBJECT__18
10
12.135000
20
-8.817000
30
107.150002
70
192
0
VERTEX
8
OBJECT__18
10
8.817000
20
-12.135000
30
107.150002
70
192
0
VERTEX
8
OBJECT__18
10
4.635000
20
-14.266000
30
107.150002
70
192
0
VERTEX
8
OBJECT__18
10
5.963000
20
-18.353001
30
103.415001
70
192
0
VERTEX
8
OBJECT__18
10
0.000000
20
-15.000000
30
107.150002
70
192
0
VERTEX
8
OBJECT__18
10
-5.963000
20
-18.353001
30
103.415001
70
192
0
VERTEX
8
OBJECT__18
10
0.000000
20
-19.297001
30
103.415001
70
192
0
VERTEX
8
OBJECT__18
10
-11.343000
20
-15.612000
30
103.415001
70
192
0
VERTEX
8
OBJECT__18
10
-4.635000
20
-14.266000
30
107.150002
70
192
0
VERTEX
8
OBJECT__18
10
-15.612000
20
-11.343000
30
103.415001
70
192
0
VERTEX
8
OBJECT__18
10
-8.817000
20
-12.135000
30
107.150002
70
192
0
VERTEX
8
OBJECT__18
10
-12.135000
20
-8.817000
30
107.150002
70
192
0
VERTEX
8
OBJECT__18
10
-14.266000
20
-4.635000
30
107.150002
70
192
0
VERTEX
8
OBJECT__18
10
-18.353001
20
-5.963000
30
103.415001
70
192
0
VERTEX
8
OBJECT__18
10
-21.579000
20
7.011000
30
98.842003
70
192
0
VERTEX
8
OBJECT__18
10
-18.356001
20
13.337000
30
98.842003
70
192
0
VERTEX
8
OBJECT__18
10
-13.337000
20
18.356001
30
98.842003
70
192
0
VERTEX
8
OBJECT__18
10
-7.011000
20
21.579000
30
98.842003
70
192
0
VERTEX
8
OBJECT__18
10
0.000000
20
22.690001
30
98.842003
70
192
0
VERTEX
8
OBJECT__18
10
7.011000
20
21.579000
30
98.842003
70
192
0
VERTEX
8
OBJECT__18
10
13.337000
20
18.356001
30
98.842003
70
192
0
VERTEX
8
OBJECT__18
10
18.356001
20
13.337000
30
98.842003
70
192
0
VERTEX
8
OBJECT__18
10
21.579000
20
7.011000
30
98.842003
70
192
0
VERTEX
8
OBJECT__18
10
22.690001
20
0.000000
30
98.842003
70
192
0
VERTEX
8
OBJECT__18
10
21.579000
20
-7.011000
30
98.842003
70
192
0
VERTEX
8
OBJECT__18
10
18.356001
20
-13.337000
30
98.842003
70
192
0
VERTEX
8
OBJECT__18
10
13.337000
20
-18.356001
30
98.842003
70
192
0
VERTEX
8
OBJECT__18
10
7.011000
20
-21.579000
30
98.842003
70
192
0
VERTEX
8
OBJECT__18
10
0.000000
20
-22.690001
30
98.842003
70
192
0
VERTEX
8
OBJECT__18
10
-7.011000
20
-21.579000
30
98.842003
70
192
0
VERTEX
8
OBJECT__18
10
-13.337000
20
-18.356001
30
98.842003
70
192
0
VERTEX
8
OBJECT__18
10
-18.356001
20
-13.337000
30
98.842003
70
192
0
VERTEX
8
OBJECT__18
10
-21.579000
20
-7.011000
30
98.842003
70
192
0
VERTEX
8
OBJECT__18
10
-22.690001
20
0.000000
30
98.842003
70
192
0
VERTEX
8
OBJECT__18
10
-23.794001
20
7.731000
30
93.647003
70
192
0
VERTEX
8
OBJECT__18
10
-25.018000
20
0.000000
30
93.647003
70
192
0
VERTEX
8
OBJECT__18
10
-20.240000
20
14.705000
30
93.647003
70
192
0
VERTEX
8
OBJECT__18
10
-14.705000
20
20.240000
30
93.647003
70
192
0
VERTEX
8
OBJECT__18
10
0.000000
20
25.018000
30
93.647003
70
192
0
VERTEX
8
OBJECT__18
10
-7.731000
20
23.794001
30
93.647003
70
192
0
VERTEX
8
OBJECT__18
10
7.731000
20
23.794001
30
93.647003
70
192
0
VERTEX
8
OBJECT__18
10
14.705000
20
20.240000
30
93.647003
70
192
0
VERTEX
8
OBJECT__18
10
23.794001
20
7.731000
30
93.647003
70
192
0
VERTEX
8
OBJECT__18
10
20.240000
20
14.705000
30
93.647003
70
192
0
VERTEX
8
OBJECT__18
10
25.018000
20
0.000000
30
93.647003
70
192
0
VERTEX
8
OBJECT__18
10
23.794001
20
-7.731000
30
93.647003
70
192
0
VERTEX
8
OBJECT__18
10
20.240000
20
-14.705000
30
93.647003
70
192
0
VERTEX
8
OBJECT__18
10
14.705000
20
-20.240000
30
93.647003
70
192
0
VERTEX
8
OBJECT__18
10
7.731000
20
-23.794001
30
93.647003
70
192
0
VERTEX
8
OBJECT__18
10
0.000000
20
-25.018000
30
93.647003
70
192
0
VERTEX
8
OBJECT__18
10
-7.731000
20
-23.794001
30
93.647003
70
192
0
VERTEX
8
OBJECT__18
10
-14.705000
20
-20.240000
30
93.647003
70
192
0
VERTEX
8
OBJECT__18
10
-20.240000
20
-14.705000
30
93.647003
70
192
0
VERTEX
8
OBJECT__18
10
-23.794001
20
-7.731000
30
93.647003
70
192
0
VERTEX
8
OBJECT__18
10
0
20
0
30
0
70
128
71
1
72
2
73
3
0
VERTEX
8
OBJECT__18
10
0
20
0
30
0
70
128
71
4
72
1
73
5
0
VERTEX
8
OBJECT__18
10
0
20
0
30
0
70
128
71
6
72
4
73
7
0
VERTEX
8
OBJECT__18
10
0
20
0
30
0
70
128
71
6
72
8
73
9
0
VERTEX
8
OBJECT__18
10
0
20
0
30
0
70
128
71
10
72
11
73
9
0
VERTEX
8
OBJECT__18
10
0
20
0
30
0
70
128
71
12
72
10
73
13
0
VERTEX
8
OBJECT__18
10
0
20
0
30
0
70
128
71
14
72
12
73
15
0
VERTEX
8
OBJECT__18
10
0
20
0
30
0
70
128
71
16
72
14
73
17
0
VERTEX
8
OBJECT__18
10
0
20
0
30
0
70
128
71
18
72
16
73
19
0
VERTEX
8
OBJECT__18
10
0
20
0
30
0
70
128
71
20
72
18
73
21
0
VERTEX
8
OBJECT__18
10
0
20
0
30
0
70
128
71
22
72
20
73
23
0
VERTEX
8
OBJECT__18
10
0
20
0
30
0
70
128
71
24
72
22
73
25
0
VERTEX
8
OBJECT__18
10
0
20
0
30
0
70
128
71
26
72
24
73
27
0
VERTEX
8
OBJECT__18
10
0
20
0
30
0
70
128
71
26
72
28
73
29
0
VERTEX
8
OBJECT__18
10
0
20
0
30
0
70
128
71
30
72
29
73
31
0
VERTEX
8
OBJECT__18
10
0
20
0
30
0
70
128
71
32
72
33
73
31
0
VERTEX
8
OBJECT__18
10
0
20
0
30
0
70
128
71
34
72
32
73
35
0
VERTEX
8
OBJECT__18
10
0
20
0
30
0
70
128
71
36
72
34
73
37
0
VERTEX
8
OBJECT__18
10
0
20
0
30
0
70
128
71
36
72
38
73
39
0
VERTEX
8
OBJECT__18
10
0
20
0
30
0
70
128
71
40
72
39
73
3
0
VERTEX
8
OBJECT__18
10
0
20
0
30
0
70
128
71
2
72
1
73
41
0
VERTEX
8
OBJECT__18
10
0
20
0
30
0
70
128
71
1
72
4
73
42
0
VERTEX
8
OBJECT__18
10
0
20
0
30
0
70
128
71
4
72
6
73
43
0
VERTEX
8
OBJECT__18
10
0
20
0
30
0
70
128
71
6
72
11
73
44
0
VERTEX
8
OBJECT__18
10
0
20
0
30
0
70
128
71
11
72
10
73
45
0
VERTEX
8
OBJECT__18
10
0
20
0
30
0
70
128
71
10
72
12
73
46
0
VERTEX
8
OBJECT__18
10
0
20
0
30
0
70
128
71
12
72
14
73
47
0
VERTEX
8
OBJECT__18
10
0
20
0
30
0
70
128
71
14
72
16
73
48
0
VERTEX
8
OBJECT__18
10
0
20
0
30
0
70
128
71
16
72
18
73
49
0
VERTEX
8
OBJECT__18
10
0
20
0
30
0
70
128
71
18
72
20
73
50
0
VERTEX
8
OBJECT__18
10
0
20
0
30
0
70
128
71
20
72
22
73
51
0
VERTEX
8
OBJECT__18
10
0
20
0
30
0
70
128
71
22
72
24
73
52
0
VERTEX
8
OBJECT__18
10
0
20
0
30
0
70
128
71
24
72
26
73
53
0
VERTEX
8
OBJECT__18
10
0
20
0
30
0
70
128
71
26
72
30
73
54
0
VERTEX
8
OBJECT__18
10
0
20
0
30
0
70
128
71
30
72
33
73
55
0
VERTEX
8
OBJECT__18
10
0
20
0
30
0
70
128
71
33
72
32
73
56
0
VERTEX
8
OBJECT__18
10
0
20
0
30
0
70
128
71
32
72
34
73
57
0
VERTEX
8
OBJECT__18
10
0
20
0
30
0
70
128
71
34
72
36
73
58
0
VERTEX
8
OBJECT__18
10
0
20
0
30
0
70
128
71
36
72
40
73
59
0
VERTEX
8
OBJECT__18
10
0
20
0
30
0
70
128
71
40
72
2
73
60
0
VERTEX
8
OBJECT__18
10
0
20
0
30
0
70
128
71
61
72
62
73
60
0
VERTEX
8
OBJECT__18
10
0
20
0
30
0
70
128
71
63
72
61
73
41
0
VERTEX
8
OBJECT__18
10
0
20
0
30
0
70
128
71
64
72
63
73
42
0
VERTEX
8
OBJECT__18
10
0
20
0
30
0
70
128
71
64
72
43
73
44
0
VERTEX
8
OBJECT__18
10
0
20
0
30
0
70
128
71
65
72
66
73
44
0
VERTEX
8
OBJECT__18
10
0
20
0
30
0
70
128
71
67
72
65
73
45
0
VERTEX
8
OBJECT__18
10
0
20
0
30
0
70
128
71
68
72
67
73
46
0
VERTEX
8
OBJECT__18
10
0
20
0
30
0
70
128
71
68
72
47
73
48
0
VERTEX
8
OBJECT__18
10
0
20
0
30
0
70
128
71
69
72
70
73
48
0
VERTEX
8
OBJECT__18
10
0
20
0
30
0
70
128
71
71
72
69
73
49
0
VERTEX
8
OBJECT__18
10
0
20
0
30
0
70
128
71
72
72
71
73
50
0
VERTEX
8
OBJECT__18
10
0
20
0
30
0
70
128
71
73
72
72
73
51
0
VERTEX
8
OBJECT__18
10
0
20
0
30
0
70
128
71
74
72
73
73
52
0
VERTEX
8
OBJECT__18
10
0
20
0
30
0
70
128
71
75
72
74
73
53
0
VERTEX
8
OBJECT__18
10
0
20
0
30
0
70
128
71
76
72
75
73
54
0
VERTEX
8
OBJECT__18
10
0
20
0
30
0
70
128
71
77
72
76
73
55
0
VERTEX
8
OBJECT__18
10
0
20
0
30
0
70
128
71
78
72
77
73
56
0
VERTEX
8
OBJECT__18
10
0
20
0
30
0
70
128
71
79
72
78
73
57
0
VERTEX
8
OBJECT__18
10
0
20
0
30
0
70
128
71
80
72
79
73
58
0
VERTEX
8
OBJECT__18
10
0
20
0
30
0
70
128
71
80
72
59
73
60
0
VERTEX
8
OBJECT__18
10
0
20
0
30
0
70
128
71
60
72
62
73
80
0
VERTEX
8
OBJECT__18
10
0
20
0
30
0
70
128
71
58
72
59
73
80
0
VERTEX
8
OBJECT__18
10
0
20
0
30
0
70
128
71
57
72
58
73
79
0
VERTEX
8
OBJECT__18
10
0
20
0
30
0
70
128
71
56
72
57
73
78
0
VERTEX
8
OBJECT__18
10
0
20
0
30
0
70
128
71
55
72
56
73
77
0
VERTEX
8
OBJECT__18
10
0
20
0
30
0
70
128
71
54
72
55
73
76
0
VERTEX
8
OBJECT__18
10
0
20
0
30
0
70
128
71
53
72
54
73
75
0
VERTEX
8
OBJECT__18
10
0
20
0
30
0
70
128
71
52
72
53
73
74
0
VERTEX
8
OBJECT__18
10
0
20
0
30
0
70
128
71
51
72
52
73
73
0
VERTEX
8
OBJECT__18
10
0
20
0
30
0
70
128
71
50
72
51
73
72
0
VERTEX
8
OBJECT__18
10
0
20
0
30
0
70
128
71
49
72
50
73
71
0
VERTEX
8
OBJECT__18
10
0
20
0
30
0
70
128
71
48
72
49
73
69
0
VERTEX
8
OBJECT__18
10
0
20
0
30
0
70
128
71
48
72
70
73
68
0
VERTEX
8
OBJECT__18
10
0
20
0
30
0
70
128
71
46
72
47
73
68
0
VERTEX
8
OBJECT__18
10
0
20
0
30
0
70
128
71
45
72
46
73
67
0
VERTEX
8
OBJECT__18
10
0
20
0
30
0
70
128
71
44
72
45
73
65
0
VERTEX
8
OBJECT__18
10
0
20
0
30
0
70
128
71
44
72
66
73
64
0
VERTEX
8
OBJECT__18
10
0
20
0
30
0
70
128
71
42
72
43
73
64
0
VERTEX
8
OBJECT__18
10
0
20
0
30
0
70
128
71
41
72
42
73
63
0
VERTEX
8
OBJECT__18
10
0
20
0
30
0
70
128
71
60
72
41
73
61
0
VERTEX
8
OBJECT__18
10
0
20
0
30
0
70
128
71
60
72
59
73
40
0
VERTEX
8
OBJECT__18
10
0
20
0
30
0
70
128
71
59
72
58
73
36
0
VERTEX
8
OBJECT__18
10
0
20
0
30
0
70
128
71
58
72
57
73
34
0
VERTEX
8
OBJECT__18
10
0
20
0
30
0
70
128
71
57
72
56
73
32
0
VERTEX
8
OBJECT__18
10
0
20
0
30
0
70
128
71
56
72
55
73
33
0
VERTEX
8
OBJECT__18
10
0
20
0
30
0
70
128
71
55
72
54
73
30
0
VERTEX
8
OBJECT__18
10
0
20
0
30
0
70
128
71
54
72
53
73
26
0
VERTEX
8
OBJECT__18
10
0
20
0
30
0
70
128
71
53
72
52
73
24
0
VERTEX
8
OBJECT__18
10
0
20
0
30
0
70
128
71
52
72
51
73
22
0
VERTEX
8
OBJECT__18
10
0
20
0
30
0
70
128
71
51
72
50
73
20
0
VERTEX
8
OBJECT__18
10
0
20
0
30
0
70
128
71
50
72
49
73
18
0
VERTEX
8
OBJECT__18
10
0
20
0
30
0
70
128
71
49
72
48
73
16
0
VERTEX
8
OBJECT__18
10
0
20
0
30
0
70
128
71
48
72
47
73
14
0
VERTEX
8
OBJECT__18
10
0
20
0
30
0
70
128
71
47
72
46
73
12
0
VERTEX
8
OBJECT__18
10
0
20
0
30
0
70
128
71
46
72
45
73
10
0
VERTEX
8
OBJECT__18
10
0
20
0
30
0
70
128
71
45
72
44
73
11
0
VERTEX
8
OBJECT__18
10
0
20
0
30
0
70
128
71
44
72
43
73
6
0
VERTEX
8
OBJECT__18
10
0
20
0
30
0
70
128
71
43
72
42
73
4
0
VERTEX
8
OBJECT__18
10
0
20
0
30
0
70
128
71
42
72
41
73
1
0
VERTEX
8
OBJECT__18
10
0
20
0
30
0
70
128
71
41
72
60
73
2
0
VERTEX
8
OBJECT__18
10
0
20
0
30
0
70
128
71
3
72
2
73
40
0
VERTEX
8
OBJECT__18
10
0
20
0
30
0
70
128
71
39
72
40
73
36
0
VERTEX
8
OBJECT__18
10
0
20
0
30
0
70
128
71
37
72
38
73
36
0
VERTEX
8
OBJECT__18
10
0
20
0
30
0
70
128
71
35
72
37
73
34
0
VERTEX
8
OBJECT__18
10
0
20
0
30
0
70
128
71
31
72
35
73
32
0
VERTEX
8
OBJECT__18
10
0
20
0
30
0
70
128
71
31
72
33
73
30
0
VERTEX
8
OBJECT__18
10
0
20
0
30
0
70
128
71
29
72
30
73
26
0
VERTEX
8
OBJECT__18
10
0
20
0
30
0
70
128
71
27
72
28
73
26
0
VERTEX
8
OBJECT__18
10
0
20
0
30
0
70
128
71
25
72
27
73
24
0
VERTEX
8
OBJECT__18
10
0
20
0
30
0
70
128
71
23
72
25
73
22
0
VERTEX
8
OBJECT__18
10
0
20
0
30
0
70
128
71
21
72
23
73
20
0
VERTEX
8
OBJECT__18
10
0
20
0
30
0
70
128
71
19
72
21
73
18
0
VERTEX
8
OBJECT__18
10
0
20
0
30
0
70
128
71
17
72
19
73
16
0
VERTEX
8
OBJECT__18
10
0
20
0
30
0
70
128
71
15
72
17
73
14
0
VERTEX
8
OBJECT__18
10
0
20
0
30
0
70
128
71
13
72
15
73
12
0
VERTEX
8
OBJECT__18
10
0
20
0
30
0
70
128
71
9
72
13
73
10
0
VERTEX
8
OBJECT__18
10
0
20
0
30
0
70
128
71
9
72
11
73
6
0
VERTEX
8
OBJECT__18
10
0
20
0
30
0
70
128
71
7
72
8
73
6
0
VERTEX
8
OBJECT__18
10
0
20
0
30
0
70
128
71
5
72
7
73
4
0
VERTEX
8
OBJECT__18
10
0
20
0
30
0
70
128
71
3
72
5
73
1
0
SEQEND
8
OBJECT__18
0
POLYLINE
8
OBJECT__19
66
1
70
64
71
41
72
41
62
253
0
VERTEX
8
OBJECT__19
10
5.951000
20
26.073999
30
93.647003
70
192
0
VERTEX
8
OBJECT__19
10
-1.999000
20
26.670000
30
93.647003
70
192
0
VERTEX
8
OBJECT__19
10
0.000000
20
25.018000
30
93.647003
70
192
0
VERTEX
8
OBJECT__19
10
-9.771000
20
24.896000
30
93.647003
70
192
0
VERTEX
8
OBJECT__19
10
-7.731000
20
23.794001
30
93.647003
70
192
0
VERTEX
8
OBJECT__19
10
-22.097000
20
15.066000
30
93.647003
70
192
0
VERTEX
8
OBJECT__19
10
-25.556000
20
7.883000
30
93.647003
70
192
0
VERTEX
8
OBJECT__19
10
-23.794001
20
7.731000
30
93.647003
70
192
0
VERTEX
8
OBJECT__19
10
-26.745001
20
0.000000
30
93.647003
70
192
0
VERTEX
8
OBJECT__19
10
-25.018000
20
0.000000
30
93.647003
70
192
0
VERTEX
8
OBJECT__19
10
-16.674999
20
20.910000
30
93.647003
70
192
0
VERTEX
8
OBJECT__19
10
-14.705000
20
20.240000
30
93.647003
70
192
0
VERTEX
8
OBJECT__19
10
-25.556000
20
-7.883000
30
93.647003
70
192
0
VERTEX
8
OBJECT__19
10
-23.794001
20
-7.731000
30
93.647003
70
192
0
VERTEX
8
OBJECT__19
10
-20.240000
20
14.705000
30
93.647003
70
192
0
VERTEX
8
OBJECT__19
10
-22.097000
20
-15.066000
30
93.647003
70
192
0
VERTEX
8
OBJECT__19
10
-20.240000
20
-14.705000
30
93.647003
70
192
0
VERTEX
8
OBJECT__19
10
-1.999000
20
-26.670000
30
93.647003
70
192
0
VERTEX
8
OBJECT__19
10
0.000000
20
-25.018000
30
93.647003
70
192
0
VERTEX
8
OBJECT__19
10
-7.731000
20
-23.794001
30
93.647003
70
192
0
VERTEX
8
OBJECT__19
10
5.951000
20
-26.073999
30
93.647003
70
192
0
VERTEX
8
OBJECT__19
10
7.731000
20
-23.794001
30
93.647003
70
192
0
VERTEX
8
OBJECT__19
10
-16.674999
20
-20.910000
30
93.647003
70
192
0
VERTEX
8
OBJECT__19
10
-14.705000
20
-20.240000
30
93.647003
70
192
0
VERTEX
8
OBJECT__19
10
-9.771000
20
-24.896000
30
93.647003
70
192
0
VERTEX
8
OBJECT__19
10
13.372000
20
-23.162001
30
93.647003
70
192
0
VERTEX
8
OBJECT__19
10
14.705000
20
-20.240000
30
93.647003
70
192
0
VERTEX
8
OBJECT__19
10
19.605000
20
-18.191000
30
93.647003
70
192
0
VERTEX
8
OBJECT__19
10
20.240000
20
-14.705000
30
93.647003
70
192
0
VERTEX
8
OBJECT__19
10
24.096001
20
-11.604000
30
93.647003
70
192
0
VERTEX
8
OBJECT__19
10
23.794001
20
-7.731000
30
93.647003
70
192
0
VERTEX
8
OBJECT__19
10
26.445999
20
3.986000
30
93.647003
70
192
0
VERTEX
8
OBJECT__19
10
24.096001
20
11.604000
30
93.647003
70
192
0
VERTEX
8
OBJECT__19
10
23.794001
20
7.731000
30
93.647003
70
192
0
VERTEX
8
OBJECT__19
10
25.018000
20
0.000000
30
93.647003
70
192
0
VERTEX
8
OBJECT__19
10
19.605000
20
18.191000
30
93.647003
70
192
0
VERTEX
8
OBJECT__19
10
20.240000
20
14.705000
30
93.647003
70
192
0
VERTEX
8
OBJECT__19
10
13.372000
20
23.162001
30
93.647003
70
192
0
VERTEX
8
OBJECT__19
10
14.705000
20
20.240000
30
93.647003
70
192
0
VERTEX
8
OBJECT__19
10
7.731000
20
23.794001
30
93.647003
70
192
0
VERTEX
8
OBJECT__19
10
26.445999
20
-3.986000
30
93.647003
70
192
0
VERTEX
8
OBJECT__19
10
0
20
0
30
0
70
128
71
1
72
2
73
3
0
VERTEX
8
OBJECT__19
10
0
20
0
30
0
70
128
71
2
72
4
73
5
0
VERTEX
8
OBJECT__19
10
0
20
0
30
0
70
128
71
6
72
7
73
8
0
VERTEX
8
OBJECT__19
10
0
20
0
30
0
70
128
71
7
72
9
73
10
0
VERTEX
8
OBJECT__19
10
0
20
0
30
0
70
128
71
5
72
3
73
2
0
VERTEX
8
OBJECT__19
10
0
20
0
30
0
70
128
71
4
72
11
73
12
0
VERTEX
8
OBJECT__19
10
0
20
0
30
0
70
128
71
10
72
8
73
7
0
VERTEX
8
OBJECT__19
10
0
20
0
30
0
70
128
71
13
72
14
73
10
0
VERTEX
8
OBJECT__19
10
0
20
0
30
0
70
128
71
12
72
5
73
4
0
VERTEX
8
OBJECT__19
10
0
20
0
30
0
70
128
71
11
72
6
73
15
0
VERTEX
8
OBJECT__19
10
0
20
0
30
0
70
128
71
10
72
9
73
13
0
VERTEX
8
OBJECT__19
10
0
20
0
30
0
70
128
71
16
72
17
73
14
0
VERTEX
8
OBJECT__19
10
0
20
0
30
0
70
128
71
18
72
19
73
20
0
VERTEX
8
OBJECT__19
10
0
20
0
30
0
70
128
71
21
72
22
73
19
0
VERTEX
8
OBJECT__19
10
0
20
0
30
0
70
128
71
15
72
12
73
11
0
VERTEX
8
OBJECT__19
10
0
20
0
30
0
70
128
71
14
72
13
73
16
0
VERTEX
8
OBJECT__19
10
0
20
0
30
0
70
128
71
23
72
24
73
17
0
VERTEX
8
OBJECT__19
10
0
20
0
30
0
70
128
71
25
72
20
73
24
0
VERTEX
8
OBJECT__19
10
0
20
0
30
0
70
128
71
19
72
18
73
21
0
VERTEX
8
OBJECT__19
10
0
20
0
30
0
70
128
71
26
72
27
73
22
0
VERTEX
8
OBJECT__19
10
0
20
0
30
0
70
128
71
28
72
29
73
27
0
VERTEX
8
OBJECT__19
10
0
20
0
30
0
70
128
71
30
72
31
73
29
0
VERTEX
8
OBJECT__19
10
0
20
0
30
0
70
128
71
32
72
33
73
34
0
VERTEX
8
OBJECT__19
10
0
20
0
30
0
70
128
71
8
72
15
73
6
0
VERTEX
8
OBJECT__19
10
0
20
0
30
0
70
128
71
24
72
23
73
25
0
VERTEX
8
OBJECT__19
10
0
20
0
30
0
70
128
71
22
72
21
73
26
0
VERTEX
8
OBJECT__19
10
0
20
0
30
0
70
128
71
29
72
28
73
30
0
VERTEX
8
OBJECT__19
10
0
20
0
30
0
70
128
71
34
72
35
73
32
0
VERTEX
8
OBJECT__19
10
0
20
0
30
0
70
128
71
33
72
36
73
37
0
VERTEX
8
OBJECT__19
10
0
20
0
30
0
70
128
71
36
72
38
73
39
0
VERTEX
8
OBJECT__19
10
0
20
0
30
0
70
128
71
38
72
1
73
40
0
VERTEX
8
OBJECT__19
10
0
20
0
30
0
70
128
71
17
72
16
73
23
0
VERTEX
8
OBJECT__19
10
0
20
0
30
0
70
128
71
27
72
26
73
28
0
VERTEX
8
OBJECT__19
10
0
20
0
30
0
70
128
71
37
72
34
73
33
0
VERTEX
8
OBJECT__19
10
0
20
0
30
0
70
128
71
40
72
39
73
38
0
VERTEX
8
OBJECT__19
10
0
20
0
30
0
70
128
71
20
72
25
73
18
0
VERTEX
8
OBJECT__19
10
0
20
0
30
0
70
128
71
41
72
35
73
31
0
VERTEX
8
OBJECT__19
10
0
20
0
30
0
70
128
71
39
72
37
73
36
0
VERTEX
8
OBJECT__19
10
0
20
0
30
0
70
128
71
31
72
30
73
41
0
VERTEX
8
OBJECT__19
10
0
20
0
30
0
70
128
71
3
72
40
73
1
0
VERTEX
8
OBJECT__19
10
0
20
0
30
0
70
128
71
35
72
41
73
32
0
SEQEND
8
OBJECT__19
0
POLYLINE
8
OBJECT__21
66
1
70
64
71
84
72
105
62
253
0
VERTEX
8
OBJECT__21
10
-26.948999
20
8.313000
30
72.161003
70
192
0
VERTEX
8
OBJECT__21
10
-28.202000
20
0.000000
30
72.161003
70
192
0
VERTEX
8
OBJECT__21
10
-26.745001
20
0.000000
30
93.647003
70
192
0
VERTEX
8
OBJECT__21
10
-23.301001
20
15.887000
30
72.161003
70
192
0
VERTEX
8
OBJECT__21
10
-25.556000
20
7.883000
30
93.647003
70
192
0
VERTEX
8
OBJECT__21
10
-22.097000
20
15.066000
30
93.647003
70
192
0
VERTEX
8
OBJECT__21
10
-16.674999
20
20.910000
30
93.647003
70
192
0
VERTEX
8
OBJECT__21
10
-10.303000
20
26.252001
30
72.161003
70
192
0
VERTEX
8
OBJECT__21
10
-17.584000
20
22.049000
30
72.161003
70
192
0
VERTEX
8
OBJECT__21
10
-2.108000
20
28.122999
30
72.161003
70
192
0
VERTEX
8
OBJECT__21
10
-9.771000
20
24.896000
30
93.647003
70
192
0
VERTEX
8
OBJECT__21
10
6.276000
20
27.495001
30
72.161003
70
192
0
VERTEX
8
OBJECT__21
10
-1.999000
20
26.670000
30
93.647003
70
192
0
VERTEX
8
OBJECT__21
10
14.101000
20
24.424000
30
72.161003
70
192
0
VERTEX
8
OBJECT__21
10
5.951000
20
26.073999
30
93.647003
70
192
0
VERTEX
8
OBJECT__21
10
20.673000
20
19.181999
30
72.161003
70
192
0
VERTEX
8
OBJECT__21
10
13.372000
20
23.162001
30
93.647003
70
192
0
VERTEX
8
OBJECT__21
10
25.409000
20
12.236000
30
72.161003
70
192
0
VERTEX
8
OBJECT__21
10
19.605000
20
18.191000
30
93.647003
70
192
0
VERTEX
8
OBJECT__21
10
24.096001
20
11.604000
30
93.647003
70
192
0
VERTEX
8
OBJECT__21
10
26.445999
20
3.986000
30
93.647003
70
192
0
VERTEX
8
OBJECT__21
10
27.886999
20
-4.203000
30
72.161003
70
192
0
VERTEX
8
OBJECT__21
10
27.886999
20
4.203000
30
72.161003
70
192
0
VERTEX
8
OBJECT__21
10
25.409000
20
-12.236000
30
72.161003
70
192
0
VERTEX
8
OBJECT__21
10
26.445999
20
-3.986000
30
93.647003
70
192
0
VERTEX
8
OBJECT__21
10
20.673000
20
-19.181999
30
72.161003
70
192
0
VERTEX
8
OBJECT__21
10
24.096001
20
-11.604000
30
93.647003
70
192
0
VERTEX
8
OBJECT__21
10
14.101000
20
-24.424000
30
72.161003
70
192
0
VERTEX
8
OBJECT__21
10
19.605000
20
-18.191000
30
93.647003
70
192
0
VERTEX
8
OBJECT__21
10
6.276000
20
-27.495001
30
72.161003
70
192
0
VERTEX
8
OBJECT__21
10
13.372000
20
-23.162001
30
93.647003
70
192
0
VERTEX
8
OBJECT__21
10
-2.108000
20
-28.122999
30
72.161003
70
192
0
VERTEX
8
OBJECT__21
10
5.951000
20
-26.073999
30
93.647003
70
192
0
VERTEX
8
OBJECT__21
10
-10.303000
20
-26.252001
30
72.161003
70
192
0
VERTEX
8
OBJECT__21
10
-1.999000
20
-26.670000
30
93.647003
70
192
0
VERTEX
8
OBJECT__21
10
-17.584000
20
-22.049000
30
72.161003
70
192
0
VERTEX
8
OBJECT__21
10
-9.771000
20
-24.896000
30
93.647003
70
192
0
VERTEX
8
OBJECT__21
10
-23.301001
20
-15.887000
30
72.161003
70
192
0
VERTEX
8
OBJECT__21
10
-16.674999
20
-20.910000
30
93.647003
70
192
0
VERTEX
8
OBJECT__21
10
-22.097000
20
-15.066000
30
93.647003
70
192
0
VERTEX
8
OBJECT__21
10
-25.556000
20
-7.883000
30
93.647003
70
192
0
VERTEX
8
OBJECT__21
10
-26.948999
20
-8.313000
30
72.161003
70
192
0
VERTEX
8
OBJECT__21
10
-27.702999
20
8.545000
30
50.639999
70
192
0
VERTEX
8
OBJECT__21
10
-28.667000
20
4.321000
30
50.639999
70
192
0
VERTEX
8
OBJECT__21
10
-23.952999
20
16.330999
30
50.639999
70
192
0
VERTEX
8
OBJECT__21
10
-26.120001
20
12.578000
30
50.639999
70
192
0
VERTEX
8
OBJECT__21
10
-18.075001
20
22.666000
30
50.639999
70
192
0
VERTEX
8
OBJECT__21
10
-21.252001
20
19.719000
30
50.639999
70
192
0
VERTEX
8
OBJECT__21
10
-10.591000
20
26.986000
30
50.639999
70
192
0
VERTEX
8
OBJECT__21
10
-14.495000
20
25.106001
30
50.639999
70
192
0
VERTEX
8
OBJECT__21
10
-2.166000
20
28.909000
30
50.639999
70
192
0
VERTEX
8
OBJECT__21
10
-6.451000
20
28.264000
30
50.639999
70
192
0
VERTEX
8
OBJECT__21
10
2.166000
20
28.909000
30
50.639999
70
192
0
VERTEX
8
OBJECT__21
10
6.451000
20
28.264000
30
50.639999
70
192
0
VERTEX
8
OBJECT__21
10
10.591000
20
26.986000
30
50.639999
70
192
0
VERTEX
8
OBJECT__21
10
14.495000
20
25.106001
30
50.639999
70
192
0
VERTEX
8
OBJECT__21
10
21.252001
20
19.719000
30
50.639999
70
192
0
VERTEX
8
OBJECT__21
10
18.075001
20
22.666000
30
50.639999
70
192
0
VERTEX
8
OBJECT__21
10
23.952999
20
16.330999
30
50.639999
70
192
0
VERTEX
8
OBJECT__21
10
26.120001
20
12.578000
30
50.639999
70
192
0
VERTEX
8
OBJECT__21
10
28.667000
20
4.321000
30
50.639999
70
192
0
VERTEX
8
OBJECT__21
10
27.702999
20
8.545000
30
50.639999
70
192
0
VERTEX
8
OBJECT__21
10
28.667000
20
-4.321000
30
50.639999
70
192
0
VERTEX
8
OBJECT__21
10
28.990000
20
0.000000
30
50.639999
70
192
0
VERTEX
8
OBJECT__21
10
26.120001
20
-12.578000
30
50.639999
70
192
0
VERTEX
8
OBJECT__21
10
27.702999
20
-8.545000
30
50.639999
70
192
0
VERTEX
8
OBJECT__21
10
21.252001
20
-19.719000
30
50.639999
70
192
0
VERTEX
8
OBJECT__21
10
23.952999
20
-16.330999
30
50.639999
70
192
0
VERTEX
8
OBJECT__21
10
14.495000
20
-25.106001
30
50.639999
70
192
0
VERTEX
8
OBJECT__21
10
18.075001
20
-22.666000
30
50.639999
70
192
0
VERTEX
8
OBJECT__21
10
6.451000
20
-28.264000
30
50.639999
70
192
0
VERTEX
8
OBJECT__21
10
10.591000
20
-26.986000
30
50.639999
70
192
0
VERTEX
8
OBJECT__21
10
2.166000
20
-28.909000
30
50.639999
70
192
0
VERTEX
8
OBJECT__21
10
-2.166000
20
-28.909000
30
50.639999
70
192
0
VERTEX
8
OBJECT__21
10
-10.591000
20
-26.986000
30
50.639999
70
192
0
VERTEX
8
OBJECT__21
10
-6.451000
20
-28.264000
30
50.639999
70
192
0
VERTEX
8
OBJECT__21
10
-14.495000
20
-25.106001
30
50.639999
70
192
0
VERTEX
8
OBJECT__21
10
-18.075001
20
-22.666000
30
50.639999
70
192
0
VERTEX
8
OBJECT__21
10
-23.952999
20
-16.330999
30
50.639999
70
192
0
VERTEX
8
OBJECT__21
10
-21.252001
20
-19.719000
30
50.639999
70
192
0
VERTEX
8
OBJECT__21
10
-26.120001
20
-12.578000
30
50.639999
70
192
0
VERTEX
8
OBJECT__21
10
-27.702999
20
-8.545000
30
50.639999
70
192
0
VERTEX
8
OBJECT__21
10
-28.667000
20
-4.321000
30
50.639999
70
192
0
VERTEX
8
OBJECT__21
10
-28.990000
20
0.000000
30
50.639999
70
192
0
VERTEX
8
OBJECT__21
10
0
20
0
30
0
70
128
71
1
72
2
73
3
0
VERTEX
8
OBJECT__21
10
0
20
0
30
0
70
128
71
4
72
1
73
5
0
VERTEX
8
OBJECT__21
10
0
20
0
30
0
70
128
71
4
72
6
73
7
0
VERTEX
8
OBJECT__21
10
0
20
0
30
0
70
128
71
8
72
9
73
7
0
VERTEX
8
OBJECT__21
10
0
20
0
30
0
70
128
71
10
72
8
73
11
0
VERTEX
8
OBJECT__21
10
0
20
0
30
0
70
128
71
12
72
10
73
13
0
VERTEX
8
OBJECT__21
10
0
20
0
30
0
70
128
71
14
72
12
73
15
0
VERTEX
8
OBJECT__21
10
0
20
0
30
0
70
128
71
16
72
14
73
17
0
VERTEX
8
OBJECT__21
10
0
20
0
30
0
70
128
71
18
72
16
73
19
0
VERTEX
8
OBJECT__21
10
0
20
0
30
0
70
128
71
18
72
20
73
21
0
VERTEX
8
OBJECT__21
10
0
20
0
30
0
70
128
71
22
72
23
73
21
0
VERTEX
8
OBJECT__21
10
0
20
0
30
0
70
128
71
24
72
22
73
25
0
VERTEX
8
OBJECT__21
10
0
20
0
30
0
70
128
71
26
72
24
73
27
0
VERTEX
8
OBJECT__21
10
0
20
0
30
0
70
128
71
28
72
26
73
29
0
VERTEX
8
OBJECT__21
10
0
20
0
30
0
70
128
71
30
72
28
73
31
0
VERTEX
8
OBJECT__21
10
0
20
0
30
0
70
128
71
32
72
30
73
33
0
VERTEX
8
OBJECT__21
10
0
20
0
30
0
70
128
71
34
72
32
73
35
0
VERTEX
8
OBJECT__21
10
0
20
0
30
0
70
128
71
36
72
34
73
37
0
VERTEX
8
OBJECT__21
10
0
20
0
30
0
70
128
71
38
72
36
73
39
0
VERTEX
8
OBJECT__21
10
0
20
0
30
0
70
128
71
38
72
40
73
41
0
VERTEX
8
OBJECT__21
10
0
20
0
30
0
70
128
71
42
72
41
73
3
0
VERTEX
8
OBJECT__21
10
0
20
0
30
0
70
128
71
1
72
43
73
44
0
VERTEX
8
OBJECT__21
10
0
20
0
30
0
70
128
71
44
72
2
73
1
0
VERTEX
8
OBJECT__21
10
0
20
0
30
0
70
128
71
4
72
45
73
46
0
VERTEX
8
OBJECT__21
10
0
20
0
30
0
70
128
71
46
72
1
73
4
0
VERTEX
8
OBJECT__21
10
0
20
0
30
0
70
128
71
9
72
47
73
48
0
VERTEX
8
OBJECT__21
10
0
20
0
30
0
70
128
71
48
72
4
73
9
0
VERTEX
8
OBJECT__21
10
0
20
0
30
0
70
128
71
8
72
49
73
50
0
VERTEX
8
OBJECT__21
10
0
20
0
30
0
70
128
71
50
72
9
73
8
0
VERTEX
8
OBJECT__21
10
0
20
0
30
0
70
128
71
10
72
51
73
52
0
VERTEX
8
OBJECT__21
10
0
20
0
30
0
70
128
71
52
72
8
73
10
0
VERTEX
8
OBJECT__21
10
0
20
0
30
0
70
128
71
10
72
12
73
53
0
VERTEX
8
OBJECT__21
10
0
20
0
30
0
70
128
71
12
72
54
73
53
0
VERTEX
8
OBJECT__21
10
0
20
0
30
0
70
128
71
12
72
14
73
55
0
VERTEX
8
OBJECT__21
10
0
20
0
30
0
70
128
71
14
72
56
73
55
0
VERTEX
8
OBJECT__21
10
0
20
0
30
0
70
128
71
16
72
57
73
58
0
VERTEX
8
OBJECT__21
10
0
20
0
30
0
70
128
71
58
72
14
73
16
0
VERTEX
8
OBJECT__21
10
0
20
0
30
0
70
128
71
16
72
18
73
59
0
VERTEX
8
OBJECT__21
10
0
20
0
30
0
70
128
71
18
72
60
73
59
0
VERTEX
8
OBJECT__21
10
0
20
0
30
0
70
128
71
23
72
61
73
62
0
VERTEX
8
OBJECT__21
10
0
20
0
30
0
70
128
71
62
72
18
73
23
0
VERTEX
8
OBJECT__21
10
0
20
0
30
0
70
128
71
22
72
63
73
64
0
VERTEX
8
OBJECT__21
10
0
20
0
30
0
70
128
71
64
72
23
73
22
0
VERTEX
8
OBJECT__21
10
0
20
0
30
0
70
128
71
24
72
65
73
66
0
VERTEX
8
OBJECT__21
10
0
20
0
30
0
70
128
71
66
72
22
73
24
0
VERTEX
8
OBJECT__21
10
0
20
0
30
0
70
128
71
26
72
67
73
68
0
VERTEX
8
OBJECT__21
10
0
20
0
30
0
70
128
71
68
72
24
73
26
0
VERTEX
8
OBJECT__21
10
0
20
0
30
0
70
128
71
28
72
69
73
70
0
VERTEX
8
OBJECT__21
10
0
20
0
30
0
70
128
71
70
72
26
73
28
0
VERTEX
8
OBJECT__21
10
0
20
0
30
0
70
128
71
30
72
71
73
72
0
VERTEX
8
OBJECT__21
10
0
20
0
30
0
70
128
71
72
72
28
73
30
0
VERTEX
8
OBJECT__21
10
0
20
0
30
0
70
128
71
30
72
32
73
73
0
VERTEX
8
OBJECT__21
10
0
20
0
30
0
70
128
71
32
72
74
73
73
0
VERTEX
8
OBJECT__21
10
0
20
0
30
0
70
128
71
34
72
75
73
76
0
VERTEX
8
OBJECT__21
10
0
20
0
30
0
70
128
71
76
72
32
73
34
0
VERTEX
8
OBJECT__21
10
0
20
0
30
0
70
128
71
34
72
36
73
77
0
VERTEX
8
OBJECT__21
10
0
20
0
30
0
70
128
71
36
72
78
73
77
0
VERTEX
8
OBJECT__21
10
0
20
0
30
0
70
128
71
38
72
79
73
80
0
VERTEX
8
OBJECT__21
10
0
20
0
30
0
70
128
71
80
72
36
73
38
0
VERTEX
8
OBJECT__21
10
0
20
0
30
0
70
128
71
38
72
42
73
81
0
VERTEX
8
OBJECT__21
10
0
20
0
30
0
70
128
71
42
72
82
73
81
0
VERTEX
8
OBJECT__21
10
0
20
0
30
0
70
128
71
42
72
2
73
83
0
VERTEX
8
OBJECT__21
10
0
20
0
30
0
70
128
71
2
72
84
73
83
0
VERTEX
8
OBJECT__21
10
0
20
0
30
0
70
128
71
83
72
82
73
42
0
VERTEX
8
OBJECT__21
10
0
20
0
30
0
70
128
71
81
72
79
73
38
0
VERTEX
8
OBJECT__21
10
0
20
0
30
0
70
128
71
80
72
78
73
36
0
VERTEX
8
OBJECT__21
10
0
20
0
30
0
70
128
71
77
72
75
73
34
0
VERTEX
8
OBJECT__21
10
0
20
0
30
0
70
128
71
76
72
74
73
32
0
VERTEX
8
OBJECT__21
10
0
20
0
30
0
70
128
71
73
72
71
73
30
0
VERTEX
8
OBJECT__21
10
0
20
0
30
0
70
128
71
72
72
69
73
28
0
VERTEX
8
OBJECT__21
10
0
20
0
30
0
70
128
71
70
72
67
73
26
0
VERTEX
8
OBJECT__21
10
0
20
0
30
0
70
128
71
68
72
65
73
24
0
VERTEX
8
OBJECT__21
10
0
20
0
30
0
70
128
71
66
72
63
73
22
0
VERTEX
8
OBJECT__21
10
0
20
0
30
0
70
128
71
64
72
61
73
23
0
VERTEX
8
OBJECT__21
10
0
20
0
30
0
70
128
71
62
72
60
73
18
0
VERTEX
8
OBJECT__21
10
0
20
0
30
0
70
128
71
59
72
57
73
16
0
VERTEX
8
OBJECT__21
10
0
20
0
30
0
70
128
71
58
72
56
73
14
0
VERTEX
8
OBJECT__21
10
0
20
0
30
0
70
128
71
55
72
54
73
12
0
VERTEX
8
OBJECT__21
10
0
20
0
30
0
70
128
71
53
72
51
73
10
0
VERTEX
8
OBJECT__21
10
0
20
0
30
0
70
128
71
52
72
49
73
8
0
VERTEX
8
OBJECT__21
10
0
20
0
30
0
70
128
71
50
72
47
73
9
0
VERTEX
8
OBJECT__21
10
0
20
0
30
0
70
128
71
48
72
45
73
4
0
VERTEX
8
OBJECT__21
10
0
20
0
30
0
70
128
71
46
72
43
73
1
0
VERTEX
8
OBJECT__21
10
0
20
0
30
0
70
128
71
44
72
84
73
2
0
VERTEX
8
OBJECT__21
10
0
20
0
30
0
70
128
71
3
72
2
73
42
0
VERTEX
8
OBJECT__21
10
0
20
0
30
0
70
128
71
41
72
42
73
38
0
VERTEX
8
OBJECT__21
10
0
20
0
30
0
70
128
71
39
72
40
73
38
0
VERTEX
8
OBJECT__21
10
0
20
0
30
0
70
128
71
37
72
39
73
36
0
VERTEX
8
OBJECT__21
10
0
20
0
30
0
70
128
71
35
72
37
73
34
0
VERTEX
8
OBJECT__21
10
0
20
0
30
0
70
128
71
33
72
35
73
32
0
VERTEX
8
OBJECT__21
10
0
20
0
30
0
70
128
71
31
72
33
73
30
0
VERTEX
8
OBJECT__21
10
0
20
0
30
0
70
128
71
29
72
31
73
28
0
VERTEX
8
OBJECT__21
10
0
20
0
30
0
70
128
71
27
72
29
73
26
0
VERTEX
8
OBJECT__21
10
0
20
0
30
0
70
128
71
25
72
27
73
24
0
VERTEX
8
OBJECT__21
10
0
20
0
30
0
70
128
71
21
72
25
73
22
0
VERTEX
8
OBJECT__21
10
0
20
0
30
0
70
128
71
21
72
23
73
18
0
VERTEX
8
OBJECT__21
10
0
20
0
30
0
70
128
71
19
72
20
73
18
0
VERTEX
8
OBJECT__21
10
0
20
0
30
0
70
128
71
17
72
19
73
16
0
VERTEX
8
OBJECT__21
10
0
20
0
30
0
70
128
71
15
72
17
73
14
0
VERTEX
8
OBJECT__21
10
0
20
0
30
0
70
128
71
13
72
15
73
12
0
VERTEX
8
OBJECT__21
10
0
20
0
30
0
70
128
71
11
72
13
73
10
0
VERTEX
8
OBJECT__21
10
0
20
0
30
0
70
128
71
7
72
11
73
8
0
VERTEX
8
OBJECT__21
10
0
20
0
30
0
70
128
71
7
72
9
73
4
0
VERTEX
8
OBJECT__21
10
0
20
0
30
0
70
128
71
5
72
6
73
4
0
VERTEX
8
OBJECT__21
10
0
20
0
30
0
70
128
71
3
72
5
73
1
0
SEQEND
8
OBJECT__21
0
POLYLINE
8
OBJECT__22
66
1
70
64
71
79
72
79
62
253
0
VERTEX
8
OBJECT__22
10
-2.166000
20
28.909000
30
50.639999
70
192
0
VERTEX
8
OBJECT__22
10
2.166000
20
28.909000
30
50.639999
70
192
0
VERTEX
8
OBJECT__22
10
0.000000
20
28.889999
30
50.639999
70
192
0
VERTEX
8
OBJECT__22
10
6.451000
20
28.264000
30
50.639999
70
192
0
VERTEX
8
OBJECT__22
10
8.928000
20
27.476000
30
50.639999
70
192
0
VERTEX
8
OBJECT__22
10
3.020000
20
28.732000
30
50.639999
70
192
0
VERTEX
8
OBJECT__22
10
-6.451000
20
28.264000
30
50.639999
70
192
0
VERTEX
8
OBJECT__22
10
-3.020000
20
28.732000
30
50.639999
70
192
0
VERTEX
8
OBJECT__22
10
10.591000
20
26.986000
30
50.639999
70
192
0
VERTEX
8
OBJECT__22
10
21.252001
20
19.719000
30
50.639999
70
192
0
VERTEX
8
OBJECT__22
10
21.469999
20
19.332001
30
50.639999
70
192
0
VERTEX
8
OBJECT__22
10
19.332001
20
21.469999
30
50.639999
70
192
0
VERTEX
8
OBJECT__22
10
23.952999
20
16.330999
30
50.639999
70
192
0
VERTEX
8
OBJECT__22
10
23.372999
20
16.981001
30
50.639999
70
192
0
VERTEX
8
OBJECT__22
10
-14.445000
20
25.020000
30
50.639999
70
192
0
VERTEX
8
OBJECT__22
10
-19.332001
20
21.469999
30
50.639999
70
192
0
VERTEX
8
OBJECT__22
10
-18.075001
20
22.666000
30
50.639999
70
192
0
VERTEX
8
OBJECT__22
10
-14.495000
20
25.106001
30
50.639999
70
192
0
VERTEX
8
OBJECT__22
10
-10.591000
20
26.986000
30
50.639999
70
192
0
VERTEX
8
OBJECT__22
10
-8.928000
20
27.476000
30
50.639999
70
192
0
VERTEX
8
OBJECT__22
10
14.445000
20
25.020000
30
50.639999
70
192
0
VERTEX
8
OBJECT__22
10
14.495000
20
25.106001
30
50.639999
70
192
0
VERTEX
8
OBJECT__22
10
18.075001
20
22.666000
30
50.639999
70
192
0
VERTEX
8
OBJECT__22
10
6.451000
20
-28.264000
30
50.639999
70
192
0
VERTEX
8
OBJECT__22
10
6.007000
20
-28.259001
30
50.639999
70
192
0
VERTEX
8
OBJECT__22
10
8.928000
20
-27.476000
30
50.639999
70
192
0
VERTEX
8
OBJECT__22
10
2.166000
20
-28.909000
30
50.639999
70
192
0
VERTEX
8
OBJECT__22
10
3.020000
20
-28.732000
30
50.639999
70
192
0
VERTEX
8
OBJECT__22
10
26.120001
20
12.578000
30
50.639999
70
192
0
VERTEX
8
OBJECT__22
10
27.702999
20
8.545000
30
50.639999
70
192
0
VERTEX
8
OBJECT__22
10
28.259001
20
6.007000
30
50.639999
70
192
0
VERTEX
8
OBJECT__22
10
26.393000
20
11.751000
30
50.639999
70
192
0
VERTEX
8
OBJECT__22
10
27.702999
20
-8.545000
30
50.639999
70
192
0
VERTEX
8
OBJECT__22
10
26.120001
20
-12.578000
30
50.639999
70
192
0
VERTEX
8
OBJECT__22
10
26.393000
20
-11.751000
30
50.639999
70
192
0
VERTEX
8
OBJECT__22
10
23.952999
20
-16.330999
30
50.639999
70
192
0
VERTEX
8
OBJECT__22
10
25.020000
20
-14.445000
30
50.639999
70
192
0
VERTEX
8
OBJECT__22
10
14.445000
20
-25.020000
30
50.639999
70
192
0
VERTEX
8
OBJECT__22
10
14.495000
20
-25.106001
30
50.639999
70
192
0
VERTEX
8
OBJECT__22
10
10.591000
20
-26.986000
30
50.639999
70
192
0
VERTEX
8
OBJECT__22
10
28.667000
20
4.321000
30
50.639999
70
192
0
VERTEX
8
OBJECT__22
10
28.259001
20
-6.007000
30
50.639999
70
192
0
VERTEX
8
OBJECT__22
10
23.372999
20
-16.981001
30
50.639999
70
192
0
VERTEX
8
OBJECT__22
10
21.252001
20
-19.719000
30
50.639999
70
192
0
VERTEX
8
OBJECT__22
10
19.332001
20
-21.469999
30
50.639999
70
192
0
VERTEX
8
OBJECT__22
10
-2.166000
20
-28.909000
30
50.639999
70
192
0
VERTEX
8
OBJECT__22
10
-6.451000
20
-28.264000
30
50.639999
70
192
0
VERTEX
8
OBJECT__22
10
-8.928000
20
-27.476000
30
50.639999
70
192
0
VERTEX
8
OBJECT__22
10
-3.020000
20
-28.732000
30
50.639999
70
192
0
VERTEX
8
OBJECT__22
10
-23.952999
20
-16.330999
30
50.639999
70
192
0
VERTEX
8
OBJECT__22
10
-26.120001
20
-12.578000
30
50.639999
70
192
0
VERTEX
8
OBJECT__22
10
-25.020000
20
-14.445000
30
50.639999
70
192
0
VERTEX
8
OBJECT__22
10
-27.702999
20
-8.545000
30
50.639999
70
192
0
VERTEX
8
OBJECT__22
10
-28.259001
20
-6.007000
30
50.639999
70
192
0
VERTEX
8
OBJECT__22
10
-26.393000
20
-11.751000
30
50.639999
70
192
0
VERTEX
8
OBJECT__22
10
28.889999
20
0.000000
30
50.639999
70
192
0
VERTEX
8
OBJECT__22
10
28.990000
20
0.000000
30
50.639999
70
192
0
VERTEX
8
OBJECT__22
10
28.667000
20
-4.321000
30
50.639999
70
192
0
VERTEX
8
OBJECT__22
10
18.075001
20
-22.666000
30
50.639999
70
192
0
VERTEX
8
OBJECT__22
10
-10.591000
20
-26.986000
30
50.639999
70
192
0
VERTEX
8
OBJECT__22
10
-14.445000
20
-25.020000
30
50.639999
70
192
0
VERTEX
8
OBJECT__22
10
-21.252001
20
-19.719000
30
50.639999
70
192
0
VERTEX
8
OBJECT__22
10
-23.372999
20
-16.981001
30
50.639999
70
192
0
VERTEX
8
OBJECT__22
10
-28.667000
20
-4.321000
30
50.639999
70
192
0
VERTEX
8
OBJECT__22
10
-28.990000
20
0.000000
30
50.639999
70
192
0
VERTEX
8
OBJECT__22
10
-28.667000
20
4.321000
30
50.639999
70
192
0
VERTEX
8
OBJECT__22
10
-28.732000
20
3.020000
30
50.639999
70
192
0
VERTEX
8
OBJECT__22
10
-27.702999
20
8.545000
30
50.639999
70
192
0
VERTEX
8
OBJECT__22
10
-27.476000
20
8.928000
30
50.639999
70
192
0
VERTEX
8
OBJECT__22
10
-28.259001
20
6.007000
30
50.639999
70
192
0
VERTEX
8
OBJECT__22
10
-26.120001
20
12.578000
30
50.639999
70
192
0
VERTEX
8
OBJECT__22
10
-26.393000
20
11.751000
30
50.639999
70
192
0
VERTEX
8
OBJECT__22
10
-14.495000
20
-25.106001
30
50.639999
70
192
0
VERTEX
8
OBJECT__22
10
-18.075001
20
-22.666000
30
50.639999
70
192
0
VERTEX
8
OBJECT__22
10
-19.332001
20
-21.469999
30
50.639999
70
192
0
VERTEX
8
OBJECT__22
10
-23.952999
20
16.330999
30
50.639999
70
192
0
VERTEX
8
OBJECT__22
10
-21.252001
20
19.719000
30
50.639999
70
192
0
VERTEX
8
OBJECT__22
10
-23.372999
20
16.981001
30
50.639999
70
192
0
VERTEX
8
OBJECT__22
10
-28.889999
20
0.000000
30
50.639999
70
192
0
VERTEX
8
OBJECT__22
10
0
20
0
30
0
70
128
71
1
72
2
73
3
0
VERTEX
8
OBJECT__22
10
0
20
0
30
0
70
128
71
4
72
5
73
6
0
VERTEX
8
OBJECT__22
10
0
20
0
30
0
70
128
71
7
72
1
73
8
0
VERTEX
8
OBJECT__22
10
0
20
0
30
0
70
128
71
2
72
6
73
3
0
VERTEX
8
OBJECT__22
10
0
20
0
30
0
70
128
71
4
72
9
73
5
0
VERTEX
8
OBJECT__22
10
0
20
0
30
0
70
128
71
10
72
11
73
12
0
VERTEX
8
OBJECT__22
10
0
20
0
30
0
70
128
71
10
72
13
73
14
0
VERTEX
8
OBJECT__22
10
0
20
0
30
0
70
128
71
15
72
16
73
17
0
VERTEX
8
OBJECT__22
10
0
20
0
30
0
70
128
71
15
72
18
73
19
0
VERTEX
8
OBJECT__22
10
0
20
0
30
0
70
128
71
8
72
20
73
7
0
VERTEX
8
OBJECT__22
10
0
20
0
30
0
70
128
71
6
72
2
73
4
0
VERTEX
8
OBJECT__22
10
0
20
0
30
0
70
128
71
21
72
22
73
23
0
VERTEX
8
OBJECT__22
10
0
20
0
30
0
70
128
71
14
72
11
73
10
0
VERTEX
8
OBJECT__22
10
0
20
0
30
0
70
128
71
24
72
25
73
26
0
VERTEX
8
OBJECT__22
10
0
20
0
30
0
70
128
71
24
72
27
73
28
0
VERTEX
8
OBJECT__22
10
0
20
0
30
0
70
128
71
19
72
20
73
15
0
VERTEX
8
OBJECT__22
10
0
20
0
30
0
70
128
71
3
72
8
73
1
0
VERTEX
8
OBJECT__22
10
0
20
0
30
0
70
128
71
12
72
23
73
10
0
VERTEX
8
OBJECT__22
10
0
20
0
30
0
70
128
71
14
72
13
73
29
0
VERTEX
8
OBJECT__22
10
0
20
0
30
0
70
128
71
30
72
31
73
32
0
VERTEX
8
OBJECT__22
10
0
20
0
30
0
70
128
71
33
72
34
73
35
0
VERTEX
8
OBJECT__22
10
0
20
0
30
0
70
128
71
34
72
36
73
37
0
VERTEX
8
OBJECT__22
10
0
20
0
30
0
70
128
71
38
72
39
73
40
0
VERTEX
8
OBJECT__22
10
0
20
0
30
0
70
128
71
28
72
25
73
24
0
VERTEX
8
OBJECT__22
10
0
20
0
30
0
70
128
71
20
72
19
73
7
0
VERTEX
8
OBJECT__22
10
0
20
0
30
0
70
128
71
21
72
5
73
9
0
VERTEX
8
OBJECT__22
10
0
20
0
30
0
70
128
71
29
72
32
73
14
0
VERTEX
8
OBJECT__22
10
0
20
0
30
0
70
128
71
30
72
41
73
31
0
VERTEX
8
OBJECT__22
10
0
20
0
30
0
70
128
71
35
72
42
73
33
0
VERTEX
8
OBJECT__22
10
0
20
0
30
0
70
128
71
36
72
43
73
37
0
VERTEX
8
OBJECT__22
10
0
20
0
30
0
70
128
71
44
72
45
73
43
0
VERTEX
8
OBJECT__22
10
0
20
0
30
0
70
128
71
26
72
40
73
24
0
VERTEX
8
OBJECT__22
10
0
20
0
30
0
70
128
71
28
72
27
73
46
0
VERTEX
8
OBJECT__22
10
0
20
0
30
0
70
128
71
47
72
48
73
49
0
VERTEX
8
OBJECT__22
10
0
20
0
30
0
70
128
71
50
72
51
73
52
0
VERTEX
8
OBJECT__22
10
0
20
0
30
0
70
128
71
53
72
54
73
55
0
VERTEX
8
OBJECT__22
10
0
20
0
30
0
70
128
71
9
72
22
73
21
0
VERTEX
8
OBJECT__22
10
0
20
0
30
0
70
128
71
32
72
29
73
30
0
VERTEX
8
OBJECT__22
10
0
20
0
30
0
70
128
71
56
72
31
73
41
0
VERTEX
8
OBJECT__22
10
0
20
0
30
0
70
128
71
56
72
57
73
58
0
VERTEX
8
OBJECT__22
10
0
20
0
30
0
70
128
71
37
72
35
73
34
0
VERTEX
8
OBJECT__22
10
0
20
0
30
0
70
128
71
44
72
59
73
45
0
VERTEX
8
OBJECT__22
10
0
20
0
30
0
70
128
71
38
72
45
73
59
0
VERTEX
8
OBJECT__22
10
0
20
0
30
0
70
128
71
46
72
49
73
28
0
VERTEX
8
OBJECT__22
10
0
20
0
30
0
70
128
71
47
72
60
73
48
0
VERTEX
8
OBJECT__22
10
0
20
0
30
0
70
128
71
61
72
48
73
60
0
VERTEX
8
OBJECT__22
10
0
20
0
30
0
70
128
71
62
72
50
73
63
0
VERTEX
8
OBJECT__22
10
0
20
0
30
0
70
128
71
51
72
55
73
52
0
VERTEX
8
OBJECT__22
10
0
20
0
30
0
70
128
71
53
72
64
73
54
0
VERTEX
8
OBJECT__22
10
0
20
0
30
0
70
128
71
65
72
66
73
67
0
VERTEX
8
OBJECT__22
10
0
20
0
30
0
70
128
71
68
72
69
73
70
0
VERTEX
8
OBJECT__22
10
0
20
0
30
0
70
128
71
68
72
71
73
72
0
VERTEX
8
OBJECT__22
10
0
20
0
30
0
70
128
71
23
72
12
73
21
0
VERTEX
8
OBJECT__22
10
0
20
0
30
0
70
128
71
58
72
42
73
56
0
VERTEX
8
OBJECT__22
10
0
20
0
30
0
70
128
71
43
72
36
73
44
0
VERTEX
8
OBJECT__22
10
0
20
0
30
0
70
128
71
40
72
26
73
38
0
VERTEX
8
OBJECT__22
10
0
20
0
30
0
70
128
71
60
72
73
73
61
0
VERTEX
8
OBJECT__22
10
0
20
0
30
0
70
128
71
61
72
73
73
74
0
VERTEX
8
OBJECT__22
10
0
20
0
30
0
70
128
71
63
72
75
73
62
0
VERTEX
8
OBJECT__22
10
0
20
0
30
0
70
128
71
55
72
51
73
53
0
VERTEX
8
OBJECT__22
10
0
20
0
30
0
70
128
71
66
72
70
73
67
0
VERTEX
8
OBJECT__22
10
0
20
0
30
0
70
128
71
72
72
69
73
68
0
VERTEX
8
OBJECT__22
10
0
20
0
30
0
70
128
71
41
72
57
73
56
0
VERTEX
8
OBJECT__22
10
0
20
0
30
0
70
128
71
59
72
39
73
38
0
VERTEX
8
OBJECT__22
10
0
20
0
30
0
70
128
71
74
72
75
73
61
0
VERTEX
8
OBJECT__22
10
0
20
0
30
0
70
128
71
52
72
63
73
50
0
VERTEX
8
OBJECT__22
10
0
20
0
30
0
70
128
71
70
72
66
73
68
0
VERTEX
8
OBJECT__22
10
0
20
0
30
0
70
128
71
72
72
71
73
76
0
VERTEX
8
OBJECT__22
10
0
20
0
30
0
70
128
71
77
72
16
73
78
0
VERTEX
8
OBJECT__22
10
0
20
0
30
0
70
128
71
42
72
58
73
33
0
VERTEX
8
OBJECT__22
10
0
20
0
30
0
70
128
71
75
72
74
73
62
0
VERTEX
8
OBJECT__22
10
0
20
0
30
0
70
128
71
76
72
78
73
72
0
VERTEX
8
OBJECT__22
10
0
20
0
30
0
70
128
71
77
72
17
73
16
0
VERTEX
8
OBJECT__22
10
0
20
0
30
0
70
128
71
49
72
46
73
47
0
VERTEX
8
OBJECT__22
10
0
20
0
30
0
70
128
71
79
72
54
73
64
0
VERTEX
8
OBJECT__22
10
0
20
0
30
0
70
128
71
78
72
76
73
77
0
VERTEX
8
OBJECT__22
10
0
20
0
30
0
70
128
71
64
72
65
73
79
0
VERTEX
8
OBJECT__22
10
0
20
0
30
0
70
128
71
17
72
18
73
15
0
VERTEX
8
OBJECT__22
10
0
20
0
30
0
70
128
71
67
72
79
73
65
0
SEQEND
8
OBJECT__22
0
POLYLINE
8
OBJECT__23
66
1
70
64
71
53
72
53
62
253
0
VERTEX
8
OBJECT__23
10
28.400999
20
0.000000
30
50.150002
70
192
0
VERTEX
8
OBJECT__23
10
25.945000
20
11.552000
30
50.150002
70
192
0
VERTEX
8
OBJECT__23
10
28.259001
20
6.007000
30
50.639999
70
192
0
VERTEX
8
OBJECT__23
10
26.393000
20
11.751000
30
50.639999
70
192
0
VERTEX
8
OBJECT__23
10
19.004000
20
21.106001
30
50.150002
70
192
0
VERTEX
8
OBJECT__23
10
23.372999
20
16.981001
30
50.639999
70
192
0
VERTEX
8
OBJECT__23
10
21.469999
20
19.332001
30
50.639999
70
192
0
VERTEX
8
OBJECT__23
10
19.332001
20
21.469999
30
50.639999
70
192
0
VERTEX
8
OBJECT__23
10
8.776000
20
27.011000
30
50.150002
70
192
0
VERTEX
8
OBJECT__23
10
8.928000
20
27.476000
30
50.639999
70
192
0
VERTEX
8
OBJECT__23
10
14.445000
20
25.020000
30
50.639999
70
192
0
VERTEX
8
OBJECT__23
10
-2.969000
20
28.245001
30
50.150002
70
192
0
VERTEX
8
OBJECT__23
10
3.020000
20
28.732000
30
50.639999
70
192
0
VERTEX
8
OBJECT__23
10
0.000000
20
28.889999
30
50.639999
70
192
0
VERTEX
8
OBJECT__23
10
-3.020000
20
28.732000
30
50.639999
70
192
0
VERTEX
8
OBJECT__23
10
-14.200000
20
24.596001
30
50.150002
70
192
0
VERTEX
8
OBJECT__23
10
-14.445000
20
25.020000
30
50.639999
70
192
0
VERTEX
8
OBJECT__23
10
-8.928000
20
27.476000
30
50.639999
70
192
0
VERTEX
8
OBJECT__23
10
-22.976999
20
16.693001
30
50.150002
70
192
0
VERTEX
8
OBJECT__23
10
-23.372999
20
16.981001
30
50.639999
70
192
0
VERTEX
8
OBJECT__23
10
-19.332001
20
21.469999
30
50.639999
70
192
0
VERTEX
8
OBJECT__23
10
-27.780001
20
5.905000
30
50.150002
70
192
0
VERTEX
8
OBJECT__23
10
-26.393000
20
11.751000
30
50.639999
70
192
0
VERTEX
8
OBJECT__23
10
-27.476000
20
8.928000
30
50.639999
70
192
0
VERTEX
8
OBJECT__23
10
-28.259001
20
6.007000
30
50.639999
70
192
0
VERTEX
8
OBJECT__23
10
-28.259001
20
-6.007000
30
50.639999
70
192
0
VERTEX
8
OBJECT__23
10
-28.889999
20
0.000000
30
50.639999
70
192
0
VERTEX
8
OBJECT__23
10
-28.400999
20
0.000000
30
50.150002
70
192
0
VERTEX
8
OBJECT__23
10
-28.732000
20
3.020000
30
50.639999
70
192
0
VERTEX
8
OBJECT__23
10
-27.780001
20
-5.905000
30
50.150002
70
192
0
VERTEX
8
OBJECT__23
10
-22.976999
20
-16.693001
30
50.150002
70
192
0
VERTEX
8
OBJECT__23
10
-26.393000
20
-11.751000
30
50.639999
70
192
0
VERTEX
8
OBJECT__23
10
-25.020000
20
-14.445000
30
50.639999
70
192
0
VERTEX
8
OBJECT__23
10
-23.372999
20
-16.981001
30
50.639999
70
192
0
VERTEX
8
OBJECT__23
10
-14.200000
20
-24.596001
30
50.150002
70
192
0
VERTEX
8
OBJECT__23
10
-19.332001
20
-21.469999
30
50.639999
70
192
0
VERTEX
8
OBJECT__23
10
-14.445000
20
-25.020000
30
50.639999
70
192
0
VERTEX
8
OBJECT__23
10
-2.969000
20
-28.245001
30
50.150002
70
192
0
VERTEX
8
OBJECT__23
10
-8.928000
20
-27.476000
30
50.639999
70
192
0
VERTEX
8
OBJECT__23
10
-3.020000
20
-28.732000
30
50.639999
70
192
0
VERTEX
8
OBJECT__23
10
8.776000
20
-27.011000
30
50.150002
70
192
0
VERTEX
8
OBJECT__23
10
3.020000
20
-28.732000
30
50.639999
70
192
0
VERTEX
8
OBJECT__23
10
6.007000
20
-28.259001
30
50.639999
70
192
0
VERTEX
8
OBJECT__23
10
8.928000
20
-27.476000
30
50.639999
70
192
0
VERTEX
8
OBJECT__23
10
19.004000
20
-21.106001
30
50.150002
70
192
0
VERTEX
8
OBJECT__23
10
14.445000
20
-25.020000
30
50.639999
70
192
0
VERTEX
8
OBJECT__23
10
19.332001
20
-21.469999
30
50.639999
70
192
0
VERTEX
8
OBJECT__23
10
25.945000
20
-11.552000
30
50.150002
70
192
0
VERTEX
8
OBJECT__23
10
23.372999
20
-16.981001
30
50.639999
70
192
0
VERTEX
8
OBJECT__23
10
25.020000
20
-14.445000
30
50.639999
70
192
0
VERTEX
8
OBJECT__23
10
26.393000
20
-11.751000
30
50.639999
70
192
0
VERTEX
8
OBJECT__23
10
28.889999
20
0.000000
30
50.639999
70
192
0
VERTEX
8
OBJECT__23
10
28.259001
20
-6.007000
30
50.639999
70
192
0
VERTEX
8
OBJECT__23
10
0
20
0
30
0
70
128
71
1
72
2
73
3
0
VERTEX
8
OBJECT__23
10
0
20
0
30
0
70
128
71
2
72
4
73
3
0
VERTEX
8
OBJECT__23
10
0
20
0
30
0
70
128
71
2
72
5
73
6
0
VERTEX
8
OBJECT__23
10
0
20
0
30
0
70
128
71
5
72
7
73
6
0
VERTEX
8
OBJECT__23
10
0
20
0
30
0
70
128
71
5
72
8
73
7
0
VERTEX
8
OBJECT__23
10
0
20
0
30
0
70
128
71
9
72
10
73
11
0
VERTEX
8
OBJECT__23
10
0
20
0
30
0
70
128
71
11
72
5
73
9
0
VERTEX
8
OBJECT__23
10
0
20
0
30
0
70
128
71
9
72
12
73
13
0
VERTEX
8
OBJECT__23
10
0
20
0
30
0
70
128
71
12
72
14
73
13
0
VERTEX
8
OBJECT__23
10
0
20
0
30
0
70
128
71
12
72
15
73
14
0
VERTEX
8
OBJECT__23
10
0
20
0
30
0
70
128
71
16
72
17
73
18
0
VERTEX
8
OBJECT__23
10
0
20
0
30
0
70
128
71
18
72
12
73
16
0
VERTEX
8
OBJECT__23
10
0
20
0
30
0
70
128
71
19
72
20
73
21
0
VERTEX
8
OBJECT__23
10
0
20
0
30
0
70
128
71
21
72
16
73
19
0
VERTEX
8
OBJECT__23
10
0
20
0
30
0
70
128
71
19
72
22
73
23
0
VERTEX
8
OBJECT__23
10
0
20
0
30
0
70
128
71
22
72
24
73
23
0
VERTEX
8
OBJECT__23
10
0
20
0
30
0
70
128
71
22
72
25
73
24
0
VERTEX
8
OBJECT__23
10
0
20
0
30
0
70
128
71
26
72
27
73
28
0
VERTEX
8
OBJECT__23
10
0
20
0
30
0
70
128
71
22
72
28
73
29
0
VERTEX
8
OBJECT__23
10
0
20
0
30
0
70
128
71
28
72
27
73
29
0
VERTEX
8
OBJECT__23
10
0
20
0
30
0
70
128
71
29
72
25
73
22
0
VERTEX
8
OBJECT__23
10
0
20
0
30
0
70
128
71
30
72
31
73
32
0
VERTEX
8
OBJECT__23
10
0
20
0
30
0
70
128
71
31
72
33
73
32
0
VERTEX
8
OBJECT__23
10
0
20
0
30
0
70
128
71
31
72
34
73
33
0
VERTEX
8
OBJECT__23
10
0
20
0
30
0
70
128
71
31
72
35
73
36
0
VERTEX
8
OBJECT__23
10
0
20
0
30
0
70
128
71
35
72
37
73
36
0
VERTEX
8
OBJECT__23
10
0
20
0
30
0
70
128
71
35
72
38
73
39
0
VERTEX
8
OBJECT__23
10
0
20
0
30
0
70
128
71
38
72
40
73
39
0
VERTEX
8
OBJECT__23
10
0
20
0
30
0
70
128
71
38
72
41
73
42
0
VERTEX
8
OBJECT__23
10
0
20
0
30
0
70
128
71
41
72
43
73
42
0
VERTEX
8
OBJECT__23
10
0
20
0
30
0
70
128
71
41
72
44
73
43
0
VERTEX
8
OBJECT__23
10
0
20
0
30
0
70
128
71
41
72
45
73
46
0
VERTEX
8
OBJECT__23
10
0
20
0
30
0
70
128
71
45
72
47
73
46
0
VERTEX
8
OBJECT__23
10
0
20
0
30
0
70
128
71
45
72
48
73
49
0
VERTEX
8
OBJECT__23
10
0
20
0
30
0
70
128
71
48
72
50
73
49
0
VERTEX
8
OBJECT__23
10
0
20
0
30
0
70
128
71
48
72
51
73
50
0
VERTEX
8
OBJECT__23
10
0
20
0
30
0
70
128
71
1
72
52
73
53
0
VERTEX
8
OBJECT__23
10
0
20
0
30
0
70
128
71
53
72
48
73
1
0
VERTEX
8
OBJECT__23
10
0
20
0
30
0
70
128
71
53
72
51
73
48
0
VERTEX
8
OBJECT__23
10
0
20
0
30
0
70
128
71
49
72
47
73
45
0
VERTEX
8
OBJECT__23
10
0
20
0
30
0
70
128
71
46
72
44
73
41
0
VERTEX
8
OBJECT__23
10
0
20
0
30
0
70
128
71
42
72
40
73
38
0
VERTEX
8
OBJECT__23
10
0
20
0
30
0
70
128
71
39
72
37
73
35
0
VERTEX
8
OBJECT__23
10
0
20
0
30
0
70
128
71
36
72
34
73
31
0
VERTEX
8
OBJECT__23
10
0
20
0
30
0
70
128
71
32
72
26
73
30
0
VERTEX
8
OBJECT__23
10
0
20
0
30
0
70
128
71
28
72
30
73
26
0
VERTEX
8
OBJECT__23
10
0
20
0
30
0
70
128
71
23
72
20
73
19
0
VERTEX
8
OBJECT__23
10
0
20
0
30
0
70
128
71
21
72
17
73
16
0
VERTEX
8
OBJECT__23
10
0
20
0
30
0
70
128
71
18
72
15
73
12
0
VERTEX
8
OBJECT__23
10
0
20
0
30
0
70
128
71
13
72
10
73
9
0
VERTEX
8
OBJECT__23
10
0
20
0
30
0
70
128
71
11
72
8
73
5
0
VERTEX
8
OBJECT__23
10
0
20
0
30
0
70
128
71
6
72
4
73
2
0
VERTEX
8
OBJECT__23
10
0
20
0
30
0
70
128
71
3
72
52
73
1
0
SEQEND
8
OBJECT__23
0
POLYLINE
8
OBJECT__24
66
1
70
64
71
16
72
14
62
253
0
VERTEX
8
OBJECT__24
10
28.400999
20
0.000000
30
50.150002
70
192
0
VERTEX
8
OBJECT__24
10
8.776000
20
27.011000
30
50.150002
70
192
0
VERTEX
8
OBJECT__24
10
19.004000
20
21.106001
30
50.150002
70
192
0
VERTEX
8
OBJECT__24
10
-14.200000
20
24.596001
30
50.150002
70
192
0
VERTEX
8
OBJECT__24
10
-2.969000
20
28.245001
30
50.150002
70
192
0
VERTEX
8
OBJECT__24
10
-14.200000
20
-24.596001
30
50.150002
70
192
0
VERTEX
8
OBJECT__24
10
19.004000
20
-21.106001
30
50.150002
70
192
0
VERTEX
8
OBJECT__24
10
8.776000
20
-27.011000
30
50.150002
70
192
0
VERTEX
8
OBJECT__24
10
25.945000
20
-11.552000
30
50.150002
70
192
0
VERTEX
8
OBJECT__24
10
-27.780001
20
5.905000
30
50.150002
70
192
0
VERTEX
8
OBJECT__24
10
-22.976999
20
16.693001
30
50.150002
70
192
0
VERTEX
8
OBJECT__24
10
-22.976999
20
-16.693001
30
50.150002
70
192
0
VERTEX
8
OBJECT__24
10
-2.969000
20
-28.245001
30
50.150002
70
192
0
VERTEX
8
OBJECT__24
10
-28.400999
20
0.000000
30
50.150002
70
192
0
VERTEX
8
OBJECT__24
10
-27.780001
20
-5.905000
30
50.150002
70
192
0
VERTEX
8
OBJECT__24
10
25.945000
20
11.552000
30
50.150002
70
192
0
VERTEX
8
OBJECT__24
10
0
20
0
30
0
70
128
71
1
72
2
73
3
0
VERTEX
8
OBJECT__24
10
0
20
0
30
0
70
128
71
1
72
4
73
5
0
VERTEX
8
OBJECT__24
10
0
20
0
30
0
70
128
71
6
72
7
73
8
0
VERTEX
8
OBJECT__24
10
0
20
0
30
0
70
128
71
6
72
1
73
9
0
VERTEX
8
OBJECT__24
10
0
20
0
30
0
70
128
71
5
72
2
73
1
0
VERTEX
8
OBJECT__24
10
0
20
0
30
0
70
128
71
1
72
10
73
11
0
VERTEX
8
OBJECT__24
10
0
20
0
30
0
70
128
71
1
72
6
73
12
0
VERTEX
8
OBJECT__24
10
0
20
0
30
0
70
128
71
9
72
7
73
6
0
VERTEX
8
OBJECT__24
10
0
20
0
30
0
70
128
71
11
72
4
73
1
0
VERTEX
8
OBJECT__24
10
0
20
0
30
0
70
128
71
8
72
13
73
6
0
VERTEX
8
OBJECT__24
10
0
20
0
30
0
70
128
71
1
72
14
73
10
0
VERTEX
8
OBJECT__24
10
0
20
0
30
0
70
128
71
12
72
15
73
1
0
VERTEX
8
OBJECT__24
10
0
20
0
30
0
70
128
71
15
72
14
73
1
0
VERTEX
8
OBJECT__24
10
0
20
0
30
0
70
128
71
3
72
16
73
1
0
SEQEND
8
OBJECT__24
0
POLYLINE
8
OBJECT__25
66
1
70
64
71
15
72
13
62
253
0
VERTEX
8
OBJECT__25
10
-21.438999
20
-15.576000
30
-19.000000
70
192
0
VERTEX
8
OBJECT__25
10
-25.921000
20
5.510000
30
-19.000000
70
192
0
VERTEX
8
OBJECT__25
10
-21.438999
20
15.576000
30
-19.000000
70
192
0
VERTEX
8
OBJECT__25
10
-25.921000
20
-5.510000
30
-19.000000
70
192
0
VERTEX
8
OBJECT__25
10
24.209000
20
10.779000
30
-19.000000
70
192
0
VERTEX
8
OBJECT__25
10
26.500000
20
0.000000
30
-19.000000
70
192
0
VERTEX
8
OBJECT__25
10
24.209000
20
-10.779000
30
-19.000000
70
192
0
VERTEX
8
OBJECT__25
10
-13.250000
20
22.950001
30
-19.000000
70
192
0
VERTEX
8
OBJECT__25
10
-13.250000
20
-22.950001
30
-19.000000
70
192
0
VERTEX
8
OBJECT__25
10
8.189000
20
-25.202999
30
-19.000000
70
192
0
VERTEX
8
OBJECT__25
10
-2.770000
20
-26.355000
30
-19.000000
70
192
0
VERTEX
8
OBJECT__25
10
17.732000
20
-19.693001
30
-19.000000
70
192
0
VERTEX
8
OBJECT__25
10
17.732000
20
19.693001
30
-19.000000
70
192
0
VERTEX
8
OBJECT__25
10
-2.770000
20
26.355000
30
-19.000000
70
192
0
VERTEX
8
OBJECT__25
10
8.189000
20
25.202999
30
-19.000000
70
192
0
VERTEX
8
OBJECT__25
10
0
20
0
30
0
70
128
71
1
72
2
73
3
0
VERTEX
8
OBJECT__25
10
0
20
0
30
0
70
128
71
1
72
4
73
2
0
VERTEX
8
OBJECT__25
10
0
20
0
30
0
70
128
71
5
72
6
73
7
0
VERTEX
8
OBJECT__25
10
0
20
0
30
0
70
128
71
8
72
9
73
1
0
VERTEX
8
OBJECT__25
10
0
20
0
30
0
70
128
71
8
72
10
73
11
0
VERTEX
8
OBJECT__25
10
0
20
0
30
0
70
128
71
7
72
12
73
5
0
VERTEX
8
OBJECT__25
10
0
20
0
30
0
70
128
71
11
72
9
73
8
0
VERTEX
8
OBJECT__25
10
0
20
0
30
0
70
128
71
10
72
13
73
5
0
VERTEX
8
OBJECT__25
10
0
20
0
30
0
70
128
71
10
72
14
73
15
0
VERTEX
8
OBJECT__25
10
0
20
0
30
0
70
128
71
3
72
8
73
1
0
VERTEX
8
OBJECT__25
10
0
20
0
30
0
70
128
71
15
72
13
73
10
0
VERTEX
8
OBJECT__25
10
0
20
0
30
0
70
128
71
12
72
10
73
5
0
VERTEX
8
OBJECT__25
10
0
20
0
30
0
70
128
71
8
72
14
73
10
0
SEQEND
8
OBJECT__25
0
POLYLINE
8
OBJECT__26
66
1
70
64
71
30
72
30
62
253
0
VERTEX
8
OBJECT__26
10
24.209000
20
10.779000
30
-19.000000
70
192
0
VERTEX
8
OBJECT__26
10
24.209000
20
10.779000
30
83.466003
70
192
0
VERTEX
8
OBJECT__26
10
26.500000
20
0.000000
30
83.466003
70
192
0
VERTEX
8
OBJECT__26
10
17.732000
20
19.693001
30
-19.000000
70
192
0
VERTEX
8
OBJECT__26
10
17.732000
20
19.693001
30
83.466003
70
192
0
VERTEX
8
OBJECT__26
10
8.189000
20
25.202999
30
-19.000000
70
192
0
VERTEX
8
OBJECT__26
10
8.189000
20
25.202999
30
83.466003
70
192
0
VERTEX
8
OBJECT__26
10
-2.770000
20
26.355000
30
-19.000000
70
192
0
VERTEX
8
OBJECT__26
10
-2.770000
20
26.355000
30
83.466003
70
192
0
VERTEX
8
OBJECT__26
10
-13.250000
20
22.950001
30
-19.000000
70
192
0
VERTEX
8
OBJECT__26
10
-13.250000
20
22.950001
30
83.466003
70
192
0
VERTEX
8
OBJECT__26
10
-21.438999
20
15.576000
30
-19.000000
70
192
0
VERTEX
8
OBJECT__26
10
-21.438999
20
15.576000
30
83.466003
70
192
0
VERTEX
8
OBJECT__26
10
-25.921000
20
5.510000
30
-19.000000
70
192
0
VERTEX
8
OBJECT__26
10
-25.921000
20
5.510000
30
83.466003
70
192
0
VERTEX
8
OBJECT__26
10
-25.921000
20
-5.510000
30
-19.000000
70
192
0
VERTEX
8
OBJECT__26
10
-25.921000
20
-5.510000
30
83.466003
70
192
0
VERTEX
8
OBJECT__26
10
-21.438999
20
-15.576000
30
-19.000000
70
192
0
VERTEX
8
OBJECT__26
10
-21.438999
20
-15.576000
30
83.466003
70
192
0
VERTEX
8
OBJECT__26
10
-13.250000
20
-22.950001
30
-19.000000
70
192
0
VERTEX
8
OBJECT__26
10
-13.250000
20
-22.950001
30
83.466003
70
192
0
VERTEX
8
OBJECT__26
10
-2.770000
20
-26.355000
30
-19.000000
70
192
0
VERTEX
8
OBJECT__26
10
-2.770000
20
-26.355000
30
83.466003
70
192
0
VERTEX
8
OBJECT__26
10
8.189000
20
-25.202999
30
-19.000000
70
192
0
VERTEX
8
OBJECT__26
10
8.189000
20
-25.202999
30
83.466003
70
192
0
VERTEX
8
OBJECT__26
10
17.732000
20
-19.693001
30
-19.000000
70
192
0
VERTEX
8
OBJECT__26
10
17.732000
20
-19.693001
30
83.466003
70
192
0
VERTEX
8
OBJECT__26
10
24.209000
20
-10.779000
30
-19.000000
70
192
0
VERTEX
8
OBJECT__26
10
24.209000
20
-10.779000
30
83.466003
70
192
0
VERTEX
8
OBJECT__26
10
26.500000
20
0.000000
30
-19.000000
70
192
0
VERTEX
8
OBJECT__26
10
0
20
0
30
0
70
128
71
1
72
2
73
3
0
VERTEX
8
OBJECT__26
10
0
20
0
30
0
70
128
71
4
72
5
73
2
0
VERTEX
8
OBJECT__26
10
0
20
0
30
0
70
128
71
6
72
7
73
5
0
VERTEX
8
OBJECT__26
10
0
20
0
30
0
70
128
71
8
72
9
73
7
0
VERTEX
8
OBJECT__26
10
0
20
0
30
0
70
128
71
10
72
11
73
9
0
VERTEX
8
OBJECT__26
10
0
20
0
30
0
70
128
71
12
72
13
73
11
0
VERTEX
8
OBJECT__26
10
0
20
0
30
0
70
128
71
14
72
15
73
13
0
VERTEX
8
OBJECT__26
10
0
20
0
30
0
70
128
71
16
72
17
73
15
0
VERTEX
8
OBJECT__26
10
0
20
0
30
0
70
128
71
18
72
19
73
17
0
VERTEX
8
OBJECT__26
10
0
20
0
30
0
70
128
71
20
72
21
73
19
0
VERTEX
8
OBJECT__26
10
0
20
0
30
0
70
128
71
22
72
23
73
21
0
VERTEX
8
OBJECT__26
10
0
20
0
30
0
70
128
71
24
72
25
73
23
0
VERTEX
8
OBJECT__26
10
0
20
0
30
0
70
128
71
26
72
27
73
25
0
VERTEX
8
OBJECT__26
10
0
20
0
30
0
70
128
71
28
72
29
73
27
0
VERTEX
8
OBJECT__26
10
0
20
0
30
0
70
128
71
30
72
3
73
29
0
VERTEX
8
OBJECT__26
10
0
20
0
30
0
70
128
71
29
72
28
73
30
0
VERTEX
8
OBJECT__26
10
0
20
0
30
0
70
128
71
27
72
26
73
28
0
VERTEX
8
OBJECT__26
10
0
20
0
30
0
70
128
71
25
72
24
73
26
0
VERTEX
8
OBJECT__26
10
0
20
0
30
0
70
128
71
23
72
22
73
24
0
VERTEX
8
OBJECT__26
10
0
20
0
30
0
70
128
71
21
72
20
73
22
0
VERTEX
8
OBJECT__26
10
0
20
0
30
0
70
128
71
19
72
18
73
20
0
VERTEX
8
OBJECT__26
10
0
20
0
30
0
70
128
71
17
72
16
73
18
0
VERTEX
8
OBJECT__26
10
0
20
0
30
0
70
128
71
15
72
14
73
16
0
VERTEX
8
OBJECT__26
10
0
20
0
30
0
70
128
71
13
72
12
73
14
0
VERTEX
8
OBJECT__26
10
0
20
0
30
0
70
128
71
11
72
10
73
12
0
VERTEX
8
OBJECT__26
10
0
20
0
30
0
70
128
71
9
72
8
73
10
0
VERTEX
8
OBJECT__26
10
0
20
0
30
0
70
128
71
7
72
6
73
8
0
VERTEX
8
OBJECT__26
10
0
20
0
30
0
70
128
71
5
72
4
73
6
0
VERTEX
8
OBJECT__26
10
0
20
0
30
0
70
128
71
2
72
1
73
4
0
VERTEX
8
OBJECT__26
10
0
20
0
30
0
70
128
71
3
72
30
73
1
0
SEQEND
8
OBJECT__26
0
POLYLINE
8
OBJECT__28
66
1
70
64
71
22
72
22
62
253
0
VERTEX
8
OBJECT__28
10
248.125000
20
-6.701000
30
118.531998
70
192
0
VERTEX
8
OBJECT__28
10
250.268997
20
0.000000
30
118.910004
70
192
0
VERTEX
8
OBJECT__28
10
247.317001
20
0.000000
30
135.651993
70
192
0
VERTEX
8
OBJECT__28
10
239.559006
20
-10.842000
30
134.283997
70
192
0
VERTEX
8
OBJECT__28
10
242.511002
20
-10.842000
30
117.542000
70
192
0
VERTEX
8
OBJECT__28
10
236.089996
20
-11.400000
30
133.671997
70
192
0
VERTEX
8
OBJECT__28
10
239.042007
20
-11.400000
30
116.931000
70
192
0
VERTEX
8
OBJECT__28
10
235.572998
20
-10.842000
30
116.319000
70
192
0
VERTEX
8
OBJECT__28
10
232.621002
20
-10.842000
30
133.061005
70
192
0
VERTEX
8
OBJECT__28
10
229.959000
20
-6.701000
30
115.329002
70
192
0
VERTEX
8
OBJECT__28
10
224.863007
20
0.000000
30
131.692993
70
192
0
VERTEX
8
OBJECT__28
10
227.815002
20
0.000000
30
114.950996
70
192
0
VERTEX
8
OBJECT__28
10
227.007004
20
6.701000
30
132.070999
70
192
0
VERTEX
8
OBJECT__28
10
229.959000
20
6.701000
30
115.329002
70
192
0
VERTEX
8
OBJECT__28
10
235.572998
20
10.842000
30
116.319000
70
192
0
VERTEX
8
OBJECT__28
10
242.511002
20
10.842000
30
117.542000
70
192
0
VERTEX
8
OBJECT__28
10
232.621002
20
10.842000
30
133.061005
70
192
0
VERTEX
8
OBJECT__28
10
245.173004
20
6.701000
30
135.274002
70
192
0
VERTEX
8
OBJECT__28
10
248.125000
20
6.701000
30
118.531998
70
192
0
VERTEX
8
OBJECT__28
10
239.559006
20
10.842000
30
134.283997
70
192
0
VERTEX
8
OBJECT__28
10
227.007004
20
-6.701000
30
132.070999
70
192
0
VERTEX
8
OBJECT__28
10
245.173004
20
-6.701000
30
135.274002
70
192
0
VERTEX
8
OBJECT__28
10
0
20
0
30
0
70
128
71
1
72
2
73
3
0
VERTEX
8
OBJECT__28
10
0
20
0
30
0
70
128
71
4
72
5
73
1
0
VERTEX
8
OBJECT__28
10
0
20
0
30
0
70
128
71
4
72
6
73
7
0
VERTEX
8
OBJECT__28
10
0
20
0
30
0
70
128
71
8
72
7
73
6
0
VERTEX
8
OBJECT__28
10
0
20
0
30
0
70
128
71
6
72
9
73
8
0
VERTEX
8
OBJECT__28
10
0
20
0
30
0
70
128
71
10
72
8
73
9
0
VERTEX
8
OBJECT__28
10
0
20
0
30
0
70
128
71
11
72
12
73
10
0
VERTEX
8
OBJECT__28
10
0
20
0
30
0
70
128
71
13
72
14
73
12
0
VERTEX
8
OBJECT__28
10
0
20
0
30
0
70
128
71
15
72
14
73
13
0
VERTEX
8
OBJECT__28
10
0
20
0
30
0
70
128
71
16
72
15
73
17
0
VERTEX
8
OBJECT__28
10
0
20
0
30
0
70
128
71
18
72
19
73
16
0
VERTEX
8
OBJECT__28
10
0
20
0
30
0
70
128
71
2
72
19
73
18
0
VERTEX
8
OBJECT__28
10
0
20
0
30
0
70
128
71
18
72
3
73
2
0
VERTEX
8
OBJECT__28
10
0
20
0
30
0
70
128
71
16
72
20
73
18
0
VERTEX
8
OBJECT__28
10
0
20
0
30
0
70
128
71
17
72
20
73
16
0
VERTEX
8
OBJECT__28
10
0
20
0
30
0
70
128
71
13
72
17
73
15
0
VERTEX
8
OBJECT__28
10
0
20
0
30
0
70
128
71
12
72
11
73
13
0
VERTEX
8
OBJECT__28
10
0
20
0
30
0
70
128
71
10
72
21
73
11
0
VERTEX
8
OBJECT__28
10
0
20
0
30
0
70
128
71
9
72
21
73
10
0
VERTEX
8
OBJECT__28
10
0
20
0
30
0
70
128
71
7
72
5
73
4
0
VERTEX
8
OBJECT__28
10
0
20
0
30
0
70
128
71
1
72
22
73
4
0
VERTEX
8
OBJECT__28
10
0
20
0
30
0
70
128
71
3
72
22
73
1
0
SEQEND
8
OBJECT__28
0
POLYLINE
8
OBJECT__29
66
1
70
64
71
11
72
9
62
253
0
VERTEX
8
OBJECT__29
10
227.815002
20
0.000000
30
114.950996
70
192
0
VERTEX
8
OBJECT__29
10
229.959000
20
6.701000
30
115.329002
70
192
0
VERTEX
8
OBJECT__29
10
235.572998
20
10.842000
30
116.319000
70
192
0
VERTEX
8
OBJECT__29
10
242.511002
20
10.842000
30
117.542000
70
192
0
VERTEX
8
OBJECT__29
10
235.572998
20
-10.842000
30
116.319000
70
192
0
VERTEX
8
OBJECT__29
10
229.959000
20
-6.701000
30
115.329002
70
192
0
VERTEX
8
OBJECT__29
10
250.268997
20
0.000000
30
118.910004
70
192
0
VERTEX
8
OBJECT__29
10
248.125000
20
-6.701000
30
118.531998
70
192
0
VERTEX
8
OBJECT__29
10
248.125000
20
6.701000
30
118.531998
70
192
0
VERTEX
8
OBJECT__29
10
239.042007
20
-11.400000
30
116.931000
70
192
0
VERTEX
8
OBJECT__29
10
242.511002
20
-10.842000
30
117.542000
70
192
0
VERTEX
8
OBJECT__29
10
0
20
0
30
0
70
128
71
1
72
2
73
3
0
VERTEX
8
OBJECT__29
10
0
20
0
30
0
70
128
71
4
72
5
73
6
0
VERTEX
8
OBJECT__29
10
0
20
0
30
0
70
128
71
4
72
7
73
8
0
VERTEX
8
OBJECT__29
10
0
20
0
30
0
70
128
71
6
72
1
73
4
0
VERTEX
8
OBJECT__29
10
0
20
0
30
0
70
128
71
4
72
9
73
7
0
VERTEX
8
OBJECT__29
10
0
20
0
30
0
70
128
71
4
72
10
73
5
0
VERTEX
8
OBJECT__29
10
0
20
0
30
0
70
128
71
8
72
11
73
4
0
VERTEX
8
OBJECT__29
10
0
20
0
30
0
70
128
71
11
72
10
73
4
0
VERTEX
8
OBJECT__29
10
0
20
0
30
0
70
128
71
3
72
4
73
1
0
SEQEND
8
OBJECT__29
0
ENDSEC
0
EOF
