999
Converted by 3D Exploration 
999
XDimension Software, LLC
999
http://www.xdsoft.com/explorer/
0
SECTION
2
HEADER
9
$ACADVER
1
AC1008
9
$UCSORG
10
0.0
20
0.0
30
0.0
9
$UCSXDIR
10
1.0
20
0.0
30
0.0
9
$TILEMODE
70
1
9
$UCSYDIR
10
0.0
20
1.0
30
0.0
9
$EXTMIN
10
0.000000
20
-110.013000
30
-110.013000
9
$EXTMAX
10
205.000000
20
110.013000
30
94.875999
0
ENDSEC
0
SECTION
2
TABLES
0
TABLE
2
LTYPE
70
1
0
LTYPE
2
CONTINUOUS
70
64
3
Solid line
72
65
73
0
40
0.0
0
ENDTAB
0
TABLE
2
LAYER
70
116
0
LAYER
2
OBJECT__0
70
0
62
253
6
CONTINUOUS
0
LAYER
2
OBJECT__1
70
0
62
253
6
CONTINUOUS
0
LAYER
2
OBJECT__3
70
0
62
253
6
CONTINUOUS
0
LAYER
2
OBJECT__4
70
0
62
253
6
CONTINUOUS
0
LAYER
2
OBJECT__5
70
0
62
253
6
CONTINUOUS
0
LAYER
2
OBJECT__6
70
0
62
253
6
CONTINUOUS
0
LAYER
2
OBJECT__7
70
0
62
253
6
CONTINUOUS
0
LAYER
2
OBJECT__8
70
0
62
253
6
CONTINUOUS
0
LAYER
2
OBJECT__9
70
0
62
253
6
CONTINUOUS
0
LAYER
2
OBJECT__10
70
0
62
253
6
CONTINUOUS
0
LAYER
2
OBJECT__11
70
0
62
253
6
CONTINUOUS
0
LAYER
2
OBJECT__12
70
0
62
253
6
CONTINUOUS
0
LAYER
2
OBJECT__13
70
0
62
253
6
CONTINUOUS
0
LAYER
2
OBJECT__14
70
0
62
253
6
CONTINUOUS
0
LAYER
2
OBJECT__15
70
0
62
253
6
CONTINUOUS
0
LAYER
2
OBJECT__16
70
0
62
253
6
CONTINUOUS
0
LAYER
2
OBJECT__17
70
0
62
253
6
CONTINUOUS
0
LAYER
2
OBJECT__18
70
0
62
253
6
CONTINUOUS
0
LAYER
2
OBJECT__19
70
0
62
253
6
CONTINUOUS
0
LAYER
2
OBJECT__20
70
0
62
253
6
CONTINUOUS
0
LAYER
2
OBJECT__21
70
0
62
253
6
CONTINUOUS
0
LAYER
2
OBJECT__22
70
0
62
253
6
CONTINUOUS
0
LAYER
2
OBJECT__23
70
0
62
253
6
CONTINUOUS
0
LAYER
2
OBJECT__24
70
0
62
253
6
CONTINUOUS
0
LAYER
2
OBJECT__25
70
0
62
253
6
CONTINUOUS
0
LAYER
2
OBJECT__26
70
0
62
253
6
CONTINUOUS
0
LAYER
2
OBJECT__27
70
0
62
253
6
CONTINUOUS
0
LAYER
2
OBJECT__28
70
0
62
253
6
CONTINUOUS
0
LAYER
2
OBJECT__29
70
0
62
253
6
CONTINUOUS
0
LAYER
2
OBJECT__31
70
0
62
253
6
CONTINUOUS
0
LAYER
2
OBJECT__32
70
0
62
253
6
CONTINUOUS
0
LAYER
2
OBJECT__33
70
0
62
253
6
CONTINUOUS
0
LAYER
2
OBJECT__35
70
0
62
253
6
CONTINUOUS
0
LAYER
2
OBJECT__36
70
0
62
253
6
CONTINUOUS
0
LAYER
2
OBJECT__37
70
0
62
253
6
CONTINUOUS
0
LAYER
2
OBJECT__38
70
0
62
253
6
CONTINUOUS
0
LAYER
2
OBJECT__39
70
0
62
253
6
CONTINUOUS
0
LAYER
2
OBJECT__40
70
0
62
253
6
CONTINUOUS
0
LAYER
2
OBJECT__41
70
0
62
253
6
CONTINUOUS
0
LAYER
2
OBJECT__43
70
0
62
253
6
CONTINUOUS
0
LAYER
2
OBJECT__44
70
0
62
253
6
CONTINUOUS
0
LAYER
2
OBJECT__45
70
0
62
253
6
CONTINUOUS
0
LAYER
2
OBJECT__46
70
0
62
253
6
CONTINUOUS
0
LAYER
2
OBJECT__48
70
0
62
253
6
CONTINUOUS
0
LAYER
2
OBJECT__49
70
0
62
253
6
CONTINUOUS
0
LAYER
2
OBJECT__50
70
0
62
253
6
CONTINUOUS
0
LAYER
2
OBJECT__51
70
0
62
253
6
CONTINUOUS
0
LAYER
2
OBJECT__53
70
0
62
253
6
CONTINUOUS
0
LAYER
2
OBJECT__54
70
0
62
253
6
CONTINUOUS
0
LAYER
2
OBJECT__56
70
0
62
253
6
CONTINUOUS
0
LAYER
2
OBJECT__57
70
0
62
253
6
CONTINUOUS
0
LAYER
2
OBJECT__58
70
0
62
253
6
CONTINUOUS
0
LAYER
2
OBJECT__60
70
0
62
253
6
CONTINUOUS
0
LAYER
2
OBJECT__61
70
0
62
253
6
CONTINUOUS
0
LAYER
2
OBJECT__62
70
0
62
253
6
CONTINUOUS
0
LAYER
2
OBJECT__64
70
0
62
253
6
CONTINUOUS
0
LAYER
2
OBJECT__65
70
0
62
253
6
CONTINUOUS
0
LAYER
2
OBJECT__66
70
0
62
253
6
CONTINUOUS
0
LAYER
2
OBJECT__67
70
0
62
253
6
CONTINUOUS
0
LAYER
2
OBJECT__68
70
0
62
253
6
CONTINUOUS
0
LAYER
2
OBJECT__69
70
0
62
253
6
CONTINUOUS
0
LAYER
2
OBJECT__70
70
0
62
253
6
CONTINUOUS
0
LAYER
2
OBJECT__71
70
0
62
253
6
CONTINUOUS
0
LAYER
2
OBJECT__72
70
0
62
253
6
CONTINUOUS
0
LAYER
2
OBJECT__73
70
0
62
253
6
CONTINUOUS
0
LAYER
2
OBJECT__74
70
0
62
253
6
CONTINUOUS
0
LAYER
2
OBJECT__75
70
0
62
253
6
CONTINUOUS
0
LAYER
2
OBJECT__76
70
0
62
253
6
CONTINUOUS
0
LAYER
2
OBJECT__77
70
0
62
253
6
CONTINUOUS
0
LAYER
2
OBJECT__78
70
0
62
253
6
CONTINUOUS
0
LAYER
2
OBJECT__79
70
0
62
253
6
CONTINUOUS
0
LAYER
2
OBJECT__80
70
0
62
253
6
CONTINUOUS
0
LAYER
2
OBJECT__81
70
0
62
253
6
CONTINUOUS
0
LAYER
2
OBJECT__82
70
0
62
253
6
CONTINUOUS
0
LAYER
2
OBJECT__83
70
0
62
253
6
CONTINUOUS
0
LAYER
2
OBJECT__84
70
0
62
253
6
CONTINUOUS
0
LAYER
2
OBJECT__85
70
0
62
253
6
CONTINUOUS
0
LAYER
2
OBJECT__86
70
0
62
253
6
CONTINUOUS
0
LAYER
2
OBJECT__87
70
0
62
253
6
CONTINUOUS
0
LAYER
2
OBJECT__88
70
0
62
253
6
CONTINUOUS
0
LAYER
2
OBJECT__89
70
0
62
253
6
CONTINUOUS
0
LAYER
2
OBJECT__90
70
0
62
253
6
CONTINUOUS
0
LAYER
2
OBJECT__91
70
0
62
253
6
CONTINUOUS
0
LAYER
2
OBJECT__92
70
0
62
253
6
CONTINUOUS
0
LAYER
2
OBJECT__93
70
0
62
253
6
CONTINUOUS
0
LAYER
2
OBJECT__94
70
0
62
253
6
CONTINUOUS
0
LAYER
2
OBJECT__95
70
0
62
253
6
CONTINUOUS
0
LAYER
2
OBJECT__96
70
0
62
253
6
CONTINUOUS
0
LAYER
2
OBJECT__97
70
0
62
253
6
CONTINUOUS
0
LAYER
2
OBJECT__98
70
0
62
253
6
CONTINUOUS
0
LAYER
2
OBJECT__99
70
0
62
253
6
CONTINUOUS
0
LAYER
2
OBJECT__100
70
0
62
253
6
CONTINUOUS
0
LAYER
2
OBJECT__101
70
0
62
253
6
CONTINUOUS
0
LAYER
2
OBJECT__102
70
0
62
253
6
CONTINUOUS
0
LAYER
2
OBJECT__104
70
0
62
253
6
CONTINUOUS
0
LAYER
2
OBJECT__105
70
0
62
253
6
CONTINUOUS
0
LAYER
2
OBJECT__106
70
0
62
253
6
CONTINUOUS
0
LAYER
2
OBJECT__107
70
0
62
253
6
CONTINUOUS
0
LAYER
2
OBJECT__109
70
0
62
253
6
CONTINUOUS
0
LAYER
2
OBJECT__111
70
0
62
253
6
CONTINUOUS
0
LAYER
2
OBJECT__113
70
0
62
253
6
CONTINUOUS
0
LAYER
2
OBJECT__114
70
0
62
253
6
CONTINUOUS
0
ENDTAB
0
TABLE
2
STYLE
70
1
0
STYLE
2
STANDARD
70
0
40
0.0
41
1.0
50
0.0
71
0
42
0.2
3
txt
4
1
0
ENDTAB
0
TABLE
2
UCS
70
0
0
ENDTAB
0
ENDSEC
0
SECTION
2
ENTITIES
0
POLYLINE
8
OBJECT__0
66
1
70
64
71
8
72
6
62
253
0
VERTEX
8
OBJECT__0
10
193.602997
20
8.102000
30
1.541000
70
192
0
VERTEX
8
OBJECT__0
10
193.602997
20
-8.102000
30
1.541000
70
192
0
VERTEX
8
OBJECT__0
10
185.500000
20
-11.459000
30
1.541000
70
192
0
VERTEX
8
OBJECT__0
10
177.397995
20
-8.102000
30
1.541000
70
192
0
VERTEX
8
OBJECT__0
10
177.397995
20
8.102000
30
1.541000
70
192
0
VERTEX
8
OBJECT__0
10
185.500000
20
11.458000
30
1.541000
70
192
0
VERTEX
8
OBJECT__0
10
196.959000
20
0.000000
30
1.541000
70
192
0
VERTEX
8
OBJECT__0
10
174.042007
20
0.000000
30
1.541000
70
192
0
VERTEX
8
OBJECT__0
10
0
20
0
30
0
70
128
71
1
72
2
73
3
0
VERTEX
8
OBJECT__0
10
0
20
0
30
0
70
128
71
4
72
5
73
6
0
VERTEX
8
OBJECT__0
10
0
20
0
30
0
70
128
71
1
72
7
73
2
0
VERTEX
8
OBJECT__0
10
0
20
0
30
0
70
128
71
4
72
8
73
5
0
VERTEX
8
OBJECT__0
10
0
20
0
30
0
70
128
71
6
72
1
73
4
0
VERTEX
8
OBJECT__0
10
0
20
0
30
0
70
128
71
3
72
4
73
1
0
SEQEND
8
OBJECT__0
0
POLYLINE
8
OBJECT__1
66
1
70
64
71
16
72
16
62
253
0
VERTEX
8
OBJECT__1
10
177.014999
20
-8.485000
30
1.000000
70
192
0
VERTEX
8
OBJECT__1
10
177.397995
20
-8.102000
30
1.541000
70
192
0
VERTEX
8
OBJECT__1
10
185.500000
20
-11.459000
30
1.541000
70
192
0
VERTEX
8
OBJECT__1
10
173.500000
20
0.000000
30
1.000000
70
192
0
VERTEX
8
OBJECT__1
10
174.042007
20
0.000000
30
1.541000
70
192
0
VERTEX
8
OBJECT__1
10
177.014999
20
8.485000
30
1.000000
70
192
0
VERTEX
8
OBJECT__1
10
177.397995
20
8.102000
30
1.541000
70
192
0
VERTEX
8
OBJECT__1
10
185.500000
20
12.000000
30
1.000000
70
192
0
VERTEX
8
OBJECT__1
10
185.500000
20
11.458000
30
1.541000
70
192
0
VERTEX
8
OBJECT__1
10
193.985992
20
8.485000
30
1.000000
70
192
0
VERTEX
8
OBJECT__1
10
193.602997
20
8.102000
30
1.541000
70
192
0
VERTEX
8
OBJECT__1
10
197.500000
20
0.000000
30
1.000000
70
192
0
VERTEX
8
OBJECT__1
10
196.959000
20
0.000000
30
1.541000
70
192
0
VERTEX
8
OBJECT__1
10
193.985992
20
-8.485000
30
1.000000
70
192
0
VERTEX
8
OBJECT__1
10
193.602997
20
-8.102000
30
1.541000
70
192
0
VERTEX
8
OBJECT__1
10
185.500000
20
-12.000000
30
1.000000
70
192
0
VERTEX
8
OBJECT__1
10
0
20
0
30
0
70
128
71
1
72
2
73
3
0
VERTEX
8
OBJECT__1
10
0
20
0
30
0
70
128
71
4
72
5
73
2
0
VERTEX
8
OBJECT__1
10
0
20
0
30
0
70
128
71
4
72
6
73
7
0
VERTEX
8
OBJECT__1
10
0
20
0
30
0
70
128
71
6
72
8
73
9
0
VERTEX
8
OBJECT__1
10
0
20
0
30
0
70
128
71
10
72
11
73
9
0
VERTEX
8
OBJECT__1
10
0
20
0
30
0
70
128
71
12
72
13
73
11
0
VERTEX
8
OBJECT__1
10
0
20
0
30
0
70
128
71
14
72
15
73
13
0
VERTEX
8
OBJECT__1
10
0
20
0
30
0
70
128
71
16
72
3
73
15
0
VERTEX
8
OBJECT__1
10
0
20
0
30
0
70
128
71
15
72
14
73
16
0
VERTEX
8
OBJECT__1
10
0
20
0
30
0
70
128
71
13
72
12
73
14
0
VERTEX
8
OBJECT__1
10
0
20
0
30
0
70
128
71
11
72
10
73
12
0
VERTEX
8
OBJECT__1
10
0
20
0
30
0
70
128
71
9
72
8
73
10
0
VERTEX
8
OBJECT__1
10
0
20
0
30
0
70
128
71
9
72
7
73
6
0
VERTEX
8
OBJECT__1
10
0
20
0
30
0
70
128
71
7
72
5
73
4
0
VERTEX
8
OBJECT__1
10
0
20
0
30
0
70
128
71
2
72
1
73
4
0
VERTEX
8
OBJECT__1
10
0
20
0
30
0
70
128
71
3
72
16
73
1
0
SEQEND
8
OBJECT__1
0
POLYLINE
8
OBJECT__3
66
1
70
64
71
16
72
16
62
253
0
VERTEX
8
OBJECT__3
10
176.927002
20
8.574000
30
1.000000
70
192
0
VERTEX
8
OBJECT__3
10
177.014999
20
8.485000
30
1.000000
70
192
0
VERTEX
8
OBJECT__3
10
173.500000
20
0.000000
30
1.000000
70
192
0
VERTEX
8
OBJECT__3
10
185.500000
20
12.125000
30
1.000000
70
192
0
VERTEX
8
OBJECT__3
10
185.500000
20
12.000000
30
1.000000
70
192
0
VERTEX
8
OBJECT__3
10
194.074005
20
8.574000
30
1.000000
70
192
0
VERTEX
8
OBJECT__3
10
193.985992
20
8.485000
30
1.000000
70
192
0
VERTEX
8
OBJECT__3
10
197.625000
20
0.000000
30
1.000000
70
192
0
VERTEX
8
OBJECT__3
10
197.500000
20
0.000000
30
1.000000
70
192
0
VERTEX
8
OBJECT__3
10
194.074005
20
-8.574000
30
1.000000
70
192
0
VERTEX
8
OBJECT__3
10
193.985992
20
-8.485000
30
1.000000
70
192
0
VERTEX
8
OBJECT__3
10
185.500000
20
-12.125000
30
1.000000
70
192
0
VERTEX
8
OBJECT__3
10
185.500000
20
-12.000000
30
1.000000
70
192
0
VERTEX
8
OBJECT__3
10
176.927002
20
-8.574000
30
1.000000
70
192
0
VERTEX
8
OBJECT__3
10
177.014999
20
-8.485000
30
1.000000
70
192
0
VERTEX
8
OBJECT__3
10
173.375000
20
0.000000
30
1.000000
70
192
0
VERTEX
8
OBJECT__3
10
0
20
0
30
0
70
128
71
1
72
2
73
3
0
VERTEX
8
OBJECT__3
10
0
20
0
30
0
70
128
71
4
72
5
73
2
0
VERTEX
8
OBJECT__3
10
0
20
0
30
0
70
128
71
4
72
6
73
7
0
VERTEX
8
OBJECT__3
10
0
20
0
30
0
70
128
71
6
72
8
73
9
0
VERTEX
8
OBJECT__3
10
0
20
0
30
0
70
128
71
8
72
10
73
11
0
VERTEX
8
OBJECT__3
10
0
20
0
30
0
70
128
71
12
72
13
73
11
0
VERTEX
8
OBJECT__3
10
0
20
0
30
0
70
128
71
12
72
14
73
15
0
VERTEX
8
OBJECT__3
10
0
20
0
30
0
70
128
71
14
72
16
73
3
0
VERTEX
8
OBJECT__3
10
0
20
0
30
0
70
128
71
2
72
1
73
4
0
VERTEX
8
OBJECT__3
10
0
20
0
30
0
70
128
71
9
72
7
73
6
0
VERTEX
8
OBJECT__3
10
0
20
0
30
0
70
128
71
11
72
10
73
12
0
VERTEX
8
OBJECT__3
10
0
20
0
30
0
70
128
71
3
72
15
73
14
0
VERTEX
8
OBJECT__3
10
0
20
0
30
0
70
128
71
7
72
5
73
4
0
VERTEX
8
OBJECT__3
10
0
20
0
30
0
70
128
71
15
72
13
73
12
0
VERTEX
8
OBJECT__3
10
0
20
0
30
0
70
128
71
11
72
9
73
8
0
VERTEX
8
OBJECT__3
10
0
20
0
30
0
70
128
71
3
72
16
73
1
0
SEQEND
8
OBJECT__3
0
POLYLINE
8
OBJECT__4
66
1
70
64
71
16
72
16
62
253
0
VERTEX
8
OBJECT__4
10
176.927002
20
8.574000
30
-3.197000
70
192
0
VERTEX
8
OBJECT__4
10
176.927002
20
8.574000
30
1.000000
70
192
0
VERTEX
8
OBJECT__4
10
173.375000
20
0.000000
30
1.000000
70
192
0
VERTEX
8
OBJECT__4
10
185.500000
20
12.125000
30
1.000000
70
192
0
VERTEX
8
OBJECT__4
10
194.074005
20
8.574000
30
1.000000
70
192
0
VERTEX
8
OBJECT__4
10
185.500000
20
12.125000
30
-3.197000
70
192
0
VERTEX
8
OBJECT__4
10
197.625000
20
0.000000
30
-3.197000
70
192
0
VERTEX
8
OBJECT__4
10
197.625000
20
0.000000
30
1.000000
70
192
0
VERTEX
8
OBJECT__4
10
194.074005
20
-8.574000
30
-3.197000
70
192
0
VERTEX
8
OBJECT__4
10
194.074005
20
-8.574000
30
1.000000
70
192
0
VERTEX
8
OBJECT__4
10
185.500000
20
-12.125000
30
-3.197000
70
192
0
VERTEX
8
OBJECT__4
10
185.500000
20
-12.125000
30
1.000000
70
192
0
VERTEX
8
OBJECT__4
10
176.927002
20
-8.574000
30
-3.197000
70
192
0
VERTEX
8
OBJECT__4
10
176.927002
20
-8.574000
30
1.000000
70
192
0
VERTEX
8
OBJECT__4
10
173.375000
20
0.000000
30
-3.197000
70
192
0
VERTEX
8
OBJECT__4
10
194.074005
20
8.574000
30
-3.197000
70
192
0
VERTEX
8
OBJECT__4
10
0
20
0
30
0
70
128
71
1
72
2
73
3
0
VERTEX
8
OBJECT__4
10
0
20
0
30
0
70
128
71
4
72
2
73
1
0
VERTEX
8
OBJECT__4
10
0
20
0
30
0
70
128
71
5
72
4
73
6
0
VERTEX
8
OBJECT__4
10
0
20
0
30
0
70
128
71
7
72
8
73
5
0
VERTEX
8
OBJECT__4
10
0
20
0
30
0
70
128
71
9
72
10
73
8
0
VERTEX
8
OBJECT__4
10
0
20
0
30
0
70
128
71
11
72
12
73
10
0
VERTEX
8
OBJECT__4
10
0
20
0
30
0
70
128
71
13
72
14
73
12
0
VERTEX
8
OBJECT__4
10
0
20
0
30
0
70
128
71
15
72
3
73
14
0
VERTEX
8
OBJECT__4
10
0
20
0
30
0
70
128
71
14
72
13
73
15
0
VERTEX
8
OBJECT__4
10
0
20
0
30
0
70
128
71
12
72
11
73
13
0
VERTEX
8
OBJECT__4
10
0
20
0
30
0
70
128
71
10
72
9
73
11
0
VERTEX
8
OBJECT__4
10
0
20
0
30
0
70
128
71
8
72
7
73
9
0
VERTEX
8
OBJECT__4
10
0
20
0
30
0
70
128
71
5
72
16
73
7
0
VERTEX
8
OBJECT__4
10
0
20
0
30
0
70
128
71
6
72
16
73
5
0
VERTEX
8
OBJECT__4
10
0
20
0
30
0
70
128
71
1
72
6
73
4
0
VERTEX
8
OBJECT__4
10
0
20
0
30
0
70
128
71
3
72
15
73
1
0
SEQEND
8
OBJECT__4
0
POLYLINE
8
OBJECT__5
66
1
70
64
71
16
72
16
62
253
0
VERTEX
8
OBJECT__5
10
185.500000
20
-12.300000
30
-3.500000
70
192
0
VERTEX
8
OBJECT__5
10
176.802994
20
-8.697000
30
-3.500000
70
192
0
VERTEX
8
OBJECT__5
10
176.927002
20
-8.574000
30
-3.197000
70
192
0
VERTEX
8
OBJECT__5
10
173.199997
20
0.000000
30
-3.500000
70
192
0
VERTEX
8
OBJECT__5
10
173.375000
20
0.000000
30
-3.197000
70
192
0
VERTEX
8
OBJECT__5
10
176.802994
20
8.697000
30
-3.500000
70
192
0
VERTEX
8
OBJECT__5
10
176.927002
20
8.574000
30
-3.197000
70
192
0
VERTEX
8
OBJECT__5
10
185.500000
20
12.300000
30
-3.500000
70
192
0
VERTEX
8
OBJECT__5
10
185.500000
20
12.125000
30
-3.197000
70
192
0
VERTEX
8
OBJECT__5
10
194.197998
20
8.697000
30
-3.500000
70
192
0
VERTEX
8
OBJECT__5
10
194.074005
20
8.574000
30
-3.197000
70
192
0
VERTEX
8
OBJECT__5
10
197.800003
20
0.000000
30
-3.500000
70
192
0
VERTEX
8
OBJECT__5
10
197.625000
20
0.000000
30
-3.197000
70
192
0
VERTEX
8
OBJECT__5
10
194.197998
20
-8.697000
30
-3.500000
70
192
0
VERTEX
8
OBJECT__5
10
194.074005
20
-8.574000
30
-3.197000
70
192
0
VERTEX
8
OBJECT__5
10
185.500000
20
-12.125000
30
-3.197000
70
192
0
VERTEX
8
OBJECT__5
10
0
20
0
30
0
70
128
71
1
72
2
73
3
0
VERTEX
8
OBJECT__5
10
0
20
0
30
0
70
128
71
2
72
4
73
5
0
VERTEX
8
OBJECT__5
10
0
20
0
30
0
70
128
71
6
72
7
73
5
0
VERTEX
8
OBJECT__5
10
0
20
0
30
0
70
128
71
8
72
9
73
7
0
VERTEX
8
OBJECT__5
10
0
20
0
30
0
70
128
71
10
72
11
73
9
0
VERTEX
8
OBJECT__5
10
0
20
0
30
0
70
128
71
12
72
13
73
11
0
VERTEX
8
OBJECT__5
10
0
20
0
30
0
70
128
71
14
72
15
73
13
0
VERTEX
8
OBJECT__5
10
0
20
0
30
0
70
128
71
1
72
16
73
15
0
VERTEX
8
OBJECT__5
10
0
20
0
30
0
70
128
71
15
72
14
73
1
0
VERTEX
8
OBJECT__5
10
0
20
0
30
0
70
128
71
13
72
12
73
14
0
VERTEX
8
OBJECT__5
10
0
20
0
30
0
70
128
71
11
72
10
73
12
0
VERTEX
8
OBJECT__5
10
0
20
0
30
0
70
128
71
9
72
8
73
10
0
VERTEX
8
OBJECT__5
10
0
20
0
30
0
70
128
71
7
72
6
73
8
0
VERTEX
8
OBJECT__5
10
0
20
0
30
0
70
128
71
5
72
4
73
6
0
VERTEX
8
OBJECT__5
10
0
20
0
30
0
70
128
71
5
72
3
73
2
0
VERTEX
8
OBJECT__5
10
0
20
0
30
0
70
128
71
3
72
16
73
1
0
SEQEND
8
OBJECT__5
0
POLYLINE
8
OBJECT__6
66
1
70
64
71
22
72
22
62
253
0
VERTEX
8
OBJECT__6
10
112.000000
20
19.000000
30
-3.500000
70
192
0
VERTEX
8
OBJECT__6
10
176.802994
20
8.697000
30
-3.500000
70
192
0
VERTEX
8
OBJECT__6
10
173.199997
20
0.000000
30
-3.500000
70
192
0
VERTEX
8
OBJECT__6
10
104.500000
20
-21.010000
30
-3.500000
70
192
0
VERTEX
8
OBJECT__6
10
104.500000
20
21.010000
30
-3.500000
70
192
0
VERTEX
8
OBJECT__6
10
99.010002
20
-26.500000
30
-3.500000
70
192
0
VERTEX
8
OBJECT__6
10
97.000000
20
-34.000000
30
-3.500000
70
192
0
VERTEX
8
OBJECT__6
10
97.000000
20
34.000000
30
-3.500000
70
192
0
VERTEX
8
OBJECT__6
10
99.010002
20
26.500000
30
-3.500000
70
192
0
VERTEX
8
OBJECT__6
10
197.000000
20
19.000000
30
-3.500000
70
192
0
VERTEX
8
OBJECT__6
10
185.500000
20
12.300000
30
-3.500000
70
192
0
VERTEX
8
OBJECT__6
10
194.197998
20
8.697000
30
-3.500000
70
192
0
VERTEX
8
OBJECT__6
10
194.197998
20
-8.697000
30
-3.500000
70
192
0
VERTEX
8
OBJECT__6
10
197.800003
20
0.000000
30
-3.500000
70
192
0
VERTEX
8
OBJECT__6
10
205.000000
20
-11.000000
30
-3.500000
70
192
0
VERTEX
8
OBJECT__6
10
176.802994
20
-8.697000
30
-3.500000
70
192
0
VERTEX
8
OBJECT__6
10
112.000000
20
-19.000000
30
-3.500000
70
192
0
VERTEX
8
OBJECT__6
10
202.656998
20
16.657000
30
-3.500000
70
192
0
VERTEX
8
OBJECT__6
10
205.000000
20
11.000000
30
-3.500000
70
192
0
VERTEX
8
OBJECT__6
10
202.656998
20
-16.657000
30
-3.500000
70
192
0
VERTEX
8
OBJECT__6
10
197.000000
20
-19.000000
30
-3.500000
70
192
0
VERTEX
8
OBJECT__6
10
185.500000
20
-12.300000
30
-3.500000
70
192
0
VERTEX
8
OBJECT__6
10
0
20
0
30
0
70
128
71
1
72
2
73
3
0
VERTEX
8
OBJECT__6
10
0
20
0
30
0
70
128
71
4
72
5
73
1
0
VERTEX
8
OBJECT__6
10
0
20
0
30
0
70
128
71
3
72
4
73
1
0
VERTEX
8
OBJECT__6
10
0
20
0
30
0
70
128
71
4
72
6
73
5
0
VERTEX
8
OBJECT__6
10
0
20
0
30
0
70
128
71
7
72
8
73
9
0
VERTEX
8
OBJECT__6
10
0
20
0
30
0
70
128
71
1
72
10
73
11
0
VERTEX
8
OBJECT__6
10
0
20
0
30
0
70
128
71
12
72
11
73
10
0
VERTEX
8
OBJECT__6
10
0
20
0
30
0
70
128
71
13
72
14
73
15
0
VERTEX
8
OBJECT__6
10
0
20
0
30
0
70
128
71
3
72
16
73
17
0
VERTEX
8
OBJECT__6
10
0
20
0
30
0
70
128
71
9
72
5
73
7
0
VERTEX
8
OBJECT__6
10
0
20
0
30
0
70
128
71
10
72
18
73
12
0
VERTEX
8
OBJECT__6
10
0
20
0
30
0
70
128
71
12
72
18
73
19
0
VERTEX
8
OBJECT__6
10
0
20
0
30
0
70
128
71
15
72
20
73
13
0
VERTEX
8
OBJECT__6
10
0
20
0
30
0
70
128
71
17
72
4
73
3
0
VERTEX
8
OBJECT__6
10
0
20
0
30
0
70
128
71
11
72
2
73
1
0
VERTEX
8
OBJECT__6
10
0
20
0
30
0
70
128
71
14
72
19
73
15
0
VERTEX
8
OBJECT__6
10
0
20
0
30
0
70
128
71
13
72
20
73
21
0
VERTEX
8
OBJECT__6
10
0
20
0
30
0
70
128
71
16
72
21
73
17
0
VERTEX
8
OBJECT__6
10
0
20
0
30
0
70
128
71
19
72
14
73
12
0
VERTEX
8
OBJECT__6
10
0
20
0
30
0
70
128
71
16
72
22
73
21
0
VERTEX
8
OBJECT__6
10
0
20
0
30
0
70
128
71
21
72
22
73
13
0
VERTEX
8
OBJECT__6
10
0
20
0
30
0
70
128
71
6
72
7
73
5
0
SEQEND
8
OBJECT__6
0
POLYLINE
8
OBJECT__7
66
1
70
64
71
8
72
6
62
253
0
VERTEX
8
OBJECT__7
10
104.500000
20
-21.010000
30
22.500000
70
192
0
VERTEX
8
OBJECT__7
10
104.500000
20
-21.010000
30
-3.500000
70
192
0
VERTEX
8
OBJECT__7
10
112.000000
20
-19.000000
30
-3.500000
70
192
0
VERTEX
8
OBJECT__7
10
99.010002
20
-26.500000
30
22.500000
70
192
0
VERTEX
8
OBJECT__7
10
99.010002
20
-26.500000
30
-3.500000
70
192
0
VERTEX
8
OBJECT__7
10
97.000000
20
-34.000000
30
22.500000
70
192
0
VERTEX
8
OBJECT__7
10
97.000000
20
-34.000000
30
-3.500000
70
192
0
VERTEX
8
OBJECT__7
10
112.000000
20
-19.000000
30
22.500000
70
192
0
VERTEX
8
OBJECT__7
10
0
20
0
30
0
70
128
71
1
72
2
73
3
0
VERTEX
8
OBJECT__7
10
0
20
0
30
0
70
128
71
4
72
5
73
2
0
VERTEX
8
OBJECT__7
10
0
20
0
30
0
70
128
71
6
72
7
73
5
0
VERTEX
8
OBJECT__7
10
0
20
0
30
0
70
128
71
5
72
4
73
6
0
VERTEX
8
OBJECT__7
10
0
20
0
30
0
70
128
71
2
72
1
73
4
0
VERTEX
8
OBJECT__7
10
0
20
0
30
0
70
128
71
3
72
8
73
1
0
SEQEND
8
OBJECT__7
0
POLYLINE
8
OBJECT__8
66
1
70
64
71
4
72
2
62
253
0
VERTEX
8
OBJECT__8
10
112.000000
20
-19.000000
30
-3.500000
70
192
0
VERTEX
8
OBJECT__8
10
197.000000
20
-19.000000
30
-3.500000
70
192
0
VERTEX
8
OBJECT__8
10
197.000000
20
-19.000000
30
22.500000
70
192
0
VERTEX
8
OBJECT__8
10
112.000000
20
-19.000000
30
22.500000
70
192
0
VERTEX
8
OBJECT__8
10
0
20
0
30
0
70
128
71
1
72
2
73
3
0
VERTEX
8
OBJECT__8
10
0
20
0
30
0
70
128
71
3
72
4
73
1
0
SEQEND
8
OBJECT__8
0
POLYLINE
8
OBJECT__9
66
1
70
64
71
4
72
2
62
253
0
VERTEX
8
OBJECT__9
10
205.000000
20
-11.000000
30
22.500000
70
192
0
VERTEX
8
OBJECT__9
10
205.000000
20
-11.000000
30
-3.500000
70
192
0
VERTEX
8
OBJECT__9
10
205.000000
20
11.000000
30
-3.500000
70
192
0
VERTEX
8
OBJECT__9
10
205.000000
20
11.000000
30
22.500000
70
192
0
VERTEX
8
OBJECT__9
10
0
20
0
30
0
70
128
71
1
72
2
73
3
0
VERTEX
8
OBJECT__9
10
0
20
0
30
0
70
128
71
3
72
4
73
1
0
SEQEND
8
OBJECT__9
0
POLYLINE
8
OBJECT__10
66
1
70
64
71
4
72
2
62
253
0
VERTEX
8
OBJECT__10
10
197.000000
20
19.000000
30
-3.500000
70
192
0
VERTEX
8
OBJECT__10
10
112.000000
20
19.000000
30
-3.500000
70
192
0
VERTEX
8
OBJECT__10
10
112.000000
20
19.000000
30
22.500000
70
192
0
VERTEX
8
OBJECT__10
10
197.000000
20
19.000000
30
22.500000
70
192
0
VERTEX
8
OBJECT__10
10
0
20
0
30
0
70
128
71
1
72
2
73
3
0
VERTEX
8
OBJECT__10
10
0
20
0
30
0
70
128
71
3
72
4
73
1
0
SEQEND
8
OBJECT__10
0
POLYLINE
8
OBJECT__11
66
1
70
64
71
8
72
6
62
253
0
VERTEX
8
OBJECT__11
10
99.010002
20
26.500000
30
22.500000
70
192
0
VERTEX
8
OBJECT__11
10
99.010002
20
26.500000
30
-3.500000
70
192
0
VERTEX
8
OBJECT__11
10
97.000000
20
34.000000
30
-3.500000
70
192
0
VERTEX
8
OBJECT__11
10
104.500000
20
21.010000
30
22.500000
70
192
0
VERTEX
8
OBJECT__11
10
104.500000
20
21.010000
30
-3.500000
70
192
0
VERTEX
8
OBJECT__11
10
112.000000
20
19.000000
30
22.500000
70
192
0
VERTEX
8
OBJECT__11
10
112.000000
20
19.000000
30
-3.500000
70
192
0
VERTEX
8
OBJECT__11
10
97.000000
20
34.000000
30
22.500000
70
192
0
VERTEX
8
OBJECT__11
10
0
20
0
30
0
70
128
71
1
72
2
73
3
0
VERTEX
8
OBJECT__11
10
0
20
0
30
0
70
128
71
4
72
5
73
2
0
VERTEX
8
OBJECT__11
10
0
20
0
30
0
70
128
71
6
72
7
73
5
0
VERTEX
8
OBJECT__11
10
0
20
0
30
0
70
128
71
5
72
4
73
6
0
VERTEX
8
OBJECT__11
10
0
20
0
30
0
70
128
71
2
72
1
73
4
0
VERTEX
8
OBJECT__11
10
0
20
0
30
0
70
128
71
3
72
8
73
1
0
SEQEND
8
OBJECT__11
0
POLYLINE
8
OBJECT__12
66
1
70
64
71
6
72
4
62
253
0
VERTEX
8
OBJECT__12
10
202.656998
20
16.657000
30
22.500000
70
192
0
VERTEX
8
OBJECT__12
10
202.656998
20
16.657000
30
-3.500000
70
192
0
VERTEX
8
OBJECT__12
10
197.000000
20
19.000000
30
-3.500000
70
192
0
VERTEX
8
OBJECT__12
10
205.000000
20
11.000000
30
22.500000
70
192
0
VERTEX
8
OBJECT__12
10
205.000000
20
11.000000
30
-3.500000
70
192
0
VERTEX
8
OBJECT__12
10
197.000000
20
19.000000
30
22.500000
70
192
0
VERTEX
8
OBJECT__12
10
0
20
0
30
0
70
128
71
1
72
2
73
3
0
VERTEX
8
OBJECT__12
10
0
20
0
30
0
70
128
71
4
72
5
73
2
0
VERTEX
8
OBJECT__12
10
0
20
0
30
0
70
128
71
2
72
1
73
4
0
VERTEX
8
OBJECT__12
10
0
20
0
30
0
70
128
71
3
72
6
73
1
0
SEQEND
8
OBJECT__12
0
POLYLINE
8
OBJECT__13
66
1
70
64
71
6
72
4
62
253
0
VERTEX
8
OBJECT__13
10
202.656998
20
-16.657000
30
22.500000
70
192
0
VERTEX
8
OBJECT__13
10
202.656998
20
-16.657000
30
-3.500000
70
192
0
VERTEX
8
OBJECT__13
10
205.000000
20
-11.000000
30
-3.500000
70
192
0
VERTEX
8
OBJECT__13
10
197.000000
20
-19.000000
30
22.500000
70
192
0
VERTEX
8
OBJECT__13
10
197.000000
20
-19.000000
30
-3.500000
70
192
0
VERTEX
8
OBJECT__13
10
205.000000
20
-11.000000
30
22.500000
70
192
0
VERTEX
8
OBJECT__13
10
0
20
0
30
0
70
128
71
1
72
2
73
3
0
VERTEX
8
OBJECT__13
10
0
20
0
30
0
70
128
71
4
72
5
73
2
0
VERTEX
8
OBJECT__13
10
0
20
0
30
0
70
128
71
2
72
1
73
4
0
VERTEX
8
OBJECT__13
10
0
20
0
30
0
70
128
71
3
72
6
73
1
0
SEQEND
8
OBJECT__13
0
POLYLINE
8
OBJECT__14
66
1
70
64
71
37
72
37
62
253
0
VERTEX
8
OBJECT__14
10
197.000000
20
19.000000
30
22.500000
70
192
0
VERTEX
8
OBJECT__14
10
205.000000
20
-11.000000
30
22.500000
70
192
0
VERTEX
8
OBJECT__14
10
205.000000
20
11.000000
30
22.500000
70
192
0
VERTEX
8
OBJECT__14
10
112.000000
20
19.000000
30
22.500000
70
192
0
VERTEX
8
OBJECT__14
10
197.000000
20
-19.000000
30
22.500000
70
192
0
VERTEX
8
OBJECT__14
10
202.656998
20
-16.657000
30
22.500000
70
192
0
VERTEX
8
OBJECT__14
10
202.656998
20
16.657000
30
22.500000
70
192
0
VERTEX
8
OBJECT__14
10
112.000000
20
-19.000000
30
22.500000
70
192
0
VERTEX
8
OBJECT__14
10
52.000000
20
-80.000000
30
22.500000
70
192
0
VERTEX
8
OBJECT__14
10
97.000000
20
-80.000000
30
22.500000
70
192
0
VERTEX
8
OBJECT__14
10
97.000000
20
-34.000000
30
22.500000
70
192
0
VERTEX
8
OBJECT__14
10
47.435001
20
-22.270000
30
22.500000
70
192
0
VERTEX
8
OBJECT__14
10
47.435001
20
22.270000
30
22.500000
70
192
0
VERTEX
8
OBJECT__14
10
40.456001
20
12.093000
30
22.500000
70
192
0
VERTEX
8
OBJECT__14
10
50.812000
20
-27.194000
30
22.500000
70
192
0
VERTEX
8
OBJECT__14
10
52.000000
20
-33.044998
30
22.500000
70
192
0
VERTEX
8
OBJECT__14
10
99.010002
20
-26.500000
30
22.500000
70
192
0
VERTEX
8
OBJECT__14
10
78.903999
20
44.446999
30
22.500000
70
192
0
VERTEX
8
OBJECT__14
10
70.097000
20
44.446999
30
22.500000
70
192
0
VERTEX
8
OBJECT__14
10
99.010002
20
26.500000
30
22.500000
70
192
0
VERTEX
8
OBJECT__14
10
104.500000
20
21.010000
30
22.500000
70
192
0
VERTEX
8
OBJECT__14
10
104.500000
20
-21.010000
30
22.500000
70
192
0
VERTEX
8
OBJECT__14
10
38.000000
20
0.000000
30
22.500000
70
192
0
VERTEX
8
OBJECT__14
10
50.812000
20
27.194000
30
22.500000
70
192
0
VERTEX
8
OBJECT__14
10
97.000000
20
80.000000
30
22.500000
70
192
0
VERTEX
8
OBJECT__14
10
86.028999
20
66.375999
30
22.500000
70
192
0
VERTEX
8
OBJECT__14
10
88.750000
20
58.000000
30
22.500000
70
192
0
VERTEX
8
OBJECT__14
10
52.000000
20
80.000000
30
22.500000
70
192
0
VERTEX
8
OBJECT__14
10
70.097000
20
71.553001
30
22.500000
70
192
0
VERTEX
8
OBJECT__14
10
62.972000
20
49.624001
30
22.500000
70
192
0
VERTEX
8
OBJECT__14
10
52.000000
20
33.044998
30
22.500000
70
192
0
VERTEX
8
OBJECT__14
10
97.000000
20
34.000000
30
22.500000
70
192
0
VERTEX
8
OBJECT__14
10
78.903999
20
71.553001
30
22.500000
70
192
0
VERTEX
8
OBJECT__14
10
60.250000
20
58.000000
30
22.500000
70
192
0
VERTEX
8
OBJECT__14
10
86.028999
20
49.624001
30
22.500000
70
192
0
VERTEX
8
OBJECT__14
10
62.972000
20
66.375999
30
22.500000
70
192
0
VERTEX
8
OBJECT__14
10
40.456001
20
-12.093000
30
22.500000
70
192
0
VERTEX
8
OBJECT__14
10
0
20
0
30
0
70
128
71
1
72
2
73
3
0
VERTEX
8
OBJECT__14
10
0
20
0
30
0
70
128
71
4
72
5
73
6
0
VERTEX
8
OBJECT__14
10
0
20
0
30
0
70
128
71
3
72
7
73
1
0
VERTEX
8
OBJECT__14
10
0
20
0
30
0
70
128
71
4
72
8
73
5
0
VERTEX
8
OBJECT__14
10
0
20
0
30
0
70
128
71
6
72
2
73
4
0
VERTEX
8
OBJECT__14
10
0
20
0
30
0
70
128
71
9
72
10
73
11
0
VERTEX
8
OBJECT__14
10
0
20
0
30
0
70
128
71
1
72
4
73
2
0
VERTEX
8
OBJECT__14
10
0
20
0
30
0
70
128
71
12
72
13
73
14
0
VERTEX
8
OBJECT__14
10
0
20
0
30
0
70
128
71
11
72
15
73
16
0
VERTEX
8
OBJECT__14
10
0
20
0
30
0
70
128
71
17
72
18
73
19
0
VERTEX
8
OBJECT__14
10
0
20
0
30
0
70
128
71
18
72
17
73
20
0
VERTEX
8
OBJECT__14
10
0
20
0
30
0
70
128
71
21
72
22
73
8
0
VERTEX
8
OBJECT__14
10
0
20
0
30
0
70
128
71
14
72
23
73
12
0
VERTEX
8
OBJECT__14
10
0
20
0
30
0
70
128
71
12
72
19
73
24
0
VERTEX
8
OBJECT__14
10
0
20
0
30
0
70
128
71
11
72
16
73
9
0
VERTEX
8
OBJECT__14
10
0
20
0
30
0
70
128
71
19
72
12
73
17
0
VERTEX
8
OBJECT__14
10
0
20
0
30
0
70
128
71
17
72
21
73
20
0
VERTEX
8
OBJECT__14
10
0
20
0
30
0
70
128
71
21
72
17
73
22
0
VERTEX
8
OBJECT__14
10
0
20
0
30
0
70
128
71
25
72
26
73
27
0
VERTEX
8
OBJECT__14
10
0
20
0
30
0
70
128
71
25
72
28
73
29
0
VERTEX
8
OBJECT__14
10
0
20
0
30
0
70
128
71
24
72
13
73
12
0
VERTEX
8
OBJECT__14
10
0
20
0
30
0
70
128
71
19
72
30
73
31
0
VERTEX
8
OBJECT__14
10
0
20
0
30
0
70
128
71
12
72
15
73
17
0
VERTEX
8
OBJECT__14
10
0
20
0
30
0
70
128
71
4
72
21
73
8
0
VERTEX
8
OBJECT__14
10
0
20
0
30
0
70
128
71
27
72
20
73
32
0
VERTEX
8
OBJECT__14
10
0
20
0
30
0
70
128
71
29
72
33
73
25
0
VERTEX
8
OBJECT__14
10
0
20
0
30
0
70
128
71
28
72
31
73
34
0
VERTEX
8
OBJECT__14
10
0
20
0
30
0
70
128
71
31
72
24
73
19
0
VERTEX
8
OBJECT__14
10
0
20
0
30
0
70
128
71
20
72
35
73
18
0
VERTEX
8
OBJECT__14
10
0
20
0
30
0
70
128
71
33
72
26
73
25
0
VERTEX
8
OBJECT__14
10
0
20
0
30
0
70
128
71
34
72
36
73
28
0
VERTEX
8
OBJECT__14
10
0
20
0
30
0
70
128
71
11
72
17
73
15
0
VERTEX
8
OBJECT__14
10
0
20
0
30
0
70
128
71
36
72
29
73
28
0
VERTEX
8
OBJECT__14
10
0
20
0
30
0
70
128
71
23
72
37
73
12
0
VERTEX
8
OBJECT__14
10
0
20
0
30
0
70
128
71
30
72
34
73
31
0
VERTEX
8
OBJECT__14
10
0
20
0
30
0
70
128
71
20
72
27
73
35
0
VERTEX
8
OBJECT__14
10
0
20
0
30
0
70
128
71
27
72
32
73
25
0
SEQEND
8
OBJECT__14
0
POLYLINE
8
OBJECT__15
66
1
70
64
71
6
72
4
62
253
0
VERTEX
8
OBJECT__15
10
50.812000
20
27.194000
30
22.500000
70
192
0
VERTEX
8
OBJECT__15
10
50.812000
20
27.194000
30
-22.500000
70
192
0
VERTEX
8
OBJECT__15
10
47.435001
20
22.270000
30
-22.500000
70
192
0
VERTEX
8
OBJECT__15
10
52.000000
20
33.044998
30
22.500000
70
192
0
VERTEX
8
OBJECT__15
10
52.000000
20
33.044998
30
-22.500000
70
192
0
VERTEX
8
OBJECT__15
10
47.435001
20
22.270000
30
22.500000
70
192
0
VERTEX
8
OBJECT__15
10
0
20
0
30
0
70
128
71
1
72
2
73
3
0
VERTEX
8
OBJECT__15
10
0
20
0
30
0
70
128
71
4
72
5
73
2
0
VERTEX
8
OBJECT__15
10
0
20
0
30
0
70
128
71
2
72
1
73
4
0
VERTEX
8
OBJECT__15
10
0
20
0
30
0
70
128
71
3
72
6
73
1
0
SEQEND
8
OBJECT__15
0
POLYLINE
8
OBJECT__16
66
1
70
64
71
10
72
8
62
253
0
VERTEX
8
OBJECT__16
10
40.456001
20
-12.093000
30
22.500000
70
192
0
VERTEX
8
OBJECT__16
10
40.456001
20
-12.093000
30
-22.500000
70
192
0
VERTEX
8
OBJECT__16
10
47.435001
20
-22.270000
30
-22.500000
70
192
0
VERTEX
8
OBJECT__16
10
38.000000
20
0.000000
30
22.500000
70
192
0
VERTEX
8
OBJECT__16
10
38.000000
20
0.000000
30
-22.500000
70
192
0
VERTEX
8
OBJECT__16
10
40.456001
20
12.093000
30
22.500000
70
192
0
VERTEX
8
OBJECT__16
10
40.456001
20
12.093000
30
-22.500000
70
192
0
VERTEX
8
OBJECT__16
10
47.435001
20
22.270000
30
22.500000
70
192
0
VERTEX
8
OBJECT__16
10
47.435001
20
22.270000
30
-22.500000
70
192
0
VERTEX
8
OBJECT__16
10
47.435001
20
-22.270000
30
22.500000
70
192
0
VERTEX
8
OBJECT__16
10
0
20
0
30
0
70
128
71
1
72
2
73
3
0
VERTEX
8
OBJECT__16
10
0
20
0
30
0
70
128
71
4
72
5
73
2
0
VERTEX
8
OBJECT__16
10
0
20
0
30
0
70
128
71
6
72
7
73
5
0
VERTEX
8
OBJECT__16
10
0
20
0
30
0
70
128
71
8
72
9
73
7
0
VERTEX
8
OBJECT__16
10
0
20
0
30
0
70
128
71
7
72
6
73
8
0
VERTEX
8
OBJECT__16
10
0
20
0
30
0
70
128
71
5
72
4
73
6
0
VERTEX
8
OBJECT__16
10
0
20
0
30
0
70
128
71
2
72
1
73
4
0
VERTEX
8
OBJECT__16
10
0
20
0
30
0
70
128
71
3
72
10
73
1
0
SEQEND
8
OBJECT__16
0
POLYLINE
8
OBJECT__17
66
1
70
64
71
6
72
4
62
253
0
VERTEX
8
OBJECT__17
10
50.812000
20
-27.194000
30
22.500000
70
192
0
VERTEX
8
OBJECT__17
10
50.812000
20
-27.194000
30
-22.500000
70
192
0
VERTEX
8
OBJECT__17
10
52.000000
20
-33.044998
30
-22.500000
70
192
0
VERTEX
8
OBJECT__17
10
47.435001
20
-22.270000
30
22.500000
70
192
0
VERTEX
8
OBJECT__17
10
47.435001
20
-22.270000
30
-22.500000
70
192
0
VERTEX
8
OBJECT__17
10
52.000000
20
-33.044998
30
22.500000
70
192
0
VERTEX
8
OBJECT__17
10
0
20
0
30
0
70
128
71
1
72
2
73
3
0
VERTEX
8
OBJECT__17
10
0
20
0
30
0
70
128
71
4
72
5
73
2
0
VERTEX
8
OBJECT__17
10
0
20
0
30
0
70
128
71
2
72
1
73
4
0
VERTEX
8
OBJECT__17
10
0
20
0
30
0
70
128
71
3
72
6
73
1
0
SEQEND
8
OBJECT__17
0
POLYLINE
8
OBJECT__18
66
1
70
64
71
8
72
6
62
253
0
VERTEX
8
OBJECT__18
10
97.000000
20
-92.989998
30
15.000000
70
192
0
VERTEX
8
OBJECT__18
10
52.000000
20
-92.989998
30
15.000000
70
192
0
VERTEX
8
OBJECT__18
10
52.000000
20
-95.000000
30
7.500000
70
192
0
VERTEX
8
OBJECT__18
10
97.000000
20
-87.500000
30
20.490000
70
192
0
VERTEX
8
OBJECT__18
10
52.000000
20
-87.500000
30
20.490000
70
192
0
VERTEX
8
OBJECT__18
10
97.000000
20
-80.000000
30
22.500000
70
192
0
VERTEX
8
OBJECT__18
10
52.000000
20
-80.000000
30
22.500000
70
192
0
VERTEX
8
OBJECT__18
10
97.000000
20
-95.000000
30
7.500000
70
192
0
VERTEX
8
OBJECT__18
10
0
20
0
30
0
70
128
71
1
72
2
73
3
0
VERTEX
8
OBJECT__18
10
0
20
0
30
0
70
128
71
4
72
5
73
2
0
VERTEX
8
OBJECT__18
10
0
20
0
30
0
70
128
71
6
72
7
73
5
0
VERTEX
8
OBJECT__18
10
0
20
0
30
0
70
128
71
5
72
4
73
6
0
VERTEX
8
OBJECT__18
10
0
20
0
30
0
70
128
71
2
72
1
73
4
0
VERTEX
8
OBJECT__18
10
0
20
0
30
0
70
128
71
3
72
8
73
1
0
SEQEND
8
OBJECT__18
0
POLYLINE
8
OBJECT__19
66
1
70
64
71
21
72
21
62
253
0
VERTEX
8
OBJECT__19
10
52.000000
20
-87.500000
30
-20.490000
70
192
0
VERTEX
8
OBJECT__19
10
52.000000
20
-92.989998
30
-15.000000
70
192
0
VERTEX
8
OBJECT__19
10
52.000000
20
-87.848000
30
-11.133000
70
192
0
VERTEX
8
OBJECT__19
10
52.000000
20
-80.000000
30
-22.500000
70
192
0
VERTEX
8
OBJECT__19
10
52.000000
20
-79.789001
30
-16.311001
70
192
0
VERTEX
8
OBJECT__19
10
52.000000
20
-70.210999
30
-16.311001
70
192
0
VERTEX
8
OBJECT__19
10
52.000000
20
-92.989998
30
15.000000
70
192
0
VERTEX
8
OBJECT__19
10
52.000000
20
-84.191002
30
14.301000
70
192
0
VERTEX
8
OBJECT__19
10
52.000000
20
-90.463997
30
7.062000
70
192
0
VERTEX
8
OBJECT__19
10
52.000000
20
-33.044998
30
22.500000
70
192
0
VERTEX
8
OBJECT__19
10
52.000000
20
-33.044998
30
-22.500000
70
192
0
VERTEX
8
OBJECT__19
10
52.000000
20
-58.173000
30
-2.419000
70
192
0
VERTEX
8
OBJECT__19
10
52.000000
20
-62.152000
30
-11.133000
70
192
0
VERTEX
8
OBJECT__19
10
52.000000
20
-95.000000
30
7.500000
70
192
0
VERTEX
8
OBJECT__19
10
52.000000
20
-87.500000
30
20.490000
70
192
0
VERTEX
8
OBJECT__19
10
52.000000
20
-80.000000
30
22.500000
70
192
0
VERTEX
8
OBJECT__19
10
52.000000
20
-65.808998
30
14.301000
70
192
0
VERTEX
8
OBJECT__19
10
52.000000
20
-59.535999
30
7.062000
70
192
0
VERTEX
8
OBJECT__19
10
52.000000
20
-95.000000
30
-7.500000
70
192
0
VERTEX
8
OBJECT__19
10
52.000000
20
-91.827003
30
-2.419000
70
192
0
VERTEX
8
OBJECT__19
10
52.000000
20
-75.000000
30
17.000000
70
192
0
VERTEX
8
OBJECT__19
10
0
20
0
30
0
70
128
71
1
72
2
73
3
0
VERTEX
8
OBJECT__19
10
0
20
0
30
0
70
128
71
4
72
5
73
6
0
VERTEX
8
OBJECT__19
10
0
20
0
30
0
70
128
71
5
72
4
73
1
0
VERTEX
8
OBJECT__19
10
0
20
0
30
0
70
128
71
7
72
8
73
9
0
VERTEX
8
OBJECT__19
10
0
20
0
30
0
70
128
71
10
72
11
73
12
0
VERTEX
8
OBJECT__19
10
0
20
0
30
0
70
128
71
11
72
6
73
13
0
VERTEX
8
OBJECT__19
10
0
20
0
30
0
70
128
71
3
72
5
73
1
0
VERTEX
8
OBJECT__19
10
0
20
0
30
0
70
128
71
9
72
14
73
7
0
VERTEX
8
OBJECT__19
10
0
20
0
30
0
70
128
71
8
72
15
73
16
0
VERTEX
8
OBJECT__19
10
0
20
0
30
0
70
128
71
16
72
10
73
17
0
VERTEX
8
OBJECT__19
10
0
20
0
30
0
70
128
71
12
72
18
73
10
0
VERTEX
8
OBJECT__19
10
0
20
0
30
0
70
128
71
6
72
11
73
4
0
VERTEX
8
OBJECT__19
10
0
20
0
30
0
70
128
71
3
72
2
73
19
0
VERTEX
8
OBJECT__19
10
0
20
0
30
0
70
128
71
14
72
9
73
20
0
VERTEX
8
OBJECT__19
10
0
20
0
30
0
70
128
71
16
72
21
73
8
0
VERTEX
8
OBJECT__19
10
0
20
0
30
0
70
128
71
18
72
17
73
10
0
VERTEX
8
OBJECT__19
10
0
20
0
30
0
70
128
71
19
72
20
73
3
0
VERTEX
8
OBJECT__19
10
0
20
0
30
0
70
128
71
7
72
15
73
8
0
VERTEX
8
OBJECT__19
10
0
20
0
30
0
70
128
71
13
72
12
73
11
0
VERTEX
8
OBJECT__19
10
0
20
0
30
0
70
128
71
17
72
21
73
16
0
VERTEX
8
OBJECT__19
10
0
20
0
30
0
70
128
71
20
72
19
73
14
0
SEQEND
8
OBJECT__19
0
POLYLINE
8
OBJECT__20
66
1
70
64
71
4
72
2
62
253
0
VERTEX
8
OBJECT__20
10
97.000000
20
-95.000000
30
-7.500000
70
192
0
VERTEX
8
OBJECT__20
10
97.000000
20
-95.000000
30
7.500000
70
192
0
VERTEX
8
OBJECT__20
10
52.000000
20
-95.000000
30
7.500000
70
192
0
VERTEX
8
OBJECT__20
10
52.000000
20
-95.000000
30
-7.500000
70
192
0
VERTEX
8
OBJECT__20
10
0
20
0
30
0
70
128
71
1
72
2
73
3
0
VERTEX
8
OBJECT__20
10
0
20
0
30
0
70
128
71
3
72
4
73
1
0
SEQEND
8
OBJECT__20
0
POLYLINE
8
OBJECT__21
66
1
70
64
71
8
72
6
62
253
0
VERTEX
8
OBJECT__21
10
52.000000
20
-92.989998
30
-15.000000
70
192
0
VERTEX
8
OBJECT__21
10
97.000000
20
-92.989998
30
-15.000000
70
192
0
VERTEX
8
OBJECT__21
10
97.000000
20
-95.000000
30
-7.500000
70
192
0
VERTEX
8
OBJECT__21
10
52.000000
20
-87.500000
30
-20.490000
70
192
0
VERTEX
8
OBJECT__21
10
97.000000
20
-87.500000
30
-20.490000
70
192
0
VERTEX
8
OBJECT__21
10
52.000000
20
-80.000000
30
-22.500000
70
192
0
VERTEX
8
OBJECT__21
10
97.000000
20
-80.000000
30
-22.500000
70
192
0
VERTEX
8
OBJECT__21
10
52.000000
20
-95.000000
30
-7.500000
70
192
0
VERTEX
8
OBJECT__21
10
0
20
0
30
0
70
128
71
1
72
2
73
3
0
VERTEX
8
OBJECT__21
10
0
20
0
30
0
70
128
71
4
72
5
73
2
0
VERTEX
8
OBJECT__21
10
0
20
0
30
0
70
128
71
6
72
7
73
5
0
VERTEX
8
OBJECT__21
10
0
20
0
30
0
70
128
71
5
72
4
73
6
0
VERTEX
8
OBJECT__21
10
0
20
0
30
0
70
128
71
2
72
1
73
4
0
VERTEX
8
OBJECT__21
10
0
20
0
30
0
70
128
71
3
72
8
73
1
0
SEQEND
8
OBJECT__21
0
POLYLINE
8
OBJECT__22
66
1
70
64
71
23
72
23
62
253
0
VERTEX
8
OBJECT__22
10
74.500000
20
45.450001
30
-22.500000
70
192
0
VERTEX
8
OBJECT__22
10
38.000000
20
0.000000
30
-22.500000
70
192
0
VERTEX
8
OBJECT__22
10
40.456001
20
12.093000
30
-22.500000
70
192
0
VERTEX
8
OBJECT__22
10
47.435001
20
-22.270000
30
-22.500000
70
192
0
VERTEX
8
OBJECT__22
10
40.456001
20
-12.093000
30
-22.500000
70
192
0
VERTEX
8
OBJECT__22
10
50.812000
20
-27.194000
30
-22.500000
70
192
0
VERTEX
8
OBJECT__22
10
52.000000
20
-80.000000
30
-22.500000
70
192
0
VERTEX
8
OBJECT__22
10
52.000000
20
-33.044998
30
-22.500000
70
192
0
VERTEX
8
OBJECT__22
10
67.124001
20
47.847000
30
-22.500000
70
192
0
VERTEX
8
OBJECT__22
10
47.435001
20
22.270000
30
-22.500000
70
192
0
VERTEX
8
OBJECT__22
10
97.000000
20
80.000000
30
-22.500000
70
192
0
VERTEX
8
OBJECT__22
10
97.000000
20
-80.000000
30
-22.500000
70
192
0
VERTEX
8
OBJECT__22
10
86.435997
20
54.122002
30
-22.500000
70
192
0
VERTEX
8
OBJECT__22
10
50.812000
20
27.194000
30
-22.500000
70
192
0
VERTEX
8
OBJECT__22
10
52.000000
20
80.000000
30
-22.500000
70
192
0
VERTEX
8
OBJECT__22
10
62.564999
20
61.877998
30
-22.500000
70
192
0
VERTEX
8
OBJECT__22
10
62.564999
20
54.122002
30
-22.500000
70
192
0
VERTEX
8
OBJECT__22
10
86.435997
20
61.877998
30
-22.500000
70
192
0
VERTEX
8
OBJECT__22
10
52.000000
20
33.044998
30
-22.500000
70
192
0
VERTEX
8
OBJECT__22
10
81.876999
20
47.847000
30
-22.500000
70
192
0
VERTEX
8
OBJECT__22
10
74.500000
20
70.550003
30
-22.500000
70
192
0
VERTEX
8
OBJECT__22
10
67.124001
20
68.153000
30
-22.500000
70
192
0
VERTEX
8
OBJECT__22
10
81.876999
20
68.153000
30
-22.500000
70
192
0
VERTEX
8
OBJECT__22
10
0
20
0
30
0
70
128
71
1
72
2
73
3
0
VERTEX
8
OBJECT__22
10
0
20
0
30
0
70
128
71
1
72
4
73
5
0
VERTEX
8
OBJECT__22
10
0
20
0
30
0
70
128
71
5
72
2
73
1
0
VERTEX
8
OBJECT__22
10
0
20
0
30
0
70
128
71
1
72
6
73
4
0
VERTEX
8
OBJECT__22
10
0
20
0
30
0
70
128
71
1
72
7
73
8
0
VERTEX
8
OBJECT__22
10
0
20
0
30
0
70
128
71
9
72
3
73
10
0
VERTEX
8
OBJECT__22
10
0
20
0
30
0
70
128
71
11
72
12
73
13
0
VERTEX
8
OBJECT__22
10
0
20
0
30
0
70
128
71
8
72
6
73
1
0
VERTEX
8
OBJECT__22
10
0
20
0
30
0
70
128
71
10
72
14
73
9
0
VERTEX
8
OBJECT__22
10
0
20
0
30
0
70
128
71
15
72
16
73
17
0
VERTEX
8
OBJECT__22
10
0
20
0
30
0
70
128
71
13
72
18
73
11
0
VERTEX
8
OBJECT__22
10
0
20
0
30
0
70
128
71
14
72
17
73
9
0
VERTEX
8
OBJECT__22
10
0
20
0
30
0
70
128
71
17
72
14
73
19
0
VERTEX
8
OBJECT__22
10
0
20
0
30
0
70
128
71
12
72
20
73
13
0
VERTEX
8
OBJECT__22
10
0
20
0
30
0
70
128
71
12
72
7
73
1
0
VERTEX
8
OBJECT__22
10
0
20
0
30
0
70
128
71
17
72
19
73
15
0
VERTEX
8
OBJECT__22
10
0
20
0
30
0
70
128
71
15
72
21
73
22
0
VERTEX
8
OBJECT__22
10
0
20
0
30
0
70
128
71
1
72
20
73
12
0
VERTEX
8
OBJECT__22
10
0
20
0
30
0
70
128
71
22
72
16
73
15
0
VERTEX
8
OBJECT__22
10
0
20
0
30
0
70
128
71
11
72
23
73
21
0
VERTEX
8
OBJECT__22
10
0
20
0
30
0
70
128
71
3
72
9
73
1
0
VERTEX
8
OBJECT__22
10
0
20
0
30
0
70
128
71
18
72
23
73
11
0
VERTEX
8
OBJECT__22
10
0
20
0
30
0
70
128
71
21
72
15
73
11
0
SEQEND
8
OBJECT__22
0
POLYLINE
8
OBJECT__23
66
1
70
64
71
20
72
18
62
253
0
VERTEX
8
OBJECT__23
10
97.000000
20
-34.000000
30
-3.500000
70
192
0
VERTEX
8
OBJECT__23
10
97.000000
20
-92.989998
30
-15.000000
70
192
0
VERTEX
8
OBJECT__23
10
97.000000
20
-87.500000
30
-20.490000
70
192
0
VERTEX
8
OBJECT__23
10
97.000000
20
-95.000000
30
-7.500000
70
192
0
VERTEX
8
OBJECT__23
10
97.000000
20
-95.000000
30
7.500000
70
192
0
VERTEX
8
OBJECT__23
10
97.000000
20
-80.000000
30
22.500000
70
192
0
VERTEX
8
OBJECT__23
10
97.000000
20
-87.500000
30
20.490000
70
192
0
VERTEX
8
OBJECT__23
10
97.000000
20
-34.000000
30
22.500000
70
192
0
VERTEX
8
OBJECT__23
10
97.000000
20
34.000000
30
-3.500000
70
192
0
VERTEX
8
OBJECT__23
10
97.000000
20
80.000000
30
-22.500000
70
192
0
VERTEX
8
OBJECT__23
10
97.000000
20
87.500000
30
-20.490000
70
192
0
VERTEX
8
OBJECT__23
10
97.000000
20
95.000000
30
7.500000
70
192
0
VERTEX
8
OBJECT__23
10
97.000000
20
80.000000
30
22.500000
70
192
0
VERTEX
8
OBJECT__23
10
97.000000
20
92.989998
30
15.000000
70
192
0
VERTEX
8
OBJECT__23
10
97.000000
20
92.989998
30
-15.000000
70
192
0
VERTEX
8
OBJECT__23
10
97.000000
20
-92.989998
30
15.000000
70
192
0
VERTEX
8
OBJECT__23
10
97.000000
20
-80.000000
30
-22.500000
70
192
0
VERTEX
8
OBJECT__23
10
97.000000
20
87.500000
30
20.490000
70
192
0
VERTEX
8
OBJECT__23
10
97.000000
20
95.000000
30
-7.500000
70
192
0
VERTEX
8
OBJECT__23
10
97.000000
20
34.000000
30
22.500000
70
192
0
VERTEX
8
OBJECT__23
10
0
20
0
30
0
70
128
71
1
72
2
73
3
0
VERTEX
8
OBJECT__23
10
0
20
0
30
0
70
128
71
1
72
4
73
2
0
VERTEX
8
OBJECT__23
10
0
20
0
30
0
70
128
71
5
72
6
73
7
0
VERTEX
8
OBJECT__23
10
0
20
0
30
0
70
128
71
1
72
8
73
6
0
VERTEX
8
OBJECT__23
10
0
20
0
30
0
70
128
71
9
72
10
73
11
0
VERTEX
8
OBJECT__23
10
0
20
0
30
0
70
128
71
1
72
5
73
4
0
VERTEX
8
OBJECT__23
10
0
20
0
30
0
70
128
71
6
72
5
73
1
0
VERTEX
8
OBJECT__23
10
0
20
0
30
0
70
128
71
9
72
12
73
13
0
VERTEX
8
OBJECT__23
10
0
20
0
30
0
70
128
71
13
72
12
73
14
0
VERTEX
8
OBJECT__23
10
0
20
0
30
0
70
128
71
11
72
15
73
9
0
VERTEX
8
OBJECT__23
10
0
20
0
30
0
70
128
71
7
72
16
73
5
0
VERTEX
8
OBJECT__23
10
0
20
0
30
0
70
128
71
17
72
10
73
9
0
VERTEX
8
OBJECT__23
10
0
20
0
30
0
70
128
71
14
72
18
73
13
0
VERTEX
8
OBJECT__23
10
0
20
0
30
0
70
128
71
15
72
19
73
9
0
VERTEX
8
OBJECT__23
10
0
20
0
30
0
70
128
71
9
72
1
73
17
0
VERTEX
8
OBJECT__23
10
0
20
0
30
0
70
128
71
19
72
12
73
9
0
VERTEX
8
OBJECT__23
10
0
20
0
30
0
70
128
71
13
72
20
73
9
0
VERTEX
8
OBJECT__23
10
0
20
0
30
0
70
128
71
3
72
17
73
1
0
SEQEND
8
OBJECT__23
0
POLYLINE
8
OBJECT__24
66
1
70
64
71
21
72
21
62
253
0
VERTEX
8
OBJECT__24
10
52.000000
20
86.133003
30
12.848000
70
192
0
VERTEX
8
OBJECT__24
10
52.000000
20
92.989998
30
15.000000
70
192
0
VERTEX
8
OBJECT__24
10
52.000000
20
95.000000
30
7.500000
70
192
0
VERTEX
8
OBJECT__24
10
52.000000
20
77.418999
30
16.827000
70
192
0
VERTEX
8
OBJECT__24
10
52.000000
20
80.000000
30
22.500000
70
192
0
VERTEX
8
OBJECT__24
10
52.000000
20
87.500000
30
20.490000
70
192
0
VERTEX
8
OBJECT__24
10
52.000000
20
33.044998
30
22.500000
70
192
0
VERTEX
8
OBJECT__24
10
52.000000
20
60.699001
30
9.191000
70
192
0
VERTEX
8
OBJECT__24
10
52.000000
20
58.000000
30
0.000000
70
192
0
VERTEX
8
OBJECT__24
10
52.000000
20
67.938004
30
15.464000
70
192
0
VERTEX
8
OBJECT__24
10
52.000000
20
91.310997
30
4.789000
70
192
0
VERTEX
8
OBJECT__24
10
52.000000
20
86.133003
30
-12.848000
70
192
0
VERTEX
8
OBJECT__24
10
52.000000
20
91.310997
30
-4.789000
70
192
0
VERTEX
8
OBJECT__24
10
52.000000
20
95.000000
30
-7.500000
70
192
0
VERTEX
8
OBJECT__24
10
52.000000
20
92.989998
30
-15.000000
70
192
0
VERTEX
8
OBJECT__24
10
52.000000
20
87.500000
30
-20.490000
70
192
0
VERTEX
8
OBJECT__24
10
52.000000
20
80.000000
30
-22.500000
70
192
0
VERTEX
8
OBJECT__24
10
52.000000
20
77.418999
30
-16.827000
70
192
0
VERTEX
8
OBJECT__24
10
52.000000
20
33.044998
30
-22.500000
70
192
0
VERTEX
8
OBJECT__24
10
52.000000
20
67.938004
30
-15.464000
70
192
0
VERTEX
8
OBJECT__24
10
52.000000
20
60.699001
30
-9.191000
70
192
0
VERTEX
8
OBJECT__24
10
0
20
0
30
0
70
128
71
1
72
2
73
3
0
VERTEX
8
OBJECT__24
10
0
20
0
30
0
70
128
71
1
72
4
73
5
0
VERTEX
8
OBJECT__24
10
0
20
0
30
0
70
128
71
1
72
6
73
2
0
VERTEX
8
OBJECT__24
10
0
20
0
30
0
70
128
71
7
72
8
73
9
0
VERTEX
8
OBJECT__24
10
0
20
0
30
0
70
128
71
5
72
4
73
10
0
VERTEX
8
OBJECT__24
10
0
20
0
30
0
70
128
71
3
72
11
73
1
0
VERTEX
8
OBJECT__24
10
0
20
0
30
0
70
128
71
7
72
10
73
8
0
VERTEX
8
OBJECT__24
10
0
20
0
30
0
70
128
71
5
72
6
73
1
0
VERTEX
8
OBJECT__24
10
0
20
0
30
0
70
128
71
12
72
13
73
14
0
VERTEX
8
OBJECT__24
10
0
20
0
30
0
70
128
71
10
72
7
73
5
0
VERTEX
8
OBJECT__24
10
0
20
0
30
0
70
128
71
14
72
13
73
11
0
VERTEX
8
OBJECT__24
10
0
20
0
30
0
70
128
71
14
72
15
73
12
0
VERTEX
8
OBJECT__24
10
0
20
0
30
0
70
128
71
12
72
16
73
17
0
VERTEX
8
OBJECT__24
10
0
20
0
30
0
70
128
71
11
72
3
73
14
0
VERTEX
8
OBJECT__24
10
0
20
0
30
0
70
128
71
17
72
18
73
12
0
VERTEX
8
OBJECT__24
10
0
20
0
30
0
70
128
71
15
72
16
73
12
0
VERTEX
8
OBJECT__24
10
0
20
0
30
0
70
128
71
17
72
19
73
20
0
VERTEX
8
OBJECT__24
10
0
20
0
30
0
70
128
71
20
72
18
73
17
0
VERTEX
8
OBJECT__24
10
0
20
0
30
0
70
128
71
19
72
9
73
21
0
VERTEX
8
OBJECT__24
10
0
20
0
30
0
70
128
71
21
72
20
73
19
0
VERTEX
8
OBJECT__24
10
0
20
0
30
0
70
128
71
9
72
19
73
7
0
SEQEND
8
OBJECT__24
0
POLYLINE
8
OBJECT__25
66
1
70
64
71
4
72
2
62
253
0
VERTEX
8
OBJECT__25
10
97.000000
20
95.000000
30
7.500000
70
192
0
VERTEX
8
OBJECT__25
10
97.000000
20
95.000000
30
-7.500000
70
192
0
VERTEX
8
OBJECT__25
10
52.000000
20
95.000000
30
-7.500000
70
192
0
VERTEX
8
OBJECT__25
10
52.000000
20
95.000000
30
7.500000
70
192
0
VERTEX
8
OBJECT__25
10
0
20
0
30
0
70
128
71
1
72
2
73
3
0
VERTEX
8
OBJECT__25
10
0
20
0
30
0
70
128
71
3
72
4
73
1
0
SEQEND
8
OBJECT__25
0
POLYLINE
8
OBJECT__26
66
1
70
64
71
8
72
6
62
253
0
VERTEX
8
OBJECT__26
10
97.000000
20
92.989998
30
-15.000000
70
192
0
VERTEX
8
OBJECT__26
10
52.000000
20
92.989998
30
-15.000000
70
192
0
VERTEX
8
OBJECT__26
10
52.000000
20
95.000000
30
-7.500000
70
192
0
VERTEX
8
OBJECT__26
10
97.000000
20
87.500000
30
-20.490000
70
192
0
VERTEX
8
OBJECT__26
10
52.000000
20
87.500000
30
-20.490000
70
192
0
VERTEX
8
OBJECT__26
10
97.000000
20
80.000000
30
-22.500000
70
192
0
VERTEX
8
OBJECT__26
10
52.000000
20
80.000000
30
-22.500000
70
192
0
VERTEX
8
OBJECT__26
10
97.000000
20
95.000000
30
-7.500000
70
192
0
VERTEX
8
OBJECT__26
10
0
20
0
30
0
70
128
71
1
72
2
73
3
0
VERTEX
8
OBJECT__26
10
0
20
0
30
0
70
128
71
4
72
5
73
2
0
VERTEX
8
OBJECT__26
10
0
20
0
30
0
70
128
71
6
72
7
73
5
0
VERTEX
8
OBJECT__26
10
0
20
0
30
0
70
128
71
5
72
4
73
6
0
VERTEX
8
OBJECT__26
10
0
20
0
30
0
70
128
71
2
72
1
73
4
0
VERTEX
8
OBJECT__26
10
0
20
0
30
0
70
128
71
3
72
8
73
1
0
SEQEND
8
OBJECT__26
0
POLYLINE
8
OBJECT__27
66
1
70
64
71
8
72
6
62
253
0
VERTEX
8
OBJECT__27
10
52.000000
20
92.989998
30
15.000000
70
192
0
VERTEX
8
OBJECT__27
10
97.000000
20
92.989998
30
15.000000
70
192
0
VERTEX
8
OBJECT__27
10
97.000000
20
95.000000
30
7.500000
70
192
0
VERTEX
8
OBJECT__27
10
52.000000
20
87.500000
30
20.490000
70
192
0
VERTEX
8
OBJECT__27
10
97.000000
20
87.500000
30
20.490000
70
192
0
VERTEX
8
OBJECT__27
10
52.000000
20
80.000000
30
22.500000
70
192
0
VERTEX
8
OBJECT__27
10
97.000000
20
80.000000
30
22.500000
70
192
0
VERTEX
8
OBJECT__27
10
52.000000
20
95.000000
30
7.500000
70
192
0
VERTEX
8
OBJECT__27
10
0
20
0
30
0
70
128
71
1
72
2
73
3
0
VERTEX
8
OBJECT__27
10
0
20
0
30
0
70
128
71
4
72
5
73
2
0
VERTEX
8
OBJECT__27
10
0
20
0
30
0
70
128
71
6
72
7
73
5
0
VERTEX
8
OBJECT__27
10
0
20
0
30
0
70
128
71
5
72
4
73
6
0
VERTEX
8
OBJECT__27
10
0
20
0
30
0
70
128
71
2
72
1
73
4
0
VERTEX
8
OBJECT__27
10
0
20
0
30
0
70
128
71
3
72
8
73
1
0
SEQEND
8
OBJECT__27
0
POLYLINE
8
OBJECT__28
66
1
70
64
71
41
72
40
62
253
0
VERTEX
8
OBJECT__28
10
33.200001
20
-75.000000
30
0.000000
70
192
0
VERTEX
8
OBJECT__28
10
32.616001
20
-75.000000
30
34.159000
70
192
0
VERTEX
8
OBJECT__28
10
32.616001
20
-78.116997
30
33.749001
70
192
0
VERTEX
8
OBJECT__28
10
32.616001
20
-83.841003
30
32.994999
70
192
0
VERTEX
8
OBJECT__28
10
32.616001
20
-90.146004
30
30.384001
70
192
0
VERTEX
8
OBJECT__28
10
32.616001
20
-99.153999
30
24.153999
70
192
0
VERTEX
8
OBJECT__28
10
32.616001
20
-100.109001
30
22.910000
70
192
0
VERTEX
8
OBJECT__28
10
32.616001
20
-104.583000
30
17.080000
70
192
0
VERTEX
8
OBJECT__28
10
32.616001
20
-106.591003
30
12.231000
70
192
0
VERTEX
8
OBJECT__28
10
32.616001
20
-107.995003
30
-8.841000
70
192
0
VERTEX
8
OBJECT__28
10
32.616001
20
-106.591003
30
-12.231000
70
192
0
VERTEX
8
OBJECT__28
10
32.616001
20
-104.583000
30
-17.080000
70
192
0
VERTEX
8
OBJECT__28
10
32.616001
20
-100.109001
30
-22.910000
70
192
0
VERTEX
8
OBJECT__28
10
32.616001
20
-92.080002
30
-29.583000
70
192
0
VERTEX
8
OBJECT__28
10
32.616001
20
-90.146004
30
-30.384001
70
192
0
VERTEX
8
OBJECT__28
10
32.616001
20
-83.841003
30
-32.994999
70
192
0
VERTEX
8
OBJECT__28
10
32.616001
20
-78.116997
30
-33.749001
70
192
0
VERTEX
8
OBJECT__28
10
32.616001
20
-66.158997
30
-32.994999
70
192
0
VERTEX
8
OBJECT__28
10
32.616001
20
-65.677002
30
-32.794998
70
192
0
VERTEX
8
OBJECT__28
10
32.616001
20
-57.919998
30
-29.583000
70
192
0
VERTEX
8
OBJECT__28
10
32.616001
20
-54.591999
30
-27.028999
70
192
0
VERTEX
8
OBJECT__28
10
32.616001
20
-50.846001
30
-24.153999
70
192
0
VERTEX
8
OBJECT__28
10
32.616001
20
-46.053001
30
-17.909000
70
192
0
VERTEX
8
OBJECT__28
10
32.616001
20
-42.005001
30
-8.841000
70
192
0
VERTEX
8
OBJECT__28
10
32.616001
20
-41.662998
30
-6.245000
70
192
0
VERTEX
8
OBJECT__28
10
32.616001
20
-40.841000
30
0.000000
70
192
0
VERTEX
8
OBJECT__28
10
32.616001
20
-41.662998
30
6.245000
70
192
0
VERTEX
8
OBJECT__28
10
32.616001
20
-45.417000
30
17.080000
70
192
0
VERTEX
8
OBJECT__28
10
32.616001
20
-46.053001
30
17.909000
70
192
0
VERTEX
8
OBJECT__28
10
32.616001
20
-50.846001
30
24.153999
70
192
0
VERTEX
8
OBJECT__28
10
32.616001
20
-54.591999
30
27.028999
70
192
0
VERTEX
8
OBJECT__28
10
32.616001
20
-57.919998
30
29.583000
70
192
0
VERTEX
8
OBJECT__28
10
32.616001
20
-65.677002
30
32.794998
70
192
0
VERTEX
8
OBJECT__28
10
32.616001
20
-66.158997
30
32.994999
70
192
0
VERTEX
8
OBJECT__28
10
32.616001
20
-42.005001
30
8.841000
70
192
0
VERTEX
8
OBJECT__28
10
32.616001
20
-45.417000
30
-17.080000
70
192
0
VERTEX
8
OBJECT__28
10
32.616001
20
-75.000000
30
-34.159000
70
192
0
VERTEX
8
OBJECT__28
10
32.616001
20
-99.153999
30
-24.153999
70
192
0
VERTEX
8
OBJECT__28
10
32.616001
20
-109.158997
30
0.000000
70
192
0
VERTEX
8
OBJECT__28
10
32.616001
20
-107.995003
30
8.841000
70
192
0
VERTEX
8
OBJECT__28
10
32.616001
20
-92.080002
30
29.583000
70
192
0
VERTEX
8
OBJECT__28
10
0
20
0
30
0
70
128
71
1
72
2
73
3
0
VERTEX
8
OBJECT__28
10
0
20
0
30
0
70
128
71
1
72
4
73
5
0
VERTEX
8
OBJECT__28
10
0
20
0
30
0
70
128
71
1
72
6
73
7
0
VERTEX
8
OBJECT__28
10
0
20
0
30
0
70
128
71
1
72
8
73
9
0
VERTEX
8
OBJECT__28
10
0
20
0
30
0
70
128
71
1
72
10
73
11
0
VERTEX
8
OBJECT__28
10
0
20
0
30
0
70
128
71
1
72
12
73
13
0
VERTEX
8
OBJECT__28
10
0
20
0
30
0
70
128
71
1
72
14
73
15
0
VERTEX
8
OBJECT__28
10
0
20
0
30
0
70
128
71
1
72
16
73
17
0
VERTEX
8
OBJECT__28
10
0
20
0
30
0
70
128
71
1
72
18
73
19
0
VERTEX
8
OBJECT__28
10
0
20
0
30
0
70
128
71
1
72
20
73
21
0
VERTEX
8
OBJECT__28
10
0
20
0
30
0
70
128
71
1
72
22
73
23
0
VERTEX
8
OBJECT__28
10
0
20
0
30
0
70
128
71
1
72
24
73
25
0
VERTEX
8
OBJECT__28
10
0
20
0
30
0
70
128
71
1
72
26
73
27
0
VERTEX
8
OBJECT__28
10
0
20
0
30
0
70
128
71
1
72
28
73
29
0
VERTEX
8
OBJECT__28
10
0
20
0
30
0
70
128
71
1
72
30
73
31
0
VERTEX
8
OBJECT__28
10
0
20
0
30
0
70
128
71
1
72
32
73
33
0
VERTEX
8
OBJECT__28
10
0
20
0
30
0
70
128
71
1
72
34
73
2
0
VERTEX
8
OBJECT__28
10
0
20
0
30
0
70
128
71
33
72
34
73
1
0
VERTEX
8
OBJECT__28
10
0
20
0
30
0
70
128
71
31
72
32
73
1
0
VERTEX
8
OBJECT__28
10
0
20
0
30
0
70
128
71
29
72
30
73
1
0
VERTEX
8
OBJECT__28
10
0
20
0
30
0
70
128
71
1
72
35
73
28
0
VERTEX
8
OBJECT__28
10
0
20
0
30
0
70
128
71
27
72
35
73
1
0
VERTEX
8
OBJECT__28
10
0
20
0
30
0
70
128
71
25
72
26
73
1
0
VERTEX
8
OBJECT__28
10
0
20
0
30
0
70
128
71
1
72
36
73
24
0
VERTEX
8
OBJECT__28
10
0
20
0
30
0
70
128
71
23
72
36
73
1
0
VERTEX
8
OBJECT__28
10
0
20
0
30
0
70
128
71
21
72
22
73
1
0
VERTEX
8
OBJECT__28
10
0
20
0
30
0
70
128
71
19
72
20
73
1
0
VERTEX
8
OBJECT__28
10
0
20
0
30
0
70
128
71
1
72
37
73
18
0
VERTEX
8
OBJECT__28
10
0
20
0
30
0
70
128
71
17
72
37
73
1
0
VERTEX
8
OBJECT__28
10
0
20
0
30
0
70
128
71
15
72
16
73
1
0
VERTEX
8
OBJECT__28
10
0
20
0
30
0
70
128
71
1
72
38
73
14
0
VERTEX
8
OBJECT__28
10
0
20
0
30
0
70
128
71
13
72
38
73
1
0
VERTEX
8
OBJECT__28
10
0
20
0
30
0
70
128
71
11
72
12
73
1
0
VERTEX
8
OBJECT__28
10
0
20
0
30
0
70
128
71
1
72
39
73
10
0
VERTEX
8
OBJECT__28
10
0
20
0
30
0
70
128
71
1
72
40
73
39
0
VERTEX
8
OBJECT__28
10
0
20
0
30
0
70
128
71
9
72
40
73
1
0
VERTEX
8
OBJECT__28
10
0
20
0
30
0
70
128
71
7
72
8
73
1
0
VERTEX
8
OBJECT__28
10
0
20
0
30
0
70
128
71
1
72
41
73
6
0
VERTEX
8
OBJECT__28
10
0
20
0
30
0
70
128
71
5
72
41
73
1
0
VERTEX
8
OBJECT__28
10
0
20
0
30
0
70
128
71
3
72
4
73
1
0
SEQEND
8
OBJECT__28
0
POLYLINE
8
OBJECT__29
66
1
70
64
71
58
72
58
62
253
0
VERTEX
8
OBJECT__29
10
0.000000
20
-110.013000
30
0.000000
70
192
0
VERTEX
8
OBJECT__29
10
32.616001
20
-109.158997
30
0.000000
70
192
0
VERTEX
8
OBJECT__29
10
32.616001
20
-107.995003
30
8.841000
70
192
0
VERTEX
8
OBJECT__29
10
0.000000
20
-107.649002
30
12.648000
70
192
0
VERTEX
8
OBJECT__29
10
0.000000
20
-100.875000
30
23.587999
70
192
0
VERTEX
8
OBJECT__29
10
32.616001
20
-104.583000
30
17.080000
70
192
0
VERTEX
8
OBJECT__29
10
32.616001
20
-106.591003
30
12.231000
70
192
0
VERTEX
8
OBJECT__29
10
32.616001
20
-99.153999
30
24.153999
70
192
0
VERTEX
8
OBJECT__29
10
32.616001
20
-92.080002
30
29.583000
70
192
0
VERTEX
8
OBJECT__29
10
0.000000
20
-90.607002
30
31.343000
70
192
0
VERTEX
8
OBJECT__29
10
32.616001
20
-100.109001
30
22.910000
70
192
0
VERTEX
8
OBJECT__29
10
32.616001
20
-90.146004
30
30.384001
70
192
0
VERTEX
8
OBJECT__29
10
32.616001
20
-83.841003
30
32.994999
70
192
0
VERTEX
8
OBJECT__29
10
0.000000
20
-78.231003
30
34.863998
70
192
0
VERTEX
8
OBJECT__29
10
0.000000
20
-65.417999
30
33.676998
70
192
0
VERTEX
8
OBJECT__29
10
32.616001
20
-75.000000
30
34.159000
70
192
0
VERTEX
8
OBJECT__29
10
32.616001
20
-78.116997
30
33.749001
70
192
0
VERTEX
8
OBJECT__29
10
32.616001
20
-66.158997
30
32.994999
70
192
0
VERTEX
8
OBJECT__29
10
32.616001
20
-65.677002
30
32.794998
70
192
0
VERTEX
8
OBJECT__29
10
32.616001
20
-57.919998
30
29.583000
70
192
0
VERTEX
8
OBJECT__29
10
0.000000
20
-53.900002
30
27.941000
70
192
0
VERTEX
8
OBJECT__29
10
0.000000
20
-45.230999
30
18.431999
70
192
0
VERTEX
8
OBJECT__29
10
32.616001
20
-50.846001
30
24.153999
70
192
0
VERTEX
8
OBJECT__29
10
32.616001
20
-54.591999
30
27.028999
70
192
0
VERTEX
8
OBJECT__29
10
32.616001
20
-45.417000
30
17.080000
70
192
0
VERTEX
8
OBJECT__29
10
32.616001
20
-42.005001
30
8.841000
70
192
0
VERTEX
8
OBJECT__29
10
0.000000
20
-40.583000
30
6.434000
70
192
0
VERTEX
8
OBJECT__29
10
32.616001
20
-46.053001
30
17.909000
70
192
0
VERTEX
8
OBJECT__29
10
0.000000
20
-40.583000
30
-6.434000
70
192
0
VERTEX
8
OBJECT__29
10
0.000000
20
-39.987000
30
0.000000
70
192
0
VERTEX
8
OBJECT__29
10
32.616001
20
-40.841000
30
0.000000
70
192
0
VERTEX
8
OBJECT__29
10
32.616001
20
-41.662998
30
6.245000
70
192
0
VERTEX
8
OBJECT__29
10
0.000000
20
-45.230999
30
-18.431999
70
192
0
VERTEX
8
OBJECT__29
10
32.616001
20
-42.005001
30
-8.841000
70
192
0
VERTEX
8
OBJECT__29
10
32.616001
20
-41.662998
30
-6.245000
70
192
0
VERTEX
8
OBJECT__29
10
32.616001
20
-45.417000
30
-17.080000
70
192
0
VERTEX
8
OBJECT__29
10
32.616001
20
-46.053001
30
-17.909000
70
192
0
VERTEX
8
OBJECT__29
10
32.616001
20
-50.846001
30
-24.153999
70
192
0
VERTEX
8
OBJECT__29
10
0.000000
20
-53.900002
30
-27.941000
70
192
0
VERTEX
8
OBJECT__29
10
0.000000
20
-65.417999
30
-33.676998
70
192
0
VERTEX
8
OBJECT__29
10
32.616001
20
-57.919998
30
-29.583000
70
192
0
VERTEX
8
OBJECT__29
10
32.616001
20
-54.591999
30
-27.028999
70
192
0
VERTEX
8
OBJECT__29
10
32.616001
20
-66.158997
30
-32.994999
70
192
0
VERTEX
8
OBJECT__29
10
32.616001
20
-75.000000
30
-34.159000
70
192
0
VERTEX
8
OBJECT__29
10
0.000000
20
-78.231003
30
-34.863998
70
192
0
VERTEX
8
OBJECT__29
10
32.616001
20
-65.677002
30
-32.794998
70
192
0
VERTEX
8
OBJECT__29
10
0.000000
20
-90.607002
30
-31.343000
70
192
0
VERTEX
8
OBJECT__29
10
32.616001
20
-83.841003
30
-32.994999
70
192
0
VERTEX
8
OBJECT__29
10
32.616001
20
-78.116997
30
-33.749001
70
192
0
VERTEX
8
OBJECT__29
10
0.000000
20
-100.875000
30
-23.587999
70
192
0
VERTEX
8
OBJECT__29
10
32.616001
20
-92.080002
30
-29.583000
70
192
0
VERTEX
8
OBJECT__29
10
32.616001
20
-90.146004
30
-30.384001
70
192
0
VERTEX
8
OBJECT__29
10
32.616001
20
-99.153999
30
-24.153999
70
192
0
VERTEX
8
OBJECT__29
10
32.616001
20
-100.109001
30
-22.910000
70
192
0
VERTEX
8
OBJECT__29
10
32.616001
20
-104.583000
30
-17.080000
70
192
0
VERTEX
8
OBJECT__29
10
0.000000
20
-107.649002
30
-12.648000
70
192
0
VERTEX
8
OBJECT__29
10
32.616001
20
-107.995003
30
-8.841000
70
192
0
VERTEX
8
OBJECT__29
10
32.616001
20
-106.591003
30
-12.231000
70
192
0
VERTEX
8
OBJECT__29
10
0
20
0
30
0
70
128
71
1
72
2
73
3
0
VERTEX
8
OBJECT__29
10
0
20
0
30
0
70
128
71
3
72
4
73
1
0
VERTEX
8
OBJECT__29
10
0
20
0
30
0
70
128
71
5
72
4
73
6
0
VERTEX
8
OBJECT__29
10
0
20
0
30
0
70
128
71
4
72
7
73
6
0
VERTEX
8
OBJECT__29
10
0
20
0
30
0
70
128
71
5
72
8
73
9
0
VERTEX
8
OBJECT__29
10
0
20
0
30
0
70
128
71
9
72
10
73
5
0
VERTEX
8
OBJECT__29
10
0
20
0
30
0
70
128
71
5
72
11
73
8
0
VERTEX
8
OBJECT__29
10
0
20
0
30
0
70
128
71
10
72
12
73
13
0
VERTEX
8
OBJECT__29
10
0
20
0
30
0
70
128
71
13
72
14
73
10
0
VERTEX
8
OBJECT__29
10
0
20
0
30
0
70
128
71
15
72
14
73
16
0
VERTEX
8
OBJECT__29
10
0
20
0
30
0
70
128
71
14
72
17
73
16
0
VERTEX
8
OBJECT__29
10
0
20
0
30
0
70
128
71
16
72
18
73
15
0
VERTEX
8
OBJECT__29
10
0
20
0
30
0
70
128
71
15
72
19
73
20
0
VERTEX
8
OBJECT__29
10
0
20
0
30
0
70
128
71
20
72
21
73
15
0
VERTEX
8
OBJECT__29
10
0
20
0
30
0
70
128
71
22
72
21
73
23
0
VERTEX
8
OBJECT__29
10
0
20
0
30
0
70
128
71
21
72
24
73
23
0
VERTEX
8
OBJECT__29
10
0
20
0
30
0
70
128
71
22
72
25
73
26
0
VERTEX
8
OBJECT__29
10
0
20
0
30
0
70
128
71
26
72
27
73
22
0
VERTEX
8
OBJECT__29
10
0
20
0
30
0
70
128
71
22
72
28
73
25
0
VERTEX
8
OBJECT__29
10
0
20
0
30
0
70
128
71
29
72
30
73
31
0
VERTEX
8
OBJECT__29
10
0
20
0
30
0
70
128
71
27
72
32
73
31
0
VERTEX
8
OBJECT__29
10
0
20
0
30
0
70
128
71
31
72
30
73
27
0
VERTEX
8
OBJECT__29
10
0
20
0
30
0
70
128
71
33
72
29
73
34
0
VERTEX
8
OBJECT__29
10
0
20
0
30
0
70
128
71
29
72
35
73
34
0
VERTEX
8
OBJECT__29
10
0
20
0
30
0
70
128
71
34
72
36
73
33
0
VERTEX
8
OBJECT__29
10
0
20
0
30
0
70
128
71
33
72
37
73
38
0
VERTEX
8
OBJECT__29
10
0
20
0
30
0
70
128
71
38
72
39
73
33
0
VERTEX
8
OBJECT__29
10
0
20
0
30
0
70
128
71
40
72
39
73
41
0
VERTEX
8
OBJECT__29
10
0
20
0
30
0
70
128
71
39
72
42
73
41
0
VERTEX
8
OBJECT__29
10
0
20
0
30
0
70
128
71
40
72
43
73
44
0
VERTEX
8
OBJECT__29
10
0
20
0
30
0
70
128
71
44
72
45
73
40
0
VERTEX
8
OBJECT__29
10
0
20
0
30
0
70
128
71
40
72
46
73
43
0
VERTEX
8
OBJECT__29
10
0
20
0
30
0
70
128
71
47
72
45
73
48
0
VERTEX
8
OBJECT__29
10
0
20
0
30
0
70
128
71
45
72
49
73
48
0
VERTEX
8
OBJECT__29
10
0
20
0
30
0
70
128
71
50
72
47
73
51
0
VERTEX
8
OBJECT__29
10
0
20
0
30
0
70
128
71
47
72
52
73
51
0
VERTEX
8
OBJECT__29
10
0
20
0
30
0
70
128
71
51
72
53
73
50
0
VERTEX
8
OBJECT__29
10
0
20
0
30
0
70
128
71
50
72
54
73
55
0
VERTEX
8
OBJECT__29
10
0
20
0
30
0
70
128
71
55
72
56
73
50
0
VERTEX
8
OBJECT__29
10
0
20
0
30
0
70
128
71
1
72
56
73
57
0
VERTEX
8
OBJECT__29
10
0
20
0
30
0
70
128
71
56
72
58
73
57
0
VERTEX
8
OBJECT__29
10
0
20
0
30
0
70
128
71
57
72
2
73
1
0
VERTEX
8
OBJECT__29
10
0
20
0
30
0
70
128
71
55
72
58
73
56
0
VERTEX
8
OBJECT__29
10
0
20
0
30
0
70
128
71
53
72
54
73
50
0
VERTEX
8
OBJECT__29
10
0
20
0
30
0
70
128
71
48
72
52
73
47
0
VERTEX
8
OBJECT__29
10
0
20
0
30
0
70
128
71
44
72
49
73
45
0
VERTEX
8
OBJECT__29
10
0
20
0
30
0
70
128
71
41
72
46
73
40
0
VERTEX
8
OBJECT__29
10
0
20
0
30
0
70
128
71
38
72
42
73
39
0
VERTEX
8
OBJECT__29
10
0
20
0
30
0
70
128
71
36
72
37
73
33
0
VERTEX
8
OBJECT__29
10
0
20
0
30
0
70
128
71
31
72
35
73
29
0
VERTEX
8
OBJECT__29
10
0
20
0
30
0
70
128
71
26
72
32
73
27
0
VERTEX
8
OBJECT__29
10
0
20
0
30
0
70
128
71
23
72
28
73
22
0
VERTEX
8
OBJECT__29
10
0
20
0
30
0
70
128
71
20
72
24
73
21
0
VERTEX
8
OBJECT__29
10
0
20
0
30
0
70
128
71
18
72
19
73
15
0
VERTEX
8
OBJECT__29
10
0
20
0
30
0
70
128
71
13
72
17
73
14
0
VERTEX
8
OBJECT__29
10
0
20
0
30
0
70
128
71
9
72
12
73
10
0
VERTEX
8
OBJECT__29
10
0
20
0
30
0
70
128
71
6
72
11
73
5
0
VERTEX
8
OBJECT__29
10
0
20
0
30
0
70
128
71
3
72
7
73
4
0
SEQEND
8
OBJECT__29
0
POLYLINE
8
OBJECT__31
66
1
70
64
71
18
72
16
62
253
0
VERTEX
8
OBJECT__31
10
0.000000
20
-110.013000
30
0.000000
70
192
0
VERTEX
8
OBJECT__31
10
0.000000
20
-78.231003
30
-34.863998
70
192
0
VERTEX
8
OBJECT__31
10
0.000000
20
-90.607002
30
-31.343000
70
192
0
VERTEX
8
OBJECT__31
10
0.000000
20
-100.875000
30
23.587999
70
192
0
VERTEX
8
OBJECT__31
10
0.000000
20
-65.417999
30
33.676998
70
192
0
VERTEX
8
OBJECT__31
10
0.000000
20
-53.900002
30
27.941000
70
192
0
VERTEX
8
OBJECT__31
10
0.000000
20
-100.875000
30
-23.587999
70
192
0
VERTEX
8
OBJECT__31
10
0.000000
20
-53.900002
30
-27.941000
70
192
0
VERTEX
8
OBJECT__31
10
0.000000
20
-65.417999
30
-33.676998
70
192
0
VERTEX
8
OBJECT__31
10
0.000000
20
-45.230999
30
18.431999
70
192
0
VERTEX
8
OBJECT__31
10
0.000000
20
-90.607002
30
31.343000
70
192
0
VERTEX
8
OBJECT__31
10
0.000000
20
-78.231003
30
34.863998
70
192
0
VERTEX
8
OBJECT__31
10
0.000000
20
-40.583000
30
-6.434000
70
192
0
VERTEX
8
OBJECT__31
10
0.000000
20
-45.230999
30
-18.431999
70
192
0
VERTEX
8
OBJECT__31
10
0.000000
20
-40.583000
30
6.434000
70
192
0
VERTEX
8
OBJECT__31
10
0.000000
20
-107.649002
30
12.648000
70
192
0
VERTEX
8
OBJECT__31
10
0.000000
20
-39.987000
30
0.000000
70
192
0
VERTEX
8
OBJECT__31
10
0.000000
20
-107.649002
30
-12.648000
70
192
0
VERTEX
8
OBJECT__31
10
0
20
0
30
0
70
128
71
1
72
2
73
3
0
VERTEX
8
OBJECT__31
10
0
20
0
30
0
70
128
71
4
72
5
73
6
0
VERTEX
8
OBJECT__31
10
0
20
0
30
0
70
128
71
3
72
7
73
1
0
VERTEX
8
OBJECT__31
10
0
20
0
30
0
70
128
71
1
72
8
73
9
0
VERTEX
8
OBJECT__31
10
0
20
0
30
0
70
128
71
6
72
10
73
4
0
VERTEX
8
OBJECT__31
10
0
20
0
30
0
70
128
71
4
72
11
73
12
0
VERTEX
8
OBJECT__31
10
0
20
0
30
0
70
128
71
9
72
2
73
1
0
VERTEX
8
OBJECT__31
10
0
20
0
30
0
70
128
71
1
72
13
73
14
0
VERTEX
8
OBJECT__31
10
0
20
0
30
0
70
128
71
12
72
5
73
4
0
VERTEX
8
OBJECT__31
10
0
20
0
30
0
70
128
71
15
72
1
73
16
0
VERTEX
8
OBJECT__31
10
0
20
0
30
0
70
128
71
14
72
8
73
1
0
VERTEX
8
OBJECT__31
10
0
20
0
30
0
70
128
71
16
72
4
73
15
0
VERTEX
8
OBJECT__31
10
0
20
0
30
0
70
128
71
1
72
17
73
13
0
VERTEX
8
OBJECT__31
10
0
20
0
30
0
70
128
71
10
72
15
73
4
0
VERTEX
8
OBJECT__31
10
0
20
0
30
0
70
128
71
15
72
17
73
1
0
VERTEX
8
OBJECT__31
10
0
20
0
30
0
70
128
71
7
72
18
73
1
0
SEQEND
8
OBJECT__31
0
POLYLINE
8
OBJECT__32
66
1
70
64
71
10
72
8
62
253
0
VERTEX
8
OBJECT__32
10
83.820000
20
58.000000
30
-35.000000
70
192
0
VERTEX
8
OBJECT__32
10
71.620003
20
66.863998
30
-35.000000
70
192
0
VERTEX
8
OBJECT__32
10
77.379997
20
66.863998
30
-35.000000
70
192
0
VERTEX
8
OBJECT__32
10
65.180000
20
58.000000
30
-35.000000
70
192
0
VERTEX
8
OBJECT__32
10
77.379997
20
49.136002
30
-35.000000
70
192
0
VERTEX
8
OBJECT__32
10
71.620003
20
49.136002
30
-35.000000
70
192
0
VERTEX
8
OBJECT__32
10
66.959999
20
63.478001
30
-35.000000
70
192
0
VERTEX
8
OBJECT__32
10
66.959999
20
52.521999
30
-35.000000
70
192
0
VERTEX
8
OBJECT__32
10
82.040001
20
63.478001
30
-35.000000
70
192
0
VERTEX
8
OBJECT__32
10
82.040001
20
52.521999
30
-35.000000
70
192
0
VERTEX
8
OBJECT__32
10
0
20
0
30
0
70
128
71
1
72
2
73
3
0
VERTEX
8
OBJECT__32
10
0
20
0
30
0
70
128
71
4
72
5
73
6
0
VERTEX
8
OBJECT__32
10
0
20
0
30
0
70
128
71
1
72
7
73
2
0
VERTEX
8
OBJECT__32
10
0
20
0
30
0
70
128
71
6
72
8
73
4
0
VERTEX
8
OBJECT__32
10
0
20
0
30
0
70
128
71
3
72
9
73
1
0
VERTEX
8
OBJECT__32
10
0
20
0
30
0
70
128
71
7
72
10
73
5
0
VERTEX
8
OBJECT__32
10
0
20
0
30
0
70
128
71
4
72
7
73
5
0
VERTEX
8
OBJECT__32
10
0
20
0
30
0
70
128
71
1
72
10
73
7
0
SEQEND
8
OBJECT__32
0
POLYLINE
8
OBJECT__33
66
1
70
64
71
20
72
20
62
253
0
VERTEX
8
OBJECT__33
10
84.980003
20
58.000000
30
-33.840000
70
192
0
VERTEX
8
OBJECT__33
10
83.820000
20
58.000000
30
-35.000000
70
192
0
VERTEX
8
OBJECT__33
10
82.040001
20
63.478001
30
-35.000000
70
192
0
VERTEX
8
OBJECT__33
10
82.978996
20
64.160004
30
-33.840000
70
192
0
VERTEX
8
OBJECT__33
10
77.379997
20
66.863998
30
-35.000000
70
192
0
VERTEX
8
OBJECT__33
10
77.738998
20
67.967003
30
-33.840000
70
192
0
VERTEX
8
OBJECT__33
10
71.620003
20
66.863998
30
-35.000000
70
192
0
VERTEX
8
OBJECT__33
10
71.262001
20
67.967003
30
-33.840000
70
192
0
VERTEX
8
OBJECT__33
10
66.959999
20
63.478001
30
-35.000000
70
192
0
VERTEX
8
OBJECT__33
10
64.019997
20
58.000000
30
-33.840000
70
192
0
VERTEX
8
OBJECT__33
10
66.022003
20
64.160004
30
-33.840000
70
192
0
VERTEX
8
OBJECT__33
10
65.180000
20
58.000000
30
-35.000000
70
192
0
VERTEX
8
OBJECT__33
10
66.959999
20
52.521999
30
-35.000000
70
192
0
VERTEX
8
OBJECT__33
10
66.022003
20
51.840000
30
-33.840000
70
192
0
VERTEX
8
OBJECT__33
10
71.620003
20
49.136002
30
-35.000000
70
192
0
VERTEX
8
OBJECT__33
10
71.262001
20
48.033001
30
-33.840000
70
192
0
VERTEX
8
OBJECT__33
10
77.379997
20
49.136002
30
-35.000000
70
192
0
VERTEX
8
OBJECT__33
10
77.738998
20
48.033001
30
-33.840000
70
192
0
VERTEX
8
OBJECT__33
10
82.040001
20
52.521999
30
-35.000000
70
192
0
VERTEX
8
OBJECT__33
10
82.978996
20
51.840000
30
-33.840000
70
192
0
VERTEX
8
OBJECT__33
10
0
20
0
30
0
70
128
71
1
72
2
73
3
0
VERTEX
8
OBJECT__33
10
0
20
0
30
0
70
128
71
4
72
3
73
5
0
VERTEX
8
OBJECT__33
10
0
20
0
30
0
70
128
71
6
72
5
73
7
0
VERTEX
8
OBJECT__33
10
0
20
0
30
0
70
128
71
8
72
7
73
9
0
VERTEX
8
OBJECT__33
10
0
20
0
30
0
70
128
71
10
72
11
73
9
0
VERTEX
8
OBJECT__33
10
0
20
0
30
0
70
128
71
10
72
12
73
13
0
VERTEX
8
OBJECT__33
10
0
20
0
30
0
70
128
71
14
72
13
73
15
0
VERTEX
8
OBJECT__33
10
0
20
0
30
0
70
128
71
16
72
15
73
17
0
VERTEX
8
OBJECT__33
10
0
20
0
30
0
70
128
71
18
72
17
73
19
0
VERTEX
8
OBJECT__33
10
0
20
0
30
0
70
128
71
1
72
20
73
19
0
VERTEX
8
OBJECT__33
10
0
20
0
30
0
70
128
71
19
72
2
73
1
0
VERTEX
8
OBJECT__33
10
0
20
0
30
0
70
128
71
19
72
20
73
18
0
VERTEX
8
OBJECT__33
10
0
20
0
30
0
70
128
71
17
72
18
73
16
0
VERTEX
8
OBJECT__33
10
0
20
0
30
0
70
128
71
15
72
16
73
14
0
VERTEX
8
OBJECT__33
10
0
20
0
30
0
70
128
71
13
72
14
73
10
0
VERTEX
8
OBJECT__33
10
0
20
0
30
0
70
128
71
9
72
12
73
10
0
VERTEX
8
OBJECT__33
10
0
20
0
30
0
70
128
71
9
72
11
73
8
0
VERTEX
8
OBJECT__33
10
0
20
0
30
0
70
128
71
7
72
8
73
6
0
VERTEX
8
OBJECT__33
10
0
20
0
30
0
70
128
71
5
72
6
73
4
0
VERTEX
8
OBJECT__33
10
0
20
0
30
0
70
128
71
3
72
4
73
1
0
SEQEND
8
OBJECT__33
0
POLYLINE
8
OBJECT__35
66
1
70
64
71
20
72
20
62
253
0
VERTEX
8
OBJECT__35
10
66.022003
20
64.160004
30
-28.264999
70
192
0
VERTEX
8
OBJECT__35
10
66.022003
20
64.160004
30
-33.840000
70
192
0
VERTEX
8
OBJECT__35
10
64.019997
20
58.000000
30
-33.840000
70
192
0
VERTEX
8
OBJECT__35
10
71.262001
20
67.967003
30
-28.264999
70
192
0
VERTEX
8
OBJECT__35
10
71.262001
20
67.967003
30
-33.840000
70
192
0
VERTEX
8
OBJECT__35
10
77.738998
20
67.967003
30
-28.264999
70
192
0
VERTEX
8
OBJECT__35
10
77.738998
20
67.967003
30
-33.840000
70
192
0
VERTEX
8
OBJECT__35
10
82.978996
20
64.160004
30
-28.264999
70
192
0
VERTEX
8
OBJECT__35
10
82.978996
20
64.160004
30
-33.840000
70
192
0
VERTEX
8
OBJECT__35
10
84.980003
20
58.000000
30
-28.264999
70
192
0
VERTEX
8
OBJECT__35
10
84.980003
20
58.000000
30
-33.840000
70
192
0
VERTEX
8
OBJECT__35
10
82.978996
20
51.840000
30
-28.264999
70
192
0
VERTEX
8
OBJECT__35
10
82.978996
20
51.840000
30
-33.840000
70
192
0
VERTEX
8
OBJECT__35
10
77.738998
20
48.033001
30
-28.264999
70
192
0
VERTEX
8
OBJECT__35
10
77.738998
20
48.033001
30
-33.840000
70
192
0
VERTEX
8
OBJECT__35
10
71.262001
20
48.033001
30
-28.264999
70
192
0
VERTEX
8
OBJECT__35
10
71.262001
20
48.033001
30
-33.840000
70
192
0
VERTEX
8
OBJECT__35
10
66.022003
20
51.840000
30
-28.264999
70
192
0
VERTEX
8
OBJECT__35
10
66.022003
20
51.840000
30
-33.840000
70
192
0
VERTEX
8
OBJECT__35
10
64.019997
20
58.000000
30
-28.264999
70
192
0
VERTEX
8
OBJECT__35
10
0
20
0
30
0
70
128
71
1
72
2
73
3
0
VERTEX
8
OBJECT__35
10
0
20
0
30
0
70
128
71
4
72
5
73
2
0
VERTEX
8
OBJECT__35
10
0
20
0
30
0
70
128
71
6
72
7
73
5
0
VERTEX
8
OBJECT__35
10
0
20
0
30
0
70
128
71
8
72
9
73
7
0
VERTEX
8
OBJECT__35
10
0
20
0
30
0
70
128
71
10
72
11
73
9
0
VERTEX
8
OBJECT__35
10
0
20
0
30
0
70
128
71
12
72
13
73
11
0
VERTEX
8
OBJECT__35
10
0
20
0
30
0
70
128
71
14
72
15
73
13
0
VERTEX
8
OBJECT__35
10
0
20
0
30
0
70
128
71
16
72
17
73
15
0
VERTEX
8
OBJECT__35
10
0
20
0
30
0
70
128
71
18
72
19
73
17
0
VERTEX
8
OBJECT__35
10
0
20
0
30
0
70
128
71
20
72
3
73
19
0
VERTEX
8
OBJECT__35
10
0
20
0
30
0
70
128
71
19
72
18
73
20
0
VERTEX
8
OBJECT__35
10
0
20
0
30
0
70
128
71
17
72
16
73
18
0
VERTEX
8
OBJECT__35
10
0
20
0
30
0
70
128
71
15
72
14
73
16
0
VERTEX
8
OBJECT__35
10
0
20
0
30
0
70
128
71
13
72
12
73
14
0
VERTEX
8
OBJECT__35
10
0
20
0
30
0
70
128
71
11
72
10
73
12
0
VERTEX
8
OBJECT__35
10
0
20
0
30
0
70
128
71
9
72
8
73
10
0
VERTEX
8
OBJECT__35
10
0
20
0
30
0
70
128
71
7
72
6
73
8
0
VERTEX
8
OBJECT__35
10
0
20
0
30
0
70
128
71
5
72
4
73
6
0
VERTEX
8
OBJECT__35
10
0
20
0
30
0
70
128
71
2
72
1
73
4
0
VERTEX
8
OBJECT__35
10
0
20
0
30
0
70
128
71
3
72
20
73
1
0
SEQEND
8
OBJECT__35
0
POLYLINE
8
OBJECT__36
66
1
70
64
71
28
72
28
62
253
0
VERTEX
8
OBJECT__36
10
64.019997
20
58.000000
30
-28.264999
70
192
0
VERTEX
8
OBJECT__36
10
65.184998
20
58.000000
30
-27.100000
70
192
0
VERTEX
8
OBJECT__36
10
66.963997
20
63.474998
30
-27.100000
70
192
0
VERTEX
8
OBJECT__36
10
71.262001
20
67.967003
30
-28.264999
70
192
0
VERTEX
8
OBJECT__36
10
66.022003
20
64.160004
30
-28.264999
70
192
0
VERTEX
8
OBJECT__36
10
67.470001
20
63.842999
30
-27.100000
70
192
0
VERTEX
8
OBJECT__36
10
77.738998
20
67.967003
30
-28.264999
70
192
0
VERTEX
8
OBJECT__36
10
72.883003
20
66.859001
30
-27.100000
70
192
0
VERTEX
8
OBJECT__36
10
71.622002
20
66.859001
30
-27.100000
70
192
0
VERTEX
8
OBJECT__36
10
82.978996
20
64.160004
30
-28.264999
70
192
0
VERTEX
8
OBJECT__36
10
78.919998
20
65.738998
30
-27.100000
70
192
0
VERTEX
8
OBJECT__36
10
77.378998
20
66.859001
30
-27.100000
70
192
0
VERTEX
8
OBJECT__36
10
84.980003
20
58.000000
30
-28.264999
70
192
0
VERTEX
8
OBJECT__36
10
82.824997
20
61.047001
30
-27.100000
70
192
0
VERTEX
8
OBJECT__36
10
82.036003
20
63.474998
30
-27.100000
70
192
0
VERTEX
8
OBJECT__36
10
83.815002
20
58.000000
30
-27.100000
70
192
0
VERTEX
8
OBJECT__36
10
82.824997
20
54.952999
30
-27.100000
70
192
0
VERTEX
8
OBJECT__36
10
82.978996
20
51.840000
30
-28.264999
70
192
0
VERTEX
8
OBJECT__36
10
82.036003
20
52.525002
30
-27.100000
70
192
0
VERTEX
8
OBJECT__36
10
78.919998
20
50.261002
30
-27.100000
70
192
0
VERTEX
8
OBJECT__36
10
77.738998
20
48.033001
30
-28.264999
70
192
0
VERTEX
8
OBJECT__36
10
77.378998
20
49.140999
30
-27.100000
70
192
0
VERTEX
8
OBJECT__36
10
72.883003
20
49.140999
30
-27.100000
70
192
0
VERTEX
8
OBJECT__36
10
71.262001
20
48.033001
30
-28.264999
70
192
0
VERTEX
8
OBJECT__36
10
71.622002
20
49.140999
30
-27.100000
70
192
0
VERTEX
8
OBJECT__36
10
67.470001
20
52.157001
30
-27.100000
70
192
0
VERTEX
8
OBJECT__36
10
66.022003
20
51.840000
30
-28.264999
70
192
0
VERTEX
8
OBJECT__36
10
66.963997
20
52.525002
30
-27.100000
70
192
0
VERTEX
8
OBJECT__36
10
0
20
0
30
0
70
128
71
1
72
2
73
3
0
VERTEX
8
OBJECT__36
10
0
20
0
30
0
70
128
71
4
72
5
73
6
0
VERTEX
8
OBJECT__36
10
0
20
0
30
0
70
128
71
5
72
3
73
6
0
VERTEX
8
OBJECT__36
10
0
20
0
30
0
70
128
71
7
72
4
73
8
0
VERTEX
8
OBJECT__36
10
0
20
0
30
0
70
128
71
4
72
9
73
8
0
VERTEX
8
OBJECT__36
10
0
20
0
30
0
70
128
71
10
72
7
73
11
0
VERTEX
8
OBJECT__36
10
0
20
0
30
0
70
128
71
7
72
12
73
11
0
VERTEX
8
OBJECT__36
10
0
20
0
30
0
70
128
71
13
72
10
73
14
0
VERTEX
8
OBJECT__36
10
0
20
0
30
0
70
128
71
10
72
15
73
14
0
VERTEX
8
OBJECT__36
10
0
20
0
30
0
70
128
71
13
72
16
73
17
0
VERTEX
8
OBJECT__36
10
0
20
0
30
0
70
128
71
17
72
18
73
13
0
VERTEX
8
OBJECT__36
10
0
20
0
30
0
70
128
71
18
72
19
73
20
0
VERTEX
8
OBJECT__36
10
0
20
0
30
0
70
128
71
20
72
21
73
18
0
VERTEX
8
OBJECT__36
10
0
20
0
30
0
70
128
71
21
72
22
73
23
0
VERTEX
8
OBJECT__36
10
0
20
0
30
0
70
128
71
23
72
24
73
21
0
VERTEX
8
OBJECT__36
10
0
20
0
30
0
70
128
71
24
72
25
73
26
0
VERTEX
8
OBJECT__36
10
0
20
0
30
0
70
128
71
26
72
27
73
24
0
VERTEX
8
OBJECT__36
10
0
20
0
30
0
70
128
71
1
72
27
73
28
0
VERTEX
8
OBJECT__36
10
0
20
0
30
0
70
128
71
28
72
2
73
1
0
VERTEX
8
OBJECT__36
10
0
20
0
30
0
70
128
71
26
72
28
73
27
0
VERTEX
8
OBJECT__36
10
0
20
0
30
0
70
128
71
23
72
25
73
24
0
VERTEX
8
OBJECT__36
10
0
20
0
30
0
70
128
71
20
72
22
73
21
0
VERTEX
8
OBJECT__36
10
0
20
0
30
0
70
128
71
17
72
19
73
18
0
VERTEX
8
OBJECT__36
10
0
20
0
30
0
70
128
71
14
72
16
73
13
0
VERTEX
8
OBJECT__36
10
0
20
0
30
0
70
128
71
11
72
15
73
10
0
VERTEX
8
OBJECT__36
10
0
20
0
30
0
70
128
71
8
72
12
73
7
0
VERTEX
8
OBJECT__36
10
0
20
0
30
0
70
128
71
6
72
9
73
4
0
VERTEX
8
OBJECT__36
10
0
20
0
30
0
70
128
71
3
72
5
73
1
0
SEQEND
8
OBJECT__36
0
POLYLINE
8
OBJECT__37
66
1
70
64
71
27
72
27
62
253
0
VERTEX
8
OBJECT__37
10
65.184998
20
58.000000
30
-25.000000
70
192
0
VERTEX
8
OBJECT__37
10
67.364998
20
63.987999
30
-25.000000
70
192
0
VERTEX
8
OBJECT__37
10
66.963997
20
63.474998
30
-27.100000
70
192
0
VERTEX
8
OBJECT__37
10
67.470001
20
63.842999
30
-27.100000
70
192
0
VERTEX
8
OBJECT__37
10
72.883003
20
67.172997
30
-25.000000
70
192
0
VERTEX
8
OBJECT__37
10
71.622002
20
66.859001
30
-27.100000
70
192
0
VERTEX
8
OBJECT__37
10
72.883003
20
66.859001
30
-27.100000
70
192
0
VERTEX
8
OBJECT__37
10
79.157997
20
66.067001
30
-25.000000
70
192
0
VERTEX
8
OBJECT__37
10
77.378998
20
66.859001
30
-27.100000
70
192
0
VERTEX
8
OBJECT__37
10
78.919998
20
65.738998
30
-27.100000
70
192
0
VERTEX
8
OBJECT__37
10
83.253998
20
61.186001
30
-25.000000
70
192
0
VERTEX
8
OBJECT__37
10
82.036003
20
63.474998
30
-27.100000
70
192
0
VERTEX
8
OBJECT__37
10
82.824997
20
61.047001
30
-27.100000
70
192
0
VERTEX
8
OBJECT__37
10
83.253998
20
54.813999
30
-25.000000
70
192
0
VERTEX
8
OBJECT__37
10
83.815002
20
58.000000
30
-27.100000
70
192
0
VERTEX
8
OBJECT__37
10
82.824997
20
54.952999
30
-27.100000
70
192
0
VERTEX
8
OBJECT__37
10
79.157997
20
49.932999
30
-25.000000
70
192
0
VERTEX
8
OBJECT__37
10
78.919998
20
50.261002
30
-27.100000
70
192
0
VERTEX
8
OBJECT__37
10
82.036003
20
52.525002
30
-27.100000
70
192
0
VERTEX
8
OBJECT__37
10
72.883003
20
48.827000
30
-25.000000
70
192
0
VERTEX
8
OBJECT__37
10
72.883003
20
49.140999
30
-27.100000
70
192
0
VERTEX
8
OBJECT__37
10
77.378998
20
49.140999
30
-27.100000
70
192
0
VERTEX
8
OBJECT__37
10
67.364998
20
52.012001
30
-25.000000
70
192
0
VERTEX
8
OBJECT__37
10
67.470001
20
52.157001
30
-27.100000
70
192
0
VERTEX
8
OBJECT__37
10
71.622002
20
49.140999
30
-27.100000
70
192
0
VERTEX
8
OBJECT__37
10
65.184998
20
58.000000
30
-27.100000
70
192
0
VERTEX
8
OBJECT__37
10
66.963997
20
52.525002
30
-27.100000
70
192
0
VERTEX
8
OBJECT__37
10
0
20
0
30
0
70
128
71
1
72
2
73
3
0
VERTEX
8
OBJECT__37
10
0
20
0
30
0
70
128
71
2
72
4
73
3
0
VERTEX
8
OBJECT__37
10
0
20
0
30
0
70
128
71
2
72
5
73
6
0
VERTEX
8
OBJECT__37
10
0
20
0
30
0
70
128
71
5
72
7
73
6
0
VERTEX
8
OBJECT__37
10
0
20
0
30
0
70
128
71
5
72
8
73
9
0
VERTEX
8
OBJECT__37
10
0
20
0
30
0
70
128
71
8
72
10
73
9
0
VERTEX
8
OBJECT__37
10
0
20
0
30
0
70
128
71
8
72
11
73
12
0
VERTEX
8
OBJECT__37
10
0
20
0
30
0
70
128
71
11
72
13
73
12
0
VERTEX
8
OBJECT__37
10
0
20
0
30
0
70
128
71
11
72
14
73
15
0
VERTEX
8
OBJECT__37
10
0
20
0
30
0
70
128
71
14
72
16
73
15
0
VERTEX
8
OBJECT__37
10
0
20
0
30
0
70
128
71
17
72
18
73
19
0
VERTEX
8
OBJECT__37
10
0
20
0
30
0
70
128
71
19
72
14
73
17
0
VERTEX
8
OBJECT__37
10
0
20
0
30
0
70
128
71
20
72
21
73
22
0
VERTEX
8
OBJECT__37
10
0
20
0
30
0
70
128
71
22
72
17
73
20
0
VERTEX
8
OBJECT__37
10
0
20
0
30
0
70
128
71
23
72
24
73
25
0
VERTEX
8
OBJECT__37
10
0
20
0
30
0
70
128
71
25
72
20
73
23
0
VERTEX
8
OBJECT__37
10
0
20
0
30
0
70
128
71
1
72
26
73
27
0
VERTEX
8
OBJECT__37
10
0
20
0
30
0
70
128
71
27
72
23
73
1
0
VERTEX
8
OBJECT__37
10
0
20
0
30
0
70
128
71
27
72
24
73
23
0
VERTEX
8
OBJECT__37
10
0
20
0
30
0
70
128
71
25
72
21
73
20
0
VERTEX
8
OBJECT__37
10
0
20
0
30
0
70
128
71
22
72
18
73
17
0
VERTEX
8
OBJECT__37
10
0
20
0
30
0
70
128
71
19
72
16
73
14
0
VERTEX
8
OBJECT__37
10
0
20
0
30
0
70
128
71
15
72
13
73
11
0
VERTEX
8
OBJECT__37
10
0
20
0
30
0
70
128
71
12
72
10
73
8
0
VERTEX
8
OBJECT__37
10
0
20
0
30
0
70
128
71
9
72
7
73
5
0
VERTEX
8
OBJECT__37
10
0
20
0
30
0
70
128
71
6
72
4
73
2
0
VERTEX
8
OBJECT__37
10
0
20
0
30
0
70
128
71
3
72
26
73
1
0
SEQEND
8
OBJECT__37
0
POLYLINE
8
OBJECT__38
66
1
70
64
71
19
72
19
62
253
0
VERTEX
8
OBJECT__38
10
87.000000
20
58.000000
30
-25.000000
70
192
0
VERTEX
8
OBJECT__38
10
83.253998
20
54.813999
30
-25.000000
70
192
0
VERTEX
8
OBJECT__38
10
83.253998
20
61.186001
30
-25.000000
70
192
0
VERTEX
8
OBJECT__38
10
70.638000
20
46.112000
30
-25.000000
70
192
0
VERTEX
8
OBJECT__38
10
64.388000
20
50.653000
30
-25.000000
70
192
0
VERTEX
8
OBJECT__38
10
67.364998
20
52.012001
30
-25.000000
70
192
0
VERTEX
8
OBJECT__38
10
62.000000
20
58.000000
30
-25.000000
70
192
0
VERTEX
8
OBJECT__38
10
65.184998
20
58.000000
30
-25.000000
70
192
0
VERTEX
8
OBJECT__38
10
70.638000
20
69.888000
30
-25.000000
70
192
0
VERTEX
8
OBJECT__38
10
72.883003
20
67.172997
30
-25.000000
70
192
0
VERTEX
8
OBJECT__38
10
67.364998
20
63.987999
30
-25.000000
70
192
0
VERTEX
8
OBJECT__38
10
78.362999
20
69.888000
30
-25.000000
70
192
0
VERTEX
8
OBJECT__38
10
79.157997
20
66.067001
30
-25.000000
70
192
0
VERTEX
8
OBJECT__38
10
84.612999
20
65.347000
30
-25.000000
70
192
0
VERTEX
8
OBJECT__38
10
84.612999
20
50.653000
30
-25.000000
70
192
0
VERTEX
8
OBJECT__38
10
78.362999
20
46.112000
30
-25.000000
70
192
0
VERTEX
8
OBJECT__38
10
72.883003
20
48.827000
30
-25.000000
70
192
0
VERTEX
8
OBJECT__38
10
79.157997
20
49.932999
30
-25.000000
70
192
0
VERTEX
8
OBJECT__38
10
64.388000
20
65.347000
30
-25.000000
70
192
0
VERTEX
8
OBJECT__38
10
0
20
0
30
0
70
128
71
1
72
2
73
3
0
VERTEX
8
OBJECT__38
10
0
20
0
30
0
70
128
71
4
72
5
73
6
0
VERTEX
8
OBJECT__38
10
0
20
0
30
0
70
128
71
5
72
7
73
8
0
VERTEX
8
OBJECT__38
10
0
20
0
30
0
70
128
71
9
72
10
73
11
0
VERTEX
8
OBJECT__38
10
0
20
0
30
0
70
128
71
12
72
13
73
10
0
VERTEX
8
OBJECT__38
10
0
20
0
30
0
70
128
71
14
72
3
73
13
0
VERTEX
8
OBJECT__38
10
0
20
0
30
0
70
128
71
1
72
15
73
2
0
VERTEX
8
OBJECT__38
10
0
20
0
30
0
70
128
71
16
72
4
73
17
0
VERTEX
8
OBJECT__38
10
0
20
0
30
0
70
128
71
8
72
6
73
5
0
VERTEX
8
OBJECT__38
10
0
20
0
30
0
70
128
71
10
72
9
73
12
0
VERTEX
8
OBJECT__38
10
0
20
0
30
0
70
128
71
3
72
14
73
1
0
VERTEX
8
OBJECT__38
10
0
20
0
30
0
70
128
71
15
72
16
73
18
0
VERTEX
8
OBJECT__38
10
0
20
0
30
0
70
128
71
6
72
17
73
4
0
VERTEX
8
OBJECT__38
10
0
20
0
30
0
70
128
71
13
72
12
73
14
0
VERTEX
8
OBJECT__38
10
0
20
0
30
0
70
128
71
17
72
18
73
16
0
VERTEX
8
OBJECT__38
10
0
20
0
30
0
70
128
71
19
72
11
73
8
0
VERTEX
8
OBJECT__38
10
0
20
0
30
0
70
128
71
18
72
2
73
15
0
VERTEX
8
OBJECT__38
10
0
20
0
30
0
70
128
71
11
72
19
73
9
0
VERTEX
8
OBJECT__38
10
0
20
0
30
0
70
128
71
8
72
7
73
19
0
SEQEND
8
OBJECT__38
0
POLYLINE
8
OBJECT__39
66
1
70
64
71
20
72
20
62
253
0
VERTEX
8
OBJECT__39
10
64.388000
20
65.347000
30
-22.500000
70
192
0
VERTEX
8
OBJECT__39
10
64.388000
20
65.347000
30
-25.000000
70
192
0
VERTEX
8
OBJECT__39
10
62.000000
20
58.000000
30
-25.000000
70
192
0
VERTEX
8
OBJECT__39
10
70.638000
20
69.888000
30
-22.500000
70
192
0
VERTEX
8
OBJECT__39
10
70.638000
20
69.888000
30
-25.000000
70
192
0
VERTEX
8
OBJECT__39
10
78.362999
20
69.888000
30
-22.500000
70
192
0
VERTEX
8
OBJECT__39
10
78.362999
20
69.888000
30
-25.000000
70
192
0
VERTEX
8
OBJECT__39
10
84.612999
20
65.347000
30
-22.500000
70
192
0
VERTEX
8
OBJECT__39
10
84.612999
20
65.347000
30
-25.000000
70
192
0
VERTEX
8
OBJECT__39
10
87.000000
20
58.000000
30
-22.500000
70
192
0
VERTEX
8
OBJECT__39
10
87.000000
20
58.000000
30
-25.000000
70
192
0
VERTEX
8
OBJECT__39
10
84.612999
20
50.653000
30
-22.500000
70
192
0
VERTEX
8
OBJECT__39
10
84.612999
20
50.653000
30
-25.000000
70
192
0
VERTEX
8
OBJECT__39
10
78.362999
20
46.112000
30
-22.500000
70
192
0
VERTEX
8
OBJECT__39
10
78.362999
20
46.112000
30
-25.000000
70
192
0
VERTEX
8
OBJECT__39
10
70.638000
20
46.112000
30
-22.500000
70
192
0
VERTEX
8
OBJECT__39
10
70.638000
20
46.112000
30
-25.000000
70
192
0
VERTEX
8
OBJECT__39
10
64.388000
20
50.653000
30
-22.500000
70
192
0
VERTEX
8
OBJECT__39
10
64.388000
20
50.653000
30
-25.000000
70
192
0
VERTEX
8
OBJECT__39
10
62.000000
20
58.000000
30
-22.500000
70
192
0
VERTEX
8
OBJECT__39
10
0
20
0
30
0
70
128
71
1
72
2
73
3
0
VERTEX
8
OBJECT__39
10
0
20
0
30
0
70
128
71
4
72
5
73
2
0
VERTEX
8
OBJECT__39
10
0
20
0
30
0
70
128
71
6
72
7
73
5
0
VERTEX
8
OBJECT__39
10
0
20
0
30
0
70
128
71
8
72
9
73
7
0
VERTEX
8
OBJECT__39
10
0
20
0
30
0
70
128
71
10
72
11
73
9
0
VERTEX
8
OBJECT__39
10
0
20
0
30
0
70
128
71
12
72
13
73
11
0
VERTEX
8
OBJECT__39
10
0
20
0
30
0
70
128
71
14
72
15
73
13
0
VERTEX
8
OBJECT__39
10
0
20
0
30
0
70
128
71
16
72
17
73
15
0
VERTEX
8
OBJECT__39
10
0
20
0
30
0
70
128
71
18
72
19
73
17
0
VERTEX
8
OBJECT__39
10
0
20
0
30
0
70
128
71
20
72
3
73
19
0
VERTEX
8
OBJECT__39
10
0
20
0
30
0
70
128
71
19
72
18
73
20
0
VERTEX
8
OBJECT__39
10
0
20
0
30
0
70
128
71
17
72
16
73
18
0
VERTEX
8
OBJECT__39
10
0
20
0
30
0
70
128
71
15
72
14
73
16
0
VERTEX
8
OBJECT__39
10
0
20
0
30
0
70
128
71
13
72
12
73
14
0
VERTEX
8
OBJECT__39
10
0
20
0
30
0
70
128
71
11
72
10
73
12
0
VERTEX
8
OBJECT__39
10
0
20
0
30
0
70
128
71
9
72
8
73
10
0
VERTEX
8
OBJECT__39
10
0
20
0
30
0
70
128
71
7
72
6
73
8
0
VERTEX
8
OBJECT__39
10
0
20
0
30
0
70
128
71
5
72
4
73
6
0
VERTEX
8
OBJECT__39
10
0
20
0
30
0
70
128
71
2
72
1
73
4
0
VERTEX
8
OBJECT__39
10
0
20
0
30
0
70
128
71
3
72
20
73
1
0
SEQEND
8
OBJECT__39
0
POLYLINE
8
OBJECT__40
66
1
70
64
71
42
72
42
62
253
0
VERTEX
8
OBJECT__40
10
59.299999
20
58.000000
30
56.650002
70
192
0
VERTEX
8
OBJECT__40
10
60.457001
20
63.817001
30
56.650002
70
192
0
VERTEX
8
OBJECT__40
10
60.641998
20
63.740002
30
56.450001
70
192
0
VERTEX
8
OBJECT__40
10
63.894001
20
68.607002
30
56.450001
70
192
0
VERTEX
8
OBJECT__40
10
61.953999
20
66.056999
30
56.650002
70
192
0
VERTEX
8
OBJECT__40
10
63.751999
20
68.748001
30
56.650002
70
192
0
VERTEX
8
OBJECT__40
10
68.239998
20
71.746002
30
56.650002
70
192
0
VERTEX
8
OBJECT__40
10
68.760002
20
71.858002
30
56.450001
70
192
0
VERTEX
8
OBJECT__40
10
74.500000
20
73.199997
30
56.650002
70
192
0
VERTEX
8
OBJECT__40
10
74.500000
20
73.000000
30
56.450001
70
192
0
VERTEX
8
OBJECT__40
10
80.240997
20
71.858002
30
56.450001
70
192
0
VERTEX
8
OBJECT__40
10
76.611000
20
72.779999
30
56.650002
70
192
0
VERTEX
8
OBJECT__40
10
80.317001
20
72.042999
30
56.650002
70
192
0
VERTEX
8
OBJECT__40
10
84.358002
20
69.343002
30
56.650002
70
192
0
VERTEX
8
OBJECT__40
10
85.107002
20
68.607002
30
56.450001
70
192
0
VERTEX
8
OBJECT__40
10
88.542999
20
63.817001
30
56.650002
70
192
0
VERTEX
8
OBJECT__40
10
88.359001
20
63.740002
30
56.450001
70
192
0
VERTEX
8
OBJECT__40
10
89.500000
20
58.000000
30
56.450001
70
192
0
VERTEX
8
OBJECT__40
10
88.858002
20
62.237000
30
56.650002
70
192
0
VERTEX
8
OBJECT__40
10
89.699997
20
58.000000
30
56.650002
70
192
0
VERTEX
8
OBJECT__40
10
88.858002
20
53.763000
30
56.650002
70
192
0
VERTEX
8
OBJECT__40
10
88.359001
20
52.259998
30
56.450001
70
192
0
VERTEX
8
OBJECT__40
10
85.248001
20
47.251999
30
56.650002
70
192
0
VERTEX
8
OBJECT__40
10
85.107002
20
47.393002
30
56.450001
70
192
0
VERTEX
8
OBJECT__40
10
80.240997
20
44.141998
30
56.450001
70
192
0
VERTEX
8
OBJECT__40
10
84.358002
20
46.657001
30
56.650002
70
192
0
VERTEX
8
OBJECT__40
10
80.317001
20
43.957001
30
56.650002
70
192
0
VERTEX
8
OBJECT__40
10
76.611000
20
43.220001
30
56.650002
70
192
0
VERTEX
8
OBJECT__40
10
74.500000
20
43.000000
30
56.450001
70
192
0
VERTEX
8
OBJECT__40
10
74.500000
20
42.799999
30
56.650002
70
192
0
VERTEX
8
OBJECT__40
10
68.683998
20
43.957001
30
56.650002
70
192
0
VERTEX
8
OBJECT__40
10
68.760002
20
44.141998
30
56.450001
70
192
0
VERTEX
8
OBJECT__40
10
63.894001
20
47.393002
30
56.450001
70
192
0
VERTEX
8
OBJECT__40
10
68.239998
20
44.254002
30
56.650002
70
192
0
VERTEX
8
OBJECT__40
10
63.751999
20
47.251999
30
56.650002
70
192
0
VERTEX
8
OBJECT__40
10
61.953999
20
49.943001
30
56.650002
70
192
0
VERTEX
8
OBJECT__40
10
60.641998
20
52.259998
30
56.450001
70
192
0
VERTEX
8
OBJECT__40
10
59.500000
20
58.000000
30
56.450001
70
192
0
VERTEX
8
OBJECT__40
10
60.457001
20
52.182999
30
56.650002
70
192
0
VERTEX
8
OBJECT__40
10
88.542999
20
52.182999
30
56.650002
70
192
0
VERTEX
8
OBJECT__40
10
85.248001
20
68.748001
30
56.650002
70
192
0
VERTEX
8
OBJECT__40
10
68.683998
20
72.042999
30
56.650002
70
192
0
VERTEX
8
OBJECT__40
10
0
20
0
30
0
70
128
71
1
72
2
73
3
0
VERTEX
8
OBJECT__40
10
0
20
0
30
0
70
128
71
4
72
3
73
5
0
VERTEX
8
OBJECT__40
10
0
20
0
30
0
70
128
71
3
72
2
73
5
0
VERTEX
8
OBJECT__40
10
0
20
0
30
0
70
128
71
4
72
6
73
7
0
VERTEX
8
OBJECT__40
10
0
20
0
30
0
70
128
71
7
72
8
73
4
0
VERTEX
8
OBJECT__40
10
0
20
0
30
0
70
128
71
9
72
10
73
8
0
VERTEX
8
OBJECT__40
10
0
20
0
30
0
70
128
71
11
72
10
73
12
0
VERTEX
8
OBJECT__40
10
0
20
0
30
0
70
128
71
10
72
9
73
12
0
VERTEX
8
OBJECT__40
10
0
20
0
30
0
70
128
71
11
72
13
73
14
0
VERTEX
8
OBJECT__40
10
0
20
0
30
0
70
128
71
14
72
15
73
11
0
VERTEX
8
OBJECT__40
10
0
20
0
30
0
70
128
71
16
72
17
73
15
0
VERTEX
8
OBJECT__40
10
0
20
0
30
0
70
128
71
18
72
17
73
19
0
VERTEX
8
OBJECT__40
10
0
20
0
30
0
70
128
71
17
72
16
73
19
0
VERTEX
8
OBJECT__40
10
0
20
0
30
0
70
128
71
18
72
20
73
21
0
VERTEX
8
OBJECT__40
10
0
20
0
30
0
70
128
71
21
72
22
73
18
0
VERTEX
8
OBJECT__40
10
0
20
0
30
0
70
128
71
23
72
24
73
22
0
VERTEX
8
OBJECT__40
10
0
20
0
30
0
70
128
71
25
72
24
73
26
0
VERTEX
8
OBJECT__40
10
0
20
0
30
0
70
128
71
24
72
23
73
26
0
VERTEX
8
OBJECT__40
10
0
20
0
30
0
70
128
71
25
72
27
73
28
0
VERTEX
8
OBJECT__40
10
0
20
0
30
0
70
128
71
28
72
29
73
25
0
VERTEX
8
OBJECT__40
10
0
20
0
30
0
70
128
71
30
72
31
73
32
0
VERTEX
8
OBJECT__40
10
0
20
0
30
0
70
128
71
33
72
32
73
34
0
VERTEX
8
OBJECT__40
10
0
20
0
30
0
70
128
71
32
72
31
73
34
0
VERTEX
8
OBJECT__40
10
0
20
0
30
0
70
128
71
33
72
35
73
36
0
VERTEX
8
OBJECT__40
10
0
20
0
30
0
70
128
71
36
72
37
73
33
0
VERTEX
8
OBJECT__40
10
0
20
0
30
0
70
128
71
1
72
38
73
37
0
VERTEX
8
OBJECT__40
10
0
20
0
30
0
70
128
71
37
72
39
73
1
0
VERTEX
8
OBJECT__40
10
0
20
0
30
0
70
128
71
36
72
39
73
37
0
VERTEX
8
OBJECT__40
10
0
20
0
30
0
70
128
71
34
72
35
73
33
0
VERTEX
8
OBJECT__40
10
0
20
0
30
0
70
128
71
32
72
29
73
30
0
VERTEX
8
OBJECT__40
10
0
20
0
30
0
70
128
71
28
72
30
73
29
0
VERTEX
8
OBJECT__40
10
0
20
0
30
0
70
128
71
26
72
27
73
25
0
VERTEX
8
OBJECT__40
10
0
20
0
30
0
70
128
71
22
72
40
73
23
0
VERTEX
8
OBJECT__40
10
0
20
0
30
0
70
128
71
21
72
40
73
22
0
VERTEX
8
OBJECT__40
10
0
20
0
30
0
70
128
71
19
72
20
73
18
0
VERTEX
8
OBJECT__40
10
0
20
0
30
0
70
128
71
15
72
41
73
16
0
VERTEX
8
OBJECT__40
10
0
20
0
30
0
70
128
71
14
72
41
73
15
0
VERTEX
8
OBJECT__40
10
0
20
0
30
0
70
128
71
12
72
13
73
11
0
VERTEX
8
OBJECT__40
10
0
20
0
30
0
70
128
71
8
72
42
73
9
0
VERTEX
8
OBJECT__40
10
0
20
0
30
0
70
128
71
7
72
42
73
8
0
VERTEX
8
OBJECT__40
10
0
20
0
30
0
70
128
71
5
72
6
73
4
0
VERTEX
8
OBJECT__40
10
0
20
0
30
0
70
128
71
3
72
38
73
1
0
SEQEND
8
OBJECT__40
0
POLYLINE
8
OBJECT__41
66
1
70
64
71
52
72
52
62
253
0
VERTEX
8
OBJECT__41
10
60.457001
20
63.817001
30
56.650002
70
192
0
VERTEX
8
OBJECT__41
10
60.457001
20
63.817001
30
57.750000
70
192
0
VERTEX
8
OBJECT__41
10
61.953999
20
66.056999
30
57.750000
70
192
0
VERTEX
8
OBJECT__41
10
59.299999
20
58.000000
30
57.750000
70
192
0
VERTEX
8
OBJECT__41
10
59.299999
20
58.000000
30
56.650002
70
192
0
VERTEX
8
OBJECT__41
10
63.751999
20
68.748001
30
57.750000
70
192
0
VERTEX
8
OBJECT__41
10
63.751999
20
68.748001
30
56.650002
70
192
0
VERTEX
8
OBJECT__41
10
68.239998
20
71.746002
30
56.650002
70
192
0
VERTEX
8
OBJECT__41
10
68.239998
20
71.746002
30
57.750000
70
192
0
VERTEX
8
OBJECT__41
10
68.683998
20
72.042999
30
57.750000
70
192
0
VERTEX
8
OBJECT__41
10
74.500000
20
73.199997
30
57.750000
70
192
0
VERTEX
8
OBJECT__41
10
74.500000
20
73.199997
30
56.650002
70
192
0
VERTEX
8
OBJECT__41
10
68.683998
20
72.042999
30
56.650002
70
192
0
VERTEX
8
OBJECT__41
10
76.611000
20
72.779999
30
56.650002
70
192
0
VERTEX
8
OBJECT__41
10
76.611000
20
72.779999
30
57.750000
70
192
0
VERTEX
8
OBJECT__41
10
80.317001
20
72.042999
30
56.650002
70
192
0
VERTEX
8
OBJECT__41
10
80.317001
20
72.042999
30
57.750000
70
192
0
VERTEX
8
OBJECT__41
10
84.358002
20
69.343002
30
57.750000
70
192
0
VERTEX
8
OBJECT__41
10
88.858002
20
62.237000
30
56.650002
70
192
0
VERTEX
8
OBJECT__41
10
88.542999
20
63.817001
30
56.650002
70
192
0
VERTEX
8
OBJECT__41
10
88.542999
20
63.817001
30
57.750000
70
192
0
VERTEX
8
OBJECT__41
10
85.248001
20
68.748001
30
56.650002
70
192
0
VERTEX
8
OBJECT__41
10
85.248001
20
68.748001
30
57.750000
70
192
0
VERTEX
8
OBJECT__41
10
84.358002
20
69.343002
30
56.650002
70
192
0
VERTEX
8
OBJECT__41
10
88.858002
20
53.763000
30
56.650002
70
192
0
VERTEX
8
OBJECT__41
10
89.699997
20
58.000000
30
56.650002
70
192
0
VERTEX
8
OBJECT__41
10
89.699997
20
58.000000
30
57.750000
70
192
0
VERTEX
8
OBJECT__41
10
88.858002
20
62.237000
30
57.750000
70
192
0
VERTEX
8
OBJECT__41
10
88.858002
20
53.763000
30
57.750000
70
192
0
VERTEX
8
OBJECT__41
10
88.542999
20
52.182999
30
57.750000
70
192
0
VERTEX
8
OBJECT__41
10
84.358002
20
46.657001
30
57.750000
70
192
0
VERTEX
8
OBJECT__41
10
84.358002
20
46.657001
30
56.650002
70
192
0
VERTEX
8
OBJECT__41
10
85.248001
20
47.251999
30
56.650002
70
192
0
VERTEX
8
OBJECT__41
10
85.248001
20
47.251999
30
57.750000
70
192
0
VERTEX
8
OBJECT__41
10
88.542999
20
52.182999
30
56.650002
70
192
0
VERTEX
8
OBJECT__41
10
80.317001
20
43.957001
30
57.750000
70
192
0
VERTEX
8
OBJECT__41
10
80.317001
20
43.957001
30
56.650002
70
192
0
VERTEX
8
OBJECT__41
10
76.611000
20
43.220001
30
57.750000
70
192
0
VERTEX
8
OBJECT__41
10
76.611000
20
43.220001
30
56.650002
70
192
0
VERTEX
8
OBJECT__41
10
68.683998
20
43.957001
30
56.650002
70
192
0
VERTEX
8
OBJECT__41
10
68.683998
20
43.957001
30
57.750000
70
192
0
VERTEX
8
OBJECT__41
10
68.239998
20
44.254002
30
57.750000
70
192
0
VERTEX
8
OBJECT__41
10
74.500000
20
42.799999
30
57.750000
70
192
0
VERTEX
8
OBJECT__41
10
74.500000
20
42.799999
30
56.650002
70
192
0
VERTEX
8
OBJECT__41
10
61.953999
20
49.943001
30
57.750000
70
192
0
VERTEX
8
OBJECT__41
10
61.953999
20
49.943001
30
56.650002
70
192
0
VERTEX
8
OBJECT__41
10
63.751999
20
47.251999
30
56.650002
70
192
0
VERTEX
8
OBJECT__41
10
68.239998
20
44.254002
30
56.650002
70
192
0
VERTEX
8
OBJECT__41
10
63.751999
20
47.251999
30
57.750000
70
192
0
VERTEX
8
OBJECT__41
10
60.457001
20
52.182999
30
56.650002
70
192
0
VERTEX
8
OBJECT__41
10
60.457001
20
52.182999
30
57.750000
70
192
0
VERTEX
8
OBJECT__41
10
61.953999
20
66.056999
30
56.650002
70
192
0
VERTEX
8
OBJECT__41
10
0
20
0
30
0
70
128
71
1
72
2
73
3
0
VERTEX
8
OBJECT__41
10
0
20
0
30
0
70
128
71
4
72
2
73
1
0
VERTEX
8
OBJECT__41
10
0
20
0
30
0
70
128
71
1
72
5
73
4
0
VERTEX
8
OBJECT__41
10
0
20
0
30
0
70
128
71
3
72
6
73
7
0
VERTEX
8
OBJECT__41
10
0
20
0
30
0
70
128
71
8
72
7
73
6
0
VERTEX
8
OBJECT__41
10
0
20
0
30
0
70
128
71
6
72
9
73
8
0
VERTEX
8
OBJECT__41
10
0
20
0
30
0
70
128
71
10
72
11
73
12
0
VERTEX
8
OBJECT__41
10
0
20
0
30
0
70
128
71
9
72
10
73
13
0
VERTEX
8
OBJECT__41
10
0
20
0
30
0
70
128
71
13
72
8
73
9
0
VERTEX
8
OBJECT__41
10
0
20
0
30
0
70
128
71
14
72
12
73
11
0
VERTEX
8
OBJECT__41
10
0
20
0
30
0
70
128
71
11
72
15
73
14
0
VERTEX
8
OBJECT__41
10
0
20
0
30
0
70
128
71
16
72
17
73
18
0
VERTEX
8
OBJECT__41
10
0
20
0
30
0
70
128
71
15
72
17
73
16
0
VERTEX
8
OBJECT__41
10
0
20
0
30
0
70
128
71
16
72
14
73
15
0
VERTEX
8
OBJECT__41
10
0
20
0
30
0
70
128
71
19
72
20
73
21
0
VERTEX
8
OBJECT__41
10
0
20
0
30
0
70
128
71
21
72
20
73
22
0
VERTEX
8
OBJECT__41
10
0
20
0
30
0
70
128
71
22
72
23
73
21
0
VERTEX
8
OBJECT__41
10
0
20
0
30
0
70
128
71
23
72
22
73
24
0
VERTEX
8
OBJECT__41
10
0
20
0
30
0
70
128
71
24
72
18
73
23
0
VERTEX
8
OBJECT__41
10
0
20
0
30
0
70
128
71
25
72
26
73
27
0
VERTEX
8
OBJECT__41
10
0
20
0
30
0
70
128
71
28
72
27
73
26
0
VERTEX
8
OBJECT__41
10
0
20
0
30
0
70
128
71
26
72
19
73
28
0
VERTEX
8
OBJECT__41
10
0
20
0
30
0
70
128
71
25
72
29
73
30
0
VERTEX
8
OBJECT__41
10
0
20
0
30
0
70
128
71
31
72
32
73
33
0
VERTEX
8
OBJECT__41
10
0
20
0
30
0
70
128
71
34
72
33
73
35
0
VERTEX
8
OBJECT__41
10
0
20
0
30
0
70
128
71
35
72
30
73
34
0
VERTEX
8
OBJECT__41
10
0
20
0
30
0
70
128
71
33
72
34
73
31
0
VERTEX
8
OBJECT__41
10
0
20
0
30
0
70
128
71
31
72
36
73
37
0
VERTEX
8
OBJECT__41
10
0
20
0
30
0
70
128
71
37
72
36
73
38
0
VERTEX
8
OBJECT__41
10
0
20
0
30
0
70
128
71
38
72
39
73
37
0
VERTEX
8
OBJECT__41
10
0
20
0
30
0
70
128
71
40
72
41
73
42
0
VERTEX
8
OBJECT__41
10
0
20
0
30
0
70
128
71
43
72
41
73
40
0
VERTEX
8
OBJECT__41
10
0
20
0
30
0
70
128
71
40
72
44
73
43
0
VERTEX
8
OBJECT__41
10
0
20
0
30
0
70
128
71
38
72
43
73
44
0
VERTEX
8
OBJECT__41
10
0
20
0
30
0
70
128
71
44
72
39
73
38
0
VERTEX
8
OBJECT__41
10
0
20
0
30
0
70
128
71
45
72
46
73
47
0
VERTEX
8
OBJECT__41
10
0
20
0
30
0
70
128
71
48
72
42
73
49
0
VERTEX
8
OBJECT__41
10
0
20
0
30
0
70
128
71
49
72
47
73
48
0
VERTEX
8
OBJECT__41
10
0
20
0
30
0
70
128
71
4
72
5
73
50
0
VERTEX
8
OBJECT__41
10
0
20
0
30
0
70
128
71
46
72
45
73
51
0
VERTEX
8
OBJECT__41
10
0
20
0
30
0
70
128
71
51
72
50
73
46
0
VERTEX
8
OBJECT__41
10
0
20
0
30
0
70
128
71
50
72
51
73
4
0
VERTEX
8
OBJECT__41
10
0
20
0
30
0
70
128
71
47
72
49
73
45
0
VERTEX
8
OBJECT__41
10
0
20
0
30
0
70
128
71
42
72
48
73
40
0
VERTEX
8
OBJECT__41
10
0
20
0
30
0
70
128
71
37
72
32
73
31
0
VERTEX
8
OBJECT__41
10
0
20
0
30
0
70
128
71
30
72
35
73
25
0
VERTEX
8
OBJECT__41
10
0
20
0
30
0
70
128
71
27
72
29
73
25
0
VERTEX
8
OBJECT__41
10
0
20
0
30
0
70
128
71
21
72
28
73
19
0
VERTEX
8
OBJECT__41
10
0
20
0
30
0
70
128
71
18
72
24
73
16
0
VERTEX
8
OBJECT__41
10
0
20
0
30
0
70
128
71
12
72
13
73
10
0
VERTEX
8
OBJECT__41
10
0
20
0
30
0
70
128
71
7
72
52
73
3
0
VERTEX
8
OBJECT__41
10
0
20
0
30
0
70
128
71
3
72
52
73
1
0
SEQEND
8
OBJECT__41
0
POLYLINE
8
OBJECT__43
66
1
70
64
71
42
72
42
62
253
0
VERTEX
8
OBJECT__43
10
89.500000
20
58.000000
30
57.950001
70
192
0
VERTEX
8
OBJECT__43
10
89.699997
20
58.000000
30
57.750000
70
192
0
VERTEX
8
OBJECT__43
10
88.858002
20
62.237000
30
57.750000
70
192
0
VERTEX
8
OBJECT__43
10
88.359001
20
63.740002
30
57.950001
70
192
0
VERTEX
8
OBJECT__43
10
88.542999
20
63.817001
30
57.750000
70
192
0
VERTEX
8
OBJECT__43
10
85.248001
20
68.748001
30
57.750000
70
192
0
VERTEX
8
OBJECT__43
10
85.107002
20
68.607002
30
57.950001
70
192
0
VERTEX
8
OBJECT__43
10
80.240997
20
71.858002
30
57.950001
70
192
0
VERTEX
8
OBJECT__43
10
84.358002
20
69.343002
30
57.750000
70
192
0
VERTEX
8
OBJECT__43
10
80.317001
20
72.042999
30
57.750000
70
192
0
VERTEX
8
OBJECT__43
10
76.611000
20
72.779999
30
57.750000
70
192
0
VERTEX
8
OBJECT__43
10
74.500000
20
73.000000
30
57.950001
70
192
0
VERTEX
8
OBJECT__43
10
74.500000
20
73.199997
30
57.750000
70
192
0
VERTEX
8
OBJECT__43
10
68.683998
20
72.042999
30
57.750000
70
192
0
VERTEX
8
OBJECT__43
10
68.760002
20
71.858002
30
57.950001
70
192
0
VERTEX
8
OBJECT__43
10
63.894001
20
68.607002
30
57.950001
70
192
0
VERTEX
8
OBJECT__43
10
68.239998
20
71.746002
30
57.750000
70
192
0
VERTEX
8
OBJECT__43
10
63.751999
20
68.748001
30
57.750000
70
192
0
VERTEX
8
OBJECT__43
10
61.953999
20
66.056999
30
57.750000
70
192
0
VERTEX
8
OBJECT__43
10
60.641998
20
63.740002
30
57.950001
70
192
0
VERTEX
8
OBJECT__43
10
60.457001
20
63.817001
30
57.750000
70
192
0
VERTEX
8
OBJECT__43
10
59.299999
20
58.000000
30
57.750000
70
192
0
VERTEX
8
OBJECT__43
10
59.500000
20
58.000000
30
57.950001
70
192
0
VERTEX
8
OBJECT__43
10
60.457001
20
52.182999
30
57.750000
70
192
0
VERTEX
8
OBJECT__43
10
60.641998
20
52.259998
30
57.950001
70
192
0
VERTEX
8
OBJECT__43
10
63.894001
20
47.393002
30
57.950001
70
192
0
VERTEX
8
OBJECT__43
10
61.953999
20
49.943001
30
57.750000
70
192
0
VERTEX
8
OBJECT__43
10
63.751999
20
47.251999
30
57.750000
70
192
0
VERTEX
8
OBJECT__43
10
68.239998
20
44.254002
30
57.750000
70
192
0
VERTEX
8
OBJECT__43
10
68.760002
20
44.141998
30
57.950001
70
192
0
VERTEX
8
OBJECT__43
10
74.500000
20
42.799999
30
57.750000
70
192
0
VERTEX
8
OBJECT__43
10
74.500000
20
43.000000
30
57.950001
70
192
0
VERTEX
8
OBJECT__43
10
80.240997
20
44.141998
30
57.950001
70
192
0
VERTEX
8
OBJECT__43
10
76.611000
20
43.220001
30
57.750000
70
192
0
VERTEX
8
OBJECT__43
10
80.317001
20
43.957001
30
57.750000
70
192
0
VERTEX
8
OBJECT__43
10
84.358002
20
46.657001
30
57.750000
70
192
0
VERTEX
8
OBJECT__43
10
85.107002
20
47.393002
30
57.950001
70
192
0
VERTEX
8
OBJECT__43
10
88.542999
20
52.182999
30
57.750000
70
192
0
VERTEX
8
OBJECT__43
10
88.359001
20
52.259998
30
57.950001
70
192
0
VERTEX
8
OBJECT__43
10
88.858002
20
53.763000
30
57.750000
70
192
0
VERTEX
8
OBJECT__43
10
85.248001
20
47.251999
30
57.750000
70
192
0
VERTEX
8
OBJECT__43
10
68.683998
20
43.957001
30
57.750000
70
192
0
VERTEX
8
OBJECT__43
10
0
20
0
30
0
70
128
71
1
72
2
73
3
0
VERTEX
8
OBJECT__43
10
0
20
0
30
0
70
128
71
3
72
4
73
1
0
VERTEX
8
OBJECT__43
10
0
20
0
30
0
70
128
71
5
72
6
73
7
0
VERTEX
8
OBJECT__43
10
0
20
0
30
0
70
128
71
8
72
7
73
9
0
VERTEX
8
OBJECT__43
10
0
20
0
30
0
70
128
71
7
72
6
73
9
0
VERTEX
8
OBJECT__43
10
0
20
0
30
0
70
128
71
8
72
10
73
11
0
VERTEX
8
OBJECT__43
10
0
20
0
30
0
70
128
71
11
72
12
73
8
0
VERTEX
8
OBJECT__43
10
0
20
0
30
0
70
128
71
13
72
14
73
15
0
VERTEX
8
OBJECT__43
10
0
20
0
30
0
70
128
71
16
72
15
73
17
0
VERTEX
8
OBJECT__43
10
0
20
0
30
0
70
128
71
15
72
14
73
17
0
VERTEX
8
OBJECT__43
10
0
20
0
30
0
70
128
71
16
72
18
73
19
0
VERTEX
8
OBJECT__43
10
0
20
0
30
0
70
128
71
19
72
20
73
16
0
VERTEX
8
OBJECT__43
10
0
20
0
30
0
70
128
71
21
72
22
73
23
0
VERTEX
8
OBJECT__43
10
0
20
0
30
0
70
128
71
24
72
25
73
23
0
VERTEX
8
OBJECT__43
10
0
20
0
30
0
70
128
71
26
72
25
73
27
0
VERTEX
8
OBJECT__43
10
0
20
0
30
0
70
128
71
25
72
24
73
27
0
VERTEX
8
OBJECT__43
10
0
20
0
30
0
70
128
71
26
72
28
73
29
0
VERTEX
8
OBJECT__43
10
0
20
0
30
0
70
128
71
29
72
30
73
26
0
VERTEX
8
OBJECT__43
10
0
20
0
30
0
70
128
71
31
72
32
73
30
0
VERTEX
8
OBJECT__43
10
0
20
0
30
0
70
128
71
33
72
32
73
34
0
VERTEX
8
OBJECT__43
10
0
20
0
30
0
70
128
71
32
72
31
73
34
0
VERTEX
8
OBJECT__43
10
0
20
0
30
0
70
128
71
33
72
35
73
36
0
VERTEX
8
OBJECT__43
10
0
20
0
30
0
70
128
71
36
72
37
73
33
0
VERTEX
8
OBJECT__43
10
0
20
0
30
0
70
128
71
38
72
39
73
37
0
VERTEX
8
OBJECT__43
10
0
20
0
30
0
70
128
71
1
72
39
73
40
0
VERTEX
8
OBJECT__43
10
0
20
0
30
0
70
128
71
39
72
38
73
40
0
VERTEX
8
OBJECT__43
10
0
20
0
30
0
70
128
71
40
72
2
73
1
0
VERTEX
8
OBJECT__43
10
0
20
0
30
0
70
128
71
37
72
41
73
38
0
VERTEX
8
OBJECT__43
10
0
20
0
30
0
70
128
71
36
72
41
73
37
0
VERTEX
8
OBJECT__43
10
0
20
0
30
0
70
128
71
34
72
35
73
33
0
VERTEX
8
OBJECT__43
10
0
20
0
30
0
70
128
71
30
72
42
73
31
0
VERTEX
8
OBJECT__43
10
0
20
0
30
0
70
128
71
29
72
42
73
30
0
VERTEX
8
OBJECT__43
10
0
20
0
30
0
70
128
71
27
72
28
73
26
0
VERTEX
8
OBJECT__43
10
0
20
0
30
0
70
128
71
23
72
22
73
24
0
VERTEX
8
OBJECT__43
10
0
20
0
30
0
70
128
71
23
72
20
73
21
0
VERTEX
8
OBJECT__43
10
0
20
0
30
0
70
128
71
19
72
21
73
20
0
VERTEX
8
OBJECT__43
10
0
20
0
30
0
70
128
71
17
72
18
73
16
0
VERTEX
8
OBJECT__43
10
0
20
0
30
0
70
128
71
15
72
12
73
13
0
VERTEX
8
OBJECT__43
10
0
20
0
30
0
70
128
71
11
72
13
73
12
0
VERTEX
8
OBJECT__43
10
0
20
0
30
0
70
128
71
9
72
10
73
8
0
VERTEX
8
OBJECT__43
10
0
20
0
30
0
70
128
71
7
72
4
73
5
0
VERTEX
8
OBJECT__43
10
0
20
0
30
0
70
128
71
3
72
5
73
4
0
SEQEND
8
OBJECT__43
0
POLYLINE
8
OBJECT__44
66
1
70
64
71
16
72
14
62
253
0
VERTEX
8
OBJECT__44
10
60.641998
20
52.259998
30
57.950001
70
192
0
VERTEX
8
OBJECT__44
10
85.107002
20
47.393002
30
57.950001
70
192
0
VERTEX
8
OBJECT__44
10
88.359001
20
52.259998
30
57.950001
70
192
0
VERTEX
8
OBJECT__44
10
85.107002
20
68.607002
30
57.950001
70
192
0
VERTEX
8
OBJECT__44
10
68.760002
20
71.858002
30
57.950001
70
192
0
VERTEX
8
OBJECT__44
10
63.894001
20
68.607002
30
57.950001
70
192
0
VERTEX
8
OBJECT__44
10
80.240997
20
71.858002
30
57.950001
70
192
0
VERTEX
8
OBJECT__44
10
74.500000
20
73.000000
30
57.950001
70
192
0
VERTEX
8
OBJECT__44
10
80.240997
20
44.141998
30
57.950001
70
192
0
VERTEX
8
OBJECT__44
10
68.760002
20
44.141998
30
57.950001
70
192
0
VERTEX
8
OBJECT__44
10
74.500000
20
43.000000
30
57.950001
70
192
0
VERTEX
8
OBJECT__44
10
60.641998
20
63.740002
30
57.950001
70
192
0
VERTEX
8
OBJECT__44
10
59.500000
20
58.000000
30
57.950001
70
192
0
VERTEX
8
OBJECT__44
10
89.500000
20
58.000000
30
57.950001
70
192
0
VERTEX
8
OBJECT__44
10
63.894001
20
47.393002
30
57.950001
70
192
0
VERTEX
8
OBJECT__44
10
88.359001
20
63.740002
30
57.950001
70
192
0
VERTEX
8
OBJECT__44
10
0
20
0
30
0
70
128
71
1
72
2
73
3
0
VERTEX
8
OBJECT__44
10
0
20
0
30
0
70
128
71
4
72
5
73
6
0
VERTEX
8
OBJECT__44
10
0
20
0
30
0
70
128
71
4
72
7
73
8
0
VERTEX
8
OBJECT__44
10
0
20
0
30
0
70
128
71
1
72
9
73
2
0
VERTEX
8
OBJECT__44
10
0
20
0
30
0
70
128
71
1
72
10
73
11
0
VERTEX
8
OBJECT__44
10
0
20
0
30
0
70
128
71
4
72
12
73
13
0
VERTEX
8
OBJECT__44
10
0
20
0
30
0
70
128
71
8
72
5
73
4
0
VERTEX
8
OBJECT__44
10
0
20
0
30
0
70
128
71
3
72
14
73
1
0
VERTEX
8
OBJECT__44
10
0
20
0
30
0
70
128
71
1
72
15
73
10
0
VERTEX
8
OBJECT__44
10
0
20
0
30
0
70
128
71
6
72
12
73
4
0
VERTEX
8
OBJECT__44
10
0
20
0
30
0
70
128
71
11
72
9
73
1
0
VERTEX
8
OBJECT__44
10
0
20
0
30
0
70
128
71
1
72
16
73
4
0
VERTEX
8
OBJECT__44
10
0
20
0
30
0
70
128
71
13
72
1
73
4
0
VERTEX
8
OBJECT__44
10
0
20
0
30
0
70
128
71
14
72
16
73
1
0
SEQEND
8
OBJECT__44
0
POLYLINE
8
OBJECT__45
66
1
70
64
71
32
72
32
62
253
0
VERTEX
8
OBJECT__45
10
74.500000
20
46.500000
30
38.200001
70
192
0
VERTEX
8
OBJECT__45
10
74.500000
20
46.500000
30
27.202999
70
192
0
VERTEX
8
OBJECT__45
10
79.489998
20
47.639000
30
27.202999
70
192
0
VERTEX
8
OBJECT__45
10
81.260002
20
48.695999
30
38.200001
70
192
0
VERTEX
8
OBJECT__45
10
85.438004
20
54.445999
30
38.200001
70
192
0
VERTEX
8
OBJECT__45
10
83.491997
20
50.830002
30
27.202999
70
192
0
VERTEX
8
OBJECT__45
10
81.086998
20
48.912998
30
27.202999
70
192
0
VERTEX
8
OBJECT__45
10
85.438004
20
61.554001
30
38.200001
70
192
0
VERTEX
8
OBJECT__45
10
85.711998
20
55.441002
30
27.202999
70
192
0
VERTEX
8
OBJECT__45
10
85.711998
20
60.558998
30
27.202999
70
192
0
VERTEX
8
OBJECT__45
10
85.272003
20
54.526001
30
27.202999
70
192
0
VERTEX
8
OBJECT__45
10
85.272003
20
61.473999
30
27.202999
70
192
0
VERTEX
8
OBJECT__45
10
83.491997
20
65.169998
30
27.202999
70
192
0
VERTEX
8
OBJECT__45
10
81.260002
20
67.304001
30
38.200001
70
192
0
VERTEX
8
OBJECT__45
10
74.500000
20
69.500000
30
38.200001
70
192
0
VERTEX
8
OBJECT__45
10
79.489998
20
68.361000
30
27.202999
70
192
0
VERTEX
8
OBJECT__45
10
81.086998
20
67.086998
30
27.202999
70
192
0
VERTEX
8
OBJECT__45
10
74.500000
20
69.500000
30
27.202999
70
192
0
VERTEX
8
OBJECT__45
10
69.511002
20
68.361000
30
27.202999
70
192
0
VERTEX
8
OBJECT__45
10
67.740997
20
67.304001
30
38.200001
70
192
0
VERTEX
8
OBJECT__45
10
63.563000
20
61.554001
30
38.200001
70
192
0
VERTEX
8
OBJECT__45
10
65.509003
20
65.169998
30
27.202999
70
192
0
VERTEX
8
OBJECT__45
10
67.913002
20
67.086998
30
27.202999
70
192
0
VERTEX
8
OBJECT__45
10
63.563000
20
54.445999
30
38.200001
70
192
0
VERTEX
8
OBJECT__45
10
63.289001
20
60.558998
30
27.202999
70
192
0
VERTEX
8
OBJECT__45
10
63.289001
20
55.441002
30
27.202999
70
192
0
VERTEX
8
OBJECT__45
10
63.729000
20
61.473999
30
27.202999
70
192
0
VERTEX
8
OBJECT__45
10
63.729000
20
54.526001
30
27.202999
70
192
0
VERTEX
8
OBJECT__45
10
65.509003
20
50.830002
30
27.202999
70
192
0
VERTEX
8
OBJECT__45
10
67.740997
20
48.695999
30
38.200001
70
192
0
VERTEX
8
OBJECT__45
10
69.511002
20
47.639000
30
27.202999
70
192
0
VERTEX
8
OBJECT__45
10
67.913002
20
48.912998
30
27.202999
70
192
0
VERTEX
8
OBJECT__45
10
0
20
0
30
0
70
128
71
1
72
2
73
3
0
VERTEX
8
OBJECT__45
10
0
20
0
30
0
70
128
71
3
72
4
73
1
0
VERTEX
8
OBJECT__45
10
0
20
0
30
0
70
128
71
5
72
4
73
6
0
VERTEX
8
OBJECT__45
10
0
20
0
30
0
70
128
71
4
72
7
73
6
0
VERTEX
8
OBJECT__45
10
0
20
0
30
0
70
128
71
8
72
5
73
9
0
VERTEX
8
OBJECT__45
10
0
20
0
30
0
70
128
71
9
72
10
73
8
0
VERTEX
8
OBJECT__45
10
0
20
0
30
0
70
128
71
5
72
11
73
9
0
VERTEX
8
OBJECT__45
10
0
20
0
30
0
70
128
71
8
72
12
73
13
0
VERTEX
8
OBJECT__45
10
0
20
0
30
0
70
128
71
13
72
14
73
8
0
VERTEX
8
OBJECT__45
10
0
20
0
30
0
70
128
71
15
72
14
73
16
0
VERTEX
8
OBJECT__45
10
0
20
0
30
0
70
128
71
14
72
17
73
16
0
VERTEX
8
OBJECT__45
10
0
20
0
30
0
70
128
71
15
72
18
73
19
0
VERTEX
8
OBJECT__45
10
0
20
0
30
0
70
128
71
19
72
20
73
15
0
VERTEX
8
OBJECT__45
10
0
20
0
30
0
70
128
71
21
72
20
73
22
0
VERTEX
8
OBJECT__45
10
0
20
0
30
0
70
128
71
20
72
23
73
22
0
VERTEX
8
OBJECT__45
10
0
20
0
30
0
70
128
71
24
72
21
73
25
0
VERTEX
8
OBJECT__45
10
0
20
0
30
0
70
128
71
25
72
26
73
24
0
VERTEX
8
OBJECT__45
10
0
20
0
30
0
70
128
71
21
72
27
73
25
0
VERTEX
8
OBJECT__45
10
0
20
0
30
0
70
128
71
24
72
28
73
29
0
VERTEX
8
OBJECT__45
10
0
20
0
30
0
70
128
71
29
72
30
73
24
0
VERTEX
8
OBJECT__45
10
0
20
0
30
0
70
128
71
1
72
30
73
31
0
VERTEX
8
OBJECT__45
10
0
20
0
30
0
70
128
71
30
72
32
73
31
0
VERTEX
8
OBJECT__45
10
0
20
0
30
0
70
128
71
31
72
2
73
1
0
VERTEX
8
OBJECT__45
10
0
20
0
30
0
70
128
71
29
72
32
73
30
0
VERTEX
8
OBJECT__45
10
0
20
0
30
0
70
128
71
26
72
28
73
24
0
VERTEX
8
OBJECT__45
10
0
20
0
30
0
70
128
71
22
72
27
73
21
0
VERTEX
8
OBJECT__45
10
0
20
0
30
0
70
128
71
19
72
23
73
20
0
VERTEX
8
OBJECT__45
10
0
20
0
30
0
70
128
71
16
72
18
73
15
0
VERTEX
8
OBJECT__45
10
0
20
0
30
0
70
128
71
13
72
17
73
14
0
VERTEX
8
OBJECT__45
10
0
20
0
30
0
70
128
71
10
72
12
73
8
0
VERTEX
8
OBJECT__45
10
0
20
0
30
0
70
128
71
6
72
11
73
5
0
VERTEX
8
OBJECT__45
10
0
20
0
30
0
70
128
71
3
72
7
73
4
0
SEQEND
8
OBJECT__45
0
POLYLINE
8
OBJECT__46
66
1
70
64
71
46
72
46
62
253
0
VERTEX
8
OBJECT__46
10
74.500000
20
46.500000
30
27.202999
70
192
0
VERTEX
8
OBJECT__46
10
74.500000
20
45.923000
30
26.297001
70
192
0
VERTEX
8
OBJECT__46
10
77.841003
20
46.685001
30
26.297001
70
192
0
VERTEX
8
OBJECT__46
10
79.489998
20
47.639000
30
27.202999
70
192
0
VERTEX
8
OBJECT__46
10
83.566002
20
50.168999
30
26.297001
70
192
0
VERTEX
8
OBJECT__46
10
83.491997
20
50.830002
30
27.202999
70
192
0
VERTEX
8
OBJECT__46
10
81.086998
20
48.912998
30
27.202999
70
192
0
VERTEX
8
OBJECT__46
10
79.740997
20
47.118999
30
26.297001
70
192
0
VERTEX
8
OBJECT__46
10
83.943001
20
50.470001
30
26.297001
70
192
0
VERTEX
8
OBJECT__46
10
86.275002
20
55.313000
30
26.297001
70
192
0
VERTEX
8
OBJECT__46
10
85.272003
20
54.526001
30
27.202999
70
192
0
VERTEX
8
OBJECT__46
10
85.711998
20
55.441002
30
27.202999
70
192
0
VERTEX
8
OBJECT__46
10
85.711998
20
60.558998
30
27.202999
70
192
0
VERTEX
8
OBJECT__46
10
86.275002
20
56.280998
30
26.297001
70
192
0
VERTEX
8
OBJECT__46
10
83.491997
20
65.169998
30
27.202999
70
192
0
VERTEX
8
OBJECT__46
10
85.272003
20
61.473999
30
27.202999
70
192
0
VERTEX
8
OBJECT__46
10
85.216003
20
62.887001
30
26.297001
70
192
0
VERTEX
8
OBJECT__46
10
86.275002
20
60.687000
30
26.297001
70
192
0
VERTEX
8
OBJECT__46
10
83.943001
20
65.529999
30
26.297001
70
192
0
VERTEX
8
OBJECT__46
10
80.879997
20
67.972000
30
26.297001
70
192
0
VERTEX
8
OBJECT__46
10
81.086998
20
67.086998
30
27.202999
70
192
0
VERTEX
8
OBJECT__46
10
79.489998
20
68.361000
30
27.202999
70
192
0
VERTEX
8
OBJECT__46
10
79.740997
20
68.880997
30
26.297001
70
192
0
VERTEX
8
OBJECT__46
10
74.500000
20
70.077003
30
26.297001
70
192
0
VERTEX
8
OBJECT__46
10
74.500000
20
69.500000
30
27.202999
70
192
0
VERTEX
8
OBJECT__46
10
69.260002
20
68.880997
30
26.297001
70
192
0
VERTEX
8
OBJECT__46
10
69.511002
20
68.361000
30
27.202999
70
192
0
VERTEX
8
OBJECT__46
10
68.121002
20
67.972000
30
26.297001
70
192
0
VERTEX
8
OBJECT__46
10
65.057999
20
65.529999
30
26.297001
70
192
0
VERTEX
8
OBJECT__46
10
65.509003
20
65.169998
30
27.202999
70
192
0
VERTEX
8
OBJECT__46
10
67.913002
20
67.086998
30
27.202999
70
192
0
VERTEX
8
OBJECT__46
10
63.785000
20
62.887001
30
26.297001
70
192
0
VERTEX
8
OBJECT__46
10
63.729000
20
61.473999
30
27.202999
70
192
0
VERTEX
8
OBJECT__46
10
62.726002
20
60.687000
30
26.297001
70
192
0
VERTEX
8
OBJECT__46
10
63.289001
20
60.558998
30
27.202999
70
192
0
VERTEX
8
OBJECT__46
10
62.726002
20
56.280998
30
26.297001
70
192
0
VERTEX
8
OBJECT__46
10
63.289001
20
55.441002
30
27.202999
70
192
0
VERTEX
8
OBJECT__46
10
65.057999
20
50.470001
30
26.297001
70
192
0
VERTEX
8
OBJECT__46
10
65.509003
20
50.830002
30
27.202999
70
192
0
VERTEX
8
OBJECT__46
10
63.729000
20
54.526001
30
27.202999
70
192
0
VERTEX
8
OBJECT__46
10
62.726002
20
55.313000
30
26.297001
70
192
0
VERTEX
8
OBJECT__46
10
65.434998
20
50.168999
30
26.297001
70
192
0
VERTEX
8
OBJECT__46
10
69.260002
20
47.118999
30
26.297001
70
192
0
VERTEX
8
OBJECT__46
10
67.913002
20
48.912998
30
27.202999
70
192
0
VERTEX
8
OBJECT__46
10
69.511002
20
47.639000
30
27.202999
70
192
0
VERTEX
8
OBJECT__46
10
71.160004
20
46.685001
30
26.297001
70
192
0
VERTEX
8
OBJECT__46
10
0
20
0
30
0
70
128
71
1
72
2
73
3
0
VERTEX
8
OBJECT__46
10
0
20
0
30
0
70
128
71
3
72
4
73
1
0
VERTEX
8
OBJECT__46
10
0
20
0
30
0
70
128
71
5
72
6
73
7
0
VERTEX
8
OBJECT__46
10
0
20
0
30
0
70
128
71
7
72
8
73
5
0
VERTEX
8
OBJECT__46
10
0
20
0
30
0
70
128
71
5
72
9
73
6
0
VERTEX
8
OBJECT__46
10
0
20
0
30
0
70
128
71
9
72
10
73
11
0
VERTEX
8
OBJECT__46
10
0
20
0
30
0
70
128
71
10
72
12
73
11
0
VERTEX
8
OBJECT__46
10
0
20
0
30
0
70
128
71
13
72
12
73
14
0
VERTEX
8
OBJECT__46
10
0
20
0
30
0
70
128
71
12
72
10
73
14
0
VERTEX
8
OBJECT__46
10
0
20
0
30
0
70
128
71
15
72
16
73
17
0
VERTEX
8
OBJECT__46
10
0
20
0
30
0
70
128
71
16
72
18
73
17
0
VERTEX
8
OBJECT__46
10
0
20
0
30
0
70
128
71
17
72
19
73
15
0
VERTEX
8
OBJECT__46
10
0
20
0
30
0
70
128
71
19
72
20
73
21
0
VERTEX
8
OBJECT__46
10
0
20
0
30
0
70
128
71
22
72
21
73
20
0
VERTEX
8
OBJECT__46
10
0
20
0
30
0
70
128
71
20
72
23
73
22
0
VERTEX
8
OBJECT__46
10
0
20
0
30
0
70
128
71
23
72
24
73
25
0
VERTEX
8
OBJECT__46
10
0
20
0
30
0
70
128
71
26
72
27
73
25
0
VERTEX
8
OBJECT__46
10
0
20
0
30
0
70
128
71
27
72
26
73
28
0
VERTEX
8
OBJECT__46
10
0
20
0
30
0
70
128
71
29
72
30
73
31
0
VERTEX
8
OBJECT__46
10
0
20
0
30
0
70
128
71
31
72
28
73
29
0
VERTEX
8
OBJECT__46
10
0
20
0
30
0
70
128
71
30
72
29
73
32
0
VERTEX
8
OBJECT__46
10
0
20
0
30
0
70
128
71
32
72
33
73
30
0
VERTEX
8
OBJECT__46
10
0
20
0
30
0
70
128
71
34
72
35
73
33
0
VERTEX
8
OBJECT__46
10
0
20
0
30
0
70
128
71
35
72
34
73
36
0
VERTEX
8
OBJECT__46
10
0
20
0
30
0
70
128
71
36
72
37
73
35
0
VERTEX
8
OBJECT__46
10
0
20
0
30
0
70
128
71
38
72
39
73
40
0
VERTEX
8
OBJECT__46
10
0
20
0
30
0
70
128
71
40
72
41
73
38
0
VERTEX
8
OBJECT__46
10
0
20
0
30
0
70
128
71
42
72
43
73
44
0
VERTEX
8
OBJECT__46
10
0
20
0
30
0
70
128
71
39
72
38
73
42
0
VERTEX
8
OBJECT__46
10
0
20
0
30
0
70
128
71
43
72
45
73
44
0
VERTEX
8
OBJECT__46
10
0
20
0
30
0
70
128
71
1
72
45
73
46
0
VERTEX
8
OBJECT__46
10
0
20
0
30
0
70
128
71
45
72
43
73
46
0
VERTEX
8
OBJECT__46
10
0
20
0
30
0
70
128
71
46
72
2
73
1
0
VERTEX
8
OBJECT__46
10
0
20
0
30
0
70
128
71
44
72
39
73
42
0
VERTEX
8
OBJECT__46
10
0
20
0
30
0
70
128
71
40
72
37
73
41
0
VERTEX
8
OBJECT__46
10
0
20
0
30
0
70
128
71
36
72
41
73
37
0
VERTEX
8
OBJECT__46
10
0
20
0
30
0
70
128
71
32
72
34
73
33
0
VERTEX
8
OBJECT__46
10
0
20
0
30
0
70
128
71
28
72
31
73
27
0
VERTEX
8
OBJECT__46
10
0
20
0
30
0
70
128
71
25
72
24
73
26
0
VERTEX
8
OBJECT__46
10
0
20
0
30
0
70
128
71
25
72
22
73
23
0
VERTEX
8
OBJECT__46
10
0
20
0
30
0
70
128
71
21
72
15
73
19
0
VERTEX
8
OBJECT__46
10
0
20
0
30
0
70
128
71
16
72
13
73
18
0
VERTEX
8
OBJECT__46
10
0
20
0
30
0
70
128
71
14
72
18
73
13
0
VERTEX
8
OBJECT__46
10
0
20
0
30
0
70
128
71
11
72
6
73
9
0
VERTEX
8
OBJECT__46
10
0
20
0
30
0
70
128
71
7
72
4
73
8
0
VERTEX
8
OBJECT__46
10
0
20
0
30
0
70
128
71
3
72
8
73
4
0
SEQEND
8
OBJECT__46
0
POLYLINE
8
OBJECT__48
66
1
70
64
71
50
72
50
62
253
0
VERTEX
8
OBJECT__48
10
81.750000
20
69.309998
30
25.535000
70
192
0
VERTEX
8
OBJECT__48
10
80.077003
20
70.526001
30
25.535000
70
192
0
VERTEX
8
OBJECT__48
10
79.740997
20
68.880997
30
26.297001
70
192
0
VERTEX
8
OBJECT__48
10
74.500000
20
71.710999
30
25.535000
70
192
0
VERTEX
8
OBJECT__48
10
74.500000
20
70.077003
30
26.297001
70
192
0
VERTEX
8
OBJECT__48
10
86.766998
20
63.577000
30
25.535000
70
192
0
VERTEX
8
OBJECT__48
10
84.690002
20
67.175003
30
25.535000
70
192
0
VERTEX
8
OBJECT__48
10
83.943001
20
65.529999
30
26.297001
70
192
0
VERTEX
8
OBJECT__48
10
80.879997
20
67.972000
30
26.297001
70
192
0
VERTEX
8
OBJECT__48
10
88.137001
20
56.567001
30
25.535000
70
192
0
VERTEX
8
OBJECT__48
10
87.541000
20
62.237000
30
25.535000
70
192
0
VERTEX
8
OBJECT__48
10
86.275002
20
60.687000
30
26.297001
70
192
0
VERTEX
8
OBJECT__48
10
86.275002
20
56.280998
30
26.297001
70
192
0
VERTEX
8
OBJECT__48
10
87.977997
20
56.078999
30
25.535000
70
192
0
VERTEX
8
OBJECT__48
10
85.216003
20
62.887001
30
26.297001
70
192
0
VERTEX
8
OBJECT__48
10
86.375000
20
51.144001
30
25.535000
70
192
0
VERTEX
8
OBJECT__48
10
86.275002
20
55.313000
30
26.297001
70
192
0
VERTEX
8
OBJECT__48
10
83.943001
20
50.470001
30
26.297001
70
192
0
VERTEX
8
OBJECT__48
10
84.641998
20
49.220001
30
25.535000
70
192
0
VERTEX
8
OBJECT__48
10
83.566002
20
50.168999
30
26.297001
70
192
0
VERTEX
8
OBJECT__48
10
79.740997
20
47.118999
30
26.297001
70
192
0
VERTEX
8
OBJECT__48
10
82.559998
20
46.907001
30
25.535000
70
192
0
VERTEX
8
OBJECT__48
10
78.291000
20
45.007000
30
25.535000
70
192
0
VERTEX
8
OBJECT__48
10
74.500000
20
45.923000
30
26.297001
70
192
0
VERTEX
8
OBJECT__48
10
71.160004
20
46.685001
30
26.297001
70
192
0
VERTEX
8
OBJECT__48
10
71.650002
20
44.588001
30
25.535000
70
192
0
VERTEX
8
OBJECT__48
10
70.709999
20
45.007000
30
25.535000
70
192
0
VERTEX
8
OBJECT__48
10
74.500000
20
44.289001
30
25.535000
70
192
0
VERTEX
8
OBJECT__48
10
77.350998
20
44.588001
30
25.535000
70
192
0
VERTEX
8
OBJECT__48
10
77.841003
20
46.685001
30
26.297001
70
192
0
VERTEX
8
OBJECT__48
10
65.434998
20
50.168999
30
26.297001
70
192
0
VERTEX
8
OBJECT__48
10
64.359001
20
49.220001
30
25.535000
70
192
0
VERTEX
8
OBJECT__48
10
66.441002
20
46.907001
30
25.535000
70
192
0
VERTEX
8
OBJECT__48
10
69.260002
20
47.118999
30
26.297001
70
192
0
VERTEX
8
OBJECT__48
10
62.625999
20
51.144001
30
25.535000
70
192
0
VERTEX
8
OBJECT__48
10
65.057999
20
50.470001
30
26.297001
70
192
0
VERTEX
8
OBJECT__48
10
62.726002
20
55.313000
30
26.297001
70
192
0
VERTEX
8
OBJECT__48
10
61.022999
20
56.078999
30
25.535000
70
192
0
VERTEX
8
OBJECT__48
10
63.785000
20
62.887001
30
26.297001
70
192
0
VERTEX
8
OBJECT__48
10
62.234001
20
63.577000
30
25.535000
70
192
0
VERTEX
8
OBJECT__48
10
61.459999
20
62.237000
30
25.535000
70
192
0
VERTEX
8
OBJECT__48
10
60.863998
20
56.567001
30
25.535000
70
192
0
VERTEX
8
OBJECT__48
10
62.726002
20
56.280998
30
26.297001
70
192
0
VERTEX
8
OBJECT__48
10
62.726002
20
60.687000
30
26.297001
70
192
0
VERTEX
8
OBJECT__48
10
68.121002
20
67.972000
30
26.297001
70
192
0
VERTEX
8
OBJECT__48
10
67.250999
20
69.309998
30
25.535000
70
192
0
VERTEX
8
OBJECT__48
10
64.310997
20
67.175003
30
25.535000
70
192
0
VERTEX
8
OBJECT__48
10
65.057999
20
65.529999
30
26.297001
70
192
0
VERTEX
8
OBJECT__48
10
68.924004
20
70.526001
30
25.535000
70
192
0
VERTEX
8
OBJECT__48
10
69.260002
20
68.880997
30
26.297001
70
192
0
VERTEX
8
OBJECT__48
10
0
20
0
30
0
70
128
71
1
72
2
73
3
0
VERTEX
8
OBJECT__48
10
0
20
0
30
0
70
128
71
2
72
4
73
5
0
VERTEX
8
OBJECT__48
10
0
20
0
30
0
70
128
71
5
72
3
73
2
0
VERTEX
8
OBJECT__48
10
0
20
0
30
0
70
128
71
6
72
7
73
8
0
VERTEX
8
OBJECT__48
10
0
20
0
30
0
70
128
71
9
72
8
73
7
0
VERTEX
8
OBJECT__48
10
0
20
0
30
0
70
128
71
7
72
1
73
9
0
VERTEX
8
OBJECT__48
10
0
20
0
30
0
70
128
71
10
72
11
73
12
0
VERTEX
8
OBJECT__48
10
0
20
0
30
0
70
128
71
13
72
14
73
10
0
VERTEX
8
OBJECT__48
10
0
20
0
30
0
70
128
71
15
72
12
73
11
0
VERTEX
8
OBJECT__48
10
0
20
0
30
0
70
128
71
11
72
6
73
15
0
VERTEX
8
OBJECT__48
10
0
20
0
30
0
70
128
71
16
72
14
73
17
0
VERTEX
8
OBJECT__48
10
0
20
0
30
0
70
128
71
18
72
19
73
16
0
VERTEX
8
OBJECT__48
10
0
20
0
30
0
70
128
71
14
72
13
73
17
0
VERTEX
8
OBJECT__48
10
0
20
0
30
0
70
128
71
17
72
18
73
16
0
VERTEX
8
OBJECT__48
10
0
20
0
30
0
70
128
71
20
72
21
73
22
0
VERTEX
8
OBJECT__48
10
0
20
0
30
0
70
128
71
21
72
23
73
22
0
VERTEX
8
OBJECT__48
10
0
20
0
30
0
70
128
71
22
72
19
73
20
0
VERTEX
8
OBJECT__48
10
0
20
0
30
0
70
128
71
24
72
25
73
26
0
VERTEX
8
OBJECT__48
10
0
20
0
30
0
70
128
71
25
72
27
73
26
0
VERTEX
8
OBJECT__48
10
0
20
0
30
0
70
128
71
24
72
28
73
29
0
VERTEX
8
OBJECT__48
10
0
20
0
30
0
70
128
71
29
72
30
73
24
0
VERTEX
8
OBJECT__48
10
0
20
0
30
0
70
128
71
29
72
23
73
30
0
VERTEX
8
OBJECT__48
10
0
20
0
30
0
70
128
71
31
72
32
73
33
0
VERTEX
8
OBJECT__48
10
0
20
0
30
0
70
128
71
33
72
34
73
31
0
VERTEX
8
OBJECT__48
10
0
20
0
30
0
70
128
71
27
72
25
73
34
0
VERTEX
8
OBJECT__48
10
0
20
0
30
0
70
128
71
35
72
36
73
37
0
VERTEX
8
OBJECT__48
10
0
20
0
30
0
70
128
71
37
72
38
73
35
0
VERTEX
8
OBJECT__48
10
0
20
0
30
0
70
128
71
35
72
32
73
36
0
VERTEX
8
OBJECT__48
10
0
20
0
30
0
70
128
71
32
72
31
73
36
0
VERTEX
8
OBJECT__48
10
0
20
0
30
0
70
128
71
39
72
40
73
41
0
VERTEX
8
OBJECT__48
10
0
20
0
30
0
70
128
71
42
72
43
73
44
0
VERTEX
8
OBJECT__48
10
0
20
0
30
0
70
128
71
44
72
41
73
42
0
VERTEX
8
OBJECT__48
10
0
20
0
30
0
70
128
71
42
72
38
73
43
0
VERTEX
8
OBJECT__48
10
0
20
0
30
0
70
128
71
45
72
46
73
47
0
VERTEX
8
OBJECT__48
10
0
20
0
30
0
70
128
71
40
72
39
73
48
0
VERTEX
8
OBJECT__48
10
0
20
0
30
0
70
128
71
48
72
47
73
40
0
VERTEX
8
OBJECT__48
10
0
20
0
30
0
70
128
71
49
72
50
73
5
0
VERTEX
8
OBJECT__48
10
0
20
0
30
0
70
128
71
46
72
45
73
50
0
VERTEX
8
OBJECT__48
10
0
20
0
30
0
70
128
71
50
72
49
73
46
0
VERTEX
8
OBJECT__48
10
0
20
0
30
0
70
128
71
5
72
4
73
49
0
VERTEX
8
OBJECT__48
10
0
20
0
30
0
70
128
71
47
72
48
73
45
0
VERTEX
8
OBJECT__48
10
0
20
0
30
0
70
128
71
41
72
44
73
39
0
VERTEX
8
OBJECT__48
10
0
20
0
30
0
70
128
71
37
72
43
73
38
0
VERTEX
8
OBJECT__48
10
0
20
0
30
0
70
128
71
33
72
27
73
34
0
VERTEX
8
OBJECT__48
10
0
20
0
30
0
70
128
71
26
72
28
73
24
0
VERTEX
8
OBJECT__48
10
0
20
0
30
0
70
128
71
21
72
30
73
23
0
VERTEX
8
OBJECT__48
10
0
20
0
30
0
70
128
71
18
72
20
73
19
0
VERTEX
8
OBJECT__48
10
0
20
0
30
0
70
128
71
12
72
13
73
10
0
VERTEX
8
OBJECT__48
10
0
20
0
30
0
70
128
71
8
72
15
73
6
0
VERTEX
8
OBJECT__48
10
0
20
0
30
0
70
128
71
3
72
9
73
1
0
SEQEND
8
OBJECT__48
0
POLYLINE
8
OBJECT__49
66
1
70
64
71
52
72
52
62
253
0
VERTEX
8
OBJECT__49
10
74.500000
20
71.710999
30
25.535000
70
192
0
VERTEX
8
OBJECT__49
10
80.077003
20
70.526001
30
25.535000
70
192
0
VERTEX
8
OBJECT__49
10
78.389999
20
71.172997
30
25.080999
70
192
0
VERTEX
8
OBJECT__49
10
80.195000
20
70.790001
30
25.080999
70
192
0
VERTEX
8
OBJECT__49
10
84.903999
20
67.367996
30
25.080999
70
192
0
VERTEX
8
OBJECT__49
10
81.750000
20
69.309998
30
25.535000
70
192
0
VERTEX
8
OBJECT__49
10
85.035004
20
67.141998
30
25.080999
70
192
0
VERTEX
8
OBJECT__49
10
84.690002
20
67.175003
30
25.535000
70
192
0
VERTEX
8
OBJECT__49
10
86.766998
20
63.577000
30
25.535000
70
192
0
VERTEX
8
OBJECT__49
10
87.815002
20
62.326000
30
25.080999
70
192
0
VERTEX
8
OBJECT__49
10
87.541000
20
62.237000
30
25.535000
70
192
0
VERTEX
8
OBJECT__49
10
88.137001
20
56.567001
30
25.535000
70
192
0
VERTEX
8
OBJECT__49
10
88.424004
20
56.536999
30
25.080999
70
192
0
VERTEX
8
OBJECT__49
10
88.064003
20
59.960999
30
25.080999
70
192
0
VERTEX
8
OBJECT__49
10
87.977997
20
56.078999
30
25.535000
70
192
0
VERTEX
8
OBJECT__49
10
86.375000
20
51.144001
30
25.535000
70
192
0
VERTEX
8
OBJECT__49
10
87.030998
20
52.250999
30
25.080999
70
192
0
VERTEX
8
OBJECT__49
10
86.625000
20
51.000000
30
25.080999
70
192
0
VERTEX
8
OBJECT__49
10
82.728996
20
46.674000
30
25.080999
70
192
0
VERTEX
8
OBJECT__49
10
84.641998
20
49.220001
30
25.535000
70
192
0
VERTEX
8
OBJECT__49
10
82.011002
20
46.354000
30
25.080999
70
192
0
VERTEX
8
OBJECT__49
10
82.559998
20
46.907001
30
25.535000
70
192
0
VERTEX
8
OBJECT__49
10
78.291000
20
45.007000
30
25.535000
70
192
0
VERTEX
8
OBJECT__49
10
77.411003
20
44.306000
30
25.080999
70
192
0
VERTEX
8
OBJECT__49
10
71.589996
20
44.306000
30
25.080999
70
192
0
VERTEX
8
OBJECT__49
10
74.500000
20
44.306000
30
25.080999
70
192
0
VERTEX
8
OBJECT__49
10
74.500000
20
44.289001
30
25.535000
70
192
0
VERTEX
8
OBJECT__49
10
77.350998
20
44.588001
30
25.535000
70
192
0
VERTEX
8
OBJECT__49
10
66.989998
20
46.354000
30
25.080999
70
192
0
VERTEX
8
OBJECT__49
10
70.709999
20
45.007000
30
25.535000
70
192
0
VERTEX
8
OBJECT__49
10
66.441002
20
46.907001
30
25.535000
70
192
0
VERTEX
8
OBJECT__49
10
66.271004
20
46.674000
30
25.080999
70
192
0
VERTEX
8
OBJECT__49
10
71.650002
20
44.588001
30
25.535000
70
192
0
VERTEX
8
OBJECT__49
10
64.359001
20
49.220001
30
25.535000
70
192
0
VERTEX
8
OBJECT__49
10
62.375999
20
51.000000
30
25.080999
70
192
0
VERTEX
8
OBJECT__49
10
61.022999
20
56.078999
30
25.535000
70
192
0
VERTEX
8
OBJECT__49
10
60.577000
20
56.536999
30
25.080999
70
192
0
VERTEX
8
OBJECT__49
10
61.970001
20
52.250999
30
25.080999
70
192
0
VERTEX
8
OBJECT__49
10
62.625999
20
51.144001
30
25.535000
70
192
0
VERTEX
8
OBJECT__49
10
60.863998
20
56.567001
30
25.535000
70
192
0
VERTEX
8
OBJECT__49
10
61.459999
20
62.237000
30
25.535000
70
192
0
VERTEX
8
OBJECT__49
10
60.937000
20
59.960999
30
25.080999
70
192
0
VERTEX
8
OBJECT__49
10
61.186001
20
62.326000
30
25.080999
70
192
0
VERTEX
8
OBJECT__49
10
63.966000
20
67.141998
30
25.080999
70
192
0
VERTEX
8
OBJECT__49
10
62.234001
20
63.577000
30
25.535000
70
192
0
VERTEX
8
OBJECT__49
10
64.310997
20
67.175003
30
25.535000
70
192
0
VERTEX
8
OBJECT__49
10
64.096001
20
67.367996
30
25.080999
70
192
0
VERTEX
8
OBJECT__49
10
67.250999
20
69.309998
30
25.535000
70
192
0
VERTEX
8
OBJECT__49
10
68.806000
20
70.790001
30
25.080999
70
192
0
VERTEX
8
OBJECT__49
10
74.500000
20
72.000000
30
25.080999
70
192
0
VERTEX
8
OBJECT__49
10
70.611000
20
71.172997
30
25.080999
70
192
0
VERTEX
8
OBJECT__49
10
68.924004
20
70.526001
30
25.535000
70
192
0
VERTEX
8
OBJECT__49
10
0
20
0
30
0
70
128
71
1
72
2
73
3
0
VERTEX
8
OBJECT__49
10
0
20
0
30
0
70
128
71
2
72
4
73
3
0
VERTEX
8
OBJECT__49
10
0
20
0
30
0
70
128
71
5
72
4
73
6
0
VERTEX
8
OBJECT__49
10
0
20
0
30
0
70
128
71
4
72
2
73
6
0
VERTEX
8
OBJECT__49
10
0
20
0
30
0
70
128
71
7
72
8
73
9
0
VERTEX
8
OBJECT__49
10
0
20
0
30
0
70
128
71
9
72
10
73
7
0
VERTEX
8
OBJECT__49
10
0
20
0
30
0
70
128
71
9
72
11
73
10
0
VERTEX
8
OBJECT__49
10
0
20
0
30
0
70
128
71
12
72
13
73
14
0
VERTEX
8
OBJECT__49
10
0
20
0
30
0
70
128
71
14
72
11
73
12
0
VERTEX
8
OBJECT__49
10
0
20
0
30
0
70
128
71
15
72
16
73
17
0
VERTEX
8
OBJECT__49
10
0
20
0
30
0
70
128
71
13
72
12
73
15
0
VERTEX
8
OBJECT__49
10
0
20
0
30
0
70
128
71
16
72
18
73
17
0
VERTEX
8
OBJECT__49
10
0
20
0
30
0
70
128
71
19
72
18
73
20
0
VERTEX
8
OBJECT__49
10
0
20
0
30
0
70
128
71
18
72
16
73
20
0
VERTEX
8
OBJECT__49
10
0
20
0
30
0
70
128
71
21
72
22
73
23
0
VERTEX
8
OBJECT__49
10
0
20
0
30
0
70
128
71
23
72
24
73
21
0
VERTEX
8
OBJECT__49
10
0
20
0
30
0
70
128
71
21
72
19
73
22
0
VERTEX
8
OBJECT__49
10
0
20
0
30
0
70
128
71
25
72
26
73
27
0
VERTEX
8
OBJECT__49
10
0
20
0
30
0
70
128
71
28
72
27
73
26
0
VERTEX
8
OBJECT__49
10
0
20
0
30
0
70
128
71
26
72
24
73
28
0
VERTEX
8
OBJECT__49
10
0
20
0
30
0
70
128
71
29
72
25
73
30
0
VERTEX
8
OBJECT__49
10
0
20
0
30
0
70
128
71
31
72
32
73
29
0
VERTEX
8
OBJECT__49
10
0
20
0
30
0
70
128
71
25
72
33
73
30
0
VERTEX
8
OBJECT__49
10
0
20
0
30
0
70
128
71
32
72
31
73
34
0
VERTEX
8
OBJECT__49
10
0
20
0
30
0
70
128
71
34
72
35
73
32
0
VERTEX
8
OBJECT__49
10
0
20
0
30
0
70
128
71
36
72
37
73
38
0
VERTEX
8
OBJECT__49
10
0
20
0
30
0
70
128
71
38
72
39
73
36
0
VERTEX
8
OBJECT__49
10
0
20
0
30
0
70
128
71
38
72
35
73
39
0
VERTEX
8
OBJECT__49
10
0
20
0
30
0
70
128
71
40
72
41
73
42
0
VERTEX
8
OBJECT__49
10
0
20
0
30
0
70
128
71
41
72
43
73
42
0
VERTEX
8
OBJECT__49
10
0
20
0
30
0
70
128
71
44
72
43
73
45
0
VERTEX
8
OBJECT__49
10
0
20
0
30
0
70
128
71
46
72
47
73
44
0
VERTEX
8
OBJECT__49
10
0
20
0
30
0
70
128
71
43
72
41
73
45
0
VERTEX
8
OBJECT__49
10
0
20
0
30
0
70
128
71
47
72
46
73
48
0
VERTEX
8
OBJECT__49
10
0
20
0
30
0
70
128
71
48
72
49
73
47
0
VERTEX
8
OBJECT__49
10
0
20
0
30
0
70
128
71
1
72
50
73
51
0
VERTEX
8
OBJECT__49
10
0
20
0
30
0
70
128
71
51
72
52
73
1
0
VERTEX
8
OBJECT__49
10
0
20
0
30
0
70
128
71
51
72
49
73
52
0
VERTEX
8
OBJECT__49
10
0
20
0
30
0
70
128
71
48
72
52
73
49
0
VERTEX
8
OBJECT__49
10
0
20
0
30
0
70
128
71
45
72
46
73
44
0
VERTEX
8
OBJECT__49
10
0
20
0
30
0
70
128
71
42
72
37
73
40
0
VERTEX
8
OBJECT__49
10
0
20
0
30
0
70
128
71
36
72
40
73
37
0
VERTEX
8
OBJECT__49
10
0
20
0
30
0
70
128
71
34
72
39
73
35
0
VERTEX
8
OBJECT__49
10
0
20
0
30
0
70
128
71
30
72
31
73
29
0
VERTEX
8
OBJECT__49
10
0
20
0
30
0
70
128
71
27
72
33
73
25
0
VERTEX
8
OBJECT__49
10
0
20
0
30
0
70
128
71
23
72
28
73
24
0
VERTEX
8
OBJECT__49
10
0
20
0
30
0
70
128
71
20
72
22
73
19
0
VERTEX
8
OBJECT__49
10
0
20
0
30
0
70
128
71
17
72
13
73
15
0
VERTEX
8
OBJECT__49
10
0
20
0
30
0
70
128
71
14
72
10
73
11
0
VERTEX
8
OBJECT__49
10
0
20
0
30
0
70
128
71
7
72
5
73
8
0
VERTEX
8
OBJECT__49
10
0
20
0
30
0
70
128
71
6
72
8
73
5
0
VERTEX
8
OBJECT__49
10
0
20
0
30
0
70
128
71
3
72
50
73
1
0
SEQEND
8
OBJECT__49
0
POLYLINE
8
OBJECT__50
66
1
70
64
71
37
72
37
62
253
0
VERTEX
8
OBJECT__50
10
82.069000
20
46.222000
30
22.000000
70
192
0
VERTEX
8
OBJECT__50
10
82.011002
20
46.354000
30
25.080999
70
192
0
VERTEX
8
OBJECT__50
10
77.411003
20
44.306000
30
25.080999
70
192
0
VERTEX
8
OBJECT__50
10
74.500000
20
44.000000
30
22.000000
70
192
0
VERTEX
8
OBJECT__50
10
87.235001
20
52.183998
30
22.000000
70
192
0
VERTEX
8
OBJECT__50
10
86.625000
20
51.000000
30
25.080999
70
192
0
VERTEX
8
OBJECT__50
10
82.728996
20
46.674000
30
25.080999
70
192
0
VERTEX
8
OBJECT__50
10
87.030998
20
52.250999
30
25.080999
70
192
0
VERTEX
8
OBJECT__50
10
88.358002
20
59.992001
30
22.000000
70
192
0
VERTEX
8
OBJECT__50
10
88.424004
20
56.536999
30
25.080999
70
192
0
VERTEX
8
OBJECT__50
10
88.064003
20
59.960999
30
25.080999
70
192
0
VERTEX
8
OBJECT__50
10
85.081001
20
67.167999
30
22.000000
70
192
0
VERTEX
8
OBJECT__50
10
85.035004
20
67.141998
30
25.080999
70
192
0
VERTEX
8
OBJECT__50
10
87.815002
20
62.326000
30
25.080999
70
192
0
VERTEX
8
OBJECT__50
10
78.445000
20
71.432999
30
22.000000
70
192
0
VERTEX
8
OBJECT__50
10
80.195000
20
70.790001
30
25.080999
70
192
0
VERTEX
8
OBJECT__50
10
84.903999
20
67.367996
30
25.080999
70
192
0
VERTEX
8
OBJECT__50
10
78.389999
20
71.172997
30
25.080999
70
192
0
VERTEX
8
OBJECT__50
10
70.556000
20
71.432999
30
22.000000
70
192
0
VERTEX
8
OBJECT__50
10
74.500000
20
72.000000
30
25.080999
70
192
0
VERTEX
8
OBJECT__50
10
70.611000
20
71.172997
30
25.080999
70
192
0
VERTEX
8
OBJECT__50
10
63.919998
20
67.167999
30
22.000000
70
192
0
VERTEX
8
OBJECT__50
10
64.096001
20
67.367996
30
25.080999
70
192
0
VERTEX
8
OBJECT__50
10
68.806000
20
70.790001
30
25.080999
70
192
0
VERTEX
8
OBJECT__50
10
63.966000
20
67.141998
30
25.080999
70
192
0
VERTEX
8
OBJECT__50
10
60.643002
20
59.992001
30
22.000000
70
192
0
VERTEX
8
OBJECT__50
10
61.186001
20
62.326000
30
25.080999
70
192
0
VERTEX
8
OBJECT__50
10
60.937000
20
59.960999
30
25.080999
70
192
0
VERTEX
8
OBJECT__50
10
61.765999
20
52.183998
30
22.000000
70
192
0
VERTEX
8
OBJECT__50
10
61.970001
20
52.250999
30
25.080999
70
192
0
VERTEX
8
OBJECT__50
10
60.577000
20
56.536999
30
25.080999
70
192
0
VERTEX
8
OBJECT__50
10
66.931000
20
46.222000
30
22.000000
70
192
0
VERTEX
8
OBJECT__50
10
66.271004
20
46.674000
30
25.080999
70
192
0
VERTEX
8
OBJECT__50
10
62.375999
20
51.000000
30
25.080999
70
192
0
VERTEX
8
OBJECT__50
10
66.989998
20
46.354000
30
25.080999
70
192
0
VERTEX
8
OBJECT__50
10
71.589996
20
44.306000
30
25.080999
70
192
0
VERTEX
8
OBJECT__50
10
74.500000
20
44.306000
30
25.080999
70
192
0
VERTEX
8
OBJECT__50
10
0
20
0
30
0
70
128
71
1
72
2
73
3
0
VERTEX
8
OBJECT__50
10
0
20
0
30
0
70
128
71
3
72
4
73
1
0
VERTEX
8
OBJECT__50
10
0
20
0
30
0
70
128
71
1
72
5
73
6
0
VERTEX
8
OBJECT__50
10
0
20
0
30
0
70
128
71
6
72
7
73
1
0
VERTEX
8
OBJECT__50
10
0
20
0
30
0
70
128
71
5
72
8
73
6
0
VERTEX
8
OBJECT__50
10
0
20
0
30
0
70
128
71
5
72
9
73
10
0
VERTEX
8
OBJECT__50
10
0
20
0
30
0
70
128
71
9
72
11
73
10
0
VERTEX
8
OBJECT__50
10
0
20
0
30
0
70
128
71
12
72
13
73
14
0
VERTEX
8
OBJECT__50
10
0
20
0
30
0
70
128
71
14
72
9
73
12
0
VERTEX
8
OBJECT__50
10
0
20
0
30
0
70
128
71
12
72
15
73
16
0
VERTEX
8
OBJECT__50
10
0
20
0
30
0
70
128
71
16
72
17
73
12
0
VERTEX
8
OBJECT__50
10
0
20
0
30
0
70
128
71
15
72
18
73
16
0
VERTEX
8
OBJECT__50
10
0
20
0
30
0
70
128
71
15
72
19
73
20
0
VERTEX
8
OBJECT__50
10
0
20
0
30
0
70
128
71
19
72
21
73
20
0
VERTEX
8
OBJECT__50
10
0
20
0
30
0
70
128
71
22
72
23
73
24
0
VERTEX
8
OBJECT__50
10
0
20
0
30
0
70
128
71
24
72
19
73
22
0
VERTEX
8
OBJECT__50
10
0
20
0
30
0
70
128
71
22
72
25
73
23
0
VERTEX
8
OBJECT__50
10
0
20
0
30
0
70
128
71
22
72
26
73
27
0
VERTEX
8
OBJECT__50
10
0
20
0
30
0
70
128
71
26
72
28
73
27
0
VERTEX
8
OBJECT__50
10
0
20
0
30
0
70
128
71
29
72
30
73
31
0
VERTEX
8
OBJECT__50
10
0
20
0
30
0
70
128
71
31
72
26
73
29
0
VERTEX
8
OBJECT__50
10
0
20
0
30
0
70
128
71
32
72
33
73
34
0
VERTEX
8
OBJECT__50
10
0
20
0
30
0
70
128
71
34
72
29
73
32
0
VERTEX
8
OBJECT__50
10
0
20
0
30
0
70
128
71
32
72
35
73
33
0
VERTEX
8
OBJECT__50
10
0
20
0
30
0
70
128
71
32
72
4
73
36
0
VERTEX
8
OBJECT__50
10
0
20
0
30
0
70
128
71
4
72
37
73
36
0
VERTEX
8
OBJECT__50
10
0
20
0
30
0
70
128
71
36
72
35
73
32
0
VERTEX
8
OBJECT__50
10
0
20
0
30
0
70
128
71
34
72
30
73
29
0
VERTEX
8
OBJECT__50
10
0
20
0
30
0
70
128
71
31
72
28
73
26
0
VERTEX
8
OBJECT__50
10
0
20
0
30
0
70
128
71
27
72
25
73
22
0
VERTEX
8
OBJECT__50
10
0
20
0
30
0
70
128
71
24
72
21
73
19
0
VERTEX
8
OBJECT__50
10
0
20
0
30
0
70
128
71
20
72
18
73
15
0
VERTEX
8
OBJECT__50
10
0
20
0
30
0
70
128
71
17
72
13
73
12
0
VERTEX
8
OBJECT__50
10
0
20
0
30
0
70
128
71
14
72
11
73
9
0
VERTEX
8
OBJECT__50
10
0
20
0
30
0
70
128
71
10
72
8
73
5
0
VERTEX
8
OBJECT__50
10
0
20
0
30
0
70
128
71
7
72
2
73
1
0
VERTEX
8
OBJECT__50
10
0
20
0
30
0
70
128
71
3
72
37
73
4
0
SEQEND
8
OBJECT__50
0
POLYLINE
8
OBJECT__51
66
1
70
64
71
26
72
26
62
253
0
VERTEX
8
OBJECT__51
10
25.000000
20
-75.000000
30
-19.500000
70
192
0
VERTEX
8
OBJECT__51
10
25.000000
20
-65.938004
30
-17.266001
70
192
0
VERTEX
8
OBJECT__51
10
52.000000
20
-65.938004
30
-17.266001
70
192
0
VERTEX
8
OBJECT__51
10
52.000000
20
-75.000000
30
-19.500000
70
192
0
VERTEX
8
OBJECT__51
10
25.000000
20
-58.952000
30
-11.077000
70
192
0
VERTEX
8
OBJECT__51
10
52.000000
20
-58.952000
30
-11.077000
70
192
0
VERTEX
8
OBJECT__51
10
25.000000
20
-55.641998
30
-2.350000
70
192
0
VERTEX
8
OBJECT__51
10
52.000000
20
-55.641998
30
-2.350000
70
192
0
VERTEX
8
OBJECT__51
10
25.000000
20
-56.766998
30
6.915000
70
192
0
VERTEX
8
OBJECT__51
10
52.000000
20
-56.766998
30
6.915000
70
192
0
VERTEX
8
OBJECT__51
10
25.000000
20
-62.069000
30
14.596000
70
192
0
VERTEX
8
OBJECT__51
10
52.000000
20
-62.069000
30
14.596000
70
192
0
VERTEX
8
OBJECT__51
10
25.000000
20
-70.333000
30
18.933001
70
192
0
VERTEX
8
OBJECT__51
10
52.000000
20
-70.333000
30
18.933001
70
192
0
VERTEX
8
OBJECT__51
10
25.000000
20
-79.667000
30
18.933001
70
192
0
VERTEX
8
OBJECT__51
10
52.000000
20
-79.667000
30
18.933001
70
192
0
VERTEX
8
OBJECT__51
10
25.000000
20
-87.931000
30
14.596000
70
192
0
VERTEX
8
OBJECT__51
10
52.000000
20
-87.931000
30
14.596000
70
192
0
VERTEX
8
OBJECT__51
10
25.000000
20
-93.233002
30
6.915000
70
192
0
VERTEX
8
OBJECT__51
10
52.000000
20
-93.233002
30
6.915000
70
192
0
VERTEX
8
OBJECT__51
10
25.000000
20
-94.358002
30
-2.350000
70
192
0
VERTEX
8
OBJECT__51
10
52.000000
20
-94.358002
30
-2.350000
70
192
0
VERTEX
8
OBJECT__51
10
25.000000
20
-91.047997
30
-11.077000
70
192
0
VERTEX
8
OBJECT__51
10
52.000000
20
-91.047997
30
-11.077000
70
192
0
VERTEX
8
OBJECT__51
10
25.000000
20
-84.061996
30
-17.266001
70
192
0
VERTEX
8
OBJECT__51
10
52.000000
20
-84.061996
30
-17.266001
70
192
0
VERTEX
8
OBJECT__51
10
0
20
0
30
0
70
128
71
1
72
2
73
3
0
VERTEX
8
OBJECT__51
10
0
20
0
30
0
70
128
71
1
72
3
73
4
0
VERTEX
8
OBJECT__51
10
0
20
0
30
0
70
128
71
2
72
5
73
6
0
VERTEX
8
OBJECT__51
10
0
20
0
30
0
70
128
71
2
72
6
73
3
0
VERTEX
8
OBJECT__51
10
0
20
0
30
0
70
128
71
5
72
7
73
8
0
VERTEX
8
OBJECT__51
10
0
20
0
30
0
70
128
71
5
72
8
73
6
0
VERTEX
8
OBJECT__51
10
0
20
0
30
0
70
128
71
7
72
9
73
10
0
VERTEX
8
OBJECT__51
10
0
20
0
30
0
70
128
71
7
72
10
73
8
0
VERTEX
8
OBJECT__51
10
0
20
0
30
0
70
128
71
9
72
11
73
12
0
VERTEX
8
OBJECT__51
10
0
20
0
30
0
70
128
71
9
72
12
73
10
0
VERTEX
8
OBJECT__51
10
0
20
0
30
0
70
128
71
11
72
13
73
14
0
VERTEX
8
OBJECT__51
10
0
20
0
30
0
70
128
71
11
72
14
73
12
0
VERTEX
8
OBJECT__51
10
0
20
0
30
0
70
128
71
13
72
15
73
16
0
VERTEX
8
OBJECT__51
10
0
20
0
30
0
70
128
71
13
72
16
73
14
0
VERTEX
8
OBJECT__51
10
0
20
0
30
0
70
128
71
15
72
17
73
18
0
VERTEX
8
OBJECT__51
10
0
20
0
30
0
70
128
71
15
72
18
73
16
0
VERTEX
8
OBJECT__51
10
0
20
0
30
0
70
128
71
17
72
19
73
20
0
VERTEX
8
OBJECT__51
10
0
20
0
30
0
70
128
71
17
72
20
73
18
0
VERTEX
8
OBJECT__51
10
0
20
0
30
0
70
128
71
19
72
21
73
22
0
VERTEX
8
OBJECT__51
10
0
20
0
30
0
70
128
71
19
72
22
73
20
0
VERTEX
8
OBJECT__51
10
0
20
0
30
0
70
128
71
21
72
23
73
24
0
VERTEX
8
OBJECT__51
10
0
20
0
30
0
70
128
71
21
72
24
73
22
0
VERTEX
8
OBJECT__51
10
0
20
0
30
0
70
128
71
23
72
25
73
26
0
VERTEX
8
OBJECT__51
10
0
20
0
30
0
70
128
71
23
72
26
73
24
0
VERTEX
8
OBJECT__51
10
0
20
0
30
0
70
128
71
25
72
1
73
4
0
VERTEX
8
OBJECT__51
10
0
20
0
30
0
70
128
71
25
72
4
73
26
0
SEQEND
8
OBJECT__51
0
POLYLINE
8
OBJECT__53
66
1
70
64
71
30
72
30
62
253
0
VERTEX
8
OBJECT__53
10
69.000000
20
-26.510000
30
-7.603000
70
192
0
VERTEX
8
OBJECT__53
10
69.000000
20
-25.951000
30
56.400002
70
192
0
VERTEX
8
OBJECT__53
10
58.445000
20
-23.708000
30
56.400002
70
192
0
VERTEX
8
OBJECT__53
10
49.299999
20
-17.739000
30
-7.603000
70
192
0
VERTEX
8
OBJECT__53
10
58.217999
20
-24.218000
30
-7.603000
70
192
0
VERTEX
8
OBJECT__53
10
43.787998
20
-8.192000
30
-7.603000
70
192
0
VERTEX
8
OBJECT__53
10
49.715000
20
-17.365000
30
56.400002
70
192
0
VERTEX
8
OBJECT__53
10
42.636002
20
2.771000
30
-7.603000
70
192
0
VERTEX
8
OBJECT__53
10
44.319000
20
-8.019000
30
56.400002
70
192
0
VERTEX
8
OBJECT__53
10
46.042000
20
13.255000
30
-7.603000
70
192
0
VERTEX
8
OBJECT__53
10
43.191002
20
2.713000
30
56.400002
70
192
0
VERTEX
8
OBJECT__53
10
53.417999
20
21.447001
30
-7.603000
70
192
0
VERTEX
8
OBJECT__53
10
46.526001
20
12.976000
30
56.400002
70
192
0
VERTEX
8
OBJECT__53
10
63.488998
20
25.931000
30
-7.603000
70
192
0
VERTEX
8
OBJECT__53
10
53.747002
20
20.995001
30
56.400002
70
192
0
VERTEX
8
OBJECT__53
10
74.512001
20
25.931000
30
-7.603000
70
192
0
VERTEX
8
OBJECT__53
10
63.605000
20
25.384001
30
56.400002
70
192
0
VERTEX
8
OBJECT__53
10
84.583000
20
21.447001
30
-7.603000
70
192
0
VERTEX
8
OBJECT__53
10
74.396004
20
25.384001
30
56.400002
70
192
0
VERTEX
8
OBJECT__53
10
84.253998
20
20.995001
30
56.400002
70
192
0
VERTEX
8
OBJECT__53
10
91.474998
20
12.976000
30
56.400002
70
192
0
VERTEX
8
OBJECT__53
10
95.364998
20
2.771000
30
-7.603000
70
192
0
VERTEX
8
OBJECT__53
10
91.959000
20
13.255000
30
-7.603000
70
192
0
VERTEX
8
OBJECT__53
10
94.212997
20
-8.192000
30
-7.603000
70
192
0
VERTEX
8
OBJECT__53
10
94.809998
20
2.713000
30
56.400002
70
192
0
VERTEX
8
OBJECT__53
10
88.700996
20
-17.739000
30
-7.603000
70
192
0
VERTEX
8
OBJECT__53
10
93.681999
20
-8.019000
30
56.400002
70
192
0
VERTEX
8
OBJECT__53
10
79.782997
20
-24.218000
30
-7.603000
70
192
0
VERTEX
8
OBJECT__53
10
88.286003
20
-17.365000
30
56.400002
70
192
0
VERTEX
8
OBJECT__53
10
79.556000
20
-23.708000
30
56.400002
70
192
0
VERTEX
8
OBJECT__53
10
0
20
0
30
0
70
128
71
1
72
2
73
3
0
VERTEX
8
OBJECT__53
10
0
20
0
30
0
70
128
71
4
72
5
73
3
0
VERTEX
8
OBJECT__53
10
0
20
0
30
0
70
128
71
6
72
4
73
7
0
VERTEX
8
OBJECT__53
10
0
20
0
30
0
70
128
71
8
72
6
73
9
0
VERTEX
8
OBJECT__53
10
0
20
0
30
0
70
128
71
10
72
8
73
11
0
VERTEX
8
OBJECT__53
10
0
20
0
30
0
70
128
71
12
72
10
73
13
0
VERTEX
8
OBJECT__53
10
0
20
0
30
0
70
128
71
14
72
12
73
15
0
VERTEX
8
OBJECT__53
10
0
20
0
30
0
70
128
71
16
72
14
73
17
0
VERTEX
8
OBJECT__53
10
0
20
0
30
0
70
128
71
18
72
16
73
19
0
VERTEX
8
OBJECT__53
10
0
20
0
30
0
70
128
71
18
72
20
73
21
0
VERTEX
8
OBJECT__53
10
0
20
0
30
0
70
128
71
22
72
23
73
21
0
VERTEX
8
OBJECT__53
10
0
20
0
30
0
70
128
71
24
72
22
73
25
0
VERTEX
8
OBJECT__53
10
0
20
0
30
0
70
128
71
26
72
24
73
27
0
VERTEX
8
OBJECT__53
10
0
20
0
30
0
70
128
71
28
72
26
73
29
0
VERTEX
8
OBJECT__53
10
0
20
0
30
0
70
128
71
1
72
28
73
30
0
VERTEX
8
OBJECT__53
10
0
20
0
30
0
70
128
71
30
72
2
73
1
0
VERTEX
8
OBJECT__53
10
0
20
0
30
0
70
128
71
29
72
30
73
28
0
VERTEX
8
OBJECT__53
10
0
20
0
30
0
70
128
71
27
72
29
73
26
0
VERTEX
8
OBJECT__53
10
0
20
0
30
0
70
128
71
25
72
27
73
24
0
VERTEX
8
OBJECT__53
10
0
20
0
30
0
70
128
71
21
72
25
73
22
0
VERTEX
8
OBJECT__53
10
0
20
0
30
0
70
128
71
21
72
23
73
18
0
VERTEX
8
OBJECT__53
10
0
20
0
30
0
70
128
71
19
72
20
73
18
0
VERTEX
8
OBJECT__53
10
0
20
0
30
0
70
128
71
17
72
19
73
16
0
VERTEX
8
OBJECT__53
10
0
20
0
30
0
70
128
71
15
72
17
73
14
0
VERTEX
8
OBJECT__53
10
0
20
0
30
0
70
128
71
13
72
15
73
12
0
VERTEX
8
OBJECT__53
10
0
20
0
30
0
70
128
71
11
72
13
73
10
0
VERTEX
8
OBJECT__53
10
0
20
0
30
0
70
128
71
9
72
11
73
8
0
VERTEX
8
OBJECT__53
10
0
20
0
30
0
70
128
71
7
72
9
73
6
0
VERTEX
8
OBJECT__53
10
0
20
0
30
0
70
128
71
3
72
7
73
4
0
VERTEX
8
OBJECT__53
10
0
20
0
30
0
70
128
71
3
72
5
73
1
0
SEQEND
8
OBJECT__53
0
POLYLINE
8
OBJECT__54
66
1
70
64
71
35
72
35
62
253
0
VERTEX
8
OBJECT__54
10
53.747002
20
20.995001
30
56.400002
70
192
0
VERTEX
8
OBJECT__54
10
46.526001
20
12.976000
30
56.400002
70
192
0
VERTEX
8
OBJECT__54
10
49.366001
20
14.265000
30
56.400002
70
192
0
VERTEX
8
OBJECT__54
10
43.191002
20
2.713000
30
56.400002
70
192
0
VERTEX
8
OBJECT__54
10
44.730999
20
0.000000
30
56.400002
70
192
0
VERTEX
8
OBJECT__54
10
45.918999
20
7.500000
30
56.400002
70
192
0
VERTEX
8
OBJECT__54
10
44.319000
20
-8.019000
30
56.400002
70
192
0
VERTEX
8
OBJECT__54
10
45.918999
20
-7.500000
30
56.400002
70
192
0
VERTEX
8
OBJECT__54
10
49.715000
20
-17.365000
30
56.400002
70
192
0
VERTEX
8
OBJECT__54
10
49.366001
20
-14.265000
30
56.400002
70
192
0
VERTEX
8
OBJECT__54
10
54.735001
20
-19.634001
30
56.400002
70
192
0
VERTEX
8
OBJECT__54
10
58.445000
20
-23.708000
30
56.400002
70
192
0
VERTEX
8
OBJECT__54
10
61.500999
20
-23.080999
30
56.400002
70
192
0
VERTEX
8
OBJECT__54
10
69.000000
20
-25.951000
30
56.400002
70
192
0
VERTEX
8
OBJECT__54
10
69.000000
20
-24.268999
30
56.400002
70
192
0
VERTEX
8
OBJECT__54
10
79.556000
20
-23.708000
30
56.400002
70
192
0
VERTEX
8
OBJECT__54
10
76.500000
20
-23.080999
30
56.400002
70
192
0
VERTEX
8
OBJECT__54
10
94.809998
20
2.713000
30
56.400002
70
192
0
VERTEX
8
OBJECT__54
10
91.474998
20
12.976000
30
56.400002
70
192
0
VERTEX
8
OBJECT__54
10
92.082001
20
7.500000
30
56.400002
70
192
0
VERTEX
8
OBJECT__54
10
84.253998
20
20.995001
30
56.400002
70
192
0
VERTEX
8
OBJECT__54
10
83.265999
20
19.634001
30
56.400002
70
192
0
VERTEX
8
OBJECT__54
10
88.635002
20
14.265000
30
56.400002
70
192
0
VERTEX
8
OBJECT__54
10
74.396004
20
25.384001
30
56.400002
70
192
0
VERTEX
8
OBJECT__54
10
76.500000
20
23.080999
30
56.400002
70
192
0
VERTEX
8
OBJECT__54
10
63.605000
20
25.384001
30
56.400002
70
192
0
VERTEX
8
OBJECT__54
10
69.000000
20
24.268999
30
56.400002
70
192
0
VERTEX
8
OBJECT__54
10
88.286003
20
-17.365000
30
56.400002
70
192
0
VERTEX
8
OBJECT__54
10
83.265999
20
-19.634001
30
56.400002
70
192
0
VERTEX
8
OBJECT__54
10
93.681999
20
-8.019000
30
56.400002
70
192
0
VERTEX
8
OBJECT__54
10
92.082001
20
-7.500000
30
56.400002
70
192
0
VERTEX
8
OBJECT__54
10
88.635002
20
-14.265000
30
56.400002
70
192
0
VERTEX
8
OBJECT__54
10
61.500999
20
23.080999
30
56.400002
70
192
0
VERTEX
8
OBJECT__54
10
54.735001
20
19.634001
30
56.400002
70
192
0
VERTEX
8
OBJECT__54
10
93.269997
20
0.000000
30
56.400002
70
192
0
VERTEX
8
OBJECT__54
10
0
20
0
30
0
70
128
71
1
72
2
73
3
0
VERTEX
8
OBJECT__54
10
0
20
0
30
0
70
128
71
4
72
5
73
6
0
VERTEX
8
OBJECT__54
10
0
20
0
30
0
70
128
71
7
72
8
73
5
0
VERTEX
8
OBJECT__54
10
0
20
0
30
0
70
128
71
7
72
9
73
10
0
VERTEX
8
OBJECT__54
10
0
20
0
30
0
70
128
71
2
72
6
73
3
0
VERTEX
8
OBJECT__54
10
0
20
0
30
0
70
128
71
5
72
4
73
7
0
VERTEX
8
OBJECT__54
10
0
20
0
30
0
70
128
71
9
72
11
73
10
0
VERTEX
8
OBJECT__54
10
0
20
0
30
0
70
128
71
12
72
13
73
11
0
VERTEX
8
OBJECT__54
10
0
20
0
30
0
70
128
71
14
72
15
73
13
0
VERTEX
8
OBJECT__54
10
0
20
0
30
0
70
128
71
14
72
16
73
17
0
VERTEX
8
OBJECT__54
10
0
20
0
30
0
70
128
71
18
72
19
73
20
0
VERTEX
8
OBJECT__54
10
0
20
0
30
0
70
128
71
21
72
22
73
23
0
VERTEX
8
OBJECT__54
10
0
20
0
30
0
70
128
71
21
72
24
73
25
0
VERTEX
8
OBJECT__54
10
0
20
0
30
0
70
128
71
24
72
26
73
27
0
VERTEX
8
OBJECT__54
10
0
20
0
30
0
70
128
71
6
72
2
73
4
0
VERTEX
8
OBJECT__54
10
0
20
0
30
0
70
128
71
11
72
9
73
12
0
VERTEX
8
OBJECT__54
10
0
20
0
30
0
70
128
71
17
72
15
73
14
0
VERTEX
8
OBJECT__54
10
0
20
0
30
0
70
128
71
16
72
28
73
29
0
VERTEX
8
OBJECT__54
10
0
20
0
30
0
70
128
71
30
72
31
73
32
0
VERTEX
8
OBJECT__54
10
0
20
0
30
0
70
128
71
19
72
23
73
20
0
VERTEX
8
OBJECT__54
10
0
20
0
30
0
70
128
71
25
72
22
73
21
0
VERTEX
8
OBJECT__54
10
0
20
0
30
0
70
128
71
26
72
33
73
27
0
VERTEX
8
OBJECT__54
10
0
20
0
30
0
70
128
71
1
72
34
73
33
0
VERTEX
8
OBJECT__54
10
0
20
0
30
0
70
128
71
10
72
8
73
7
0
VERTEX
8
OBJECT__54
10
0
20
0
30
0
70
128
71
29
72
17
73
16
0
VERTEX
8
OBJECT__54
10
0
20
0
30
0
70
128
71
32
72
28
73
30
0
VERTEX
8
OBJECT__54
10
0
20
0
30
0
70
128
71
30
72
18
73
35
0
VERTEX
8
OBJECT__54
10
0
20
0
30
0
70
128
71
23
72
19
73
21
0
VERTEX
8
OBJECT__54
10
0
20
0
30
0
70
128
71
33
72
26
73
1
0
VERTEX
8
OBJECT__54
10
0
20
0
30
0
70
128
71
13
72
12
73
14
0
VERTEX
8
OBJECT__54
10
0
20
0
30
0
70
128
71
35
72
31
73
30
0
VERTEX
8
OBJECT__54
10
0
20
0
30
0
70
128
71
27
72
25
73
24
0
VERTEX
8
OBJECT__54
10
0
20
0
30
0
70
128
71
32
72
29
73
28
0
VERTEX
8
OBJECT__54
10
0
20
0
30
0
70
128
71
3
72
34
73
1
0
VERTEX
8
OBJECT__54
10
0
20
0
30
0
70
128
71
20
72
35
73
18
0
SEQEND
8
OBJECT__54
0
POLYLINE
8
OBJECT__56
66
1
70
64
71
80
72
120
62
253
0
VERTEX
8
OBJECT__56
10
63.087002
20
-18.201000
30
66.486000
70
192
0
VERTEX
8
OBJECT__56
10
69.000000
20
-19.136999
30
66.486000
70
192
0
VERTEX
8
OBJECT__56
10
69.000000
20
-15.000000
30
70.400002
70
192
0
VERTEX
8
OBJECT__56
10
57.751999
20
-15.482000
30
66.486000
70
192
0
VERTEX
8
OBJECT__56
10
64.364998
20
-14.266000
30
70.400002
70
192
0
VERTEX
8
OBJECT__56
10
53.518002
20
-11.249000
30
66.486000
70
192
0
VERTEX
8
OBJECT__56
10
60.183998
20
-12.135000
30
70.400002
70
192
0
VERTEX
8
OBJECT__56
10
56.865002
20
-8.817000
30
70.400002
70
192
0
VERTEX
8
OBJECT__56
10
54.735001
20
-4.635000
30
70.400002
70
192
0
VERTEX
8
OBJECT__56
10
50.799999
20
-5.914000
30
66.486000
70
192
0
VERTEX
8
OBJECT__56
10
54.000000
20
0.000000
30
70.400002
70
192
0
VERTEX
8
OBJECT__56
10
50.799999
20
5.914000
30
66.486000
70
192
0
VERTEX
8
OBJECT__56
10
49.862999
20
0.000000
30
66.486000
70
192
0
VERTEX
8
OBJECT__56
10
53.518002
20
11.249000
30
66.486000
70
192
0
VERTEX
8
OBJECT__56
10
54.735001
20
4.635000
30
70.400002
70
192
0
VERTEX
8
OBJECT__56
10
56.865002
20
8.817000
30
70.400002
70
192
0
VERTEX
8
OBJECT__56
10
60.183998
20
12.135000
30
70.400002
70
192
0
VERTEX
8
OBJECT__56
10
63.087002
20
18.201000
30
66.486000
70
192
0
VERTEX
8
OBJECT__56
10
57.751999
20
15.482000
30
66.486000
70
192
0
VERTEX
8
OBJECT__56
10
69.000000
20
19.136999
30
66.486000
70
192
0
VERTEX
8
OBJECT__56
10
64.364998
20
14.266000
30
70.400002
70
192
0
VERTEX
8
OBJECT__56
10
74.914001
20
18.201000
30
66.486000
70
192
0
VERTEX
8
OBJECT__56
10
69.000000
20
15.000000
30
70.400002
70
192
0
VERTEX
8
OBJECT__56
10
80.249001
20
15.482000
30
66.486000
70
192
0
VERTEX
8
OBJECT__56
10
73.636002
20
14.266000
30
70.400002
70
192
0
VERTEX
8
OBJECT__56
10
84.483002
20
11.249000
30
66.486000
70
192
0
VERTEX
8
OBJECT__56
10
77.817001
20
12.135000
30
70.400002
70
192
0
VERTEX
8
OBJECT__56
10
81.136002
20
8.817000
30
70.400002
70
192
0
VERTEX
8
OBJECT__56
10
83.265999
20
4.635000
30
70.400002
70
192
0
VERTEX
8
OBJECT__56
10
88.138000
20
0.000000
30
66.486000
70
192
0
VERTEX
8
OBJECT__56
10
87.200996
20
5.914000
30
66.486000
70
192
0
VERTEX
8
OBJECT__56
10
84.000000
20
0.000000
30
70.400002
70
192
0
VERTEX
8
OBJECT__56
10
83.265999
20
-4.635000
30
70.400002
70
192
0
VERTEX
8
OBJECT__56
10
84.483002
20
-11.249000
30
66.486000
70
192
0
VERTEX
8
OBJECT__56
10
87.200996
20
-5.914000
30
66.486000
70
192
0
VERTEX
8
OBJECT__56
10
81.136002
20
-8.817000
30
70.400002
70
192
0
VERTEX
8
OBJECT__56
10
77.817001
20
-12.135000
30
70.400002
70
192
0
VERTEX
8
OBJECT__56
10
74.914001
20
-18.201000
30
66.486000
70
192
0
VERTEX
8
OBJECT__56
10
80.249001
20
-15.482000
30
66.486000
70
192
0
VERTEX
8
OBJECT__56
10
73.636002
20
-14.266000
30
70.400002
70
192
0
VERTEX
8
OBJECT__56
10
62.115002
20
-21.191000
30
61.737000
70
192
0
VERTEX
8
OBJECT__56
10
55.903999
20
-18.025999
30
61.737000
70
192
0
VERTEX
8
OBJECT__56
10
50.973999
20
-13.097000
30
61.737000
70
192
0
VERTEX
8
OBJECT__56
10
47.808998
20
-6.885000
30
61.737000
70
192
0
VERTEX
8
OBJECT__56
10
46.719002
20
0.000000
30
61.737000
70
192
0
VERTEX
8
OBJECT__56
10
47.808998
20
6.885000
30
61.737000
70
192
0
VERTEX
8
OBJECT__56
10
50.973999
20
13.097000
30
61.737000
70
192
0
VERTEX
8
OBJECT__56
10
55.903999
20
18.025999
30
61.737000
70
192
0
VERTEX
8
OBJECT__56
10
62.115002
20
21.191000
30
61.737000
70
192
0
VERTEX
8
OBJECT__56
10
69.000000
20
22.282000
30
61.737000
70
192
0
VERTEX
8
OBJECT__56
10
75.886002
20
21.191000
30
61.737000
70
192
0
VERTEX
8
OBJECT__56
10
82.097000
20
18.025999
30
61.737000
70
192
0
VERTEX
8
OBJECT__56
10
87.027000
20
13.097000
30
61.737000
70
192
0
VERTEX
8
OBJECT__56
10
90.191002
20
6.885000
30
61.737000
70
192
0
VERTEX
8
OBJECT__56
10
91.281998
20
0.000000
30
61.737000
70
192
0
VERTEX
8
OBJECT__56
10
90.191002
20
-6.885000
30
61.737000
70
192
0
VERTEX
8
OBJECT__56
10
87.027000
20
-13.097000
30
61.737000
70
192
0
VERTEX
8
OBJECT__56
10
82.097000
20
-18.025999
30
61.737000
70
192
0
VERTEX
8
OBJECT__56
10
75.886002
20
-21.191000
30
61.737000
70
192
0
VERTEX
8
OBJECT__56
10
69.000000
20
-22.282000
30
61.737000
70
192
0
VERTEX
8
OBJECT__56
10
69.000000
20
-24.268999
30
56.400002
70
192
0
VERTEX
8
OBJECT__56
10
54.735001
20
-19.634001
30
56.400002
70
192
0
VERTEX
8
OBJECT__56
10
61.500999
20
-23.080999
30
56.400002
70
192
0
VERTEX
8
OBJECT__56
10
49.366001
20
-14.265000
30
56.400002
70
192
0
VERTEX
8
OBJECT__56
10
45.918999
20
-7.500000
30
56.400002
70
192
0
VERTEX
8
OBJECT__56
10
44.730999
20
0.000000
30
56.400002
70
192
0
VERTEX
8
OBJECT__56
10
45.918999
20
7.500000
30
56.400002
70
192
0
VERTEX
8
OBJECT__56
10
54.735001
20
19.634001
30
56.400002
70
192
0
VERTEX
8
OBJECT__56
10
49.366001
20
14.265000
30
56.400002
70
192
0
VERTEX
8
OBJECT__56
10
61.500999
20
23.080999
30
56.400002
70
192
0
VERTEX
8
OBJECT__56
10
69.000000
20
24.268999
30
56.400002
70
192
0
VERTEX
8
OBJECT__56
10
76.500000
20
23.080999
30
56.400002
70
192
0
VERTEX
8
OBJECT__56
10
83.265999
20
19.634001
30
56.400002
70
192
0
VERTEX
8
OBJECT__56
10
88.635002
20
14.265000
30
56.400002
70
192
0
VERTEX
8
OBJECT__56
10
93.269997
20
0.000000
30
56.400002
70
192
0
VERTEX
8
OBJECT__56
10
92.082001
20
7.500000
30
56.400002
70
192
0
VERTEX
8
OBJECT__56
10
92.082001
20
-7.500000
30
56.400002
70
192
0
VERTEX
8
OBJECT__56
10
88.635002
20
-14.265000
30
56.400002
70
192
0
VERTEX
8
OBJECT__56
10
76.500000
20
-23.080999
30
56.400002
70
192
0
VERTEX
8
OBJECT__56
10
83.265999
20
-19.634001
30
56.400002
70
192
0
VERTEX
8
OBJECT__56
10
0
20
0
30
0
70
128
71
1
72
2
73
3
0
VERTEX
8
OBJECT__56
10
0
20
0
30
0
70
128
71
4
72
1
73
5
0
VERTEX
8
OBJECT__56
10
0
20
0
30
0
70
128
71
6
72
4
73
7
0
VERTEX
8
OBJECT__56
10
0
20
0
30
0
70
128
71
6
72
8
73
9
0
VERTEX
8
OBJECT__56
10
0
20
0
30
0
70
128
71
10
72
9
73
11
0
VERTEX
8
OBJECT__56
10
0
20
0
30
0
70
128
71
12
72
13
73
11
0
VERTEX
8
OBJECT__56
10
0
20
0
30
0
70
128
71
14
72
12
73
15
0
VERTEX
8
OBJECT__56
10
0
20
0
30
0
70
128
71
14
72
16
73
17
0
VERTEX
8
OBJECT__56
10
0
20
0
30
0
70
128
71
18
72
19
73
17
0
VERTEX
8
OBJECT__56
10
0
20
0
30
0
70
128
71
20
72
18
73
21
0
VERTEX
8
OBJECT__56
10
0
20
0
30
0
70
128
71
22
72
20
73
23
0
VERTEX
8
OBJECT__56
10
0
20
0
30
0
70
128
71
24
72
22
73
25
0
VERTEX
8
OBJECT__56
10
0
20
0
30
0
70
128
71
26
72
24
73
27
0
VERTEX
8
OBJECT__56
10
0
20
0
30
0
70
128
71
26
72
28
73
29
0
VERTEX
8
OBJECT__56
10
0
20
0
30
0
70
128
71
30
72
31
73
29
0
VERTEX
8
OBJECT__56
10
0
20
0
30
0
70
128
71
30
72
32
73
33
0
VERTEX
8
OBJECT__56
10
0
20
0
30
0
70
128
71
34
72
35
73
33
0
VERTEX
8
OBJECT__56
10
0
20
0
30
0
70
128
71
34
72
36
73
37
0
VERTEX
8
OBJECT__56
10
0
20
0
30
0
70
128
71
38
72
39
73
37
0
VERTEX
8
OBJECT__56
10
0
20
0
30
0
70
128
71
38
72
40
73
3
0
VERTEX
8
OBJECT__56
10
0
20
0
30
0
70
128
71
2
72
1
73
41
0
VERTEX
8
OBJECT__56
10
0
20
0
30
0
70
128
71
1
72
4
73
42
0
VERTEX
8
OBJECT__56
10
0
20
0
30
0
70
128
71
4
72
6
73
43
0
VERTEX
8
OBJECT__56
10
0
20
0
30
0
70
128
71
6
72
10
73
44
0
VERTEX
8
OBJECT__56
10
0
20
0
30
0
70
128
71
10
72
13
73
45
0
VERTEX
8
OBJECT__56
10
0
20
0
30
0
70
128
71
13
72
12
73
46
0
VERTEX
8
OBJECT__56
10
0
20
0
30
0
70
128
71
12
72
14
73
47
0
VERTEX
8
OBJECT__56
10
0
20
0
30
0
70
128
71
14
72
19
73
48
0
VERTEX
8
OBJECT__56
10
0
20
0
30
0
70
128
71
19
72
18
73
49
0
VERTEX
8
OBJECT__56
10
0
20
0
30
0
70
128
71
18
72
20
73
50
0
VERTEX
8
OBJECT__56
10
0
20
0
30
0
70
128
71
20
72
22
73
51
0
VERTEX
8
OBJECT__56
10
0
20
0
30
0
70
128
71
22
72
24
73
52
0
VERTEX
8
OBJECT__56
10
0
20
0
30
0
70
128
71
24
72
26
73
53
0
VERTEX
8
OBJECT__56
10
0
20
0
30
0
70
128
71
26
72
31
73
54
0
VERTEX
8
OBJECT__56
10
0
20
0
30
0
70
128
71
31
72
30
73
55
0
VERTEX
8
OBJECT__56
10
0
20
0
30
0
70
128
71
30
72
35
73
56
0
VERTEX
8
OBJECT__56
10
0
20
0
30
0
70
128
71
35
72
34
73
57
0
VERTEX
8
OBJECT__56
10
0
20
0
30
0
70
128
71
34
72
39
73
58
0
VERTEX
8
OBJECT__56
10
0
20
0
30
0
70
128
71
39
72
38
73
59
0
VERTEX
8
OBJECT__56
10
0
20
0
30
0
70
128
71
38
72
2
73
60
0
VERTEX
8
OBJECT__56
10
0
20
0
30
0
70
128
71
61
72
60
73
41
0
VERTEX
8
OBJECT__56
10
0
20
0
30
0
70
128
71
62
72
63
73
41
0
VERTEX
8
OBJECT__56
10
0
20
0
30
0
70
128
71
64
72
62
73
42
0
VERTEX
8
OBJECT__56
10
0
20
0
30
0
70
128
71
65
72
64
73
43
0
VERTEX
8
OBJECT__56
10
0
20
0
30
0
70
128
71
66
72
65
73
44
0
VERTEX
8
OBJECT__56
10
0
20
0
30
0
70
128
71
67
72
66
73
45
0
VERTEX
8
OBJECT__56
10
0
20
0
30
0
70
128
71
67
72
46
73
47
0
VERTEX
8
OBJECT__56
10
0
20
0
30
0
70
128
71
68
72
69
73
47
0
VERTEX
8
OBJECT__56
10
0
20
0
30
0
70
128
71
70
72
68
73
48
0
VERTEX
8
OBJECT__56
10
0
20
0
30
0
70
128
71
71
72
70
73
49
0
VERTEX
8
OBJECT__56
10
0
20
0
30
0
70
128
71
71
72
50
73
51
0
VERTEX
8
OBJECT__56
10
0
20
0
30
0
70
128
71
72
72
51
73
52
0
VERTEX
8
OBJECT__56
10
0
20
0
30
0
70
128
71
73
72
52
73
53
0
VERTEX
8
OBJECT__56
10
0
20
0
30
0
70
128
71
74
72
53
73
54
0
VERTEX
8
OBJECT__56
10
0
20
0
30
0
70
128
71
75
72
76
73
54
0
VERTEX
8
OBJECT__56
10
0
20
0
30
0
70
128
71
75
72
55
73
56
0
VERTEX
8
OBJECT__56
10
0
20
0
30
0
70
128
71
77
72
56
73
57
0
VERTEX
8
OBJECT__56
10
0
20
0
30
0
70
128
71
78
72
57
73
58
0
VERTEX
8
OBJECT__56
10
0
20
0
30
0
70
128
71
79
72
80
73
58
0
VERTEX
8
OBJECT__56
10
0
20
0
30
0
70
128
71
79
72
59
73
60
0
VERTEX
8
OBJECT__56
10
0
20
0
30
0
70
128
71
60
72
61
73
79
0
VERTEX
8
OBJECT__56
10
0
20
0
30
0
70
128
71
58
72
59
73
79
0
VERTEX
8
OBJECT__56
10
0
20
0
30
0
70
128
71
58
72
80
73
78
0
VERTEX
8
OBJECT__56
10
0
20
0
30
0
70
128
71
57
72
78
73
77
0
VERTEX
8
OBJECT__56
10
0
20
0
30
0
70
128
71
56
72
77
73
75
0
VERTEX
8
OBJECT__56
10
0
20
0
30
0
70
128
71
54
72
55
73
75
0
VERTEX
8
OBJECT__56
10
0
20
0
30
0
70
128
71
54
72
76
73
74
0
VERTEX
8
OBJECT__56
10
0
20
0
30
0
70
128
71
53
72
74
73
73
0
VERTEX
8
OBJECT__56
10
0
20
0
30
0
70
128
71
52
72
73
73
72
0
VERTEX
8
OBJECT__56
10
0
20
0
30
0
70
128
71
51
72
72
73
71
0
VERTEX
8
OBJECT__56
10
0
20
0
30
0
70
128
71
49
72
50
73
71
0
VERTEX
8
OBJECT__56
10
0
20
0
30
0
70
128
71
48
72
49
73
70
0
VERTEX
8
OBJECT__56
10
0
20
0
30
0
70
128
71
47
72
48
73
68
0
VERTEX
8
OBJECT__56
10
0
20
0
30
0
70
128
71
47
72
69
73
67
0
VERTEX
8
OBJECT__56
10
0
20
0
30
0
70
128
71
45
72
46
73
67
0
VERTEX
8
OBJECT__56
10
0
20
0
30
0
70
128
71
44
72
45
73
66
0
VERTEX
8
OBJECT__56
10
0
20
0
30
0
70
128
71
43
72
44
73
65
0
VERTEX
8
OBJECT__56
10
0
20
0
30
0
70
128
71
42
72
43
73
64
0
VERTEX
8
OBJECT__56
10
0
20
0
30
0
70
128
71
41
72
42
73
62
0
VERTEX
8
OBJECT__56
10
0
20
0
30
0
70
128
71
41
72
63
73
61
0
VERTEX
8
OBJECT__56
10
0
20
0
30
0
70
128
71
60
72
59
73
38
0
VERTEX
8
OBJECT__56
10
0
20
0
30
0
70
128
71
59
72
58
73
39
0
VERTEX
8
OBJECT__56
10
0
20
0
30
0
70
128
71
58
72
57
73
34
0
VERTEX
8
OBJECT__56
10
0
20
0
30
0
70
128
71
57
72
56
73
35
0
VERTEX
8
OBJECT__56
10
0
20
0
30
0
70
128
71
56
72
55
73
30
0
VERTEX
8
OBJECT__56
10
0
20
0
30
0
70
128
71
55
72
54
73
31
0
VERTEX
8
OBJECT__56
10
0
20
0
30
0
70
128
71
54
72
53
73
26
0
VERTEX
8
OBJECT__56
10
0
20
0
30
0
70
128
71
53
72
52
73
24
0
VERTEX
8
OBJECT__56
10
0
20
0
30
0
70
128
71
52
72
51
73
22
0
VERTEX
8
OBJECT__56
10
0
20
0
30
0
70
128
71
51
72
50
73
20
0
VERTEX
8
OBJECT__56
10
0
20
0
30
0
70
128
71
50
72
49
73
18
0
VERTEX
8
OBJECT__56
10
0
20
0
30
0
70
128
71
49
72
48
73
19
0
VERTEX
8
OBJECT__56
10
0
20
0
30
0
70
128
71
48
72
47
73
14
0
VERTEX
8
OBJECT__56
10
0
20
0
30
0
70
128
71
47
72
46
73
12
0
VERTEX
8
OBJECT__56
10
0
20
0
30
0
70
128
71
46
72
45
73
13
0
VERTEX
8
OBJECT__56
10
0
20
0
30
0
70
128
71
45
72
44
73
10
0
VERTEX
8
OBJECT__56
10
0
20
0
30
0
70
128
71
44
72
43
73
6
0
VERTEX
8
OBJECT__56
10
0
20
0
30
0
70
128
71
43
72
42
73
4
0
VERTEX
8
OBJECT__56
10
0
20
0
30
0
70
128
71
42
72
41
73
1
0
VERTEX
8
OBJECT__56
10
0
20
0
30
0
70
128
71
41
72
60
73
2
0
VERTEX
8
OBJECT__56
10
0
20
0
30
0
70
128
71
3
72
2
73
38
0
VERTEX
8
OBJECT__56
10
0
20
0
30
0
70
128
71
37
72
40
73
38
0
VERTEX
8
OBJECT__56
10
0
20
0
30
0
70
128
71
37
72
39
73
34
0
VERTEX
8
OBJECT__56
10
0
20
0
30
0
70
128
71
33
72
36
73
34
0
VERTEX
8
OBJECT__56
10
0
20
0
30
0
70
128
71
33
72
35
73
30
0
VERTEX
8
OBJECT__56
10
0
20
0
30
0
70
128
71
29
72
32
73
30
0
VERTEX
8
OBJECT__56
10
0
20
0
30
0
70
128
71
29
72
31
73
26
0
VERTEX
8
OBJECT__56
10
0
20
0
30
0
70
128
71
27
72
28
73
26
0
VERTEX
8
OBJECT__56
10
0
20
0
30
0
70
128
71
25
72
27
73
24
0
VERTEX
8
OBJECT__56
10
0
20
0
30
0
70
128
71
23
72
25
73
22
0
VERTEX
8
OBJECT__56
10
0
20
0
30
0
70
128
71
21
72
23
73
20
0
VERTEX
8
OBJECT__56
10
0
20
0
30
0
70
128
71
17
72
21
73
18
0
VERTEX
8
OBJECT__56
10
0
20
0
30
0
70
128
71
17
72
19
73
14
0
VERTEX
8
OBJECT__56
10
0
20
0
30
0
70
128
71
15
72
16
73
14
0
VERTEX
8
OBJECT__56
10
0
20
0
30
0
70
128
71
11
72
15
73
12
0
VERTEX
8
OBJECT__56
10
0
20
0
30
0
70
128
71
11
72
13
73
10
0
VERTEX
8
OBJECT__56
10
0
20
0
30
0
70
128
71
9
72
10
73
6
0
VERTEX
8
OBJECT__56
10
0
20
0
30
0
70
128
71
7
72
8
73
6
0
VERTEX
8
OBJECT__56
10
0
20
0
30
0
70
128
71
5
72
7
73
4
0
VERTEX
8
OBJECT__56
10
0
20
0
30
0
70
128
71
3
72
5
73
1
0
SEQEND
8
OBJECT__56
0
POLYLINE
8
OBJECT__57
66
1
70
64
71
41
72
40
62
253
0
VERTEX
8
OBJECT__57
10
33.200001
20
75.000000
30
0.000000
70
192
0
VERTEX
8
OBJECT__57
10
32.616001
20
75.000000
30
34.159000
70
192
0
VERTEX
8
OBJECT__57
10
32.616001
20
71.883003
30
33.749001
70
192
0
VERTEX
8
OBJECT__57
10
32.616001
20
66.158997
30
32.994999
70
192
0
VERTEX
8
OBJECT__57
10
32.616001
20
59.854000
30
30.384001
70
192
0
VERTEX
8
OBJECT__57
10
32.616001
20
50.846001
30
24.153999
70
192
0
VERTEX
8
OBJECT__57
10
32.616001
20
49.890999
30
22.910000
70
192
0
VERTEX
8
OBJECT__57
10
32.616001
20
45.417000
30
17.080000
70
192
0
VERTEX
8
OBJECT__57
10
32.616001
20
43.409000
30
12.231000
70
192
0
VERTEX
8
OBJECT__57
10
32.616001
20
42.005001
30
-8.841000
70
192
0
VERTEX
8
OBJECT__57
10
32.616001
20
43.409000
30
-12.231000
70
192
0
VERTEX
8
OBJECT__57
10
32.616001
20
45.417000
30
-17.080000
70
192
0
VERTEX
8
OBJECT__57
10
32.616001
20
49.890999
30
-22.910000
70
192
0
VERTEX
8
OBJECT__57
10
32.616001
20
57.919998
30
-29.583000
70
192
0
VERTEX
8
OBJECT__57
10
32.616001
20
59.854000
30
-30.384001
70
192
0
VERTEX
8
OBJECT__57
10
32.616001
20
66.158997
30
-32.994999
70
192
0
VERTEX
8
OBJECT__57
10
32.616001
20
71.883003
30
-33.749001
70
192
0
VERTEX
8
OBJECT__57
10
32.616001
20
83.841003
30
-32.994999
70
192
0
VERTEX
8
OBJECT__57
10
32.616001
20
84.322998
30
-32.794998
70
192
0
VERTEX
8
OBJECT__57
10
32.616001
20
92.080002
30
-29.583000
70
192
0
VERTEX
8
OBJECT__57
10
32.616001
20
95.407997
30
-27.028999
70
192
0
VERTEX
8
OBJECT__57
10
32.616001
20
99.153999
30
-24.153999
70
192
0
VERTEX
8
OBJECT__57
10
32.616001
20
103.946999
30
-17.909000
70
192
0
VERTEX
8
OBJECT__57
10
32.616001
20
107.995003
30
-8.841000
70
192
0
VERTEX
8
OBJECT__57
10
32.616001
20
108.336998
30
-6.245000
70
192
0
VERTEX
8
OBJECT__57
10
32.616001
20
109.158997
30
0.000000
70
192
0
VERTEX
8
OBJECT__57
10
32.616001
20
108.336998
30
6.245000
70
192
0
VERTEX
8
OBJECT__57
10
32.616001
20
104.583000
30
17.080000
70
192
0
VERTEX
8
OBJECT__57
10
32.616001
20
103.946999
30
17.909000
70
192
0
VERTEX
8
OBJECT__57
10
32.616001
20
99.153999
30
24.153999
70
192
0
VERTEX
8
OBJECT__57
10
32.616001
20
95.407997
30
27.028999
70
192
0
VERTEX
8
OBJECT__57
10
32.616001
20
92.080002
30
29.583000
70
192
0
VERTEX
8
OBJECT__57
10
32.616001
20
84.322998
30
32.794998
70
192
0
VERTEX
8
OBJECT__57
10
32.616001
20
83.841003
30
32.994999
70
192
0
VERTEX
8
OBJECT__57
10
32.616001
20
107.995003
30
8.841000
70
192
0
VERTEX
8
OBJECT__57
10
32.616001
20
104.583000
30
-17.080000
70
192
0
VERTEX
8
OBJECT__57
10
32.616001
20
75.000000
30
-34.159000
70
192
0
VERTEX
8
OBJECT__57
10
32.616001
20
50.846001
30
-24.153999
70
192
0
VERTEX
8
OBJECT__57
10
32.616001
20
40.841000
30
0.000000
70
192
0
VERTEX
8
OBJECT__57
10
32.616001
20
42.005001
30
8.841000
70
192
0
VERTEX
8
OBJECT__57
10
32.616001
20
57.919998
30
29.583000
70
192
0
VERTEX
8
OBJECT__57
10
0
20
0
30
0
70
128
71
1
72
2
73
3
0
VERTEX
8
OBJECT__57
10
0
20
0
30
0
70
128
71
1
72
4
73
5
0
VERTEX
8
OBJECT__57
10
0
20
0
30
0
70
128
71
1
72
6
73
7
0
VERTEX
8
OBJECT__57
10
0
20
0
30
0
70
128
71
1
72
8
73
9
0
VERTEX
8
OBJECT__57
10
0
20
0
30
0
70
128
71
1
72
10
73
11
0
VERTEX
8
OBJECT__57
10
0
20
0
30
0
70
128
71
1
72
12
73
13
0
VERTEX
8
OBJECT__57
10
0
20
0
30
0
70
128
71
1
72
14
73
15
0
VERTEX
8
OBJECT__57
10
0
20
0
30
0
70
128
71
1
72
16
73
17
0
VERTEX
8
OBJECT__57
10
0
20
0
30
0
70
128
71
1
72
18
73
19
0
VERTEX
8
OBJECT__57
10
0
20
0
30
0
70
128
71
1
72
20
73
21
0
VERTEX
8
OBJECT__57
10
0
20
0
30
0
70
128
71
1
72
22
73
23
0
VERTEX
8
OBJECT__57
10
0
20
0
30
0
70
128
71
1
72
24
73
25
0
VERTEX
8
OBJECT__57
10
0
20
0
30
0
70
128
71
1
72
26
73
27
0
VERTEX
8
OBJECT__57
10
0
20
0
30
0
70
128
71
1
72
28
73
29
0
VERTEX
8
OBJECT__57
10
0
20
0
30
0
70
128
71
1
72
30
73
31
0
VERTEX
8
OBJECT__57
10
0
20
0
30
0
70
128
71
1
72
32
73
33
0
VERTEX
8
OBJECT__57
10
0
20
0
30
0
70
128
71
1
72
34
73
2
0
VERTEX
8
OBJECT__57
10
0
20
0
30
0
70
128
71
33
72
34
73
1
0
VERTEX
8
OBJECT__57
10
0
20
0
30
0
70
128
71
31
72
32
73
1
0
VERTEX
8
OBJECT__57
10
0
20
0
30
0
70
128
71
29
72
30
73
1
0
VERTEX
8
OBJECT__57
10
0
20
0
30
0
70
128
71
1
72
35
73
28
0
VERTEX
8
OBJECT__57
10
0
20
0
30
0
70
128
71
27
72
35
73
1
0
VERTEX
8
OBJECT__57
10
0
20
0
30
0
70
128
71
25
72
26
73
1
0
VERTEX
8
OBJECT__57
10
0
20
0
30
0
70
128
71
1
72
36
73
24
0
VERTEX
8
OBJECT__57
10
0
20
0
30
0
70
128
71
23
72
36
73
1
0
VERTEX
8
OBJECT__57
10
0
20
0
30
0
70
128
71
21
72
22
73
1
0
VERTEX
8
OBJECT__57
10
0
20
0
30
0
70
128
71
19
72
20
73
1
0
VERTEX
8
OBJECT__57
10
0
20
0
30
0
70
128
71
1
72
37
73
18
0
VERTEX
8
OBJECT__57
10
0
20
0
30
0
70
128
71
17
72
37
73
1
0
VERTEX
8
OBJECT__57
10
0
20
0
30
0
70
128
71
15
72
16
73
1
0
VERTEX
8
OBJECT__57
10
0
20
0
30
0
70
128
71
1
72
38
73
14
0
VERTEX
8
OBJECT__57
10
0
20
0
30
0
70
128
71
13
72
38
73
1
0
VERTEX
8
OBJECT__57
10
0
20
0
30
0
70
128
71
11
72
12
73
1
0
VERTEX
8
OBJECT__57
10
0
20
0
30
0
70
128
71
1
72
39
73
10
0
VERTEX
8
OBJECT__57
10
0
20
0
30
0
70
128
71
1
72
40
73
39
0
VERTEX
8
OBJECT__57
10
0
20
0
30
0
70
128
71
9
72
40
73
1
0
VERTEX
8
OBJECT__57
10
0
20
0
30
0
70
128
71
7
72
8
73
1
0
VERTEX
8
OBJECT__57
10
0
20
0
30
0
70
128
71
1
72
41
73
6
0
VERTEX
8
OBJECT__57
10
0
20
0
30
0
70
128
71
5
72
41
73
1
0
VERTEX
8
OBJECT__57
10
0
20
0
30
0
70
128
71
3
72
4
73
1
0
SEQEND
8
OBJECT__57
0
POLYLINE
8
OBJECT__58
66
1
70
64
71
58
72
58
62
253
0
VERTEX
8
OBJECT__58
10
0.000000
20
39.987000
30
0.000000
70
192
0
VERTEX
8
OBJECT__58
10
32.616001
20
40.841000
30
0.000000
70
192
0
VERTEX
8
OBJECT__58
10
32.616001
20
42.005001
30
8.841000
70
192
0
VERTEX
8
OBJECT__58
10
0.000000
20
42.351002
30
12.648000
70
192
0
VERTEX
8
OBJECT__58
10
0.000000
20
49.125000
30
23.587999
70
192
0
VERTEX
8
OBJECT__58
10
32.616001
20
45.417000
30
17.080000
70
192
0
VERTEX
8
OBJECT__58
10
32.616001
20
43.409000
30
12.231000
70
192
0
VERTEX
8
OBJECT__58
10
32.616001
20
50.846001
30
24.153999
70
192
0
VERTEX
8
OBJECT__58
10
32.616001
20
57.919998
30
29.583000
70
192
0
VERTEX
8
OBJECT__58
10
0.000000
20
59.393002
30
31.343000
70
192
0
VERTEX
8
OBJECT__58
10
32.616001
20
49.890999
30
22.910000
70
192
0
VERTEX
8
OBJECT__58
10
32.616001
20
59.854000
30
30.384001
70
192
0
VERTEX
8
OBJECT__58
10
32.616001
20
66.158997
30
32.994999
70
192
0
VERTEX
8
OBJECT__58
10
0.000000
20
71.768997
30
34.863998
70
192
0
VERTEX
8
OBJECT__58
10
0.000000
20
84.582001
30
33.676998
70
192
0
VERTEX
8
OBJECT__58
10
32.616001
20
75.000000
30
34.159000
70
192
0
VERTEX
8
OBJECT__58
10
32.616001
20
71.883003
30
33.749001
70
192
0
VERTEX
8
OBJECT__58
10
32.616001
20
83.841003
30
32.994999
70
192
0
VERTEX
8
OBJECT__58
10
32.616001
20
84.322998
30
32.794998
70
192
0
VERTEX
8
OBJECT__58
10
32.616001
20
92.080002
30
29.583000
70
192
0
VERTEX
8
OBJECT__58
10
0.000000
20
96.099998
30
27.941000
70
192
0
VERTEX
8
OBJECT__58
10
0.000000
20
104.768997
30
18.431999
70
192
0
VERTEX
8
OBJECT__58
10
32.616001
20
99.153999
30
24.153999
70
192
0
VERTEX
8
OBJECT__58
10
32.616001
20
95.407997
30
27.028999
70
192
0
VERTEX
8
OBJECT__58
10
32.616001
20
104.583000
30
17.080000
70
192
0
VERTEX
8
OBJECT__58
10
32.616001
20
107.995003
30
8.841000
70
192
0
VERTEX
8
OBJECT__58
10
0.000000
20
109.417000
30
6.434000
70
192
0
VERTEX
8
OBJECT__58
10
32.616001
20
103.946999
30
17.909000
70
192
0
VERTEX
8
OBJECT__58
10
0.000000
20
109.417000
30
-6.434000
70
192
0
VERTEX
8
OBJECT__58
10
0.000000
20
110.013000
30
0.000000
70
192
0
VERTEX
8
OBJECT__58
10
32.616001
20
109.158997
30
0.000000
70
192
0
VERTEX
8
OBJECT__58
10
32.616001
20
108.336998
30
6.245000
70
192
0
VERTEX
8
OBJECT__58
10
0.000000
20
104.768997
30
-18.431999
70
192
0
VERTEX
8
OBJECT__58
10
32.616001
20
107.995003
30
-8.841000
70
192
0
VERTEX
8
OBJECT__58
10
32.616001
20
108.336998
30
-6.245000
70
192
0
VERTEX
8
OBJECT__58
10
32.616001
20
104.583000
30
-17.080000
70
192
0
VERTEX
8
OBJECT__58
10
32.616001
20
103.946999
30
-17.909000
70
192
0
VERTEX
8
OBJECT__58
10
32.616001
20
99.153999
30
-24.153999
70
192
0
VERTEX
8
OBJECT__58
10
0.000000
20
96.099998
30
-27.941000
70
192
0
VERTEX
8
OBJECT__58
10
0.000000
20
84.582001
30
-33.676998
70
192
0
VERTEX
8
OBJECT__58
10
32.616001
20
92.080002
30
-29.583000
70
192
0
VERTEX
8
OBJECT__58
10
32.616001
20
95.407997
30
-27.028999
70
192
0
VERTEX
8
OBJECT__58
10
32.616001
20
83.841003
30
-32.994999
70
192
0
VERTEX
8
OBJECT__58
10
32.616001
20
75.000000
30
-34.159000
70
192
0
VERTEX
8
OBJECT__58
10
0.000000
20
71.768997
30
-34.863998
70
192
0
VERTEX
8
OBJECT__58
10
32.616001
20
84.322998
30
-32.794998
70
192
0
VERTEX
8
OBJECT__58
10
0.000000
20
59.393002
30
-31.343000
70
192
0
VERTEX
8
OBJECT__58
10
32.616001
20
66.158997
30
-32.994999
70
192
0
VERTEX
8
OBJECT__58
10
32.616001
20
71.883003
30
-33.749001
70
192
0
VERTEX
8
OBJECT__58
10
0.000000
20
49.125000
30
-23.587999
70
192
0
VERTEX
8
OBJECT__58
10
32.616001
20
57.919998
30
-29.583000
70
192
0
VERTEX
8
OBJECT__58
10
32.616001
20
59.854000
30
-30.384001
70
192
0
VERTEX
8
OBJECT__58
10
32.616001
20
50.846001
30
-24.153999
70
192
0
VERTEX
8
OBJECT__58
10
32.616001
20
49.890999
30
-22.910000
70
192
0
VERTEX
8
OBJECT__58
10
32.616001
20
45.417000
30
-17.080000
70
192
0
VERTEX
8
OBJECT__58
10
0.000000
20
42.351002
30
-12.648000
70
192
0
VERTEX
8
OBJECT__58
10
32.616001
20
42.005001
30
-8.841000
70
192
0
VERTEX
8
OBJECT__58
10
32.616001
20
43.409000
30
-12.231000
70
192
0
VERTEX
8
OBJECT__58
10
0
20
0
30
0
70
128
71
1
72
2
73
3
0
VERTEX
8
OBJECT__58
10
0
20
0
30
0
70
128
71
3
72
4
73
1
0
VERTEX
8
OBJECT__58
10
0
20
0
30
0
70
128
71
5
72
4
73
6
0
VERTEX
8
OBJECT__58
10
0
20
0
30
0
70
128
71
4
72
7
73
6
0
VERTEX
8
OBJECT__58
10
0
20
0
30
0
70
128
71
5
72
8
73
9
0
VERTEX
8
OBJECT__58
10
0
20
0
30
0
70
128
71
9
72
10
73
5
0
VERTEX
8
OBJECT__58
10
0
20
0
30
0
70
128
71
5
72
11
73
8
0
VERTEX
8
OBJECT__58
10
0
20
0
30
0
70
128
71
10
72
12
73
13
0
VERTEX
8
OBJECT__58
10
0
20
0
30
0
70
128
71
13
72
14
73
10
0
VERTEX
8
OBJECT__58
10
0
20
0
30
0
70
128
71
15
72
14
73
16
0
VERTEX
8
OBJECT__58
10
0
20
0
30
0
70
128
71
14
72
17
73
16
0
VERTEX
8
OBJECT__58
10
0
20
0
30
0
70
128
71
16
72
18
73
15
0
VERTEX
8
OBJECT__58
10
0
20
0
30
0
70
128
71
15
72
19
73
20
0
VERTEX
8
OBJECT__58
10
0
20
0
30
0
70
128
71
20
72
21
73
15
0
VERTEX
8
OBJECT__58
10
0
20
0
30
0
70
128
71
22
72
21
73
23
0
VERTEX
8
OBJECT__58
10
0
20
0
30
0
70
128
71
21
72
24
73
23
0
VERTEX
8
OBJECT__58
10
0
20
0
30
0
70
128
71
22
72
25
73
26
0
VERTEX
8
OBJECT__58
10
0
20
0
30
0
70
128
71
26
72
27
73
22
0
VERTEX
8
OBJECT__58
10
0
20
0
30
0
70
128
71
22
72
28
73
25
0
VERTEX
8
OBJECT__58
10
0
20
0
30
0
70
128
71
29
72
30
73
31
0
VERTEX
8
OBJECT__58
10
0
20
0
30
0
70
128
71
27
72
32
73
31
0
VERTEX
8
OBJECT__58
10
0
20
0
30
0
70
128
71
31
72
30
73
27
0
VERTEX
8
OBJECT__58
10
0
20
0
30
0
70
128
71
33
72
29
73
34
0
VERTEX
8
OBJECT__58
10
0
20
0
30
0
70
128
71
29
72
35
73
34
0
VERTEX
8
OBJECT__58
10
0
20
0
30
0
70
128
71
34
72
36
73
33
0
VERTEX
8
OBJECT__58
10
0
20
0
30
0
70
128
71
33
72
37
73
38
0
VERTEX
8
OBJECT__58
10
0
20
0
30
0
70
128
71
38
72
39
73
33
0
VERTEX
8
OBJECT__58
10
0
20
0
30
0
70
128
71
40
72
39
73
41
0
VERTEX
8
OBJECT__58
10
0
20
0
30
0
70
128
71
39
72
42
73
41
0
VERTEX
8
OBJECT__58
10
0
20
0
30
0
70
128
71
40
72
43
73
44
0
VERTEX
8
OBJECT__58
10
0
20
0
30
0
70
128
71
44
72
45
73
40
0
VERTEX
8
OBJECT__58
10
0
20
0
30
0
70
128
71
40
72
46
73
43
0
VERTEX
8
OBJECT__58
10
0
20
0
30
0
70
128
71
47
72
45
73
48
0
VERTEX
8
OBJECT__58
10
0
20
0
30
0
70
128
71
45
72
49
73
48
0
VERTEX
8
OBJECT__58
10
0
20
0
30
0
70
128
71
50
72
47
73
51
0
VERTEX
8
OBJECT__58
10
0
20
0
30
0
70
128
71
47
72
52
73
51
0
VERTEX
8
OBJECT__58
10
0
20
0
30
0
70
128
71
51
72
53
73
50
0
VERTEX
8
OBJECT__58
10
0
20
0
30
0
70
128
71
50
72
54
73
55
0
VERTEX
8
OBJECT__58
10
0
20
0
30
0
70
128
71
55
72
56
73
50
0
VERTEX
8
OBJECT__58
10
0
20
0
30
0
70
128
71
1
72
56
73
57
0
VERTEX
8
OBJECT__58
10
0
20
0
30
0
70
128
71
56
72
58
73
57
0
VERTEX
8
OBJECT__58
10
0
20
0
30
0
70
128
71
57
72
2
73
1
0
VERTEX
8
OBJECT__58
10
0
20
0
30
0
70
128
71
55
72
58
73
56
0
VERTEX
8
OBJECT__58
10
0
20
0
30
0
70
128
71
53
72
54
73
50
0
VERTEX
8
OBJECT__58
10
0
20
0
30
0
70
128
71
48
72
52
73
47
0
VERTEX
8
OBJECT__58
10
0
20
0
30
0
70
128
71
44
72
49
73
45
0
VERTEX
8
OBJECT__58
10
0
20
0
30
0
70
128
71
41
72
46
73
40
0
VERTEX
8
OBJECT__58
10
0
20
0
30
0
70
128
71
38
72
42
73
39
0
VERTEX
8
OBJECT__58
10
0
20
0
30
0
70
128
71
36
72
37
73
33
0
VERTEX
8
OBJECT__58
10
0
20
0
30
0
70
128
71
31
72
35
73
29
0
VERTEX
8
OBJECT__58
10
0
20
0
30
0
70
128
71
26
72
32
73
27
0
VERTEX
8
OBJECT__58
10
0
20
0
30
0
70
128
71
23
72
28
73
22
0
VERTEX
8
OBJECT__58
10
0
20
0
30
0
70
128
71
20
72
24
73
21
0
VERTEX
8
OBJECT__58
10
0
20
0
30
0
70
128
71
18
72
19
73
15
0
VERTEX
8
OBJECT__58
10
0
20
0
30
0
70
128
71
13
72
17
73
14
0
VERTEX
8
OBJECT__58
10
0
20
0
30
0
70
128
71
9
72
12
73
10
0
VERTEX
8
OBJECT__58
10
0
20
0
30
0
70
128
71
6
72
11
73
5
0
VERTEX
8
OBJECT__58
10
0
20
0
30
0
70
128
71
3
72
7
73
4
0
SEQEND
8
OBJECT__58
0
POLYLINE
8
OBJECT__60
66
1
70
64
71
18
72
16
62
253
0
VERTEX
8
OBJECT__60
10
0.000000
20
39.987000
30
0.000000
70
192
0
VERTEX
8
OBJECT__60
10
0.000000
20
59.393002
30
-31.343000
70
192
0
VERTEX
8
OBJECT__60
10
0.000000
20
49.125000
30
-23.587999
70
192
0
VERTEX
8
OBJECT__60
10
0.000000
20
49.125000
30
23.587999
70
192
0
VERTEX
8
OBJECT__60
10
0.000000
20
84.582001
30
33.676998
70
192
0
VERTEX
8
OBJECT__60
10
0.000000
20
96.099998
30
27.941000
70
192
0
VERTEX
8
OBJECT__60
10
0.000000
20
59.393002
30
31.343000
70
192
0
VERTEX
8
OBJECT__60
10
0.000000
20
71.768997
30
34.863998
70
192
0
VERTEX
8
OBJECT__60
10
0.000000
20
71.768997
30
-34.863998
70
192
0
VERTEX
8
OBJECT__60
10
0.000000
20
96.099998
30
-27.941000
70
192
0
VERTEX
8
OBJECT__60
10
0.000000
20
84.582001
30
-33.676998
70
192
0
VERTEX
8
OBJECT__60
10
0.000000
20
109.417000
30
-6.434000
70
192
0
VERTEX
8
OBJECT__60
10
0.000000
20
104.768997
30
-18.431999
70
192
0
VERTEX
8
OBJECT__60
10
0.000000
20
104.768997
30
18.431999
70
192
0
VERTEX
8
OBJECT__60
10
0.000000
20
109.417000
30
6.434000
70
192
0
VERTEX
8
OBJECT__60
10
0.000000
20
42.351002
30
12.648000
70
192
0
VERTEX
8
OBJECT__60
10
0.000000
20
110.013000
30
0.000000
70
192
0
VERTEX
8
OBJECT__60
10
0.000000
20
42.351002
30
-12.648000
70
192
0
VERTEX
8
OBJECT__60
10
0
20
0
30
0
70
128
71
1
72
2
73
3
0
VERTEX
8
OBJECT__60
10
0
20
0
30
0
70
128
71
4
72
5
73
6
0
VERTEX
8
OBJECT__60
10
0
20
0
30
0
70
128
71
4
72
7
73
8
0
VERTEX
8
OBJECT__60
10
0
20
0
30
0
70
128
71
1
72
9
73
2
0
VERTEX
8
OBJECT__60
10
0
20
0
30
0
70
128
71
1
72
10
73
11
0
VERTEX
8
OBJECT__60
10
0
20
0
30
0
70
128
71
8
72
5
73
4
0
VERTEX
8
OBJECT__60
10
0
20
0
30
0
70
128
71
11
72
9
73
1
0
VERTEX
8
OBJECT__60
10
0
20
0
30
0
70
128
71
1
72
12
73
13
0
VERTEX
8
OBJECT__60
10
0
20
0
30
0
70
128
71
6
72
14
73
4
0
VERTEX
8
OBJECT__60
10
0
20
0
30
0
70
128
71
15
72
1
73
16
0
VERTEX
8
OBJECT__60
10
0
20
0
30
0
70
128
71
13
72
10
73
1
0
VERTEX
8
OBJECT__60
10
0
20
0
30
0
70
128
71
16
72
4
73
15
0
VERTEX
8
OBJECT__60
10
0
20
0
30
0
70
128
71
1
72
17
73
12
0
VERTEX
8
OBJECT__60
10
0
20
0
30
0
70
128
71
14
72
15
73
4
0
VERTEX
8
OBJECT__60
10
0
20
0
30
0
70
128
71
15
72
17
73
1
0
VERTEX
8
OBJECT__60
10
0
20
0
30
0
70
128
71
3
72
18
73
1
0
SEQEND
8
OBJECT__60
0
POLYLINE
8
OBJECT__61
66
1
70
64
71
16
72
14
62
253
0
VERTEX
8
OBJECT__61
10
69.362000
20
24.909000
30
58.612000
70
192
0
VERTEX
8
OBJECT__61
10
71.504997
20
25.858000
30
58.667999
70
192
0
VERTEX
8
OBJECT__61
10
81.783997
20
22.517000
30
58.938000
70
192
0
VERTEX
8
OBJECT__61
10
69.355003
20
24.909000
30
58.612000
70
192
0
VERTEX
8
OBJECT__61
10
68.789001
20
-24.888000
30
58.597000
70
192
0
VERTEX
8
OBJECT__61
10
94.211998
20
5.406000
30
59.263000
70
192
0
VERTEX
8
OBJECT__61
10
69.362000
20
-24.909000
30
58.612000
70
192
0
VERTEX
8
OBJECT__61
10
68.788002
20
24.889000
30
58.597000
70
192
0
VERTEX
8
OBJECT__61
10
69.071999
20
-24.915001
30
58.605000
70
192
0
VERTEX
8
OBJECT__61
10
94.211998
20
-5.406000
30
59.263000
70
192
0
VERTEX
8
OBJECT__61
10
89.816002
20
-15.282000
30
59.147999
70
192
0
VERTEX
8
OBJECT__61
10
69.362000
20
25.993999
30
58.612000
70
192
0
VERTEX
8
OBJECT__61
10
71.504997
20
-25.858000
30
58.667999
70
192
0
VERTEX
8
OBJECT__61
10
69.362000
20
-25.993999
30
58.612000
70
192
0
VERTEX
8
OBJECT__61
10
81.783997
20
-22.517000
30
58.938000
70
192
0
VERTEX
8
OBJECT__61
10
89.816002
20
15.282000
30
59.147999
70
192
0
VERTEX
8
OBJECT__61
10
0
20
0
30
0
70
128
71
1
72
2
73
3
0
VERTEX
8
OBJECT__61
10
0
20
0
30
0
70
128
71
1
72
6
73
7
0
VERTEX
8
OBJECT__61
10
0
20
0
30
0
70
128
71
3
72
6
73
1
0
VERTEX
8
OBJECT__61
10
0
20
0
30
0
70
128
71
5
72
8
73
4
0
VERTEX
8
OBJECT__61
10
0
20
0
30
0
70
128
71
7
72
9
73
1
0
VERTEX
8
OBJECT__61
10
0
20
0
30
0
70
128
71
6
72
10
73
11
0
VERTEX
8
OBJECT__61
10
0
20
0
30
0
70
128
71
1
72
12
73
2
0
VERTEX
8
OBJECT__61
10
0
20
0
30
0
70
128
71
9
72
5
73
1
0
VERTEX
8
OBJECT__61
10
0
20
0
30
0
70
128
71
13
72
14
73
7
0
VERTEX
8
OBJECT__61
10
0
20
0
30
0
70
128
71
11
72
15
73
6
0
VERTEX
8
OBJECT__61
10
0
20
0
30
0
70
128
71
4
72
1
73
5
0
VERTEX
8
OBJECT__61
10
0
20
0
30
0
70
128
71
15
72
13
73
6
0
VERTEX
8
OBJECT__61
10
0
20
0
30
0
70
128
71
7
72
6
73
13
0
VERTEX
8
OBJECT__61
10
0
20
0
30
0
70
128
71
3
72
16
73
6
0
SEQEND
8
OBJECT__61
0
POLYLINE
8
OBJECT__62
66
1
70
64
71
22
72
20
62
253
0
VERTEX
8
OBJECT__62
10
68.293999
20
-24.811001
30
58.888000
70
192
0
VERTEX
8
OBJECT__62
10
46.068001
20
-9.988000
30
71.980003
70
192
0
VERTEX
8
OBJECT__62
10
44.049000
20
-3.883000
30
73.169998
70
192
0
VERTEX
8
OBJECT__62
10
67.503998
20
-25.899000
30
59.354000
70
192
0
VERTEX
8
OBJECT__62
10
60.827999
20
-24.094999
30
63.285999
70
192
0
VERTEX
8
OBJECT__62
10
68.293999
20
24.815001
30
58.888000
70
192
0
VERTEX
8
OBJECT__62
10
51.862999
20
18.540001
30
68.567001
70
192
0
VERTEX
8
OBJECT__62
10
60.799000
20
24.177999
30
63.303001
70
192
0
VERTEX
8
OBJECT__62
10
52.529999
20
19.360001
30
68.174004
70
192
0
VERTEX
8
OBJECT__62
10
59.853001
20
23.952000
30
63.860001
70
192
0
VERTEX
8
OBJECT__62
10
46.116001
20
9.962000
30
71.952003
70
192
0
VERTEX
8
OBJECT__62
10
47.111000
20
12.688000
30
71.365997
70
192
0
VERTEX
8
OBJECT__62
10
44.108002
20
-0.006000
30
73.135002
70
192
0
VERTEX
8
OBJECT__62
10
51.778000
20
-18.608000
30
68.616997
70
192
0
VERTEX
8
OBJECT__62
10
46.735001
20
-12.002000
30
71.587997
70
192
0
VERTEX
8
OBJECT__62
10
59.127998
20
-23.635000
30
64.287003
70
192
0
VERTEX
8
OBJECT__62
10
68.293999
20
-25.969000
30
58.888000
70
192
0
VERTEX
8
OBJECT__62
10
68.788002
20
-24.888000
30
58.597000
70
192
0
VERTEX
8
OBJECT__62
10
44.179001
20
4.653000
30
73.093002
70
192
0
VERTEX
8
OBJECT__62
10
51.948002
20
-18.830000
30
68.516998
70
192
0
VERTEX
8
OBJECT__62
10
68.293999
20
25.969000
30
58.888000
70
192
0
VERTEX
8
OBJECT__62
10
68.788002
20
24.889000
30
58.597000
70
192
0
VERTEX
8
OBJECT__62
10
0
20
0
30
0
70
128
71
1
72
2
73
3
0
VERTEX
8
OBJECT__62
10
0
20
0
30
0
70
128
71
1
72
4
73
5
0
VERTEX
8
OBJECT__62
10
0
20
0
30
0
70
128
71
6
72
7
73
8
0
VERTEX
8
OBJECT__62
10
0
20
0
30
0
70
128
71
7
72
9
73
10
0
VERTEX
8
OBJECT__62
10
0
20
0
30
0
70
128
71
6
72
11
73
12
0
VERTEX
8
OBJECT__62
10
0
20
0
30
0
70
128
71
3
72
13
73
1
0
VERTEX
8
OBJECT__62
10
0
20
0
30
0
70
128
71
1
72
14
73
15
0
VERTEX
8
OBJECT__62
10
0
20
0
30
0
70
128
71
14
72
5
73
16
0
VERTEX
8
OBJECT__62
10
0
20
0
30
0
70
128
71
1
72
17
73
4
0
VERTEX
8
OBJECT__62
10
0
20
0
30
0
70
128
71
6
72
18
73
1
0
VERTEX
8
OBJECT__62
10
0
20
0
30
0
70
128
71
10
72
8
73
7
0
VERTEX
8
OBJECT__62
10
0
20
0
30
0
70
128
71
6
72
19
73
11
0
VERTEX
8
OBJECT__62
10
0
20
0
30
0
70
128
71
15
72
2
73
1
0
VERTEX
8
OBJECT__62
10
0
20
0
30
0
70
128
71
5
72
14
73
1
0
VERTEX
8
OBJECT__62
10
0
20
0
30
0
70
128
71
1
72
19
73
6
0
VERTEX
8
OBJECT__62
10
0
20
0
30
0
70
128
71
12
72
7
73
6
0
VERTEX
8
OBJECT__62
10
0
20
0
30
0
70
128
71
16
72
20
73
14
0
VERTEX
8
OBJECT__62
10
0
20
0
30
0
70
128
71
8
72
21
73
6
0
VERTEX
8
OBJECT__62
10
0
20
0
30
0
70
128
71
6
72
22
73
18
0
VERTEX
8
OBJECT__62
10
0
20
0
30
0
70
128
71
13
72
19
73
1
0
SEQEND
8
OBJECT__62
0
POLYLINE
8
OBJECT__64
66
1
70
64
71
83
72
83
62
253
0
VERTEX
8
OBJECT__64
10
81.783997
20
22.517000
30
58.938000
70
192
0
VERTEX
8
OBJECT__64
10
71.504997
20
25.858000
30
58.667999
70
192
0
VERTEX
8
OBJECT__64
10
77.291000
20
21.833000
30
85.025002
70
192
0
VERTEX
8
OBJECT__64
10
74.860001
20
22.622999
30
85.767998
70
192
0
VERTEX
8
OBJECT__64
10
76.541000
20
22.112000
30
85.212997
70
192
0
VERTEX
8
OBJECT__64
10
73.752998
20
22.875000
30
86.259003
70
192
0
VERTEX
8
OBJECT__64
10
79.917000
20
20.573000
30
84.722000
70
192
0
VERTEX
8
OBJECT__64
10
72.724998
20
23.035999
30
86.973000
70
192
0
VERTEX
8
OBJECT__64
10
71.198997
20
23.023001
30
89.758003
70
192
0
VERTEX
8
OBJECT__64
10
72.483002
20
23.045000
30
87.377998
70
192
0
VERTEX
8
OBJECT__64
10
70.362000
20
23.013000
30
90.964996
70
192
0
VERTEX
8
OBJECT__64
10
70.831001
20
23.017000
30
90.439003
70
192
0
VERTEX
8
OBJECT__64
10
72.550003
20
23.046000
30
87.230003
70
192
0
VERTEX
8
OBJECT__64
10
79.963997
20
20.535999
30
84.723000
70
192
0
VERTEX
8
OBJECT__64
10
85.466003
20
16.166000
30
84.866997
70
192
0
VERTEX
8
OBJECT__64
10
89.816002
20
15.282000
30
59.147999
70
192
0
VERTEX
8
OBJECT__64
10
94.211998
20
5.406000
30
59.263000
70
192
0
VERTEX
8
OBJECT__64
10
89.466003
20
10.317000
30
84.972000
70
192
0
VERTEX
8
OBJECT__64
10
87.084999
20
13.798000
30
84.908997
70
192
0
VERTEX
8
OBJECT__64
10
91.558998
20
3.546000
30
85.027000
70
192
0
VERTEX
8
OBJECT__64
10
91.559998
20
-3.542000
30
85.027000
70
192
0
VERTEX
8
OBJECT__64
10
94.211998
20
-5.406000
30
59.263000
70
192
0
VERTEX
8
OBJECT__64
10
91.146004
20
4.882000
30
85.015999
70
192
0
VERTEX
8
OBJECT__64
10
91.146004
20
-4.882000
30
85.015999
70
192
0
VERTEX
8
OBJECT__64
10
89.467003
20
-10.313000
30
84.972000
70
192
0
VERTEX
8
OBJECT__64
10
89.816002
20
-15.282000
30
59.147999
70
192
0
VERTEX
8
OBJECT__64
10
81.783997
20
-22.517000
30
58.938000
70
192
0
VERTEX
8
OBJECT__64
10
85.469002
20
-16.163000
30
84.866997
70
192
0
VERTEX
8
OBJECT__64
10
87.084999
20
-13.798000
30
84.908997
70
192
0
VERTEX
8
OBJECT__64
10
71.504997
20
-25.858000
30
58.667999
70
192
0
VERTEX
8
OBJECT__64
10
71.241997
20
-23.021000
30
89.766998
70
192
0
VERTEX
8
OBJECT__64
10
71.056999
20
-23.018000
30
90.123001
70
192
0
VERTEX
8
OBJECT__64
10
72.560997
20
-23.044001
30
87.230003
70
192
0
VERTEX
8
OBJECT__64
10
72.783997
20
-23.028999
30
86.920998
70
192
0
VERTEX
8
OBJECT__64
10
76.919998
20
-21.975000
30
85.114998
70
192
0
VERTEX
8
OBJECT__64
10
75.903000
20
-22.323999
30
85.403999
70
192
0
VERTEX
8
OBJECT__64
10
79.626999
20
-20.737000
30
84.720001
70
192
0
VERTEX
8
OBJECT__64
10
79.963997
20
-20.537001
30
84.723000
70
192
0
VERTEX
8
OBJECT__64
10
79.920998
20
-20.570999
30
84.722000
70
192
0
VERTEX
8
OBJECT__64
10
73.575996
20
-22.908001
30
86.359001
70
192
0
VERTEX
8
OBJECT__64
10
53.787998
20
18.218000
30
91.577003
70
192
0
VERTEX
8
OBJECT__64
10
52.529999
20
19.360001
30
68.174004
70
192
0
VERTEX
8
OBJECT__64
10
51.862999
20
18.540001
30
68.567001
70
192
0
VERTEX
8
OBJECT__64
10
52.633999
20
17.000000
30
91.546997
70
192
0
VERTEX
8
OBJECT__64
10
59.886002
20
21.612000
30
91.737000
70
192
0
VERTEX
8
OBJECT__64
10
60.818001
20
21.805000
30
91.761002
70
192
0
VERTEX
8
OBJECT__64
10
60.799000
20
24.177999
30
63.303001
70
192
0
VERTEX
8
OBJECT__64
10
59.853001
20
23.952000
30
63.860001
70
192
0
VERTEX
8
OBJECT__64
10
48.985001
20
13.153000
30
91.452003
70
192
0
VERTEX
8
OBJECT__64
10
47.111000
20
12.688000
30
71.365997
70
192
0
VERTEX
8
OBJECT__64
10
46.116001
20
9.962000
30
71.952003
70
192
0
VERTEX
8
OBJECT__64
10
47.084000
20
9.268000
30
91.402000
70
192
0
VERTEX
8
OBJECT__64
10
44.868999
20
0.000000
30
91.344002
70
192
0
VERTEX
8
OBJECT__64
10
45.917999
20
6.883000
30
91.371002
70
192
0
VERTEX
8
OBJECT__64
10
44.179001
20
4.653000
30
73.093002
70
192
0
VERTEX
8
OBJECT__64
10
46.068001
20
-9.988000
30
71.980003
70
192
0
VERTEX
8
OBJECT__64
10
47.083000
20
-9.268000
30
91.402000
70
192
0
VERTEX
8
OBJECT__64
10
45.929001
20
-6.918000
30
91.372002
70
192
0
VERTEX
8
OBJECT__64
10
44.867001
20
-0.019000
30
91.344002
70
192
0
VERTEX
8
OBJECT__64
10
44.108002
20
-0.006000
30
73.135002
70
192
0
VERTEX
8
OBJECT__64
10
44.049000
20
-3.883000
30
73.169998
70
192
0
VERTEX
8
OBJECT__64
10
49.006001
20
-13.184000
30
91.452003
70
192
0
VERTEX
8
OBJECT__64
10
46.735001
20
-12.002000
30
71.587997
70
192
0
VERTEX
8
OBJECT__64
10
52.636002
20
-16.997999
30
91.546997
70
192
0
VERTEX
8
OBJECT__64
10
60.817001
20
-21.809000
30
91.761002
70
192
0
VERTEX
8
OBJECT__64
10
51.948002
20
-18.830000
30
68.516998
70
192
0
VERTEX
8
OBJECT__64
10
59.127998
20
-23.635000
30
64.287003
70
192
0
VERTEX
8
OBJECT__64
10
53.818001
20
-18.240999
30
91.578003
70
192
0
VERTEX
8
OBJECT__64
10
51.778000
20
-18.608000
30
68.616997
70
192
0
VERTEX
8
OBJECT__64
10
59.921001
20
-21.625000
30
91.737999
70
192
0
VERTEX
8
OBJECT__64
10
66.758003
20
-23.027000
30
91.917000
70
192
0
VERTEX
8
OBJECT__64
10
60.827999
20
-24.094999
30
63.285999
70
192
0
VERTEX
8
OBJECT__64
10
70.362999
20
-23.011000
30
90.947998
70
192
0
VERTEX
8
OBJECT__64
10
68.293999
20
-25.969000
30
58.888000
70
192
0
VERTEX
8
OBJECT__64
10
68.807999
20
-25.993000
30
58.674999
70
192
0
VERTEX
8
OBJECT__64
10
69.362000
20
-25.993999
30
58.612000
70
192
0
VERTEX
8
OBJECT__64
10
67.503998
20
-25.899000
30
59.354000
70
192
0
VERTEX
8
OBJECT__64
10
69.487000
20
-23.003000
30
91.987999
70
192
0
VERTEX
8
OBJECT__64
10
68.807999
20
25.993000
30
58.674999
70
192
0
VERTEX
8
OBJECT__64
10
68.293999
20
25.969000
30
58.888000
70
192
0
VERTEX
8
OBJECT__64
10
66.720001
20
23.025000
30
91.916000
70
192
0
VERTEX
8
OBJECT__64
10
69.449997
20
23.004999
30
91.987999
70
192
0
VERTEX
8
OBJECT__64
10
69.362000
20
25.993999
30
58.612000
70
192
0
VERTEX
8
OBJECT__64
10
0
20
0
30
0
70
128
71
1
72
2
73
3
0
VERTEX
8
OBJECT__64
10
0
20
0
30
0
70
128
71
2
72
4
73
5
0
VERTEX
8
OBJECT__64
10
0
20
0
30
0
70
128
71
2
72
6
73
4
0
VERTEX
8
OBJECT__64
10
0
20
0
30
0
70
128
71
5
72
3
73
2
0
VERTEX
8
OBJECT__64
10
0
20
0
30
0
70
128
71
3
72
7
73
1
0
VERTEX
8
OBJECT__64
10
0
20
0
30
0
70
128
71
2
72
8
73
6
0
VERTEX
8
OBJECT__64
10
0
20
0
30
0
70
128
71
2
72
9
73
10
0
VERTEX
8
OBJECT__64
10
0
20
0
30
0
70
128
71
2
72
11
73
12
0
VERTEX
8
OBJECT__64
10
0
20
0
30
0
70
128
71
12
72
9
73
2
0
VERTEX
8
OBJECT__64
10
0
20
0
30
0
70
128
71
10
72
13
73
2
0
VERTEX
8
OBJECT__64
10
0
20
0
30
0
70
128
71
13
72
8
73
2
0
VERTEX
8
OBJECT__64
10
0
20
0
30
0
70
128
71
1
72
14
73
15
0
VERTEX
8
OBJECT__64
10
0
20
0
30
0
70
128
71
15
72
16
73
1
0
VERTEX
8
OBJECT__64
10
0
20
0
30
0
70
128
71
17
72
16
73
18
0
VERTEX
8
OBJECT__64
10
0
20
0
30
0
70
128
71
16
72
19
73
18
0
VERTEX
8
OBJECT__64
10
0
20
0
30
0
70
128
71
17
72
20
73
21
0
VERTEX
8
OBJECT__64
10
0
20
0
30
0
70
128
71
21
72
22
73
17
0
VERTEX
8
OBJECT__64
10
0
20
0
30
0
70
128
71
17
72
23
73
20
0
VERTEX
8
OBJECT__64
10
0
20
0
30
0
70
128
71
22
72
24
73
25
0
VERTEX
8
OBJECT__64
10
0
20
0
30
0
70
128
71
25
72
26
73
22
0
VERTEX
8
OBJECT__64
10
0
20
0
30
0
70
128
71
27
72
26
73
28
0
VERTEX
8
OBJECT__64
10
0
20
0
30
0
70
128
71
26
72
29
73
28
0
VERTEX
8
OBJECT__64
10
0
20
0
30
0
70
128
71
30
72
31
73
32
0
VERTEX
8
OBJECT__64
10
0
20
0
30
0
70
128
71
30
72
33
73
31
0
VERTEX
8
OBJECT__64
10
0
20
0
30
0
70
128
71
30
72
34
73
33
0
VERTEX
8
OBJECT__64
10
0
20
0
30
0
70
128
71
30
72
35
73
36
0
VERTEX
8
OBJECT__64
10
0
20
0
30
0
70
128
71
30
72
27
73
37
0
VERTEX
8
OBJECT__64
10
0
20
0
30
0
70
128
71
37
72
35
73
30
0
VERTEX
8
OBJECT__64
10
0
20
0
30
0
70
128
71
27
72
38
73
39
0
VERTEX
8
OBJECT__64
10
0
20
0
30
0
70
128
71
39
72
37
73
27
0
VERTEX
8
OBJECT__64
10
0
20
0
30
0
70
128
71
36
72
40
73
30
0
VERTEX
8
OBJECT__64
10
0
20
0
30
0
70
128
71
40
72
34
73
30
0
VERTEX
8
OBJECT__64
10
0
20
0
30
0
70
128
71
41
72
42
73
43
0
VERTEX
8
OBJECT__64
10
0
20
0
30
0
70
128
71
43
72
44
73
41
0
VERTEX
8
OBJECT__64
10
0
20
0
30
0
70
128
71
41
72
45
73
42
0
VERTEX
8
OBJECT__64
10
0
20
0
30
0
70
128
71
46
72
47
73
48
0
VERTEX
8
OBJECT__64
10
0
20
0
30
0
70
128
71
48
72
42
73
46
0
VERTEX
8
OBJECT__64
10
0
20
0
30
0
70
128
71
49
72
50
73
51
0
VERTEX
8
OBJECT__64
10
0
20
0
30
0
70
128
71
51
72
52
73
49
0
VERTEX
8
OBJECT__64
10
0
20
0
30
0
70
128
71
44
72
43
73
50
0
VERTEX
8
OBJECT__64
10
0
20
0
30
0
70
128
71
53
72
54
73
55
0
VERTEX
8
OBJECT__64
10
0
20
0
30
0
70
128
71
51
72
55
73
54
0
VERTEX
8
OBJECT__64
10
0
20
0
30
0
70
128
71
54
72
52
73
51
0
VERTEX
8
OBJECT__64
10
0
20
0
30
0
70
128
71
56
72
57
73
58
0
VERTEX
8
OBJECT__64
10
0
20
0
30
0
70
128
71
59
72
60
73
61
0
VERTEX
8
OBJECT__64
10
0
20
0
30
0
70
128
71
61
72
58
73
59
0
VERTEX
8
OBJECT__64
10
0
20
0
30
0
70
128
71
59
72
53
73
60
0
VERTEX
8
OBJECT__64
10
0
20
0
30
0
70
128
71
62
72
57
73
56
0
VERTEX
8
OBJECT__64
10
0
20
0
30
0
70
128
71
63
72
64
73
62
0
VERTEX
8
OBJECT__64
10
0
20
0
30
0
70
128
71
56
72
63
73
62
0
VERTEX
8
OBJECT__64
10
0
20
0
30
0
70
128
71
65
72
66
73
67
0
VERTEX
8
OBJECT__64
10
0
20
0
30
0
70
128
71
68
72
64
73
69
0
VERTEX
8
OBJECT__64
10
0
20
0
30
0
70
128
71
66
72
70
73
68
0
VERTEX
8
OBJECT__64
10
0
20
0
30
0
70
128
71
66
72
65
73
70
0
VERTEX
8
OBJECT__64
10
0
20
0
30
0
70
128
71
69
72
66
73
68
0
VERTEX
8
OBJECT__64
10
0
20
0
30
0
70
128
71
71
72
65
73
72
0
VERTEX
8
OBJECT__64
10
0
20
0
30
0
70
128
71
73
72
74
73
75
0
VERTEX
8
OBJECT__64
10
0
20
0
30
0
70
128
71
75
72
76
73
73
0
VERTEX
8
OBJECT__64
10
0
20
0
30
0
70
128
71
73
72
71
73
77
0
VERTEX
8
OBJECT__64
10
0
20
0
30
0
70
128
71
77
72
74
73
73
0
VERTEX
8
OBJECT__64
10
0
20
0
30
0
70
128
71
73
72
78
73
71
0
VERTEX
8
OBJECT__64
10
0
20
0
30
0
70
128
71
76
72
30
73
73
0
VERTEX
8
OBJECT__64
10
0
20
0
30
0
70
128
71
11
72
79
73
80
0
VERTEX
8
OBJECT__64
10
0
20
0
30
0
70
128
71
81
72
82
73
11
0
VERTEX
8
OBJECT__64
10
0
20
0
30
0
70
128
71
11
72
83
73
79
0
VERTEX
8
OBJECT__64
10
0
20
0
30
0
70
128
71
11
72
2
73
83
0
VERTEX
8
OBJECT__64
10
0
20
0
30
0
70
128
71
81
72
80
73
47
0
VERTEX
8
OBJECT__64
10
0
20
0
30
0
70
128
71
47
72
46
73
81
0
VERTEX
8
OBJECT__64
10
0
20
0
30
0
70
128
71
80
72
81
73
11
0
VERTEX
8
OBJECT__64
10
0
20
0
30
0
70
128
71
72
72
77
73
71
0
VERTEX
8
OBJECT__64
10
0
20
0
30
0
70
128
71
67
72
72
73
65
0
VERTEX
8
OBJECT__64
10
0
20
0
30
0
70
128
71
63
72
69
73
64
0
VERTEX
8
OBJECT__64
10
0
20
0
30
0
70
128
71
58
72
61
73
56
0
VERTEX
8
OBJECT__64
10
0
20
0
30
0
70
128
71
55
72
60
73
53
0
VERTEX
8
OBJECT__64
10
0
20
0
30
0
70
128
71
49
72
44
73
50
0
VERTEX
8
OBJECT__64
10
0
20
0
30
0
70
128
71
45
72
46
73
42
0
VERTEX
8
OBJECT__64
10
0
20
0
30
0
70
128
71
32
72
73
73
30
0
VERTEX
8
OBJECT__64
10
0
20
0
30
0
70
128
71
28
72
38
73
27
0
VERTEX
8
OBJECT__64
10
0
20
0
30
0
70
128
71
25
72
29
73
26
0
VERTEX
8
OBJECT__64
10
0
20
0
30
0
70
128
71
21
72
24
73
22
0
VERTEX
8
OBJECT__64
10
0
20
0
30
0
70
128
71
18
72
23
73
17
0
VERTEX
8
OBJECT__64
10
0
20
0
30
0
70
128
71
15
72
19
73
16
0
VERTEX
8
OBJECT__64
10
0
20
0
30
0
70
128
71
7
72
14
73
1
0
SEQEND
8
OBJECT__64
0
POLYLINE
8
OBJECT__65
66
1
70
64
71
22
72
25
62
253
0
VERTEX
8
OBJECT__65
10
72.783997
20
-23.028999
30
86.920998
70
192
0
VERTEX
8
OBJECT__65
10
72.976997
20
-22.990999
30
87.130997
70
192
0
VERTEX
8
OBJECT__65
10
72.750999
20
-23.021000
30
87.322998
70
192
0
VERTEX
8
OBJECT__65
10
73.174004
20
-22.993999
30
87.339996
70
192
0
VERTEX
8
OBJECT__65
10
72.940002
20
-22.999001
30
87.416000
70
192
0
VERTEX
8
OBJECT__65
10
73.575996
20
-22.908001
30
86.359001
70
192
0
VERTEX
8
OBJECT__65
10
73.791000
20
-22.875999
30
86.792000
70
192
0
VERTEX
8
OBJECT__65
10
74.019997
20
-22.959000
30
87.210999
70
192
0
VERTEX
8
OBJECT__65
10
75.903000
20
-22.323999
30
85.403999
70
192
0
VERTEX
8
OBJECT__65
10
76.170998
20
-22.365000
30
86.280998
70
192
0
VERTEX
8
OBJECT__65
10
76.508003
20
-22.794001
30
87.014000
70
192
0
VERTEX
8
OBJECT__65
10
76.518997
20
-22.792999
30
87.013000
70
192
0
VERTEX
8
OBJECT__65
10
76.919998
20
-21.975000
30
85.114998
70
192
0
VERTEX
8
OBJECT__65
10
77.197998
20
-22.073999
30
86.165001
70
192
0
VERTEX
8
OBJECT__65
10
77.613998
20
-22.694000
30
86.959999
70
192
0
VERTEX
8
OBJECT__65
10
79.626999
20
-20.737000
30
84.720001
70
192
0
VERTEX
8
OBJECT__65
10
79.861000
20
-21.132000
30
86.209000
70
192
0
VERTEX
8
OBJECT__65
10
80.537003
20
-22.344999
30
86.916000
70
192
0
VERTEX
8
OBJECT__65
10
79.920998
20
-20.570999
30
84.722000
70
192
0
VERTEX
8
OBJECT__65
10
80.138000
20
-21.020000
30
86.253998
70
192
0
VERTEX
8
OBJECT__65
10
80.855003
20
-22.299000
30
86.922997
70
192
0
VERTEX
8
OBJECT__65
10
72.560997
20
-23.044001
30
87.230003
70
192
0
VERTEX
8
OBJECT__65
10
0
20
0
30
0
70
128
71
1
72
2
73
3
0
VERTEX
8
OBJECT__65
10
0
20
0
30
0
70
128
71
2
72
4
73
5
0
VERTEX
8
OBJECT__65
10
0
20
0
30
0
70
128
71
6
72
7
73
2
0
VERTEX
8
OBJECT__65
10
0
20
0
30
0
70
128
71
7
72
8
73
4
0
VERTEX
8
OBJECT__65
10
0
20
0
30
0
70
128
71
9
72
10
73
7
0
VERTEX
8
OBJECT__65
10
0
20
0
30
0
70
128
71
10
72
11
73
8
0
VERTEX
8
OBJECT__65
10
0
20
0
30
0
70
128
71
10
72
12
73
11
0
VERTEX
8
OBJECT__65
10
0
20
0
30
0
70
128
71
13
72
14
73
10
0
VERTEX
8
OBJECT__65
10
0
20
0
30
0
70
128
71
14
72
15
73
12
0
VERTEX
8
OBJECT__65
10
0
20
0
30
0
70
128
71
16
72
17
73
14
0
VERTEX
8
OBJECT__65
10
0
20
0
30
0
70
128
71
17
72
18
73
15
0
VERTEX
8
OBJECT__65
10
0
20
0
30
0
70
128
71
19
72
20
73
17
0
VERTEX
8
OBJECT__65
10
0
20
0
30
0
70
128
71
20
72
21
73
18
0
VERTEX
8
OBJECT__65
10
0
20
0
30
0
70
128
71
18
72
17
73
20
0
VERTEX
8
OBJECT__65
10
0
20
0
30
0
70
128
71
17
72
16
73
19
0
VERTEX
8
OBJECT__65
10
0
20
0
30
0
70
128
71
15
72
14
73
17
0
VERTEX
8
OBJECT__65
10
0
20
0
30
0
70
128
71
14
72
13
73
16
0
VERTEX
8
OBJECT__65
10
0
20
0
30
0
70
128
71
12
72
10
73
14
0
VERTEX
8
OBJECT__65
10
0
20
0
30
0
70
128
71
10
72
9
73
13
0
VERTEX
8
OBJECT__65
10
0
20
0
30
0
70
128
71
8
72
7
73
10
0
VERTEX
8
OBJECT__65
10
0
20
0
30
0
70
128
71
7
72
6
73
9
0
VERTEX
8
OBJECT__65
10
0
20
0
30
0
70
128
71
4
72
2
73
7
0
VERTEX
8
OBJECT__65
10
0
20
0
30
0
70
128
71
2
72
1
73
6
0
VERTEX
8
OBJECT__65
10
0
20
0
30
0
70
128
71
5
72
3
73
2
0
VERTEX
8
OBJECT__65
10
0
20
0
30
0
70
128
71
3
72
22
73
1
0
SEQEND
8
OBJECT__65
0
POLYLINE
8
OBJECT__66
66
1
70
64
71
31
72
35
62
253
0
VERTEX
8
OBJECT__66
10
86.865997
20
17.524000
30
87.080002
70
192
0
VERTEX
8
OBJECT__66
10
85.804001
20
16.518999
30
86.403000
70
192
0
VERTEX
8
OBJECT__66
10
80.134003
20
21.021999
30
86.253998
70
192
0
VERTEX
8
OBJECT__66
10
91.202003
20
11.183000
30
87.194000
70
192
0
VERTEX
8
OBJECT__66
10
89.890999
20
10.542000
30
86.510002
70
192
0
VERTEX
8
OBJECT__66
10
93.472000
20
3.844000
30
87.252998
70
192
0
VERTEX
8
OBJECT__66
10
92.030998
20
3.623000
30
86.566002
70
192
0
VERTEX
8
OBJECT__66
10
93.760002
20
0.000000
30
87.261002
70
192
0
VERTEX
8
OBJECT__66
10
92.030998
20
-3.619000
30
86.566002
70
192
0
VERTEX
8
OBJECT__66
10
91.204002
20
-11.179000
30
87.194000
70
192
0
VERTEX
8
OBJECT__66
10
89.892998
20
-10.538000
30
86.510002
70
192
0
VERTEX
8
OBJECT__66
10
86.869003
20
-17.521000
30
87.080002
70
192
0
VERTEX
8
OBJECT__66
10
85.806999
20
-16.516001
30
86.403000
70
192
0
VERTEX
8
OBJECT__66
10
80.855003
20
-22.299000
30
86.922997
70
192
0
VERTEX
8
OBJECT__66
10
80.138000
20
-21.020000
30
86.253998
70
192
0
VERTEX
8
OBJECT__66
10
85.466003
20
16.166000
30
84.866997
70
192
0
VERTEX
8
OBJECT__66
10
79.963997
20
20.535999
30
84.723000
70
192
0
VERTEX
8
OBJECT__66
10
89.466003
20
10.317000
30
84.972000
70
192
0
VERTEX
8
OBJECT__66
10
87.084999
20
13.798000
30
84.908997
70
192
0
VERTEX
8
OBJECT__66
10
91.146004
20
4.882000
30
85.015999
70
192
0
VERTEX
8
OBJECT__66
10
91.558998
20
3.546000
30
85.027000
70
192
0
VERTEX
8
OBJECT__66
10
91.559998
20
-3.542000
30
85.027000
70
192
0
VERTEX
8
OBJECT__66
10
89.467003
20
-10.313000
30
84.972000
70
192
0
VERTEX
8
OBJECT__66
10
91.146004
20
-4.882000
30
85.015999
70
192
0
VERTEX
8
OBJECT__66
10
87.084999
20
-13.798000
30
84.908997
70
192
0
VERTEX
8
OBJECT__66
10
85.469002
20
-16.163000
30
84.866997
70
192
0
VERTEX
8
OBJECT__66
10
79.963997
20
-20.537001
30
84.723000
70
192
0
VERTEX
8
OBJECT__66
10
79.920998
20
-20.570999
30
84.722000
70
192
0
VERTEX
8
OBJECT__66
10
79.917000
20
20.573000
30
84.722000
70
192
0
VERTEX
8
OBJECT__66
10
93.472000
20
-3.839000
30
87.252998
70
192
0
VERTEX
8
OBJECT__66
10
80.851997
20
22.301001
30
86.922997
70
192
0
VERTEX
8
OBJECT__66
10
0
20
0
30
0
70
128
71
1
72
2
73
3
0
VERTEX
8
OBJECT__66
10
0
20
0
30
0
70
128
71
4
72
5
73
2
0
VERTEX
8
OBJECT__66
10
0
20
0
30
0
70
128
71
6
72
7
73
5
0
VERTEX
8
OBJECT__66
10
0
20
0
30
0
70
128
71
7
72
6
73
8
0
VERTEX
8
OBJECT__66
10
0
20
0
30
0
70
128
71
8
72
9
73
7
0
VERTEX
8
OBJECT__66
10
0
20
0
30
0
70
128
71
10
72
11
73
9
0
VERTEX
8
OBJECT__66
10
0
20
0
30
0
70
128
71
12
72
13
73
11
0
VERTEX
8
OBJECT__66
10
0
20
0
30
0
70
128
71
14
72
15
73
13
0
VERTEX
8
OBJECT__66
10
0
20
0
30
0
70
128
71
2
72
16
73
17
0
VERTEX
8
OBJECT__66
10
0
20
0
30
0
70
128
71
17
72
3
73
2
0
VERTEX
8
OBJECT__66
10
0
20
0
30
0
70
128
71
5
72
18
73
19
0
VERTEX
8
OBJECT__66
10
0
20
0
30
0
70
128
71
19
72
2
73
5
0
VERTEX
8
OBJECT__66
10
0
20
0
30
0
70
128
71
5
72
7
73
20
0
VERTEX
8
OBJECT__66
10
0
20
0
30
0
70
128
71
7
72
21
73
20
0
VERTEX
8
OBJECT__66
10
0
20
0
30
0
70
128
71
9
72
22
73
21
0
VERTEX
8
OBJECT__66
10
0
20
0
30
0
70
128
71
11
72
23
73
24
0
VERTEX
8
OBJECT__66
10
0
20
0
30
0
70
128
71
24
72
9
73
11
0
VERTEX
8
OBJECT__66
10
0
20
0
30
0
70
128
71
11
72
13
73
25
0
VERTEX
8
OBJECT__66
10
0
20
0
30
0
70
128
71
13
72
26
73
25
0
VERTEX
8
OBJECT__66
10
0
20
0
30
0
70
128
71
13
72
15
73
27
0
VERTEX
8
OBJECT__66
10
0
20
0
30
0
70
128
71
15
72
28
73
27
0
VERTEX
8
OBJECT__66
10
0
20
0
30
0
70
128
71
27
72
26
73
13
0
VERTEX
8
OBJECT__66
10
0
20
0
30
0
70
128
71
25
72
23
73
11
0
VERTEX
8
OBJECT__66
10
0
20
0
30
0
70
128
71
24
72
22
73
9
0
VERTEX
8
OBJECT__66
10
0
20
0
30
0
70
128
71
21
72
7
73
9
0
VERTEX
8
OBJECT__66
10
0
20
0
30
0
70
128
71
20
72
18
73
5
0
VERTEX
8
OBJECT__66
10
0
20
0
30
0
70
128
71
19
72
16
73
2
0
VERTEX
8
OBJECT__66
10
0
20
0
30
0
70
128
71
17
72
29
73
3
0
VERTEX
8
OBJECT__66
10
0
20
0
30
0
70
128
71
13
72
12
73
14
0
VERTEX
8
OBJECT__66
10
0
20
0
30
0
70
128
71
11
72
10
73
12
0
VERTEX
8
OBJECT__66
10
0
20
0
30
0
70
128
71
9
72
30
73
10
0
VERTEX
8
OBJECT__66
10
0
20
0
30
0
70
128
71
8
72
30
73
9
0
VERTEX
8
OBJECT__66
10
0
20
0
30
0
70
128
71
5
72
4
73
6
0
VERTEX
8
OBJECT__66
10
0
20
0
30
0
70
128
71
2
72
1
73
4
0
VERTEX
8
OBJECT__66
10
0
20
0
30
0
70
128
71
3
72
31
73
1
0
SEQEND
8
OBJECT__66
0
POLYLINE
8
OBJECT__67
66
1
70
64
71
21
72
24
62
253
0
VERTEX
8
OBJECT__67
10
79.917000
20
20.573000
30
84.722000
70
192
0
VERTEX
8
OBJECT__67
10
77.291000
20
21.833000
30
85.025002
70
192
0
VERTEX
8
OBJECT__67
10
77.570999
20
21.959999
30
86.138000
70
192
0
VERTEX
8
OBJECT__67
10
80.134003
20
21.021999
30
86.253998
70
192
0
VERTEX
8
OBJECT__67
10
78.014000
20
22.656000
30
86.945000
70
192
0
VERTEX
8
OBJECT__67
10
76.541000
20
22.112000
30
85.212997
70
192
0
VERTEX
8
OBJECT__67
10
76.816002
20
22.188000
30
86.199997
70
192
0
VERTEX
8
OBJECT__67
10
77.206001
20
22.735001
30
86.977997
70
192
0
VERTEX
8
OBJECT__67
10
74.860001
20
22.622999
30
85.767998
70
192
0
VERTEX
8
OBJECT__67
10
75.107002
20
22.622000
30
86.460999
70
192
0
VERTEX
8
OBJECT__67
10
75.398003
20
22.879000
30
87.084999
70
192
0
VERTEX
8
OBJECT__67
10
73.752998
20
22.875000
30
86.259003
70
192
0
VERTEX
8
OBJECT__67
10
73.973000
20
22.846001
30
86.734001
70
192
0
VERTEX
8
OBJECT__67
10
74.209999
20
22.951000
30
87.189003
70
192
0
VERTEX
8
OBJECT__67
10
72.724998
20
23.035999
30
86.973000
70
192
0
VERTEX
8
OBJECT__67
10
72.916000
20
22.999001
30
87.163002
70
192
0
VERTEX
8
OBJECT__67
10
73.111000
20
22.997999
30
87.352997
70
192
0
VERTEX
8
OBJECT__67
10
72.550003
20
23.046000
30
87.230003
70
192
0
VERTEX
8
OBJECT__67
10
72.737999
20
23.011999
30
87.321999
70
192
0
VERTEX
8
OBJECT__67
10
72.928001
20
23.000999
30
87.415001
70
192
0
VERTEX
8
OBJECT__67
10
80.851997
20
22.301001
30
86.922997
70
192
0
VERTEX
8
OBJECT__67
10
0
20
0
30
0
70
128
71
1
72
2
73
3
0
VERTEX
8
OBJECT__67
10
0
20
0
30
0
70
128
71
4
72
3
73
5
0
VERTEX
8
OBJECT__67
10
0
20
0
30
0
70
128
71
2
72
6
73
7
0
VERTEX
8
OBJECT__67
10
0
20
0
30
0
70
128
71
3
72
7
73
8
0
VERTEX
8
OBJECT__67
10
0
20
0
30
0
70
128
71
6
72
9
73
10
0
VERTEX
8
OBJECT__67
10
0
20
0
30
0
70
128
71
7
72
10
73
11
0
VERTEX
8
OBJECT__67
10
0
20
0
30
0
70
128
71
9
72
12
73
13
0
VERTEX
8
OBJECT__67
10
0
20
0
30
0
70
128
71
10
72
13
73
14
0
VERTEX
8
OBJECT__67
10
0
20
0
30
0
70
128
71
12
72
15
73
16
0
VERTEX
8
OBJECT__67
10
0
20
0
30
0
70
128
71
13
72
16
73
17
0
VERTEX
8
OBJECT__67
10
0
20
0
30
0
70
128
71
15
72
18
73
19
0
VERTEX
8
OBJECT__67
10
0
20
0
30
0
70
128
71
16
72
19
73
20
0
VERTEX
8
OBJECT__67
10
0
20
0
30
0
70
128
71
20
72
17
73
16
0
VERTEX
8
OBJECT__67
10
0
20
0
30
0
70
128
71
19
72
16
73
15
0
VERTEX
8
OBJECT__67
10
0
20
0
30
0
70
128
71
17
72
14
73
13
0
VERTEX
8
OBJECT__67
10
0
20
0
30
0
70
128
71
16
72
13
73
12
0
VERTEX
8
OBJECT__67
10
0
20
0
30
0
70
128
71
14
72
11
73
10
0
VERTEX
8
OBJECT__67
10
0
20
0
30
0
70
128
71
13
72
10
73
9
0
VERTEX
8
OBJECT__67
10
0
20
0
30
0
70
128
71
11
72
8
73
7
0
VERTEX
8
OBJECT__67
10
0
20
0
30
0
70
128
71
10
72
7
73
6
0
VERTEX
8
OBJECT__67
10
0
20
0
30
0
70
128
71
8
72
5
73
3
0
VERTEX
8
OBJECT__67
10
0
20
0
30
0
70
128
71
7
72
3
73
2
0
VERTEX
8
OBJECT__67
10
0
20
0
30
0
70
128
71
5
72
21
73
4
0
VERTEX
8
OBJECT__67
10
0
20
0
30
0
70
128
71
3
72
4
73
1
0
SEQEND
8
OBJECT__67
0
POLYLINE
8
OBJECT__68
66
1
70
64
71
10
72
8
62
253
0
VERTEX
8
OBJECT__68
10
71.452003
20
-22.999001
30
89.903999
70
192
0
VERTEX
8
OBJECT__68
10
71.207001
20
-22.999001
30
90.314003
70
192
0
VERTEX
8
OBJECT__68
10
71.056999
20
-23.018000
30
90.123001
70
192
0
VERTEX
8
OBJECT__68
10
69.680000
20
-22.999001
30
91.931999
70
192
0
VERTEX
8
OBJECT__68
10
69.487000
20
-23.003000
30
91.987999
70
192
0
VERTEX
8
OBJECT__68
10
70.362999
20
-23.011000
30
90.947998
70
192
0
VERTEX
8
OBJECT__68
10
72.750999
20
-23.021000
30
87.322998
70
192
0
VERTEX
8
OBJECT__68
10
71.241997
20
-23.021000
30
89.766998
70
192
0
VERTEX
8
OBJECT__68
10
72.560997
20
-23.044001
30
87.230003
70
192
0
VERTEX
8
OBJECT__68
10
72.940002
20
-22.999001
30
87.416000
70
192
0
VERTEX
8
OBJECT__68
10
0
20
0
30
0
70
128
71
1
72
2
73
3
0
VERTEX
8
OBJECT__68
10
0
20
0
30
0
70
128
71
4
72
5
73
6
0
VERTEX
8
OBJECT__68
10
0
20
0
30
0
70
128
71
6
72
2
73
4
0
VERTEX
8
OBJECT__68
10
0
20
0
30
0
70
128
71
6
72
3
73
2
0
VERTEX
8
OBJECT__68
10
0
20
0
30
0
70
128
71
7
72
1
73
8
0
VERTEX
8
OBJECT__68
10
0
20
0
30
0
70
128
71
8
72
9
73
7
0
VERTEX
8
OBJECT__68
10
0
20
0
30
0
70
128
71
7
72
10
73
1
0
VERTEX
8
OBJECT__68
10
0
20
0
30
0
70
128
71
3
72
8
73
1
0
SEQEND
8
OBJECT__68
0
POLYLINE
8
OBJECT__69
66
1
70
64
71
11
72
9
62
253
0
VERTEX
8
OBJECT__69
10
148.210007
20
-22.999001
30
89.387001
70
192
0
VERTEX
8
OBJECT__69
10
74.019997
20
-22.959000
30
87.210999
70
192
0
VERTEX
8
OBJECT__69
10
76.508003
20
-22.794001
30
87.014000
70
192
0
VERTEX
8
OBJECT__69
10
72.940002
20
-22.999001
30
87.416000
70
192
0
VERTEX
8
OBJECT__69
10
73.174004
20
-22.993999
30
87.339996
70
192
0
VERTEX
8
OBJECT__69
10
148.227997
20
-22.299000
30
88.686996
70
192
0
VERTEX
8
OBJECT__69
10
77.613998
20
-22.694000
30
86.959999
70
192
0
VERTEX
8
OBJECT__69
10
80.537003
20
-22.344999
30
86.916000
70
192
0
VERTEX
8
OBJECT__69
10
148.223007
20
-22.794001
30
88.891998
70
192
0
VERTEX
8
OBJECT__69
10
76.518997
20
-22.792999
30
87.013000
70
192
0
VERTEX
8
OBJECT__69
10
80.855003
20
-22.299000
30
86.922997
70
192
0
VERTEX
8
OBJECT__69
10
0
20
0
30
0
70
128
71
1
72
2
73
3
0
VERTEX
8
OBJECT__69
10
0
20
0
30
0
70
128
71
1
72
4
73
5
0
VERTEX
8
OBJECT__69
10
0
20
0
30
0
70
128
71
5
72
2
73
1
0
VERTEX
8
OBJECT__69
10
0
20
0
30
0
70
128
71
6
72
7
73
8
0
VERTEX
8
OBJECT__69
10
0
20
0
30
0
70
128
71
9
72
3
73
10
0
VERTEX
8
OBJECT__69
10
0
20
0
30
0
70
128
71
10
72
6
73
9
0
VERTEX
8
OBJECT__69
10
0
20
0
30
0
70
128
71
10
72
7
73
6
0
VERTEX
8
OBJECT__69
10
0
20
0
30
0
70
128
71
8
72
11
73
6
0
VERTEX
8
OBJECT__69
10
0
20
0
30
0
70
128
71
3
72
9
73
1
0
SEQEND
8
OBJECT__69
0
POLYLINE
8
OBJECT__70
66
1
70
64
71
12
72
10
62
253
0
VERTEX
8
OBJECT__70
10
69.653000
20
23.000999
30
91.931000
70
192
0
VERTEX
8
OBJECT__70
10
71.216003
20
23.000999
30
90.281998
70
192
0
VERTEX
8
OBJECT__70
10
70.362000
20
23.013000
30
90.964996
70
192
0
VERTEX
8
OBJECT__70
10
70.831001
20
23.017000
30
90.439003
70
192
0
VERTEX
8
OBJECT__70
10
69.449997
20
23.004999
30
91.987999
70
192
0
VERTEX
8
OBJECT__70
10
69.598999
20
23.000999
30
91.945999
70
192
0
VERTEX
8
OBJECT__70
10
71.198997
20
23.023001
30
89.758003
70
192
0
VERTEX
8
OBJECT__70
10
71.436996
20
23.000999
30
89.912003
70
192
0
VERTEX
8
OBJECT__70
10
72.928001
20
23.000999
30
87.415001
70
192
0
VERTEX
8
OBJECT__70
10
72.483002
20
23.045000
30
87.377998
70
192
0
VERTEX
8
OBJECT__70
10
72.737999
20
23.011999
30
87.321999
70
192
0
VERTEX
8
OBJECT__70
10
72.550003
20
23.046000
30
87.230003
70
192
0
VERTEX
8
OBJECT__70
10
0
20
0
30
0
70
128
71
1
72
2
73
3
0
VERTEX
8
OBJECT__70
10
0
20
0
30
0
70
128
71
2
72
4
73
3
0
VERTEX
8
OBJECT__70
10
0
20
0
30
0
70
128
71
3
72
5
73
6
0
VERTEX
8
OBJECT__70
10
0
20
0
30
0
70
128
71
7
72
4
73
2
0
VERTEX
8
OBJECT__70
10
0
20
0
30
0
70
128
71
2
72
8
73
7
0
VERTEX
8
OBJECT__70
10
0
20
0
30
0
70
128
71
8
72
9
73
10
0
VERTEX
8
OBJECT__70
10
0
20
0
30
0
70
128
71
10
72
9
73
11
0
VERTEX
8
OBJECT__70
10
0
20
0
30
0
70
128
71
11
72
12
73
10
0
VERTEX
8
OBJECT__70
10
0
20
0
30
0
70
128
71
10
72
7
73
8
0
VERTEX
8
OBJECT__70
10
0
20
0
30
0
70
128
71
3
72
6
73
1
0
SEQEND
8
OBJECT__70
0
POLYLINE
8
OBJECT__71
66
1
70
64
71
10
72
8
62
253
0
VERTEX
8
OBJECT__71
10
148.223007
20
22.796000
30
88.891998
70
192
0
VERTEX
8
OBJECT__71
10
148.227997
20
22.301001
30
88.686996
70
192
0
VERTEX
8
OBJECT__71
10
80.851997
20
22.301001
30
86.922997
70
192
0
VERTEX
8
OBJECT__71
10
78.014000
20
22.656000
30
86.945000
70
192
0
VERTEX
8
OBJECT__71
10
148.210007
20
23.000999
30
89.387001
70
192
0
VERTEX
8
OBJECT__71
10
74.209999
20
22.951000
30
87.189003
70
192
0
VERTEX
8
OBJECT__71
10
73.111000
20
22.997999
30
87.352997
70
192
0
VERTEX
8
OBJECT__71
10
75.398003
20
22.879000
30
87.084999
70
192
0
VERTEX
8
OBJECT__71
10
77.206001
20
22.735001
30
86.977997
70
192
0
VERTEX
8
OBJECT__71
10
72.928001
20
23.000999
30
87.415001
70
192
0
VERTEX
8
OBJECT__71
10
0
20
0
30
0
70
128
71
1
72
2
73
3
0
VERTEX
8
OBJECT__71
10
0
20
0
30
0
70
128
71
3
72
4
73
1
0
VERTEX
8
OBJECT__71
10
0
20
0
30
0
70
128
71
5
72
6
73
7
0
VERTEX
8
OBJECT__71
10
0
20
0
30
0
70
128
71
5
72
8
73
6
0
VERTEX
8
OBJECT__71
10
0
20
0
30
0
70
128
71
5
72
1
73
9
0
VERTEX
8
OBJECT__71
10
0
20
0
30
0
70
128
71
9
72
8
73
5
0
VERTEX
8
OBJECT__71
10
0
20
0
30
0
70
128
71
7
72
10
73
5
0
VERTEX
8
OBJECT__71
10
0
20
0
30
0
70
128
71
4
72
9
73
1
0
SEQEND
8
OBJECT__71
0
POLYLINE
8
OBJECT__72
66
1
70
64
71
47
72
56
62
253
0
VERTEX
8
OBJECT__72
10
66.757004
20
-22.805000
30
92.370003
70
192
0
VERTEX
8
OBJECT__72
10
69.459999
20
-22.781000
30
92.441002
70
192
0
VERTEX
8
OBJECT__72
10
69.422997
20
-22.306999
30
92.625000
70
192
0
VERTEX
8
OBJECT__72
10
66.776001
20
-22.330999
30
92.556000
70
192
0
VERTEX
8
OBJECT__72
10
60.146000
20
-20.971001
30
92.383003
70
192
0
VERTEX
8
OBJECT__72
10
59.986000
20
-21.417000
30
92.192001
70
192
0
VERTEX
8
OBJECT__72
10
54.227001
20
-17.688999
30
92.227997
70
192
0
VERTEX
8
OBJECT__72
10
53.942001
20
-18.065001
30
92.033997
70
192
0
VERTEX
8
OBJECT__72
10
49.562000
20
-12.785000
30
92.105003
70
192
0
VERTEX
8
OBJECT__72
10
49.176998
20
-13.057000
30
91.908997
70
192
0
VERTEX
8
OBJECT__72
10
46.577000
20
-6.709000
30
92.027000
70
192
0
VERTEX
8
OBJECT__72
10
46.129002
20
-6.852000
30
91.830002
70
192
0
VERTEX
8
OBJECT__72
10
45.547001
20
-0.018000
30
92.000000
70
192
0
VERTEX
8
OBJECT__72
10
45.077000
20
-0.019000
30
91.802002
70
192
0
VERTEX
8
OBJECT__72
10
46.566002
20
6.675000
30
92.027000
70
192
0
VERTEX
8
OBJECT__72
10
46.118000
20
6.816000
30
91.829002
70
192
0
VERTEX
8
OBJECT__72
10
49.541000
20
12.755000
30
92.105003
70
192
0
VERTEX
8
OBJECT__72
10
53.911999
20
18.042000
30
92.032997
70
192
0
VERTEX
8
OBJECT__72
10
49.155998
20
13.026000
30
91.908997
70
192
0
VERTEX
8
OBJECT__72
10
59.952000
20
21.403999
30
92.192001
70
192
0
VERTEX
8
OBJECT__72
10
54.199001
20
17.667000
30
92.226997
70
192
0
VERTEX
8
OBJECT__72
10
66.720001
20
22.802999
30
92.369003
70
192
0
VERTEX
8
OBJECT__72
10
60.112000
20
20.959000
30
92.382004
70
192
0
VERTEX
8
OBJECT__72
10
69.421997
20
22.743000
30
92.371002
70
192
0
VERTEX
8
OBJECT__72
10
66.739998
20
22.329000
30
92.555000
70
192
0
VERTEX
8
OBJECT__72
10
66.720001
20
23.025000
30
91.916000
70
192
0
VERTEX
8
OBJECT__72
10
69.435997
20
22.919001
30
92.267998
70
192
0
VERTEX
8
OBJECT__72
10
60.818001
20
21.805000
30
91.761002
70
192
0
VERTEX
8
OBJECT__72
10
53.787998
20
18.218000
30
91.577003
70
192
0
VERTEX
8
OBJECT__72
10
52.633999
20
17.000000
30
91.546997
70
192
0
VERTEX
8
OBJECT__72
10
48.985001
20
13.153000
30
91.452003
70
192
0
VERTEX
8
OBJECT__72
10
47.084000
20
9.268000
30
91.402000
70
192
0
VERTEX
8
OBJECT__72
10
44.868999
20
0.000000
30
91.344002
70
192
0
VERTEX
8
OBJECT__72
10
45.917999
20
6.883000
30
91.371002
70
192
0
VERTEX
8
OBJECT__72
10
44.867001
20
-0.019000
30
91.344002
70
192
0
VERTEX
8
OBJECT__72
10
45.929001
20
-6.918000
30
91.372002
70
192
0
VERTEX
8
OBJECT__72
10
47.083000
20
-9.268000
30
91.402000
70
192
0
VERTEX
8
OBJECT__72
10
49.006001
20
-13.184000
30
91.452003
70
192
0
VERTEX
8
OBJECT__72
10
52.636002
20
-16.997999
30
91.546997
70
192
0
VERTEX
8
OBJECT__72
10
53.818001
20
-18.240999
30
91.578003
70
192
0
VERTEX
8
OBJECT__72
10
59.921001
20
-21.625000
30
91.737999
70
192
0
VERTEX
8
OBJECT__72
10
60.817001
20
-21.809000
30
91.761002
70
192
0
VERTEX
8
OBJECT__72
10
66.758003
20
-23.027000
30
91.917000
70
192
0
VERTEX
8
OBJECT__72
10
69.487000
20
-23.003000
30
91.987999
70
192
0
VERTEX
8
OBJECT__72
10
59.886002
20
21.612000
30
91.737000
70
192
0
VERTEX
8
OBJECT__72
10
69.449997
20
23.004999
30
91.987999
70
192
0
VERTEX
8
OBJECT__72
10
69.387001
20
22.309000
30
92.625000
70
192
0
VERTEX
8
OBJECT__72
10
0
20
0
30
0
70
128
71
1
72
2
73
3
0
VERTEX
8
OBJECT__72
10
0
20
0
30
0
70
128
71
1
72
4
73
5
0
VERTEX
8
OBJECT__72
10
0
20
0
30
0
70
128
71
6
72
5
73
7
0
VERTEX
8
OBJECT__72
10
0
20
0
30
0
70
128
71
8
72
7
73
9
0
VERTEX
8
OBJECT__72
10
0
20
0
30
0
70
128
71
10
72
9
73
11
0
VERTEX
8
OBJECT__72
10
0
20
0
30
0
70
128
71
12
72
11
73
13
0
VERTEX
8
OBJECT__72
10
0
20
0
30
0
70
128
71
14
72
13
73
15
0
VERTEX
8
OBJECT__72
10
0
20
0
30
0
70
128
71
16
72
15
73
17
0
VERTEX
8
OBJECT__72
10
0
20
0
30
0
70
128
71
18
72
19
73
17
0
VERTEX
8
OBJECT__72
10
0
20
0
30
0
70
128
71
20
72
18
73
21
0
VERTEX
8
OBJECT__72
10
0
20
0
30
0
70
128
71
22
72
20
73
23
0
VERTEX
8
OBJECT__72
10
0
20
0
30
0
70
128
71
24
72
22
73
25
0
VERTEX
8
OBJECT__72
10
0
20
0
30
0
70
128
71
26
72
22
73
24
0
VERTEX
8
OBJECT__72
10
0
20
0
30
0
70
128
71
24
72
27
73
26
0
VERTEX
8
OBJECT__72
10
0
20
0
30
0
70
128
71
22
72
26
73
28
0
VERTEX
8
OBJECT__72
10
0
20
0
30
0
70
128
71
28
72
20
73
22
0
VERTEX
8
OBJECT__72
10
0
20
0
30
0
70
128
71
29
72
18
73
20
0
VERTEX
8
OBJECT__72
10
0
20
0
30
0
70
128
71
19
72
18
73
30
0
VERTEX
8
OBJECT__72
10
0
20
0
30
0
70
128
71
18
72
29
73
30
0
VERTEX
8
OBJECT__72
10
0
20
0
30
0
70
128
71
19
72
31
73
32
0
VERTEX
8
OBJECT__72
10
0
20
0
30
0
70
128
71
32
72
16
73
19
0
VERTEX
8
OBJECT__72
10
0
20
0
30
0
70
128
71
33
72
14
73
16
0
VERTEX
8
OBJECT__72
10
0
20
0
30
0
70
128
71
16
72
34
73
33
0
VERTEX
8
OBJECT__72
10
0
20
0
30
0
70
128
71
35
72
36
73
12
0
VERTEX
8
OBJECT__72
10
0
20
0
30
0
70
128
71
10
72
12
73
37
0
VERTEX
8
OBJECT__72
10
0
20
0
30
0
70
128
71
12
72
36
73
37
0
VERTEX
8
OBJECT__72
10
0
20
0
30
0
70
128
71
10
72
38
73
39
0
VERTEX
8
OBJECT__72
10
0
20
0
30
0
70
128
71
39
72
8
73
10
0
VERTEX
8
OBJECT__72
10
0
20
0
30
0
70
128
71
40
72
41
73
6
0
VERTEX
8
OBJECT__72
10
0
20
0
30
0
70
128
71
1
72
6
73
42
0
VERTEX
8
OBJECT__72
10
0
20
0
30
0
70
128
71
6
72
41
73
42
0
VERTEX
8
OBJECT__72
10
0
20
0
30
0
70
128
71
43
72
44
73
2
0
VERTEX
8
OBJECT__72
10
0
20
0
30
0
70
128
71
2
72
1
73
43
0
VERTEX
8
OBJECT__72
10
0
20
0
30
0
70
128
71
42
72
43
73
1
0
VERTEX
8
OBJECT__72
10
0
20
0
30
0
70
128
71
6
72
8
73
40
0
VERTEX
8
OBJECT__72
10
0
20
0
30
0
70
128
71
39
72
40
73
8
0
VERTEX
8
OBJECT__72
10
0
20
0
30
0
70
128
71
37
72
38
73
10
0
VERTEX
8
OBJECT__72
10
0
20
0
30
0
70
128
71
12
72
14
73
35
0
VERTEX
8
OBJECT__72
10
0
20
0
30
0
70
128
71
33
72
35
73
14
0
VERTEX
8
OBJECT__72
10
0
20
0
30
0
70
128
71
32
72
34
73
16
0
VERTEX
8
OBJECT__72
10
0
20
0
30
0
70
128
71
30
72
31
73
19
0
VERTEX
8
OBJECT__72
10
0
20
0
30
0
70
128
71
20
72
45
73
29
0
VERTEX
8
OBJECT__72
10
0
20
0
30
0
70
128
71
28
72
45
73
20
0
VERTEX
8
OBJECT__72
10
0
20
0
30
0
70
128
71
27
72
46
73
26
0
VERTEX
8
OBJECT__72
10
0
20
0
30
0
70
128
71
25
72
47
73
24
0
VERTEX
8
OBJECT__72
10
0
20
0
30
0
70
128
71
23
72
25
73
22
0
VERTEX
8
OBJECT__72
10
0
20
0
30
0
70
128
71
21
72
23
73
20
0
VERTEX
8
OBJECT__72
10
0
20
0
30
0
70
128
71
17
72
21
73
18
0
VERTEX
8
OBJECT__72
10
0
20
0
30
0
70
128
71
17
72
19
73
16
0
VERTEX
8
OBJECT__72
10
0
20
0
30
0
70
128
71
15
72
16
73
14
0
VERTEX
8
OBJECT__72
10
0
20
0
30
0
70
128
71
13
72
14
73
12
0
VERTEX
8
OBJECT__72
10
0
20
0
30
0
70
128
71
11
72
12
73
10
0
VERTEX
8
OBJECT__72
10
0
20
0
30
0
70
128
71
9
72
10
73
8
0
VERTEX
8
OBJECT__72
10
0
20
0
30
0
70
128
71
7
72
8
73
6
0
VERTEX
8
OBJECT__72
10
0
20
0
30
0
70
128
71
5
72
6
73
1
0
VERTEX
8
OBJECT__72
10
0
20
0
30
0
70
128
71
3
72
4
73
1
0
SEQEND
8
OBJECT__72
0
POLYLINE
8
OBJECT__73
66
1
70
64
71
13
72
13
62
253
0
VERTEX
8
OBJECT__73
10
152.207993
20
21.929001
30
89.490997
70
192
0
VERTEX
8
OBJECT__73
10
152.119003
20
21.752001
30
88.994003
70
192
0
VERTEX
8
OBJECT__73
10
148.223007
20
22.796000
30
88.891998
70
192
0
VERTEX
8
OBJECT__73
10
153.671997
20
20.465000
30
89.529999
70
192
0
VERTEX
8
OBJECT__73
10
154.970993
20
18.899000
30
89.069000
70
192
0
VERTEX
8
OBJECT__73
10
156.207001
20
15.001000
30
89.596001
70
192
0
VERTEX
8
OBJECT__73
10
156.014999
20
15.001000
30
89.096001
70
192
0
VERTEX
8
OBJECT__73
10
151.876999
20
21.323000
30
88.782997
70
192
0
VERTEX
8
OBJECT__73
10
148.227997
20
22.301001
30
88.686996
70
192
0
VERTEX
8
OBJECT__73
10
154.548004
20
18.650999
30
88.852997
70
192
0
VERTEX
8
OBJECT__73
10
155.526001
20
15.001000
30
88.877998
70
192
0
VERTEX
8
OBJECT__73
10
155.136002
20
19.000999
30
89.568001
70
192
0
VERTEX
8
OBJECT__73
10
148.210007
20
23.000999
30
89.387001
70
192
0
VERTEX
8
OBJECT__73
10
0
20
0
30
0
70
128
71
1
72
2
73
3
0
VERTEX
8
OBJECT__73
10
0
20
0
30
0
70
128
71
2
72
1
73
4
0
VERTEX
8
OBJECT__73
10
0
20
0
30
0
70
128
71
4
72
5
73
2
0
VERTEX
8
OBJECT__73
10
0
20
0
30
0
70
128
71
6
72
7
73
5
0
VERTEX
8
OBJECT__73
10
0
20
0
30
0
70
128
71
2
72
8
73
9
0
VERTEX
8
OBJECT__73
10
0
20
0
30
0
70
128
71
2
72
5
73
10
0
VERTEX
8
OBJECT__73
10
0
20
0
30
0
70
128
71
5
72
7
73
11
0
VERTEX
8
OBJECT__73
10
0
20
0
30
0
70
128
71
11
72
10
73
5
0
VERTEX
8
OBJECT__73
10
0
20
0
30
0
70
128
71
10
72
8
73
2
0
VERTEX
8
OBJECT__73
10
0
20
0
30
0
70
128
71
9
72
3
73
2
0
VERTEX
8
OBJECT__73
10
0
20
0
30
0
70
128
71
5
72
12
73
6
0
VERTEX
8
OBJECT__73
10
0
20
0
30
0
70
128
71
4
72
12
73
5
0
VERTEX
8
OBJECT__73
10
0
20
0
30
0
70
128
71
3
72
13
73
1
0
SEQEND
8
OBJECT__73
0
POLYLINE
8
OBJECT__74
66
1
70
64
71
6
72
4
62
253
0
VERTEX
8
OBJECT__74
10
155.526001
20
15.001000
30
88.877998
70
192
0
VERTEX
8
OBJECT__74
10
156.014999
20
15.001000
30
89.096001
70
192
0
VERTEX
8
OBJECT__74
10
156.014999
20
-14.999000
30
89.096001
70
192
0
VERTEX
8
OBJECT__74
10
156.207001
20
15.001000
30
89.596001
70
192
0
VERTEX
8
OBJECT__74
10
156.207001
20
-14.999000
30
89.596001
70
192
0
VERTEX
8
OBJECT__74
10
155.526001
20
-14.999000
30
88.877998
70
192
0
VERTEX
8
OBJECT__74
10
0
20
0
30
0
70
128
71
1
72
2
73
3
0
VERTEX
8
OBJECT__74
10
0
20
0
30
0
70
128
71
4
72
5
73
3
0
VERTEX
8
OBJECT__74
10
0
20
0
30
0
70
128
71
3
72
2
73
4
0
VERTEX
8
OBJECT__74
10
0
20
0
30
0
70
128
71
3
72
6
73
1
0
SEQEND
8
OBJECT__74
0
POLYLINE
8
OBJECT__75
66
1
70
64
71
13
72
13
62
253
0
VERTEX
8
OBJECT__75
10
155.136002
20
-18.999001
30
89.568001
70
192
0
VERTEX
8
OBJECT__75
10
154.970993
20
-18.896000
30
89.069000
70
192
0
VERTEX
8
OBJECT__75
10
156.014999
20
-14.999000
30
89.096001
70
192
0
VERTEX
8
OBJECT__75
10
152.119003
20
-21.750000
30
88.994003
70
192
0
VERTEX
8
OBJECT__75
10
153.671997
20
-20.462999
30
89.529999
70
192
0
VERTEX
8
OBJECT__75
10
148.210007
20
-22.999001
30
89.387001
70
192
0
VERTEX
8
OBJECT__75
10
148.223007
20
-22.794001
30
88.891998
70
192
0
VERTEX
8
OBJECT__75
10
154.548004
20
-18.649000
30
88.852997
70
192
0
VERTEX
8
OBJECT__75
10
155.526001
20
-14.999000
30
88.877998
70
192
0
VERTEX
8
OBJECT__75
10
151.876999
20
-21.320999
30
88.782997
70
192
0
VERTEX
8
OBJECT__75
10
148.227997
20
-22.299000
30
88.686996
70
192
0
VERTEX
8
OBJECT__75
10
152.207993
20
-21.927000
30
89.490997
70
192
0
VERTEX
8
OBJECT__75
10
156.207001
20
-14.999000
30
89.596001
70
192
0
VERTEX
8
OBJECT__75
10
0
20
0
30
0
70
128
71
1
72
2
73
3
0
VERTEX
8
OBJECT__75
10
0
20
0
30
0
70
128
71
4
72
2
73
5
0
VERTEX
8
OBJECT__75
10
0
20
0
30
0
70
128
71
2
72
1
73
5
0
VERTEX
8
OBJECT__75
10
0
20
0
30
0
70
128
71
6
72
7
73
4
0
VERTEX
8
OBJECT__75
10
0
20
0
30
0
70
128
71
2
72
8
73
9
0
VERTEX
8
OBJECT__75
10
0
20
0
30
0
70
128
71
4
72
10
73
8
0
VERTEX
8
OBJECT__75
10
0
20
0
30
0
70
128
71
7
72
11
73
10
0
VERTEX
8
OBJECT__75
10
0
20
0
30
0
70
128
71
10
72
4
73
7
0
VERTEX
8
OBJECT__75
10
0
20
0
30
0
70
128
71
8
72
2
73
4
0
VERTEX
8
OBJECT__75
10
0
20
0
30
0
70
128
71
9
72
3
73
2
0
VERTEX
8
OBJECT__75
10
0
20
0
30
0
70
128
71
4
72
12
73
6
0
VERTEX
8
OBJECT__75
10
0
20
0
30
0
70
128
71
5
72
12
73
4
0
VERTEX
8
OBJECT__75
10
0
20
0
30
0
70
128
71
3
72
13
73
1
0
SEQEND
8
OBJECT__75
0
POLYLINE
8
OBJECT__76
66
1
70
64
71
10
72
8
62
253
0
VERTEX
8
OBJECT__76
10
153.671997
20
20.465000
30
89.529999
70
192
0
VERTEX
8
OBJECT__76
10
152.207993
20
21.929001
30
89.490997
70
192
0
VERTEX
8
OBJECT__76
10
152.087997
20
21.929001
30
94.089996
70
192
0
VERTEX
8
OBJECT__76
10
148.089005
20
23.000999
30
93.985001
70
192
0
VERTEX
8
OBJECT__76
10
148.210007
20
23.000999
30
89.387001
70
192
0
VERTEX
8
OBJECT__76
10
156.207001
20
15.001000
30
89.596001
70
192
0
VERTEX
8
OBJECT__76
10
155.136002
20
19.000999
30
89.568001
70
192
0
VERTEX
8
OBJECT__76
10
155.014999
20
19.000999
30
94.167000
70
192
0
VERTEX
8
OBJECT__76
10
153.552002
20
20.465000
30
94.127998
70
192
0
VERTEX
8
OBJECT__76
10
156.087006
20
15.001000
30
94.195000
70
192
0
VERTEX
8
OBJECT__76
10
0
20
0
30
0
70
128
71
1
72
2
73
3
0
VERTEX
8
OBJECT__76
10
0
20
0
30
0
70
128
71
4
72
3
73
2
0
VERTEX
8
OBJECT__76
10
0
20
0
30
0
70
128
71
2
72
5
73
4
0
VERTEX
8
OBJECT__76
10
0
20
0
30
0
70
128
71
6
72
7
73
8
0
VERTEX
8
OBJECT__76
10
0
20
0
30
0
70
128
71
9
72
8
73
7
0
VERTEX
8
OBJECT__76
10
0
20
0
30
0
70
128
71
7
72
1
73
9
0
VERTEX
8
OBJECT__76
10
0
20
0
30
0
70
128
71
8
72
10
73
6
0
VERTEX
8
OBJECT__76
10
0
20
0
30
0
70
128
71
3
72
9
73
1
0
SEQEND
8
OBJECT__76
0
POLYLINE
8
OBJECT__77
66
1
70
64
71
10
72
8
62
253
0
VERTEX
8
OBJECT__77
10
155.014999
20
-18.999001
30
94.167000
70
192
0
VERTEX
8
OBJECT__77
10
153.552002
20
-20.462999
30
94.127998
70
192
0
VERTEX
8
OBJECT__77
10
153.671997
20
-20.462999
30
89.529999
70
192
0
VERTEX
8
OBJECT__77
10
156.207001
20
-14.999000
30
89.596001
70
192
0
VERTEX
8
OBJECT__77
10
156.087006
20
-14.999000
30
94.195000
70
192
0
VERTEX
8
OBJECT__77
10
155.136002
20
-18.999001
30
89.568001
70
192
0
VERTEX
8
OBJECT__77
10
148.089005
20
-22.999001
30
93.985001
70
192
0
VERTEX
8
OBJECT__77
10
148.210007
20
-22.999001
30
89.387001
70
192
0
VERTEX
8
OBJECT__77
10
152.207993
20
-21.927000
30
89.490997
70
192
0
VERTEX
8
OBJECT__77
10
152.087997
20
-21.927000
30
94.089996
70
192
0
VERTEX
8
OBJECT__77
10
0
20
0
30
0
70
128
71
1
72
2
73
3
0
VERTEX
8
OBJECT__77
10
0
20
0
30
0
70
128
71
4
72
5
73
1
0
VERTEX
8
OBJECT__77
10
0
20
0
30
0
70
128
71
1
72
6
73
4
0
VERTEX
8
OBJECT__77
10
0
20
0
30
0
70
128
71
7
72
8
73
9
0
VERTEX
8
OBJECT__77
10
0
20
0
30
0
70
128
71
3
72
2
73
10
0
VERTEX
8
OBJECT__77
10
0
20
0
30
0
70
128
71
10
72
9
73
3
0
VERTEX
8
OBJECT__77
10
0
20
0
30
0
70
128
71
9
72
10
73
7
0
VERTEX
8
OBJECT__77
10
0
20
0
30
0
70
128
71
3
72
6
73
1
0
SEQEND
8
OBJECT__77
0
POLYLINE
8
OBJECT__78
66
1
70
64
71
6
72
4
62
253
0
VERTEX
8
OBJECT__78
10
148.089005
20
-22.999001
30
93.985001
70
192
0
VERTEX
8
OBJECT__78
10
71.452003
20
-22.999001
30
89.903999
70
192
0
VERTEX
8
OBJECT__78
10
72.940002
20
-22.999001
30
87.416000
70
192
0
VERTEX
8
OBJECT__78
10
71.207001
20
-22.999001
30
90.314003
70
192
0
VERTEX
8
OBJECT__78
10
69.680000
20
-22.999001
30
91.931999
70
192
0
VERTEX
8
OBJECT__78
10
148.210007
20
-22.999001
30
89.387001
70
192
0
VERTEX
8
OBJECT__78
10
0
20
0
30
0
70
128
71
1
72
2
73
3
0
VERTEX
8
OBJECT__78
10
0
20
0
30
0
70
128
71
1
72
4
73
2
0
VERTEX
8
OBJECT__78
10
0
20
0
30
0
70
128
71
1
72
5
73
4
0
VERTEX
8
OBJECT__78
10
0
20
0
30
0
70
128
71
3
72
6
73
1
0
SEQEND
8
OBJECT__78
0
POLYLINE
8
OBJECT__79
66
1
70
64
71
6
72
4
62
253
0
VERTEX
8
OBJECT__79
10
148.076004
20
-22.794001
30
94.480003
70
192
0
VERTEX
8
OBJECT__79
10
69.667000
20
-22.794001
30
92.427002
70
192
0
VERTEX
8
OBJECT__79
10
69.680000
20
-22.999001
30
91.931999
70
192
0
VERTEX
8
OBJECT__79
10
148.070999
20
-22.299000
30
94.684998
70
192
0
VERTEX
8
OBJECT__79
10
69.661003
20
-22.299000
30
92.632004
70
192
0
VERTEX
8
OBJECT__79
10
148.089005
20
-22.999001
30
93.985001
70
192
0
VERTEX
8
OBJECT__79
10
0
20
0
30
0
70
128
71
1
72
2
73
3
0
VERTEX
8
OBJECT__79
10
0
20
0
30
0
70
128
71
1
72
4
73
5
0
VERTEX
8
OBJECT__79
10
0
20
0
30
0
70
128
71
5
72
2
73
1
0
VERTEX
8
OBJECT__79
10
0
20
0
30
0
70
128
71
3
72
6
73
1
0
SEQEND
8
OBJECT__79
0
POLYLINE
8
OBJECT__80
66
1
70
64
71
13
72
13
62
253
0
VERTEX
8
OBJECT__80
10
152.087997
20
-21.927000
30
94.089996
70
192
0
VERTEX
8
OBJECT__80
10
151.972000
20
-21.750000
30
94.582001
70
192
0
VERTEX
8
OBJECT__80
10
148.076004
20
-22.794001
30
94.480003
70
192
0
VERTEX
8
OBJECT__80
10
153.552002
20
-20.462999
30
94.127998
70
192
0
VERTEX
8
OBJECT__80
10
154.824997
20
-18.896000
30
94.656998
70
192
0
VERTEX
8
OBJECT__80
10
156.087006
20
-14.999000
30
94.195000
70
192
0
VERTEX
8
OBJECT__80
10
155.869003
20
-14.999000
30
94.683998
70
192
0
VERTEX
8
OBJECT__80
10
151.720001
20
-21.320999
30
94.780998
70
192
0
VERTEX
8
OBJECT__80
10
154.391006
20
-18.649000
30
94.849998
70
192
0
VERTEX
8
OBJECT__80
10
155.367996
20
-14.999000
30
94.875999
70
192
0
VERTEX
8
OBJECT__80
10
148.070999
20
-22.299000
30
94.684998
70
192
0
VERTEX
8
OBJECT__80
10
155.014999
20
-18.999001
30
94.167000
70
192
0
VERTEX
8
OBJECT__80
10
148.089005
20
-22.999001
30
93.985001
70
192
0
VERTEX
8
OBJECT__80
10
0
20
0
30
0
70
128
71
1
72
2
73
3
0
VERTEX
8
OBJECT__80
10
0
20
0
30
0
70
128
71
2
72
1
73
4
0
VERTEX
8
OBJECT__80
10
0
20
0
30
0
70
128
71
4
72
5
73
2
0
VERTEX
8
OBJECT__80
10
0
20
0
30
0
70
128
71
6
72
7
73
5
0
VERTEX
8
OBJECT__80
10
0
20
0
30
0
70
128
71
3
72
2
73
8
0
VERTEX
8
OBJECT__80
10
0
20
0
30
0
70
128
71
5
72
9
73
8
0
VERTEX
8
OBJECT__80
10
0
20
0
30
0
70
128
71
5
72
7
73
10
0
VERTEX
8
OBJECT__80
10
0
20
0
30
0
70
128
71
10
72
9
73
5
0
VERTEX
8
OBJECT__80
10
0
20
0
30
0
70
128
71
8
72
2
73
5
0
VERTEX
8
OBJECT__80
10
0
20
0
30
0
70
128
71
8
72
11
73
3
0
VERTEX
8
OBJECT__80
10
0
20
0
30
0
70
128
71
5
72
12
73
6
0
VERTEX
8
OBJECT__80
10
0
20
0
30
0
70
128
71
4
72
12
73
5
0
VERTEX
8
OBJECT__80
10
0
20
0
30
0
70
128
71
3
72
13
73
1
0
SEQEND
8
OBJECT__80
0
POLYLINE
8
OBJECT__81
66
1
70
64
71
6
72
4
62
253
0
VERTEX
8
OBJECT__81
10
155.869003
20
15.001000
30
94.683998
70
192
0
VERTEX
8
OBJECT__81
10
155.367996
20
15.001000
30
94.875999
70
192
0
VERTEX
8
OBJECT__81
10
155.367996
20
-14.999000
30
94.875999
70
192
0
VERTEX
8
OBJECT__81
10
155.869003
20
-14.999000
30
94.683998
70
192
0
VERTEX
8
OBJECT__81
10
156.087006
20
-14.999000
30
94.195000
70
192
0
VERTEX
8
OBJECT__81
10
156.087006
20
15.001000
30
94.195000
70
192
0
VERTEX
8
OBJECT__81
10
0
20
0
30
0
70
128
71
1
72
2
73
3
0
VERTEX
8
OBJECT__81
10
0
20
0
30
0
70
128
71
1
72
4
73
5
0
VERTEX
8
OBJECT__81
10
0
20
0
30
0
70
128
71
5
72
6
73
1
0
VERTEX
8
OBJECT__81
10
0
20
0
30
0
70
128
71
3
72
4
73
1
0
SEQEND
8
OBJECT__81
0
POLYLINE
8
OBJECT__82
66
1
70
64
71
4
72
2
62
253
0
VERTEX
8
OBJECT__82
10
156.087006
20
-14.999000
30
94.195000
70
192
0
VERTEX
8
OBJECT__82
10
156.207001
20
-14.999000
30
89.596001
70
192
0
VERTEX
8
OBJECT__82
10
156.207001
20
15.001000
30
89.596001
70
192
0
VERTEX
8
OBJECT__82
10
156.087006
20
15.001000
30
94.195000
70
192
0
VERTEX
8
OBJECT__82
10
0
20
0
30
0
70
128
71
1
72
2
73
3
0
VERTEX
8
OBJECT__82
10
0
20
0
30
0
70
128
71
3
72
4
73
1
0
SEQEND
8
OBJECT__82
0
POLYLINE
8
OBJECT__83
66
1
70
64
71
13
72
13
62
253
0
VERTEX
8
OBJECT__83
10
156.087006
20
15.001000
30
94.195000
70
192
0
VERTEX
8
OBJECT__83
10
155.014999
20
19.000999
30
94.167000
70
192
0
VERTEX
8
OBJECT__83
10
154.824997
20
18.899000
30
94.656998
70
192
0
VERTEX
8
OBJECT__83
10
151.972000
20
21.752001
30
94.582001
70
192
0
VERTEX
8
OBJECT__83
10
153.552002
20
20.465000
30
94.127998
70
192
0
VERTEX
8
OBJECT__83
10
152.087997
20
21.929001
30
94.089996
70
192
0
VERTEX
8
OBJECT__83
10
148.089005
20
23.000999
30
93.985001
70
192
0
VERTEX
8
OBJECT__83
10
148.076004
20
22.796000
30
94.480003
70
192
0
VERTEX
8
OBJECT__83
10
154.391006
20
18.650999
30
94.849998
70
192
0
VERTEX
8
OBJECT__83
10
155.367996
20
15.001000
30
94.875999
70
192
0
VERTEX
8
OBJECT__83
10
151.720001
20
21.323000
30
94.780998
70
192
0
VERTEX
8
OBJECT__83
10
148.070999
20
22.301001
30
94.684998
70
192
0
VERTEX
8
OBJECT__83
10
155.869003
20
15.001000
30
94.683998
70
192
0
VERTEX
8
OBJECT__83
10
0
20
0
30
0
70
128
71
1
72
2
73
3
0
VERTEX
8
OBJECT__83
10
0
20
0
30
0
70
128
71
4
72
3
73
5
0
VERTEX
8
OBJECT__83
10
0
20
0
30
0
70
128
71
3
72
2
73
5
0
VERTEX
8
OBJECT__83
10
0
20
0
30
0
70
128
71
6
72
7
73
8
0
VERTEX
8
OBJECT__83
10
0
20
0
30
0
70
128
71
3
72
9
73
10
0
VERTEX
8
OBJECT__83
10
0
20
0
30
0
70
128
71
3
72
4
73
11
0
VERTEX
8
OBJECT__83
10
0
20
0
30
0
70
128
71
8
72
12
73
11
0
VERTEX
8
OBJECT__83
10
0
20
0
30
0
70
128
71
11
72
4
73
8
0
VERTEX
8
OBJECT__83
10
0
20
0
30
0
70
128
71
11
72
9
73
3
0
VERTEX
8
OBJECT__83
10
0
20
0
30
0
70
128
71
10
72
13
73
3
0
VERTEX
8
OBJECT__83
10
0
20
0
30
0
70
128
71
8
72
4
73
6
0
VERTEX
8
OBJECT__83
10
0
20
0
30
0
70
128
71
5
72
6
73
4
0
VERTEX
8
OBJECT__83
10
0
20
0
30
0
70
128
71
3
72
13
73
1
0
SEQEND
8
OBJECT__83
0
POLYLINE
8
OBJECT__84
66
1
70
64
71
6
72
4
62
253
0
VERTEX
8
OBJECT__84
10
148.089005
20
23.000999
30
93.985001
70
192
0
VERTEX
8
OBJECT__84
10
148.210007
20
23.000999
30
89.387001
70
192
0
VERTEX
8
OBJECT__84
10
72.928001
20
23.000999
30
87.415001
70
192
0
VERTEX
8
OBJECT__84
10
71.436996
20
23.000999
30
89.912003
70
192
0
VERTEX
8
OBJECT__84
10
71.216003
20
23.000999
30
90.281998
70
192
0
VERTEX
8
OBJECT__84
10
69.653000
20
23.000999
30
91.931000
70
192
0
VERTEX
8
OBJECT__84
10
0
20
0
30
0
70
128
71
1
72
2
73
3
0
VERTEX
8
OBJECT__84
10
0
20
0
30
0
70
128
71
3
72
4
73
1
0
VERTEX
8
OBJECT__84
10
0
20
0
30
0
70
128
71
4
72
5
73
1
0
VERTEX
8
OBJECT__84
10
0
20
0
30
0
70
128
71
5
72
6
73
1
0
SEQEND
8
OBJECT__84
0
POLYLINE
8
OBJECT__85
66
1
70
64
71
6
72
4
62
253
0
VERTEX
8
OBJECT__85
10
148.076004
20
22.796000
30
94.480003
70
192
0
VERTEX
8
OBJECT__85
10
69.639999
20
22.796000
30
92.426003
70
192
0
VERTEX
8
OBJECT__85
10
69.635002
20
22.301001
30
92.630997
70
192
0
VERTEX
8
OBJECT__85
10
148.089005
20
23.000999
30
93.985001
70
192
0
VERTEX
8
OBJECT__85
10
69.653000
20
23.000999
30
91.931000
70
192
0
VERTEX
8
OBJECT__85
10
148.070999
20
22.301001
30
94.684998
70
192
0
VERTEX
8
OBJECT__85
10
0
20
0
30
0
70
128
71
1
72
2
73
3
0
VERTEX
8
OBJECT__85
10
0
20
0
30
0
70
128
71
1
72
4
73
5
0
VERTEX
8
OBJECT__85
10
0
20
0
30
0
70
128
71
5
72
2
73
1
0
VERTEX
8
OBJECT__85
10
0
20
0
30
0
70
128
71
3
72
6
73
1
0
SEQEND
8
OBJECT__85
0
POLYLINE
8
OBJECT__86
66
1
70
64
71
34
72
34
62
253
0
VERTEX
8
OBJECT__86
10
138.639008
20
9.602000
30
88.435997
70
192
0
VERTEX
8
OBJECT__86
10
138.302002
20
9.908000
30
88.427002
70
192
0
VERTEX
8
OBJECT__86
10
148.227997
20
22.301001
30
88.686996
70
192
0
VERTEX
8
OBJECT__86
10
154.548004
20
18.650999
30
88.852997
70
192
0
VERTEX
8
OBJECT__86
10
155.526001
20
15.001000
30
88.877998
70
192
0
VERTEX
8
OBJECT__86
10
155.526001
20
-14.999000
30
88.877998
70
192
0
VERTEX
8
OBJECT__86
10
139.503998
20
-7.115000
30
88.459000
70
192
0
VERTEX
8
OBJECT__86
10
139.503998
20
7.115000
30
88.459000
70
192
0
VERTEX
8
OBJECT__86
10
94.862999
20
0.000000
30
87.290001
70
192
0
VERTEX
8
OBJECT__86
10
93.760002
20
0.000000
30
87.261002
70
192
0
VERTEX
8
OBJECT__86
10
93.472000
20
3.844000
30
87.252998
70
192
0
VERTEX
8
OBJECT__86
10
94.862999
20
-11.115000
30
87.290001
70
192
0
VERTEX
8
OBJECT__86
10
93.472000
20
-3.839000
30
87.252998
70
192
0
VERTEX
8
OBJECT__86
10
136.406006
20
11.013000
30
88.376999
70
192
0
VERTEX
8
OBJECT__86
10
135.505997
20
11.115000
30
88.353996
70
192
0
VERTEX
8
OBJECT__86
10
151.876999
20
21.323000
30
88.782997
70
192
0
VERTEX
8
OBJECT__86
10
139.412003
20
-7.976000
30
88.456001
70
192
0
VERTEX
8
OBJECT__86
10
151.876999
20
-21.320999
30
88.782997
70
192
0
VERTEX
8
OBJECT__86
10
138.298996
20
-9.909000
30
88.427002
70
192
0
VERTEX
8
OBJECT__86
10
138.895996
20
-9.243000
30
88.443001
70
192
0
VERTEX
8
OBJECT__86
10
148.227997
20
-22.299000
30
88.686996
70
192
0
VERTEX
8
OBJECT__86
10
86.869003
20
-17.521000
30
87.080002
70
192
0
VERTEX
8
OBJECT__86
10
137.669998
20
10.480000
30
88.411003
70
192
0
VERTEX
8
OBJECT__86
10
139.285004
20
8.432000
30
88.453003
70
192
0
VERTEX
8
OBJECT__86
10
154.548004
20
-18.649000
30
88.852997
70
192
0
VERTEX
8
OBJECT__86
10
138.003006
20
-10.239000
30
88.418999
70
192
0
VERTEX
8
OBJECT__86
10
80.855003
20
-22.299000
30
86.922997
70
192
0
VERTEX
8
OBJECT__86
10
91.204002
20
-11.179000
30
87.194000
70
192
0
VERTEX
8
OBJECT__86
10
136.828995
20
-10.891000
30
88.389000
70
192
0
VERTEX
8
OBJECT__86
10
135.505997
20
-11.115000
30
88.353996
70
192
0
VERTEX
8
OBJECT__86
10
94.862999
20
11.115000
30
87.290001
70
192
0
VERTEX
8
OBJECT__86
10
91.202003
20
11.183000
30
87.194000
70
192
0
VERTEX
8
OBJECT__86
10
86.865997
20
17.524000
30
87.080002
70
192
0
VERTEX
8
OBJECT__86
10
80.851997
20
22.301001
30
86.922997
70
192
0
VERTEX
8
OBJECT__86
10
0
20
0
30
0
70
128
71
1
72
2
73
3
0
VERTEX
8
OBJECT__86
10
0
20
0
30
0
70
128
71
1
72
4
73
5
0
VERTEX
8
OBJECT__86
10
0
20
0
30
0
70
128
71
6
72
7
73
8
0
VERTEX
8
OBJECT__86
10
0
20
0
30
0
70
128
71
9
72
10
73
11
0
VERTEX
8
OBJECT__86
10
0
20
0
30
0
70
128
71
9
72
12
73
13
0
VERTEX
8
OBJECT__86
10
0
20
0
30
0
70
128
71
3
72
14
73
15
0
VERTEX
8
OBJECT__86
10
0
20
0
30
0
70
128
71
3
72
16
73
1
0
VERTEX
8
OBJECT__86
10
0
20
0
30
0
70
128
71
1
72
16
73
4
0
VERTEX
8
OBJECT__86
10
0
20
0
30
0
70
128
71
6
72
17
73
7
0
VERTEX
8
OBJECT__86
10
0
20
0
30
0
70
128
71
18
72
19
73
20
0
VERTEX
8
OBJECT__86
10
0
20
0
30
0
70
128
71
19
72
18
73
21
0
VERTEX
8
OBJECT__86
10
0
20
0
30
0
70
128
71
21
72
22
73
12
0
VERTEX
8
OBJECT__86
10
0
20
0
30
0
70
128
71
13
72
10
73
9
0
VERTEX
8
OBJECT__86
10
0
20
0
30
0
70
128
71
3
72
23
73
14
0
VERTEX
8
OBJECT__86
10
0
20
0
30
0
70
128
71
5
72
24
73
1
0
VERTEX
8
OBJECT__86
10
0
20
0
30
0
70
128
71
8
72
5
73
6
0
VERTEX
8
OBJECT__86
10
0
20
0
30
0
70
128
71
6
72
25
73
20
0
VERTEX
8
OBJECT__86
10
0
20
0
30
0
70
128
71
21
72
26
73
19
0
VERTEX
8
OBJECT__86
10
0
20
0
30
0
70
128
71
21
72
27
73
22
0
VERTEX
8
OBJECT__86
10
0
20
0
30
0
70
128
71
12
72
28
73
13
0
VERTEX
8
OBJECT__86
10
0
20
0
30
0
70
128
71
2
72
23
73
3
0
VERTEX
8
OBJECT__86
10
0
20
0
30
0
70
128
71
20
72
17
73
6
0
VERTEX
8
OBJECT__86
10
0
20
0
30
0
70
128
71
21
72
29
73
26
0
VERTEX
8
OBJECT__86
10
0
20
0
30
0
70
128
71
12
72
30
73
21
0
VERTEX
8
OBJECT__86
10
0
20
0
30
0
70
128
71
11
72
31
73
9
0
VERTEX
8
OBJECT__86
10
0
20
0
30
0
70
128
71
8
72
24
73
5
0
VERTEX
8
OBJECT__86
10
0
20
0
30
0
70
128
71
30
72
29
73
21
0
VERTEX
8
OBJECT__86
10
0
20
0
30
0
70
128
71
11
72
32
73
31
0
VERTEX
8
OBJECT__86
10
0
20
0
30
0
70
128
71
20
72
25
73
18
0
VERTEX
8
OBJECT__86
10
0
20
0
30
0
70
128
71
12
72
22
73
28
0
VERTEX
8
OBJECT__86
10
0
20
0
30
0
70
128
71
3
72
31
73
33
0
VERTEX
8
OBJECT__86
10
0
20
0
30
0
70
128
71
32
72
33
73
31
0
VERTEX
8
OBJECT__86
10
0
20
0
30
0
70
128
71
15
72
31
73
3
0
VERTEX
8
OBJECT__86
10
0
20
0
30
0
70
128
71
33
72
34
73
3
0
SEQEND
8
OBJECT__86
0
POLYLINE
8
OBJECT__87
66
1
70
64
71
14
72
12
62
253
0
VERTEX
8
OBJECT__87
10
138.003006
20
-10.239000
30
88.418999
70
192
0
VERTEX
8
OBJECT__87
10
136.828995
20
-10.891000
30
88.389000
70
192
0
VERTEX
8
OBJECT__87
10
138.811005
20
-14.579000
30
94.442001
70
192
0
VERTEX
8
OBJECT__87
10
140.134995
20
-14.355000
30
94.476997
70
192
0
VERTEX
8
OBJECT__87
10
141.309006
20
-13.703000
30
94.508003
70
192
0
VERTEX
8
OBJECT__87
10
141.604996
20
-13.373000
30
94.515999
70
192
0
VERTEX
8
OBJECT__87
10
138.298996
20
-9.909000
30
88.427002
70
192
0
VERTEX
8
OBJECT__87
10
142.201996
20
-12.707000
30
94.530998
70
192
0
VERTEX
8
OBJECT__87
10
142.718002
20
-11.440000
30
94.544998
70
192
0
VERTEX
8
OBJECT__87
10
138.895996
20
-9.243000
30
88.443001
70
192
0
VERTEX
8
OBJECT__87
10
142.809998
20
-10.579000
30
94.546997
70
192
0
VERTEX
8
OBJECT__87
10
139.503998
20
-7.115000
30
88.459000
70
192
0
VERTEX
8
OBJECT__87
10
139.412003
20
-7.976000
30
88.456001
70
192
0
VERTEX
8
OBJECT__87
10
135.505997
20
-11.115000
30
88.353996
70
192
0
VERTEX
8
OBJECT__87
10
0
20
0
30
0
70
128
71
1
72
2
73
3
0
VERTEX
8
OBJECT__87
10
0
20
0
30
0
70
128
71
3
72
4
73
1
0
VERTEX
8
OBJECT__87
10
0
20
0
30
0
70
128
71
4
72
5
73
1
0
VERTEX
8
OBJECT__87
10
0
20
0
30
0
70
128
71
1
72
5
73
6
0
VERTEX
8
OBJECT__87
10
0
20
0
30
0
70
128
71
6
72
7
73
1
0
VERTEX
8
OBJECT__87
10
0
20
0
30
0
70
128
71
8
72
9
73
10
0
VERTEX
8
OBJECT__87
10
0
20
0
30
0
70
128
71
7
72
6
73
8
0
VERTEX
8
OBJECT__87
10
0
20
0
30
0
70
128
71
10
72
9
73
11
0
VERTEX
8
OBJECT__87
10
0
20
0
30
0
70
128
71
11
72
12
73
13
0
VERTEX
8
OBJECT__87
10
0
20
0
30
0
70
128
71
11
72
13
73
10
0
VERTEX
8
OBJECT__87
10
0
20
0
30
0
70
128
71
10
72
7
73
8
0
VERTEX
8
OBJECT__87
10
0
20
0
30
0
70
128
71
2
72
14
73
3
0
SEQEND
8
OBJECT__87
0
POLYLINE
8
OBJECT__88
66
1
70
64
71
4
72
2
62
253
0
VERTEX
8
OBJECT__88
10
142.809998
20
-10.579000
30
94.546997
70
192
0
VERTEX
8
OBJECT__88
10
142.809998
20
10.579000
30
94.546997
70
192
0
VERTEX
8
OBJECT__88
10
139.503998
20
7.115000
30
88.459000
70
192
0
VERTEX
8
OBJECT__88
10
139.503998
20
-7.115000
30
88.459000
70
192
0
VERTEX
8
OBJECT__88
10
0
20
0
30
0
70
128
71
1
72
2
73
3
0
VERTEX
8
OBJECT__88
10
0
20
0
30
0
70
128
71
3
72
4
73
1
0
SEQEND
8
OBJECT__88
0
POLYLINE
8
OBJECT__89
66
1
70
64
71
14
72
12
62
253
0
VERTEX
8
OBJECT__89
10
138.639008
20
9.602000
30
88.435997
70
192
0
VERTEX
8
OBJECT__89
10
139.285004
20
8.432000
30
88.453003
70
192
0
VERTEX
8
OBJECT__89
10
142.809998
20
10.579000
30
94.546997
70
192
0
VERTEX
8
OBJECT__89
10
142.718002
20
11.440000
30
94.544998
70
192
0
VERTEX
8
OBJECT__89
10
142.201996
20
12.707000
30
94.530998
70
192
0
VERTEX
8
OBJECT__89
10
141.604996
20
13.373000
30
94.515999
70
192
0
VERTEX
8
OBJECT__89
10
138.302002
20
9.908000
30
88.427002
70
192
0
VERTEX
8
OBJECT__89
10
141.309006
20
13.703000
30
94.508003
70
192
0
VERTEX
8
OBJECT__89
10
140.134995
20
14.355000
30
94.476997
70
192
0
VERTEX
8
OBJECT__89
10
137.669998
20
10.480000
30
88.411003
70
192
0
VERTEX
8
OBJECT__89
10
138.811005
20
14.579000
30
94.442001
70
192
0
VERTEX
8
OBJECT__89
10
135.505997
20
11.115000
30
88.353996
70
192
0
VERTEX
8
OBJECT__89
10
136.406006
20
11.013000
30
88.376999
70
192
0
VERTEX
8
OBJECT__89
10
139.503998
20
7.115000
30
88.459000
70
192
0
VERTEX
8
OBJECT__89
10
0
20
0
30
0
70
128
71
1
72
2
73
3
0
VERTEX
8
OBJECT__89
10
0
20
0
30
0
70
128
71
3
72
4
73
1
0
VERTEX
8
OBJECT__89
10
0
20
0
30
0
70
128
71
4
72
5
73
1
0
VERTEX
8
OBJECT__89
10
0
20
0
30
0
70
128
71
6
72
7
73
1
0
VERTEX
8
OBJECT__89
10
0
20
0
30
0
70
128
71
1
72
5
73
6
0
VERTEX
8
OBJECT__89
10
0
20
0
30
0
70
128
71
8
72
9
73
10
0
VERTEX
8
OBJECT__89
10
0
20
0
30
0
70
128
71
7
72
6
73
8
0
VERTEX
8
OBJECT__89
10
0
20
0
30
0
70
128
71
10
72
9
73
11
0
VERTEX
8
OBJECT__89
10
0
20
0
30
0
70
128
71
11
72
12
73
13
0
VERTEX
8
OBJECT__89
10
0
20
0
30
0
70
128
71
11
72
13
73
10
0
VERTEX
8
OBJECT__89
10
0
20
0
30
0
70
128
71
10
72
7
73
8
0
VERTEX
8
OBJECT__89
10
0
20
0
30
0
70
128
71
2
72
14
73
3
0
SEQEND
8
OBJECT__89
0
POLYLINE
8
OBJECT__90
66
1
70
64
71
48
72
48
62
253
0
VERTEX
8
OBJECT__90
10
90.838997
20
11.527000
30
93.185997
70
192
0
VERTEX
8
OBJECT__90
10
46.577000
20
-6.709000
30
92.027000
70
192
0
VERTEX
8
OBJECT__90
10
49.562000
20
-12.785000
30
92.105003
70
192
0
VERTEX
8
OBJECT__90
10
45.547001
20
-0.018000
30
92.000000
70
192
0
VERTEX
8
OBJECT__90
10
49.541000
20
12.755000
30
92.105003
70
192
0
VERTEX
8
OBJECT__90
10
46.566002
20
6.675000
30
92.027000
70
192
0
VERTEX
8
OBJECT__90
10
90.838997
20
-11.527000
30
93.185997
70
192
0
VERTEX
8
OBJECT__90
10
54.227001
20
-17.688999
30
92.227997
70
192
0
VERTEX
8
OBJECT__90
10
60.146000
20
-20.971001
30
92.383003
70
192
0
VERTEX
8
OBJECT__90
10
91.024002
20
12.738000
30
93.191002
70
192
0
VERTEX
8
OBJECT__90
10
60.112000
20
20.959000
30
92.382004
70
192
0
VERTEX
8
OBJECT__90
10
69.387001
20
22.309000
30
92.625000
70
192
0
VERTEX
8
OBJECT__90
10
66.739998
20
22.329000
30
92.555000
70
192
0
VERTEX
8
OBJECT__90
10
54.199001
20
17.667000
30
92.226997
70
192
0
VERTEX
8
OBJECT__90
10
90.972000
20
-12.563000
30
93.190002
70
192
0
VERTEX
8
OBJECT__90
10
69.422997
20
-22.306999
30
92.625000
70
192
0
VERTEX
8
OBJECT__90
10
69.661003
20
-22.299000
30
92.632004
70
192
0
VERTEX
8
OBJECT__90
10
66.776001
20
-22.330999
30
92.556000
70
192
0
VERTEX
8
OBJECT__90
10
151.720001
20
21.323000
30
94.780998
70
192
0
VERTEX
8
OBJECT__90
10
141.604996
20
13.373000
30
94.515999
70
192
0
VERTEX
8
OBJECT__90
10
142.201996
20
12.707000
30
94.530998
70
192
0
VERTEX
8
OBJECT__90
10
148.070999
20
22.301001
30
94.684998
70
192
0
VERTEX
8
OBJECT__90
10
69.446999
20
22.306000
30
92.625999
70
192
0
VERTEX
8
OBJECT__90
10
91.524002
20
13.700000
30
93.204002
70
192
0
VERTEX
8
OBJECT__90
10
69.635002
20
22.301001
30
92.630997
70
192
0
VERTEX
8
OBJECT__90
10
155.367996
20
-14.999000
30
94.875999
70
192
0
VERTEX
8
OBJECT__90
10
155.367996
20
15.001000
30
94.875999
70
192
0
VERTEX
8
OBJECT__90
10
142.809998
20
10.579000
30
94.546997
70
192
0
VERTEX
8
OBJECT__90
10
141.309006
20
13.703000
30
94.508003
70
192
0
VERTEX
8
OBJECT__90
10
92.556000
20
14.579000
30
93.231003
70
192
0
VERTEX
8
OBJECT__90
10
91.403000
20
-13.531000
30
93.200996
70
192
0
VERTEX
8
OBJECT__90
10
141.604996
20
-13.373000
30
94.515999
70
192
0
VERTEX
8
OBJECT__90
10
141.309006
20
-13.703000
30
94.508003
70
192
0
VERTEX
8
OBJECT__90
10
148.070999
20
-22.299000
30
94.684998
70
192
0
VERTEX
8
OBJECT__90
10
151.720001
20
-21.320999
30
94.780998
70
192
0
VERTEX
8
OBJECT__90
10
154.391006
20
-18.649000
30
94.849998
70
192
0
VERTEX
8
OBJECT__90
10
142.201996
20
-12.707000
30
94.530998
70
192
0
VERTEX
8
OBJECT__90
10
142.718002
20
11.440000
30
94.544998
70
192
0
VERTEX
8
OBJECT__90
10
154.391006
20
18.650999
30
94.849998
70
192
0
VERTEX
8
OBJECT__90
10
140.134995
20
14.355000
30
94.476997
70
192
0
VERTEX
8
OBJECT__90
10
138.811005
20
14.579000
30
94.442001
70
192
0
VERTEX
8
OBJECT__90
10
92.556000
20
-14.579000
30
93.231003
70
192
0
VERTEX
8
OBJECT__90
10
92.139000
20
-14.313000
30
93.220001
70
192
0
VERTEX
8
OBJECT__90
10
138.811005
20
-14.579000
30
94.442001
70
192
0
VERTEX
8
OBJECT__90
10
92.319000
20
14.439000
30
93.224998
70
192
0
VERTEX
8
OBJECT__90
10
140.134995
20
-14.355000
30
94.476997
70
192
0
VERTEX
8
OBJECT__90
10
142.718002
20
-11.440000
30
94.544998
70
192
0
VERTEX
8
OBJECT__90
10
142.809998
20
-10.579000
30
94.546997
70
192
0
VERTEX
8
OBJECT__90
10
0
20
0
30
0
70
128
71
1
72
2
73
3
0
VERTEX
8
OBJECT__90
10
0
20
0
30
0
70
128
71
1
72
4
73
2
0
VERTEX
8
OBJECT__90
10
0
20
0
30
0
70
128
71
1
72
5
73
6
0
VERTEX
8
OBJECT__90
10
0
20
0
30
0
70
128
71
7
72
8
73
9
0
VERTEX
8
OBJECT__90
10
0
20
0
30
0
70
128
71
1
72
10
73
11
0
VERTEX
8
OBJECT__90
10
0
20
0
30
0
70
128
71
6
72
4
73
1
0
VERTEX
8
OBJECT__90
10
0
20
0
30
0
70
128
71
7
72
3
73
8
0
VERTEX
8
OBJECT__90
10
0
20
0
30
0
70
128
71
10
72
12
73
13
0
VERTEX
8
OBJECT__90
10
0
20
0
30
0
70
128
71
11
72
14
73
1
0
VERTEX
8
OBJECT__90
10
0
20
0
30
0
70
128
71
9
72
15
73
7
0
VERTEX
8
OBJECT__90
10
0
20
0
30
0
70
128
71
15
72
16
73
17
0
VERTEX
8
OBJECT__90
10
0
20
0
30
0
70
128
71
15
72
9
73
18
0
VERTEX
8
OBJECT__90
10
0
20
0
30
0
70
128
71
19
72
20
73
21
0
VERTEX
8
OBJECT__90
10
0
20
0
30
0
70
128
71
20
72
19
73
22
0
VERTEX
8
OBJECT__90
10
0
20
0
30
0
70
128
71
10
72
23
73
12
0
VERTEX
8
OBJECT__90
10
0
20
0
30
0
70
128
71
10
72
24
73
25
0
VERTEX
8
OBJECT__90
10
0
20
0
30
0
70
128
71
3
72
7
73
1
0
VERTEX
8
OBJECT__90
10
0
20
0
30
0
70
128
71
18
72
16
73
15
0
VERTEX
8
OBJECT__90
10
0
20
0
30
0
70
128
71
26
72
27
73
28
0
VERTEX
8
OBJECT__90
10
0
20
0
30
0
70
128
71
22
72
29
73
20
0
VERTEX
8
OBJECT__90
10
0
20
0
30
0
70
128
71
22
72
25
73
30
0
VERTEX
8
OBJECT__90
10
0
20
0
30
0
70
128
71
25
72
23
73
10
0
VERTEX
8
OBJECT__90
10
0
20
0
30
0
70
128
71
17
72
31
73
15
0
VERTEX
8
OBJECT__90
10
0
20
0
30
0
70
128
71
32
72
33
73
34
0
VERTEX
8
OBJECT__90
10
0
20
0
30
0
70
128
71
35
72
36
73
37
0
VERTEX
8
OBJECT__90
10
0
20
0
30
0
70
128
71
27
72
38
73
28
0
VERTEX
8
OBJECT__90
10
0
20
0
30
0
70
128
71
39
72
21
73
38
0
VERTEX
8
OBJECT__90
10
0
20
0
30
0
70
128
71
22
72
40
73
29
0
VERTEX
8
OBJECT__90
10
0
20
0
30
0
70
128
71
30
72
41
73
22
0
VERTEX
8
OBJECT__90
10
0
20
0
30
0
70
128
71
14
72
5
73
1
0
VERTEX
8
OBJECT__90
10
0
20
0
30
0
70
128
71
17
72
42
73
43
0
VERTEX
8
OBJECT__90
10
0
20
0
30
0
70
128
71
34
72
44
73
42
0
VERTEX
8
OBJECT__90
10
0
20
0
30
0
70
128
71
37
72
32
73
35
0
VERTEX
8
OBJECT__90
10
0
20
0
30
0
70
128
71
38
72
27
73
39
0
VERTEX
8
OBJECT__90
10
0
20
0
30
0
70
128
71
41
72
40
73
22
0
VERTEX
8
OBJECT__90
10
0
20
0
30
0
70
128
71
25
72
24
73
45
0
VERTEX
8
OBJECT__90
10
0
20
0
30
0
70
128
71
43
72
31
73
17
0
VERTEX
8
OBJECT__90
10
0
20
0
30
0
70
128
71
34
72
46
73
44
0
VERTEX
8
OBJECT__90
10
0
20
0
30
0
70
128
71
34
72
35
73
32
0
VERTEX
8
OBJECT__90
10
0
20
0
30
0
70
128
71
36
72
26
73
47
0
VERTEX
8
OBJECT__90
10
0
20
0
30
0
70
128
71
21
72
39
73
19
0
VERTEX
8
OBJECT__90
10
0
20
0
30
0
70
128
71
13
72
11
73
10
0
VERTEX
8
OBJECT__90
10
0
20
0
30
0
70
128
71
33
72
46
73
34
0
VERTEX
8
OBJECT__90
10
0
20
0
30
0
70
128
71
26
72
48
73
47
0
VERTEX
8
OBJECT__90
10
0
20
0
30
0
70
128
71
45
72
30
73
25
0
VERTEX
8
OBJECT__90
10
0
20
0
30
0
70
128
71
47
72
37
73
36
0
VERTEX
8
OBJECT__90
10
0
20
0
30
0
70
128
71
42
72
17
73
34
0
VERTEX
8
OBJECT__90
10
0
20
0
30
0
70
128
71
28
72
48
73
26
0
SEQEND
8
OBJECT__90
0
POLYLINE
8
OBJECT__91
66
1
70
64
71
4
72
2
62
253
0
VERTEX
8
OBJECT__91
10
90.838997
20
-11.527000
30
93.185997
70
192
0
VERTEX
8
OBJECT__91
10
91.455002
20
-11.527000
30
92.851997
70
192
0
VERTEX
8
OBJECT__91
10
91.455002
20
11.527000
30
92.851997
70
192
0
VERTEX
8
OBJECT__91
10
90.838997
20
11.527000
30
93.185997
70
192
0
VERTEX
8
OBJECT__91
10
0
20
0
30
0
70
128
71
1
72
2
73
3
0
VERTEX
8
OBJECT__91
10
0
20
0
30
0
70
128
71
3
72
4
73
1
0
SEQEND
8
OBJECT__91
0
POLYLINE
8
OBJECT__92
66
1
70
64
71
15
72
13
62
253
0
VERTEX
8
OBJECT__92
10
90.838997
20
11.527000
30
93.185997
70
192
0
VERTEX
8
OBJECT__92
10
91.455002
20
11.527000
30
92.851997
70
192
0
VERTEX
8
OBJECT__92
10
91.569000
20
12.563000
30
92.917000
70
192
0
VERTEX
8
OBJECT__92
10
91.024002
20
12.738000
30
93.191002
70
192
0
VERTEX
8
OBJECT__92
10
91.962997
20
13.371000
30
92.956001
70
192
0
VERTEX
8
OBJECT__92
10
92.319000
20
14.439000
30
93.224998
70
192
0
VERTEX
8
OBJECT__92
10
91.524002
20
13.700000
30
93.204002
70
192
0
VERTEX
8
OBJECT__92
10
92.221001
20
13.609000
30
92.961998
70
192
0
VERTEX
8
OBJECT__92
10
93.439003
20
14.306000
30
92.957001
70
192
0
VERTEX
8
OBJECT__92
10
94.293999
20
14.379000
30
92.931000
70
192
0
VERTEX
8
OBJECT__92
10
93.654999
20
14.489000
30
93.105003
70
192
0
VERTEX
8
OBJECT__92
10
94.306999
20
14.377000
30
92.927002
70
192
0
VERTEX
8
OBJECT__92
10
92.623001
20
13.980000
30
92.970001
70
192
0
VERTEX
8
OBJECT__92
10
93.365997
20
14.513000
30
93.138000
70
192
0
VERTEX
8
OBJECT__92
10
92.556000
20
14.579000
30
93.231003
70
192
0
VERTEX
8
OBJECT__92
10
0
20
0
30
0
70
128
71
1
72
2
73
3
0
VERTEX
8
OBJECT__92
10
0
20
0
30
0
70
128
71
4
72
3
73
5
0
VERTEX
8
OBJECT__92
10
0
20
0
30
0
70
128
71
6
72
7
73
8
0
VERTEX
8
OBJECT__92
10
0
20
0
30
0
70
128
71
7
72
5
73
8
0
VERTEX
8
OBJECT__92
10
0
20
0
30
0
70
128
71
9
72
10
73
11
0
VERTEX
8
OBJECT__92
10
0
20
0
30
0
70
128
71
9
72
12
73
10
0
VERTEX
8
OBJECT__92
10
0
20
0
30
0
70
128
71
13
72
9
73
14
0
VERTEX
8
OBJECT__92
10
0
20
0
30
0
70
128
71
14
72
15
73
13
0
VERTEX
8
OBJECT__92
10
0
20
0
30
0
70
128
71
15
72
6
73
13
0
VERTEX
8
OBJECT__92
10
0
20
0
30
0
70
128
71
11
72
14
73
9
0
VERTEX
8
OBJECT__92
10
0
20
0
30
0
70
128
71
8
72
13
73
6
0
VERTEX
8
OBJECT__92
10
0
20
0
30
0
70
128
71
5
72
7
73
4
0
VERTEX
8
OBJECT__92
10
0
20
0
30
0
70
128
71
3
72
4
73
1
0
SEQEND
8
OBJECT__92
0
POLYLINE
8
OBJECT__93
66
1
70
64
71
14
72
12
62
253
0
VERTEX
8
OBJECT__93
10
94.862999
20
11.115000
30
87.290001
70
192
0
VERTEX
8
OBJECT__93
10
135.505997
20
11.115000
30
88.353996
70
192
0
VERTEX
8
OBJECT__93
10
95.170998
20
11.465000
30
87.903999
70
192
0
VERTEX
8
OBJECT__93
10
138.811005
20
14.579000
30
94.442001
70
192
0
VERTEX
8
OBJECT__93
10
93.365997
20
14.513000
30
93.138000
70
192
0
VERTEX
8
OBJECT__93
10
93.654999
20
14.489000
30
93.105003
70
192
0
VERTEX
8
OBJECT__93
10
95.753998
20
11.648000
30
88.237999
70
192
0
VERTEX
8
OBJECT__93
10
92.556000
20
14.579000
30
93.231003
70
192
0
VERTEX
8
OBJECT__93
10
94.293999
20
14.379000
30
92.931000
70
192
0
VERTEX
8
OBJECT__93
10
94.929001
20
11.382000
30
87.755997
70
192
0
VERTEX
8
OBJECT__93
10
96.810997
20
11.981000
30
88.841003
70
192
0
VERTEX
8
OBJECT__93
10
96.797997
20
11.978000
30
88.835999
70
192
0
VERTEX
8
OBJECT__93
10
94.306999
20
14.377000
30
92.927002
70
192
0
VERTEX
8
OBJECT__93
10
94.674004
20
11.296000
30
87.598999
70
192
0
VERTEX
8
OBJECT__93
10
0
20
0
30
0
70
128
71
1
72
2
73
3
0
VERTEX
8
OBJECT__93
10
0
20
0
30
0
70
128
71
4
72
5
73
6
0
VERTEX
8
OBJECT__93
10
0
20
0
30
0
70
128
71
2
72
7
73
3
0
VERTEX
8
OBJECT__93
10
0
20
0
30
0
70
128
71
4
72
8
73
5
0
VERTEX
8
OBJECT__93
10
0
20
0
30
0
70
128
71
6
72
9
73
4
0
VERTEX
8
OBJECT__93
10
0
20
0
30
0
70
128
71
3
72
10
73
1
0
VERTEX
8
OBJECT__93
10
0
20
0
30
0
70
128
71
2
72
11
73
12
0
VERTEX
8
OBJECT__93
10
0
20
0
30
0
70
128
71
4
72
13
73
11
0
VERTEX
8
OBJECT__93
10
0
20
0
30
0
70
128
71
9
72
13
73
4
0
VERTEX
8
OBJECT__93
10
0
20
0
30
0
70
128
71
12
72
7
73
2
0
VERTEX
8
OBJECT__93
10
0
20
0
30
0
70
128
71
11
72
2
73
4
0
VERTEX
8
OBJECT__93
10
0
20
0
30
0
70
128
71
10
72
14
73
1
0
SEQEND
8
OBJECT__93
0
POLYLINE
8
OBJECT__94
66
1
70
64
71
14
72
12
62
253
0
VERTEX
8
OBJECT__94
10
94.862999
20
11.434000
30
88.920998
70
192
0
VERTEX
8
OBJECT__94
10
95.646004
20
11.849000
30
88.905998
70
192
0
VERTEX
8
OBJECT__94
10
94.306999
20
14.377000
30
92.927002
70
192
0
VERTEX
8
OBJECT__94
10
93.439003
20
14.306000
30
92.957001
70
192
0
VERTEX
8
OBJECT__94
10
92.623001
20
13.980000
30
92.970001
70
192
0
VERTEX
8
OBJECT__94
10
92.221001
20
13.609000
30
92.961998
70
192
0
VERTEX
8
OBJECT__94
10
94.700996
20
11.242000
30
88.914001
70
192
0
VERTEX
8
OBJECT__94
10
91.962997
20
13.371000
30
92.956001
70
192
0
VERTEX
8
OBJECT__94
10
91.569000
20
12.563000
30
92.917000
70
192
0
VERTEX
8
OBJECT__94
10
94.292000
20
10.758000
30
88.896004
70
192
0
VERTEX
8
OBJECT__94
10
91.455002
20
11.527000
30
92.851997
70
192
0
VERTEX
8
OBJECT__94
10
93.958000
20
9.131000
30
88.765999
70
192
0
VERTEX
8
OBJECT__94
10
94.000000
20
9.921000
30
88.836998
70
192
0
VERTEX
8
OBJECT__94
10
96.810997
20
11.981000
30
88.841003
70
192
0
VERTEX
8
OBJECT__94
10
0
20
0
30
0
70
128
71
1
72
2
73
3
0
VERTEX
8
OBJECT__94
10
0
20
0
30
0
70
128
71
3
72
4
73
1
0
VERTEX
8
OBJECT__94
10
0
20
0
30
0
70
128
71
4
72
5
73
1
0
VERTEX
8
OBJECT__94
10
0
20
0
30
0
70
128
71
6
72
7
73
1
0
VERTEX
8
OBJECT__94
10
0
20
0
30
0
70
128
71
1
72
5
73
6
0
VERTEX
8
OBJECT__94
10
0
20
0
30
0
70
128
71
7
72
8
73
9
0
VERTEX
8
OBJECT__94
10
0
20
0
30
0
70
128
71
7
72
6
73
8
0
VERTEX
8
OBJECT__94
10
0
20
0
30
0
70
128
71
10
72
9
73
11
0
VERTEX
8
OBJECT__94
10
0
20
0
30
0
70
128
71
11
72
12
73
13
0
VERTEX
8
OBJECT__94
10
0
20
0
30
0
70
128
71
11
72
13
73
10
0
VERTEX
8
OBJECT__94
10
0
20
0
30
0
70
128
71
9
72
10
73
7
0
VERTEX
8
OBJECT__94
10
0
20
0
30
0
70
128
71
2
72
14
73
3
0
SEQEND
8
OBJECT__94
0
POLYLINE
8
OBJECT__95
66
1
70
64
71
16
72
14
62
253
0
VERTEX
8
OBJECT__95
10
94.000000
20
9.921000
30
88.836998
70
192
0
VERTEX
8
OBJECT__95
10
93.958000
20
9.131000
30
88.765999
70
192
0
VERTEX
8
OBJECT__95
10
93.960999
20
9.143000
30
88.762001
70
192
0
VERTEX
8
OBJECT__95
10
94.292000
20
10.758000
30
88.896004
70
192
0
VERTEX
8
OBJECT__95
10
94.193001
20
9.854000
30
88.384003
70
192
0
VERTEX
8
OBJECT__95
10
94.929001
20
11.382000
30
87.755997
70
192
0
VERTEX
8
OBJECT__95
10
94.862999
20
11.434000
30
88.920998
70
192
0
VERTEX
8
OBJECT__95
10
94.700996
20
11.242000
30
88.914001
70
192
0
VERTEX
8
OBJECT__95
10
94.491997
20
10.775000
30
87.894997
70
192
0
VERTEX
8
OBJECT__95
10
94.674004
20
11.296000
30
87.598999
70
192
0
VERTEX
8
OBJECT__95
10
94.459000
20
10.672000
30
87.949997
70
192
0
VERTEX
8
OBJECT__95
10
95.170998
20
11.465000
30
87.903999
70
192
0
VERTEX
8
OBJECT__95
10
95.753998
20
11.648000
30
88.237999
70
192
0
VERTEX
8
OBJECT__95
10
95.646004
20
11.849000
30
88.905998
70
192
0
VERTEX
8
OBJECT__95
10
96.797997
20
11.978000
30
88.835999
70
192
0
VERTEX
8
OBJECT__95
10
96.810997
20
11.981000
30
88.841003
70
192
0
VERTEX
8
OBJECT__95
10
0
20
0
30
0
70
128
71
1
72
2
73
3
0
VERTEX
8
OBJECT__95
10
0
20
0
30
0
70
128
71
4
72
1
73
5
0
VERTEX
8
OBJECT__95
10
0
20
0
30
0
70
128
71
6
72
7
73
8
0
VERTEX
8
OBJECT__95
10
0
20
0
30
0
70
128
71
9
72
10
73
6
0
VERTEX
8
OBJECT__95
10
0
20
0
30
0
70
128
71
8
72
4
73
11
0
VERTEX
8
OBJECT__95
10
0
20
0
30
0
70
128
71
11
72
9
73
8
0
VERTEX
8
OBJECT__95
10
0
20
0
30
0
70
128
71
7
72
12
73
13
0
VERTEX
8
OBJECT__95
10
0
20
0
30
0
70
128
71
7
72
6
73
12
0
VERTEX
8
OBJECT__95
10
0
20
0
30
0
70
128
71
14
72
13
73
15
0
VERTEX
8
OBJECT__95
10
0
20
0
30
0
70
128
71
15
72
16
73
14
0
VERTEX
8
OBJECT__95
10
0
20
0
30
0
70
128
71
13
72
14
73
7
0
VERTEX
8
OBJECT__95
10
0
20
0
30
0
70
128
71
8
72
9
73
6
0
VERTEX
8
OBJECT__95
10
0
20
0
30
0
70
128
71
5
72
11
73
4
0
VERTEX
8
OBJECT__95
10
0
20
0
30
0
70
128
71
3
72
5
73
1
0
SEQEND
8
OBJECT__95
0
POLYLINE
8
OBJECT__96
66
1
70
64
71
15
72
13
62
253
0
VERTEX
8
OBJECT__96
10
91.403000
20
-13.531000
30
93.200996
70
192
0
VERTEX
8
OBJECT__96
10
92.139000
20
-14.313000
30
93.220001
70
192
0
VERTEX
8
OBJECT__96
10
92.223000
20
-13.611000
30
92.961998
70
192
0
VERTEX
8
OBJECT__96
10
92.472000
20
-13.878000
30
92.970001
70
192
0
VERTEX
8
OBJECT__96
10
90.972000
20
-12.563000
30
93.190002
70
192
0
VERTEX
8
OBJECT__96
10
91.865997
20
-13.229000
30
92.950996
70
192
0
VERTEX
8
OBJECT__96
10
90.838997
20
-11.527000
30
93.185997
70
192
0
VERTEX
8
OBJECT__96
10
91.530998
20
-12.415000
30
92.908997
70
192
0
VERTEX
8
OBJECT__96
10
92.556000
20
-14.579000
30
93.231003
70
192
0
VERTEX
8
OBJECT__96
10
93.156998
20
-14.529000
30
93.160004
70
192
0
VERTEX
8
OBJECT__96
10
93.272003
20
-14.265000
30
92.961998
70
192
0
VERTEX
8
OBJECT__96
10
93.685997
20
-14.484000
30
93.098000
70
192
0
VERTEX
8
OBJECT__96
10
94.293999
20
-14.379000
30
92.931000
70
192
0
VERTEX
8
OBJECT__96
10
94.306999
20
-14.377000
30
92.927002
70
192
0
VERTEX
8
OBJECT__96
10
91.455002
20
-11.527000
30
92.851997
70
192
0
VERTEX
8
OBJECT__96
10
0
20
0
30
0
70
128
71
1
72
2
73
3
0
VERTEX
8
OBJECT__96
10
0
20
0
30
0
70
128
71
2
72
4
73
3
0
VERTEX
8
OBJECT__96
10
0
20
0
30
0
70
128
71
5
72
1
73
6
0
VERTEX
8
OBJECT__96
10
0
20
0
30
0
70
128
71
7
72
5
73
8
0
VERTEX
8
OBJECT__96
10
0
20
0
30
0
70
128
71
4
72
9
73
10
0
VERTEX
8
OBJECT__96
10
0
20
0
30
0
70
128
71
4
72
2
73
9
0
VERTEX
8
OBJECT__96
10
0
20
0
30
0
70
128
71
11
72
10
73
12
0
VERTEX
8
OBJECT__96
10
0
20
0
30
0
70
128
71
12
72
13
73
11
0
VERTEX
8
OBJECT__96
10
0
20
0
30
0
70
128
71
13
72
14
73
11
0
VERTEX
8
OBJECT__96
10
0
20
0
30
0
70
128
71
10
72
11
73
4
0
VERTEX
8
OBJECT__96
10
0
20
0
30
0
70
128
71
8
72
15
73
7
0
VERTEX
8
OBJECT__96
10
0
20
0
30
0
70
128
71
6
72
8
73
5
0
VERTEX
8
OBJECT__96
10
0
20
0
30
0
70
128
71
3
72
6
73
1
0
SEQEND
8
OBJECT__96
0
POLYLINE
8
OBJECT__97
66
1
70
64
71
17
72
15
62
253
0
VERTEX
8
OBJECT__97
10
94.862999
20
11.115000
30
87.290001
70
192
0
VERTEX
8
OBJECT__97
10
94.674004
20
11.296000
30
87.598999
70
192
0
VERTEX
8
OBJECT__97
10
94.491997
20
10.775000
30
87.894997
70
192
0
VERTEX
8
OBJECT__97
10
94.862999
20
-11.115000
30
87.290001
70
192
0
VERTEX
8
OBJECT__97
10
94.862999
20
0.000000
30
87.290001
70
192
0
VERTEX
8
OBJECT__97
10
94.491997
20
-10.775000
30
87.894997
70
192
0
VERTEX
8
OBJECT__97
10
94.302002
20
-10.188000
30
88.206001
70
192
0
VERTEX
8
OBJECT__97
10
91.455002
20
-11.527000
30
92.851997
70
192
0
VERTEX
8
OBJECT__97
10
93.958000
20
-9.131000
30
88.765999
70
192
0
VERTEX
8
OBJECT__97
10
94.193001
20
9.854000
30
88.384003
70
192
0
VERTEX
8
OBJECT__97
10
93.960999
20
9.143000
30
88.762001
70
192
0
VERTEX
8
OBJECT__97
10
94.459000
20
10.672000
30
87.949997
70
192
0
VERTEX
8
OBJECT__97
10
94.584000
20
-11.036000
30
87.746002
70
192
0
VERTEX
8
OBJECT__97
10
93.960999
20
-9.143000
30
88.762001
70
192
0
VERTEX
8
OBJECT__97
10
91.455002
20
11.527000
30
92.851997
70
192
0
VERTEX
8
OBJECT__97
10
93.958000
20
9.131000
30
88.765999
70
192
0
VERTEX
8
OBJECT__97
10
94.674004
20
-11.296000
30
87.598999
70
192
0
VERTEX
8
OBJECT__97
10
0
20
0
30
0
70
128
71
1
72
2
73
3
0
VERTEX
8
OBJECT__97
10
0
20
0
30
0
70
128
71
4
72
5
73
6
0
VERTEX
8
OBJECT__97
10
0
20
0
30
0
70
128
71
3
72
5
73
1
0
VERTEX
8
OBJECT__97
10
0
20
0
30
0
70
128
71
5
72
7
73
6
0
VERTEX
8
OBJECT__97
10
0
20
0
30
0
70
128
71
8
72
9
73
5
0
VERTEX
8
OBJECT__97
10
0
20
0
30
0
70
128
71
5
72
10
73
11
0
VERTEX
8
OBJECT__97
10
0
20
0
30
0
70
128
71
3
72
12
73
5
0
VERTEX
8
OBJECT__97
10
0
20
0
30
0
70
128
71
6
72
13
73
4
0
VERTEX
8
OBJECT__97
10
0
20
0
30
0
70
128
71
5
72
9
73
14
0
VERTEX
8
OBJECT__97
10
0
20
0
30
0
70
128
71
5
72
15
73
8
0
VERTEX
8
OBJECT__97
10
0
20
0
30
0
70
128
71
12
72
10
73
5
0
VERTEX
8
OBJECT__97
10
0
20
0
30
0
70
128
71
14
72
7
73
5
0
VERTEX
8
OBJECT__97
10
0
20
0
30
0
70
128
71
11
72
16
73
5
0
VERTEX
8
OBJECT__97
10
0
20
0
30
0
70
128
71
5
72
16
73
15
0
VERTEX
8
OBJECT__97
10
0
20
0
30
0
70
128
71
13
72
17
73
4
0
SEQEND
8
OBJECT__97
0
POLYLINE
8
OBJECT__98
66
1
70
64
71
14
72
12
62
253
0
VERTEX
8
OBJECT__98
10
138.811005
20
-14.579000
30
94.442001
70
192
0
VERTEX
8
OBJECT__98
10
94.293999
20
-14.379000
30
92.931000
70
192
0
VERTEX
8
OBJECT__98
10
93.685997
20
-14.484000
30
93.098000
70
192
0
VERTEX
8
OBJECT__98
10
94.862999
20
-11.115000
30
87.290001
70
192
0
VERTEX
8
OBJECT__98
10
94.674004
20
-11.296000
30
87.598999
70
192
0
VERTEX
8
OBJECT__98
10
95.170998
20
-11.465000
30
87.903999
70
192
0
VERTEX
8
OBJECT__98
10
94.306999
20
-14.377000
30
92.927002
70
192
0
VERTEX
8
OBJECT__98
10
93.156998
20
-14.529000
30
93.160004
70
192
0
VERTEX
8
OBJECT__98
10
135.505997
20
-11.115000
30
88.353996
70
192
0
VERTEX
8
OBJECT__98
10
92.556000
20
-14.579000
30
93.231003
70
192
0
VERTEX
8
OBJECT__98
10
96.810997
20
-11.981000
30
88.841003
70
192
0
VERTEX
8
OBJECT__98
10
96.096001
20
-11.756000
30
88.433998
70
192
0
VERTEX
8
OBJECT__98
10
96.797997
20
-11.978000
30
88.835999
70
192
0
VERTEX
8
OBJECT__98
10
95.295998
20
-11.504000
30
87.975998
70
192
0
VERTEX
8
OBJECT__98
10
0
20
0
30
0
70
128
71
1
72
2
73
3
0
VERTEX
8
OBJECT__98
10
0
20
0
30
0
70
128
71
4
72
5
73
6
0
VERTEX
8
OBJECT__98
10
0
20
0
30
0
70
128
71
1
72
7
73
2
0
VERTEX
8
OBJECT__98
10
0
20
0
30
0
70
128
71
3
72
8
73
1
0
VERTEX
8
OBJECT__98
10
0
20
0
30
0
70
128
71
6
72
9
73
4
0
VERTEX
8
OBJECT__98
10
0
20
0
30
0
70
128
71
8
72
10
73
1
0
VERTEX
8
OBJECT__98
10
0
20
0
30
0
70
128
71
1
72
9
73
11
0
VERTEX
8
OBJECT__98
10
0
20
0
30
0
70
128
71
9
72
12
73
13
0
VERTEX
8
OBJECT__98
10
0
20
0
30
0
70
128
71
6
72
14
73
9
0
VERTEX
8
OBJECT__98
10
0
20
0
30
0
70
128
71
11
72
7
73
1
0
VERTEX
8
OBJECT__98
10
0
20
0
30
0
70
128
71
14
72
12
73
9
0
VERTEX
8
OBJECT__98
10
0
20
0
30
0
70
128
71
13
72
11
73
9
0
SEQEND
8
OBJECT__98
0
POLYLINE
8
OBJECT__99
66
1
70
64
71
14
72
12
62
253
0
VERTEX
8
OBJECT__99
10
94.501999
20
-11.071000
30
88.911003
70
192
0
VERTEX
8
OBJECT__99
10
94.085999
20
-10.278000
30
88.863998
70
192
0
VERTEX
8
OBJECT__99
10
91.455002
20
-11.527000
30
92.851997
70
192
0
VERTEX
8
OBJECT__99
10
91.530998
20
-12.415000
30
92.908997
70
192
0
VERTEX
8
OBJECT__99
10
91.865997
20
-13.229000
30
92.950996
70
192
0
VERTEX
8
OBJECT__99
10
92.223000
20
-13.611000
30
92.961998
70
192
0
VERTEX
8
OBJECT__99
10
94.697998
20
-11.237000
30
88.913002
70
192
0
VERTEX
8
OBJECT__99
10
92.472000
20
-13.878000
30
92.970001
70
192
0
VERTEX
8
OBJECT__99
10
93.272003
20
-14.265000
30
92.961998
70
192
0
VERTEX
8
OBJECT__99
10
95.182999
20
-11.649000
30
88.918999
70
192
0
VERTEX
8
OBJECT__99
10
94.306999
20
-14.377000
30
92.927002
70
192
0
VERTEX
8
OBJECT__99
10
96.810997
20
-11.981000
30
88.841003
70
192
0
VERTEX
8
OBJECT__99
10
96.016998
20
-11.938000
30
88.889000
70
192
0
VERTEX
8
OBJECT__99
10
93.958000
20
-9.131000
30
88.765999
70
192
0
VERTEX
8
OBJECT__99
10
0
20
0
30
0
70
128
71
1
72
2
73
3
0
VERTEX
8
OBJECT__99
10
0
20
0
30
0
70
128
71
3
72
4
73
1
0
VERTEX
8
OBJECT__99
10
0
20
0
30
0
70
128
71
4
72
5
73
1
0
VERTEX
8
OBJECT__99
10
0
20
0
30
0
70
128
71
6
72
7
73
1
0
VERTEX
8
OBJECT__99
10
0
20
0
30
0
70
128
71
1
72
5
73
6
0
VERTEX
8
OBJECT__99
10
0
20
0
30
0
70
128
71
7
72
8
73
9
0
VERTEX
8
OBJECT__99
10
0
20
0
30
0
70
128
71
7
72
6
73
8
0
VERTEX
8
OBJECT__99
10
0
20
0
30
0
70
128
71
10
72
9
73
11
0
VERTEX
8
OBJECT__99
10
0
20
0
30
0
70
128
71
11
72
12
73
13
0
VERTEX
8
OBJECT__99
10
0
20
0
30
0
70
128
71
11
72
13
73
10
0
VERTEX
8
OBJECT__99
10
0
20
0
30
0
70
128
71
9
72
10
73
7
0
VERTEX
8
OBJECT__99
10
0
20
0
30
0
70
128
71
2
72
14
73
3
0
SEQEND
8
OBJECT__99
0
POLYLINE
8
OBJECT__100
66
1
70
64
71
16
72
14
62
253
0
VERTEX
8
OBJECT__100
10
96.016998
20
-11.938000
30
88.889000
70
192
0
VERTEX
8
OBJECT__100
10
96.810997
20
-11.981000
30
88.841003
70
192
0
VERTEX
8
OBJECT__100
10
96.797997
20
-11.978000
30
88.835999
70
192
0
VERTEX
8
OBJECT__100
10
95.182999
20
-11.649000
30
88.918999
70
192
0
VERTEX
8
OBJECT__100
10
96.096001
20
-11.756000
30
88.433998
70
192
0
VERTEX
8
OBJECT__100
10
95.170998
20
-11.465000
30
87.903999
70
192
0
VERTEX
8
OBJECT__100
10
94.674004
20
-11.296000
30
87.598999
70
192
0
VERTEX
8
OBJECT__100
10
94.584000
20
-11.036000
30
87.746002
70
192
0
VERTEX
8
OBJECT__100
10
94.697998
20
-11.237000
30
88.913002
70
192
0
VERTEX
8
OBJECT__100
10
95.295998
20
-11.504000
30
87.975998
70
192
0
VERTEX
8
OBJECT__100
10
94.501999
20
-11.071000
30
88.911003
70
192
0
VERTEX
8
OBJECT__100
10
94.491997
20
-10.775000
30
87.894997
70
192
0
VERTEX
8
OBJECT__100
10
94.302002
20
-10.188000
30
88.206001
70
192
0
VERTEX
8
OBJECT__100
10
94.085999
20
-10.278000
30
88.863998
70
192
0
VERTEX
8
OBJECT__100
10
93.960999
20
-9.143000
30
88.762001
70
192
0
VERTEX
8
OBJECT__100
10
93.958000
20
-9.131000
30
88.765999
70
192
0
VERTEX
8
OBJECT__100
10
0
20
0
30
0
70
128
71
1
72
2
73
3
0
VERTEX
8
OBJECT__100
10
0
20
0
30
0
70
128
71
4
72
1
73
5
0
VERTEX
8
OBJECT__100
10
0
20
0
30
0
70
128
71
6
72
7
73
8
0
VERTEX
8
OBJECT__100
10
0
20
0
30
0
70
128
71
9
72
4
73
10
0
VERTEX
8
OBJECT__100
10
0
20
0
30
0
70
128
71
6
72
11
73
9
0
VERTEX
8
OBJECT__100
10
0
20
0
30
0
70
128
71
10
72
6
73
9
0
VERTEX
8
OBJECT__100
10
0
20
0
30
0
70
128
71
11
72
12
73
13
0
VERTEX
8
OBJECT__100
10
0
20
0
30
0
70
128
71
11
72
8
73
12
0
VERTEX
8
OBJECT__100
10
0
20
0
30
0
70
128
71
14
72
13
73
15
0
VERTEX
8
OBJECT__100
10
0
20
0
30
0
70
128
71
15
72
16
73
14
0
VERTEX
8
OBJECT__100
10
0
20
0
30
0
70
128
71
13
72
14
73
11
0
VERTEX
8
OBJECT__100
10
0
20
0
30
0
70
128
71
8
72
11
73
6
0
VERTEX
8
OBJECT__100
10
0
20
0
30
0
70
128
71
5
72
10
73
4
0
VERTEX
8
OBJECT__100
10
0
20
0
30
0
70
128
71
3
72
5
73
1
0
SEQEND
8
OBJECT__100
0
POLYLINE
8
OBJECT__101
66
1
70
64
71
5
72
3
62
253
0
VERTEX
8
OBJECT__101
10
76.750000
20
43.675999
30
55.750000
70
192
0
VERTEX
8
OBJECT__101
10
72.250000
20
43.675999
30
55.750000
70
192
0
VERTEX
8
OBJECT__101
10
72.330002
20
42.904999
30
55.750000
70
192
0
VERTEX
8
OBJECT__101
10
72.250000
20
42.917000
30
55.750000
70
192
0
VERTEX
8
OBJECT__101
10
76.750000
20
42.917000
30
55.750000
70
192
0
VERTEX
8
OBJECT__101
10
0
20
0
30
0
70
128
71
1
72
2
73
3
0
VERTEX
8
OBJECT__101
10
0
20
0
30
0
70
128
71
2
72
4
73
3
0
VERTEX
8
OBJECT__101
10
0
20
0
30
0
70
128
71
3
72
5
73
1
0
SEQEND
8
OBJECT__101
0
POLYLINE
8
OBJECT__102
66
1
70
64
71
46
72
46
62
253
0
VERTEX
8
OBJECT__102
10
89.750000
20
58.000000
30
56.450001
70
192
0
VERTEX
8
OBJECT__102
10
87.330002
20
49.755001
30
56.450001
70
192
0
VERTEX
8
OBJECT__102
10
88.589996
20
52.164001
30
32.450001
70
192
0
VERTEX
8
OBJECT__102
10
87.087997
20
49.917000
30
32.450001
70
192
0
VERTEX
8
OBJECT__102
10
80.781998
20
44.208000
30
32.450001
70
192
0
VERTEX
8
OBJECT__102
10
85.283997
20
47.216999
30
32.450001
70
192
0
VERTEX
8
OBJECT__102
10
84.487000
20
46.474998
30
56.450001
70
192
0
VERTEX
8
OBJECT__102
10
59.868000
20
53.703999
30
56.450001
70
192
0
VERTEX
8
OBJECT__102
10
60.096001
20
53.749001
30
32.450001
70
192
0
VERTEX
8
OBJECT__102
10
60.410999
20
52.164001
30
32.450001
70
192
0
VERTEX
8
OBJECT__102
10
63.716999
20
47.216999
30
32.450001
70
192
0
VERTEX
8
OBJECT__102
10
64.514000
20
46.474998
30
56.450001
70
192
0
VERTEX
8
OBJECT__102
10
61.671001
20
49.755001
30
56.450001
70
192
0
VERTEX
8
OBJECT__102
10
64.611000
20
46.619999
30
32.450001
70
192
0
VERTEX
8
OBJECT__102
10
59.250000
20
58.000000
30
56.450001
70
192
0
VERTEX
8
OBJECT__102
10
59.868000
20
62.296001
30
56.450001
70
192
0
VERTEX
8
OBJECT__102
10
60.096001
20
62.250999
30
32.450001
70
192
0
VERTEX
8
OBJECT__102
10
59.250000
20
58.000000
30
32.450001
70
192
0
VERTEX
8
OBJECT__102
10
64.514000
20
69.525002
30
56.450001
70
192
0
VERTEX
8
OBJECT__102
10
63.716999
20
68.782997
30
32.450001
70
192
0
VERTEX
8
OBJECT__102
10
60.410999
20
63.835999
30
32.450001
70
192
0
VERTEX
8
OBJECT__102
10
64.611000
20
69.379997
30
32.450001
70
192
0
VERTEX
8
OBJECT__102
10
72.330002
20
73.095001
30
56.450001
70
192
0
VERTEX
8
OBJECT__102
10
68.665001
20
72.088997
30
32.450001
70
192
0
VERTEX
8
OBJECT__102
10
72.383003
20
72.829002
30
32.450001
70
192
0
VERTEX
8
OBJECT__102
10
80.335999
20
72.088997
30
32.450001
70
192
0
VERTEX
8
OBJECT__102
10
74.500000
20
73.250000
30
32.450001
70
192
0
VERTEX
8
OBJECT__102
10
76.670998
20
73.095001
30
56.450001
70
192
0
VERTEX
8
OBJECT__102
10
80.835999
20
71.872002
30
56.450001
70
192
0
VERTEX
8
OBJECT__102
10
80.781998
20
71.792000
30
32.450001
70
192
0
VERTEX
8
OBJECT__102
10
87.330002
20
66.245003
30
56.450001
70
192
0
VERTEX
8
OBJECT__102
10
87.087997
20
66.083000
30
32.450001
70
192
0
VERTEX
8
OBJECT__102
10
85.283997
20
68.782997
30
32.450001
70
192
0
VERTEX
8
OBJECT__102
10
84.487000
20
69.525002
30
56.450001
70
192
0
VERTEX
8
OBJECT__102
10
89.750000
20
58.000000
30
32.450001
70
192
0
VERTEX
8
OBJECT__102
10
88.589996
20
63.835999
30
32.450001
70
192
0
VERTEX
8
OBJECT__102
10
74.500000
20
42.750000
30
32.450001
70
192
0
VERTEX
8
OBJECT__102
10
80.335999
20
43.910999
30
32.450001
70
192
0
VERTEX
8
OBJECT__102
10
76.750000
20
42.917000
30
55.750000
70
192
0
VERTEX
8
OBJECT__102
10
72.330002
20
42.904999
30
55.750000
70
192
0
VERTEX
8
OBJECT__102
10
72.383003
20
43.171001
30
32.450001
70
192
0
VERTEX
8
OBJECT__102
10
80.835999
20
44.127998
30
56.450001
70
192
0
VERTEX
8
OBJECT__102
10
76.750000
20
42.917000
30
56.450001
70
192
0
VERTEX
8
OBJECT__102
10
72.250000
20
42.917000
30
55.750000
70
192
0
VERTEX
8
OBJECT__102
10
68.665001
20
43.910999
30
32.450001
70
192
0
VERTEX
8
OBJECT__102
10
72.250000
20
42.917000
30
56.450001
70
192
0
VERTEX
8
OBJECT__102
10
0
20
0
30
0
70
128
71
1
72
2
73
3
0
VERTEX
8
OBJECT__102
10
0
20
0
30
0
70
128
71
2
72
4
73
3
0
VERTEX
8
OBJECT__102
10
0
20
0
30
0
70
128
71
5
72
6
73
7
0
VERTEX
8
OBJECT__102
10
0
20
0
30
0
70
128
71
2
72
7
73
6
0
VERTEX
8
OBJECT__102
10
0
20
0
30
0
70
128
71
6
72
4
73
2
0
VERTEX
8
OBJECT__102
10
0
20
0
30
0
70
128
71
8
72
9
73
10
0
VERTEX
8
OBJECT__102
10
0
20
0
30
0
70
128
71
11
72
12
73
13
0
VERTEX
8
OBJECT__102
10
0
20
0
30
0
70
128
71
13
72
10
73
11
0
VERTEX
8
OBJECT__102
10
0
20
0
30
0
70
128
71
11
72
14
73
12
0
VERTEX
8
OBJECT__102
10
0
20
0
30
0
70
128
71
15
72
16
73
17
0
VERTEX
8
OBJECT__102
10
0
20
0
30
0
70
128
71
15
72
18
73
9
0
VERTEX
8
OBJECT__102
10
0
20
0
30
0
70
128
71
9
72
8
73
15
0
VERTEX
8
OBJECT__102
10
0
20
0
30
0
70
128
71
19
72
20
73
21
0
VERTEX
8
OBJECT__102
10
0
20
0
30
0
70
128
71
21
72
16
73
19
0
VERTEX
8
OBJECT__102
10
0
20
0
30
0
70
128
71
19
72
22
73
20
0
VERTEX
8
OBJECT__102
10
0
20
0
30
0
70
128
71
19
72
23
73
24
0
VERTEX
8
OBJECT__102
10
0
20
0
30
0
70
128
71
23
72
25
73
24
0
VERTEX
8
OBJECT__102
10
0
20
0
30
0
70
128
71
26
72
27
73
28
0
VERTEX
8
OBJECT__102
10
0
20
0
30
0
70
128
71
29
72
30
73
26
0
VERTEX
8
OBJECT__102
10
0
20
0
30
0
70
128
71
23
72
28
73
27
0
VERTEX
8
OBJECT__102
10
0
20
0
30
0
70
128
71
27
72
25
73
23
0
VERTEX
8
OBJECT__102
10
0
20
0
30
0
70
128
71
31
72
32
73
33
0
VERTEX
8
OBJECT__102
10
0
20
0
30
0
70
128
71
30
72
29
73
34
0
VERTEX
8
OBJECT__102
10
0
20
0
30
0
70
128
71
34
72
33
73
30
0
VERTEX
8
OBJECT__102
10
0
20
0
30
0
70
128
71
1
72
35
73
36
0
VERTEX
8
OBJECT__102
10
0
20
0
30
0
70
128
71
36
72
31
73
1
0
VERTEX
8
OBJECT__102
10
0
20
0
30
0
70
128
71
37
72
38
73
39
0
VERTEX
8
OBJECT__102
10
0
20
0
30
0
70
128
71
40
72
41
73
37
0
VERTEX
8
OBJECT__102
10
0
20
0
30
0
70
128
71
39
72
40
73
37
0
VERTEX
8
OBJECT__102
10
0
20
0
30
0
70
128
71
42
72
43
73
39
0
VERTEX
8
OBJECT__102
10
0
20
0
30
0
70
128
71
39
72
5
73
42
0
VERTEX
8
OBJECT__102
10
0
20
0
30
0
70
128
71
12
72
14
73
44
0
VERTEX
8
OBJECT__102
10
0
20
0
30
0
70
128
71
41
72
40
73
44
0
VERTEX
8
OBJECT__102
10
0
20
0
30
0
70
128
71
44
72
14
73
45
0
VERTEX
8
OBJECT__102
10
0
20
0
30
0
70
128
71
44
72
45
73
41
0
VERTEX
8
OBJECT__102
10
0
20
0
30
0
70
128
71
44
72
46
73
12
0
VERTEX
8
OBJECT__102
10
0
20
0
30
0
70
128
71
38
72
5
73
39
0
VERTEX
8
OBJECT__102
10
0
20
0
30
0
70
128
71
36
72
32
73
31
0
VERTEX
8
OBJECT__102
10
0
20
0
30
0
70
128
71
33
72
34
73
31
0
VERTEX
8
OBJECT__102
10
0
20
0
30
0
70
128
71
28
72
29
73
26
0
VERTEX
8
OBJECT__102
10
0
20
0
30
0
70
128
71
24
72
22
73
19
0
VERTEX
8
OBJECT__102
10
0
20
0
30
0
70
128
71
21
72
17
73
16
0
VERTEX
8
OBJECT__102
10
0
20
0
30
0
70
128
71
17
72
18
73
15
0
VERTEX
8
OBJECT__102
10
0
20
0
30
0
70
128
71
10
72
13
73
8
0
VERTEX
8
OBJECT__102
10
0
20
0
30
0
70
128
71
7
72
42
73
5
0
VERTEX
8
OBJECT__102
10
0
20
0
30
0
70
128
71
3
72
35
73
1
0
SEQEND
8
OBJECT__102
0
POLYLINE
8
OBJECT__104
66
1
70
64
71
36
72
34
62
253
0
VERTEX
8
OBJECT__104
10
84.487000
20
69.525002
30
56.450001
70
192
0
VERTEX
8
OBJECT__104
10
80.835999
20
71.872002
30
56.450001
70
192
0
VERTEX
8
OBJECT__104
10
81.045998
20
71.218002
30
56.450001
70
192
0
VERTEX
8
OBJECT__104
10
76.670998
20
73.095001
30
56.450001
70
192
0
VERTEX
8
OBJECT__104
10
77.861000
20
72.362000
30
56.450001
70
192
0
VERTEX
8
OBJECT__104
10
76.750000
20
43.423000
30
56.450001
70
192
0
VERTEX
8
OBJECT__104
10
76.750000
20
42.917000
30
56.450001
70
192
0
VERTEX
8
OBJECT__104
10
80.835999
20
44.127998
30
56.450001
70
192
0
VERTEX
8
OBJECT__104
10
87.330002
20
49.755001
30
56.450001
70
192
0
VERTEX
8
OBJECT__104
10
87.458000
20
50.952999
30
56.450001
70
192
0
VERTEX
8
OBJECT__104
10
85.511002
20
48.186001
30
56.450001
70
192
0
VERTEX
8
OBJECT__104
10
74.500000
20
72.750000
30
56.450001
70
192
0
VERTEX
8
OBJECT__104
10
72.330002
20
73.095001
30
56.450001
70
192
0
VERTEX
8
OBJECT__104
10
71.139000
20
72.362000
30
56.450001
70
192
0
VERTEX
8
OBJECT__104
10
84.487000
20
46.474998
30
56.450001
70
192
0
VERTEX
8
OBJECT__104
10
82.985001
20
45.935001
30
56.450001
70
192
0
VERTEX
8
OBJECT__104
10
64.514000
20
69.525002
30
56.450001
70
192
0
VERTEX
8
OBJECT__104
10
65.115997
20
69.378998
30
56.450001
70
192
0
VERTEX
8
OBJECT__104
10
59.868000
20
53.703999
30
56.450001
70
192
0
VERTEX
8
OBJECT__104
10
60.278000
20
54.091000
30
56.450001
70
192
0
VERTEX
8
OBJECT__104
10
59.761002
20
57.433998
30
56.450001
70
192
0
VERTEX
8
OBJECT__104
10
61.671001
20
49.755001
30
56.450001
70
192
0
VERTEX
8
OBJECT__104
10
61.542999
20
50.952999
30
56.450001
70
192
0
VERTEX
8
OBJECT__104
10
64.514000
20
46.474998
30
56.450001
70
192
0
VERTEX
8
OBJECT__104
10
63.490002
20
48.186001
30
56.450001
70
192
0
VERTEX
8
OBJECT__104
10
89.750000
20
58.000000
30
56.450001
70
192
0
VERTEX
8
OBJECT__104
10
89.239998
20
57.433998
30
56.450001
70
192
0
VERTEX
8
OBJECT__104
10
83.885002
20
69.378998
30
56.450001
70
192
0
VERTEX
8
OBJECT__104
10
87.959999
20
64.032997
30
56.450001
70
192
0
VERTEX
8
OBJECT__104
10
87.330002
20
66.245003
30
56.450001
70
192
0
VERTEX
8
OBJECT__104
10
66.015999
20
45.935001
30
56.450001
70
192
0
VERTEX
8
OBJECT__104
10
59.868000
20
62.296001
30
56.450001
70
192
0
VERTEX
8
OBJECT__104
10
61.041000
20
64.032997
30
56.450001
70
192
0
VERTEX
8
OBJECT__104
10
72.250000
20
42.917000
30
56.450001
70
192
0
VERTEX
8
OBJECT__104
10
72.250000
20
43.423000
30
56.450001
70
192
0
VERTEX
8
OBJECT__104
10
59.250000
20
58.000000
30
56.450001
70
192
0
VERTEX
8
OBJECT__104
10
0
20
0
30
0
70
128
71
1
72
2
73
3
0
VERTEX
8
OBJECT__104
10
0
20
0
30
0
70
128
71
2
72
4
73
5
0
VERTEX
8
OBJECT__104
10
0
20
0
30
0
70
128
71
5
72
3
73
2
0
VERTEX
8
OBJECT__104
10
0
20
0
30
0
70
128
71
6
72
7
73
8
0
VERTEX
8
OBJECT__104
10
0
20
0
30
0
70
128
71
9
72
10
73
11
0
VERTEX
8
OBJECT__104
10
0
20
0
30
0
70
128
71
4
72
12
73
5
0
VERTEX
8
OBJECT__104
10
0
20
0
30
0
70
128
71
13
72
14
73
12
0
VERTEX
8
OBJECT__104
10
0
20
0
30
0
70
128
71
8
72
15
73
16
0
VERTEX
8
OBJECT__104
10
0
20
0
30
0
70
128
71
11
72
15
73
9
0
VERTEX
8
OBJECT__104
10
0
20
0
30
0
70
128
71
12
72
4
73
13
0
VERTEX
8
OBJECT__104
10
0
20
0
30
0
70
128
71
17
72
18
73
14
0
VERTEX
8
OBJECT__104
10
0
20
0
30
0
70
128
71
19
72
20
73
21
0
VERTEX
8
OBJECT__104
10
0
20
0
30
0
70
128
71
19
72
22
73
23
0
VERTEX
8
OBJECT__104
10
0
20
0
30
0
70
128
71
22
72
24
73
25
0
VERTEX
8
OBJECT__104
10
0
20
0
30
0
70
128
71
11
72
16
73
15
0
VERTEX
8
OBJECT__104
10
0
20
0
30
0
70
128
71
26
72
27
73
10
0
VERTEX
8
OBJECT__104
10
0
20
0
30
0
70
128
71
28
72
29
73
30
0
VERTEX
8
OBJECT__104
10
0
20
0
30
0
70
128
71
14
72
13
73
17
0
VERTEX
8
OBJECT__104
10
0
20
0
30
0
70
128
71
23
72
20
73
19
0
VERTEX
8
OBJECT__104
10
0
20
0
30
0
70
128
71
24
72
31
73
25
0
VERTEX
8
OBJECT__104
10
0
20
0
30
0
70
128
71
10
72
9
73
26
0
VERTEX
8
OBJECT__104
10
0
20
0
30
0
70
128
71
26
72
30
73
29
0
VERTEX
8
OBJECT__104
10
0
20
0
30
0
70
128
71
3
72
28
73
1
0
VERTEX
8
OBJECT__104
10
0
20
0
30
0
70
128
71
17
72
32
73
33
0
VERTEX
8
OBJECT__104
10
0
20
0
30
0
70
128
71
25
72
23
73
22
0
VERTEX
8
OBJECT__104
10
0
20
0
30
0
70
128
71
34
72
35
73
31
0
VERTEX
8
OBJECT__104
10
0
20
0
30
0
70
128
71
29
72
27
73
26
0
VERTEX
8
OBJECT__104
10
0
20
0
30
0
70
128
71
33
72
18
73
17
0
VERTEX
8
OBJECT__104
10
0
20
0
30
0
70
128
71
21
72
33
73
32
0
VERTEX
8
OBJECT__104
10
0
20
0
30
0
70
128
71
31
72
24
73
34
0
VERTEX
8
OBJECT__104
10
0
20
0
30
0
70
128
71
30
72
1
73
28
0
VERTEX
8
OBJECT__104
10
0
20
0
30
0
70
128
71
21
72
36
73
19
0
VERTEX
8
OBJECT__104
10
0
20
0
30
0
70
128
71
32
72
36
73
21
0
VERTEX
8
OBJECT__104
10
0
20
0
30
0
70
128
71
8
72
16
73
6
0
SEQEND
8
OBJECT__104
0
POLYLINE
8
OBJECT__105
66
1
70
64
71
42
72
42
62
253
0
VERTEX
8
OBJECT__105
10
88.589996
20
52.164001
30
32.450001
70
192
0
VERTEX
8
OBJECT__105
10
88.127998
20
52.355000
30
31.950001
70
192
0
VERTEX
8
OBJECT__105
10
89.250000
20
58.000000
30
31.950001
70
192
0
VERTEX
8
OBJECT__105
10
84.930000
20
47.570000
30
31.950001
70
192
0
VERTEX
8
OBJECT__105
10
87.087997
20
49.917000
30
32.450001
70
192
0
VERTEX
8
OBJECT__105
10
85.283997
20
47.216999
30
32.450001
70
192
0
VERTEX
8
OBJECT__105
10
80.781998
20
44.208000
30
32.450001
70
192
0
VERTEX
8
OBJECT__105
10
80.144997
20
44.373001
30
31.950001
70
192
0
VERTEX
8
OBJECT__105
10
80.335999
20
43.910999
30
32.450001
70
192
0
VERTEX
8
OBJECT__105
10
74.500000
20
42.750000
30
32.450001
70
192
0
VERTEX
8
OBJECT__105
10
74.500000
20
43.250000
30
31.950001
70
192
0
VERTEX
8
OBJECT__105
10
68.856003
20
44.373001
30
31.950001
70
192
0
VERTEX
8
OBJECT__105
10
72.383003
20
43.171001
30
32.450001
70
192
0
VERTEX
8
OBJECT__105
10
68.665001
20
43.910999
30
32.450001
70
192
0
VERTEX
8
OBJECT__105
10
64.611000
20
46.619999
30
32.450001
70
192
0
VERTEX
8
OBJECT__105
10
64.070999
20
47.570000
30
31.950001
70
192
0
VERTEX
8
OBJECT__105
10
60.410999
20
52.164001
30
32.450001
70
192
0
VERTEX
8
OBJECT__105
10
60.873001
20
52.355000
30
31.950001
70
192
0
VERTEX
8
OBJECT__105
10
59.750000
20
58.000000
30
31.950001
70
192
0
VERTEX
8
OBJECT__105
10
60.096001
20
53.749001
30
32.450001
70
192
0
VERTEX
8
OBJECT__105
10
59.250000
20
58.000000
30
32.450001
70
192
0
VERTEX
8
OBJECT__105
10
60.096001
20
62.250999
30
32.450001
70
192
0
VERTEX
8
OBJECT__105
10
60.873001
20
63.645000
30
31.950001
70
192
0
VERTEX
8
OBJECT__105
10
60.410999
20
63.835999
30
32.450001
70
192
0
VERTEX
8
OBJECT__105
10
63.716999
20
68.782997
30
32.450001
70
192
0
VERTEX
8
OBJECT__105
10
64.070999
20
68.430000
30
31.950001
70
192
0
VERTEX
8
OBJECT__105
10
68.856003
20
71.626999
30
31.950001
70
192
0
VERTEX
8
OBJECT__105
10
64.611000
20
69.379997
30
32.450001
70
192
0
VERTEX
8
OBJECT__105
10
68.665001
20
72.088997
30
32.450001
70
192
0
VERTEX
8
OBJECT__105
10
72.383003
20
72.829002
30
32.450001
70
192
0
VERTEX
8
OBJECT__105
10
74.500000
20
72.750000
30
31.950001
70
192
0
VERTEX
8
OBJECT__105
10
80.335999
20
72.088997
30
32.450001
70
192
0
VERTEX
8
OBJECT__105
10
80.144997
20
71.626999
30
31.950001
70
192
0
VERTEX
8
OBJECT__105
10
84.930000
20
68.430000
30
31.950001
70
192
0
VERTEX
8
OBJECT__105
10
80.781998
20
71.792000
30
32.450001
70
192
0
VERTEX
8
OBJECT__105
10
85.283997
20
68.782997
30
32.450001
70
192
0
VERTEX
8
OBJECT__105
10
87.087997
20
66.083000
30
32.450001
70
192
0
VERTEX
8
OBJECT__105
10
88.127998
20
63.645000
30
31.950001
70
192
0
VERTEX
8
OBJECT__105
10
89.750000
20
58.000000
30
32.450001
70
192
0
VERTEX
8
OBJECT__105
10
88.589996
20
63.835999
30
32.450001
70
192
0
VERTEX
8
OBJECT__105
10
74.500000
20
73.250000
30
32.450001
70
192
0
VERTEX
8
OBJECT__105
10
63.716999
20
47.216999
30
32.450001
70
192
0
VERTEX
8
OBJECT__105
10
0
20
0
30
0
70
128
71
1
72
2
73
3
0
VERTEX
8
OBJECT__105
10
0
20
0
30
0
70
128
71
4
72
2
73
5
0
VERTEX
8
OBJECT__105
10
0
20
0
30
0
70
128
71
2
72
1
73
5
0
VERTEX
8
OBJECT__105
10
0
20
0
30
0
70
128
71
4
72
6
73
7
0
VERTEX
8
OBJECT__105
10
0
20
0
30
0
70
128
71
7
72
8
73
4
0
VERTEX
8
OBJECT__105
10
0
20
0
30
0
70
128
71
9
72
10
73
11
0
VERTEX
8
OBJECT__105
10
0
20
0
30
0
70
128
71
12
72
11
73
13
0
VERTEX
8
OBJECT__105
10
0
20
0
30
0
70
128
71
11
72
10
73
13
0
VERTEX
8
OBJECT__105
10
0
20
0
30
0
70
128
71
12
72
14
73
15
0
VERTEX
8
OBJECT__105
10
0
20
0
30
0
70
128
71
15
72
16
73
12
0
VERTEX
8
OBJECT__105
10
0
20
0
30
0
70
128
71
17
72
18
73
16
0
VERTEX
8
OBJECT__105
10
0
20
0
30
0
70
128
71
19
72
18
73
20
0
VERTEX
8
OBJECT__105
10
0
20
0
30
0
70
128
71
18
72
17
73
20
0
VERTEX
8
OBJECT__105
10
0
20
0
30
0
70
128
71
19
72
21
73
22
0
VERTEX
8
OBJECT__105
10
0
20
0
30
0
70
128
71
22
72
23
73
19
0
VERTEX
8
OBJECT__105
10
0
20
0
30
0
70
128
71
24
72
25
73
26
0
VERTEX
8
OBJECT__105
10
0
20
0
30
0
70
128
71
27
72
26
73
28
0
VERTEX
8
OBJECT__105
10
0
20
0
30
0
70
128
71
26
72
25
73
28
0
VERTEX
8
OBJECT__105
10
0
20
0
30
0
70
128
71
27
72
29
73
30
0
VERTEX
8
OBJECT__105
10
0
20
0
30
0
70
128
71
30
72
31
73
27
0
VERTEX
8
OBJECT__105
10
0
20
0
30
0
70
128
71
32
72
33
73
31
0
VERTEX
8
OBJECT__105
10
0
20
0
30
0
70
128
71
34
72
33
73
35
0
VERTEX
8
OBJECT__105
10
0
20
0
30
0
70
128
71
33
72
32
73
35
0
VERTEX
8
OBJECT__105
10
0
20
0
30
0
70
128
71
34
72
36
73
37
0
VERTEX
8
OBJECT__105
10
0
20
0
30
0
70
128
71
37
72
38
73
34
0
VERTEX
8
OBJECT__105
10
0
20
0
30
0
70
128
71
39
72
3
73
38
0
VERTEX
8
OBJECT__105
10
0
20
0
30
0
70
128
71
38
72
40
73
39
0
VERTEX
8
OBJECT__105
10
0
20
0
30
0
70
128
71
37
72
40
73
38
0
VERTEX
8
OBJECT__105
10
0
20
0
30
0
70
128
71
35
72
36
73
34
0
VERTEX
8
OBJECT__105
10
0
20
0
30
0
70
128
71
31
72
41
73
32
0
VERTEX
8
OBJECT__105
10
0
20
0
30
0
70
128
71
30
72
41
73
31
0
VERTEX
8
OBJECT__105
10
0
20
0
30
0
70
128
71
28
72
29
73
27
0
VERTEX
8
OBJECT__105
10
0
20
0
30
0
70
128
71
26
72
23
73
24
0
VERTEX
8
OBJECT__105
10
0
20
0
30
0
70
128
71
22
72
24
73
23
0
VERTEX
8
OBJECT__105
10
0
20
0
30
0
70
128
71
20
72
21
73
19
0
VERTEX
8
OBJECT__105
10
0
20
0
30
0
70
128
71
16
72
42
73
17
0
VERTEX
8
OBJECT__105
10
0
20
0
30
0
70
128
71
15
72
42
73
16
0
VERTEX
8
OBJECT__105
10
0
20
0
30
0
70
128
71
13
72
14
73
12
0
VERTEX
8
OBJECT__105
10
0
20
0
30
0
70
128
71
11
72
8
73
9
0
VERTEX
8
OBJECT__105
10
0
20
0
30
0
70
128
71
7
72
9
73
8
0
VERTEX
8
OBJECT__105
10
0
20
0
30
0
70
128
71
5
72
6
73
4
0
VERTEX
8
OBJECT__105
10
0
20
0
30
0
70
128
71
3
72
39
73
1
0
SEQEND
8
OBJECT__105
0
POLYLINE
8
OBJECT__106
66
1
70
64
71
28
72
28
62
253
0
VERTEX
8
OBJECT__106
10
64.070999
20
47.570000
30
31.950001
70
192
0
VERTEX
8
OBJECT__106
10
64.108002
20
52.000000
30
31.950001
70
192
0
VERTEX
8
OBJECT__106
10
68.500000
20
47.608002
30
31.950001
70
192
0
VERTEX
8
OBJECT__106
10
84.930000
20
68.430000
30
31.950001
70
192
0
VERTEX
8
OBJECT__106
10
84.892998
20
64.000000
30
31.950001
70
192
0
VERTEX
8
OBJECT__106
10
80.500000
20
68.391998
30
31.950001
70
192
0
VERTEX
8
OBJECT__106
10
84.930000
20
47.570000
30
31.950001
70
192
0
VERTEX
8
OBJECT__106
10
80.500000
20
47.608002
30
31.950001
70
192
0
VERTEX
8
OBJECT__106
10
84.892998
20
52.000000
30
31.950001
70
192
0
VERTEX
8
OBJECT__106
10
74.500000
20
46.000000
30
31.950001
70
192
0
VERTEX
8
OBJECT__106
10
74.500000
20
43.250000
30
31.950001
70
192
0
VERTEX
8
OBJECT__106
10
68.856003
20
44.373001
30
31.950001
70
192
0
VERTEX
8
OBJECT__106
10
62.500000
20
58.000000
30
31.950001
70
192
0
VERTEX
8
OBJECT__106
10
60.873001
20
52.355000
30
31.950001
70
192
0
VERTEX
8
OBJECT__106
10
59.750000
20
58.000000
30
31.950001
70
192
0
VERTEX
8
OBJECT__106
10
60.873001
20
63.645000
30
31.950001
70
192
0
VERTEX
8
OBJECT__106
10
74.500000
20
70.000000
30
31.950001
70
192
0
VERTEX
8
OBJECT__106
10
74.500000
20
72.750000
30
31.950001
70
192
0
VERTEX
8
OBJECT__106
10
80.144997
20
71.626999
30
31.950001
70
192
0
VERTEX
8
OBJECT__106
10
86.500000
20
58.000000
30
31.950001
70
192
0
VERTEX
8
OBJECT__106
10
88.127998
20
63.645000
30
31.950001
70
192
0
VERTEX
8
OBJECT__106
10
89.250000
20
58.000000
30
31.950001
70
192
0
VERTEX
8
OBJECT__106
10
88.127998
20
52.355000
30
31.950001
70
192
0
VERTEX
8
OBJECT__106
10
80.144997
20
44.373001
30
31.950001
70
192
0
VERTEX
8
OBJECT__106
10
64.108002
20
64.000000
30
31.950001
70
192
0
VERTEX
8
OBJECT__106
10
64.070999
20
68.430000
30
31.950001
70
192
0
VERTEX
8
OBJECT__106
10
68.500000
20
68.391998
30
31.950001
70
192
0
VERTEX
8
OBJECT__106
10
68.856003
20
71.626999
30
31.950001
70
192
0
VERTEX
8
OBJECT__106
10
0
20
0
30
0
70
128
71
1
72
2
73
3
0
VERTEX
8
OBJECT__106
10
0
20
0
30
0
70
128
71
4
72
5
73
6
0
VERTEX
8
OBJECT__106
10
0
20
0
30
0
70
128
71
7
72
8
73
9
0
VERTEX
8
OBJECT__106
10
0
20
0
30
0
70
128
71
10
72
11
73
12
0
VERTEX
8
OBJECT__106
10
0
20
0
30
0
70
128
71
3
72
12
73
1
0
VERTEX
8
OBJECT__106
10
0
20
0
30
0
70
128
71
13
72
2
73
14
0
VERTEX
8
OBJECT__106
10
0
20
0
30
0
70
128
71
13
72
15
73
16
0
VERTEX
8
OBJECT__106
10
0
20
0
30
0
70
128
71
17
72
18
73
19
0
VERTEX
8
OBJECT__106
10
0
20
0
30
0
70
128
71
6
72
19
73
4
0
VERTEX
8
OBJECT__106
10
0
20
0
30
0
70
128
71
20
72
5
73
21
0
VERTEX
8
OBJECT__106
10
0
20
0
30
0
70
128
71
20
72
22
73
23
0
VERTEX
8
OBJECT__106
10
0
20
0
30
0
70
128
71
9
72
23
73
7
0
VERTEX
8
OBJECT__106
10
0
20
0
30
0
70
128
71
10
72
8
73
24
0
VERTEX
8
OBJECT__106
10
0
20
0
30
0
70
128
71
1
72
14
73
2
0
VERTEX
8
OBJECT__106
10
0
20
0
30
0
70
128
71
16
72
25
73
13
0
VERTEX
8
OBJECT__106
10
0
20
0
30
0
70
128
71
4
72
21
73
5
0
VERTEX
8
OBJECT__106
10
0
20
0
30
0
70
128
71
23
72
9
73
20
0
VERTEX
8
OBJECT__106
10
0
20
0
30
0
70
128
71
24
72
11
73
10
0
VERTEX
8
OBJECT__106
10
0
20
0
30
0
70
128
71
14
72
15
73
13
0
VERTEX
8
OBJECT__106
10
0
20
0
30
0
70
128
71
26
72
27
73
25
0
VERTEX
8
OBJECT__106
10
0
20
0
30
0
70
128
71
21
72
22
73
20
0
VERTEX
8
OBJECT__106
10
0
20
0
30
0
70
128
71
12
72
3
73
10
0
VERTEX
8
OBJECT__106
10
0
20
0
30
0
70
128
71
25
72
16
73
26
0
VERTEX
8
OBJECT__106
10
0
20
0
30
0
70
128
71
17
72
27
73
28
0
VERTEX
8
OBJECT__106
10
0
20
0
30
0
70
128
71
7
72
24
73
8
0
VERTEX
8
OBJECT__106
10
0
20
0
30
0
70
128
71
28
72
18
73
17
0
VERTEX
8
OBJECT__106
10
0
20
0
30
0
70
128
71
26
72
28
73
27
0
VERTEX
8
OBJECT__106
10
0
20
0
30
0
70
128
71
19
72
6
73
17
0
SEQEND
8
OBJECT__106
0
POLYLINE
8
OBJECT__107
66
1
70
64
71
26
72
26
62
253
0
VERTEX
8
OBJECT__107
10
25.000000
20
75.000000
30
-19.500000
70
192
0
VERTEX
8
OBJECT__107
10
25.000000
20
84.061996
30
-17.266001
70
192
0
VERTEX
8
OBJECT__107
10
52.000000
20
84.061996
30
-17.266001
70
192
0
VERTEX
8
OBJECT__107
10
52.000000
20
75.000000
30
-19.500000
70
192
0
VERTEX
8
OBJECT__107
10
25.000000
20
91.047997
30
-11.077000
70
192
0
VERTEX
8
OBJECT__107
10
52.000000
20
91.047997
30
-11.077000
70
192
0
VERTEX
8
OBJECT__107
10
25.000000
20
94.358002
30
-2.350000
70
192
0
VERTEX
8
OBJECT__107
10
52.000000
20
94.358002
30
-2.350000
70
192
0
VERTEX
8
OBJECT__107
10
25.000000
20
93.233002
30
6.915000
70
192
0
VERTEX
8
OBJECT__107
10
52.000000
20
93.233002
30
6.915000
70
192
0
VERTEX
8
OBJECT__107
10
25.000000
20
87.931000
30
14.596000
70
192
0
VERTEX
8
OBJECT__107
10
52.000000
20
87.931000
30
14.596000
70
192
0
VERTEX
8
OBJECT__107
10
25.000000
20
79.667000
30
18.933001
70
192
0
VERTEX
8
OBJECT__107
10
52.000000
20
79.667000
30
18.933001
70
192
0
VERTEX
8
OBJECT__107
10
25.000000
20
70.333000
30
18.933001
70
192
0
VERTEX
8
OBJECT__107
10
52.000000
20
70.333000
30
18.933001
70
192
0
VERTEX
8
OBJECT__107
10
25.000000
20
62.069000
30
14.596000
70
192
0
VERTEX
8
OBJECT__107
10
52.000000
20
62.069000
30
14.596000
70
192
0
VERTEX
8
OBJECT__107
10
25.000000
20
56.766998
30
6.915000
70
192
0
VERTEX
8
OBJECT__107
10
52.000000
20
56.766998
30
6.915000
70
192
0
VERTEX
8
OBJECT__107
10
25.000000
20
55.641998
30
-2.350000
70
192
0
VERTEX
8
OBJECT__107
10
52.000000
20
55.641998
30
-2.350000
70
192
0
VERTEX
8
OBJECT__107
10
25.000000
20
58.952000
30
-11.077000
70
192
0
VERTEX
8
OBJECT__107
10
52.000000
20
58.952000
30
-11.077000
70
192
0
VERTEX
8
OBJECT__107
10
25.000000
20
65.938004
30
-17.266001
70
192
0
VERTEX
8
OBJECT__107
10
52.000000
20
65.938004
30
-17.266001
70
192
0
VERTEX
8
OBJECT__107
10
0
20
0
30
0
70
128
71
1
72
2
73
3
0
VERTEX
8
OBJECT__107
10
0
20
0
30
0
70
128
71
1
72
3
73
4
0
VERTEX
8
OBJECT__107
10
0
20
0
30
0
70
128
71
2
72
5
73
6
0
VERTEX
8
OBJECT__107
10
0
20
0
30
0
70
128
71
2
72
6
73
3
0
VERTEX
8
OBJECT__107
10
0
20
0
30
0
70
128
71
5
72
7
73
8
0
VERTEX
8
OBJECT__107
10
0
20
0
30
0
70
128
71
5
72
8
73
6
0
VERTEX
8
OBJECT__107
10
0
20
0
30
0
70
128
71
7
72
9
73
10
0
VERTEX
8
OBJECT__107
10
0
20
0
30
0
70
128
71
7
72
10
73
8
0
VERTEX
8
OBJECT__107
10
0
20
0
30
0
70
128
71
9
72
11
73
12
0
VERTEX
8
OBJECT__107
10
0
20
0
30
0
70
128
71
9
72
12
73
10
0
VERTEX
8
OBJECT__107
10
0
20
0
30
0
70
128
71
11
72
13
73
14
0
VERTEX
8
OBJECT__107
10
0
20
0
30
0
70
128
71
11
72
14
73
12
0
VERTEX
8
OBJECT__107
10
0
20
0
30
0
70
128
71
13
72
15
73
16
0
VERTEX
8
OBJECT__107
10
0
20
0
30
0
70
128
71
13
72
16
73
14
0
VERTEX
8
OBJECT__107
10
0
20
0
30
0
70
128
71
15
72
17
73
18
0
VERTEX
8
OBJECT__107
10
0
20
0
30
0
70
128
71
15
72
18
73
16
0
VERTEX
8
OBJECT__107
10
0
20
0
30
0
70
128
71
17
72
19
73
20
0
VERTEX
8
OBJECT__107
10
0
20
0
30
0
70
128
71
17
72
20
73
18
0
VERTEX
8
OBJECT__107
10
0
20
0
30
0
70
128
71
19
72
21
73
22
0
VERTEX
8
OBJECT__107
10
0
20
0
30
0
70
128
71
19
72
22
73
20
0
VERTEX
8
OBJECT__107
10
0
20
0
30
0
70
128
71
21
72
23
73
24
0
VERTEX
8
OBJECT__107
10
0
20
0
30
0
70
128
71
21
72
24
73
22
0
VERTEX
8
OBJECT__107
10
0
20
0
30
0
70
128
71
23
72
25
73
26
0
VERTEX
8
OBJECT__107
10
0
20
0
30
0
70
128
71
23
72
26
73
24
0
VERTEX
8
OBJECT__107
10
0
20
0
30
0
70
128
71
25
72
1
73
4
0
VERTEX
8
OBJECT__107
10
0
20
0
30
0
70
128
71
25
72
4
73
26
0
SEQEND
8
OBJECT__107
0
POLYLINE
8
OBJECT__109
66
1
70
64
71
22
72
22
62
253
0
VERTEX
8
OBJECT__109
10
60.250000
20
58.000000
30
56.250000
70
192
0
VERTEX
8
OBJECT__109
10
62.513000
20
65.704002
30
56.250000
70
192
0
VERTEX
8
OBJECT__109
10
62.513000
20
65.704002
30
56.132999
70
192
0
VERTEX
8
OBJECT__109
10
60.250000
20
58.000000
30
56.132999
70
192
0
VERTEX
8
OBJECT__109
10
68.581001
20
70.961998
30
56.250000
70
192
0
VERTEX
8
OBJECT__109
10
68.581001
20
70.961998
30
56.132999
70
192
0
VERTEX
8
OBJECT__109
10
76.528000
20
72.105003
30
56.250000
70
192
0
VERTEX
8
OBJECT__109
10
76.528000
20
72.105003
30
56.132999
70
192
0
VERTEX
8
OBJECT__109
10
83.832001
20
68.768997
30
56.250000
70
192
0
VERTEX
8
OBJECT__109
10
83.832001
20
68.768997
30
56.132999
70
192
0
VERTEX
8
OBJECT__109
10
88.172997
20
62.014999
30
56.250000
70
192
0
VERTEX
8
OBJECT__109
10
88.172997
20
62.014999
30
56.132999
70
192
0
VERTEX
8
OBJECT__109
10
88.172997
20
53.985001
30
56.250000
70
192
0
VERTEX
8
OBJECT__109
10
88.172997
20
53.985001
30
56.132999
70
192
0
VERTEX
8
OBJECT__109
10
83.832001
20
47.230999
30
56.250000
70
192
0
VERTEX
8
OBJECT__109
10
83.832001
20
47.230999
30
56.132999
70
192
0
VERTEX
8
OBJECT__109
10
76.528000
20
43.895000
30
56.250000
70
192
0
VERTEX
8
OBJECT__109
10
76.528000
20
43.895000
30
56.132999
70
192
0
VERTEX
8
OBJECT__109
10
68.581001
20
45.037998
30
56.250000
70
192
0
VERTEX
8
OBJECT__109
10
68.581001
20
45.037998
30
56.132999
70
192
0
VERTEX
8
OBJECT__109
10
62.513000
20
50.296001
30
56.250000
70
192
0
VERTEX
8
OBJECT__109
10
62.513000
20
50.296001
30
56.132999
70
192
0
VERTEX
8
OBJECT__109
10
0
20
0
30
0
70
128
71
1
72
2
73
3
0
VERTEX
8
OBJECT__109
10
0
20
0
30
0
70
128
71
1
72
3
73
4
0
VERTEX
8
OBJECT__109
10
0
20
0
30
0
70
128
71
2
72
5
73
6
0
VERTEX
8
OBJECT__109
10
0
20
0
30
0
70
128
71
2
72
6
73
3
0
VERTEX
8
OBJECT__109
10
0
20
0
30
0
70
128
71
5
72
7
73
8
0
VERTEX
8
OBJECT__109
10
0
20
0
30
0
70
128
71
5
72
8
73
6
0
VERTEX
8
OBJECT__109
10
0
20
0
30
0
70
128
71
7
72
9
73
10
0
VERTEX
8
OBJECT__109
10
0
20
0
30
0
70
128
71
7
72
10
73
8
0
VERTEX
8
OBJECT__109
10
0
20
0
30
0
70
128
71
9
72
11
73
12
0
VERTEX
8
OBJECT__109
10
0
20
0
30
0
70
128
71
9
72
12
73
10
0
VERTEX
8
OBJECT__109
10
0
20
0
30
0
70
128
71
11
72
13
73
14
0
VERTEX
8
OBJECT__109
10
0
20
0
30
0
70
128
71
11
72
14
73
12
0
VERTEX
8
OBJECT__109
10
0
20
0
30
0
70
128
71
13
72
15
73
16
0
VERTEX
8
OBJECT__109
10
0
20
0
30
0
70
128
71
13
72
16
73
14
0
VERTEX
8
OBJECT__109
10
0
20
0
30
0
70
128
71
15
72
17
73
18
0
VERTEX
8
OBJECT__109
10
0
20
0
30
0
70
128
71
15
72
18
73
16
0
VERTEX
8
OBJECT__109
10
0
20
0
30
0
70
128
71
17
72
19
73
20
0
VERTEX
8
OBJECT__109
10
0
20
0
30
0
70
128
71
17
72
20
73
18
0
VERTEX
8
OBJECT__109
10
0
20
0
30
0
70
128
71
19
72
21
73
22
0
VERTEX
8
OBJECT__109
10
0
20
0
30
0
70
128
71
19
72
22
73
20
0
VERTEX
8
OBJECT__109
10
0
20
0
30
0
70
128
71
21
72
1
73
4
0
VERTEX
8
OBJECT__109
10
0
20
0
30
0
70
128
71
21
72
4
73
22
0
SEQEND
8
OBJECT__109
0
POLYLINE
8
OBJECT__111
66
1
70
64
71
26
72
26
62
253
0
VERTEX
8
OBJECT__111
10
82.595001
20
69.727997
30
22.000000
70
192
0
VERTEX
8
OBJECT__111
10
76.218002
20
72.146004
30
22.000000
70
192
0
VERTEX
8
OBJECT__111
10
77.503998
20
70.184998
30
22.000000
70
192
0
VERTEX
8
OBJECT__111
10
69.446999
20
71.323997
30
22.000000
70
192
0
VERTEX
8
OBJECT__111
10
71.497002
20
70.184998
30
22.000000
70
192
0
VERTEX
8
OBJECT__111
10
88.750000
20
58.000000
30
22.000000
70
192
0
VERTEX
8
OBJECT__111
10
87.117996
20
64.622002
30
22.000000
70
192
0
VERTEX
8
OBJECT__111
10
86.235001
20
62.450001
30
22.000000
70
192
0
VERTEX
8
OBJECT__111
10
82.822998
20
67.393997
30
22.000000
70
192
0
VERTEX
8
OBJECT__111
10
63.834000
20
67.448997
30
22.000000
70
192
0
VERTEX
8
OBJECT__111
10
66.178001
20
67.393997
30
22.000000
70
192
0
VERTEX
8
OBJECT__111
10
60.665001
20
61.410000
30
22.000000
70
192
0
VERTEX
8
OBJECT__111
10
62.765999
20
62.450001
30
22.000000
70
192
0
VERTEX
8
OBJECT__111
10
60.665001
20
54.590000
30
22.000000
70
192
0
VERTEX
8
OBJECT__111
10
62.042000
20
56.487000
30
22.000000
70
192
0
VERTEX
8
OBJECT__111
10
63.834000
20
48.550999
30
22.000000
70
192
0
VERTEX
8
OBJECT__111
10
64.171997
20
50.870998
30
22.000000
70
192
0
VERTEX
8
OBJECT__111
10
69.446999
20
44.675999
30
22.000000
70
192
0
VERTEX
8
OBJECT__111
10
68.667999
20
46.888000
30
22.000000
70
192
0
VERTEX
8
OBJECT__111
10
76.218002
20
43.854000
30
22.000000
70
192
0
VERTEX
8
OBJECT__111
10
74.500000
20
45.450001
30
22.000000
70
192
0
VERTEX
8
OBJECT__111
10
82.595001
20
46.271999
30
22.000000
70
192
0
VERTEX
8
OBJECT__111
10
87.117996
20
51.377998
30
22.000000
70
192
0
VERTEX
8
OBJECT__111
10
84.829002
20
50.870998
30
22.000000
70
192
0
VERTEX
8
OBJECT__111
10
86.959000
20
56.487000
30
22.000000
70
192
0
VERTEX
8
OBJECT__111
10
80.333000
20
46.888000
30
22.000000
70
192
0
VERTEX
8
OBJECT__111
10
0
20
0
30
0
70
128
71
1
72
2
73
3
0
VERTEX
8
OBJECT__111
10
0
20
0
30
0
70
128
71
2
72
4
73
5
0
VERTEX
8
OBJECT__111
10
0
20
0
30
0
70
128
71
6
72
7
73
8
0
VERTEX
8
OBJECT__111
10
0
20
0
30
0
70
128
71
7
72
1
73
9
0
VERTEX
8
OBJECT__111
10
0
20
0
30
0
70
128
71
5
72
3
73
2
0
VERTEX
8
OBJECT__111
10
0
20
0
30
0
70
128
71
4
72
10
73
11
0
VERTEX
8
OBJECT__111
10
0
20
0
30
0
70
128
71
9
72
8
73
7
0
VERTEX
8
OBJECT__111
10
0
20
0
30
0
70
128
71
11
72
5
73
4
0
VERTEX
8
OBJECT__111
10
0
20
0
30
0
70
128
71
3
72
9
73
1
0
VERTEX
8
OBJECT__111
10
0
20
0
30
0
70
128
71
10
72
12
73
13
0
VERTEX
8
OBJECT__111
10
0
20
0
30
0
70
128
71
12
72
14
73
15
0
VERTEX
8
OBJECT__111
10
0
20
0
30
0
70
128
71
14
72
16
73
17
0
VERTEX
8
OBJECT__111
10
0
20
0
30
0
70
128
71
13
72
11
73
10
0
VERTEX
8
OBJECT__111
10
0
20
0
30
0
70
128
71
17
72
15
73
14
0
VERTEX
8
OBJECT__111
10
0
20
0
30
0
70
128
71
16
72
18
73
19
0
VERTEX
8
OBJECT__111
10
0
20
0
30
0
70
128
71
18
72
20
73
21
0
VERTEX
8
OBJECT__111
10
0
20
0
30
0
70
128
71
22
72
23
73
24
0
VERTEX
8
OBJECT__111
10
0
20
0
30
0
70
128
71
23
72
6
73
25
0
VERTEX
8
OBJECT__111
10
0
20
0
30
0
70
128
71
15
72
13
73
12
0
VERTEX
8
OBJECT__111
10
0
20
0
30
0
70
128
71
21
72
19
73
18
0
VERTEX
8
OBJECT__111
10
0
20
0
30
0
70
128
71
20
72
22
73
26
0
VERTEX
8
OBJECT__111
10
0
20
0
30
0
70
128
71
25
72
24
73
23
0
VERTEX
8
OBJECT__111
10
0
20
0
30
0
70
128
71
19
72
17
73
16
0
VERTEX
8
OBJECT__111
10
0
20
0
30
0
70
128
71
24
72
26
73
22
0
VERTEX
8
OBJECT__111
10
0
20
0
30
0
70
128
71
26
72
21
73
20
0
VERTEX
8
OBJECT__111
10
0
20
0
30
0
70
128
71
8
72
25
73
6
0
SEQEND
8
OBJECT__111
0
POLYLINE
8
OBJECT__113
66
1
70
64
71
12
72
10
62
253
0
VERTEX
8
OBJECT__113
10
92.939003
20
2.773000
30
72.737999
70
192
0
VERTEX
8
OBJECT__113
10
93.008003
20
-1.779000
30
71.420998
70
192
0
VERTEX
8
OBJECT__113
10
93.038002
20
0.000000
30
70.852997
70
192
0
VERTEX
8
OBJECT__113
10
92.929001
20
-2.579000
30
72.926003
70
192
0
VERTEX
8
OBJECT__113
10
92.665001
20
0.060000
30
77.960999
70
192
0
VERTEX
8
OBJECT__113
10
92.753998
20
-2.577000
30
76.273003
70
192
0
VERTEX
8
OBJECT__113
10
92.754997
20
2.739000
30
76.250000
70
192
0
VERTEX
8
OBJECT__113
10
92.654999
20
0.925000
30
78.153000
70
192
0
VERTEX
8
OBJECT__113
10
92.691002
20
-2.091000
30
77.484001
70
192
0
VERTEX
8
OBJECT__113
10
92.778000
20
3.162000
30
75.806000
70
192
0
VERTEX
8
OBJECT__113
10
92.956001
20
2.733000
30
72.421997
70
192
0
VERTEX
8
OBJECT__113
10
92.853996
20
-3.345000
30
74.362999
70
192
0
VERTEX
8
OBJECT__113
10
0
20
0
30
0
70
128
71
1
72
2
73
3
0
VERTEX
8
OBJECT__113
10
0
20
0
30
0
70
128
71
4
72
5
73
6
0
VERTEX
8
OBJECT__113
10
0
20
0
30
0
70
128
71
7
72
8
73
5
0
VERTEX
8
OBJECT__113
10
0
20
0
30
0
70
128
71
1
72
4
73
2
0
VERTEX
8
OBJECT__113
10
0
20
0
30
0
70
128
71
5
72
9
73
6
0
VERTEX
8
OBJECT__113
10
0
20
0
30
0
70
128
71
4
72
10
73
7
0
VERTEX
8
OBJECT__113
10
0
20
0
30
0
70
128
71
3
72
11
73
1
0
VERTEX
8
OBJECT__113
10
0
20
0
30
0
70
128
71
5
72
4
73
7
0
VERTEX
8
OBJECT__113
10
0
20
0
30
0
70
128
71
6
72
12
73
4
0
VERTEX
8
OBJECT__113
10
0
20
0
30
0
70
128
71
1
72
10
73
4
0
SEQEND
8
OBJECT__113
0
POLYLINE
8
OBJECT__114
66
1
70
64
71
24
72
24
62
253
0
VERTEX
8
OBJECT__114
10
92.526001
20
0.000000
30
71.070999
70
192
0
VERTEX
8
OBJECT__114
10
93.038002
20
0.000000
30
70.852997
70
192
0
VERTEX
8
OBJECT__114
10
93.008003
20
-1.779000
30
71.420998
70
192
0
VERTEX
8
OBJECT__114
10
92.496002
20
-1.779000
30
71.639000
70
192
0
VERTEX
8
OBJECT__114
10
92.929001
20
-2.579000
30
72.926003
70
192
0
VERTEX
8
OBJECT__114
10
92.417000
20
-2.579000
30
73.142998
70
192
0
VERTEX
8
OBJECT__114
10
92.853996
20
-3.345000
30
74.362999
70
192
0
VERTEX
8
OBJECT__114
10
92.342003
20
-3.345000
30
74.580002
70
192
0
VERTEX
8
OBJECT__114
10
92.753998
20
-2.577000
30
76.273003
70
192
0
VERTEX
8
OBJECT__114
10
92.241997
20
-2.577000
30
76.490997
70
192
0
VERTEX
8
OBJECT__114
10
92.178001
20
-2.091000
30
77.700996
70
192
0
VERTEX
8
OBJECT__114
10
92.691002
20
-2.091000
30
77.484001
70
192
0
VERTEX
8
OBJECT__114
10
92.665001
20
0.060000
30
77.960999
70
192
0
VERTEX
8
OBJECT__114
10
92.654999
20
0.925000
30
78.153000
70
192
0
VERTEX
8
OBJECT__114
10
92.754997
20
2.739000
30
76.250000
70
192
0
VERTEX
8
OBJECT__114
10
92.242996
20
2.739000
30
76.467003
70
192
0
VERTEX
8
OBJECT__114
10
92.153000
20
0.060000
30
78.178001
70
192
0
VERTEX
8
OBJECT__114
10
92.142998
20
0.925000
30
78.370003
70
192
0
VERTEX
8
OBJECT__114
10
92.778000
20
3.162000
30
75.806000
70
192
0
VERTEX
8
OBJECT__114
10
92.939003
20
2.773000
30
72.737999
70
192
0
VERTEX
8
OBJECT__114
10
92.427002
20
2.773000
30
72.955002
70
192
0
VERTEX
8
OBJECT__114
10
92.265999
20
3.162000
30
76.024002
70
192
0
VERTEX
8
OBJECT__114
10
92.956001
20
2.733000
30
72.421997
70
192
0
VERTEX
8
OBJECT__114
10
92.444000
20
2.733000
30
72.639999
70
192
0
VERTEX
8
OBJECT__114
10
0
20
0
30
0
70
128
71
1
72
2
73
3
0
VERTEX
8
OBJECT__114
10
0
20
0
30
0
70
128
71
4
72
3
73
5
0
VERTEX
8
OBJECT__114
10
0
20
0
30
0
70
128
71
5
72
6
73
4
0
VERTEX
8
OBJECT__114
10
0
20
0
30
0
70
128
71
7
72
8
73
6
0
VERTEX
8
OBJECT__114
10
0
20
0
30
0
70
128
71
8
72
7
73
9
0
VERTEX
8
OBJECT__114
10
0
20
0
30
0
70
128
71
9
72
10
73
8
0
VERTEX
8
OBJECT__114
10
0
20
0
30
0
70
128
71
11
72
12
73
13
0
VERTEX
8
OBJECT__114
10
0
20
0
30
0
70
128
71
12
72
11
73
10
0
VERTEX
8
OBJECT__114
10
0
20
0
30
0
70
128
71
10
72
9
73
12
0
VERTEX
8
OBJECT__114
10
0
20
0
30
0
70
128
71
14
72
15
73
16
0
VERTEX
8
OBJECT__114
10
0
20
0
30
0
70
128
71
17
72
13
73
14
0
VERTEX
8
OBJECT__114
10
0
20
0
30
0
70
128
71
14
72
18
73
17
0
VERTEX
8
OBJECT__114
10
0
20
0
30
0
70
128
71
19
72
20
73
21
0
VERTEX
8
OBJECT__114
10
0
20
0
30
0
70
128
71
22
72
16
73
15
0
VERTEX
8
OBJECT__114
10
0
20
0
30
0
70
128
71
15
72
19
73
22
0
VERTEX
8
OBJECT__114
10
0
20
0
30
0
70
128
71
23
72
2
73
1
0
VERTEX
8
OBJECT__114
10
0
20
0
30
0
70
128
71
24
72
20
73
23
0
VERTEX
8
OBJECT__114
10
0
20
0
30
0
70
128
71
1
72
24
73
23
0
VERTEX
8
OBJECT__114
10
0
20
0
30
0
70
128
71
24
72
21
73
20
0
VERTEX
8
OBJECT__114
10
0
20
0
30
0
70
128
71
21
72
22
73
19
0
VERTEX
8
OBJECT__114
10
0
20
0
30
0
70
128
71
16
72
18
73
14
0
VERTEX
8
OBJECT__114
10
0
20
0
30
0
70
128
71
13
72
17
73
11
0
VERTEX
8
OBJECT__114
10
0
20
0
30
0
70
128
71
6
72
5
73
7
0
VERTEX
8
OBJECT__114
10
0
20
0
30
0
70
128
71
3
72
4
73
1
0
SEQEND
8
OBJECT__114
0
ENDSEC
0
EOF
