999
Converted by 3D Exploration 
999
XDimension Software, LLC
999
http://www.xdsoft.com/explorer/
0
SECTION
2
HEADER
9
$ACADVER
1
AC1008
9
$UCSORG
10
0.0
20
0.0
30
0.0
9
$UCSXDIR
10
1.0
20
0.0
30
0.0
9
$TILEMODE
70
1
9
$UCSYDIR
10
0.0
20
1.0
30
0.0
9
$EXTMIN
10
-34.028000
20
-30.000000
30
-30.000000
9
$EXTMAX
10
164.029007
20
75.017998
30
481.902008
0
ENDSEC
0
SECTION
2
TABLES
0
TABLE
2
LTYPE
70
1
0
LTYPE
2
CONTINUOUS
70
64
3
Solid line
72
65
73
0
40
0.0
0
ENDTAB
0
TABLE
2
LAYER
70
50
0
LAYER
2
OBJECT__0
70
0
62
253
6
CONTINUOUS
0
LAYER
2
OBJECT__2
70
0
62
253
6
CONTINUOUS
0
LAYER
2
OBJECT__3
70
0
62
253
6
CONTINUOUS
0
LAYER
2
OBJECT__5
70
0
62
253
6
CONTINUOUS
0
LAYER
2
OBJECT__6
70
0
62
253
6
CONTINUOUS
0
LAYER
2
OBJECT__7
70
0
62
253
6
CONTINUOUS
0
LAYER
2
OBJECT__8
70
0
62
253
6
CONTINUOUS
0
LAYER
2
OBJECT__9
70
0
62
253
6
CONTINUOUS
0
LAYER
2
OBJECT__11
70
0
62
253
6
CONTINUOUS
0
LAYER
2
OBJECT__12
70
0
62
253
6
CONTINUOUS
0
LAYER
2
OBJECT__14
70
0
62
253
6
CONTINUOUS
0
LAYER
2
OBJECT__15
70
0
62
253
6
CONTINUOUS
0
LAYER
2
OBJECT__16
70
0
62
253
6
CONTINUOUS
0
LAYER
2
OBJECT__17
70
0
62
253
6
CONTINUOUS
0
LAYER
2
OBJECT__18
70
0
62
253
6
CONTINUOUS
0
LAYER
2
OBJECT__19
70
0
62
253
6
CONTINUOUS
0
LAYER
2
OBJECT__20
70
0
62
253
6
CONTINUOUS
0
LAYER
2
OBJECT__22
70
0
62
253
6
CONTINUOUS
0
LAYER
2
OBJECT__23
70
0
62
253
6
CONTINUOUS
0
LAYER
2
OBJECT__24
70
0
62
253
6
CONTINUOUS
0
LAYER
2
OBJECT__25
70
0
62
253
6
CONTINUOUS
0
LAYER
2
OBJECT__26
70
0
62
253
6
CONTINUOUS
0
LAYER
2
OBJECT__27
70
0
62
253
6
CONTINUOUS
0
LAYER
2
OBJECT__28
70
0
62
253
6
CONTINUOUS
0
LAYER
2
OBJECT__29
70
0
62
253
6
CONTINUOUS
0
LAYER
2
OBJECT__31
70
0
62
253
6
CONTINUOUS
0
LAYER
2
OBJECT__32
70
0
62
253
6
CONTINUOUS
0
LAYER
2
OBJECT__33
70
0
62
253
6
CONTINUOUS
0
LAYER
2
OBJECT__34
70
0
62
253
6
CONTINUOUS
0
LAYER
2
OBJECT__35
70
0
62
253
6
CONTINUOUS
0
LAYER
2
OBJECT__36
70
0
62
253
6
CONTINUOUS
0
LAYER
2
OBJECT__37
70
0
62
253
6
CONTINUOUS
0
LAYER
2
OBJECT__38
70
0
62
253
6
CONTINUOUS
0
LAYER
2
OBJECT__40
70
0
62
253
6
CONTINUOUS
0
LAYER
2
OBJECT__41
70
0
62
253
6
CONTINUOUS
0
LAYER
2
OBJECT__42
70
0
62
253
6
CONTINUOUS
0
LAYER
2
OBJECT__44
70
0
62
253
6
CONTINUOUS
0
LAYER
2
OBJECT__45
70
0
62
253
6
CONTINUOUS
0
LAYER
2
OBJECT__47
70
0
62
253
6
CONTINUOUS
0
LAYER
2
OBJECT__48
70
0
62
253
6
CONTINUOUS
0
ENDTAB
0
TABLE
2
STYLE
70
1
0
STYLE
2
STANDARD
70
0
40
0.0
41
1.0
50
0.0
71
0
42
0.2
3
txt
4
1
0
ENDTAB
0
TABLE
2
UCS
70
0
0
ENDTAB
0
ENDSEC
0
SECTION
2
ENTITIES
0
POLYLINE
8
OBJECT__0
66
1
70
64
71
8
72
8
62
253
0
VERTEX
8
OBJECT__0
10
-3.864000
20
0.000000
30
168.932007
70
192
0
VERTEX
8
OBJECT__0
10
-5.766000
20
2.000000
30
168.313995
70
192
0
VERTEX
8
OBJECT__0
10
-29.304001
20
2.000000
30
240.755997
70
192
0
VERTEX
8
OBJECT__0
10
-27.402000
20
0.000000
30
241.373993
70
192
0
VERTEX
8
OBJECT__0
10
-7.668000
20
0.000000
30
167.695999
70
192
0
VERTEX
8
OBJECT__0
10
-31.205999
20
0.000000
30
240.138000
70
192
0
VERTEX
8
OBJECT__0
10
-5.766000
20
-2.000000
30
168.313995
70
192
0
VERTEX
8
OBJECT__0
10
-29.304001
20
-2.000000
30
240.755997
70
192
0
VERTEX
8
OBJECT__0
10
0
20
0
30
0
70
128
71
1
72
2
73
3
0
VERTEX
8
OBJECT__0
10
0
20
0
30
0
70
128
71
1
72
3
73
4
0
VERTEX
8
OBJECT__0
10
0
20
0
30
0
70
128
71
2
72
5
73
6
0
VERTEX
8
OBJECT__0
10
0
20
0
30
0
70
128
71
2
72
6
73
3
0
VERTEX
8
OBJECT__0
10
0
20
0
30
0
70
128
71
5
72
7
73
8
0
VERTEX
8
OBJECT__0
10
0
20
0
30
0
70
128
71
5
72
8
73
6
0
VERTEX
8
OBJECT__0
10
0
20
0
30
0
70
128
71
7
72
1
73
4
0
VERTEX
8
OBJECT__0
10
0
20
0
30
0
70
128
71
7
72
4
73
8
0
SEQEND
8
OBJECT__0
0
POLYLINE
8
OBJECT__2
66
1
70
64
71
9
72
7
62
253
0
VERTEX
8
OBJECT__2
10
29.544001
20
-5.209000
30
0.000000
70
192
0
VERTEX
8
OBJECT__2
10
-10.261000
20
28.191000
30
0.000000
70
192
0
VERTEX
8
OBJECT__2
10
10.261000
20
28.191000
30
0.000000
70
192
0
VERTEX
8
OBJECT__2
10
-25.981001
20
15.000000
30
0.000000
70
192
0
VERTEX
8
OBJECT__2
10
19.284000
20
-22.981001
30
0.000000
70
192
0
VERTEX
8
OBJECT__2
10
-19.284000
20
-22.981001
30
0.000000
70
192
0
VERTEX
8
OBJECT__2
10
-29.544001
20
-5.209000
30
0.000000
70
192
0
VERTEX
8
OBJECT__2
10
25.981001
20
15.000000
30
0.000000
70
192
0
VERTEX
8
OBJECT__2
10
0.000000
20
-30.000000
30
0.000000
70
192
0
VERTEX
8
OBJECT__2
10
0
20
0
30
0
70
128
71
1
72
2
73
3
0
VERTEX
8
OBJECT__2
10
0
20
0
30
0
70
128
71
1
72
4
73
2
0
VERTEX
8
OBJECT__2
10
0
20
0
30
0
70
128
71
5
72
6
73
7
0
VERTEX
8
OBJECT__2
10
0
20
0
30
0
70
128
71
3
72
8
73
1
0
VERTEX
8
OBJECT__2
10
0
20
0
30
0
70
128
71
5
72
9
73
6
0
VERTEX
8
OBJECT__2
10
0
20
0
30
0
70
128
71
7
72
4
73
5
0
VERTEX
8
OBJECT__2
10
0
20
0
30
0
70
128
71
1
72
5
73
4
0
SEQEND
8
OBJECT__2
0
POLYLINE
8
OBJECT__3
66
1
70
64
71
18
72
18
62
253
0
VERTEX
8
OBJECT__3
10
-19.284000
20
-22.981001
30
6.000000
70
192
0
VERTEX
8
OBJECT__3
10
-19.284000
20
-22.981001
30
0.000000
70
192
0
VERTEX
8
OBJECT__3
10
0.000000
20
-30.000000
30
0.000000
70
192
0
VERTEX
8
OBJECT__3
10
-29.544001
20
-5.209000
30
6.000000
70
192
0
VERTEX
8
OBJECT__3
10
-29.544001
20
-5.209000
30
0.000000
70
192
0
VERTEX
8
OBJECT__3
10
-25.981001
20
15.000000
30
6.000000
70
192
0
VERTEX
8
OBJECT__3
10
-25.981001
20
15.000000
30
0.000000
70
192
0
VERTEX
8
OBJECT__3
10
-10.261000
20
28.191000
30
6.000000
70
192
0
VERTEX
8
OBJECT__3
10
-10.261000
20
28.191000
30
0.000000
70
192
0
VERTEX
8
OBJECT__3
10
10.261000
20
28.191000
30
6.000000
70
192
0
VERTEX
8
OBJECT__3
10
10.261000
20
28.191000
30
0.000000
70
192
0
VERTEX
8
OBJECT__3
10
25.981001
20
15.000000
30
0.000000
70
192
0
VERTEX
8
OBJECT__3
10
29.544001
20
-5.209000
30
0.000000
70
192
0
VERTEX
8
OBJECT__3
10
25.981001
20
15.000000
30
6.000000
70
192
0
VERTEX
8
OBJECT__3
10
19.284000
20
-22.981001
30
0.000000
70
192
0
VERTEX
8
OBJECT__3
10
29.544001
20
-5.209000
30
6.000000
70
192
0
VERTEX
8
OBJECT__3
10
19.284000
20
-22.981001
30
6.000000
70
192
0
VERTEX
8
OBJECT__3
10
0.000000
20
-30.000000
30
6.000000
70
192
0
VERTEX
8
OBJECT__3
10
0
20
0
30
0
70
128
71
1
72
2
73
3
0
VERTEX
8
OBJECT__3
10
0
20
0
30
0
70
128
71
4
72
5
73
2
0
VERTEX
8
OBJECT__3
10
0
20
0
30
0
70
128
71
6
72
7
73
5
0
VERTEX
8
OBJECT__3
10
0
20
0
30
0
70
128
71
8
72
9
73
7
0
VERTEX
8
OBJECT__3
10
0
20
0
30
0
70
128
71
10
72
11
73
9
0
VERTEX
8
OBJECT__3
10
0
20
0
30
0
70
128
71
12
72
11
73
10
0
VERTEX
8
OBJECT__3
10
0
20
0
30
0
70
128
71
13
72
12
73
14
0
VERTEX
8
OBJECT__3
10
0
20
0
30
0
70
128
71
15
72
13
73
16
0
VERTEX
8
OBJECT__3
10
0
20
0
30
0
70
128
71
3
72
15
73
17
0
VERTEX
8
OBJECT__3
10
0
20
0
30
0
70
128
71
17
72
18
73
3
0
VERTEX
8
OBJECT__3
10
0
20
0
30
0
70
128
71
16
72
17
73
15
0
VERTEX
8
OBJECT__3
10
0
20
0
30
0
70
128
71
14
72
16
73
13
0
VERTEX
8
OBJECT__3
10
0
20
0
30
0
70
128
71
10
72
14
73
12
0
VERTEX
8
OBJECT__3
10
0
20
0
30
0
70
128
71
9
72
8
73
10
0
VERTEX
8
OBJECT__3
10
0
20
0
30
0
70
128
71
7
72
6
73
8
0
VERTEX
8
OBJECT__3
10
0
20
0
30
0
70
128
71
5
72
4
73
6
0
VERTEX
8
OBJECT__3
10
0
20
0
30
0
70
128
71
2
72
1
73
4
0
VERTEX
8
OBJECT__3
10
0
20
0
30
0
70
128
71
3
72
18
73
1
0
SEQEND
8
OBJECT__3
0
POLYLINE
8
OBJECT__5
66
1
70
64
71
18
72
18
62
253
0
VERTEX
8
OBJECT__5
10
29.544001
20
-5.209000
30
6.000000
70
192
0
VERTEX
8
OBJECT__5
10
24.620001
20
-4.341000
30
6.000000
70
192
0
VERTEX
8
OBJECT__5
10
16.070000
20
-19.150999
30
6.000000
70
192
0
VERTEX
8
OBJECT__5
10
25.981001
20
15.000000
30
6.000000
70
192
0
VERTEX
8
OBJECT__5
10
21.650999
20
12.500000
30
6.000000
70
192
0
VERTEX
8
OBJECT__5
10
19.284000
20
-22.981001
30
6.000000
70
192
0
VERTEX
8
OBJECT__5
10
0.000000
20
-25.000000
30
6.000000
70
192
0
VERTEX
8
OBJECT__5
10
10.261000
20
28.191000
30
6.000000
70
192
0
VERTEX
8
OBJECT__5
10
8.551000
20
23.492001
30
6.000000
70
192
0
VERTEX
8
OBJECT__5
10
-10.261000
20
28.191000
30
6.000000
70
192
0
VERTEX
8
OBJECT__5
10
-8.551000
20
23.492001
30
6.000000
70
192
0
VERTEX
8
OBJECT__5
10
-25.981001
20
15.000000
30
6.000000
70
192
0
VERTEX
8
OBJECT__5
10
-21.650999
20
12.500000
30
6.000000
70
192
0
VERTEX
8
OBJECT__5
10
-29.544001
20
-5.209000
30
6.000000
70
192
0
VERTEX
8
OBJECT__5
10
-24.620001
20
-4.341000
30
6.000000
70
192
0
VERTEX
8
OBJECT__5
10
-19.284000
20
-22.981001
30
6.000000
70
192
0
VERTEX
8
OBJECT__5
10
-16.070000
20
-19.150999
30
6.000000
70
192
0
VERTEX
8
OBJECT__5
10
0.000000
20
-30.000000
30
6.000000
70
192
0
VERTEX
8
OBJECT__5
10
0
20
0
30
0
70
128
71
1
72
2
73
3
0
VERTEX
8
OBJECT__5
10
0
20
0
30
0
70
128
71
4
72
5
73
2
0
VERTEX
8
OBJECT__5
10
0
20
0
30
0
70
128
71
6
72
3
73
7
0
VERTEX
8
OBJECT__5
10
0
20
0
30
0
70
128
71
2
72
1
73
4
0
VERTEX
8
OBJECT__5
10
0
20
0
30
0
70
128
71
4
72
8
73
9
0
VERTEX
8
OBJECT__5
10
0
20
0
30
0
70
128
71
8
72
10
73
11
0
VERTEX
8
OBJECT__5
10
0
20
0
30
0
70
128
71
12
72
13
73
11
0
VERTEX
8
OBJECT__5
10
0
20
0
30
0
70
128
71
14
72
15
73
13
0
VERTEX
8
OBJECT__5
10
0
20
0
30
0
70
128
71
3
72
6
73
1
0
VERTEX
8
OBJECT__5
10
0
20
0
30
0
70
128
71
11
72
9
73
8
0
VERTEX
8
OBJECT__5
10
0
20
0
30
0
70
128
71
13
72
12
73
14
0
VERTEX
8
OBJECT__5
10
0
20
0
30
0
70
128
71
16
72
17
73
15
0
VERTEX
8
OBJECT__5
10
0
20
0
30
0
70
128
71
9
72
5
73
4
0
VERTEX
8
OBJECT__5
10
0
20
0
30
0
70
128
71
15
72
14
73
16
0
VERTEX
8
OBJECT__5
10
0
20
0
30
0
70
128
71
11
72
10
73
12
0
VERTEX
8
OBJECT__5
10
0
20
0
30
0
70
128
71
18
72
7
73
17
0
VERTEX
8
OBJECT__5
10
0
20
0
30
0
70
128
71
17
72
16
73
18
0
VERTEX
8
OBJECT__5
10
0
20
0
30
0
70
128
71
7
72
18
73
6
0
SEQEND
8
OBJECT__5
0
POLYLINE
8
OBJECT__6
66
1
70
64
71
18
72
18
62
253
0
VERTEX
8
OBJECT__6
10
-16.070000
20
-19.150999
30
10.000000
70
192
0
VERTEX
8
OBJECT__6
10
-16.070000
20
-19.150999
30
6.000000
70
192
0
VERTEX
8
OBJECT__6
10
0.000000
20
-25.000000
30
6.000000
70
192
0
VERTEX
8
OBJECT__6
10
-24.620001
20
-4.341000
30
10.000000
70
192
0
VERTEX
8
OBJECT__6
10
-24.620001
20
-4.341000
30
6.000000
70
192
0
VERTEX
8
OBJECT__6
10
-21.650999
20
12.500000
30
10.000000
70
192
0
VERTEX
8
OBJECT__6
10
-21.650999
20
12.500000
30
6.000000
70
192
0
VERTEX
8
OBJECT__6
10
-8.551000
20
23.492001
30
10.000000
70
192
0
VERTEX
8
OBJECT__6
10
-8.551000
20
23.492001
30
6.000000
70
192
0
VERTEX
8
OBJECT__6
10
8.551000
20
23.492001
30
10.000000
70
192
0
VERTEX
8
OBJECT__6
10
8.551000
20
23.492001
30
6.000000
70
192
0
VERTEX
8
OBJECT__6
10
21.650999
20
12.500000
30
6.000000
70
192
0
VERTEX
8
OBJECT__6
10
24.620001
20
-4.341000
30
6.000000
70
192
0
VERTEX
8
OBJECT__6
10
21.650999
20
12.500000
30
10.000000
70
192
0
VERTEX
8
OBJECT__6
10
16.070000
20
-19.150999
30
6.000000
70
192
0
VERTEX
8
OBJECT__6
10
24.620001
20
-4.341000
30
10.000000
70
192
0
VERTEX
8
OBJECT__6
10
16.070000
20
-19.150999
30
10.000000
70
192
0
VERTEX
8
OBJECT__6
10
0.000000
20
-25.000000
30
10.000000
70
192
0
VERTEX
8
OBJECT__6
10
0
20
0
30
0
70
128
71
1
72
2
73
3
0
VERTEX
8
OBJECT__6
10
0
20
0
30
0
70
128
71
4
72
5
73
2
0
VERTEX
8
OBJECT__6
10
0
20
0
30
0
70
128
71
6
72
7
73
5
0
VERTEX
8
OBJECT__6
10
0
20
0
30
0
70
128
71
8
72
9
73
7
0
VERTEX
8
OBJECT__6
10
0
20
0
30
0
70
128
71
10
72
11
73
9
0
VERTEX
8
OBJECT__6
10
0
20
0
30
0
70
128
71
12
72
11
73
10
0
VERTEX
8
OBJECT__6
10
0
20
0
30
0
70
128
71
13
72
12
73
14
0
VERTEX
8
OBJECT__6
10
0
20
0
30
0
70
128
71
15
72
13
73
16
0
VERTEX
8
OBJECT__6
10
0
20
0
30
0
70
128
71
3
72
15
73
17
0
VERTEX
8
OBJECT__6
10
0
20
0
30
0
70
128
71
17
72
18
73
3
0
VERTEX
8
OBJECT__6
10
0
20
0
30
0
70
128
71
16
72
17
73
15
0
VERTEX
8
OBJECT__6
10
0
20
0
30
0
70
128
71
14
72
16
73
13
0
VERTEX
8
OBJECT__6
10
0
20
0
30
0
70
128
71
10
72
14
73
12
0
VERTEX
8
OBJECT__6
10
0
20
0
30
0
70
128
71
9
72
8
73
10
0
VERTEX
8
OBJECT__6
10
0
20
0
30
0
70
128
71
7
72
6
73
8
0
VERTEX
8
OBJECT__6
10
0
20
0
30
0
70
128
71
5
72
4
73
6
0
VERTEX
8
OBJECT__6
10
0
20
0
30
0
70
128
71
2
72
1
73
4
0
VERTEX
8
OBJECT__6
10
0
20
0
30
0
70
128
71
3
72
18
73
1
0
SEQEND
8
OBJECT__6
0
POLYLINE
8
OBJECT__7
66
1
70
64
71
9
72
7
62
253
0
VERTEX
8
OBJECT__7
10
24.620001
20
-4.341000
30
10.000000
70
192
0
VERTEX
8
OBJECT__7
10
-16.070000
20
-19.150999
30
10.000000
70
192
0
VERTEX
8
OBJECT__7
10
0.000000
20
-25.000000
30
10.000000
70
192
0
VERTEX
8
OBJECT__7
10
-24.620001
20
-4.341000
30
10.000000
70
192
0
VERTEX
8
OBJECT__7
10
8.551000
20
23.492001
30
10.000000
70
192
0
VERTEX
8
OBJECT__7
10
-8.551000
20
23.492001
30
10.000000
70
192
0
VERTEX
8
OBJECT__7
10
21.650999
20
12.500000
30
10.000000
70
192
0
VERTEX
8
OBJECT__7
10
-21.650999
20
12.500000
30
10.000000
70
192
0
VERTEX
8
OBJECT__7
10
16.070000
20
-19.150999
30
10.000000
70
192
0
VERTEX
8
OBJECT__7
10
0
20
0
30
0
70
128
71
1
72
2
73
3
0
VERTEX
8
OBJECT__7
10
0
20
0
30
0
70
128
71
4
72
5
73
6
0
VERTEX
8
OBJECT__7
10
0
20
0
30
0
70
128
71
4
72
1
73
7
0
VERTEX
8
OBJECT__7
10
0
20
0
30
0
70
128
71
1
72
4
73
2
0
VERTEX
8
OBJECT__7
10
0
20
0
30
0
70
128
71
7
72
5
73
4
0
VERTEX
8
OBJECT__7
10
0
20
0
30
0
70
128
71
6
72
8
73
4
0
VERTEX
8
OBJECT__7
10
0
20
0
30
0
70
128
71
3
72
9
73
1
0
SEQEND
8
OBJECT__7
0
POLYLINE
8
OBJECT__8
66
1
70
64
71
33
72
33
62
253
0
VERTEX
8
OBJECT__8
10
3.262000
20
48.000000
30
278.197998
70
192
0
VERTEX
8
OBJECT__8
10
5.609000
20
48.000000
30
276.962006
70
192
0
VERTEX
8
OBJECT__8
10
0.000000
20
48.000000
30
277.850006
70
192
0
VERTEX
8
OBJECT__8
10
9.392000
20
48.000000
30
275.967010
70
192
0
VERTEX
8
OBJECT__8
10
10.669000
20
48.000000
30
274.384003
70
192
0
VERTEX
8
OBJECT__8
10
18.783001
20
48.000000
30
259.700012
70
192
0
VERTEX
8
OBJECT__8
10
18.150000
20
48.000000
30
259.700012
70
192
0
VERTEX
8
OBJECT__8
10
17.261999
20
48.000000
30
265.308990
70
192
0
VERTEX
8
OBJECT__8
10
17.650000
20
48.000000
30
253.276001
70
192
0
VERTEX
8
OBJECT__8
10
17.261999
20
48.000000
30
254.091003
70
192
0
VERTEX
8
OBJECT__8
10
14.389000
20
48.000000
30
247.626999
70
192
0
VERTEX
8
OBJECT__8
10
14.684000
20
48.000000
30
249.031006
70
192
0
VERTEX
8
OBJECT__8
10
9.392000
20
48.000000
30
243.432999
70
192
0
VERTEX
8
OBJECT__8
10
10.669000
20
48.000000
30
245.016006
70
192
0
VERTEX
8
OBJECT__8
10
3.262000
20
48.000000
30
241.201996
70
192
0
VERTEX
8
OBJECT__8
10
5.609000
20
48.000000
30
242.438004
70
192
0
VERTEX
8
OBJECT__8
10
-3.262000
20
48.000000
30
241.201996
70
192
0
VERTEX
8
OBJECT__8
10
-5.609000
20
48.000000
30
242.438004
70
192
0
VERTEX
8
OBJECT__8
10
0.000000
20
48.000000
30
241.550003
70
192
0
VERTEX
8
OBJECT__8
10
-9.392000
20
48.000000
30
243.432999
70
192
0
VERTEX
8
OBJECT__8
10
-10.669000
20
48.000000
30
245.016006
70
192
0
VERTEX
8
OBJECT__8
10
14.389000
20
48.000000
30
271.773010
70
192
0
VERTEX
8
OBJECT__8
10
14.684000
20
48.000000
30
270.368988
70
192
0
VERTEX
8
OBJECT__8
10
17.650000
20
48.000000
30
266.123993
70
192
0
VERTEX
8
OBJECT__8
10
-3.262000
20
48.000000
30
278.197998
70
192
0
VERTEX
8
OBJECT__8
10
-5.609000
20
48.000000
30
276.962006
70
192
0
VERTEX
8
OBJECT__8
10
-14.389000
20
48.000000
30
247.626999
70
192
0
VERTEX
8
OBJECT__8
10
-14.684000
20
48.000000
30
249.031006
70
192
0
VERTEX
8
OBJECT__8
10
-18.783001
20
48.000000
30
259.700012
70
192
0
VERTEX
8
OBJECT__8
10
-18.150000
20
48.000000
30
259.700012
70
192
0
VERTEX
8
OBJECT__8
10
-14.684000
20
48.000000
30
270.368988
70
192
0
VERTEX
8
OBJECT__8
10
-14.389000
20
48.000000
30
271.773010
70
192
0
VERTEX
8
OBJECT__8
10
-9.392000
20
48.000000
30
275.967010
70
192
0
VERTEX
8
OBJECT__8
10
0
20
0
30
0
70
128
71
1
72
2
73
3
0
VERTEX
8
OBJECT__8
10
0
20
0
30
0
70
128
71
4
72
5
73
2
0
VERTEX
8
OBJECT__8
10
0
20
0
30
0
70
128
71
6
72
7
73
8
0
VERTEX
8
OBJECT__8
10
0
20
0
30
0
70
128
71
6
72
9
73
10
0
VERTEX
8
OBJECT__8
10
0
20
0
30
0
70
128
71
9
72
11
73
12
0
VERTEX
8
OBJECT__8
10
0
20
0
30
0
70
128
71
11
72
13
73
14
0
VERTEX
8
OBJECT__8
10
0
20
0
30
0
70
128
71
13
72
15
73
16
0
VERTEX
8
OBJECT__8
10
0
20
0
30
0
70
128
71
17
72
18
73
19
0
VERTEX
8
OBJECT__8
10
0
20
0
30
0
70
128
71
20
72
21
73
18
0
VERTEX
8
OBJECT__8
10
0
20
0
30
0
70
128
71
2
72
1
73
4
0
VERTEX
8
OBJECT__8
10
0
20
0
30
0
70
128
71
22
72
23
73
5
0
VERTEX
8
OBJECT__8
10
0
20
0
30
0
70
128
71
10
72
7
73
6
0
VERTEX
8
OBJECT__8
10
0
20
0
30
0
70
128
71
14
72
12
73
11
0
VERTEX
8
OBJECT__8
10
0
20
0
30
0
70
128
71
15
72
19
73
16
0
VERTEX
8
OBJECT__8
10
0
20
0
30
0
70
128
71
18
72
17
73
20
0
VERTEX
8
OBJECT__8
10
0
20
0
30
0
70
128
71
5
72
4
73
22
0
VERTEX
8
OBJECT__8
10
0
20
0
30
0
70
128
71
24
72
8
73
23
0
VERTEX
8
OBJECT__8
10
0
20
0
30
0
70
128
71
12
72
10
73
9
0
VERTEX
8
OBJECT__8
10
0
20
0
30
0
70
128
71
19
72
15
73
17
0
VERTEX
8
OBJECT__8
10
0
20
0
30
0
70
128
71
25
72
3
73
26
0
VERTEX
8
OBJECT__8
10
0
20
0
30
0
70
128
71
23
72
22
73
24
0
VERTEX
8
OBJECT__8
10
0
20
0
30
0
70
128
71
16
72
14
73
13
0
VERTEX
8
OBJECT__8
10
0
20
0
30
0
70
128
71
27
72
28
73
21
0
VERTEX
8
OBJECT__8
10
0
20
0
30
0
70
128
71
3
72
25
73
1
0
VERTEX
8
OBJECT__8
10
0
20
0
30
0
70
128
71
21
72
20
73
27
0
VERTEX
8
OBJECT__8
10
0
20
0
30
0
70
128
71
8
72
24
73
6
0
VERTEX
8
OBJECT__8
10
0
20
0
30
0
70
128
71
29
72
30
73
28
0
VERTEX
8
OBJECT__8
10
0
20
0
30
0
70
128
71
31
72
32
73
33
0
VERTEX
8
OBJECT__8
10
0
20
0
30
0
70
128
71
28
72
27
73
29
0
VERTEX
8
OBJECT__8
10
0
20
0
30
0
70
128
71
29
72
32
73
31
0
VERTEX
8
OBJECT__8
10
0
20
0
30
0
70
128
71
26
72
33
73
25
0
VERTEX
8
OBJECT__8
10
0
20
0
30
0
70
128
71
33
72
26
73
31
0
VERTEX
8
OBJECT__8
10
0
20
0
30
0
70
128
71
31
72
30
73
29
0
SEQEND
8
OBJECT__8
0
POLYLINE
8
OBJECT__9
66
1
70
64
71
28
72
37
62
253
0
VERTEX
8
OBJECT__9
10
-18.150000
20
48.000000
30
259.700012
70
192
0
VERTEX
8
OBJECT__9
10
-14.684000
20
48.000000
30
270.368988
70
192
0
VERTEX
8
OBJECT__9
10
-8.713000
20
56.452000
30
266.031006
70
192
0
VERTEX
8
OBJECT__9
10
-5.609000
20
48.000000
30
276.962006
70
192
0
VERTEX
8
OBJECT__9
10
-3.328000
20
56.452000
30
269.942993
70
192
0
VERTEX
8
OBJECT__9
10
0.000000
20
48.000000
30
277.850006
70
192
0
VERTEX
8
OBJECT__9
10
3.328000
20
56.452000
30
269.942993
70
192
0
VERTEX
8
OBJECT__9
10
10.669000
20
48.000000
30
274.384003
70
192
0
VERTEX
8
OBJECT__9
10
8.713000
20
56.452000
30
266.031006
70
192
0
VERTEX
8
OBJECT__9
10
5.609000
20
48.000000
30
276.962006
70
192
0
VERTEX
8
OBJECT__9
10
17.261999
20
48.000000
30
265.308990
70
192
0
VERTEX
8
OBJECT__9
10
18.150000
20
48.000000
30
259.700012
70
192
0
VERTEX
8
OBJECT__9
10
10.770000
20
56.452000
30
259.700012
70
192
0
VERTEX
8
OBJECT__9
10
14.684000
20
48.000000
30
270.368988
70
192
0
VERTEX
8
OBJECT__9
10
17.261999
20
48.000000
30
254.091003
70
192
0
VERTEX
8
OBJECT__9
10
14.684000
20
48.000000
30
249.031006
70
192
0
VERTEX
8
OBJECT__9
10
8.713000
20
56.452000
30
253.369003
70
192
0
VERTEX
8
OBJECT__9
10
10.669000
20
48.000000
30
245.016006
70
192
0
VERTEX
8
OBJECT__9
10
3.328000
20
56.452000
30
249.457001
70
192
0
VERTEX
8
OBJECT__9
10
0.000000
20
48.000000
30
241.550003
70
192
0
VERTEX
8
OBJECT__9
10
-5.609000
20
48.000000
30
242.438004
70
192
0
VERTEX
8
OBJECT__9
10
-3.328000
20
56.452000
30
249.457001
70
192
0
VERTEX
8
OBJECT__9
10
5.609000
20
48.000000
30
242.438004
70
192
0
VERTEX
8
OBJECT__9
10
-10.669000
20
48.000000
30
245.016006
70
192
0
VERTEX
8
OBJECT__9
10
-14.684000
20
48.000000
30
249.031006
70
192
0
VERTEX
8
OBJECT__9
10
-8.713000
20
56.452000
30
253.369003
70
192
0
VERTEX
8
OBJECT__9
10
-10.770000
20
56.452000
30
259.700012
70
192
0
VERTEX
8
OBJECT__9
10
0.000000
20
59.599998
30
259.700012
70
192
0
VERTEX
8
OBJECT__9
10
0
20
0
30
0
70
128
71
1
72
2
73
3
0
VERTEX
8
OBJECT__9
10
0
20
0
30
0
70
128
71
2
72
4
73
5
0
VERTEX
8
OBJECT__9
10
0
20
0
30
0
70
128
71
6
72
7
73
5
0
VERTEX
8
OBJECT__9
10
0
20
0
30
0
70
128
71
5
72
4
73
6
0
VERTEX
8
OBJECT__9
10
0
20
0
30
0
70
128
71
8
72
9
73
7
0
VERTEX
8
OBJECT__9
10
0
20
0
30
0
70
128
71
7
72
10
73
8
0
VERTEX
8
OBJECT__9
10
0
20
0
30
0
70
128
71
11
72
12
73
13
0
VERTEX
8
OBJECT__9
10
0
20
0
30
0
70
128
71
9
72
14
73
11
0
VERTEX
8
OBJECT__9
10
0
20
0
30
0
70
128
71
15
72
16
73
17
0
VERTEX
8
OBJECT__9
10
0
20
0
30
0
70
128
71
13
72
12
73
15
0
VERTEX
8
OBJECT__9
10
0
20
0
30
0
70
128
71
18
72
19
73
17
0
VERTEX
8
OBJECT__9
10
0
20
0
30
0
70
128
71
17
72
16
73
18
0
VERTEX
8
OBJECT__9
10
0
20
0
30
0
70
128
71
20
72
21
73
22
0
VERTEX
8
OBJECT__9
10
0
20
0
30
0
70
128
71
19
72
23
73
20
0
VERTEX
8
OBJECT__9
10
0
20
0
30
0
70
128
71
24
72
25
73
26
0
VERTEX
8
OBJECT__9
10
0
20
0
30
0
70
128
71
22
72
21
73
24
0
VERTEX
8
OBJECT__9
10
0
20
0
30
0
70
128
71
25
72
1
73
27
0
VERTEX
8
OBJECT__9
10
0
20
0
30
0
70
128
71
28
72
26
73
27
0
VERTEX
8
OBJECT__9
10
0
20
0
30
0
70
128
71
28
72
22
73
26
0
VERTEX
8
OBJECT__9
10
0
20
0
30
0
70
128
71
28
72
19
73
22
0
VERTEX
8
OBJECT__9
10
0
20
0
30
0
70
128
71
28
72
17
73
19
0
VERTEX
8
OBJECT__9
10
0
20
0
30
0
70
128
71
28
72
13
73
17
0
VERTEX
8
OBJECT__9
10
0
20
0
30
0
70
128
71
28
72
9
73
13
0
VERTEX
8
OBJECT__9
10
0
20
0
30
0
70
128
71
28
72
7
73
9
0
VERTEX
8
OBJECT__9
10
0
20
0
30
0
70
128
71
28
72
5
73
7
0
VERTEX
8
OBJECT__9
10
0
20
0
30
0
70
128
71
28
72
3
73
5
0
VERTEX
8
OBJECT__9
10
0
20
0
30
0
70
128
71
28
72
27
73
3
0
VERTEX
8
OBJECT__9
10
0
20
0
30
0
70
128
71
27
72
26
73
25
0
VERTEX
8
OBJECT__9
10
0
20
0
30
0
70
128
71
26
72
22
73
24
0
VERTEX
8
OBJECT__9
10
0
20
0
30
0
70
128
71
22
72
19
73
20
0
VERTEX
8
OBJECT__9
10
0
20
0
30
0
70
128
71
18
72
23
73
19
0
VERTEX
8
OBJECT__9
10
0
20
0
30
0
70
128
71
17
72
13
73
15
0
VERTEX
8
OBJECT__9
10
0
20
0
30
0
70
128
71
13
72
9
73
11
0
VERTEX
8
OBJECT__9
10
0
20
0
30
0
70
128
71
8
72
14
73
9
0
VERTEX
8
OBJECT__9
10
0
20
0
30
0
70
128
71
6
72
10
73
7
0
VERTEX
8
OBJECT__9
10
0
20
0
30
0
70
128
71
5
72
3
73
2
0
VERTEX
8
OBJECT__9
10
0
20
0
30
0
70
128
71
3
72
27
73
1
0
SEQEND
8
OBJECT__9
0
POLYLINE
8
OBJECT__11
66
1
70
64
71
17
72
17
62
253
0
VERTEX
8
OBJECT__11
10
20.000000
20
70.497002
30
259.759003
70
192
0
VERTEX
8
OBJECT__11
10
16.791000
20
70.500999
30
256.799011
70
192
0
VERTEX
8
OBJECT__11
10
14.766000
20
70.487000
30
268.283997
70
192
0
VERTEX
8
OBJECT__11
10
-14.142000
20
70.514000
30
245.617004
70
192
0
VERTEX
8
OBJECT__11
10
-20.000000
20
70.497002
30
259.759003
70
192
0
VERTEX
8
OBJECT__11
10
-16.791000
20
70.500999
30
256.799011
70
192
0
VERTEX
8
OBJECT__11
10
-14.142000
20
70.481003
30
273.901001
70
192
0
VERTEX
8
OBJECT__11
10
-14.766000
20
70.487000
30
268.283997
70
192
0
VERTEX
8
OBJECT__11
10
14.142000
20
70.481003
30
273.901001
70
192
0
VERTEX
8
OBJECT__11
10
14.142000
20
70.514000
30
245.617004
70
192
0
VERTEX
8
OBJECT__11
10
10.960000
20
70.513000
30
246.697998
70
192
0
VERTEX
8
OBJECT__11
10
0.000000
20
70.521004
30
239.759003
70
192
0
VERTEX
8
OBJECT__11
10
0.000000
20
70.517998
30
242.709000
70
192
0
VERTEX
8
OBJECT__11
10
-10.960000
20
70.513000
30
246.697998
70
192
0
VERTEX
8
OBJECT__11
10
0.000000
20
70.473999
30
279.759003
70
192
0
VERTEX
8
OBJECT__11
10
-5.831000
20
70.477997
30
275.781006
70
192
0
VERTEX
8
OBJECT__11
10
5.831000
20
70.477997
30
275.781006
70
192
0
VERTEX
8
OBJECT__11
10
0
20
0
30
0
70
128
71
1
72
2
73
3
0
VERTEX
8
OBJECT__11
10
0
20
0
30
0
70
128
71
4
72
5
73
6
0
VERTEX
8
OBJECT__11
10
0
20
0
30
0
70
128
71
5
72
7
73
8
0
VERTEX
8
OBJECT__11
10
0
20
0
30
0
70
128
71
3
72
9
73
1
0
VERTEX
8
OBJECT__11
10
0
20
0
30
0
70
128
71
10
72
11
73
2
0
VERTEX
8
OBJECT__11
10
0
20
0
30
0
70
128
71
12
72
13
73
11
0
VERTEX
8
OBJECT__11
10
0
20
0
30
0
70
128
71
12
72
4
73
14
0
VERTEX
8
OBJECT__11
10
0
20
0
30
0
70
128
71
8
72
6
73
5
0
VERTEX
8
OBJECT__11
10
0
20
0
30
0
70
128
71
7
72
15
73
16
0
VERTEX
8
OBJECT__11
10
0
20
0
30
0
70
128
71
2
72
1
73
10
0
VERTEX
8
OBJECT__11
10
0
20
0
30
0
70
128
71
14
72
13
73
12
0
VERTEX
8
OBJECT__11
10
0
20
0
30
0
70
128
71
16
72
8
73
7
0
VERTEX
8
OBJECT__11
10
0
20
0
30
0
70
128
71
11
72
10
73
12
0
VERTEX
8
OBJECT__11
10
0
20
0
30
0
70
128
71
15
72
17
73
16
0
VERTEX
8
OBJECT__11
10
0
20
0
30
0
70
128
71
6
72
14
73
4
0
VERTEX
8
OBJECT__11
10
0
20
0
30
0
70
128
71
3
72
17
73
9
0
VERTEX
8
OBJECT__11
10
0
20
0
30
0
70
128
71
17
72
15
73
9
0
SEQEND
8
OBJECT__11
0
POLYLINE
8
OBJECT__12
66
1
70
64
71
39
72
41
62
253
0
VERTEX
8
OBJECT__12
10
14.142000
20
70.481003
30
273.901001
70
192
0
VERTEX
8
OBJECT__12
10
19.948000
20
49.299000
30
261.182007
70
192
0
VERTEX
8
OBJECT__12
10
19.589001
20
49.957001
30
259.837006
70
192
0
VERTEX
8
OBJECT__12
10
19.808001
20
48.993999
30
262.497009
70
192
0
VERTEX
8
OBJECT__12
10
19.921000
20
49.161999
30
261.511993
70
192
0
VERTEX
8
OBJECT__12
10
14.142000
20
48.980999
30
273.876007
70
192
0
VERTEX
8
OBJECT__12
10
20.000000
20
70.497002
30
259.759003
70
192
0
VERTEX
8
OBJECT__12
10
16.580000
20
55.476002
30
248.557007
70
192
0
VERTEX
8
OBJECT__12
10
13.599000
20
56.570999
30
246.317993
70
192
0
VERTEX
8
OBJECT__12
10
0.000000
20
70.521004
30
239.759003
70
192
0
VERTEX
8
OBJECT__12
10
14.142000
20
70.514000
30
245.617004
70
192
0
VERTEX
8
OBJECT__12
10
6.129000
20
59.314999
30
240.707993
70
192
0
VERTEX
8
OBJECT__12
10
0.024000
20
59.250999
30
240.839005
70
192
0
VERTEX
8
OBJECT__12
10
-6.942000
20
59.178001
30
240.988998
70
192
0
VERTEX
8
OBJECT__12
10
-14.142000
20
70.514000
30
245.617004
70
192
0
VERTEX
8
OBJECT__12
10
-20.000000
20
70.497002
30
259.759003
70
192
0
VERTEX
8
OBJECT__12
10
-13.504000
20
56.543999
30
246.373993
70
192
0
VERTEX
8
OBJECT__12
10
-17.046000
20
55.122002
30
249.279999
70
192
0
VERTEX
8
OBJECT__12
10
-14.142000
20
70.481003
30
273.901001
70
192
0
VERTEX
8
OBJECT__12
10
-19.948000
20
49.299000
30
261.182007
70
192
0
VERTEX
8
OBJECT__12
10
-19.921000
20
49.161999
30
261.511993
70
192
0
VERTEX
8
OBJECT__12
10
-19.808001
20
48.993999
30
262.497009
70
192
0
VERTEX
8
OBJECT__12
10
-19.615999
20
49.964001
30
259.821991
70
192
0
VERTEX
8
OBJECT__12
10
0.000000
20
48.973999
30
279.734009
70
192
0
VERTEX
8
OBJECT__12
10
3.396000
20
56.771999
30
279.451996
70
192
0
VERTEX
8
OBJECT__12
10
4.307000
20
61.026001
30
279.278992
70
192
0
VERTEX
8
OBJECT__12
10
4.049000
20
59.820999
30
279.328003
70
192
0
VERTEX
8
OBJECT__12
10
0.000000
20
70.473999
30
279.759003
70
192
0
VERTEX
8
OBJECT__12
10
1.217000
20
64.056000
30
279.714996
70
192
0
VERTEX
8
OBJECT__12
10
0.004000
20
63.778999
30
279.661011
70
192
0
VERTEX
8
OBJECT__12
10
0.096000
20
63.799999
30
279.665009
70
192
0
VERTEX
8
OBJECT__12
10
-2.974000
20
63.101002
30
279.528015
70
192
0
VERTEX
8
OBJECT__12
10
-14.142000
20
48.980999
30
273.876007
70
192
0
VERTEX
8
OBJECT__12
10
-4.441000
20
58.995998
30
279.246002
70
192
0
VERTEX
8
OBJECT__12
10
-4.217000
20
59.623001
30
279.289001
70
192
0
VERTEX
8
OBJECT__12
10
-0.616000
20
55.265999
30
279.731995
70
192
0
VERTEX
8
OBJECT__12
10
-1.792000
20
55.596001
30
279.661011
70
192
0
VERTEX
8
OBJECT__12
10
-0.004000
20
55.495998
30
279.688995
70
192
0
VERTEX
8
OBJECT__12
10
-0.090000
20
55.463001
30
279.695007
70
192
0
VERTEX
8
OBJECT__12
10
0
20
0
30
0
70
128
71
1
72
2
73
3
0
VERTEX
8
OBJECT__12
10
0
20
0
30
0
70
128
71
1
72
4
73
5
0
VERTEX
8
OBJECT__12
10
0
20
0
30
0
70
128
71
1
72
6
73
4
0
VERTEX
8
OBJECT__12
10
0
20
0
30
0
70
128
71
5
72
2
73
1
0
VERTEX
8
OBJECT__12
10
0
20
0
30
0
70
128
71
7
72
8
73
9
0
VERTEX
8
OBJECT__12
10
0
20
0
30
0
70
128
71
7
72
3
73
8
0
VERTEX
8
OBJECT__12
10
0
20
0
30
0
70
128
71
10
72
11
73
12
0
VERTEX
8
OBJECT__12
10
0
20
0
30
0
70
128
71
11
72
9
73
12
0
VERTEX
8
OBJECT__12
10
0
20
0
30
0
70
128
71
10
72
13
73
14
0
VERTEX
8
OBJECT__12
10
0
20
0
30
0
70
128
71
14
72
15
73
10
0
VERTEX
8
OBJECT__12
10
0
20
0
30
0
70
128
71
16
72
15
73
17
0
VERTEX
8
OBJECT__12
10
0
20
0
30
0
70
128
71
17
72
18
73
16
0
VERTEX
8
OBJECT__12
10
0
20
0
30
0
70
128
71
19
72
20
73
21
0
VERTEX
8
OBJECT__12
10
0
20
0
30
0
70
128
71
21
72
22
73
19
0
VERTEX
8
OBJECT__12
10
0
20
0
30
0
70
128
71
19
72
16
73
23
0
VERTEX
8
OBJECT__12
10
0
20
0
30
0
70
128
71
23
72
20
73
19
0
VERTEX
8
OBJECT__12
10
0
20
0
30
0
70
128
71
24
72
6
73
25
0
VERTEX
8
OBJECT__12
10
0
20
0
30
0
70
128
71
6
72
1
73
26
0
VERTEX
8
OBJECT__12
10
0
20
0
30
0
70
128
71
26
72
27
73
6
0
VERTEX
8
OBJECT__12
10
0
20
0
30
0
70
128
71
27
72
25
73
6
0
VERTEX
8
OBJECT__12
10
0
20
0
30
0
70
128
71
1
72
28
73
29
0
VERTEX
8
OBJECT__12
10
0
20
0
30
0
70
128
71
28
72
30
73
31
0
VERTEX
8
OBJECT__12
10
0
20
0
30
0
70
128
71
31
72
29
73
28
0
VERTEX
8
OBJECT__12
10
0
20
0
30
0
70
128
71
29
72
26
73
1
0
VERTEX
8
OBJECT__12
10
0
20
0
30
0
70
128
71
28
72
19
73
32
0
VERTEX
8
OBJECT__12
10
0
20
0
30
0
70
128
71
19
72
33
73
34
0
VERTEX
8
OBJECT__12
10
0
20
0
30
0
70
128
71
34
72
35
73
19
0
VERTEX
8
OBJECT__12
10
0
20
0
30
0
70
128
71
35
72
32
73
19
0
VERTEX
8
OBJECT__12
10
0
20
0
30
0
70
128
71
24
72
36
73
37
0
VERTEX
8
OBJECT__12
10
0
20
0
30
0
70
128
71
37
72
33
73
24
0
VERTEX
8
OBJECT__12
10
0
20
0
30
0
70
128
71
24
72
38
73
39
0
VERTEX
8
OBJECT__12
10
0
20
0
30
0
70
128
71
39
72
36
73
24
0
VERTEX
8
OBJECT__12
10
0
20
0
30
0
70
128
71
37
72
34
73
33
0
VERTEX
8
OBJECT__12
10
0
20
0
30
0
70
128
71
32
72
30
73
28
0
VERTEX
8
OBJECT__12
10
0
20
0
30
0
70
128
71
25
72
38
73
24
0
VERTEX
8
OBJECT__12
10
0
20
0
30
0
70
128
71
22
72
33
73
19
0
VERTEX
8
OBJECT__12
10
0
20
0
30
0
70
128
71
18
72
23
73
16
0
VERTEX
8
OBJECT__12
10
0
20
0
30
0
70
128
71
14
72
17
73
15
0
VERTEX
8
OBJECT__12
10
0
20
0
30
0
70
128
71
12
72
13
73
10
0
VERTEX
8
OBJECT__12
10
0
20
0
30
0
70
128
71
9
72
11
73
7
0
VERTEX
8
OBJECT__12
10
0
20
0
30
0
70
128
71
3
72
7
73
1
0
SEQEND
8
OBJECT__12
0
POLYLINE
8
OBJECT__14
66
1
70
64
71
6
72
4
62
253
0
VERTEX
8
OBJECT__14
10
19.921000
20
49.161999
30
261.511993
70
192
0
VERTEX
8
OBJECT__14
10
19.808001
20
48.993999
30
262.497009
70
192
0
VERTEX
8
OBJECT__14
10
-19.808001
20
48.993999
30
262.497009
70
192
0
VERTEX
8
OBJECT__14
10
-19.921000
20
49.161999
30
261.511993
70
192
0
VERTEX
8
OBJECT__14
10
-19.948000
20
49.299000
30
261.182007
70
192
0
VERTEX
8
OBJECT__14
10
19.948000
20
49.299000
30
261.182007
70
192
0
VERTEX
8
OBJECT__14
10
0
20
0
30
0
70
128
71
1
72
2
73
3
0
VERTEX
8
OBJECT__14
10
0
20
0
30
0
70
128
71
3
72
4
73
1
0
VERTEX
8
OBJECT__14
10
0
20
0
30
0
70
128
71
5
72
6
73
1
0
VERTEX
8
OBJECT__14
10
0
20
0
30
0
70
128
71
4
72
5
73
1
0
SEQEND
8
OBJECT__14
0
POLYLINE
8
OBJECT__15
66
1
70
64
71
11
72
9
62
253
0
VERTEX
8
OBJECT__15
10
-13.504000
20
56.543999
30
246.373993
70
192
0
VERTEX
8
OBJECT__15
10
-6.942000
20
59.178001
30
240.988998
70
192
0
VERTEX
8
OBJECT__15
10
0.024000
20
59.250999
30
240.839005
70
192
0
VERTEX
8
OBJECT__15
10
13.599000
20
56.570999
30
246.317993
70
192
0
VERTEX
8
OBJECT__15
10
-19.615999
20
49.964001
30
259.821991
70
192
0
VERTEX
8
OBJECT__15
10
-17.046000
20
55.122002
30
249.279999
70
192
0
VERTEX
8
OBJECT__15
10
16.580000
20
55.476002
30
248.557007
70
192
0
VERTEX
8
OBJECT__15
10
6.129000
20
59.314999
30
240.707993
70
192
0
VERTEX
8
OBJECT__15
10
19.589001
20
49.957001
30
259.837006
70
192
0
VERTEX
8
OBJECT__15
10
-19.948000
20
49.299000
30
261.182007
70
192
0
VERTEX
8
OBJECT__15
10
19.948000
20
49.299000
30
261.182007
70
192
0
VERTEX
8
OBJECT__15
10
0
20
0
30
0
70
128
71
1
72
2
73
3
0
VERTEX
8
OBJECT__15
10
0
20
0
30
0
70
128
71
3
72
4
73
1
0
VERTEX
8
OBJECT__15
10
0
20
0
30
0
70
128
71
4
72
5
73
6
0
VERTEX
8
OBJECT__15
10
0
20
0
30
0
70
128
71
5
72
4
73
7
0
VERTEX
8
OBJECT__15
10
0
20
0
30
0
70
128
71
6
72
1
73
4
0
VERTEX
8
OBJECT__15
10
0
20
0
30
0
70
128
71
3
72
8
73
4
0
VERTEX
8
OBJECT__15
10
0
20
0
30
0
70
128
71
9
72
10
73
5
0
VERTEX
8
OBJECT__15
10
0
20
0
30
0
70
128
71
7
72
9
73
5
0
VERTEX
8
OBJECT__15
10
0
20
0
30
0
70
128
71
9
72
11
73
10
0
SEQEND
8
OBJECT__15
0
POLYLINE
8
OBJECT__16
66
1
70
64
71
5
72
3
62
253
0
VERTEX
8
OBJECT__16
10
14.142000
20
48.980999
30
273.876007
70
192
0
VERTEX
8
OBJECT__16
10
0.000000
20
48.973999
30
279.734009
70
192
0
VERTEX
8
OBJECT__16
10
-14.142000
20
48.980999
30
273.876007
70
192
0
VERTEX
8
OBJECT__16
10
-19.808001
20
48.993999
30
262.497009
70
192
0
VERTEX
8
OBJECT__16
10
19.808001
20
48.993999
30
262.497009
70
192
0
VERTEX
8
OBJECT__16
10
0
20
0
30
0
70
128
71
1
72
2
73
3
0
VERTEX
8
OBJECT__16
10
0
20
0
30
0
70
128
71
4
72
5
73
1
0
VERTEX
8
OBJECT__16
10
0
20
0
30
0
70
128
71
3
72
4
73
1
0
SEQEND
8
OBJECT__16
0
POLYLINE
8
OBJECT__17
66
1
70
64
71
17
72
17
62
253
0
VERTEX
8
OBJECT__17
10
4.500000
20
59.659000
30
333.746002
70
192
0
VERTEX
8
OBJECT__17
10
-0.004000
20
55.495998
30
279.688995
70
192
0
VERTEX
8
OBJECT__17
10
3.396000
20
56.771999
30
279.451996
70
192
0
VERTEX
8
OBJECT__17
10
0.000000
20
55.159000
30
333.740997
70
192
0
VERTEX
8
OBJECT__17
10
-0.090000
20
55.463001
30
279.695007
70
192
0
VERTEX
8
OBJECT__17
10
4.307000
20
61.026001
30
279.278992
70
192
0
VERTEX
8
OBJECT__17
10
1.217000
20
64.056000
30
279.714996
70
192
0
VERTEX
8
OBJECT__17
10
4.049000
20
59.820999
30
279.328003
70
192
0
VERTEX
8
OBJECT__17
10
0.000000
20
64.158997
30
333.752014
70
192
0
VERTEX
8
OBJECT__17
10
0.096000
20
63.799999
30
279.665009
70
192
0
VERTEX
8
OBJECT__17
10
0.004000
20
63.778999
30
279.661011
70
192
0
VERTEX
8
OBJECT__17
10
-4.500000
20
59.659000
30
333.746002
70
192
0
VERTEX
8
OBJECT__17
10
-2.974000
20
63.101002
30
279.528015
70
192
0
VERTEX
8
OBJECT__17
10
-1.792000
20
55.596001
30
279.661011
70
192
0
VERTEX
8
OBJECT__17
10
-0.616000
20
55.265999
30
279.731995
70
192
0
VERTEX
8
OBJECT__17
10
-4.217000
20
59.623001
30
279.289001
70
192
0
VERTEX
8
OBJECT__17
10
-4.441000
20
58.995998
30
279.246002
70
192
0
VERTEX
8
OBJECT__17
10
0
20
0
30
0
70
128
71
1
72
2
73
3
0
VERTEX
8
OBJECT__17
10
0
20
0
30
0
70
128
71
1
72
4
73
5
0
VERTEX
8
OBJECT__17
10
0
20
0
30
0
70
128
71
5
72
2
73
1
0
VERTEX
8
OBJECT__17
10
0
20
0
30
0
70
128
71
1
72
6
73
7
0
VERTEX
8
OBJECT__17
10
0
20
0
30
0
70
128
71
1
72
8
73
6
0
VERTEX
8
OBJECT__17
10
0
20
0
30
0
70
128
71
7
72
9
73
1
0
VERTEX
8
OBJECT__17
10
0
20
0
30
0
70
128
71
9
72
10
73
11
0
VERTEX
8
OBJECT__17
10
0
20
0
30
0
70
128
71
11
72
12
73
9
0
VERTEX
8
OBJECT__17
10
0
20
0
30
0
70
128
71
11
72
13
73
12
0
VERTEX
8
OBJECT__17
10
0
20
0
30
0
70
128
71
12
72
14
73
15
0
VERTEX
8
OBJECT__17
10
0
20
0
30
0
70
128
71
12
72
16
73
17
0
VERTEX
8
OBJECT__17
10
0
20
0
30
0
70
128
71
17
72
14
73
12
0
VERTEX
8
OBJECT__17
10
0
20
0
30
0
70
128
71
15
72
4
73
12
0
VERTEX
8
OBJECT__17
10
0
20
0
30
0
70
128
71
15
72
5
73
4
0
VERTEX
8
OBJECT__17
10
0
20
0
30
0
70
128
71
13
72
16
73
12
0
VERTEX
8
OBJECT__17
10
0
20
0
30
0
70
128
71
7
72
10
73
9
0
VERTEX
8
OBJECT__17
10
0
20
0
30
0
70
128
71
3
72
8
73
1
0
SEQEND
8
OBJECT__17
0
POLYLINE
8
OBJECT__18
66
1
70
64
71
4
72
2
62
253
0
VERTEX
8
OBJECT__18
10
4.500000
20
59.659000
30
333.746002
70
192
0
VERTEX
8
OBJECT__18
10
0.000000
20
64.158997
30
333.752014
70
192
0
VERTEX
8
OBJECT__18
10
-4.500000
20
59.659000
30
333.746002
70
192
0
VERTEX
8
OBJECT__18
10
0.000000
20
55.159000
30
333.740997
70
192
0
VERTEX
8
OBJECT__18
10
0
20
0
30
0
70
128
71
1
72
2
73
3
0
VERTEX
8
OBJECT__18
10
0
20
0
30
0
70
128
71
3
72
4
73
1
0
SEQEND
8
OBJECT__18
0
POLYLINE
8
OBJECT__19
66
1
70
64
71
12
72
12
62
253
0
VERTEX
8
OBJECT__19
10
144.942001
20
-8.877000
30
401.231995
70
192
0
VERTEX
8
OBJECT__19
10
144.768997
20
-8.877000
30
402.217010
70
192
0
VERTEX
8
OBJECT__19
10
139.720993
20
0.000000
30
401.326996
70
192
0
VERTEX
8
OBJECT__19
10
155.035995
20
-8.877000
30
403.011993
70
192
0
VERTEX
8
OBJECT__19
10
154.863007
20
-8.877000
30
403.997009
70
192
0
VERTEX
8
OBJECT__19
10
160.084000
20
0.000000
30
403.902008
70
192
0
VERTEX
8
OBJECT__19
10
159.910004
20
0.000000
30
404.886993
70
192
0
VERTEX
8
OBJECT__19
10
154.863007
20
8.877000
30
403.997009
70
192
0
VERTEX
8
OBJECT__19
10
144.768997
20
8.877000
30
402.217010
70
192
0
VERTEX
8
OBJECT__19
10
155.035995
20
8.877000
30
403.011993
70
192
0
VERTEX
8
OBJECT__19
10
144.942001
20
8.877000
30
401.231995
70
192
0
VERTEX
8
OBJECT__19
10
139.895004
20
0.000000
30
400.342010
70
192
0
VERTEX
8
OBJECT__19
10
0
20
0
30
0
70
128
71
1
72
2
73
3
0
VERTEX
8
OBJECT__19
10
0
20
0
30
0
70
128
71
4
72
5
73
2
0
VERTEX
8
OBJECT__19
10
0
20
0
30
0
70
128
71
6
72
7
73
5
0
VERTEX
8
OBJECT__19
10
0
20
0
30
0
70
128
71
8
72
7
73
6
0
VERTEX
8
OBJECT__19
10
0
20
0
30
0
70
128
71
9
72
8
73
10
0
VERTEX
8
OBJECT__19
10
0
20
0
30
0
70
128
71
3
72
9
73
11
0
VERTEX
8
OBJECT__19
10
0
20
0
30
0
70
128
71
11
72
12
73
3
0
VERTEX
8
OBJECT__19
10
0
20
0
30
0
70
128
71
10
72
11
73
9
0
VERTEX
8
OBJECT__19
10
0
20
0
30
0
70
128
71
6
72
10
73
8
0
VERTEX
8
OBJECT__19
10
0
20
0
30
0
70
128
71
5
72
4
73
6
0
VERTEX
8
OBJECT__19
10
0
20
0
30
0
70
128
71
2
72
1
73
4
0
VERTEX
8
OBJECT__19
10
0
20
0
30
0
70
128
71
3
72
12
73
1
0
SEQEND
8
OBJECT__19
0
POLYLINE
8
OBJECT__20
66
1
70
64
71
12
72
12
62
253
0
VERTEX
8
OBJECT__20
10
144.153000
20
9.959000
30
402.109009
70
192
0
VERTEX
8
OBJECT__20
10
155.477997
20
9.959000
30
404.105988
70
192
0
VERTEX
8
OBJECT__20
10
154.863007
20
8.877000
30
403.997009
70
192
0
VERTEX
8
OBJECT__20
10
161.141006
20
0.000000
30
405.104004
70
192
0
VERTEX
8
OBJECT__20
10
159.910004
20
0.000000
30
404.886993
70
192
0
VERTEX
8
OBJECT__20
10
155.477997
20
-9.959000
30
404.105988
70
192
0
VERTEX
8
OBJECT__20
10
154.863007
20
-8.877000
30
403.997009
70
192
0
VERTEX
8
OBJECT__20
10
144.153000
20
-9.959000
30
402.109009
70
192
0
VERTEX
8
OBJECT__20
10
144.768997
20
-8.877000
30
402.217010
70
192
0
VERTEX
8
OBJECT__20
10
138.490005
20
0.000000
30
401.109985
70
192
0
VERTEX
8
OBJECT__20
10
139.720993
20
0.000000
30
401.326996
70
192
0
VERTEX
8
OBJECT__20
10
144.768997
20
8.877000
30
402.217010
70
192
0
VERTEX
8
OBJECT__20
10
0
20
0
30
0
70
128
71
1
72
2
73
3
0
VERTEX
8
OBJECT__20
10
0
20
0
30
0
70
128
71
2
72
4
73
5
0
VERTEX
8
OBJECT__20
10
0
20
0
30
0
70
128
71
6
72
7
73
5
0
VERTEX
8
OBJECT__20
10
0
20
0
30
0
70
128
71
8
72
9
73
7
0
VERTEX
8
OBJECT__20
10
0
20
0
30
0
70
128
71
5
72
3
73
2
0
VERTEX
8
OBJECT__20
10
0
20
0
30
0
70
128
71
7
72
6
73
8
0
VERTEX
8
OBJECT__20
10
0
20
0
30
0
70
128
71
10
72
11
73
9
0
VERTEX
8
OBJECT__20
10
0
20
0
30
0
70
128
71
3
72
12
73
1
0
VERTEX
8
OBJECT__20
10
0
20
0
30
0
70
128
71
9
72
8
73
10
0
VERTEX
8
OBJECT__20
10
0
20
0
30
0
70
128
71
5
72
4
73
6
0
VERTEX
8
OBJECT__20
10
0
20
0
30
0
70
128
71
12
72
11
73
1
0
VERTEX
8
OBJECT__20
10
0
20
0
30
0
70
128
71
11
72
10
73
1
0
SEQEND
8
OBJECT__20
0
POLYLINE
8
OBJECT__22
66
1
70
64
71
18
72
18
62
253
0
VERTEX
8
OBJECT__22
10
161.141006
20
0.000000
30
405.104004
70
192
0
VERTEX
8
OBJECT__22
10
160.186005
20
0.000000
30
410.520996
70
192
0
VERTEX
8
OBJECT__22
10
156.869003
20
-8.132000
30
409.936005
70
192
0
VERTEX
8
OBJECT__22
10
155.477997
20
-9.959000
30
404.105988
70
192
0
VERTEX
8
OBJECT__22
10
144.153000
20
-9.959000
30
402.109009
70
192
0
VERTEX
8
OBJECT__22
10
148.860992
20
-11.500000
30
408.523987
70
192
0
VERTEX
8
OBJECT__22
10
154.229996
20
-9.241000
30
409.470001
70
192
0
VERTEX
8
OBJECT__22
10
138.490005
20
0.000000
30
401.109985
70
192
0
VERTEX
8
OBJECT__22
10
140.852005
20
-8.132000
30
407.112000
70
192
0
VERTEX
8
OBJECT__22
10
143.490997
20
-9.241000
30
407.576996
70
192
0
VERTEX
8
OBJECT__22
10
137.535004
20
0.000000
30
406.527008
70
192
0
VERTEX
8
OBJECT__22
10
140.852005
20
8.132000
30
407.112000
70
192
0
VERTEX
8
OBJECT__22
10
144.153000
20
9.959000
30
402.109009
70
192
0
VERTEX
8
OBJECT__22
10
143.490997
20
9.241000
30
407.576996
70
192
0
VERTEX
8
OBJECT__22
10
148.860992
20
11.500000
30
408.523987
70
192
0
VERTEX
8
OBJECT__22
10
155.477997
20
9.959000
30
404.105988
70
192
0
VERTEX
8
OBJECT__22
10
156.869003
20
8.132000
30
409.936005
70
192
0
VERTEX
8
OBJECT__22
10
154.229996
20
9.241000
30
409.470001
70
192
0
VERTEX
8
OBJECT__22
10
0
20
0
30
0
70
128
71
1
72
2
73
3
0
VERTEX
8
OBJECT__22
10
0
20
0
30
0
70
128
71
3
72
4
73
1
0
VERTEX
8
OBJECT__22
10
0
20
0
30
0
70
128
71
5
72
4
73
6
0
VERTEX
8
OBJECT__22
10
0
20
0
30
0
70
128
71
4
72
7
73
6
0
VERTEX
8
OBJECT__22
10
0
20
0
30
0
70
128
71
8
72
5
73
9
0
VERTEX
8
OBJECT__22
10
0
20
0
30
0
70
128
71
5
72
10
73
9
0
VERTEX
8
OBJECT__22
10
0
20
0
30
0
70
128
71
8
72
11
73
12
0
VERTEX
8
OBJECT__22
10
0
20
0
30
0
70
128
71
12
72
13
73
8
0
VERTEX
8
OBJECT__22
10
0
20
0
30
0
70
128
71
13
72
14
73
15
0
VERTEX
8
OBJECT__22
10
0
20
0
30
0
70
128
71
15
72
16
73
13
0
VERTEX
8
OBJECT__22
10
0
20
0
30
0
70
128
71
1
72
16
73
17
0
VERTEX
8
OBJECT__22
10
0
20
0
30
0
70
128
71
16
72
18
73
17
0
VERTEX
8
OBJECT__22
10
0
20
0
30
0
70
128
71
17
72
2
73
1
0
VERTEX
8
OBJECT__22
10
0
20
0
30
0
70
128
71
15
72
18
73
16
0
VERTEX
8
OBJECT__22
10
0
20
0
30
0
70
128
71
12
72
14
73
13
0
VERTEX
8
OBJECT__22
10
0
20
0
30
0
70
128
71
9
72
11
73
8
0
VERTEX
8
OBJECT__22
10
0
20
0
30
0
70
128
71
6
72
10
73
5
0
VERTEX
8
OBJECT__22
10
0
20
0
30
0
70
128
71
3
72
7
73
4
0
SEQEND
8
OBJECT__22
0
POLYLINE
8
OBJECT__23
66
1
70
64
71
104
72
184
62
253
0
VERTEX
8
OBJECT__23
10
13.796000
20
0.000000
30
412.420990
70
192
0
VERTEX
8
OBJECT__23
10
10.550000
20
-8.132000
30
413.319000
70
192
0
VERTEX
8
OBJECT__23
10
9.241000
20
-5.453000
30
395.500000
70
192
0
VERTEX
8
OBJECT__23
10
8.132000
20
-8.132000
30
395.500000
70
192
0
VERTEX
8
OBJECT__23
10
20.518000
20
0.000000
30
428.118988
70
192
0
VERTEX
8
OBJECT__23
10
17.628000
20
-8.132000
30
429.848999
70
192
0
VERTEX
8
OBJECT__23
10
31.180000
20
0.000000
30
441.457001
70
192
0
VERTEX
8
OBJECT__23
10
28.856001
20
-8.132000
30
443.894989
70
192
0
VERTEX
8
OBJECT__23
10
45.011002
20
0.000000
30
451.471985
70
192
0
VERTEX
8
OBJECT__23
10
43.419998
20
-8.132000
30
454.441010
70
192
0
VERTEX
8
OBJECT__23
10
61.009998
20
0.000000
30
457.440002
70
192
0
VERTEX
8
OBJECT__23
10
60.268002
20
-8.132000
30
460.725006
70
192
0
VERTEX
8
OBJECT__23
10
78.021004
20
0.000000
30
458.928009
70
192
0
VERTEX
8
OBJECT__23
10
78.181999
20
-8.132000
30
462.292999
70
192
0
VERTEX
8
OBJECT__23
10
94.814003
20
0.000000
30
455.829987
70
192
0
VERTEX
8
OBJECT__23
10
95.864998
20
-8.132000
30
459.029999
70
192
0
VERTEX
8
OBJECT__23
10
110.174004
20
0.000000
30
448.368011
70
192
0
VERTEX
8
OBJECT__23
10
112.040001
20
-8.132000
30
451.173004
70
192
0
VERTEX
8
OBJECT__23
10
122.989998
20
0.000000
30
437.084015
70
192
0
VERTEX
8
OBJECT__23
10
125.536003
20
-8.132000
30
439.289001
70
192
0
VERTEX
8
OBJECT__23
10
132.335999
20
0.000000
30
422.791992
70
192
0
VERTEX
8
OBJECT__23
10
135.376999
20
-8.132000
30
424.239990
70
192
0
VERTEX
8
OBJECT__23
10
137.535004
20
0.000000
30
406.527008
70
192
0
VERTEX
8
OBJECT__23
10
0.000000
20
-11.500000
30
395.500000
70
192
0
VERTEX
8
OBJECT__23
10
10.651000
20
-11.500000
30
434.026001
70
192
0
VERTEX
8
OBJECT__23
10
23.243999
20
-11.500000
30
449.779999
70
192
0
VERTEX
8
OBJECT__23
10
39.580002
20
-11.500000
30
461.609009
70
192
0
VERTEX
8
OBJECT__23
10
58.477001
20
-11.500000
30
468.657013
70
192
0
VERTEX
8
OBJECT__23
10
78.569000
20
-11.500000
30
470.415009
70
192
0
VERTEX
8
OBJECT__23
10
98.403000
20
-11.500000
30
466.755005
70
192
0
VERTEX
8
OBJECT__23
10
116.543999
20
-11.500000
30
457.942993
70
192
0
VERTEX
8
OBJECT__23
10
131.681000
20
-11.500000
30
444.614990
70
192
0
VERTEX
8
OBJECT__23
10
142.718994
20
-11.500000
30
427.734985
70
192
0
VERTEX
8
OBJECT__23
10
140.852005
20
-8.132000
30
407.112000
70
192
0
VERTEX
8
OBJECT__23
10
143.490997
20
-9.241000
30
407.576996
70
192
0
VERTEX
8
OBJECT__23
10
-5.126000
20
-8.132000
30
417.652008
70
192
0
VERTEX
8
OBJECT__23
10
-8.132000
20
-8.132000
30
395.500000
70
192
0
VERTEX
8
OBJECT__23
10
2.712000
20
-11.500000
30
415.485992
70
192
0
VERTEX
8
OBJECT__23
10
3.674000
20
-8.132000
30
438.203003
70
192
0
VERTEX
8
OBJECT__23
10
17.632999
20
-8.132000
30
455.665009
70
192
0
VERTEX
8
OBJECT__23
10
35.738998
20
-8.132000
30
468.777008
70
192
0
VERTEX
8
OBJECT__23
10
56.685001
20
-8.132000
30
476.588989
70
192
0
VERTEX
8
OBJECT__23
10
78.956001
20
-8.132000
30
478.537994
70
192
0
VERTEX
8
OBJECT__23
10
100.940002
20
-8.132000
30
474.480988
70
192
0
VERTEX
8
OBJECT__23
10
121.047997
20
-8.132000
30
464.713013
70
192
0
VERTEX
8
OBJECT__23
10
137.826996
20
-8.132000
30
449.940002
70
192
0
VERTEX
8
OBJECT__23
10
150.061996
20
-8.132000
30
431.230011
70
192
0
VERTEX
8
OBJECT__23
10
154.229996
20
-9.241000
30
409.470001
70
192
0
VERTEX
8
OBJECT__23
10
148.860992
20
-11.500000
30
408.523987
70
192
0
VERTEX
8
OBJECT__23
10
-8.372000
20
0.000000
30
418.549988
70
192
0
VERTEX
8
OBJECT__23
10
-11.500000
20
0.000000
30
395.500000
70
192
0
VERTEX
8
OBJECT__23
10
-9.241000
20
-5.453000
30
395.500000
70
192
0
VERTEX
8
OBJECT__23
10
0.784000
20
0.000000
30
439.933014
70
192
0
VERTEX
8
OBJECT__23
10
15.308000
20
0.000000
30
458.102997
70
192
0
VERTEX
8
OBJECT__23
10
34.148998
20
0.000000
30
471.746002
70
192
0
VERTEX
8
OBJECT__23
10
55.943001
20
0.000000
30
479.875000
70
192
0
VERTEX
8
OBJECT__23
10
79.115997
20
0.000000
30
481.902008
70
192
0
VERTEX
8
OBJECT__23
10
101.990997
20
0.000000
30
477.681000
70
192
0
VERTEX
8
OBJECT__23
10
122.914001
20
0.000000
30
467.516998
70
192
0
VERTEX
8
OBJECT__23
10
140.371994
20
0.000000
30
452.144989
70
192
0
VERTEX
8
OBJECT__23
10
153.102997
20
0.000000
30
432.677002
70
192
0
VERTEX
8
OBJECT__23
10
156.869003
20
-8.132000
30
409.936005
70
192
0
VERTEX
8
OBJECT__23
10
-5.126000
20
8.132000
30
417.652008
70
192
0
VERTEX
8
OBJECT__23
10
-9.241000
20
5.453000
30
395.500000
70
192
0
VERTEX
8
OBJECT__23
10
-8.132000
20
8.132000
30
395.500000
70
192
0
VERTEX
8
OBJECT__23
10
3.674000
20
8.132000
30
438.203003
70
192
0
VERTEX
8
OBJECT__23
10
17.632999
20
8.132000
30
455.665009
70
192
0
VERTEX
8
OBJECT__23
10
35.738998
20
8.132000
30
468.777008
70
192
0
VERTEX
8
OBJECT__23
10
56.685001
20
8.132000
30
476.588989
70
192
0
VERTEX
8
OBJECT__23
10
78.956001
20
8.132000
30
478.537994
70
192
0
VERTEX
8
OBJECT__23
10
100.940002
20
8.132000
30
474.480988
70
192
0
VERTEX
8
OBJECT__23
10
121.047997
20
8.132000
30
464.713013
70
192
0
VERTEX
8
OBJECT__23
10
137.826996
20
8.132000
30
449.940002
70
192
0
VERTEX
8
OBJECT__23
10
150.061996
20
8.132000
30
431.230011
70
192
0
VERTEX
8
OBJECT__23
10
160.186005
20
0.000000
30
410.520996
70
192
0
VERTEX
8
OBJECT__23
10
156.869003
20
8.132000
30
409.936005
70
192
0
VERTEX
8
OBJECT__23
10
2.712000
20
11.500000
30
415.485992
70
192
0
VERTEX
8
OBJECT__23
10
0.000000
20
11.500000
30
395.500000
70
192
0
VERTEX
8
OBJECT__23
10
10.651000
20
11.500000
30
434.026001
70
192
0
VERTEX
8
OBJECT__23
10
23.243999
20
11.500000
30
449.779999
70
192
0
VERTEX
8
OBJECT__23
10
39.580002
20
11.500000
30
461.609009
70
192
0
VERTEX
8
OBJECT__23
10
58.477001
20
11.500000
30
468.657013
70
192
0
VERTEX
8
OBJECT__23
10
78.569000
20
11.500000
30
470.415009
70
192
0
VERTEX
8
OBJECT__23
10
98.403000
20
11.500000
30
466.755005
70
192
0
VERTEX
8
OBJECT__23
10
116.543999
20
11.500000
30
457.942993
70
192
0
VERTEX
8
OBJECT__23
10
131.681000
20
11.500000
30
444.614990
70
192
0
VERTEX
8
OBJECT__23
10
142.718994
20
11.500000
30
427.734985
70
192
0
VERTEX
8
OBJECT__23
10
154.229996
20
9.241000
30
409.470001
70
192
0
VERTEX
8
OBJECT__23
10
148.860992
20
11.500000
30
408.523987
70
192
0
VERTEX
8
OBJECT__23
10
10.550000
20
8.132000
30
413.319000
70
192
0
VERTEX
8
OBJECT__23
10
17.628000
20
8.132000
30
429.848999
70
192
0
VERTEX
8
OBJECT__23
10
28.856001
20
8.132000
30
443.894989
70
192
0
VERTEX
8
OBJECT__23
10
43.419998
20
8.132000
30
454.441010
70
192
0
VERTEX
8
OBJECT__23
10
60.268002
20
8.132000
30
460.725006
70
192
0
VERTEX
8
OBJECT__23
10
78.181999
20
8.132000
30
462.292999
70
192
0
VERTEX
8
OBJECT__23
10
95.864998
20
8.132000
30
459.029999
70
192
0
VERTEX
8
OBJECT__23
10
112.040001
20
8.132000
30
451.173004
70
192
0
VERTEX
8
OBJECT__23
10
125.536003
20
8.132000
30
439.289001
70
192
0
VERTEX
8
OBJECT__23
10
135.376999
20
8.132000
30
424.239990
70
192
0
VERTEX
8
OBJECT__23
10
143.490997
20
9.241000
30
407.576996
70
192
0
VERTEX
8
OBJECT__23
10
11.500000
20
0.000000
30
395.500000
70
192
0
VERTEX
8
OBJECT__23
10
9.241000
20
5.453000
30
395.500000
70
192
0
VERTEX
8
OBJECT__23
10
140.852005
20
8.132000
30
407.112000
70
192
0
VERTEX
8
OBJECT__23
10
8.132000
20
8.132000
30
395.500000
70
192
0
VERTEX
8
OBJECT__23
10
0
20
0
30
0
70
128
71
1
72
2
73
3
0
VERTEX
8
OBJECT__23
10
0
20
0
30
0
70
128
71
2
72
4
73
3
0
VERTEX
8
OBJECT__23
10
0
20
0
30
0
70
128
71
1
72
5
73
6
0
VERTEX
8
OBJECT__23
10
0
20
0
30
0
70
128
71
5
72
7
73
8
0
VERTEX
8
OBJECT__23
10
0
20
0
30
0
70
128
71
7
72
9
73
10
0
VERTEX
8
OBJECT__23
10
0
20
0
30
0
70
128
71
9
72
11
73
12
0
VERTEX
8
OBJECT__23
10
0
20
0
30
0
70
128
71
11
72
13
73
14
0
VERTEX
8
OBJECT__23
10
0
20
0
30
0
70
128
71
13
72
15
73
16
0
VERTEX
8
OBJECT__23
10
0
20
0
30
0
70
128
71
15
72
17
73
18
0
VERTEX
8
OBJECT__23
10
0
20
0
30
0
70
128
71
17
72
19
73
20
0
VERTEX
8
OBJECT__23
10
0
20
0
30
0
70
128
71
19
72
21
73
22
0
VERTEX
8
OBJECT__23
10
0
20
0
30
0
70
128
71
22
72
21
73
23
0
VERTEX
8
OBJECT__23
10
0
20
0
30
0
70
128
71
24
72
4
73
2
0
VERTEX
8
OBJECT__23
10
0
20
0
30
0
70
128
71
2
72
6
73
25
0
VERTEX
8
OBJECT__23
10
0
20
0
30
0
70
128
71
6
72
8
73
26
0
VERTEX
8
OBJECT__23
10
0
20
0
30
0
70
128
71
8
72
10
73
27
0
VERTEX
8
OBJECT__23
10
0
20
0
30
0
70
128
71
10
72
12
73
28
0
VERTEX
8
OBJECT__23
10
0
20
0
30
0
70
128
71
12
72
14
73
29
0
VERTEX
8
OBJECT__23
10
0
20
0
30
0
70
128
71
14
72
16
73
30
0
VERTEX
8
OBJECT__23
10
0
20
0
30
0
70
128
71
16
72
18
73
31
0
VERTEX
8
OBJECT__23
10
0
20
0
30
0
70
128
71
18
72
20
73
32
0
VERTEX
8
OBJECT__23
10
0
20
0
30
0
70
128
71
20
72
22
73
33
0
VERTEX
8
OBJECT__23
10
0
20
0
30
0
70
128
71
22
72
34
73
35
0
VERTEX
8
OBJECT__23
10
0
20
0
30
0
70
128
71
35
72
33
73
22
0
VERTEX
8
OBJECT__23
10
0
20
0
30
0
70
128
71
36
72
37
73
24
0
VERTEX
8
OBJECT__23
10
0
20
0
30
0
70
128
71
38
72
25
73
39
0
VERTEX
8
OBJECT__23
10
0
20
0
30
0
70
128
71
25
72
26
73
40
0
VERTEX
8
OBJECT__23
10
0
20
0
30
0
70
128
71
26
72
27
73
41
0
VERTEX
8
OBJECT__23
10
0
20
0
30
0
70
128
71
27
72
28
73
42
0
VERTEX
8
OBJECT__23
10
0
20
0
30
0
70
128
71
28
72
29
73
43
0
VERTEX
8
OBJECT__23
10
0
20
0
30
0
70
128
71
29
72
30
73
44
0
VERTEX
8
OBJECT__23
10
0
20
0
30
0
70
128
71
30
72
31
73
45
0
VERTEX
8
OBJECT__23
10
0
20
0
30
0
70
128
71
31
72
32
73
46
0
VERTEX
8
OBJECT__23
10
0
20
0
30
0
70
128
71
32
72
33
73
47
0
VERTEX
8
OBJECT__23
10
0
20
0
30
0
70
128
71
48
72
47
73
33
0
VERTEX
8
OBJECT__23
10
0
20
0
30
0
70
128
71
33
72
49
73
48
0
VERTEX
8
OBJECT__23
10
0
20
0
30
0
70
128
71
50
72
51
73
52
0
VERTEX
8
OBJECT__23
10
0
20
0
30
0
70
128
71
52
72
36
73
50
0
VERTEX
8
OBJECT__23
10
0
20
0
30
0
70
128
71
36
72
39
73
53
0
VERTEX
8
OBJECT__23
10
0
20
0
30
0
70
128
71
39
72
40
73
54
0
VERTEX
8
OBJECT__23
10
0
20
0
30
0
70
128
71
40
72
41
73
55
0
VERTEX
8
OBJECT__23
10
0
20
0
30
0
70
128
71
41
72
42
73
56
0
VERTEX
8
OBJECT__23
10
0
20
0
30
0
70
128
71
42
72
43
73
57
0
VERTEX
8
OBJECT__23
10
0
20
0
30
0
70
128
71
43
72
44
73
58
0
VERTEX
8
OBJECT__23
10
0
20
0
30
0
70
128
71
44
72
45
73
59
0
VERTEX
8
OBJECT__23
10
0
20
0
30
0
70
128
71
45
72
46
73
60
0
VERTEX
8
OBJECT__23
10
0
20
0
30
0
70
128
71
46
72
47
73
61
0
VERTEX
8
OBJECT__23
10
0
20
0
30
0
70
128
71
61
72
47
73
62
0
VERTEX
8
OBJECT__23
10
0
20
0
30
0
70
128
71
50
72
63
73
64
0
VERTEX
8
OBJECT__23
10
0
20
0
30
0
70
128
71
63
72
65
73
64
0
VERTEX
8
OBJECT__23
10
0
20
0
30
0
70
128
71
50
72
53
73
66
0
VERTEX
8
OBJECT__23
10
0
20
0
30
0
70
128
71
53
72
54
73
67
0
VERTEX
8
OBJECT__23
10
0
20
0
30
0
70
128
71
54
72
55
73
68
0
VERTEX
8
OBJECT__23
10
0
20
0
30
0
70
128
71
55
72
56
73
69
0
VERTEX
8
OBJECT__23
10
0
20
0
30
0
70
128
71
56
72
57
73
70
0
VERTEX
8
OBJECT__23
10
0
20
0
30
0
70
128
71
57
72
58
73
71
0
VERTEX
8
OBJECT__23
10
0
20
0
30
0
70
128
71
58
72
59
73
72
0
VERTEX
8
OBJECT__23
10
0
20
0
30
0
70
128
71
59
72
60
73
73
0
VERTEX
8
OBJECT__23
10
0
20
0
30
0
70
128
71
60
72
61
73
74
0
VERTEX
8
OBJECT__23
10
0
20
0
30
0
70
128
71
61
72
75
73
76
0
VERTEX
8
OBJECT__23
10
0
20
0
30
0
70
128
71
63
72
77
73
78
0
VERTEX
8
OBJECT__23
10
0
20
0
30
0
70
128
71
63
72
66
73
79
0
VERTEX
8
OBJECT__23
10
0
20
0
30
0
70
128
71
66
72
67
73
80
0
VERTEX
8
OBJECT__23
10
0
20
0
30
0
70
128
71
67
72
68
73
81
0
VERTEX
8
OBJECT__23
10
0
20
0
30
0
70
128
71
68
72
69
73
82
0
VERTEX
8
OBJECT__23
10
0
20
0
30
0
70
128
71
69
72
70
73
83
0
VERTEX
8
OBJECT__23
10
0
20
0
30
0
70
128
71
70
72
71
73
84
0
VERTEX
8
OBJECT__23
10
0
20
0
30
0
70
128
71
71
72
72
73
85
0
VERTEX
8
OBJECT__23
10
0
20
0
30
0
70
128
71
72
72
73
73
86
0
VERTEX
8
OBJECT__23
10
0
20
0
30
0
70
128
71
73
72
74
73
87
0
VERTEX
8
OBJECT__23
10
0
20
0
30
0
70
128
71
88
72
89
73
87
0
VERTEX
8
OBJECT__23
10
0
20
0
30
0
70
128
71
74
72
76
73
88
0
VERTEX
8
OBJECT__23
10
0
20
0
30
0
70
128
71
78
72
77
73
90
0
VERTEX
8
OBJECT__23
10
0
20
0
30
0
70
128
71
77
72
79
73
91
0
VERTEX
8
OBJECT__23
10
0
20
0
30
0
70
128
71
79
72
80
73
92
0
VERTEX
8
OBJECT__23
10
0
20
0
30
0
70
128
71
80
72
81
73
93
0
VERTEX
8
OBJECT__23
10
0
20
0
30
0
70
128
71
81
72
82
73
94
0
VERTEX
8
OBJECT__23
10
0
20
0
30
0
70
128
71
82
72
83
73
95
0
VERTEX
8
OBJECT__23
10
0
20
0
30
0
70
128
71
83
72
84
73
96
0
VERTEX
8
OBJECT__23
10
0
20
0
30
0
70
128
71
84
72
85
73
97
0
VERTEX
8
OBJECT__23
10
0
20
0
30
0
70
128
71
85
72
86
73
98
0
VERTEX
8
OBJECT__23
10
0
20
0
30
0
70
128
71
86
72
87
73
99
0
VERTEX
8
OBJECT__23
10
0
20
0
30
0
70
128
71
99
72
87
73
100
0
VERTEX
8
OBJECT__23
10
0
20
0
30
0
70
128
71
87
72
89
73
100
0
VERTEX
8
OBJECT__23
10
0
20
0
30
0
70
128
71
1
72
101
73
102
0
VERTEX
8
OBJECT__23
10
0
20
0
30
0
70
128
71
102
72
90
73
1
0
VERTEX
8
OBJECT__23
10
0
20
0
30
0
70
128
71
90
72
91
73
5
0
VERTEX
8
OBJECT__23
10
0
20
0
30
0
70
128
71
91
72
92
73
7
0
VERTEX
8
OBJECT__23
10
0
20
0
30
0
70
128
71
92
72
93
73
9
0
VERTEX
8
OBJECT__23
10
0
20
0
30
0
70
128
71
93
72
94
73
11
0
VERTEX
8
OBJECT__23
10
0
20
0
30
0
70
128
71
94
72
95
73
13
0
VERTEX
8
OBJECT__23
10
0
20
0
30
0
70
128
71
95
72
96
73
15
0
VERTEX
8
OBJECT__23
10
0
20
0
30
0
70
128
71
96
72
97
73
17
0
VERTEX
8
OBJECT__23
10
0
20
0
30
0
70
128
71
97
72
98
73
19
0
VERTEX
8
OBJECT__23
10
0
20
0
30
0
70
128
71
98
72
99
73
21
0
VERTEX
8
OBJECT__23
10
0
20
0
30
0
70
128
71
99
72
103
73
23
0
VERTEX
8
OBJECT__23
10
0
20
0
30
0
70
128
71
23
72
21
73
99
0
VERTEX
8
OBJECT__23
10
0
20
0
30
0
70
128
71
21
72
19
73
98
0
VERTEX
8
OBJECT__23
10
0
20
0
30
0
70
128
71
19
72
17
73
97
0
VERTEX
8
OBJECT__23
10
0
20
0
30
0
70
128
71
17
72
15
73
96
0
VERTEX
8
OBJECT__23
10
0
20
0
30
0
70
128
71
15
72
13
73
95
0
VERTEX
8
OBJECT__23
10
0
20
0
30
0
70
128
71
13
72
11
73
94
0
VERTEX
8
OBJECT__23
10
0
20
0
30
0
70
128
71
11
72
9
73
93
0
VERTEX
8
OBJECT__23
10
0
20
0
30
0
70
128
71
9
72
7
73
92
0
VERTEX
8
OBJECT__23
10
0
20
0
30
0
70
128
71
7
72
5
73
91
0
VERTEX
8
OBJECT__23
10
0
20
0
30
0
70
128
71
5
72
1
73
90
0
VERTEX
8
OBJECT__23
10
0
20
0
30
0
70
128
71
102
72
104
73
90
0
VERTEX
8
OBJECT__23
10
0
20
0
30
0
70
128
71
100
72
103
73
99
0
VERTEX
8
OBJECT__23
10
0
20
0
30
0
70
128
71
99
72
98
73
86
0
VERTEX
8
OBJECT__23
10
0
20
0
30
0
70
128
71
98
72
97
73
85
0
VERTEX
8
OBJECT__23
10
0
20
0
30
0
70
128
71
97
72
96
73
84
0
VERTEX
8
OBJECT__23
10
0
20
0
30
0
70
128
71
96
72
95
73
83
0
VERTEX
8
OBJECT__23
10
0
20
0
30
0
70
128
71
95
72
94
73
82
0
VERTEX
8
OBJECT__23
10
0
20
0
30
0
70
128
71
94
72
93
73
81
0
VERTEX
8
OBJECT__23
10
0
20
0
30
0
70
128
71
93
72
92
73
80
0
VERTEX
8
OBJECT__23
10
0
20
0
30
0
70
128
71
92
72
91
73
79
0
VERTEX
8
OBJECT__23
10
0
20
0
30
0
70
128
71
91
72
90
73
77
0
VERTEX
8
OBJECT__23
10
0
20
0
30
0
70
128
71
90
72
104
73
78
0
VERTEX
8
OBJECT__23
10
0
20
0
30
0
70
128
71
87
72
74
73
88
0
VERTEX
8
OBJECT__23
10
0
20
0
30
0
70
128
71
87
72
86
73
73
0
VERTEX
8
OBJECT__23
10
0
20
0
30
0
70
128
71
86
72
85
73
72
0
VERTEX
8
OBJECT__23
10
0
20
0
30
0
70
128
71
85
72
84
73
71
0
VERTEX
8
OBJECT__23
10
0
20
0
30
0
70
128
71
84
72
83
73
70
0
VERTEX
8
OBJECT__23
10
0
20
0
30
0
70
128
71
83
72
82
73
69
0
VERTEX
8
OBJECT__23
10
0
20
0
30
0
70
128
71
82
72
81
73
68
0
VERTEX
8
OBJECT__23
10
0
20
0
30
0
70
128
71
81
72
80
73
67
0
VERTEX
8
OBJECT__23
10
0
20
0
30
0
70
128
71
80
72
79
73
66
0
VERTEX
8
OBJECT__23
10
0
20
0
30
0
70
128
71
79
72
77
73
63
0
VERTEX
8
OBJECT__23
10
0
20
0
30
0
70
128
71
78
72
65
73
63
0
VERTEX
8
OBJECT__23
10
0
20
0
30
0
70
128
71
76
72
74
73
61
0
VERTEX
8
OBJECT__23
10
0
20
0
30
0
70
128
71
74
72
73
73
60
0
VERTEX
8
OBJECT__23
10
0
20
0
30
0
70
128
71
73
72
72
73
59
0
VERTEX
8
OBJECT__23
10
0
20
0
30
0
70
128
71
72
72
71
73
58
0
VERTEX
8
OBJECT__23
10
0
20
0
30
0
70
128
71
71
72
70
73
57
0
VERTEX
8
OBJECT__23
10
0
20
0
30
0
70
128
71
70
72
69
73
56
0
VERTEX
8
OBJECT__23
10
0
20
0
30
0
70
128
71
69
72
68
73
55
0
VERTEX
8
OBJECT__23
10
0
20
0
30
0
70
128
71
68
72
67
73
54
0
VERTEX
8
OBJECT__23
10
0
20
0
30
0
70
128
71
67
72
66
73
53
0
VERTEX
8
OBJECT__23
10
0
20
0
30
0
70
128
71
66
72
63
73
50
0
VERTEX
8
OBJECT__23
10
0
20
0
30
0
70
128
71
64
72
51
73
50
0
VERTEX
8
OBJECT__23
10
0
20
0
30
0
70
128
71
62
72
75
73
61
0
VERTEX
8
OBJECT__23
10
0
20
0
30
0
70
128
71
61
72
60
73
46
0
VERTEX
8
OBJECT__23
10
0
20
0
30
0
70
128
71
60
72
59
73
45
0
VERTEX
8
OBJECT__23
10
0
20
0
30
0
70
128
71
59
72
58
73
44
0
VERTEX
8
OBJECT__23
10
0
20
0
30
0
70
128
71
58
72
57
73
43
0
VERTEX
8
OBJECT__23
10
0
20
0
30
0
70
128
71
57
72
56
73
42
0
VERTEX
8
OBJECT__23
10
0
20
0
30
0
70
128
71
56
72
55
73
41
0
VERTEX
8
OBJECT__23
10
0
20
0
30
0
70
128
71
55
72
54
73
40
0
VERTEX
8
OBJECT__23
10
0
20
0
30
0
70
128
71
54
72
53
73
39
0
VERTEX
8
OBJECT__23
10
0
20
0
30
0
70
128
71
53
72
50
73
36
0
VERTEX
8
OBJECT__23
10
0
20
0
30
0
70
128
71
52
72
37
73
36
0
VERTEX
8
OBJECT__23
10
0
20
0
30
0
70
128
71
48
72
62
73
47
0
VERTEX
8
OBJECT__23
10
0
20
0
30
0
70
128
71
47
72
46
73
32
0
VERTEX
8
OBJECT__23
10
0
20
0
30
0
70
128
71
46
72
45
73
31
0
VERTEX
8
OBJECT__23
10
0
20
0
30
0
70
128
71
45
72
44
73
30
0
VERTEX
8
OBJECT__23
10
0
20
0
30
0
70
128
71
44
72
43
73
29
0
VERTEX
8
OBJECT__23
10
0
20
0
30
0
70
128
71
43
72
42
73
28
0
VERTEX
8
OBJECT__23
10
0
20
0
30
0
70
128
71
42
72
41
73
27
0
VERTEX
8
OBJECT__23
10
0
20
0
30
0
70
128
71
41
72
40
73
26
0
VERTEX
8
OBJECT__23
10
0
20
0
30
0
70
128
71
40
72
39
73
25
0
VERTEX
8
OBJECT__23
10
0
20
0
30
0
70
128
71
39
72
36
73
38
0
VERTEX
8
OBJECT__23
10
0
20
0
30
0
70
128
71
24
72
38
73
36
0
VERTEX
8
OBJECT__23
10
0
20
0
30
0
70
128
71
35
72
49
73
33
0
VERTEX
8
OBJECT__23
10
0
20
0
30
0
70
128
71
33
72
32
73
20
0
VERTEX
8
OBJECT__23
10
0
20
0
30
0
70
128
71
32
72
31
73
18
0
VERTEX
8
OBJECT__23
10
0
20
0
30
0
70
128
71
31
72
30
73
16
0
VERTEX
8
OBJECT__23
10
0
20
0
30
0
70
128
71
30
72
29
73
14
0
VERTEX
8
OBJECT__23
10
0
20
0
30
0
70
128
71
29
72
28
73
12
0
VERTEX
8
OBJECT__23
10
0
20
0
30
0
70
128
71
28
72
27
73
10
0
VERTEX
8
OBJECT__23
10
0
20
0
30
0
70
128
71
27
72
26
73
8
0
VERTEX
8
OBJECT__23
10
0
20
0
30
0
70
128
71
26
72
25
73
6
0
VERTEX
8
OBJECT__23
10
0
20
0
30
0
70
128
71
25
72
38
73
2
0
VERTEX
8
OBJECT__23
10
0
20
0
30
0
70
128
71
2
72
38
73
24
0
VERTEX
8
OBJECT__23
10
0
20
0
30
0
70
128
71
23
72
34
73
22
0
VERTEX
8
OBJECT__23
10
0
20
0
30
0
70
128
71
22
72
20
73
19
0
VERTEX
8
OBJECT__23
10
0
20
0
30
0
70
128
71
20
72
18
73
17
0
VERTEX
8
OBJECT__23
10
0
20
0
30
0
70
128
71
18
72
16
73
15
0
VERTEX
8
OBJECT__23
10
0
20
0
30
0
70
128
71
16
72
14
73
13
0
VERTEX
8
OBJECT__23
10
0
20
0
30
0
70
128
71
14
72
12
73
11
0
VERTEX
8
OBJECT__23
10
0
20
0
30
0
70
128
71
12
72
10
73
9
0
VERTEX
8
OBJECT__23
10
0
20
0
30
0
70
128
71
10
72
8
73
7
0
VERTEX
8
OBJECT__23
10
0
20
0
30
0
70
128
71
8
72
6
73
5
0
VERTEX
8
OBJECT__23
10
0
20
0
30
0
70
128
71
6
72
2
73
1
0
VERTEX
8
OBJECT__23
10
0
20
0
30
0
70
128
71
3
72
101
73
1
0
SEQEND
8
OBJECT__23
0
POLYLINE
8
OBJECT__24
66
1
70
64
71
18
72
18
62
253
0
VERTEX
8
OBJECT__24
10
0.000000
20
-11.500000
30
299.500000
70
192
0
VERTEX
8
OBJECT__24
10
9.959000
20
-5.750000
30
299.500000
70
192
0
VERTEX
8
OBJECT__24
10
8.132000
20
-8.132000
30
395.500000
70
192
0
VERTEX
8
OBJECT__24
10
9.241000
20
-5.453000
30
395.500000
70
192
0
VERTEX
8
OBJECT__24
10
9.959000
20
5.750000
30
299.500000
70
192
0
VERTEX
8
OBJECT__24
10
9.241000
20
5.453000
30
395.500000
70
192
0
VERTEX
8
OBJECT__24
10
11.500000
20
0.000000
30
395.500000
70
192
0
VERTEX
8
OBJECT__24
10
0.000000
20
11.500000
30
299.500000
70
192
0
VERTEX
8
OBJECT__24
10
0.000000
20
11.500000
30
395.500000
70
192
0
VERTEX
8
OBJECT__24
10
8.132000
20
8.132000
30
395.500000
70
192
0
VERTEX
8
OBJECT__24
10
-9.959000
20
5.750000
30
299.500000
70
192
0
VERTEX
8
OBJECT__24
10
-8.132000
20
8.132000
30
395.500000
70
192
0
VERTEX
8
OBJECT__24
10
-9.241000
20
5.453000
30
395.500000
70
192
0
VERTEX
8
OBJECT__24
10
-9.959000
20
-5.750000
30
299.500000
70
192
0
VERTEX
8
OBJECT__24
10
-11.500000
20
0.000000
30
395.500000
70
192
0
VERTEX
8
OBJECT__24
10
-9.241000
20
-5.453000
30
395.500000
70
192
0
VERTEX
8
OBJECT__24
10
0.000000
20
-11.500000
30
395.500000
70
192
0
VERTEX
8
OBJECT__24
10
-8.132000
20
-8.132000
30
395.500000
70
192
0
VERTEX
8
OBJECT__24
10
0
20
0
30
0
70
128
71
1
72
2
73
3
0
VERTEX
8
OBJECT__24
10
0
20
0
30
0
70
128
71
2
72
4
73
3
0
VERTEX
8
OBJECT__24
10
0
20
0
30
0
70
128
71
5
72
6
73
7
0
VERTEX
8
OBJECT__24
10
0
20
0
30
0
70
128
71
7
72
2
73
5
0
VERTEX
8
OBJECT__24
10
0
20
0
30
0
70
128
71
8
72
9
73
10
0
VERTEX
8
OBJECT__24
10
0
20
0
30
0
70
128
71
10
72
5
73
8
0
VERTEX
8
OBJECT__24
10
0
20
0
30
0
70
128
71
8
72
11
73
12
0
VERTEX
8
OBJECT__24
10
0
20
0
30
0
70
128
71
11
72
13
73
12
0
VERTEX
8
OBJECT__24
10
0
20
0
30
0
70
128
71
11
72
14
73
15
0
VERTEX
8
OBJECT__24
10
0
20
0
30
0
70
128
71
14
72
16
73
15
0
VERTEX
8
OBJECT__24
10
0
20
0
30
0
70
128
71
1
72
17
73
18
0
VERTEX
8
OBJECT__24
10
0
20
0
30
0
70
128
71
18
72
14
73
1
0
VERTEX
8
OBJECT__24
10
0
20
0
30
0
70
128
71
18
72
16
73
14
0
VERTEX
8
OBJECT__24
10
0
20
0
30
0
70
128
71
15
72
13
73
11
0
VERTEX
8
OBJECT__24
10
0
20
0
30
0
70
128
71
12
72
9
73
8
0
VERTEX
8
OBJECT__24
10
0
20
0
30
0
70
128
71
10
72
6
73
5
0
VERTEX
8
OBJECT__24
10
0
20
0
30
0
70
128
71
7
72
4
73
2
0
VERTEX
8
OBJECT__24
10
0
20
0
30
0
70
128
71
3
72
17
73
1
0
SEQEND
8
OBJECT__24
0
POLYLINE
8
OBJECT__25
66
1
70
64
71
12
72
12
62
253
0
VERTEX
8
OBJECT__25
10
-9.959000
20
5.750000
30
298.500000
70
192
0
VERTEX
8
OBJECT__25
10
-9.959000
20
5.750000
30
299.500000
70
192
0
VERTEX
8
OBJECT__25
10
0.000000
20
11.500000
30
299.500000
70
192
0
VERTEX
8
OBJECT__25
10
-9.959000
20
-5.750000
30
298.500000
70
192
0
VERTEX
8
OBJECT__25
10
-9.959000
20
-5.750000
30
299.500000
70
192
0
VERTEX
8
OBJECT__25
10
0.000000
20
-11.500000
30
298.500000
70
192
0
VERTEX
8
OBJECT__25
10
0.000000
20
-11.500000
30
299.500000
70
192
0
VERTEX
8
OBJECT__25
10
9.959000
20
-5.750000
30
298.500000
70
192
0
VERTEX
8
OBJECT__25
10
9.959000
20
-5.750000
30
299.500000
70
192
0
VERTEX
8
OBJECT__25
10
9.959000
20
5.750000
30
298.500000
70
192
0
VERTEX
8
OBJECT__25
10
9.959000
20
5.750000
30
299.500000
70
192
0
VERTEX
8
OBJECT__25
10
0.000000
20
11.500000
30
298.500000
70
192
0
VERTEX
8
OBJECT__25
10
0
20
0
30
0
70
128
71
1
72
2
73
3
0
VERTEX
8
OBJECT__25
10
0
20
0
30
0
70
128
71
4
72
5
73
2
0
VERTEX
8
OBJECT__25
10
0
20
0
30
0
70
128
71
6
72
7
73
5
0
VERTEX
8
OBJECT__25
10
0
20
0
30
0
70
128
71
8
72
9
73
7
0
VERTEX
8
OBJECT__25
10
0
20
0
30
0
70
128
71
10
72
11
73
9
0
VERTEX
8
OBJECT__25
10
0
20
0
30
0
70
128
71
12
72
3
73
11
0
VERTEX
8
OBJECT__25
10
0
20
0
30
0
70
128
71
11
72
10
73
12
0
VERTEX
8
OBJECT__25
10
0
20
0
30
0
70
128
71
9
72
8
73
10
0
VERTEX
8
OBJECT__25
10
0
20
0
30
0
70
128
71
7
72
6
73
8
0
VERTEX
8
OBJECT__25
10
0
20
0
30
0
70
128
71
5
72
4
73
6
0
VERTEX
8
OBJECT__25
10
0
20
0
30
0
70
128
71
2
72
1
73
4
0
VERTEX
8
OBJECT__25
10
0
20
0
30
0
70
128
71
3
72
12
73
1
0
SEQEND
8
OBJECT__25
0
POLYLINE
8
OBJECT__26
66
1
70
64
71
13
72
13
62
253
0
VERTEX
8
OBJECT__26
10
-11.727000
20
9.352000
30
298.500000
70
192
0
VERTEX
8
OBJECT__26
10
-9.959000
20
5.750000
30
298.500000
70
192
0
VERTEX
8
OBJECT__26
10
0.000000
20
11.500000
30
298.500000
70
192
0
VERTEX
8
OBJECT__26
10
-14.624000
20
-3.338000
30
298.500000
70
192
0
VERTEX
8
OBJECT__26
10
-9.959000
20
-5.750000
30
298.500000
70
192
0
VERTEX
8
OBJECT__26
10
-6.508000
20
-13.515000
30
298.500000
70
192
0
VERTEX
8
OBJECT__26
10
0.000000
20
-11.500000
30
298.500000
70
192
0
VERTEX
8
OBJECT__26
10
6.508000
20
-13.515000
30
298.500000
70
192
0
VERTEX
8
OBJECT__26
10
14.624000
20
-3.338000
30
298.500000
70
192
0
VERTEX
8
OBJECT__26
10
9.959000
20
-5.750000
30
298.500000
70
192
0
VERTEX
8
OBJECT__26
10
11.727000
20
9.352000
30
298.500000
70
192
0
VERTEX
8
OBJECT__26
10
9.959000
20
5.750000
30
298.500000
70
192
0
VERTEX
8
OBJECT__26
10
0.000000
20
15.000000
30
298.500000
70
192
0
VERTEX
8
OBJECT__26
10
0
20
0
30
0
70
128
71
1
72
2
73
3
0
VERTEX
8
OBJECT__26
10
0
20
0
30
0
70
128
71
4
72
5
73
2
0
VERTEX
8
OBJECT__26
10
0
20
0
30
0
70
128
71
2
72
1
73
4
0
VERTEX
8
OBJECT__26
10
0
20
0
30
0
70
128
71
6
72
7
73
5
0
VERTEX
8
OBJECT__26
10
0
20
0
30
0
70
128
71
8
72
9
73
10
0
VERTEX
8
OBJECT__26
10
0
20
0
30
0
70
128
71
5
72
4
73
6
0
VERTEX
8
OBJECT__26
10
0
20
0
30
0
70
128
71
10
72
7
73
8
0
VERTEX
8
OBJECT__26
10
0
20
0
30
0
70
128
71
7
72
6
73
8
0
VERTEX
8
OBJECT__26
10
0
20
0
30
0
70
128
71
9
72
11
73
12
0
VERTEX
8
OBJECT__26
10
0
20
0
30
0
70
128
71
11
72
13
73
3
0
VERTEX
8
OBJECT__26
10
0
20
0
30
0
70
128
71
12
72
10
73
9
0
VERTEX
8
OBJECT__26
10
0
20
0
30
0
70
128
71
3
72
13
73
1
0
VERTEX
8
OBJECT__26
10
0
20
0
30
0
70
128
71
3
72
12
73
11
0
SEQEND
8
OBJECT__26
0
POLYLINE
8
OBJECT__27
66
1
70
64
71
14
72
14
62
253
0
VERTEX
8
OBJECT__27
10
-11.727000
20
9.352000
30
291.500000
70
192
0
VERTEX
8
OBJECT__27
10
-11.727000
20
9.352000
30
298.500000
70
192
0
VERTEX
8
OBJECT__27
10
0.000000
20
15.000000
30
298.500000
70
192
0
VERTEX
8
OBJECT__27
10
-14.624000
20
-3.338000
30
291.500000
70
192
0
VERTEX
8
OBJECT__27
10
-14.624000
20
-3.338000
30
298.500000
70
192
0
VERTEX
8
OBJECT__27
10
-6.508000
20
-13.515000
30
291.500000
70
192
0
VERTEX
8
OBJECT__27
10
-6.508000
20
-13.515000
30
298.500000
70
192
0
VERTEX
8
OBJECT__27
10
6.508000
20
-13.515000
30
291.500000
70
192
0
VERTEX
8
OBJECT__27
10
6.508000
20
-13.515000
30
298.500000
70
192
0
VERTEX
8
OBJECT__27
10
14.624000
20
-3.338000
30
291.500000
70
192
0
VERTEX
8
OBJECT__27
10
14.624000
20
-3.338000
30
298.500000
70
192
0
VERTEX
8
OBJECT__27
10
11.727000
20
9.352000
30
291.500000
70
192
0
VERTEX
8
OBJECT__27
10
11.727000
20
9.352000
30
298.500000
70
192
0
VERTEX
8
OBJECT__27
10
0.000000
20
15.000000
30
291.500000
70
192
0
VERTEX
8
OBJECT__27
10
0
20
0
30
0
70
128
71
1
72
2
73
3
0
VERTEX
8
OBJECT__27
10
0
20
0
30
0
70
128
71
4
72
5
73
2
0
VERTEX
8
OBJECT__27
10
0
20
0
30
0
70
128
71
6
72
7
73
5
0
VERTEX
8
OBJECT__27
10
0
20
0
30
0
70
128
71
8
72
9
73
7
0
VERTEX
8
OBJECT__27
10
0
20
0
30
0
70
128
71
10
72
11
73
9
0
VERTEX
8
OBJECT__27
10
0
20
0
30
0
70
128
71
12
72
13
73
11
0
VERTEX
8
OBJECT__27
10
0
20
0
30
0
70
128
71
14
72
3
73
13
0
VERTEX
8
OBJECT__27
10
0
20
0
30
0
70
128
71
13
72
12
73
14
0
VERTEX
8
OBJECT__27
10
0
20
0
30
0
70
128
71
11
72
10
73
12
0
VERTEX
8
OBJECT__27
10
0
20
0
30
0
70
128
71
9
72
8
73
10
0
VERTEX
8
OBJECT__27
10
0
20
0
30
0
70
128
71
7
72
6
73
8
0
VERTEX
8
OBJECT__27
10
0
20
0
30
0
70
128
71
5
72
4
73
6
0
VERTEX
8
OBJECT__27
10
0
20
0
30
0
70
128
71
2
72
1
73
4
0
VERTEX
8
OBJECT__27
10
0
20
0
30
0
70
128
71
3
72
14
73
1
0
SEQEND
8
OBJECT__27
0
POLYLINE
8
OBJECT__28
66
1
70
64
71
16
72
16
62
253
0
VERTEX
8
OBJECT__28
10
-14.142000
20
14.142000
30
190.000000
70
192
0
VERTEX
8
OBJECT__28
10
-14.142000
20
14.142000
30
10.000000
70
192
0
VERTEX
8
OBJECT__28
10
-20.000000
20
0.000000
30
10.000000
70
192
0
VERTEX
8
OBJECT__28
10
0.000000
20
20.000000
30
190.000000
70
192
0
VERTEX
8
OBJECT__28
10
0.000000
20
20.000000
30
10.000000
70
192
0
VERTEX
8
OBJECT__28
10
14.142000
20
14.142000
30
190.000000
70
192
0
VERTEX
8
OBJECT__28
10
14.142000
20
14.142000
30
10.000000
70
192
0
VERTEX
8
OBJECT__28
10
20.000000
20
0.000000
30
190.000000
70
192
0
VERTEX
8
OBJECT__28
10
20.000000
20
0.000000
30
10.000000
70
192
0
VERTEX
8
OBJECT__28
10
14.142000
20
-14.142000
30
190.000000
70
192
0
VERTEX
8
OBJECT__28
10
14.142000
20
-14.142000
30
10.000000
70
192
0
VERTEX
8
OBJECT__28
10
0.000000
20
-20.000000
30
190.000000
70
192
0
VERTEX
8
OBJECT__28
10
0.000000
20
-20.000000
30
10.000000
70
192
0
VERTEX
8
OBJECT__28
10
-14.142000
20
-14.142000
30
190.000000
70
192
0
VERTEX
8
OBJECT__28
10
-14.142000
20
-14.142000
30
10.000000
70
192
0
VERTEX
8
OBJECT__28
10
-20.000000
20
0.000000
30
190.000000
70
192
0
VERTEX
8
OBJECT__28
10
0
20
0
30
0
70
128
71
1
72
2
73
3
0
VERTEX
8
OBJECT__28
10
0
20
0
30
0
70
128
71
4
72
5
73
2
0
VERTEX
8
OBJECT__28
10
0
20
0
30
0
70
128
71
6
72
7
73
5
0
VERTEX
8
OBJECT__28
10
0
20
0
30
0
70
128
71
8
72
9
73
7
0
VERTEX
8
OBJECT__28
10
0
20
0
30
0
70
128
71
10
72
11
73
9
0
VERTEX
8
OBJECT__28
10
0
20
0
30
0
70
128
71
12
72
13
73
11
0
VERTEX
8
OBJECT__28
10
0
20
0
30
0
70
128
71
14
72
15
73
13
0
VERTEX
8
OBJECT__28
10
0
20
0
30
0
70
128
71
16
72
3
73
15
0
VERTEX
8
OBJECT__28
10
0
20
0
30
0
70
128
71
15
72
14
73
16
0
VERTEX
8
OBJECT__28
10
0
20
0
30
0
70
128
71
13
72
12
73
14
0
VERTEX
8
OBJECT__28
10
0
20
0
30
0
70
128
71
11
72
10
73
12
0
VERTEX
8
OBJECT__28
10
0
20
0
30
0
70
128
71
9
72
8
73
10
0
VERTEX
8
OBJECT__28
10
0
20
0
30
0
70
128
71
7
72
6
73
8
0
VERTEX
8
OBJECT__28
10
0
20
0
30
0
70
128
71
5
72
4
73
6
0
VERTEX
8
OBJECT__28
10
0
20
0
30
0
70
128
71
2
72
1
73
4
0
VERTEX
8
OBJECT__28
10
0
20
0
30
0
70
128
71
3
72
16
73
1
0
SEQEND
8
OBJECT__28
0
POLYLINE
8
OBJECT__29
66
1
70
64
71
59
72
63
62
253
0
VERTEX
8
OBJECT__29
10
14.142000
20
-14.142000
30
190.000000
70
192
0
VERTEX
8
OBJECT__29
10
20.000000
20
0.000000
30
190.000000
70
192
0
VERTEX
8
OBJECT__29
10
20.000000
20
0.000000
30
259.700012
70
192
0
VERTEX
8
OBJECT__29
10
14.142000
20
-14.142000
30
291.000000
70
192
0
VERTEX
8
OBJECT__29
10
0.000000
20
-20.000000
30
190.000000
70
192
0
VERTEX
8
OBJECT__29
10
-14.142000
20
-14.142000
30
291.000000
70
192
0
VERTEX
8
OBJECT__29
10
-14.142000
20
-14.142000
30
190.000000
70
192
0
VERTEX
8
OBJECT__29
10
-19.987000
20
-0.710000
30
203.988998
70
192
0
VERTEX
8
OBJECT__29
10
-19.997000
20
-0.340000
30
203.770996
70
192
0
VERTEX
8
OBJECT__29
10
-19.830999
20
-2.595000
30
212.145004
70
192
0
VERTEX
8
OBJECT__29
10
-19.837000
20
-2.543000
30
211.662994
70
192
0
VERTEX
8
OBJECT__29
10
-19.934000
20
-1.620000
30
218.501007
70
192
0
VERTEX
8
OBJECT__29
10
-19.903000
20
-1.968000
30
206.322998
70
192
0
VERTEX
8
OBJECT__29
10
-19.965000
20
-1.190000
30
204.531998
70
192
0
VERTEX
8
OBJECT__29
10
-19.992001
20
-0.551000
30
220.320007
70
192
0
VERTEX
8
OBJECT__29
10
-19.981001
20
-0.860000
30
220.003998
70
192
0
VERTEX
8
OBJECT__29
10
-20.000000
20
-0.018000
30
220.535004
70
192
0
VERTEX
8
OBJECT__29
10
-19.997999
20
-0.266000
30
220.485992
70
192
0
VERTEX
8
OBJECT__29
10
-20.000000
20
0.000000
30
190.000000
70
192
0
VERTEX
8
OBJECT__29
10
-20.000000
20
0.000000
30
220.531998
70
192
0
VERTEX
8
OBJECT__29
10
-20.000000
20
0.000000
30
259.700012
70
192
0
VERTEX
8
OBJECT__29
10
-20.000000
20
0.000000
30
291.000000
70
192
0
VERTEX
8
OBJECT__29
10
20.000000
20
0.000000
30
291.000000
70
192
0
VERTEX
8
OBJECT__29
10
14.733000
20
13.525000
30
276.606995
70
192
0
VERTEX
8
OBJECT__29
10
14.022000
20
13.953000
30
277.140991
70
192
0
VERTEX
8
OBJECT__29
10
19.768999
20
3.033000
30
263.490997
70
192
0
VERTEX
8
OBJECT__29
10
0.000000
20
20.000000
30
291.000000
70
192
0
VERTEX
8
OBJECT__29
10
14.142000
20
14.142000
30
291.000000
70
192
0
VERTEX
8
OBJECT__29
10
5.042000
20
19.354000
30
283.893005
70
192
0
VERTEX
8
OBJECT__29
10
0.037000
20
19.139000
30
283.623993
70
192
0
VERTEX
8
OBJECT__29
10
-6.680000
20
18.851000
30
283.264008
70
192
0
VERTEX
8
OBJECT__29
10
-14.142000
20
14.142000
30
291.000000
70
192
0
VERTEX
8
OBJECT__29
10
-13.683000
20
13.556000
30
276.644989
70
192
0
VERTEX
8
OBJECT__29
10
-16.318001
20
11.564000
30
274.154999
70
192
0
VERTEX
8
OBJECT__29
10
-16.318001
20
11.564000
30
245.244995
70
192
0
VERTEX
8
OBJECT__29
10
-19.999001
20
0.232000
30
220.498001
70
192
0
VERTEX
8
OBJECT__29
10
-13.683000
20
13.556000
30
242.755005
70
192
0
VERTEX
8
OBJECT__29
10
-14.142000
20
14.142000
30
190.000000
70
192
0
VERTEX
8
OBJECT__29
10
-19.834999
20
2.566000
30
212.960999
70
192
0
VERTEX
8
OBJECT__29
10
-19.881001
20
2.182000
30
207.177002
70
192
0
VERTEX
8
OBJECT__29
10
-19.844999
20
2.482000
30
211.699005
70
192
0
VERTEX
8
OBJECT__29
10
-19.962000
20
1.228000
30
204.589005
70
192
0
VERTEX
8
OBJECT__29
10
-19.915001
20
1.840000
30
205.917007
70
192
0
VERTEX
8
OBJECT__29
10
-19.980000
20
0.885000
30
204.149994
70
192
0
VERTEX
8
OBJECT__29
10
-19.995001
20
0.436000
30
203.811996
70
192
0
VERTEX
8
OBJECT__29
10
-19.934000
20
1.622000
30
218.496002
70
192
0
VERTEX
8
OBJECT__29
10
-19.980000
20
0.903000
30
219.949005
70
192
0
VERTEX
8
OBJECT__29
10
-19.993000
20
0.517000
30
220.345993
70
192
0
VERTEX
8
OBJECT__29
10
-20.000000
20
0.114000
30
203.714996
70
192
0
VERTEX
8
OBJECT__29
10
-20.000000
20
0.000000
30
203.707993
70
192
0
VERTEX
8
OBJECT__29
10
0.000000
20
20.000000
30
190.000000
70
192
0
VERTEX
8
OBJECT__29
10
-6.680000
20
18.851000
30
236.136002
70
192
0
VERTEX
8
OBJECT__29
10
0.037000
20
19.139000
30
235.776001
70
192
0
VERTEX
8
OBJECT__29
10
5.042000
20
19.354000
30
235.507004
70
192
0
VERTEX
8
OBJECT__29
10
14.142000
20
14.142000
30
190.000000
70
192
0
VERTEX
8
OBJECT__29
10
14.733000
20
13.525000
30
242.792999
70
192
0
VERTEX
8
OBJECT__29
10
19.768999
20
3.033000
30
255.908997
70
192
0
VERTEX
8
OBJECT__29
10
14.022000
20
13.953000
30
242.259003
70
192
0
VERTEX
8
OBJECT__29
10
0.000000
20
-20.000000
30
291.000000
70
192
0
VERTEX
8
OBJECT__29
10
0
20
0
30
0
70
128
71
1
72
2
73
3
0
VERTEX
8
OBJECT__29
10
0
20
0
30
0
70
128
71
3
72
4
73
1
0
VERTEX
8
OBJECT__29
10
0
20
0
30
0
70
128
71
5
72
1
73
4
0
VERTEX
8
OBJECT__29
10
0
20
0
30
0
70
128
71
6
72
7
73
5
0
VERTEX
8
OBJECT__29
10
0
20
0
30
0
70
128
71
7
72
8
73
9
0
VERTEX
8
OBJECT__29
10
0
20
0
30
0
70
128
71
7
72
10
73
11
0
VERTEX
8
OBJECT__29
10
0
20
0
30
0
70
128
71
7
72
6
73
12
0
VERTEX
8
OBJECT__29
10
0
20
0
30
0
70
128
71
12
72
10
73
7
0
VERTEX
8
OBJECT__29
10
0
20
0
30
0
70
128
71
11
72
13
73
7
0
VERTEX
8
OBJECT__29
10
0
20
0
30
0
70
128
71
13
72
14
73
7
0
VERTEX
8
OBJECT__29
10
0
20
0
30
0
70
128
71
14
72
8
73
7
0
VERTEX
8
OBJECT__29
10
0
20
0
30
0
70
128
71
6
72
15
73
16
0
VERTEX
8
OBJECT__29
10
0
20
0
30
0
70
128
71
16
72
12
73
6
0
VERTEX
8
OBJECT__29
10
0
20
0
30
0
70
128
71
6
72
17
73
18
0
VERTEX
8
OBJECT__29
10
0
20
0
30
0
70
128
71
18
72
15
73
6
0
VERTEX
8
OBJECT__29
10
0
20
0
30
0
70
128
71
9
72
19
73
7
0
VERTEX
8
OBJECT__29
10
0
20
0
30
0
70
128
71
20
72
6
73
21
0
VERTEX
8
OBJECT__29
10
0
20
0
30
0
70
128
71
6
72
22
73
21
0
VERTEX
8
OBJECT__29
10
0
20
0
30
0
70
128
71
20
72
17
73
6
0
VERTEX
8
OBJECT__29
10
0
20
0
30
0
70
128
71
23
72
24
73
25
0
VERTEX
8
OBJECT__29
10
0
20
0
30
0
70
128
71
23
72
3
73
26
0
VERTEX
8
OBJECT__29
10
0
20
0
30
0
70
128
71
26
72
24
73
23
0
VERTEX
8
OBJECT__29
10
0
20
0
30
0
70
128
71
27
72
28
73
29
0
VERTEX
8
OBJECT__29
10
0
20
0
30
0
70
128
71
28
72
25
73
29
0
VERTEX
8
OBJECT__29
10
0
20
0
30
0
70
128
71
27
72
30
73
31
0
VERTEX
8
OBJECT__29
10
0
20
0
30
0
70
128
71
31
72
32
73
27
0
VERTEX
8
OBJECT__29
10
0
20
0
30
0
70
128
71
22
72
32
73
33
0
VERTEX
8
OBJECT__29
10
0
20
0
30
0
70
128
71
33
72
34
73
22
0
VERTEX
8
OBJECT__29
10
0
20
0
30
0
70
128
71
20
72
21
73
35
0
VERTEX
8
OBJECT__29
10
0
20
0
30
0
70
128
71
36
72
35
73
37
0
VERTEX
8
OBJECT__29
10
0
20
0
30
0
70
128
71
37
72
38
73
39
0
VERTEX
8
OBJECT__29
10
0
20
0
30
0
70
128
71
38
72
40
73
41
0
VERTEX
8
OBJECT__29
10
0
20
0
30
0
70
128
71
38
72
42
73
43
0
VERTEX
8
OBJECT__29
10
0
20
0
30
0
70
128
71
43
72
40
73
38
0
VERTEX
8
OBJECT__29
10
0
20
0
30
0
70
128
71
38
72
44
73
42
0
VERTEX
8
OBJECT__29
10
0
20
0
30
0
70
128
71
41
72
39
73
38
0
VERTEX
8
OBJECT__29
10
0
20
0
30
0
70
128
71
38
72
45
73
44
0
VERTEX
8
OBJECT__29
10
0
20
0
30
0
70
128
71
39
72
46
73
37
0
VERTEX
8
OBJECT__29
10
0
20
0
30
0
70
128
71
46
72
47
73
37
0
VERTEX
8
OBJECT__29
10
0
20
0
30
0
70
128
71
47
72
48
73
37
0
VERTEX
8
OBJECT__29
10
0
20
0
30
0
70
128
71
37
72
48
73
36
0
VERTEX
8
OBJECT__29
10
0
20
0
30
0
70
128
71
19
72
49
73
45
0
VERTEX
8
OBJECT__29
10
0
20
0
30
0
70
128
71
19
72
50
73
49
0
VERTEX
8
OBJECT__29
10
0
20
0
30
0
70
128
71
45
72
38
73
19
0
VERTEX
8
OBJECT__29
10
0
20
0
30
0
70
128
71
51
72
38
73
52
0
VERTEX
8
OBJECT__29
10
0
20
0
30
0
70
128
71
38
72
37
73
52
0
VERTEX
8
OBJECT__29
10
0
20
0
30
0
70
128
71
51
72
53
73
54
0
VERTEX
8
OBJECT__29
10
0
20
0
30
0
70
128
71
54
72
55
73
51
0
VERTEX
8
OBJECT__29
10
0
20
0
30
0
70
128
71
2
72
56
73
57
0
VERTEX
8
OBJECT__29
10
0
20
0
30
0
70
128
71
2
72
55
73
58
0
VERTEX
8
OBJECT__29
10
0
20
0
30
0
70
128
71
58
72
56
73
2
0
VERTEX
8
OBJECT__29
10
0
20
0
30
0
70
128
71
57
72
3
73
2
0
VERTEX
8
OBJECT__29
10
0
20
0
30
0
70
128
71
54
72
58
73
55
0
VERTEX
8
OBJECT__29
10
0
20
0
30
0
70
128
71
52
72
53
73
51
0
VERTEX
8
OBJECT__29
10
0
20
0
30
0
70
128
71
35
72
36
73
20
0
VERTEX
8
OBJECT__29
10
0
20
0
30
0
70
128
71
34
72
21
73
22
0
VERTEX
8
OBJECT__29
10
0
20
0
30
0
70
128
71
31
72
33
73
32
0
VERTEX
8
OBJECT__29
10
0
20
0
30
0
70
128
71
29
72
30
73
27
0
VERTEX
8
OBJECT__29
10
0
20
0
30
0
70
128
71
25
72
28
73
23
0
VERTEX
8
OBJECT__29
10
0
20
0
30
0
70
128
71
9
72
50
73
19
0
VERTEX
8
OBJECT__29
10
0
20
0
30
0
70
128
71
5
72
59
73
6
0
VERTEX
8
OBJECT__29
10
0
20
0
30
0
70
128
71
4
72
59
73
5
0
VERTEX
8
OBJECT__29
10
0
20
0
30
0
70
128
71
3
72
23
73
4
0
SEQEND
8
OBJECT__29
0
POLYLINE
8
OBJECT__31
66
1
70
64
71
31
72
33
62
253
0
VERTEX
8
OBJECT__31
10
-12.000000
20
-2.600000
30
187.500000
70
192
0
VERTEX
8
OBJECT__31
10
-19.987000
20
-0.710000
30
203.988998
70
192
0
VERTEX
8
OBJECT__31
10
-19.965000
20
-1.190000
30
204.531998
70
192
0
VERTEX
8
OBJECT__31
10
-19.903000
20
-1.968000
30
206.322998
70
192
0
VERTEX
8
OBJECT__31
10
-19.997000
20
-0.340000
30
203.770996
70
192
0
VERTEX
8
OBJECT__31
10
-14.734000
20
0.000000
30
187.500000
70
192
0
VERTEX
8
OBJECT__31
10
-20.000000
20
0.000000
30
203.707993
70
192
0
VERTEX
8
OBJECT__31
10
-19.412001
20
-1.838000
30
216.261002
70
192
0
VERTEX
8
OBJECT__31
10
-19.837000
20
-2.543000
30
211.662994
70
192
0
VERTEX
8
OBJECT__31
10
-19.830999
20
-2.595000
30
212.145004
70
192
0
VERTEX
8
OBJECT__31
10
-19.997999
20
-0.266000
30
220.485992
70
192
0
VERTEX
8
OBJECT__31
10
-20.000000
20
-0.018000
30
220.535004
70
192
0
VERTEX
8
OBJECT__31
10
-19.992001
20
-0.551000
30
220.320007
70
192
0
VERTEX
8
OBJECT__31
10
-19.934000
20
-1.620000
30
218.501007
70
192
0
VERTEX
8
OBJECT__31
10
-19.981001
20
-0.860000
30
220.003998
70
192
0
VERTEX
8
OBJECT__31
10
-20.000000
20
0.000000
30
220.531998
70
192
0
VERTEX
8
OBJECT__31
10
-9.266000
20
0.000000
30
187.500000
70
192
0
VERTEX
8
OBJECT__31
10
-19.999001
20
0.232000
30
220.498001
70
192
0
VERTEX
8
OBJECT__31
10
-19.993000
20
0.517000
30
220.345993
70
192
0
VERTEX
8
OBJECT__31
10
-19.983999
20
0.260000
30
220.442993
70
192
0
VERTEX
8
OBJECT__31
10
-19.844999
20
2.482000
30
211.699005
70
192
0
VERTEX
8
OBJECT__31
10
-19.980000
20
0.903000
30
219.949005
70
192
0
VERTEX
8
OBJECT__31
10
-19.934000
20
1.622000
30
218.496002
70
192
0
VERTEX
8
OBJECT__31
10
-19.834999
20
2.566000
30
212.960999
70
192
0
VERTEX
8
OBJECT__31
10
-12.000000
20
2.600000
30
187.500000
70
192
0
VERTEX
8
OBJECT__31
10
-20.000000
20
0.114000
30
203.714996
70
192
0
VERTEX
8
OBJECT__31
10
-19.995001
20
0.436000
30
203.811996
70
192
0
VERTEX
8
OBJECT__31
10
-19.881001
20
2.182000
30
207.177002
70
192
0
VERTEX
8
OBJECT__31
10
-19.915001
20
1.840000
30
205.917007
70
192
0
VERTEX
8
OBJECT__31
10
-19.962000
20
1.228000
30
204.589005
70
192
0
VERTEX
8
OBJECT__31
10
-19.980000
20
0.885000
30
204.149994
70
192
0
VERTEX
8
OBJECT__31
10
0
20
0
30
0
70
128
71
1
72
2
73
3
0
VERTEX
8
OBJECT__31
10
0
20
0
30
0
70
128
71
3
72
4
73
1
0
VERTEX
8
OBJECT__31
10
0
20
0
30
0
70
128
71
1
72
5
73
2
0
VERTEX
8
OBJECT__31
10
0
20
0
30
0
70
128
71
5
72
1
73
6
0
VERTEX
8
OBJECT__31
10
0
20
0
30
0
70
128
71
6
72
7
73
5
0
VERTEX
8
OBJECT__31
10
0
20
0
30
0
70
128
71
8
72
9
73
10
0
VERTEX
8
OBJECT__31
10
0
20
0
30
0
70
128
71
8
72
11
73
12
0
VERTEX
8
OBJECT__31
10
0
20
0
30
0
70
128
71
8
72
13
73
11
0
VERTEX
8
OBJECT__31
10
0
20
0
30
0
70
128
71
8
72
14
73
15
0
VERTEX
8
OBJECT__31
10
0
20
0
30
0
70
128
71
15
72
13
73
8
0
VERTEX
8
OBJECT__31
10
0
20
0
30
0
70
128
71
12
72
16
73
8
0
VERTEX
8
OBJECT__31
10
0
20
0
30
0
70
128
71
17
72
1
73
9
0
VERTEX
8
OBJECT__31
10
0
20
0
30
0
70
128
71
9
72
8
73
17
0
VERTEX
8
OBJECT__31
10
0
20
0
30
0
70
128
71
8
72
16
73
17
0
VERTEX
8
OBJECT__31
10
0
20
0
30
0
70
128
71
18
72
19
73
20
0
VERTEX
8
OBJECT__31
10
0
20
0
30
0
70
128
71
17
72
20
73
21
0
VERTEX
8
OBJECT__31
10
0
20
0
30
0
70
128
71
20
72
19
73
22
0
VERTEX
8
OBJECT__31
10
0
20
0
30
0
70
128
71
22
72
23
73
20
0
VERTEX
8
OBJECT__31
10
0
20
0
30
0
70
128
71
23
72
24
73
20
0
VERTEX
8
OBJECT__31
10
0
20
0
30
0
70
128
71
24
72
21
73
20
0
VERTEX
8
OBJECT__31
10
0
20
0
30
0
70
128
71
16
72
20
73
17
0
VERTEX
8
OBJECT__31
10
0
20
0
30
0
70
128
71
21
72
25
73
17
0
VERTEX
8
OBJECT__31
10
0
20
0
30
0
70
128
71
20
72
16
73
18
0
VERTEX
8
OBJECT__31
10
0
20
0
30
0
70
128
71
26
72
7
73
6
0
VERTEX
8
OBJECT__31
10
0
20
0
30
0
70
128
71
25
72
27
73
26
0
VERTEX
8
OBJECT__31
10
0
20
0
30
0
70
128
71
25
72
28
73
29
0
VERTEX
8
OBJECT__31
10
0
20
0
30
0
70
128
71
25
72
21
73
28
0
VERTEX
8
OBJECT__31
10
0
20
0
30
0
70
128
71
29
72
30
73
25
0
VERTEX
8
OBJECT__31
10
0
20
0
30
0
70
128
71
30
72
31
73
25
0
VERTEX
8
OBJECT__31
10
0
20
0
30
0
70
128
71
31
72
27
73
25
0
VERTEX
8
OBJECT__31
10
0
20
0
30
0
70
128
71
6
72
25
73
26
0
VERTEX
8
OBJECT__31
10
0
20
0
30
0
70
128
71
10
72
14
73
8
0
VERTEX
8
OBJECT__31
10
0
20
0
30
0
70
128
71
4
72
9
73
1
0
SEQEND
8
OBJECT__31
0
POLYLINE
8
OBJECT__32
66
1
70
64
71
8
72
6
62
253
0
VERTEX
8
OBJECT__32
10
-14.142000
20
-14.142000
30
291.000000
70
192
0
VERTEX
8
OBJECT__32
10
0.000000
20
-20.000000
30
291.000000
70
192
0
VERTEX
8
OBJECT__32
10
14.142000
20
-14.142000
30
291.000000
70
192
0
VERTEX
8
OBJECT__32
10
-20.000000
20
0.000000
30
291.000000
70
192
0
VERTEX
8
OBJECT__32
10
14.142000
20
14.142000
30
291.000000
70
192
0
VERTEX
8
OBJECT__32
10
0.000000
20
20.000000
30
291.000000
70
192
0
VERTEX
8
OBJECT__32
10
20.000000
20
0.000000
30
291.000000
70
192
0
VERTEX
8
OBJECT__32
10
-14.142000
20
14.142000
30
291.000000
70
192
0
VERTEX
8
OBJECT__32
10
0
20
0
30
0
70
128
71
1
72
2
73
3
0
VERTEX
8
OBJECT__32
10
0
20
0
30
0
70
128
71
4
72
5
73
6
0
VERTEX
8
OBJECT__32
10
0
20
0
30
0
70
128
71
7
72
4
73
1
0
VERTEX
8
OBJECT__32
10
0
20
0
30
0
70
128
71
4
72
7
73
5
0
VERTEX
8
OBJECT__32
10
0
20
0
30
0
70
128
71
6
72
8
73
4
0
VERTEX
8
OBJECT__32
10
0
20
0
30
0
70
128
71
3
72
7
73
1
0
SEQEND
8
OBJECT__32
0
POLYLINE
8
OBJECT__33
66
1
70
64
71
18
72
16
62
253
0
VERTEX
8
OBJECT__33
10
-6.680000
20
18.851000
30
283.264008
70
192
0
VERTEX
8
OBJECT__33
10
-6.680000
20
23.563999
30
278.550995
70
192
0
VERTEX
8
OBJECT__33
10
-13.683000
20
16.945000
30
273.256012
70
192
0
VERTEX
8
OBJECT__33
10
-16.318001
20
14.455000
30
271.264008
70
192
0
VERTEX
8
OBJECT__33
10
-16.318001
20
11.564000
30
274.154999
70
192
0
VERTEX
8
OBJECT__33
10
-13.683000
20
13.556000
30
276.644989
70
192
0
VERTEX
8
OBJECT__33
10
0.037000
20
23.924000
30
278.838989
70
192
0
VERTEX
8
OBJECT__33
10
5.042000
20
19.354000
30
283.893005
70
192
0
VERTEX
8
OBJECT__33
10
5.042000
20
24.193001
30
279.053986
70
192
0
VERTEX
8
OBJECT__33
10
0.037000
20
19.139000
30
283.623993
70
192
0
VERTEX
8
OBJECT__33
10
14.022000
20
13.953000
30
277.140991
70
192
0
VERTEX
8
OBJECT__33
10
14.733000
20
13.525000
30
276.606995
70
192
0
VERTEX
8
OBJECT__33
10
14.733000
20
16.907000
30
273.225006
70
192
0
VERTEX
8
OBJECT__33
10
14.022000
20
17.441000
30
273.653015
70
192
0
VERTEX
8
OBJECT__33
10
19.768999
20
3.033000
30
263.490997
70
192
0
VERTEX
8
OBJECT__33
10
19.768999
20
3.791000
30
262.733002
70
192
0
VERTEX
8
OBJECT__33
10
20.000000
20
0.000000
30
259.700012
70
192
0
VERTEX
8
OBJECT__33
10
-20.000000
20
0.000000
30
259.700012
70
192
0
VERTEX
8
OBJECT__33
10
0
20
0
30
0
70
128
71
1
72
2
73
3
0
VERTEX
8
OBJECT__33
10
0
20
0
30
0
70
128
71
3
72
4
73
5
0
VERTEX
8
OBJECT__33
10
0
20
0
30
0
70
128
71
5
72
6
73
3
0
VERTEX
8
OBJECT__33
10
0
20
0
30
0
70
128
71
7
72
2
73
1
0
VERTEX
8
OBJECT__33
10
0
20
0
30
0
70
128
71
8
72
9
73
7
0
VERTEX
8
OBJECT__33
10
0
20
0
30
0
70
128
71
7
72
10
73
8
0
VERTEX
8
OBJECT__33
10
0
20
0
30
0
70
128
71
11
72
12
73
13
0
VERTEX
8
OBJECT__33
10
0
20
0
30
0
70
128
71
9
72
8
73
11
0
VERTEX
8
OBJECT__33
10
0
20
0
30
0
70
128
71
11
72
14
73
9
0
VERTEX
8
OBJECT__33
10
0
20
0
30
0
70
128
71
12
72
15
73
16
0
VERTEX
8
OBJECT__33
10
0
20
0
30
0
70
128
71
16
72
15
73
17
0
VERTEX
8
OBJECT__33
10
0
20
0
30
0
70
128
71
16
72
13
73
12
0
VERTEX
8
OBJECT__33
10
0
20
0
30
0
70
128
71
13
72
14
73
11
0
VERTEX
8
OBJECT__33
10
0
20
0
30
0
70
128
71
1
72
10
73
7
0
VERTEX
8
OBJECT__33
10
0
20
0
30
0
70
128
71
3
72
6
73
1
0
VERTEX
8
OBJECT__33
10
0
20
0
30
0
70
128
71
18
72
5
73
4
0
SEQEND
8
OBJECT__33
0
POLYLINE
8
OBJECT__34
66
1
70
64
71
18
72
16
62
253
0
VERTEX
8
OBJECT__34
10
-6.680000
20
18.851000
30
236.136002
70
192
0
VERTEX
8
OBJECT__34
10
-13.683000
20
13.556000
30
242.755005
70
192
0
VERTEX
8
OBJECT__34
10
-13.683000
20
16.945000
30
246.143997
70
192
0
VERTEX
8
OBJECT__34
10
-16.318001
20
11.564000
30
245.244995
70
192
0
VERTEX
8
OBJECT__34
10
-16.318001
20
14.455000
30
248.136002
70
192
0
VERTEX
8
OBJECT__34
10
5.042000
20
19.354000
30
235.507004
70
192
0
VERTEX
8
OBJECT__34
10
0.037000
20
19.139000
30
235.776001
70
192
0
VERTEX
8
OBJECT__34
10
0.037000
20
23.924000
30
240.561005
70
192
0
VERTEX
8
OBJECT__34
10
-6.680000
20
23.563999
30
240.848999
70
192
0
VERTEX
8
OBJECT__34
10
5.042000
20
24.193001
30
240.345993
70
192
0
VERTEX
8
OBJECT__34
10
14.022000
20
17.441000
30
245.746994
70
192
0
VERTEX
8
OBJECT__34
10
14.022000
20
13.953000
30
242.259003
70
192
0
VERTEX
8
OBJECT__34
10
14.733000
20
16.907000
30
246.175003
70
192
0
VERTEX
8
OBJECT__34
10
14.733000
20
13.525000
30
242.792999
70
192
0
VERTEX
8
OBJECT__34
10
19.768999
20
3.791000
30
256.666992
70
192
0
VERTEX
8
OBJECT__34
10
19.768999
20
3.033000
30
255.908997
70
192
0
VERTEX
8
OBJECT__34
10
20.000000
20
0.000000
30
259.700012
70
192
0
VERTEX
8
OBJECT__34
10
-20.000000
20
0.000000
30
259.700012
70
192
0
VERTEX
8
OBJECT__34
10
0
20
0
30
0
70
128
71
1
72
2
73
3
0
VERTEX
8
OBJECT__34
10
0
20
0
30
0
70
128
71
3
72
2
73
4
0
VERTEX
8
OBJECT__34
10
0
20
0
30
0
70
128
71
4
72
5
73
3
0
VERTEX
8
OBJECT__34
10
0
20
0
30
0
70
128
71
6
72
7
73
8
0
VERTEX
8
OBJECT__34
10
0
20
0
30
0
70
128
71
7
72
1
73
9
0
VERTEX
8
OBJECT__34
10
0
20
0
30
0
70
128
71
9
72
8
73
7
0
VERTEX
8
OBJECT__34
10
0
20
0
30
0
70
128
71
6
72
10
73
11
0
VERTEX
8
OBJECT__34
10
0
20
0
30
0
70
128
71
12
72
11
73
13
0
VERTEX
8
OBJECT__34
10
0
20
0
30
0
70
128
71
13
72
14
73
12
0
VERTEX
8
OBJECT__34
10
0
20
0
30
0
70
128
71
13
72
15
73
16
0
VERTEX
8
OBJECT__34
10
0
20
0
30
0
70
128
71
16
72
15
73
17
0
VERTEX
8
OBJECT__34
10
0
20
0
30
0
70
128
71
16
72
14
73
13
0
VERTEX
8
OBJECT__34
10
0
20
0
30
0
70
128
71
11
72
12
73
6
0
VERTEX
8
OBJECT__34
10
0
20
0
30
0
70
128
71
8
72
10
73
6
0
VERTEX
8
OBJECT__34
10
0
20
0
30
0
70
128
71
3
72
9
73
1
0
VERTEX
8
OBJECT__34
10
0
20
0
30
0
70
128
71
18
72
5
73
4
0
SEQEND
8
OBJECT__34
0
POLYLINE
8
OBJECT__35
66
1
70
64
71
26
72
26
62
253
0
VERTEX
8
OBJECT__35
10
-20.000000
20
48.000000
30
259.700012
70
192
0
VERTEX
8
OBJECT__35
10
-16.318001
20
14.455000
30
271.264008
70
192
0
VERTEX
8
OBJECT__35
10
-13.683000
20
16.945000
30
273.256012
70
192
0
VERTEX
8
OBJECT__35
10
-20.000000
20
0.000000
30
259.700012
70
192
0
VERTEX
8
OBJECT__35
10
0.000000
20
48.000000
30
279.700012
70
192
0
VERTEX
8
OBJECT__35
10
-14.142000
20
48.000000
30
273.842010
70
192
0
VERTEX
8
OBJECT__35
10
-6.680000
20
23.563999
30
278.550995
70
192
0
VERTEX
8
OBJECT__35
10
0.037000
20
23.924000
30
278.838989
70
192
0
VERTEX
8
OBJECT__35
10
5.042000
20
24.193001
30
279.053986
70
192
0
VERTEX
8
OBJECT__35
10
14.142000
20
48.000000
30
273.842010
70
192
0
VERTEX
8
OBJECT__35
10
20.000000
20
48.000000
30
259.700012
70
192
0
VERTEX
8
OBJECT__35
10
14.733000
20
16.907000
30
273.225006
70
192
0
VERTEX
8
OBJECT__35
10
19.768999
20
3.791000
30
262.733002
70
192
0
VERTEX
8
OBJECT__35
10
14.022000
20
17.441000
30
273.653015
70
192
0
VERTEX
8
OBJECT__35
10
14.733000
20
16.907000
30
246.175003
70
192
0
VERTEX
8
OBJECT__35
10
14.022000
20
17.441000
30
245.746994
70
192
0
VERTEX
8
OBJECT__35
10
20.000000
20
0.000000
30
259.700012
70
192
0
VERTEX
8
OBJECT__35
10
19.768999
20
3.791000
30
256.666992
70
192
0
VERTEX
8
OBJECT__35
10
0.000000
20
48.000000
30
239.699997
70
192
0
VERTEX
8
OBJECT__35
10
14.142000
20
48.000000
30
245.557999
70
192
0
VERTEX
8
OBJECT__35
10
5.042000
20
24.193001
30
240.345993
70
192
0
VERTEX
8
OBJECT__35
10
0.037000
20
23.924000
30
240.561005
70
192
0
VERTEX
8
OBJECT__35
10
-6.680000
20
23.563999
30
240.848999
70
192
0
VERTEX
8
OBJECT__35
10
-14.142000
20
48.000000
30
245.557999
70
192
0
VERTEX
8
OBJECT__35
10
-13.683000
20
16.945000
30
246.143997
70
192
0
VERTEX
8
OBJECT__35
10
-16.318001
20
14.455000
30
248.136002
70
192
0
VERTEX
8
OBJECT__35
10
0
20
0
30
0
70
128
71
1
72
2
73
3
0
VERTEX
8
OBJECT__35
10
0
20
0
30
0
70
128
71
1
72
4
73
2
0
VERTEX
8
OBJECT__35
10
0
20
0
30
0
70
128
71
5
72
6
73
7
0
VERTEX
8
OBJECT__35
10
0
20
0
30
0
70
128
71
6
72
3
73
7
0
VERTEX
8
OBJECT__35
10
0
20
0
30
0
70
128
71
5
72
8
73
9
0
VERTEX
8
OBJECT__35
10
0
20
0
30
0
70
128
71
9
72
10
73
5
0
VERTEX
8
OBJECT__35
10
0
20
0
30
0
70
128
71
11
72
12
73
13
0
VERTEX
8
OBJECT__35
10
0
20
0
30
0
70
128
71
11
72
10
73
14
0
VERTEX
8
OBJECT__35
10
0
20
0
30
0
70
128
71
14
72
12
73
11
0
VERTEX
8
OBJECT__35
10
0
20
0
30
0
70
128
71
11
72
15
73
16
0
VERTEX
8
OBJECT__35
10
0
20
0
30
0
70
128
71
11
72
17
73
18
0
VERTEX
8
OBJECT__35
10
0
20
0
30
0
70
128
71
18
72
15
73
11
0
VERTEX
8
OBJECT__35
10
0
20
0
30
0
70
128
71
19
72
20
73
21
0
VERTEX
8
OBJECT__35
10
0
20
0
30
0
70
128
71
20
72
16
73
21
0
VERTEX
8
OBJECT__35
10
0
20
0
30
0
70
128
71
19
72
22
73
23
0
VERTEX
8
OBJECT__35
10
0
20
0
30
0
70
128
71
23
72
24
73
19
0
VERTEX
8
OBJECT__35
10
0
20
0
30
0
70
128
71
1
72
24
73
25
0
VERTEX
8
OBJECT__35
10
0
20
0
30
0
70
128
71
25
72
26
73
1
0
VERTEX
8
OBJECT__35
10
0
20
0
30
0
70
128
71
26
72
4
73
1
0
VERTEX
8
OBJECT__35
10
0
20
0
30
0
70
128
71
23
72
25
73
24
0
VERTEX
8
OBJECT__35
10
0
20
0
30
0
70
128
71
21
72
22
73
19
0
VERTEX
8
OBJECT__35
10
0
20
0
30
0
70
128
71
16
72
20
73
11
0
VERTEX
8
OBJECT__35
10
0
20
0
30
0
70
128
71
13
72
17
73
11
0
VERTEX
8
OBJECT__35
10
0
20
0
30
0
70
128
71
9
72
14
73
10
0
VERTEX
8
OBJECT__35
10
0
20
0
30
0
70
128
71
7
72
8
73
5
0
VERTEX
8
OBJECT__35
10
0
20
0
30
0
70
128
71
3
72
6
73
1
0
SEQEND
8
OBJECT__35
0
POLYLINE
8
OBJECT__36
66
1
70
64
71
8
72
6
62
253
0
VERTEX
8
OBJECT__36
10
0.000000
20
48.000000
30
239.699997
70
192
0
VERTEX
8
OBJECT__36
10
-14.142000
20
48.000000
30
245.557999
70
192
0
VERTEX
8
OBJECT__36
10
-20.000000
20
48.000000
30
259.700012
70
192
0
VERTEX
8
OBJECT__36
10
14.142000
20
48.000000
30
273.842010
70
192
0
VERTEX
8
OBJECT__36
10
20.000000
20
48.000000
30
259.700012
70
192
0
VERTEX
8
OBJECT__36
10
-14.142000
20
48.000000
30
273.842010
70
192
0
VERTEX
8
OBJECT__36
10
0.000000
20
48.000000
30
279.700012
70
192
0
VERTEX
8
OBJECT__36
10
14.142000
20
48.000000
30
245.557999
70
192
0
VERTEX
8
OBJECT__36
10
0
20
0
30
0
70
128
71
1
72
2
73
3
0
VERTEX
8
OBJECT__36
10
0
20
0
30
0
70
128
71
1
72
4
73
5
0
VERTEX
8
OBJECT__36
10
0
20
0
30
0
70
128
71
3
72
6
73
1
0
VERTEX
8
OBJECT__36
10
0
20
0
30
0
70
128
71
1
72
7
73
4
0
VERTEX
8
OBJECT__36
10
0
20
0
30
0
70
128
71
5
72
8
73
1
0
VERTEX
8
OBJECT__36
10
0
20
0
30
0
70
128
71
6
72
7
73
1
0
SEQEND
8
OBJECT__36
0
POLYLINE
8
OBJECT__37
66
1
70
64
71
20
72
20
62
253
0
VERTEX
8
OBJECT__37
10
138.649994
20
0.000000
30
400.782990
70
192
0
VERTEX
8
OBJECT__37
10
138.770996
20
0.000000
30
400.957001
70
192
0
VERTEX
8
OBJECT__37
10
142.016006
20
7.955000
30
401.528992
70
192
0
VERTEX
8
OBJECT__37
10
149.850006
20
11.250000
30
402.910004
70
192
0
VERTEX
8
OBJECT__37
10
149.876007
20
11.400000
30
402.761993
70
192
0
VERTEX
8
OBJECT__37
10
144.552994
20
9.161000
30
401.824005
70
192
0
VERTEX
8
OBJECT__37
10
157.684006
20
7.955000
30
404.291992
70
192
0
VERTEX
8
OBJECT__37
10
155.199997
20
9.161000
30
403.700989
70
192
0
VERTEX
8
OBJECT__37
10
157.815002
20
8.061000
30
404.161987
70
192
0
VERTEX
8
OBJECT__37
10
160.929001
20
0.000000
30
404.864014
70
192
0
VERTEX
8
OBJECT__37
10
157.815002
20
-8.061000
30
404.161987
70
192
0
VERTEX
8
OBJECT__37
10
161.102997
20
0.000000
30
404.742004
70
192
0
VERTEX
8
OBJECT__37
10
149.850006
20
-11.250000
30
402.910004
70
192
0
VERTEX
8
OBJECT__37
10
149.876007
20
-11.400000
30
402.761993
70
192
0
VERTEX
8
OBJECT__37
10
155.199997
20
-9.161000
30
403.700989
70
192
0
VERTEX
8
OBJECT__37
10
157.684006
20
-7.955000
30
404.291992
70
192
0
VERTEX
8
OBJECT__37
10
142.016006
20
-7.955000
30
401.528992
70
192
0
VERTEX
8
OBJECT__37
10
144.552994
20
-9.161000
30
401.824005
70
192
0
VERTEX
8
OBJECT__37
10
141.938004
20
-8.061000
30
401.363007
70
192
0
VERTEX
8
OBJECT__37
10
141.938004
20
8.061000
30
401.363007
70
192
0
VERTEX
8
OBJECT__37
10
0
20
0
30
0
70
128
71
1
72
2
73
3
0
VERTEX
8
OBJECT__37
10
0
20
0
30
0
70
128
71
4
72
5
73
6
0
VERTEX
8
OBJECT__37
10
0
20
0
30
0
70
128
71
6
72
3
73
4
0
VERTEX
8
OBJECT__37
10
0
20
0
30
0
70
128
71
4
72
7
73
8
0
VERTEX
8
OBJECT__37
10
0
20
0
30
0
70
128
71
7
72
9
73
8
0
VERTEX
8
OBJECT__37
10
0
20
0
30
0
70
128
71
9
72
7
73
10
0
VERTEX
8
OBJECT__37
10
0
20
0
30
0
70
128
71
11
72
12
73
10
0
VERTEX
8
OBJECT__37
10
0
20
0
30
0
70
128
71
13
72
14
73
15
0
VERTEX
8
OBJECT__37
10
0
20
0
30
0
70
128
71
15
72
16
73
13
0
VERTEX
8
OBJECT__37
10
0
20
0
30
0
70
128
71
13
72
17
73
18
0
VERTEX
8
OBJECT__37
10
0
20
0
30
0
70
128
71
17
72
19
73
18
0
VERTEX
8
OBJECT__37
10
0
20
0
30
0
70
128
71
1
72
19
73
17
0
VERTEX
8
OBJECT__37
10
0
20
0
30
0
70
128
71
17
72
2
73
1
0
VERTEX
8
OBJECT__37
10
0
20
0
30
0
70
128
71
18
72
14
73
13
0
VERTEX
8
OBJECT__37
10
0
20
0
30
0
70
128
71
15
72
11
73
16
0
VERTEX
8
OBJECT__37
10
0
20
0
30
0
70
128
71
10
72
16
73
11
0
VERTEX
8
OBJECT__37
10
0
20
0
30
0
70
128
71
10
72
12
73
9
0
VERTEX
8
OBJECT__37
10
0
20
0
30
0
70
128
71
8
72
5
73
4
0
VERTEX
8
OBJECT__37
10
0
20
0
30
0
70
128
71
6
72
20
73
3
0
VERTEX
8
OBJECT__37
10
0
20
0
30
0
70
128
71
3
72
20
73
1
0
SEQEND
8
OBJECT__37
0
POLYLINE
8
OBJECT__38
66
1
70
64
71
18
72
18
62
253
0
VERTEX
8
OBJECT__38
10
141.576004
20
0.000000
30
384.188995
70
192
0
VERTEX
8
OBJECT__38
10
138.649994
20
0.000000
30
400.782990
70
192
0
VERTEX
8
OBJECT__38
10
141.938004
20
8.061000
30
401.363007
70
192
0
VERTEX
8
OBJECT__38
10
147.188995
20
9.873000
30
385.178986
70
192
0
VERTEX
8
OBJECT__38
10
158.416000
20
9.873000
30
387.157990
70
192
0
VERTEX
8
OBJECT__38
10
149.876007
20
11.400000
30
402.761993
70
192
0
VERTEX
8
OBJECT__38
10
144.552994
20
9.161000
30
401.824005
70
192
0
VERTEX
8
OBJECT__38
10
164.029007
20
0.000000
30
388.148010
70
192
0
VERTEX
8
OBJECT__38
10
157.815002
20
8.061000
30
404.161987
70
192
0
VERTEX
8
OBJECT__38
10
155.199997
20
9.161000
30
403.700989
70
192
0
VERTEX
8
OBJECT__38
10
161.102997
20
0.000000
30
404.742004
70
192
0
VERTEX
8
OBJECT__38
10
157.815002
20
-8.061000
30
404.161987
70
192
0
VERTEX
8
OBJECT__38
10
158.416000
20
-9.873000
30
387.157990
70
192
0
VERTEX
8
OBJECT__38
10
155.199997
20
-9.161000
30
403.700989
70
192
0
VERTEX
8
OBJECT__38
10
149.876007
20
-11.400000
30
402.761993
70
192
0
VERTEX
8
OBJECT__38
10
147.188995
20
-9.873000
30
385.178986
70
192
0
VERTEX
8
OBJECT__38
10
141.938004
20
-8.061000
30
401.363007
70
192
0
VERTEX
8
OBJECT__38
10
144.552994
20
-9.161000
30
401.824005
70
192
0
VERTEX
8
OBJECT__38
10
0
20
0
30
0
70
128
71
1
72
2
73
3
0
VERTEX
8
OBJECT__38
10
0
20
0
30
0
70
128
71
3
72
4
73
1
0
VERTEX
8
OBJECT__38
10
0
20
0
30
0
70
128
71
5
72
4
73
6
0
VERTEX
8
OBJECT__38
10
0
20
0
30
0
70
128
71
4
72
7
73
6
0
VERTEX
8
OBJECT__38
10
0
20
0
30
0
70
128
71
8
72
5
73
9
0
VERTEX
8
OBJECT__38
10
0
20
0
30
0
70
128
71
5
72
10
73
9
0
VERTEX
8
OBJECT__38
10
0
20
0
30
0
70
128
71
8
72
11
73
12
0
VERTEX
8
OBJECT__38
10
0
20
0
30
0
70
128
71
12
72
13
73
8
0
VERTEX
8
OBJECT__38
10
0
20
0
30
0
70
128
71
13
72
14
73
15
0
VERTEX
8
OBJECT__38
10
0
20
0
30
0
70
128
71
15
72
16
73
13
0
VERTEX
8
OBJECT__38
10
0
20
0
30
0
70
128
71
1
72
16
73
17
0
VERTEX
8
OBJECT__38
10
0
20
0
30
0
70
128
71
16
72
18
73
17
0
VERTEX
8
OBJECT__38
10
0
20
0
30
0
70
128
71
17
72
2
73
1
0
VERTEX
8
OBJECT__38
10
0
20
0
30
0
70
128
71
15
72
18
73
16
0
VERTEX
8
OBJECT__38
10
0
20
0
30
0
70
128
71
12
72
14
73
13
0
VERTEX
8
OBJECT__38
10
0
20
0
30
0
70
128
71
9
72
11
73
8
0
VERTEX
8
OBJECT__38
10
0
20
0
30
0
70
128
71
6
72
10
73
5
0
VERTEX
8
OBJECT__38
10
0
20
0
30
0
70
128
71
3
72
7
73
4
0
SEQEND
8
OBJECT__38
0
POLYLINE
8
OBJECT__40
66
1
70
64
71
6
72
4
62
253
0
VERTEX
8
OBJECT__40
10
158.416000
20
9.873000
30
387.157990
70
192
0
VERTEX
8
OBJECT__40
10
164.029007
20
0.000000
30
388.148010
70
192
0
VERTEX
8
OBJECT__40
10
158.416000
20
-9.873000
30
387.157990
70
192
0
VERTEX
8
OBJECT__40
10
147.188995
20
-9.873000
30
385.178986
70
192
0
VERTEX
8
OBJECT__40
10
141.576004
20
0.000000
30
384.188995
70
192
0
VERTEX
8
OBJECT__40
10
147.188995
20
9.873000
30
385.178986
70
192
0
VERTEX
8
OBJECT__40
10
0
20
0
30
0
70
128
71
1
72
2
73
3
0
VERTEX
8
OBJECT__40
10
0
20
0
30
0
70
128
71
1
72
4
73
5
0
VERTEX
8
OBJECT__40
10
0
20
0
30
0
70
128
71
5
72
6
73
1
0
VERTEX
8
OBJECT__40
10
0
20
0
30
0
70
128
71
3
72
4
73
1
0
SEQEND
8
OBJECT__40
0
POLYLINE
8
OBJECT__41
66
1
70
64
71
7
72
5
62
253
0
VERTEX
8
OBJECT__41
10
-16.573999
20
74.992996
30
263.546997
70
192
0
VERTEX
8
OBJECT__41
10
7.376000
20
74.978996
30
275.080994
70
192
0
VERTEX
8
OBJECT__41
10
16.573999
20
74.992996
30
263.546997
70
192
0
VERTEX
8
OBJECT__41
10
13.291000
20
75.010002
30
249.164993
70
192
0
VERTEX
8
OBJECT__41
10
0.000000
20
75.017998
30
242.764999
70
192
0
VERTEX
8
OBJECT__41
10
-13.291000
20
75.010002
30
249.164993
70
192
0
VERTEX
8
OBJECT__41
10
-7.376000
20
74.978996
30
275.080994
70
192
0
VERTEX
8
OBJECT__41
10
0
20
0
30
0
70
128
71
1
72
2
73
3
0
VERTEX
8
OBJECT__41
10
0
20
0
30
0
70
128
71
4
72
5
73
6
0
VERTEX
8
OBJECT__41
10
0
20
0
30
0
70
128
71
1
72
7
73
2
0
VERTEX
8
OBJECT__41
10
0
20
0
30
0
70
128
71
3
72
4
73
1
0
VERTEX
8
OBJECT__41
10
0
20
0
30
0
70
128
71
6
72
1
73
4
0
SEQEND
8
OBJECT__41
0
POLYLINE
8
OBJECT__42
66
1
70
64
71
14
72
14
62
253
0
VERTEX
8
OBJECT__42
10
13.291000
20
75.010002
30
249.164993
70
192
0
VERTEX
8
OBJECT__42
10
13.291000
20
64.510002
30
249.153000
70
192
0
VERTEX
8
OBJECT__42
10
0.000000
20
64.517998
30
242.751999
70
192
0
VERTEX
8
OBJECT__42
10
16.573999
20
74.992996
30
263.546997
70
192
0
VERTEX
8
OBJECT__42
10
16.573999
20
64.492996
30
263.535004
70
192
0
VERTEX
8
OBJECT__42
10
7.376000
20
74.978996
30
275.080994
70
192
0
VERTEX
8
OBJECT__42
10
7.376000
20
64.478996
30
275.069000
70
192
0
VERTEX
8
OBJECT__42
10
-7.376000
20
74.978996
30
275.080994
70
192
0
VERTEX
8
OBJECT__42
10
-7.376000
20
64.478996
30
275.069000
70
192
0
VERTEX
8
OBJECT__42
10
-16.573999
20
64.492996
30
263.535004
70
192
0
VERTEX
8
OBJECT__42
10
-16.573999
20
74.992996
30
263.546997
70
192
0
VERTEX
8
OBJECT__42
10
-13.291000
20
75.010002
30
249.164993
70
192
0
VERTEX
8
OBJECT__42
10
-13.291000
20
64.510002
30
249.153000
70
192
0
VERTEX
8
OBJECT__42
10
0.000000
20
75.017998
30
242.764999
70
192
0
VERTEX
8
OBJECT__42
10
0
20
0
30
0
70
128
71
1
72
2
73
3
0
VERTEX
8
OBJECT__42
10
0
20
0
30
0
70
128
71
4
72
5
73
2
0
VERTEX
8
OBJECT__42
10
0
20
0
30
0
70
128
71
6
72
7
73
5
0
VERTEX
8
OBJECT__42
10
0
20
0
30
0
70
128
71
8
72
9
73
7
0
VERTEX
8
OBJECT__42
10
0
20
0
30
0
70
128
71
10
72
9
73
8
0
VERTEX
8
OBJECT__42
10
0
20
0
30
0
70
128
71
11
72
12
73
13
0
VERTEX
8
OBJECT__42
10
0
20
0
30
0
70
128
71
3
72
13
73
12
0
VERTEX
8
OBJECT__42
10
0
20
0
30
0
70
128
71
12
72
14
73
3
0
VERTEX
8
OBJECT__42
10
0
20
0
30
0
70
128
71
13
72
10
73
11
0
VERTEX
8
OBJECT__42
10
0
20
0
30
0
70
128
71
8
72
11
73
10
0
VERTEX
8
OBJECT__42
10
0
20
0
30
0
70
128
71
7
72
6
73
8
0
VERTEX
8
OBJECT__42
10
0
20
0
30
0
70
128
71
5
72
4
73
6
0
VERTEX
8
OBJECT__42
10
0
20
0
30
0
70
128
71
2
72
1
73
4
0
VERTEX
8
OBJECT__42
10
0
20
0
30
0
70
128
71
3
72
14
73
1
0
SEQEND
8
OBJECT__42
0
POLYLINE
8
OBJECT__44
66
1
70
64
71
4
72
2
62
253
0
VERTEX
8
OBJECT__44
10
-34.028000
20
-9.000000
30
239.115997
70
192
0
VERTEX
8
OBJECT__44
10
-27.728001
20
-9.000000
30
235.906006
70
192
0
VERTEX
8
OBJECT__44
10
-24.518000
20
-9.000000
30
242.205994
70
192
0
VERTEX
8
OBJECT__44
10
-30.818001
20
-9.000000
30
245.416000
70
192
0
VERTEX
8
OBJECT__44
10
0
20
0
30
0
70
128
71
1
72
2
73
3
0
VERTEX
8
OBJECT__44
10
0
20
0
30
0
70
128
71
3
72
4
73
1
0
SEQEND
8
OBJECT__44
0
POLYLINE
8
OBJECT__45
66
1
70
64
71
17
72
19
62
253
0
VERTEX
8
OBJECT__45
10
-34.028000
20
-9.000000
30
239.115997
70
192
0
VERTEX
8
OBJECT__45
10
-30.818001
20
-9.000000
30
245.416000
70
192
0
VERTEX
8
OBJECT__45
10
-30.818001
20
9.000000
30
245.416000
70
192
0
VERTEX
8
OBJECT__45
10
-24.518000
20
-9.000000
30
242.205994
70
192
0
VERTEX
8
OBJECT__45
10
-27.728001
20
9.000000
30
235.906006
70
192
0
VERTEX
8
OBJECT__45
10
-24.518000
20
9.000000
30
242.205994
70
192
0
VERTEX
8
OBJECT__45
10
-26.230000
20
1.497000
30
236.692993
70
192
0
VERTEX
8
OBJECT__45
10
-25.677999
20
0.203000
30
237.184998
70
192
0
VERTEX
8
OBJECT__45
10
-25.969999
20
-1.145000
30
236.906998
70
192
0
VERTEX
8
OBJECT__45
10
-27.728001
20
-9.000000
30
235.906006
70
192
0
VERTEX
8
OBJECT__45
10
-27.728001
20
-2.120000
30
235.906006
70
192
0
VERTEX
8
OBJECT__45
10
-29.033001
20
-1.758000
30
235.667007
70
192
0
VERTEX
8
OBJECT__45
10
-30.100000
20
-0.410000
30
235.729996
70
192
0
VERTEX
8
OBJECT__45
10
-34.028000
20
9.000000
30
239.115997
70
192
0
VERTEX
8
OBJECT__45
10
-29.945999
20
0.818000
30
235.705994
70
192
0
VERTEX
8
OBJECT__45
10
-28.219999
20
2.069000
30
235.772995
70
192
0
VERTEX
8
OBJECT__45
10
-27.764000
20
1.938000
30
235.983994
70
192
0
VERTEX
8
OBJECT__45
10
0
20
0
30
0
70
128
71
1
72
2
73
3
0
VERTEX
8
OBJECT__45
10
0
20
0
30
0
70
128
71
3
72
2
73
4
0
VERTEX
8
OBJECT__45
10
0
20
0
30
0
70
128
71
5
72
6
73
7
0
VERTEX
8
OBJECT__45
10
0
20
0
30
0
70
128
71
6
72
8
73
7
0
VERTEX
8
OBJECT__45
10
0
20
0
30
0
70
128
71
4
72
9
73
8
0
VERTEX
8
OBJECT__45
10
0
20
0
30
0
70
128
71
8
72
6
73
4
0
VERTEX
8
OBJECT__45
10
0
20
0
30
0
70
128
71
4
72
10
73
11
0
VERTEX
8
OBJECT__45
10
0
20
0
30
0
70
128
71
11
72
9
73
4
0
VERTEX
8
OBJECT__45
10
0
20
0
30
0
70
128
71
10
72
1
73
12
0
VERTEX
8
OBJECT__45
10
0
20
0
30
0
70
128
71
1
72
13
73
12
0
VERTEX
8
OBJECT__45
10
0
20
0
30
0
70
128
71
14
72
15
73
13
0
VERTEX
8
OBJECT__45
10
0
20
0
30
0
70
128
71
13
72
1
73
14
0
VERTEX
8
OBJECT__45
10
0
20
0
30
0
70
128
71
14
72
5
73
16
0
VERTEX
8
OBJECT__45
10
0
20
0
30
0
70
128
71
16
72
15
73
14
0
VERTEX
8
OBJECT__45
10
0
20
0
30
0
70
128
71
5
72
17
73
16
0
VERTEX
8
OBJECT__45
10
0
20
0
30
0
70
128
71
12
72
11
73
10
0
VERTEX
8
OBJECT__45
10
0
20
0
30
0
70
128
71
7
72
17
73
5
0
VERTEX
8
OBJECT__45
10
0
20
0
30
0
70
128
71
4
72
6
73
3
0
VERTEX
8
OBJECT__45
10
0
20
0
30
0
70
128
71
3
72
14
73
1
0
SEQEND
8
OBJECT__45
0
POLYLINE
8
OBJECT__47
66
1
70
64
71
4
72
2
62
253
0
VERTEX
8
OBJECT__47
10
-27.728001
20
9.000000
30
235.906006
70
192
0
VERTEX
8
OBJECT__47
10
-34.028000
20
9.000000
30
239.115997
70
192
0
VERTEX
8
OBJECT__47
10
-30.818001
20
9.000000
30
245.416000
70
192
0
VERTEX
8
OBJECT__47
10
-24.518000
20
9.000000
30
242.205994
70
192
0
VERTEX
8
OBJECT__47
10
0
20
0
30
0
70
128
71
1
72
2
73
3
0
VERTEX
8
OBJECT__47
10
0
20
0
30
0
70
128
71
3
72
4
73
1
0
SEQEND
8
OBJECT__47
0
POLYLINE
8
OBJECT__48
66
1
70
64
71
14
72
14
62
253
0
VERTEX
8
OBJECT__48
10
-14.500000
20
0.000000
30
291.500000
70
192
0
VERTEX
8
OBJECT__48
10
-9.041000
20
11.337000
30
291.500000
70
192
0
VERTEX
8
OBJECT__48
10
-9.041000
20
11.337000
30
291.000000
70
192
0
VERTEX
8
OBJECT__48
10
-14.500000
20
0.000000
30
291.000000
70
192
0
VERTEX
8
OBJECT__48
10
3.227000
20
14.136000
30
291.500000
70
192
0
VERTEX
8
OBJECT__48
10
3.227000
20
14.136000
30
291.000000
70
192
0
VERTEX
8
OBJECT__48
10
13.064000
20
6.291000
30
291.500000
70
192
0
VERTEX
8
OBJECT__48
10
13.064000
20
6.291000
30
291.000000
70
192
0
VERTEX
8
OBJECT__48
10
13.064000
20
-6.291000
30
291.500000
70
192
0
VERTEX
8
OBJECT__48
10
13.064000
20
-6.291000
30
291.000000
70
192
0
VERTEX
8
OBJECT__48
10
3.227000
20
-14.136000
30
291.500000
70
192
0
VERTEX
8
OBJECT__48
10
3.227000
20
-14.136000
30
291.000000
70
192
0
VERTEX
8
OBJECT__48
10
-9.041000
20
-11.337000
30
291.500000
70
192
0
VERTEX
8
OBJECT__48
10
-9.041000
20
-11.337000
30
291.000000
70
192
0
VERTEX
8
OBJECT__48
10
0
20
0
30
0
70
128
71
1
72
2
73
3
0
VERTEX
8
OBJECT__48
10
0
20
0
30
0
70
128
71
1
72
3
73
4
0
VERTEX
8
OBJECT__48
10
0
20
0
30
0
70
128
71
2
72
5
73
6
0
VERTEX
8
OBJECT__48
10
0
20
0
30
0
70
128
71
2
72
6
73
3
0
VERTEX
8
OBJECT__48
10
0
20
0
30
0
70
128
71
5
72
7
73
8
0
VERTEX
8
OBJECT__48
10
0
20
0
30
0
70
128
71
5
72
8
73
6
0
VERTEX
8
OBJECT__48
10
0
20
0
30
0
70
128
71
7
72
9
73
10
0
VERTEX
8
OBJECT__48
10
0
20
0
30
0
70
128
71
7
72
10
73
8
0
VERTEX
8
OBJECT__48
10
0
20
0
30
0
70
128
71
9
72
11
73
12
0
VERTEX
8
OBJECT__48
10
0
20
0
30
0
70
128
71
9
72
12
73
10
0
VERTEX
8
OBJECT__48
10
0
20
0
30
0
70
128
71
11
72
13
73
14
0
VERTEX
8
OBJECT__48
10
0
20
0
30
0
70
128
71
11
72
14
73
12
0
VERTEX
8
OBJECT__48
10
0
20
0
30
0
70
128
71
13
72
1
73
4
0
VERTEX
8
OBJECT__48
10
0
20
0
30
0
70
128
71
13
72
4
73
14
0
SEQEND
8
OBJECT__48
0
ENDSEC
0
EOF
