999
Converted by 3D Exploration 
999
XDimension Software, LLC
999
http://www.xdsoft.com/explorer/
0
SECTION
2
HEADER
9
$ACADVER
1
AC1008
9
$UCSORG
10
0.0
20
0.0
30
0.0
9
$UCSXDIR
10
1.0
20
0.0
30
0.0
9
$TILEMODE
70
1
9
$UCSYDIR
10
0.0
20
1.0
30
0.0
9
$EXTMIN
10
-11.797000
20
-155.024994
30
-155.024994
9
$EXTMAX
10
575.700012
20
155.975006
30
116.849998
0
ENDSEC
0
SECTION
2
TABLES
0
TABLE
2
LTYPE
70
1
0
LTYPE
2
CONTINUOUS
70
64
3
Solid line
72
65
73
0
40
0.0
0
ENDTAB
0
TABLE
2
LAYER
70
207
0
LAYER
2
OBJECT__0
70
0
62
253
6
CONTINUOUS
0
LAYER
2
OBJECT__1
70
0
62
253
6
CONTINUOUS
0
LAYER
2
OBJECT__3
70
0
62
253
6
CONTINUOUS
0
LAYER
2
OBJECT__4
70
0
62
253
6
CONTINUOUS
0
LAYER
2
OBJECT__5
70
0
62
253
6
CONTINUOUS
0
LAYER
2
OBJECT__6
70
0
62
253
6
CONTINUOUS
0
LAYER
2
OBJECT__7
70
0
62
253
6
CONTINUOUS
0
LAYER
2
OBJECT__9
70
0
62
253
6
CONTINUOUS
0
LAYER
2
OBJECT__10
70
0
62
253
6
CONTINUOUS
0
LAYER
2
OBJECT__12
70
0
62
253
6
CONTINUOUS
0
LAYER
2
OBJECT__13
70
0
62
253
6
CONTINUOUS
0
LAYER
2
OBJECT__15
70
0
62
253
6
CONTINUOUS
0
LAYER
2
OBJECT__16
70
0
62
253
6
CONTINUOUS
0
LAYER
2
OBJECT__17
70
0
62
253
6
CONTINUOUS
0
LAYER
2
OBJECT__18
70
0
62
253
6
CONTINUOUS
0
LAYER
2
OBJECT__19
70
0
62
253
6
CONTINUOUS
0
LAYER
2
OBJECT__20
70
0
62
253
6
CONTINUOUS
0
LAYER
2
OBJECT__21
70
0
62
253
6
CONTINUOUS
0
LAYER
2
OBJECT__22
70
0
62
253
6
CONTINUOUS
0
LAYER
2
OBJECT__23
70
0
62
253
6
CONTINUOUS
0
LAYER
2
OBJECT__24
70
0
62
253
6
CONTINUOUS
0
LAYER
2
OBJECT__25
70
0
62
253
6
CONTINUOUS
0
LAYER
2
OBJECT__26
70
0
62
253
6
CONTINUOUS
0
LAYER
2
OBJECT__28
70
0
62
253
6
CONTINUOUS
0
LAYER
2
OBJECT__29
70
0
62
253
6
CONTINUOUS
0
LAYER
2
OBJECT__31
70
0
62
253
6
CONTINUOUS
0
LAYER
2
OBJECT__32
70
0
62
253
6
CONTINUOUS
0
LAYER
2
OBJECT__33
70
0
62
253
6
CONTINUOUS
0
LAYER
2
OBJECT__34
70
0
62
253
6
CONTINUOUS
0
LAYER
2
OBJECT__36
70
0
62
253
6
CONTINUOUS
0
LAYER
2
OBJECT__37
70
0
62
253
6
CONTINUOUS
0
LAYER
2
OBJECT__39
70
0
62
253
6
CONTINUOUS
0
LAYER
2
OBJECT__41
70
0
62
253
6
CONTINUOUS
0
LAYER
2
OBJECT__42
70
0
62
253
6
CONTINUOUS
0
LAYER
2
OBJECT__44
70
0
62
253
6
CONTINUOUS
0
LAYER
2
OBJECT__45
70
0
62
253
6
CONTINUOUS
0
LAYER
2
OBJECT__47
70
0
62
253
6
CONTINUOUS
0
LAYER
2
OBJECT__48
70
0
62
253
6
CONTINUOUS
0
LAYER
2
OBJECT__49
70
0
62
253
6
CONTINUOUS
0
LAYER
2
OBJECT__50
70
0
62
253
6
CONTINUOUS
0
LAYER
2
OBJECT__51
70
0
62
253
6
CONTINUOUS
0
LAYER
2
OBJECT__53
70
0
62
253
6
CONTINUOUS
0
LAYER
2
OBJECT__54
70
0
62
253
6
CONTINUOUS
0
LAYER
2
OBJECT__56
70
0
62
253
6
CONTINUOUS
0
LAYER
2
OBJECT__57
70
0
62
253
6
CONTINUOUS
0
LAYER
2
OBJECT__58
70
0
62
253
6
CONTINUOUS
0
LAYER
2
OBJECT__59
70
0
62
253
6
CONTINUOUS
0
LAYER
2
OBJECT__61
70
0
62
253
6
CONTINUOUS
0
LAYER
2
OBJECT__63
70
0
62
253
6
CONTINUOUS
0
LAYER
2
OBJECT__64
70
0
62
253
6
CONTINUOUS
0
LAYER
2
OBJECT__66
70
0
62
253
6
CONTINUOUS
0
LAYER
2
OBJECT__67
70
0
62
253
6
CONTINUOUS
0
LAYER
2
OBJECT__69
70
0
62
253
6
CONTINUOUS
0
LAYER
2
OBJECT__70
70
0
62
253
6
CONTINUOUS
0
LAYER
2
OBJECT__72
70
0
62
253
6
CONTINUOUS
0
LAYER
2
OBJECT__73
70
0
62
253
6
CONTINUOUS
0
LAYER
2
OBJECT__74
70
0
62
253
6
CONTINUOUS
0
LAYER
2
OBJECT__76
70
0
62
253
6
CONTINUOUS
0
LAYER
2
OBJECT__77
70
0
62
253
6
CONTINUOUS
0
LAYER
2
OBJECT__79
70
0
62
253
6
CONTINUOUS
0
LAYER
2
OBJECT__80
70
0
62
253
6
CONTINUOUS
0
LAYER
2
OBJECT__82
70
0
62
253
6
CONTINUOUS
0
LAYER
2
OBJECT__83
70
0
62
253
6
CONTINUOUS
0
LAYER
2
OBJECT__85
70
0
62
253
6
CONTINUOUS
0
LAYER
2
OBJECT__86
70
0
62
253
6
CONTINUOUS
0
LAYER
2
OBJECT__87
70
0
62
253
6
CONTINUOUS
0
LAYER
2
OBJECT__88
70
0
62
253
6
CONTINUOUS
0
LAYER
2
OBJECT__89
70
0
62
253
6
CONTINUOUS
0
LAYER
2
OBJECT__91
70
0
62
253
6
CONTINUOUS
0
LAYER
2
OBJECT__92
70
0
62
253
6
CONTINUOUS
0
LAYER
2
OBJECT__93
70
0
62
253
6
CONTINUOUS
0
LAYER
2
OBJECT__94
70
0
62
253
6
CONTINUOUS
0
LAYER
2
OBJECT__95
70
0
62
253
6
CONTINUOUS
0
LAYER
2
OBJECT__96
70
0
62
253
6
CONTINUOUS
0
LAYER
2
OBJECT__97
70
0
62
253
6
CONTINUOUS
0
LAYER
2
OBJECT__98
70
0
62
253
6
CONTINUOUS
0
LAYER
2
OBJECT__99
70
0
62
253
6
CONTINUOUS
0
LAYER
2
OBJECT__100
70
0
62
253
6
CONTINUOUS
0
LAYER
2
OBJECT__101
70
0
62
253
6
CONTINUOUS
0
LAYER
2
OBJECT__103
70
0
62
253
6
CONTINUOUS
0
LAYER
2
OBJECT__104
70
0
62
253
6
CONTINUOUS
0
LAYER
2
OBJECT__106
70
0
62
253
6
CONTINUOUS
0
LAYER
2
OBJECT__107
70
0
62
253
6
CONTINUOUS
0
LAYER
2
OBJECT__109
70
0
62
253
6
CONTINUOUS
0
LAYER
2
OBJECT__110
70
0
62
253
6
CONTINUOUS
0
LAYER
2
OBJECT__111
70
0
62
253
6
CONTINUOUS
0
LAYER
2
OBJECT__112
70
0
62
253
6
CONTINUOUS
0
LAYER
2
OBJECT__113
70
0
62
253
6
CONTINUOUS
0
LAYER
2
OBJECT__114
70
0
62
253
6
CONTINUOUS
0
LAYER
2
OBJECT__115
70
0
62
253
6
CONTINUOUS
0
LAYER
2
OBJECT__116
70
0
62
253
6
CONTINUOUS
0
LAYER
2
OBJECT__118
70
0
62
253
6
CONTINUOUS
0
LAYER
2
OBJECT__119
70
0
62
253
6
CONTINUOUS
0
LAYER
2
OBJECT__120
70
0
62
253
6
CONTINUOUS
0
LAYER
2
OBJECT__122
70
0
62
253
6
CONTINUOUS
0
LAYER
2
OBJECT__123
70
0
62
253
6
CONTINUOUS
0
LAYER
2
OBJECT__125
70
0
62
253
6
CONTINUOUS
0
LAYER
2
OBJECT__126
70
0
62
253
6
CONTINUOUS
0
LAYER
2
OBJECT__127
70
0
62
253
6
CONTINUOUS
0
LAYER
2
OBJECT__128
70
0
62
253
6
CONTINUOUS
0
LAYER
2
OBJECT__129
70
0
62
253
6
CONTINUOUS
0
LAYER
2
OBJECT__131
70
0
62
253
6
CONTINUOUS
0
LAYER
2
OBJECT__132
70
0
62
253
6
CONTINUOUS
0
LAYER
2
OBJECT__133
70
0
62
253
6
CONTINUOUS
0
LAYER
2
OBJECT__134
70
0
62
253
6
CONTINUOUS
0
LAYER
2
OBJECT__136
70
0
62
253
6
CONTINUOUS
0
LAYER
2
OBJECT__137
70
0
62
253
6
CONTINUOUS
0
LAYER
2
OBJECT__139
70
0
62
253
6
CONTINUOUS
0
LAYER
2
OBJECT__140
70
0
62
253
6
CONTINUOUS
0
LAYER
2
OBJECT__141
70
0
62
253
6
CONTINUOUS
0
LAYER
2
OBJECT__142
70
0
62
253
6
CONTINUOUS
0
LAYER
2
OBJECT__143
70
0
62
253
6
CONTINUOUS
0
LAYER
2
OBJECT__145
70
0
62
253
6
CONTINUOUS
0
LAYER
2
OBJECT__146
70
0
62
253
6
CONTINUOUS
0
LAYER
2
OBJECT__148
70
0
62
253
6
CONTINUOUS
0
LAYER
2
OBJECT__149
70
0
62
253
6
CONTINUOUS
0
LAYER
2
OBJECT__151
70
0
62
253
6
CONTINUOUS
0
LAYER
2
OBJECT__152
70
0
62
253
6
CONTINUOUS
0
LAYER
2
OBJECT__153
70
0
62
253
6
CONTINUOUS
0
LAYER
2
OBJECT__154
70
0
62
253
6
CONTINUOUS
0
LAYER
2
OBJECT__155
70
0
62
253
6
CONTINUOUS
0
LAYER
2
OBJECT__156
70
0
62
253
6
CONTINUOUS
0
LAYER
2
OBJECT__157
70
0
62
253
6
CONTINUOUS
0
LAYER
2
OBJECT__158
70
0
62
253
6
CONTINUOUS
0
LAYER
2
OBJECT__159
70
0
62
253
6
CONTINUOUS
0
LAYER
2
OBJECT__161
70
0
62
253
6
CONTINUOUS
0
LAYER
2
OBJECT__162
70
0
62
253
6
CONTINUOUS
0
LAYER
2
OBJECT__163
70
0
62
253
6
CONTINUOUS
0
LAYER
2
OBJECT__164
70
0
62
253
6
CONTINUOUS
0
LAYER
2
OBJECT__165
70
0
62
253
6
CONTINUOUS
0
LAYER
2
OBJECT__166
70
0
62
253
6
CONTINUOUS
0
LAYER
2
OBJECT__167
70
0
62
253
6
CONTINUOUS
0
LAYER
2
OBJECT__168
70
0
62
253
6
CONTINUOUS
0
LAYER
2
OBJECT__169
70
0
62
253
6
CONTINUOUS
0
LAYER
2
OBJECT__170
70
0
62
253
6
CONTINUOUS
0
LAYER
2
OBJECT__171
70
0
62
253
6
CONTINUOUS
0
LAYER
2
OBJECT__172
70
0
62
253
6
CONTINUOUS
0
LAYER
2
OBJECT__173
70
0
62
253
6
CONTINUOUS
0
LAYER
2
OBJECT__174
70
0
62
253
6
CONTINUOUS
0
LAYER
2
OBJECT__175
70
0
62
253
6
CONTINUOUS
0
LAYER
2
OBJECT__176
70
0
62
253
6
CONTINUOUS
0
LAYER
2
OBJECT__177
70
0
62
253
6
CONTINUOUS
0
LAYER
2
OBJECT__178
70
0
62
253
6
CONTINUOUS
0
LAYER
2
OBJECT__179
70
0
62
253
6
CONTINUOUS
0
LAYER
2
OBJECT__180
70
0
62
253
6
CONTINUOUS
0
LAYER
2
OBJECT__181
70
0
62
253
6
CONTINUOUS
0
LAYER
2
OBJECT__182
70
0
62
253
6
CONTINUOUS
0
LAYER
2
OBJECT__183
70
0
62
253
6
CONTINUOUS
0
LAYER
2
OBJECT__184
70
0
62
253
6
CONTINUOUS
0
LAYER
2
OBJECT__185
70
0
62
253
6
CONTINUOUS
0
LAYER
2
OBJECT__186
70
0
62
253
6
CONTINUOUS
0
LAYER
2
OBJECT__187
70
0
62
253
6
CONTINUOUS
0
LAYER
2
OBJECT__188
70
0
62
253
6
CONTINUOUS
0
LAYER
2
OBJECT__190
70
0
62
253
6
CONTINUOUS
0
LAYER
2
OBJECT__191
70
0
62
253
6
CONTINUOUS
0
LAYER
2
OBJECT__193
70
0
62
253
6
CONTINUOUS
0
LAYER
2
OBJECT__194
70
0
62
253
6
CONTINUOUS
0
LAYER
2
OBJECT__195
70
0
62
253
6
CONTINUOUS
0
LAYER
2
OBJECT__196
70
0
62
253
6
CONTINUOUS
0
LAYER
2
OBJECT__198
70
0
62
253
6
CONTINUOUS
0
LAYER
2
OBJECT__199
70
0
62
253
6
CONTINUOUS
0
LAYER
2
OBJECT__201
70
0
62
253
6
CONTINUOUS
0
LAYER
2
OBJECT__202
70
0
62
253
6
CONTINUOUS
0
LAYER
2
OBJECT__204
70
0
62
253
6
CONTINUOUS
0
LAYER
2
OBJECT__205
70
0
62
253
6
CONTINUOUS
0
LAYER
2
OBJECT__206
70
0
62
253
6
CONTINUOUS
0
ENDTAB
0
TABLE
2
STYLE
70
1
0
STYLE
2
STANDARD
70
0
40
0.0
41
1.0
50
0.0
71
0
42
0.2
3
txt
4
1
0
ENDTAB
0
TABLE
2
UCS
70
0
0
ENDTAB
0
ENDSEC
0
SECTION
2
ENTITIES
0
POLYLINE
8
OBJECT__0
66
1
70
64
71
13
72
12
62
253
0
VERTEX
8
OBJECT__0
10
106.468002
20
155.975006
30
-1004.882019
70
192
0
VERTEX
8
OBJECT__0
10
106.468002
20
155.054001
30
-998.882019
70
192
0
VERTEX
8
OBJECT__0
10
107.865997
20
155.054001
30
-999.460022
70
192
0
VERTEX
8
OBJECT__0
10
102.225998
20
155.054001
30
-1009.124023
70
192
0
VERTEX
8
OBJECT__0
10
101.046997
20
155.054001
30
-1006.278992
70
192
0
VERTEX
8
OBJECT__0
10
106.468002
20
155.054001
30
-1010.882019
70
192
0
VERTEX
8
OBJECT__0
10
105.070999
20
155.054001
30
-1010.302979
70
192
0
VERTEX
8
OBJECT__0
10
110.710999
20
155.054001
30
-1000.638977
70
192
0
VERTEX
8
OBJECT__0
10
111.889999
20
155.054001
30
-1003.484009
70
192
0
VERTEX
8
OBJECT__0
10
112.468002
20
155.054001
30
-1004.882019
70
192
0
VERTEX
8
OBJECT__0
10
110.710999
20
155.054001
30
-1009.124023
70
192
0
VERTEX
8
OBJECT__0
10
100.468002
20
155.054001
30
-1004.882019
70
192
0
VERTEX
8
OBJECT__0
10
102.225998
20
155.054001
30
-1000.638977
70
192
0
VERTEX
8
OBJECT__0
10
0
20
0
30
0
70
128
71
1
72
2
73
3
0
VERTEX
8
OBJECT__0
10
0
20
0
30
0
70
128
71
1
72
4
73
5
0
VERTEX
8
OBJECT__0
10
0
20
0
30
0
70
128
71
1
72
6
73
7
0
VERTEX
8
OBJECT__0
10
0
20
0
30
0
70
128
71
1
72
8
73
9
0
VERTEX
8
OBJECT__0
10
0
20
0
30
0
70
128
71
9
72
10
73
1
0
VERTEX
8
OBJECT__0
10
0
20
0
30
0
70
128
71
10
72
11
73
1
0
VERTEX
8
OBJECT__0
10
0
20
0
30
0
70
128
71
11
72
6
73
1
0
VERTEX
8
OBJECT__0
10
0
20
0
30
0
70
128
71
7
72
4
73
1
0
VERTEX
8
OBJECT__0
10
0
20
0
30
0
70
128
71
5
72
12
73
1
0
VERTEX
8
OBJECT__0
10
0
20
0
30
0
70
128
71
12
72
13
73
1
0
VERTEX
8
OBJECT__0
10
0
20
0
30
0
70
128
71
13
72
2
73
1
0
VERTEX
8
OBJECT__0
10
0
20
0
30
0
70
128
71
3
72
8
73
1
0
SEQEND
8
OBJECT__0
0
POLYLINE
8
OBJECT__1
66
1
70
64
71
44
72
44
62
253
0
VERTEX
8
OBJECT__1
10
106.468002
20
155.054001
30
-998.882019
70
192
0
VERTEX
8
OBJECT__1
10
106.323997
20
121.066002
30
-998.882996
70
192
0
VERTEX
8
OBJECT__1
10
108.019997
20
121.625999
30
-999.094971
70
192
0
VERTEX
8
OBJECT__1
10
107.865997
20
155.054001
30
-999.460022
70
192
0
VERTEX
8
OBJECT__1
10
102.225998
20
155.054001
30
-1000.638977
70
192
0
VERTEX
8
OBJECT__1
10
104.742996
20
120.133003
30
-999.135010
70
192
0
VERTEX
8
OBJECT__1
10
103.473000
20
118.800003
30
-999.682983
70
192
0
VERTEX
8
OBJECT__1
10
102.399002
20
116.487999
30
-1000.473022
70
192
0
VERTEX
8
OBJECT__1
10
103.239998
20
118.299004
30
-999.854004
70
192
0
VERTEX
8
OBJECT__1
10
102.231003
20
115.456001
30
-1000.643982
70
192
0
VERTEX
8
OBJECT__1
10
111.889999
20
155.054001
30
-1003.484009
70
192
0
VERTEX
8
OBJECT__1
10
109.774002
20
121.927002
30
-999.874023
70
192
0
VERTEX
8
OBJECT__1
10
110.664001
20
121.948997
30
-1000.687012
70
192
0
VERTEX
8
OBJECT__1
10
111.155998
20
121.959999
30
-1001.135986
70
192
0
VERTEX
8
OBJECT__1
10
108.084000
20
121.647003
30
-999.103027
70
192
0
VERTEX
8
OBJECT__1
10
112.071999
20
121.761002
30
-1002.736023
70
192
0
VERTEX
8
OBJECT__1
10
110.710999
20
155.054001
30
-1000.638977
70
192
0
VERTEX
8
OBJECT__1
10
112.202003
20
121.594002
30
-1003.341980
70
192
0
VERTEX
8
OBJECT__1
10
110.710999
20
155.054001
30
-1009.124023
70
192
0
VERTEX
8
OBJECT__1
10
111.689003
20
118.852997
30
-1007.838989
70
192
0
VERTEX
8
OBJECT__1
10
111.504997
20
118.289001
30
-1008.083008
70
192
0
VERTEX
8
OBJECT__1
10
110.754997
20
115.995003
30
-1009.078979
70
192
0
VERTEX
8
OBJECT__1
10
112.468002
20
155.054001
30
-1004.882019
70
192
0
VERTEX
8
OBJECT__1
10
112.458000
20
121.265999
30
-1004.533997
70
192
0
VERTEX
8
OBJECT__1
10
112.272003
20
120.286003
30
-1006.403992
70
192
0
VERTEX
8
OBJECT__1
10
104.916000
20
148.975006
30
-1010.677002
70
192
0
VERTEX
8
OBJECT__1
10
105.070999
20
155.054001
30
-1010.302979
70
192
0
VERTEX
8
OBJECT__1
10
106.468002
20
155.054001
30
-1010.882019
70
192
0
VERTEX
8
OBJECT__1
10
107.195999
20
148.975006
30
-1010.836975
70
192
0
VERTEX
8
OBJECT__1
10
109.161003
20
147.475006
30
-1010.242981
70
192
0
VERTEX
8
OBJECT__1
10
109.161003
20
101.974998
30
-1010.242981
70
192
0
VERTEX
8
OBJECT__1
10
110.411003
20
112.995003
30
-1009.405029
70
192
0
VERTEX
8
OBJECT__1
10
110.709999
20
115.597000
30
-1009.122986
70
192
0
VERTEX
8
OBJECT__1
10
110.411003
20
101.974998
30
-1009.405029
70
192
0
VERTEX
8
OBJECT__1
10
100.672997
20
148.975006
30
-1006.434021
70
192
0
VERTEX
8
OBJECT__1
10
102.225998
20
155.054001
30
-1009.124023
70
192
0
VERTEX
8
OBJECT__1
10
101.046997
20
155.054001
30
-1006.278992
70
192
0
VERTEX
8
OBJECT__1
10
101.107002
20
147.475006
30
-1002.189026
70
192
0
VERTEX
8
OBJECT__1
10
101.970001
20
113.843002
30
-1000.911987
70
192
0
VERTEX
8
OBJECT__1
10
101.107002
20
101.974998
30
-1002.189026
70
192
0
VERTEX
8
OBJECT__1
10
101.945000
20
112.995003
30
-1000.939026
70
192
0
VERTEX
8
OBJECT__1
10
101.945000
20
101.974998
30
-1000.939026
70
192
0
VERTEX
8
OBJECT__1
10
100.513000
20
148.975006
30
-1004.153992
70
192
0
VERTEX
8
OBJECT__1
10
100.468002
20
155.054001
30
-1004.882019
70
192
0
VERTEX
8
OBJECT__1
10
0
20
0
30
0
70
128
71
1
72
2
73
3
0
VERTEX
8
OBJECT__1
10
0
20
0
30
0
70
128
71
3
72
4
73
1
0
VERTEX
8
OBJECT__1
10
0
20
0
30
0
70
128
71
5
72
6
73
2
0
VERTEX
8
OBJECT__1
10
0
20
0
30
0
70
128
71
5
72
7
73
6
0
VERTEX
8
OBJECT__1
10
0
20
0
30
0
70
128
71
5
72
8
73
9
0
VERTEX
8
OBJECT__1
10
0
20
0
30
0
70
128
71
5
72
10
73
8
0
VERTEX
8
OBJECT__1
10
0
20
0
30
0
70
128
71
9
72
7
73
5
0
VERTEX
8
OBJECT__1
10
0
20
0
30
0
70
128
71
11
72
12
73
13
0
VERTEX
8
OBJECT__1
10
0
20
0
30
0
70
128
71
13
72
14
73
11
0
VERTEX
8
OBJECT__1
10
0
20
0
30
0
70
128
71
11
72
15
73
12
0
VERTEX
8
OBJECT__1
10
0
20
0
30
0
70
128
71
14
72
16
73
11
0
VERTEX
8
OBJECT__1
10
0
20
0
30
0
70
128
71
4
72
3
73
15
0
VERTEX
8
OBJECT__1
10
0
20
0
30
0
70
128
71
15
72
11
73
17
0
VERTEX
8
OBJECT__1
10
0
20
0
30
0
70
128
71
15
72
17
73
4
0
VERTEX
8
OBJECT__1
10
0
20
0
30
0
70
128
71
16
72
18
73
11
0
VERTEX
8
OBJECT__1
10
0
20
0
30
0
70
128
71
19
72
20
73
21
0
VERTEX
8
OBJECT__1
10
0
20
0
30
0
70
128
71
21
72
22
73
19
0
VERTEX
8
OBJECT__1
10
0
20
0
30
0
70
128
71
23
72
11
73
18
0
VERTEX
8
OBJECT__1
10
0
20
0
30
0
70
128
71
24
72
19
73
23
0
VERTEX
8
OBJECT__1
10
0
20
0
30
0
70
128
71
18
72
24
73
23
0
VERTEX
8
OBJECT__1
10
0
20
0
30
0
70
128
71
24
72
25
73
19
0
VERTEX
8
OBJECT__1
10
0
20
0
30
0
70
128
71
25
72
20
73
19
0
VERTEX
8
OBJECT__1
10
0
20
0
30
0
70
128
71
26
72
27
73
28
0
VERTEX
8
OBJECT__1
10
0
20
0
30
0
70
128
71
28
72
29
73
26
0
VERTEX
8
OBJECT__1
10
0
20
0
30
0
70
128
71
19
72
30
73
29
0
VERTEX
8
OBJECT__1
10
0
20
0
30
0
70
128
71
31
72
30
73
32
0
VERTEX
8
OBJECT__1
10
0
20
0
30
0
70
128
71
30
72
19
73
33
0
VERTEX
8
OBJECT__1
10
0
20
0
30
0
70
128
71
33
72
32
73
30
0
VERTEX
8
OBJECT__1
10
0
20
0
30
0
70
128
71
32
72
34
73
31
0
VERTEX
8
OBJECT__1
10
0
20
0
30
0
70
128
71
26
72
35
73
36
0
VERTEX
8
OBJECT__1
10
0
20
0
30
0
70
128
71
35
72
37
73
36
0
VERTEX
8
OBJECT__1
10
0
20
0
30
0
70
128
71
38
72
39
73
10
0
VERTEX
8
OBJECT__1
10
0
20
0
30
0
70
128
71
40
72
41
73
39
0
VERTEX
8
OBJECT__1
10
0
20
0
30
0
70
128
71
40
72
42
73
41
0
VERTEX
8
OBJECT__1
10
0
20
0
30
0
70
128
71
39
72
38
73
40
0
VERTEX
8
OBJECT__1
10
0
20
0
30
0
70
128
71
35
72
43
73
44
0
VERTEX
8
OBJECT__1
10
0
20
0
30
0
70
128
71
43
72
5
73
44
0
VERTEX
8
OBJECT__1
10
0
20
0
30
0
70
128
71
44
72
37
73
35
0
VERTEX
8
OBJECT__1
10
0
20
0
30
0
70
128
71
43
72
38
73
5
0
VERTEX
8
OBJECT__1
10
0
20
0
30
0
70
128
71
10
72
5
73
38
0
VERTEX
8
OBJECT__1
10
0
20
0
30
0
70
128
71
36
72
27
73
26
0
VERTEX
8
OBJECT__1
10
0
20
0
30
0
70
128
71
28
72
19
73
29
0
VERTEX
8
OBJECT__1
10
0
20
0
30
0
70
128
71
22
72
33
73
19
0
VERTEX
8
OBJECT__1
10
0
20
0
30
0
70
128
71
1
72
5
73
2
0
SEQEND
8
OBJECT__1
0
POLYLINE
8
OBJECT__3
66
1
70
64
71
5
72
3
62
253
0
VERTEX
8
OBJECT__3
10
110.411003
20
101.974998
30
-1009.405029
70
192
0
VERTEX
8
OBJECT__3
10
110.411003
20
112.995003
30
-1009.405029
70
192
0
VERTEX
8
OBJECT__3
10
106.750999
20
112.995003
30
-1004.598999
70
192
0
VERTEX
8
OBJECT__3
10
101.945000
20
101.974998
30
-1000.939026
70
192
0
VERTEX
8
OBJECT__3
10
101.945000
20
112.995003
30
-1000.939026
70
192
0
VERTEX
8
OBJECT__3
10
0
20
0
30
0
70
128
71
1
72
2
73
3
0
VERTEX
8
OBJECT__3
10
0
20
0
30
0
70
128
71
3
72
4
73
1
0
VERTEX
8
OBJECT__3
10
0
20
0
30
0
70
128
71
3
72
5
73
4
0
SEQEND
8
OBJECT__3
0
POLYLINE
8
OBJECT__4
66
1
70
64
71
24
72
23
62
253
0
VERTEX
8
OBJECT__4
10
107.839996
20
118.327003
30
-1003.510010
70
192
0
VERTEX
8
OBJECT__4
10
106.750999
20
112.995003
30
-1004.598999
70
192
0
VERTEX
8
OBJECT__4
10
110.754997
20
115.995003
30
-1009.078979
70
192
0
VERTEX
8
OBJECT__4
10
110.709999
20
115.597000
30
-1009.122986
70
192
0
VERTEX
8
OBJECT__4
10
110.411003
20
112.995003
30
-1009.405029
70
192
0
VERTEX
8
OBJECT__4
10
112.202003
20
121.594002
30
-1003.341980
70
192
0
VERTEX
8
OBJECT__4
10
112.071999
20
121.761002
30
-1002.736023
70
192
0
VERTEX
8
OBJECT__4
10
111.155998
20
121.959999
30
-1001.135986
70
192
0
VERTEX
8
OBJECT__4
10
112.272003
20
120.286003
30
-1006.403992
70
192
0
VERTEX
8
OBJECT__4
10
112.458000
20
121.265999
30
-1004.533997
70
192
0
VERTEX
8
OBJECT__4
10
111.689003
20
118.852997
30
-1007.838989
70
192
0
VERTEX
8
OBJECT__4
10
111.504997
20
118.289001
30
-1008.083008
70
192
0
VERTEX
8
OBJECT__4
10
108.019997
20
121.625999
30
-999.094971
70
192
0
VERTEX
8
OBJECT__4
10
106.323997
20
121.066002
30
-998.882996
70
192
0
VERTEX
8
OBJECT__4
10
104.742996
20
120.133003
30
-999.135010
70
192
0
VERTEX
8
OBJECT__4
10
103.473000
20
118.800003
30
-999.682983
70
192
0
VERTEX
8
OBJECT__4
10
109.774002
20
121.927002
30
-999.874023
70
192
0
VERTEX
8
OBJECT__4
10
108.084000
20
121.647003
30
-999.103027
70
192
0
VERTEX
8
OBJECT__4
10
110.664001
20
121.948997
30
-1000.687012
70
192
0
VERTEX
8
OBJECT__4
10
102.231003
20
115.456001
30
-1000.643982
70
192
0
VERTEX
8
OBJECT__4
10
101.970001
20
113.843002
30
-1000.911987
70
192
0
VERTEX
8
OBJECT__4
10
102.399002
20
116.487999
30
-1000.473022
70
192
0
VERTEX
8
OBJECT__4
10
103.239998
20
118.299004
30
-999.854004
70
192
0
VERTEX
8
OBJECT__4
10
101.945000
20
112.995003
30
-1000.939026
70
192
0
VERTEX
8
OBJECT__4
10
0
20
0
30
0
70
128
71
1
72
2
73
3
0
VERTEX
8
OBJECT__4
10
0
20
0
30
0
70
128
71
2
72
4
73
3
0
VERTEX
8
OBJECT__4
10
0
20
0
30
0
70
128
71
2
72
5
73
4
0
VERTEX
8
OBJECT__4
10
0
20
0
30
0
70
128
71
1
72
6
73
7
0
VERTEX
8
OBJECT__4
10
0
20
0
30
0
70
128
71
7
72
8
73
1
0
VERTEX
8
OBJECT__4
10
0
20
0
30
0
70
128
71
1
72
9
73
10
0
VERTEX
8
OBJECT__4
10
0
20
0
30
0
70
128
71
1
72
11
73
9
0
VERTEX
8
OBJECT__4
10
0
20
0
30
0
70
128
71
1
72
12
73
11
0
VERTEX
8
OBJECT__4
10
0
20
0
30
0
70
128
71
10
72
6
73
1
0
VERTEX
8
OBJECT__4
10
0
20
0
30
0
70
128
71
1
72
13
73
14
0
VERTEX
8
OBJECT__4
10
0
20
0
30
0
70
128
71
14
72
15
73
1
0
VERTEX
8
OBJECT__4
10
0
20
0
30
0
70
128
71
15
72
16
73
1
0
VERTEX
8
OBJECT__4
10
0
20
0
30
0
70
128
71
1
72
17
73
18
0
VERTEX
8
OBJECT__4
10
0
20
0
30
0
70
128
71
1
72
19
73
17
0
VERTEX
8
OBJECT__4
10
0
20
0
30
0
70
128
71
18
72
13
73
1
0
VERTEX
8
OBJECT__4
10
0
20
0
30
0
70
128
71
2
72
20
73
21
0
VERTEX
8
OBJECT__4
10
0
20
0
30
0
70
128
71
1
72
22
73
20
0
VERTEX
8
OBJECT__4
10
0
20
0
30
0
70
128
71
1
72
23
73
22
0
VERTEX
8
OBJECT__4
10
0
20
0
30
0
70
128
71
20
72
2
73
1
0
VERTEX
8
OBJECT__4
10
0
20
0
30
0
70
128
71
21
72
24
73
2
0
VERTEX
8
OBJECT__4
10
0
20
0
30
0
70
128
71
16
72
23
73
1
0
VERTEX
8
OBJECT__4
10
0
20
0
30
0
70
128
71
8
72
19
73
1
0
VERTEX
8
OBJECT__4
10
0
20
0
30
0
70
128
71
3
72
12
73
1
0
SEQEND
8
OBJECT__4
0
POLYLINE
8
OBJECT__5
66
1
70
64
71
5
72
3
62
253
0
VERTEX
8
OBJECT__5
10
110.411003
20
101.974998
30
-1009.405029
70
192
0
VERTEX
8
OBJECT__5
10
101.945000
20
101.974998
30
-1000.939026
70
192
0
VERTEX
8
OBJECT__5
10
105.691002
20
101.974998
30
-1005.658997
70
192
0
VERTEX
8
OBJECT__5
10
101.107002
20
101.974998
30
-1002.189026
70
192
0
VERTEX
8
OBJECT__5
10
109.161003
20
101.974998
30
-1010.242981
70
192
0
VERTEX
8
OBJECT__5
10
0
20
0
30
0
70
128
71
1
72
2
73
3
0
VERTEX
8
OBJECT__5
10
0
20
0
30
0
70
128
71
2
72
4
73
3
0
VERTEX
8
OBJECT__5
10
0
20
0
30
0
70
128
71
3
72
5
73
1
0
SEQEND
8
OBJECT__5
0
POLYLINE
8
OBJECT__6
66
1
70
64
71
36
72
36
62
253
0
VERTEX
8
OBJECT__6
10
370.700012
20
0.000000
30
14.150000
70
192
0
VERTEX
8
OBJECT__6
10
386.575012
20
54.063999
30
14.150000
70
192
0
VERTEX
8
OBJECT__6
10
379.345001
20
40.674000
30
9.254000
70
192
0
VERTEX
8
OBJECT__6
10
388.210999
20
52.875000
30
9.254000
70
192
0
VERTEX
8
OBJECT__6
10
429.157990
20
90.962997
30
14.150000
70
192
0
VERTEX
8
OBJECT__6
10
430.024994
20
89.462997
30
9.254000
70
192
0
VERTEX
8
OBJECT__6
10
403.786987
20
74.314003
30
9.254000
70
192
0
VERTEX
8
OBJECT__6
10
484.931000
20
98.982002
30
14.150000
70
192
0
VERTEX
8
OBJECT__6
10
481.153015
20
99.452003
30
9.254000
70
192
0
VERTEX
8
OBJECT__6
10
439.798004
20
95.106003
30
9.254000
70
192
0
VERTEX
8
OBJECT__6
10
484.709015
20
98.296997
30
9.254000
70
192
0
VERTEX
8
OBJECT__6
10
536.185974
20
75.574997
30
14.150000
70
192
0
VERTEX
8
OBJECT__6
10
520.700012
20
86.602997
30
9.254000
70
192
0
VERTEX
8
OBJECT__6
10
534.736023
20
73.963997
30
9.254000
70
192
0
VERTEX
8
OBJECT__6
10
566.648987
20
28.173000
30
14.150000
70
192
0
VERTEX
8
OBJECT__6
10
565.463013
20
27.645000
30
9.254000
70
192
0
VERTEX
8
OBJECT__6
10
551.601990
20
58.778999
30
9.254000
70
192
0
VERTEX
8
OBJECT__6
10
566.648987
20
-28.173000
30
14.150000
70
192
0
VERTEX
8
OBJECT__6
10
568.515015
20
-20.791000
30
9.254000
70
192
0
VERTEX
8
OBJECT__6
10
568.515015
20
20.791000
30
9.254000
70
192
0
VERTEX
8
OBJECT__6
10
565.463013
20
-27.645000
30
9.254000
70
192
0
VERTEX
8
OBJECT__6
10
536.185974
20
-75.574997
30
14.150000
70
192
0
VERTEX
8
OBJECT__6
10
551.601990
20
-58.778999
30
9.254000
70
192
0
VERTEX
8
OBJECT__6
10
534.736023
20
-73.963997
30
9.254000
70
192
0
VERTEX
8
OBJECT__6
10
484.931000
20
-98.982002
30
14.150000
70
192
0
VERTEX
8
OBJECT__6
10
484.709015
20
-98.296997
30
9.254000
70
192
0
VERTEX
8
OBJECT__6
10
520.700012
20
-86.602997
30
9.254000
70
192
0
VERTEX
8
OBJECT__6
10
429.157990
20
-90.962997
30
14.150000
70
192
0
VERTEX
8
OBJECT__6
10
439.798004
20
-95.106003
30
9.254000
70
192
0
VERTEX
8
OBJECT__6
10
481.153015
20
-99.452003
30
9.254000
70
192
0
VERTEX
8
OBJECT__6
10
430.024994
20
-89.462997
30
9.254000
70
192
0
VERTEX
8
OBJECT__6
10
386.575012
20
-54.063999
30
14.150000
70
192
0
VERTEX
8
OBJECT__6
10
403.786987
20
-74.314003
30
9.254000
70
192
0
VERTEX
8
OBJECT__6
10
388.210999
20
-52.875000
30
9.254000
70
192
0
VERTEX
8
OBJECT__6
10
370.700012
20
0.000000
30
9.254000
70
192
0
VERTEX
8
OBJECT__6
10
379.345001
20
-40.674000
30
9.254000
70
192
0
VERTEX
8
OBJECT__6
10
0
20
0
30
0
70
128
71
1
72
2
73
3
0
VERTEX
8
OBJECT__6
10
0
20
0
30
0
70
128
71
2
72
4
73
3
0
VERTEX
8
OBJECT__6
10
0
20
0
30
0
70
128
71
5
72
6
73
7
0
VERTEX
8
OBJECT__6
10
0
20
0
30
0
70
128
71
7
72
2
73
5
0
VERTEX
8
OBJECT__6
10
0
20
0
30
0
70
128
71
8
72
9
73
10
0
VERTEX
8
OBJECT__6
10
0
20
0
30
0
70
128
71
10
72
5
73
8
0
VERTEX
8
OBJECT__6
10
0
20
0
30
0
70
128
71
8
72
11
73
9
0
VERTEX
8
OBJECT__6
10
0
20
0
30
0
70
128
71
8
72
12
73
13
0
VERTEX
8
OBJECT__6
10
0
20
0
30
0
70
128
71
12
72
14
73
13
0
VERTEX
8
OBJECT__6
10
0
20
0
30
0
70
128
71
15
72
16
73
17
0
VERTEX
8
OBJECT__6
10
0
20
0
30
0
70
128
71
17
72
12
73
15
0
VERTEX
8
OBJECT__6
10
0
20
0
30
0
70
128
71
18
72
19
73
20
0
VERTEX
8
OBJECT__6
10
0
20
0
30
0
70
128
71
20
72
15
73
18
0
VERTEX
8
OBJECT__6
10
0
20
0
30
0
70
128
71
18
72
21
73
19
0
VERTEX
8
OBJECT__6
10
0
20
0
30
0
70
128
71
18
72
22
73
23
0
VERTEX
8
OBJECT__6
10
0
20
0
30
0
70
128
71
22
72
24
73
23
0
VERTEX
8
OBJECT__6
10
0
20
0
30
0
70
128
71
25
72
26
73
27
0
VERTEX
8
OBJECT__6
10
0
20
0
30
0
70
128
71
27
72
22
73
25
0
VERTEX
8
OBJECT__6
10
0
20
0
30
0
70
128
71
25
72
28
73
29
0
VERTEX
8
OBJECT__6
10
0
20
0
30
0
70
128
71
29
72
30
73
25
0
VERTEX
8
OBJECT__6
10
0
20
0
30
0
70
128
71
28
72
31
73
29
0
VERTEX
8
OBJECT__6
10
0
20
0
30
0
70
128
71
28
72
32
73
33
0
VERTEX
8
OBJECT__6
10
0
20
0
30
0
70
128
71
32
72
34
73
33
0
VERTEX
8
OBJECT__6
10
0
20
0
30
0
70
128
71
1
72
35
73
36
0
VERTEX
8
OBJECT__6
10
0
20
0
30
0
70
128
71
36
72
32
73
1
0
VERTEX
8
OBJECT__6
10
0
20
0
30
0
70
128
71
36
72
34
73
32
0
VERTEX
8
OBJECT__6
10
0
20
0
30
0
70
128
71
33
72
31
73
28
0
VERTEX
8
OBJECT__6
10
0
20
0
30
0
70
128
71
30
72
26
73
25
0
VERTEX
8
OBJECT__6
10
0
20
0
30
0
70
128
71
27
72
24
73
22
0
VERTEX
8
OBJECT__6
10
0
20
0
30
0
70
128
71
23
72
21
73
18
0
VERTEX
8
OBJECT__6
10
0
20
0
30
0
70
128
71
20
72
16
73
15
0
VERTEX
8
OBJECT__6
10
0
20
0
30
0
70
128
71
17
72
14
73
12
0
VERTEX
8
OBJECT__6
10
0
20
0
30
0
70
128
71
13
72
11
73
8
0
VERTEX
8
OBJECT__6
10
0
20
0
30
0
70
128
71
10
72
6
73
5
0
VERTEX
8
OBJECT__6
10
0
20
0
30
0
70
128
71
7
72
4
73
2
0
VERTEX
8
OBJECT__6
10
0
20
0
30
0
70
128
71
3
72
35
73
1
0
SEQEND
8
OBJECT__6
0
POLYLINE
8
OBJECT__7
66
1
70
64
71
40
72
40
62
253
0
VERTEX
8
OBJECT__7
10
370.700012
20
0.000000
30
9.254000
70
192
0
VERTEX
8
OBJECT__7
10
379.345001
20
40.674000
30
9.254000
70
192
0
VERTEX
8
OBJECT__7
10
459.281006
20
5.084000
30
6.700000
70
192
0
VERTEX
8
OBJECT__7
10
388.210999
20
52.875000
30
9.254000
70
192
0
VERTEX
8
OBJECT__7
10
403.786987
20
74.314003
30
9.254000
70
192
0
VERTEX
8
OBJECT__7
10
462.335999
20
9.289000
30
6.700000
70
192
0
VERTEX
8
OBJECT__7
10
430.024994
20
89.462997
30
9.254000
70
192
0
VERTEX
8
OBJECT__7
10
466.837006
20
11.888000
30
6.700000
70
192
0
VERTEX
8
OBJECT__7
10
439.798004
20
95.106003
30
9.254000
70
192
0
VERTEX
8
OBJECT__7
10
481.153015
20
99.452003
30
9.254000
70
192
0
VERTEX
8
OBJECT__7
10
472.006989
20
12.432000
30
6.700000
70
192
0
VERTEX
8
OBJECT__7
10
484.709015
20
98.296997
30
9.254000
70
192
0
VERTEX
8
OBJECT__7
10
520.700012
20
86.602997
30
9.254000
70
192
0
VERTEX
8
OBJECT__7
10
476.950012
20
10.825000
30
6.700000
70
192
0
VERTEX
8
OBJECT__7
10
534.736023
20
73.963997
30
9.254000
70
192
0
VERTEX
8
OBJECT__7
10
551.601990
20
58.778999
30
9.254000
70
192
0
VERTEX
8
OBJECT__7
10
480.812988
20
7.347000
30
6.700000
70
192
0
VERTEX
8
OBJECT__7
10
565.463013
20
27.645000
30
9.254000
70
192
0
VERTEX
8
OBJECT__7
10
482.927002
20
2.599000
30
6.700000
70
192
0
VERTEX
8
OBJECT__7
10
568.515015
20
-20.791000
30
9.254000
70
192
0
VERTEX
8
OBJECT__7
10
482.927002
20
-2.599000
30
6.700000
70
192
0
VERTEX
8
OBJECT__7
10
565.463013
20
-27.645000
30
9.254000
70
192
0
VERTEX
8
OBJECT__7
10
551.601990
20
-58.778999
30
9.254000
70
192
0
VERTEX
8
OBJECT__7
10
480.812988
20
-7.347000
30
6.700000
70
192
0
VERTEX
8
OBJECT__7
10
534.736023
20
-73.963997
30
9.254000
70
192
0
VERTEX
8
OBJECT__7
10
476.950012
20
-10.825000
30
6.700000
70
192
0
VERTEX
8
OBJECT__7
10
484.709015
20
-98.296997
30
9.254000
70
192
0
VERTEX
8
OBJECT__7
10
472.006989
20
-12.432000
30
6.700000
70
192
0
VERTEX
8
OBJECT__7
10
520.700012
20
-86.602997
30
9.254000
70
192
0
VERTEX
8
OBJECT__7
10
481.153015
20
-99.452003
30
9.254000
70
192
0
VERTEX
8
OBJECT__7
10
439.798004
20
-95.106003
30
9.254000
70
192
0
VERTEX
8
OBJECT__7
10
466.837006
20
-11.888000
30
6.700000
70
192
0
VERTEX
8
OBJECT__7
10
430.024994
20
-89.462997
30
9.254000
70
192
0
VERTEX
8
OBJECT__7
10
403.786987
20
-74.314003
30
9.254000
70
192
0
VERTEX
8
OBJECT__7
10
462.335999
20
-9.289000
30
6.700000
70
192
0
VERTEX
8
OBJECT__7
10
388.210999
20
-52.875000
30
9.254000
70
192
0
VERTEX
8
OBJECT__7
10
459.281006
20
-5.084000
30
6.700000
70
192
0
VERTEX
8
OBJECT__7
10
458.200012
20
0.000000
30
6.700000
70
192
0
VERTEX
8
OBJECT__7
10
379.345001
20
-40.674000
30
9.254000
70
192
0
VERTEX
8
OBJECT__7
10
568.515015
20
20.791000
30
9.254000
70
192
0
VERTEX
8
OBJECT__7
10
0
20
0
30
0
70
128
71
1
72
2
73
3
0
VERTEX
8
OBJECT__7
10
0
20
0
30
0
70
128
71
4
72
5
73
6
0
VERTEX
8
OBJECT__7
10
0
20
0
30
0
70
128
71
3
72
2
73
4
0
VERTEX
8
OBJECT__7
10
0
20
0
30
0
70
128
71
7
72
8
73
6
0
VERTEX
8
OBJECT__7
10
0
20
0
30
0
70
128
71
6
72
5
73
7
0
VERTEX
8
OBJECT__7
10
0
20
0
30
0
70
128
71
9
72
10
73
11
0
VERTEX
8
OBJECT__7
10
0
20
0
30
0
70
128
71
12
72
13
73
14
0
VERTEX
8
OBJECT__7
10
0
20
0
30
0
70
128
71
11
72
10
73
12
0
VERTEX
8
OBJECT__7
10
0
20
0
30
0
70
128
71
15
72
16
73
17
0
VERTEX
8
OBJECT__7
10
0
20
0
30
0
70
128
71
14
72
13
73
15
0
VERTEX
8
OBJECT__7
10
0
20
0
30
0
70
128
71
18
72
19
73
17
0
VERTEX
8
OBJECT__7
10
0
20
0
30
0
70
128
71
17
72
16
73
18
0
VERTEX
8
OBJECT__7
10
0
20
0
30
0
70
128
71
20
72
21
73
19
0
VERTEX
8
OBJECT__7
10
0
20
0
30
0
70
128
71
22
72
23
73
24
0
VERTEX
8
OBJECT__7
10
0
20
0
30
0
70
128
71
21
72
20
73
22
0
VERTEX
8
OBJECT__7
10
0
20
0
30
0
70
128
71
25
72
26
73
24
0
VERTEX
8
OBJECT__7
10
0
20
0
30
0
70
128
71
24
72
23
73
25
0
VERTEX
8
OBJECT__7
10
0
20
0
30
0
70
128
71
27
72
28
73
26
0
VERTEX
8
OBJECT__7
10
0
20
0
30
0
70
128
71
26
72
29
73
27
0
VERTEX
8
OBJECT__7
10
0
20
0
30
0
70
128
71
30
72
31
73
32
0
VERTEX
8
OBJECT__7
10
0
20
0
30
0
70
128
71
33
72
34
73
35
0
VERTEX
8
OBJECT__7
10
0
20
0
30
0
70
128
71
32
72
31
73
33
0
VERTEX
8
OBJECT__7
10
0
20
0
30
0
70
128
71
36
72
37
73
35
0
VERTEX
8
OBJECT__7
10
0
20
0
30
0
70
128
71
35
72
34
73
36
0
VERTEX
8
OBJECT__7
10
0
20
0
30
0
70
128
71
1
72
38
73
37
0
VERTEX
8
OBJECT__7
10
0
20
0
30
0
70
128
71
37
72
39
73
1
0
VERTEX
8
OBJECT__7
10
0
20
0
30
0
70
128
71
36
72
39
73
37
0
VERTEX
8
OBJECT__7
10
0
20
0
30
0
70
128
71
35
72
32
73
33
0
VERTEX
8
OBJECT__7
10
0
20
0
30
0
70
128
71
32
72
28
73
30
0
VERTEX
8
OBJECT__7
10
0
20
0
30
0
70
128
71
27
72
30
73
28
0
VERTEX
8
OBJECT__7
10
0
20
0
30
0
70
128
71
25
72
29
73
26
0
VERTEX
8
OBJECT__7
10
0
20
0
30
0
70
128
71
24
72
21
73
22
0
VERTEX
8
OBJECT__7
10
0
20
0
30
0
70
128
71
19
72
40
73
20
0
VERTEX
8
OBJECT__7
10
0
20
0
30
0
70
128
71
18
72
40
73
19
0
VERTEX
8
OBJECT__7
10
0
20
0
30
0
70
128
71
17
72
14
73
15
0
VERTEX
8
OBJECT__7
10
0
20
0
30
0
70
128
71
14
72
11
73
12
0
VERTEX
8
OBJECT__7
10
0
20
0
30
0
70
128
71
11
72
8
73
9
0
VERTEX
8
OBJECT__7
10
0
20
0
30
0
70
128
71
7
72
9
73
8
0
VERTEX
8
OBJECT__7
10
0
20
0
30
0
70
128
71
6
72
3
73
4
0
VERTEX
8
OBJECT__7
10
0
20
0
30
0
70
128
71
3
72
38
73
1
0
SEQEND
8
OBJECT__7
0
POLYLINE
8
OBJECT__9
66
1
70
64
71
15
72
13
62
253
0
VERTEX
8
OBJECT__9
10
459.281006
20
5.084000
30
6.700000
70
192
0
VERTEX
8
OBJECT__9
10
466.837006
20
11.888000
30
6.700000
70
192
0
VERTEX
8
OBJECT__9
10
472.006989
20
12.432000
30
6.700000
70
192
0
VERTEX
8
OBJECT__9
10
462.335999
20
9.289000
30
6.700000
70
192
0
VERTEX
8
OBJECT__9
10
480.812988
20
7.347000
30
6.700000
70
192
0
VERTEX
8
OBJECT__9
10
462.335999
20
-9.289000
30
6.700000
70
192
0
VERTEX
8
OBJECT__9
10
459.281006
20
-5.084000
30
6.700000
70
192
0
VERTEX
8
OBJECT__9
10
472.006989
20
-12.432000
30
6.700000
70
192
0
VERTEX
8
OBJECT__9
10
466.837006
20
-11.888000
30
6.700000
70
192
0
VERTEX
8
OBJECT__9
10
476.950012
20
-10.825000
30
6.700000
70
192
0
VERTEX
8
OBJECT__9
10
482.927002
20
2.599000
30
6.700000
70
192
0
VERTEX
8
OBJECT__9
10
482.927002
20
-2.599000
30
6.700000
70
192
0
VERTEX
8
OBJECT__9
10
476.950012
20
10.825000
30
6.700000
70
192
0
VERTEX
8
OBJECT__9
10
458.200012
20
0.000000
30
6.700000
70
192
0
VERTEX
8
OBJECT__9
10
480.812988
20
-7.347000
30
6.700000
70
192
0
VERTEX
8
OBJECT__9
10
0
20
0
30
0
70
128
71
1
72
2
73
3
0
VERTEX
8
OBJECT__9
10
0
20
0
30
0
70
128
71
1
72
4
73
2
0
VERTEX
8
OBJECT__9
10
0
20
0
30
0
70
128
71
5
72
6
73
7
0
VERTEX
8
OBJECT__9
10
0
20
0
30
0
70
128
71
5
72
8
73
9
0
VERTEX
8
OBJECT__9
10
0
20
0
30
0
70
128
71
10
72
11
73
12
0
VERTEX
8
OBJECT__9
10
0
20
0
30
0
70
128
71
3
72
13
73
1
0
VERTEX
8
OBJECT__9
10
0
20
0
30
0
70
128
71
7
72
14
73
5
0
VERTEX
8
OBJECT__9
10
0
20
0
30
0
70
128
71
5
72
10
73
8
0
VERTEX
8
OBJECT__9
10
0
20
0
30
0
70
128
71
10
72
5
73
11
0
VERTEX
8
OBJECT__9
10
0
20
0
30
0
70
128
71
14
72
1
73
5
0
VERTEX
8
OBJECT__9
10
0
20
0
30
0
70
128
71
12
72
15
73
10
0
VERTEX
8
OBJECT__9
10
0
20
0
30
0
70
128
71
9
72
6
73
5
0
VERTEX
8
OBJECT__9
10
0
20
0
30
0
70
128
71
13
72
5
73
1
0
SEQEND
8
OBJECT__9
0
POLYLINE
8
OBJECT__10
66
1
70
64
71
3
72
1
62
253
0
VERTEX
8
OBJECT__10
10
77.785004
20
-9.436000
30
8.350000
70
192
0
VERTEX
8
OBJECT__10
10
63.615002
20
-9.436000
30
8.350000
70
192
0
VERTEX
8
OBJECT__10
10
70.699997
20
-11.800000
30
8.350000
70
192
0
VERTEX
8
OBJECT__10
10
0
20
0
30
0
70
128
71
1
72
2
73
3
0
SEQEND
8
OBJECT__10
0
POLYLINE
8
OBJECT__12
66
1
70
64
71
35
72
33
62
253
0
VERTEX
8
OBJECT__12
10
58.130001
20
52.575001
30
-391.342987
70
192
0
VERTEX
8
OBJECT__12
10
61.791000
20
58.978001
30
-388.283997
70
192
0
VERTEX
8
OBJECT__12
10
60.792999
20
58.591999
30
-388.421997
70
192
0
VERTEX
8
OBJECT__12
10
60.966999
20
58.772999
30
-388.308014
70
192
0
VERTEX
8
OBJECT__12
10
61.738998
20
59.000000
30
-388.256012
70
192
0
VERTEX
8
OBJECT__12
10
61.405998
20
59.023998
30
-388.181000
70
192
0
VERTEX
8
OBJECT__12
10
57.257000
20
51.424999
30
-391.480011
70
192
0
VERTEX
8
OBJECT__12
10
58.062000
20
44.353001
30
-390.636993
70
192
0
VERTEX
8
OBJECT__12
10
58.243999
20
45.055000
30
-391.184998
70
192
0
VERTEX
8
OBJECT__12
10
57.997002
20
52.342999
30
-391.454010
70
192
0
VERTEX
8
OBJECT__12
10
57.792999
20
52.512001
30
-391.015991
70
192
0
VERTEX
8
OBJECT__12
10
58.595001
20
44.562000
30
-390.923004
70
192
0
VERTEX
8
OBJECT__12
10
63.053001
20
38.300999
30
-387.589996
70
192
0
VERTEX
8
OBJECT__12
10
58.119999
20
43.847000
30
-390.575989
70
192
0
VERTEX
8
OBJECT__12
10
70.707001
20
35.752998
30
-385.750000
70
192
0
VERTEX
8
OBJECT__12
10
70.699997
20
35.438999
30
-385.451996
70
192
0
VERTEX
8
OBJECT__12
10
70.707001
20
35.437000
30
-385.450012
70
192
0
VERTEX
8
OBJECT__12
10
63.067001
20
37.772999
30
-387.148987
70
192
0
VERTEX
8
OBJECT__12
10
63.104000
20
38.229000
30
-387.550995
70
192
0
VERTEX
8
OBJECT__12
10
62.801998
20
38.098999
30
-387.332001
70
192
0
VERTEX
8
OBJECT__12
10
78.492996
20
37.882999
30
-387.225006
70
192
0
VERTEX
8
OBJECT__12
10
77.945999
20
37.981998
30
-387.381012
70
192
0
VERTEX
8
OBJECT__12
10
83.419998
20
44.370998
30
-390.750000
70
192
0
VERTEX
8
OBJECT__12
10
82.884003
20
44.263000
30
-390.901001
70
192
0
VERTEX
8
OBJECT__12
10
82.900002
20
44.449001
30
-390.917999
70
192
0
VERTEX
8
OBJECT__12
10
83.542999
20
44.533001
30
-390.838013
70
192
0
VERTEX
8
OBJECT__12
10
84.047997
20
51.938999
30
-391.373993
70
192
0
VERTEX
8
OBJECT__12
10
83.524002
20
51.778999
30
-391.591003
70
192
0
VERTEX
8
OBJECT__12
10
83.706001
20
52.587002
30
-391.084015
70
192
0
VERTEX
8
OBJECT__12
10
83.147003
20
52.483002
30
-391.269012
70
192
0
VERTEX
8
OBJECT__12
10
80.432999
20
58.772999
30
-388.308014
70
192
0
VERTEX
8
OBJECT__12
10
79.726997
20
58.862999
30
-388.356995
70
192
0
VERTEX
8
OBJECT__12
10
80.250000
20
58.921001
30
-388.221008
70
192
0
VERTEX
8
OBJECT__12
10
79.878998
20
59.036999
30
-388.190002
70
192
0
VERTEX
8
OBJECT__12
10
79.608002
20
58.978001
30
-388.282990
70
192
0
VERTEX
8
OBJECT__12
10
0
20
0
30
0
70
128
71
1
72
2
73
3
0
VERTEX
8
OBJECT__12
10
0
20
0
30
0
70
128
71
4
72
2
73
5
0
VERTEX
8
OBJECT__12
10
0
20
0
30
0
70
128
71
5
72
6
73
4
0
VERTEX
8
OBJECT__12
10
0
20
0
30
0
70
128
71
4
72
3
73
2
0
VERTEX
8
OBJECT__12
10
0
20
0
30
0
70
128
71
7
72
8
73
9
0
VERTEX
8
OBJECT__12
10
0
20
0
30
0
70
128
71
10
72
11
73
7
0
VERTEX
8
OBJECT__12
10
0
20
0
30
0
70
128
71
9
72
10
73
7
0
VERTEX
8
OBJECT__12
10
0
20
0
30
0
70
128
71
8
72
12
73
9
0
VERTEX
8
OBJECT__12
10
0
20
0
30
0
70
128
71
13
72
12
73
14
0
VERTEX
8
OBJECT__12
10
0
20
0
30
0
70
128
71
12
72
8
73
14
0
VERTEX
8
OBJECT__12
10
0
20
0
30
0
70
128
71
15
72
16
73
17
0
VERTEX
8
OBJECT__12
10
0
20
0
30
0
70
128
71
18
72
16
73
15
0
VERTEX
8
OBJECT__12
10
0
20
0
30
0
70
128
71
19
72
20
73
18
0
VERTEX
8
OBJECT__12
10
0
20
0
30
0
70
128
71
15
72
19
73
18
0
VERTEX
8
OBJECT__12
10
0
20
0
30
0
70
128
71
17
72
21
73
22
0
VERTEX
8
OBJECT__12
10
0
20
0
30
0
70
128
71
21
72
23
73
24
0
VERTEX
8
OBJECT__12
10
0
20
0
30
0
70
128
71
23
72
25
73
24
0
VERTEX
8
OBJECT__12
10
0
20
0
30
0
70
128
71
24
72
22
73
21
0
VERTEX
8
OBJECT__12
10
0
20
0
30
0
70
128
71
22
72
15
73
17
0
VERTEX
8
OBJECT__12
10
0
20
0
30
0
70
128
71
26
72
27
73
28
0
VERTEX
8
OBJECT__12
10
0
20
0
30
0
70
128
71
25
72
23
73
26
0
VERTEX
8
OBJECT__12
10
0
20
0
30
0
70
128
71
28
72
27
73
29
0
VERTEX
8
OBJECT__12
10
0
20
0
30
0
70
128
71
29
72
30
73
28
0
VERTEX
8
OBJECT__12
10
0
20
0
30
0
70
128
71
30
72
29
73
31
0
VERTEX
8
OBJECT__12
10
0
20
0
30
0
70
128
71
31
72
32
73
30
0
VERTEX
8
OBJECT__12
10
0
20
0
30
0
70
128
71
32
72
33
73
34
0
VERTEX
8
OBJECT__12
10
0
20
0
30
0
70
128
71
34
72
35
73
32
0
VERTEX
8
OBJECT__12
10
0
20
0
30
0
70
128
71
31
72
33
73
32
0
VERTEX
8
OBJECT__12
10
0
20
0
30
0
70
128
71
28
72
25
73
26
0
VERTEX
8
OBJECT__12
10
0
20
0
30
0
70
128
71
19
72
13
73
20
0
VERTEX
8
OBJECT__12
10
0
20
0
30
0
70
128
71
14
72
20
73
13
0
VERTEX
8
OBJECT__12
10
0
20
0
30
0
70
128
71
10
72
1
73
11
0
VERTEX
8
OBJECT__12
10
0
20
0
30
0
70
128
71
3
72
11
73
1
0
SEQEND
8
OBJECT__12
0
POLYLINE
8
OBJECT__13
66
1
70
64
71
56
72
56
62
253
0
VERTEX
8
OBJECT__13
10
60.119999
20
16.650000
30
-418.011993
70
192
0
VERTEX
8
OBJECT__13
10
70.738998
20
37.877998
30
-421.040009
70
192
0
VERTEX
8
OBJECT__13
10
73.766998
20
37.667999
30
-421.187012
70
192
0
VERTEX
8
OBJECT__13
10
65.935997
20
38.212002
30
-420.808014
70
192
0
VERTEX
8
OBJECT__13
10
81.279999
20
16.650000
30
-418.011993
70
192
0
VERTEX
8
OBJECT__13
10
79.795998
20
41.164001
30
-418.981995
70
192
0
VERTEX
8
OBJECT__13
10
60.162998
20
43.393002
30
-417.929993
70
192
0
VERTEX
8
OBJECT__13
10
81.278000
20
55.202000
30
-418.009003
70
192
0
VERTEX
8
OBJECT__13
10
80.432999
20
56.411999
30
-418.592010
70
192
0
VERTEX
8
OBJECT__13
10
80.432999
20
61.014000
30
-418.592010
70
192
0
VERTEX
8
OBJECT__13
10
80.654999
20
61.397999
30
-418.446991
70
192
0
VERTEX
8
OBJECT__13
10
81.380997
20
55.055000
30
-417.938995
70
192
0
VERTEX
8
OBJECT__13
10
81.629997
20
61.930000
30
-417.619995
70
192
0
VERTEX
8
OBJECT__13
10
83.871002
20
63.150002
30
-415.718994
70
192
0
VERTEX
8
OBJECT__13
10
81.233002
20
61.713001
30
-417.955994
70
192
0
VERTEX
8
OBJECT__13
10
87.819000
20
63.150002
30
-397.888000
70
192
0
VERTEX
8
OBJECT__13
10
82.999001
20
48.333000
30
-416.592987
70
192
0
VERTEX
8
OBJECT__13
10
87.819000
20
16.650000
30
-397.888000
70
192
0
VERTEX
8
OBJECT__13
10
81.338997
20
44.618000
30
-417.830994
70
192
0
VERTEX
8
OBJECT__13
10
81.214996
20
44.339001
30
-417.924011
70
192
0
VERTEX
8
OBJECT__13
10
78.492996
20
37.882999
30
-387.225006
70
192
0
VERTEX
8
OBJECT__13
10
70.707001
20
35.437000
30
-385.450012
70
192
0
VERTEX
8
OBJECT__13
10
70.699997
20
16.650000
30
-385.450012
70
192
0
VERTEX
8
OBJECT__13
10
83.542999
20
44.533001
30
-390.838013
70
192
0
VERTEX
8
OBJECT__13
10
83.419998
20
44.370998
30
-390.750000
70
192
0
VERTEX
8
OBJECT__13
10
84.047997
20
51.938999
30
-391.373993
70
192
0
VERTEX
8
OBJECT__13
10
83.706001
20
52.587002
30
-391.084015
70
192
0
VERTEX
8
OBJECT__13
10
80.654999
20
61.397999
30
-388.453003
70
192
0
VERTEX
8
OBJECT__13
10
80.432999
20
61.014000
30
-388.308014
70
192
0
VERTEX
8
OBJECT__13
10
81.642998
20
61.937000
30
-389.291992
70
192
0
VERTEX
8
OBJECT__13
10
80.432999
20
58.772999
30
-388.308014
70
192
0
VERTEX
8
OBJECT__13
10
83.871002
20
63.150002
30
-391.181000
70
192
0
VERTEX
8
OBJECT__13
10
60.792999
20
58.591999
30
-388.421997
70
192
0
VERTEX
8
OBJECT__13
10
60.966999
20
58.772999
30
-388.308014
70
192
0
VERTEX
8
OBJECT__13
10
60.966999
20
61.014000
30
-388.308014
70
192
0
VERTEX
8
OBJECT__13
10
60.744999
20
61.397999
30
-388.453003
70
192
0
VERTEX
8
OBJECT__13
10
57.792999
20
52.512001
30
-391.015991
70
192
0
VERTEX
8
OBJECT__13
10
57.528999
20
63.150002
30
-391.181000
70
192
0
VERTEX
8
OBJECT__13
10
53.581001
20
63.150002
30
-397.888000
70
192
0
VERTEX
8
OBJECT__13
10
57.257000
20
51.424999
30
-391.480011
70
192
0
VERTEX
8
OBJECT__13
10
53.581001
20
16.650000
30
-397.888000
70
192
0
VERTEX
8
OBJECT__13
10
58.062000
20
44.353001
30
-390.636993
70
192
0
VERTEX
8
OBJECT__13
10
58.119999
20
43.847000
30
-390.575989
70
192
0
VERTEX
8
OBJECT__13
10
63.067001
20
37.772999
30
-387.148987
70
192
0
VERTEX
8
OBJECT__13
10
62.801998
20
38.098999
30
-387.332001
70
192
0
VERTEX
8
OBJECT__13
10
70.699997
20
35.438999
30
-385.451996
70
192
0
VERTEX
8
OBJECT__13
10
59.703999
20
43.806000
30
-417.700989
70
192
0
VERTEX
8
OBJECT__13
10
58.441002
20
50.389000
30
-416.630005
70
192
0
VERTEX
8
OBJECT__13
10
59.605999
20
44.316002
30
-417.618011
70
192
0
VERTEX
8
OBJECT__13
10
59.688000
20
61.999001
30
-417.591003
70
192
0
VERTEX
8
OBJECT__13
10
60.160000
20
61.634998
30
-417.959991
70
192
0
VERTEX
8
OBJECT__13
10
60.157001
20
54.480999
30
-417.963013
70
192
0
VERTEX
8
OBJECT__13
10
57.528999
20
63.150002
30
-415.718994
70
192
0
VERTEX
8
OBJECT__13
10
58.341000
20
63.036999
30
-416.536011
70
192
0
VERTEX
8
OBJECT__13
10
60.966999
20
61.014000
30
-418.592010
70
192
0
VERTEX
8
OBJECT__13
10
60.966999
20
56.411999
30
-418.592010
70
192
0
VERTEX
8
OBJECT__13
10
0
20
0
30
0
70
128
71
1
72
2
73
3
0
VERTEX
8
OBJECT__13
10
0
20
0
30
0
70
128
71
1
72
4
73
2
0
VERTEX
8
OBJECT__13
10
0
20
0
30
0
70
128
71
3
72
5
73
1
0
VERTEX
8
OBJECT__13
10
0
20
0
30
0
70
128
71
3
72
6
73
5
0
VERTEX
8
OBJECT__13
10
0
20
0
30
0
70
128
71
1
72
7
73
4
0
VERTEX
8
OBJECT__13
10
0
20
0
30
0
70
128
71
8
72
9
73
10
0
VERTEX
8
OBJECT__13
10
0
20
0
30
0
70
128
71
10
72
11
73
8
0
VERTEX
8
OBJECT__13
10
0
20
0
30
0
70
128
71
12
72
13
73
14
0
VERTEX
8
OBJECT__13
10
0
20
0
30
0
70
128
71
13
72
12
73
8
0
VERTEX
8
OBJECT__13
10
0
20
0
30
0
70
128
71
8
72
15
73
13
0
VERTEX
8
OBJECT__13
10
0
20
0
30
0
70
128
71
16
72
17
73
12
0
VERTEX
8
OBJECT__13
10
0
20
0
30
0
70
128
71
18
72
19
73
17
0
VERTEX
8
OBJECT__13
10
0
20
0
30
0
70
128
71
18
72
5
73
20
0
VERTEX
8
OBJECT__13
10
0
20
0
30
0
70
128
71
20
72
19
73
18
0
VERTEX
8
OBJECT__13
10
0
20
0
30
0
70
128
71
17
72
16
73
18
0
VERTEX
8
OBJECT__13
10
0
20
0
30
0
70
128
71
18
72
21
73
22
0
VERTEX
8
OBJECT__13
10
0
20
0
30
0
70
128
71
22
72
23
73
18
0
VERTEX
8
OBJECT__13
10
0
20
0
30
0
70
128
71
18
72
24
73
25
0
VERTEX
8
OBJECT__13
10
0
20
0
30
0
70
128
71
25
72
21
73
18
0
VERTEX
8
OBJECT__13
10
0
20
0
30
0
70
128
71
16
72
26
73
24
0
VERTEX
8
OBJECT__13
10
0
20
0
30
0
70
128
71
24
72
18
73
16
0
VERTEX
8
OBJECT__13
10
0
20
0
30
0
70
128
71
27
72
28
73
29
0
VERTEX
8
OBJECT__13
10
0
20
0
30
0
70
128
71
27
72
30
73
28
0
VERTEX
8
OBJECT__13
10
0
20
0
30
0
70
128
71
29
72
31
73
27
0
VERTEX
8
OBJECT__13
10
0
20
0
30
0
70
128
71
26
72
16
73
32
0
VERTEX
8
OBJECT__13
10
0
20
0
30
0
70
128
71
32
72
30
73
26
0
VERTEX
8
OBJECT__13
10
0
20
0
30
0
70
128
71
27
72
26
73
30
0
VERTEX
8
OBJECT__13
10
0
20
0
30
0
70
128
71
33
72
34
73
35
0
VERTEX
8
OBJECT__13
10
0
20
0
30
0
70
128
71
35
72
36
73
33
0
VERTEX
8
OBJECT__13
10
0
20
0
30
0
70
128
71
37
72
33
73
38
0
VERTEX
8
OBJECT__13
10
0
20
0
30
0
70
128
71
39
72
40
73
37
0
VERTEX
8
OBJECT__13
10
0
20
0
30
0
70
128
71
38
72
39
73
37
0
VERTEX
8
OBJECT__13
10
0
20
0
30
0
70
128
71
41
72
42
73
40
0
VERTEX
8
OBJECT__13
10
0
20
0
30
0
70
128
71
41
72
43
73
42
0
VERTEX
8
OBJECT__13
10
0
20
0
30
0
70
128
71
41
72
44
73
45
0
VERTEX
8
OBJECT__13
10
0
20
0
30
0
70
128
71
41
72
23
73
46
0
VERTEX
8
OBJECT__13
10
0
20
0
30
0
70
128
71
46
72
44
73
41
0
VERTEX
8
OBJECT__13
10
0
20
0
30
0
70
128
71
45
72
43
73
41
0
VERTEX
8
OBJECT__13
10
0
20
0
30
0
70
128
71
40
72
39
73
41
0
VERTEX
8
OBJECT__13
10
0
20
0
30
0
70
128
71
41
72
47
73
7
0
VERTEX
8
OBJECT__13
10
0
20
0
30
0
70
128
71
41
72
39
73
48
0
VERTEX
8
OBJECT__13
10
0
20
0
30
0
70
128
71
48
72
49
73
41
0
VERTEX
8
OBJECT__13
10
0
20
0
30
0
70
128
71
49
72
47
73
41
0
VERTEX
8
OBJECT__13
10
0
20
0
30
0
70
128
71
50
72
51
73
52
0
VERTEX
8
OBJECT__13
10
0
20
0
30
0
70
128
71
48
72
53
73
54
0
VERTEX
8
OBJECT__13
10
0
20
0
30
0
70
128
71
48
72
39
73
53
0
VERTEX
8
OBJECT__13
10
0
20
0
30
0
70
128
71
54
72
50
73
48
0
VERTEX
8
OBJECT__13
10
0
20
0
30
0
70
128
71
52
72
48
73
50
0
VERTEX
8
OBJECT__13
10
0
20
0
30
0
70
128
71
51
72
55
73
56
0
VERTEX
8
OBJECT__13
10
0
20
0
30
0
70
128
71
56
72
52
73
51
0
VERTEX
8
OBJECT__13
10
0
20
0
30
0
70
128
71
7
72
1
73
41
0
VERTEX
8
OBJECT__13
10
0
20
0
30
0
70
128
71
36
72
38
73
33
0
VERTEX
8
OBJECT__13
10
0
20
0
30
0
70
128
71
22
72
46
73
23
0
VERTEX
8
OBJECT__13
10
0
20
0
30
0
70
128
71
14
72
16
73
12
0
VERTEX
8
OBJECT__13
10
0
20
0
30
0
70
128
71
11
72
15
73
8
0
VERTEX
8
OBJECT__13
10
0
20
0
30
0
70
128
71
6
72
20
73
5
0
SEQEND
8
OBJECT__13
0
POLYLINE
8
OBJECT__15
66
1
70
64
71
32
72
31
62
253
0
VERTEX
8
OBJECT__15
10
81.369003
20
44.445999
30
-417.274994
70
192
0
VERTEX
8
OBJECT__15
10
81.560997
20
44.671001
30
-417.158997
70
192
0
VERTEX
8
OBJECT__15
10
81.338997
20
44.618000
30
-417.830994
70
192
0
VERTEX
8
OBJECT__15
10
81.676003
20
44.321999
30
-417.398010
70
192
0
VERTEX
8
OBJECT__15
10
82.487999
20
49.558998
30
-416.326996
70
192
0
VERTEX
8
OBJECT__15
10
81.278000
20
55.202000
30
-418.009003
70
192
0
VERTEX
8
OBJECT__15
10
81.380997
20
55.055000
30
-417.938995
70
192
0
VERTEX
8
OBJECT__15
10
80.432999
20
56.411999
30
-418.592010
70
192
0
VERTEX
8
OBJECT__15
10
79.568001
20
56.745998
30
-418.592010
70
192
0
VERTEX
8
OBJECT__15
10
79.623001
20
56.766998
30
-418.625000
70
192
0
VERTEX
8
OBJECT__15
10
79.984001
20
56.749001
30
-418.718994
70
192
0
VERTEX
8
OBJECT__15
10
82.999001
20
48.333000
30
-416.592987
70
192
0
VERTEX
8
OBJECT__15
10
79.795998
20
41.164001
30
-418.981995
70
192
0
VERTEX
8
OBJECT__15
10
70.679001
20
37.605999
30
-421.117004
70
192
0
VERTEX
8
OBJECT__15
10
77.112000
20
39.469002
30
-419.845001
70
192
0
VERTEX
8
OBJECT__15
10
73.766998
20
37.667999
30
-421.187012
70
192
0
VERTEX
8
OBJECT__15
10
70.738998
20
37.877998
30
-421.040009
70
192
0
VERTEX
8
OBJECT__15
10
81.214996
20
44.339001
30
-417.924011
70
192
0
VERTEX
8
OBJECT__15
10
60.317001
20
44.717999
30
-417.346008
70
192
0
VERTEX
8
OBJECT__15
10
60.130001
20
43.334000
30
-417.839996
70
192
0
VERTEX
8
OBJECT__15
10
59.703999
20
43.806000
30
-417.700989
70
192
0
VERTEX
8
OBJECT__15
10
64.266998
20
39.484001
30
-419.835999
70
192
0
VERTEX
8
OBJECT__15
10
65.935997
20
38.212002
30
-420.808014
70
192
0
VERTEX
8
OBJECT__15
10
58.441002
20
50.389000
30
-416.630005
70
192
0
VERTEX
8
OBJECT__15
10
59.432999
20
52.554001
30
-416.808014
70
192
0
VERTEX
8
OBJECT__15
10
59.360001
20
45.987000
30
-416.743011
70
192
0
VERTEX
8
OBJECT__15
10
59.605999
20
44.316002
30
-417.618011
70
192
0
VERTEX
8
OBJECT__15
10
61.832001
20
56.747002
30
-418.592010
70
192
0
VERTEX
8
OBJECT__15
10
60.966999
20
56.411999
30
-418.592010
70
192
0
VERTEX
8
OBJECT__15
10
61.056999
20
56.513000
30
-418.641998
70
192
0
VERTEX
8
OBJECT__15
10
60.157001
20
54.480999
30
-417.963013
70
192
0
VERTEX
8
OBJECT__15
10
61.480000
20
56.769001
30
-418.716003
70
192
0
VERTEX
8
OBJECT__15
10
0
20
0
30
0
70
128
71
1
72
2
73
3
0
VERTEX
8
OBJECT__15
10
0
20
0
30
0
70
128
71
3
72
4
73
1
0
VERTEX
8
OBJECT__15
10
0
20
0
30
0
70
128
71
5
72
6
73
7
0
VERTEX
8
OBJECT__15
10
0
20
0
30
0
70
128
71
8
72
9
73
10
0
VERTEX
8
OBJECT__15
10
0
20
0
30
0
70
128
71
10
72
11
73
8
0
VERTEX
8
OBJECT__15
10
0
20
0
30
0
70
128
71
8
72
6
73
9
0
VERTEX
8
OBJECT__15
10
0
20
0
30
0
70
128
71
6
72
5
73
9
0
VERTEX
8
OBJECT__15
10
0
20
0
30
0
70
128
71
12
72
3
73
2
0
VERTEX
8
OBJECT__15
10
0
20
0
30
0
70
128
71
2
72
5
73
12
0
VERTEX
8
OBJECT__15
10
0
20
0
30
0
70
128
71
7
72
12
73
5
0
VERTEX
8
OBJECT__15
10
0
20
0
30
0
70
128
71
13
72
14
73
15
0
VERTEX
8
OBJECT__15
10
0
20
0
30
0
70
128
71
15
72
1
73
13
0
VERTEX
8
OBJECT__15
10
0
20
0
30
0
70
128
71
13
72
16
73
17
0
VERTEX
8
OBJECT__15
10
0
20
0
30
0
70
128
71
17
72
14
73
13
0
VERTEX
8
OBJECT__15
10
0
20
0
30
0
70
128
71
1
72
18
73
13
0
VERTEX
8
OBJECT__15
10
0
20
0
30
0
70
128
71
1
72
3
73
18
0
VERTEX
8
OBJECT__15
10
0
20
0
30
0
70
128
71
19
72
20
73
21
0
VERTEX
8
OBJECT__15
10
0
20
0
30
0
70
128
71
17
72
22
73
14
0
VERTEX
8
OBJECT__15
10
0
20
0
30
0
70
128
71
17
72
19
73
22
0
VERTEX
8
OBJECT__15
10
0
20
0
30
0
70
128
71
17
72
23
73
19
0
VERTEX
8
OBJECT__15
10
0
20
0
30
0
70
128
71
23
72
20
73
19
0
VERTEX
8
OBJECT__15
10
0
20
0
30
0
70
128
71
24
72
25
73
26
0
VERTEX
8
OBJECT__15
10
0
20
0
30
0
70
128
71
26
72
27
73
24
0
VERTEX
8
OBJECT__15
10
0
20
0
30
0
70
128
71
28
72
29
73
30
0
VERTEX
8
OBJECT__15
10
0
20
0
30
0
70
128
71
28
72
31
73
29
0
VERTEX
8
OBJECT__15
10
0
20
0
30
0
70
128
71
31
72
28
73
25
0
VERTEX
8
OBJECT__15
10
0
20
0
30
0
70
128
71
25
72
24
73
31
0
VERTEX
8
OBJECT__15
10
0
20
0
30
0
70
128
71
30
72
32
73
28
0
VERTEX
8
OBJECT__15
10
0
20
0
30
0
70
128
71
26
72
19
73
27
0
VERTEX
8
OBJECT__15
10
0
20
0
30
0
70
128
71
21
72
27
73
19
0
VERTEX
8
OBJECT__15
10
0
20
0
30
0
70
128
71
1
72
4
73
3
0
SEQEND
8
OBJECT__15
0
POLYLINE
8
OBJECT__16
66
1
70
64
71
5
72
3
62
253
0
VERTEX
8
OBJECT__16
10
53.581001
20
16.650000
30
-397.888000
70
192
0
VERTEX
8
OBJECT__16
10
60.119999
20
16.650000
30
-418.011993
70
192
0
VERTEX
8
OBJECT__16
10
81.279999
20
16.650000
30
-418.011993
70
192
0
VERTEX
8
OBJECT__16
10
87.819000
20
16.650000
30
-397.888000
70
192
0
VERTEX
8
OBJECT__16
10
70.699997
20
16.650000
30
-385.450012
70
192
0
VERTEX
8
OBJECT__16
10
0
20
0
30
0
70
128
71
1
72
2
73
3
0
VERTEX
8
OBJECT__16
10
0
20
0
30
0
70
128
71
4
72
5
73
1
0
VERTEX
8
OBJECT__16
10
0
20
0
30
0
70
128
71
3
72
4
73
1
0
SEQEND
8
OBJECT__16
0
POLYLINE
8
OBJECT__17
66
1
70
64
71
5
72
3
62
253
0
VERTEX
8
OBJECT__17
10
62.200001
20
63.150002
30
-415.718994
70
192
0
VERTEX
8
OBJECT__17
10
57.528999
20
63.150002
30
-415.718994
70
192
0
VERTEX
8
OBJECT__17
10
53.581001
20
63.150002
30
-397.888000
70
192
0
VERTEX
8
OBJECT__17
10
62.200001
20
63.150002
30
-391.181000
70
192
0
VERTEX
8
OBJECT__17
10
57.528999
20
63.150002
30
-391.181000
70
192
0
VERTEX
8
OBJECT__17
10
0
20
0
30
0
70
128
71
1
72
2
73
3
0
VERTEX
8
OBJECT__17
10
0
20
0
30
0
70
128
71
3
72
4
73
1
0
VERTEX
8
OBJECT__17
10
0
20
0
30
0
70
128
71
3
72
5
73
4
0
SEQEND
8
OBJECT__17
0
POLYLINE
8
OBJECT__18
66
1
70
64
71
8
72
6
62
253
0
VERTEX
8
OBJECT__18
10
62.200001
20
62.189999
30
-388.980988
70
192
0
VERTEX
8
OBJECT__18
10
60.966999
20
61.014000
30
-388.308014
70
192
0
VERTEX
8
OBJECT__18
10
61.395000
20
60.160000
30
-388.181000
70
192
0
VERTEX
8
OBJECT__18
10
61.404999
20
60.160000
30
-388.181000
70
192
0
VERTEX
8
OBJECT__18
10
60.744999
20
61.397999
30
-388.453003
70
192
0
VERTEX
8
OBJECT__18
10
57.528999
20
63.150002
30
-391.181000
70
192
0
VERTEX
8
OBJECT__18
10
62.200001
20
63.150002
30
-391.181000
70
192
0
VERTEX
8
OBJECT__18
10
61.400002
20
60.150002
30
-388.181000
70
192
0
VERTEX
8
OBJECT__18
10
0
20
0
30
0
70
128
71
1
72
2
73
3
0
VERTEX
8
OBJECT__18
10
0
20
0
30
0
70
128
71
3
72
4
73
1
0
VERTEX
8
OBJECT__18
10
0
20
0
30
0
70
128
71
1
72
5
73
2
0
VERTEX
8
OBJECT__18
10
0
20
0
30
0
70
128
71
6
72
5
73
1
0
VERTEX
8
OBJECT__18
10
0
20
0
30
0
70
128
71
1
72
7
73
6
0
VERTEX
8
OBJECT__18
10
0
20
0
30
0
70
128
71
3
72
8
73
4
0
SEQEND
8
OBJECT__18
0
POLYLINE
8
OBJECT__19
66
1
70
64
71
11
72
9
62
253
0
VERTEX
8
OBJECT__19
10
62.200001
20
63.150002
30
-415.718994
70
192
0
VERTEX
8
OBJECT__19
10
62.200001
20
62.261002
30
-417.850006
70
192
0
VERTEX
8
OBJECT__19
10
59.688000
20
61.999001
30
-417.591003
70
192
0
VERTEX
8
OBJECT__19
10
58.341000
20
63.036999
30
-416.536011
70
192
0
VERTEX
8
OBJECT__19
10
60.160000
20
61.634998
30
-417.959991
70
192
0
VERTEX
8
OBJECT__19
10
62.200001
20
62.189999
30
-417.919006
70
192
0
VERTEX
8
OBJECT__19
10
60.966999
20
61.014000
30
-418.592010
70
192
0
VERTEX
8
OBJECT__19
10
61.404999
20
60.160000
30
-418.718994
70
192
0
VERTEX
8
OBJECT__19
10
61.395000
20
60.160000
30
-418.718994
70
192
0
VERTEX
8
OBJECT__19
10
61.400002
20
60.150002
30
-418.718994
70
192
0
VERTEX
8
OBJECT__19
10
57.528999
20
63.150002
30
-415.718994
70
192
0
VERTEX
8
OBJECT__19
10
0
20
0
30
0
70
128
71
1
72
2
73
3
0
VERTEX
8
OBJECT__19
10
0
20
0
30
0
70
128
71
3
72
4
73
1
0
VERTEX
8
OBJECT__19
10
0
20
0
30
0
70
128
71
5
72
2
73
6
0
VERTEX
8
OBJECT__19
10
0
20
0
30
0
70
128
71
6
72
7
73
5
0
VERTEX
8
OBJECT__19
10
0
20
0
30
0
70
128
71
6
72
8
73
9
0
VERTEX
8
OBJECT__19
10
0
20
0
30
0
70
128
71
8
72
10
73
9
0
VERTEX
8
OBJECT__19
10
0
20
0
30
0
70
128
71
9
72
7
73
6
0
VERTEX
8
OBJECT__19
10
0
20
0
30
0
70
128
71
5
72
3
73
2
0
VERTEX
8
OBJECT__19
10
0
20
0
30
0
70
128
71
4
72
11
73
1
0
SEQEND
8
OBJECT__19
0
POLYLINE
8
OBJECT__20
66
1
70
64
71
8
72
6
62
253
0
VERTEX
8
OBJECT__20
10
62.200001
20
57.292000
30
-416.795013
70
192
0
VERTEX
8
OBJECT__20
10
62.200001
20
63.150002
30
-415.718994
70
192
0
VERTEX
8
OBJECT__20
10
62.200001
20
63.150002
30
-391.181000
70
192
0
VERTEX
8
OBJECT__20
10
62.200001
20
59.285999
30
-388.980988
70
192
0
VERTEX
8
OBJECT__20
10
62.200001
20
57.207001
30
-417.919006
70
192
0
VERTEX
8
OBJECT__20
10
62.200001
20
62.189999
30
-417.919006
70
192
0
VERTEX
8
OBJECT__20
10
62.200001
20
62.261002
30
-417.850006
70
192
0
VERTEX
8
OBJECT__20
10
62.200001
20
62.189999
30
-388.980988
70
192
0
VERTEX
8
OBJECT__20
10
0
20
0
30
0
70
128
71
1
72
2
73
3
0
VERTEX
8
OBJECT__20
10
0
20
0
30
0
70
128
71
3
72
4
73
1
0
VERTEX
8
OBJECT__20
10
0
20
0
30
0
70
128
71
1
72
5
73
6
0
VERTEX
8
OBJECT__20
10
0
20
0
30
0
70
128
71
1
72
7
73
2
0
VERTEX
8
OBJECT__20
10
0
20
0
30
0
70
128
71
3
72
8
73
4
0
VERTEX
8
OBJECT__20
10
0
20
0
30
0
70
128
71
6
72
7
73
1
0
SEQEND
8
OBJECT__20
0
POLYLINE
8
OBJECT__21
66
1
70
64
71
5
72
3
62
253
0
VERTEX
8
OBJECT__21
10
79.199997
20
63.150002
30
-415.718994
70
192
0
VERTEX
8
OBJECT__21
10
79.199997
20
63.150002
30
-391.181000
70
192
0
VERTEX
8
OBJECT__21
10
87.819000
20
63.150002
30
-397.888000
70
192
0
VERTEX
8
OBJECT__21
10
83.871002
20
63.150002
30
-391.181000
70
192
0
VERTEX
8
OBJECT__21
10
83.871002
20
63.150002
30
-415.718994
70
192
0
VERTEX
8
OBJECT__21
10
0
20
0
30
0
70
128
71
1
72
2
73
3
0
VERTEX
8
OBJECT__21
10
0
20
0
30
0
70
128
71
2
72
4
73
3
0
VERTEX
8
OBJECT__21
10
0
20
0
30
0
70
128
71
3
72
5
73
1
0
SEQEND
8
OBJECT__21
0
POLYLINE
8
OBJECT__22
66
1
70
64
71
10
72
8
62
253
0
VERTEX
8
OBJECT__22
10
80.654999
20
61.397999
30
-388.453003
70
192
0
VERTEX
8
OBJECT__22
10
79.199997
20
62.271000
30
-389.059998
70
192
0
VERTEX
8
OBJECT__22
10
79.199997
20
62.189999
30
-388.980988
70
192
0
VERTEX
8
OBJECT__22
10
79.995003
20
60.160000
30
-388.181000
70
192
0
VERTEX
8
OBJECT__22
10
80.004997
20
60.160000
30
-388.181000
70
192
0
VERTEX
8
OBJECT__22
10
80.000000
20
60.150002
30
-388.181000
70
192
0
VERTEX
8
OBJECT__22
10
80.432999
20
61.014000
30
-388.308014
70
192
0
VERTEX
8
OBJECT__22
10
79.199997
20
63.150002
30
-391.181000
70
192
0
VERTEX
8
OBJECT__22
10
81.642998
20
61.937000
30
-389.291992
70
192
0
VERTEX
8
OBJECT__22
10
83.871002
20
63.150002
30
-391.181000
70
192
0
VERTEX
8
OBJECT__22
10
0
20
0
30
0
70
128
71
1
72
2
73
3
0
VERTEX
8
OBJECT__22
10
0
20
0
30
0
70
128
71
3
72
4
73
5
0
VERTEX
8
OBJECT__22
10
0
20
0
30
0
70
128
71
4
72
6
73
5
0
VERTEX
8
OBJECT__22
10
0
20
0
30
0
70
128
71
5
72
7
73
3
0
VERTEX
8
OBJECT__22
10
0
20
0
30
0
70
128
71
3
72
7
73
1
0
VERTEX
8
OBJECT__22
10
0
20
0
30
0
70
128
71
8
72
2
73
9
0
VERTEX
8
OBJECT__22
10
0
20
0
30
0
70
128
71
9
72
10
73
8
0
VERTEX
8
OBJECT__22
10
0
20
0
30
0
70
128
71
1
72
9
73
2
0
SEQEND
8
OBJECT__22
0
POLYLINE
8
OBJECT__23
66
1
70
64
71
11
72
9
62
253
0
VERTEX
8
OBJECT__23
10
79.199997
20
63.150002
30
-415.718994
70
192
0
VERTEX
8
OBJECT__23
10
83.871002
20
63.150002
30
-415.718994
70
192
0
VERTEX
8
OBJECT__23
10
81.629997
20
61.930000
30
-417.619995
70
192
0
VERTEX
8
OBJECT__23
10
79.199997
20
62.189999
30
-417.919006
70
192
0
VERTEX
8
OBJECT__23
10
80.432999
20
61.014000
30
-418.592010
70
192
0
VERTEX
8
OBJECT__23
10
80.004997
20
60.160000
30
-418.718994
70
192
0
VERTEX
8
OBJECT__23
10
79.995003
20
60.160000
30
-418.718994
70
192
0
VERTEX
8
OBJECT__23
10
80.654999
20
61.397999
30
-418.446991
70
192
0
VERTEX
8
OBJECT__23
10
79.199997
20
62.261002
30
-417.850006
70
192
0
VERTEX
8
OBJECT__23
10
81.233002
20
61.713001
30
-417.955994
70
192
0
VERTEX
8
OBJECT__23
10
80.000000
20
60.150002
30
-418.718994
70
192
0
VERTEX
8
OBJECT__23
10
0
20
0
30
0
70
128
71
1
72
2
73
3
0
VERTEX
8
OBJECT__23
10
0
20
0
30
0
70
128
71
4
72
5
73
6
0
VERTEX
8
OBJECT__23
10
0
20
0
30
0
70
128
71
6
72
7
73
4
0
VERTEX
8
OBJECT__23
10
0
20
0
30
0
70
128
71
8
72
5
73
4
0
VERTEX
8
OBJECT__23
10
0
20
0
30
0
70
128
71
4
72
9
73
8
0
VERTEX
8
OBJECT__23
10
0
20
0
30
0
70
128
71
9
72
3
73
10
0
VERTEX
8
OBJECT__23
10
0
20
0
30
0
70
128
71
10
72
8
73
9
0
VERTEX
8
OBJECT__23
10
0
20
0
30
0
70
128
71
6
72
11
73
7
0
VERTEX
8
OBJECT__23
10
0
20
0
30
0
70
128
71
3
72
9
73
1
0
SEQEND
8
OBJECT__23
0
POLYLINE
8
OBJECT__24
66
1
70
64
71
9
72
7
62
253
0
VERTEX
8
OBJECT__24
10
79.199997
20
58.905998
30
-394.483002
70
192
0
VERTEX
8
OBJECT__24
10
79.199997
20
59.285999
30
-388.980988
70
192
0
VERTEX
8
OBJECT__24
10
79.199997
20
62.189999
30
-388.980988
70
192
0
VERTEX
8
OBJECT__24
10
79.199997
20
57.207001
30
-417.919006
70
192
0
VERTEX
8
OBJECT__24
10
79.199997
20
63.150002
30
-415.718994
70
192
0
VERTEX
8
OBJECT__24
10
79.199997
20
62.261002
30
-417.850006
70
192
0
VERTEX
8
OBJECT__24
10
79.199997
20
62.271000
30
-389.059998
70
192
0
VERTEX
8
OBJECT__24
10
79.199997
20
63.150002
30
-391.181000
70
192
0
VERTEX
8
OBJECT__24
10
79.199997
20
62.189999
30
-417.919006
70
192
0
VERTEX
8
OBJECT__24
10
0
20
0
30
0
70
128
71
1
72
2
73
3
0
VERTEX
8
OBJECT__24
10
0
20
0
30
0
70
128
71
4
72
5
73
6
0
VERTEX
8
OBJECT__24
10
0
20
0
30
0
70
128
71
5
72
4
73
1
0
VERTEX
8
OBJECT__24
10
0
20
0
30
0
70
128
71
3
72
7
73
1
0
VERTEX
8
OBJECT__24
10
0
20
0
30
0
70
128
71
1
72
8
73
5
0
VERTEX
8
OBJECT__24
10
0
20
0
30
0
70
128
71
6
72
9
73
4
0
VERTEX
8
OBJECT__24
10
0
20
0
30
0
70
128
71
7
72
8
73
1
0
SEQEND
8
OBJECT__24
0
POLYLINE
8
OBJECT__25
66
1
70
64
71
12
72
12
62
253
0
VERTEX
8
OBJECT__25
10
86.099998
20
0.000000
30
15.600000
70
192
0
VERTEX
8
OBJECT__25
10
94.123001
20
0.000000
30
15.600000
70
192
0
VERTEX
8
OBJECT__25
10
94.123001
20
13.510000
30
7.800000
70
192
0
VERTEX
8
OBJECT__25
10
86.099998
20
15.600000
30
0.000000
70
192
0
VERTEX
8
OBJECT__25
10
86.099998
20
0.000000
30
-15.600000
70
192
0
VERTEX
8
OBJECT__25
10
94.123001
20
13.510000
30
-7.800000
70
192
0
VERTEX
8
OBJECT__25
10
94.123001
20
13.510000
30
0.000000
70
192
0
VERTEX
8
OBJECT__25
10
94.123001
20
0.000000
30
-15.600000
70
192
0
VERTEX
8
OBJECT__25
10
94.123001
20
-13.510000
30
-7.800000
70
192
0
VERTEX
8
OBJECT__25
10
86.099998
20
-15.600000
30
0.000000
70
192
0
VERTEX
8
OBJECT__25
10
94.123001
20
-13.510000
30
7.800000
70
192
0
VERTEX
8
OBJECT__25
10
94.123001
20
-13.510000
30
0.000000
70
192
0
VERTEX
8
OBJECT__25
10
0
20
0
30
0
70
128
71
1
72
2
73
3
0
VERTEX
8
OBJECT__25
10
0
20
0
30
0
70
128
71
3
72
4
73
1
0
VERTEX
8
OBJECT__25
10
0
20
0
30
0
70
128
71
5
72
4
73
6
0
VERTEX
8
OBJECT__25
10
0
20
0
30
0
70
128
71
4
72
7
73
6
0
VERTEX
8
OBJECT__25
10
0
20
0
30
0
70
128
71
5
72
8
73
9
0
VERTEX
8
OBJECT__25
10
0
20
0
30
0
70
128
71
9
72
10
73
5
0
VERTEX
8
OBJECT__25
10
0
20
0
30
0
70
128
71
1
72
10
73
11
0
VERTEX
8
OBJECT__25
10
0
20
0
30
0
70
128
71
10
72
12
73
11
0
VERTEX
8
OBJECT__25
10
0
20
0
30
0
70
128
71
11
72
2
73
1
0
VERTEX
8
OBJECT__25
10
0
20
0
30
0
70
128
71
9
72
12
73
10
0
VERTEX
8
OBJECT__25
10
0
20
0
30
0
70
128
71
6
72
8
73
5
0
VERTEX
8
OBJECT__25
10
0
20
0
30
0
70
128
71
3
72
7
73
4
0
SEQEND
8
OBJECT__25
0
POLYLINE
8
OBJECT__26
66
1
70
64
71
9
72
8
62
253
0
VERTEX
8
OBJECT__26
10
95.099998
20
0.000000
30
0.000000
70
192
0
VERTEX
8
OBJECT__26
10
94.123001
20
13.510000
30
-7.800000
70
192
0
VERTEX
8
OBJECT__26
10
94.123001
20
13.510000
30
0.000000
70
192
0
VERTEX
8
OBJECT__26
10
94.123001
20
-13.510000
30
7.800000
70
192
0
VERTEX
8
OBJECT__26
10
94.123001
20
-13.510000
30
0.000000
70
192
0
VERTEX
8
OBJECT__26
10
94.123001
20
0.000000
30
15.600000
70
192
0
VERTEX
8
OBJECT__26
10
94.123001
20
-13.510000
30
-7.800000
70
192
0
VERTEX
8
OBJECT__26
10
94.123001
20
0.000000
30
-15.600000
70
192
0
VERTEX
8
OBJECT__26
10
94.123001
20
13.510000
30
7.800000
70
192
0
VERTEX
8
OBJECT__26
10
0
20
0
30
0
70
128
71
1
72
2
73
3
0
VERTEX
8
OBJECT__26
10
0
20
0
30
0
70
128
71
1
72
4
73
5
0
VERTEX
8
OBJECT__26
10
0
20
0
30
0
70
128
71
6
72
4
73
1
0
VERTEX
8
OBJECT__26
10
0
20
0
30
0
70
128
71
5
72
7
73
1
0
VERTEX
8
OBJECT__26
10
0
20
0
30
0
70
128
71
7
72
8
73
1
0
VERTEX
8
OBJECT__26
10
0
20
0
30
0
70
128
71
8
72
2
73
1
0
VERTEX
8
OBJECT__26
10
0
20
0
30
0
70
128
71
3
72
9
73
1
0
VERTEX
8
OBJECT__26
10
0
20
0
30
0
70
128
71
9
72
6
73
1
0
SEQEND
8
OBJECT__26
0
POLYLINE
8
OBJECT__28
66
1
70
64
71
4
72
2
62
253
0
VERTEX
8
OBJECT__28
10
84.699997
20
0.000000
30
-974.650024
70
192
0
VERTEX
8
OBJECT__28
10
70.699997
20
14.000000
30
-974.650024
70
192
0
VERTEX
8
OBJECT__28
10
56.700001
20
0.000000
30
-974.650024
70
192
0
VERTEX
8
OBJECT__28
10
70.699997
20
-14.000000
30
-974.650024
70
192
0
VERTEX
8
OBJECT__28
10
0
20
0
30
0
70
128
71
1
72
2
73
3
0
VERTEX
8
OBJECT__28
10
0
20
0
30
0
70
128
71
3
72
4
73
1
0
SEQEND
8
OBJECT__28
0
POLYLINE
8
OBJECT__29
66
1
70
64
71
8
72
8
62
253
0
VERTEX
8
OBJECT__29
10
84.699997
20
0.000000
30
-974.650024
70
192
0
VERTEX
8
OBJECT__29
10
84.699997
20
0.000000
30
-986.650024
70
192
0
VERTEX
8
OBJECT__29
10
70.699997
20
14.000000
30
-986.650024
70
192
0
VERTEX
8
OBJECT__29
10
70.699997
20
-14.000000
30
-974.650024
70
192
0
VERTEX
8
OBJECT__29
10
70.699997
20
-14.000000
30
-986.650024
70
192
0
VERTEX
8
OBJECT__29
10
56.700001
20
0.000000
30
-974.650024
70
192
0
VERTEX
8
OBJECT__29
10
56.700001
20
0.000000
30
-986.650024
70
192
0
VERTEX
8
OBJECT__29
10
70.699997
20
14.000000
30
-974.650024
70
192
0
VERTEX
8
OBJECT__29
10
0
20
0
30
0
70
128
71
1
72
2
73
3
0
VERTEX
8
OBJECT__29
10
0
20
0
30
0
70
128
71
4
72
5
73
2
0
VERTEX
8
OBJECT__29
10
0
20
0
30
0
70
128
71
6
72
7
73
5
0
VERTEX
8
OBJECT__29
10
0
20
0
30
0
70
128
71
8
72
3
73
7
0
VERTEX
8
OBJECT__29
10
0
20
0
30
0
70
128
71
7
72
6
73
8
0
VERTEX
8
OBJECT__29
10
0
20
0
30
0
70
128
71
5
72
4
73
6
0
VERTEX
8
OBJECT__29
10
0
20
0
30
0
70
128
71
2
72
1
73
4
0
VERTEX
8
OBJECT__29
10
0
20
0
30
0
70
128
71
3
72
8
73
1
0
SEQEND
8
OBJECT__29
0
POLYLINE
8
OBJECT__31
66
1
70
64
71
8
72
8
62
253
0
VERTEX
8
OBJECT__31
10
70.699997
20
16.000000
30
-986.650024
70
192
0
VERTEX
8
OBJECT__31
10
54.700001
20
0.000000
30
-986.650024
70
192
0
VERTEX
8
OBJECT__31
10
56.700001
20
0.000000
30
-986.650024
70
192
0
VERTEX
8
OBJECT__31
10
70.699997
20
-16.000000
30
-986.650024
70
192
0
VERTEX
8
OBJECT__31
10
70.699997
20
-14.000000
30
-986.650024
70
192
0
VERTEX
8
OBJECT__31
10
86.699997
20
0.000000
30
-986.650024
70
192
0
VERTEX
8
OBJECT__31
10
84.699997
20
0.000000
30
-986.650024
70
192
0
VERTEX
8
OBJECT__31
10
70.699997
20
14.000000
30
-986.650024
70
192
0
VERTEX
8
OBJECT__31
10
0
20
0
30
0
70
128
71
1
72
2
73
3
0
VERTEX
8
OBJECT__31
10
0
20
0
30
0
70
128
71
2
72
4
73
5
0
VERTEX
8
OBJECT__31
10
0
20
0
30
0
70
128
71
5
72
3
73
2
0
VERTEX
8
OBJECT__31
10
0
20
0
30
0
70
128
71
4
72
6
73
7
0
VERTEX
8
OBJECT__31
10
0
20
0
30
0
70
128
71
6
72
1
73
8
0
VERTEX
8
OBJECT__31
10
0
20
0
30
0
70
128
71
7
72
5
73
4
0
VERTEX
8
OBJECT__31
10
0
20
0
30
0
70
128
71
3
72
8
73
1
0
VERTEX
8
OBJECT__31
10
0
20
0
30
0
70
128
71
8
72
7
73
6
0
SEQEND
8
OBJECT__31
0
POLYLINE
8
OBJECT__32
66
1
70
64
71
8
72
8
62
253
0
VERTEX
8
OBJECT__32
10
86.699997
20
0.000000
30
-986.650024
70
192
0
VERTEX
8
OBJECT__32
10
86.699997
20
0.000000
30
-990.650024
70
192
0
VERTEX
8
OBJECT__32
10
70.699997
20
16.000000
30
-990.650024
70
192
0
VERTEX
8
OBJECT__32
10
70.699997
20
-16.000000
30
-986.650024
70
192
0
VERTEX
8
OBJECT__32
10
70.699997
20
-16.000000
30
-990.650024
70
192
0
VERTEX
8
OBJECT__32
10
54.700001
20
0.000000
30
-986.650024
70
192
0
VERTEX
8
OBJECT__32
10
54.700001
20
0.000000
30
-990.650024
70
192
0
VERTEX
8
OBJECT__32
10
70.699997
20
16.000000
30
-986.650024
70
192
0
VERTEX
8
OBJECT__32
10
0
20
0
30
0
70
128
71
1
72
2
73
3
0
VERTEX
8
OBJECT__32
10
0
20
0
30
0
70
128
71
4
72
5
73
2
0
VERTEX
8
OBJECT__32
10
0
20
0
30
0
70
128
71
6
72
7
73
5
0
VERTEX
8
OBJECT__32
10
0
20
0
30
0
70
128
71
8
72
3
73
7
0
VERTEX
8
OBJECT__32
10
0
20
0
30
0
70
128
71
7
72
6
73
8
0
VERTEX
8
OBJECT__32
10
0
20
0
30
0
70
128
71
5
72
4
73
6
0
VERTEX
8
OBJECT__32
10
0
20
0
30
0
70
128
71
2
72
1
73
4
0
VERTEX
8
OBJECT__32
10
0
20
0
30
0
70
128
71
3
72
8
73
1
0
SEQEND
8
OBJECT__32
0
POLYLINE
8
OBJECT__33
66
1
70
64
71
8
72
8
62
253
0
VERTEX
8
OBJECT__33
10
59.200001
20
48.759998
30
-393.049988
70
192
0
VERTEX
8
OBJECT__33
10
59.200001
20
48.759998
30
-389.850006
70
192
0
VERTEX
8
OBJECT__33
10
70.699997
20
60.259998
30
-389.850006
70
192
0
VERTEX
8
OBJECT__33
10
70.699997
20
37.259998
30
-393.049988
70
192
0
VERTEX
8
OBJECT__33
10
70.699997
20
37.259998
30
-389.850006
70
192
0
VERTEX
8
OBJECT__33
10
82.199997
20
48.759998
30
-389.850006
70
192
0
VERTEX
8
OBJECT__33
10
82.199997
20
48.759998
30
-393.049988
70
192
0
VERTEX
8
OBJECT__33
10
70.699997
20
60.259998
30
-393.049988
70
192
0
VERTEX
8
OBJECT__33
10
0
20
0
30
0
70
128
71
1
72
2
73
3
0
VERTEX
8
OBJECT__33
10
0
20
0
30
0
70
128
71
4
72
5
73
2
0
VERTEX
8
OBJECT__33
10
0
20
0
30
0
70
128
71
6
72
5
73
4
0
VERTEX
8
OBJECT__33
10
0
20
0
30
0
70
128
71
3
72
6
73
7
0
VERTEX
8
OBJECT__33
10
0
20
0
30
0
70
128
71
7
72
8
73
3
0
VERTEX
8
OBJECT__33
10
0
20
0
30
0
70
128
71
4
72
7
73
6
0
VERTEX
8
OBJECT__33
10
0
20
0
30
0
70
128
71
2
72
1
73
4
0
VERTEX
8
OBJECT__33
10
0
20
0
30
0
70
128
71
3
72
8
73
1
0
SEQEND
8
OBJECT__33
0
POLYLINE
8
OBJECT__34
66
1
70
64
71
4
72
2
62
253
0
VERTEX
8
OBJECT__34
10
70.699997
20
60.259998
30
-389.850006
70
192
0
VERTEX
8
OBJECT__34
10
59.200001
20
48.759998
30
-389.850006
70
192
0
VERTEX
8
OBJECT__34
10
70.699997
20
37.259998
30
-389.850006
70
192
0
VERTEX
8
OBJECT__34
10
82.199997
20
48.759998
30
-389.850006
70
192
0
VERTEX
8
OBJECT__34
10
0
20
0
30
0
70
128
71
1
72
2
73
3
0
VERTEX
8
OBJECT__34
10
0
20
0
30
0
70
128
71
3
72
4
73
1
0
SEQEND
8
OBJECT__34
0
POLYLINE
8
OBJECT__36
66
1
70
64
71
16
72
15
62
253
0
VERTEX
8
OBJECT__36
10
90.699997
20
-155.024994
30
-1020.650024
70
192
0
VERTEX
8
OBJECT__36
10
105.549004
20
-154.141998
30
-1035.499023
70
192
0
VERTEX
8
OBJECT__36
10
107.627998
20
-154.141998
30
-1029.560059
70
192
0
VERTEX
8
OBJECT__36
10
83.764000
20
-154.141998
30
-1000.828003
70
192
0
VERTEX
8
OBJECT__36
10
81.910004
20
-154.141998
30
-1002.682983
70
192
0
VERTEX
8
OBJECT__36
10
70.877998
20
-154.141998
30
-1013.713989
70
192
0
VERTEX
8
OBJECT__36
10
72.003998
20
-154.141998
30
-1023.705017
70
192
0
VERTEX
8
OBJECT__36
10
72.918999
20
-154.141998
30
-1031.822998
70
192
0
VERTEX
8
OBJECT__36
10
87.622002
20
-154.141998
30
-1041.061035
70
192
0
VERTEX
8
OBJECT__36
10
111.568001
20
-154.141998
30
-1018.299011
70
192
0
VERTEX
8
OBJECT__36
10
109.019997
20
-154.141998
30
-1010.385010
70
192
0
VERTEX
8
OBJECT__36
10
101.683998
20
-154.503998
30
-1008.822998
70
192
0
VERTEX
8
OBJECT__36
10
100.848999
20
-154.270996
30
-1004.278992
70
192
0
VERTEX
8
OBJECT__36
10
100.636002
20
-154.212006
30
-1003.122009
70
192
0
VERTEX
8
OBJECT__36
10
100.964996
20
-154.141998
30
-1002.330017
70
192
0
VERTEX
8
OBJECT__36
10
88.348999
20
-154.141998
30
-1041.517944
70
192
0
VERTEX
8
OBJECT__36
10
0
20
0
30
0
70
128
71
1
72
2
73
3
0
VERTEX
8
OBJECT__36
10
0
20
0
30
0
70
128
71
1
72
4
73
5
0
VERTEX
8
OBJECT__36
10
0
20
0
30
0
70
128
71
1
72
6
73
7
0
VERTEX
8
OBJECT__36
10
0
20
0
30
0
70
128
71
1
72
8
73
9
0
VERTEX
8
OBJECT__36
10
0
20
0
30
0
70
128
71
10
72
11
73
12
0
VERTEX
8
OBJECT__36
10
0
20
0
30
0
70
128
71
12
72
1
73
10
0
VERTEX
8
OBJECT__36
10
0
20
0
30
0
70
128
71
4
72
1
73
13
0
VERTEX
8
OBJECT__36
10
0
20
0
30
0
70
128
71
13
72
14
73
4
0
VERTEX
8
OBJECT__36
10
0
20
0
30
0
70
128
71
14
72
15
73
4
0
VERTEX
8
OBJECT__36
10
0
20
0
30
0
70
128
71
12
72
13
73
1
0
VERTEX
8
OBJECT__36
10
0
20
0
30
0
70
128
71
1
72
16
73
2
0
VERTEX
8
OBJECT__36
10
0
20
0
30
0
70
128
71
9
72
16
73
1
0
VERTEX
8
OBJECT__36
10
0
20
0
30
0
70
128
71
7
72
8
73
1
0
VERTEX
8
OBJECT__36
10
0
20
0
30
0
70
128
71
5
72
6
73
1
0
VERTEX
8
OBJECT__36
10
0
20
0
30
0
70
128
71
3
72
10
73
1
0
SEQEND
8
OBJECT__36
0
POLYLINE
8
OBJECT__37
66
1
70
64
71
27
72
29
62
253
0
VERTEX
8
OBJECT__37
10
81.166000
20
-101.025002
30
-1001.939026
70
192
0
VERTEX
8
OBJECT__37
10
69.959000
20
-101.025002
30
-1023.934998
70
192
0
VERTEX
8
OBJECT__37
10
70.877998
20
-154.141998
30
-1013.713989
70
192
0
VERTEX
8
OBJECT__37
10
72.003998
20
-154.141998
30
-1023.705017
70
192
0
VERTEX
8
OBJECT__37
10
87.622002
20
-154.141998
30
-1041.061035
70
192
0
VERTEX
8
OBJECT__37
10
72.918999
20
-154.141998
30
-1031.822998
70
192
0
VERTEX
8
OBJECT__37
10
75.850998
20
-101.025002
30
-1035.499023
70
192
0
VERTEX
8
OBJECT__37
10
87.415001
20
-101.025002
30
-1041.390991
70
192
0
VERTEX
8
OBJECT__37
10
109.411003
20
-101.025002
30
-1030.183960
70
192
0
VERTEX
8
OBJECT__37
10
105.549004
20
-154.141998
30
-1035.499023
70
192
0
VERTEX
8
OBJECT__37
10
88.348999
20
-154.141998
30
-1041.517944
70
192
0
VERTEX
8
OBJECT__37
10
107.627998
20
-154.141998
30
-1029.560059
70
192
0
VERTEX
8
OBJECT__37
10
105.549004
20
-101.025002
30
-1005.801025
70
192
0
VERTEX
8
OBJECT__37
10
102.824997
20
-120.125000
30
-1003.504028
70
192
0
VERTEX
8
OBJECT__37
10
100.964996
20
-146.524994
30
-1002.330017
70
192
0
VERTEX
8
OBJECT__37
10
102.824997
20
-141.125000
30
-1003.504028
70
192
0
VERTEX
8
OBJECT__37
10
105.549004
20
-146.524994
30
-1005.801025
70
192
0
VERTEX
8
OBJECT__37
10
105.549004
20
-141.125000
30
-1005.801025
70
192
0
VERTEX
8
OBJECT__37
10
83.764000
20
-154.141998
30
-1000.828003
70
192
0
VERTEX
8
OBJECT__37
10
100.964996
20
-154.141998
30
-1002.330017
70
192
0
VERTEX
8
OBJECT__37
10
81.910004
20
-154.141998
30
-1002.682983
70
192
0
VERTEX
8
OBJECT__37
10
111.568001
20
-154.141998
30
-1018.299011
70
192
0
VERTEX
8
OBJECT__37
10
107.846001
20
-141.125000
30
-1008.525024
70
192
0
VERTEX
8
OBJECT__37
10
109.019997
20
-146.524994
30
-1010.385010
70
192
0
VERTEX
8
OBJECT__37
10
107.846001
20
-120.125000
30
-1008.525024
70
192
0
VERTEX
8
OBJECT__37
10
105.549004
20
-120.125000
30
-1005.801025
70
192
0
VERTEX
8
OBJECT__37
10
109.019997
20
-154.141998
30
-1010.385010
70
192
0
VERTEX
8
OBJECT__37
10
0
20
0
30
0
70
128
71
1
72
2
73
3
0
VERTEX
8
OBJECT__37
10
0
20
0
30
0
70
128
71
2
72
4
73
3
0
VERTEX
8
OBJECT__37
10
0
20
0
30
0
70
128
71
5
72
6
73
7
0
VERTEX
8
OBJECT__37
10
0
20
0
30
0
70
128
71
2
72
7
73
6
0
VERTEX
8
OBJECT__37
10
0
20
0
30
0
70
128
71
6
72
4
73
2
0
VERTEX
8
OBJECT__37
10
0
20
0
30
0
70
128
71
8
72
9
73
10
0
VERTEX
8
OBJECT__37
10
0
20
0
30
0
70
128
71
10
72
11
73
8
0
VERTEX
8
OBJECT__37
10
0
20
0
30
0
70
128
71
9
72
12
73
10
0
VERTEX
8
OBJECT__37
10
0
20
0
30
0
70
128
71
13
72
1
73
14
0
VERTEX
8
OBJECT__37
10
0
20
0
30
0
70
128
71
1
72
15
73
16
0
VERTEX
8
OBJECT__37
10
0
20
0
30
0
70
128
71
17
72
18
73
16
0
VERTEX
8
OBJECT__37
10
0
20
0
30
0
70
128
71
16
72
15
73
17
0
VERTEX
8
OBJECT__37
10
0
20
0
30
0
70
128
71
19
72
20
73
15
0
VERTEX
8
OBJECT__37
10
0
20
0
30
0
70
128
71
1
72
21
73
19
0
VERTEX
8
OBJECT__37
10
0
20
0
30
0
70
128
71
15
72
1
73
19
0
VERTEX
8
OBJECT__37
10
0
20
0
30
0
70
128
71
16
72
14
73
1
0
VERTEX
8
OBJECT__37
10
0
20
0
30
0
70
128
71
22
72
23
73
24
0
VERTEX
8
OBJECT__37
10
0
20
0
30
0
70
128
71
17
72
24
73
23
0
VERTEX
8
OBJECT__37
10
0
20
0
30
0
70
128
71
23
72
18
73
17
0
VERTEX
8
OBJECT__37
10
0
20
0
30
0
70
128
71
9
72
23
73
22
0
VERTEX
8
OBJECT__37
10
0
20
0
30
0
70
128
71
9
72
25
73
23
0
VERTEX
8
OBJECT__37
10
0
20
0
30
0
70
128
71
22
72
12
73
9
0
VERTEX
8
OBJECT__37
10
0
20
0
30
0
70
128
71
13
72
26
73
25
0
VERTEX
8
OBJECT__37
10
0
20
0
30
0
70
128
71
25
72
9
73
13
0
VERTEX
8
OBJECT__37
10
0
20
0
30
0
70
128
71
24
72
27
73
22
0
VERTEX
8
OBJECT__37
10
0
20
0
30
0
70
128
71
14
72
26
73
13
0
VERTEX
8
OBJECT__37
10
0
20
0
30
0
70
128
71
11
72
5
73
8
0
VERTEX
8
OBJECT__37
10
0
20
0
30
0
70
128
71
7
72
8
73
5
0
VERTEX
8
OBJECT__37
10
0
20
0
30
0
70
128
71
3
72
21
73
1
0
SEQEND
8
OBJECT__37
0
POLYLINE
8
OBJECT__39
66
1
70
64
71
25
72
25
62
253
0
VERTEX
8
OBJECT__39
10
458.634003
20
99.370003
30
14.350000
70
192
0
VERTEX
8
OBJECT__39
10
470.700012
20
92.699997
30
14.350000
70
192
0
VERTEX
8
OBJECT__39
10
424.350006
20
80.280998
30
14.350000
70
192
0
VERTEX
8
OBJECT__39
10
506.196014
20
93.595001
30
14.350000
70
192
0
VERTEX
8
OBJECT__39
10
517.049988
20
80.280998
30
14.350000
70
192
0
VERTEX
8
OBJECT__39
10
413.837006
20
82.380997
30
14.350000
70
192
0
VERTEX
8
OBJECT__39
10
390.419006
20
46.349998
30
14.350000
70
192
0
VERTEX
8
OBJECT__39
10
545.625977
20
66.378998
30
14.350000
70
192
0
VERTEX
8
OBJECT__39
10
550.981018
20
46.349998
30
14.350000
70
192
0
VERTEX
8
OBJECT__39
10
567.890991
20
23.955000
30
14.350000
70
192
0
VERTEX
8
OBJECT__39
10
563.400024
20
0.000000
30
14.350000
70
192
0
VERTEX
8
OBJECT__39
10
567.890991
20
-23.955000
30
14.350000
70
192
0
VERTEX
8
OBJECT__39
10
545.625977
20
-66.378998
30
14.350000
70
192
0
VERTEX
8
OBJECT__39
10
550.981018
20
-46.349998
30
14.350000
70
192
0
VERTEX
8
OBJECT__39
10
382.066010
20
46.519001
30
14.350000
70
192
0
VERTEX
8
OBJECT__39
10
378.000000
20
0.000000
30
14.350000
70
192
0
VERTEX
8
OBJECT__39
10
506.196014
20
-93.595001
30
14.350000
70
192
0
VERTEX
8
OBJECT__39
10
517.049988
20
-80.280998
30
14.350000
70
192
0
VERTEX
8
OBJECT__39
10
458.634003
20
-99.370003
30
14.350000
70
192
0
VERTEX
8
OBJECT__39
10
470.700012
20
-92.699997
30
14.350000
70
192
0
VERTEX
8
OBJECT__39
10
413.837006
20
-82.380997
30
14.350000
70
192
0
VERTEX
8
OBJECT__39
10
424.350006
20
-80.280998
30
14.350000
70
192
0
VERTEX
8
OBJECT__39
10
382.066010
20
-46.519001
30
14.350000
70
192
0
VERTEX
8
OBJECT__39
10
390.419006
20
-46.349998
30
14.350000
70
192
0
VERTEX
8
OBJECT__39
10
370.600006
20
0.000000
30
14.350000
70
192
0
VERTEX
8
OBJECT__39
10
0
20
0
30
0
70
128
71
1
72
2
73
3
0
VERTEX
8
OBJECT__39
10
0
20
0
30
0
70
128
71
4
72
5
73
2
0
VERTEX
8
OBJECT__39
10
0
20
0
30
0
70
128
71
6
72
3
73
7
0
VERTEX
8
OBJECT__39
10
0
20
0
30
0
70
128
71
2
72
1
73
4
0
VERTEX
8
OBJECT__39
10
0
20
0
30
0
70
128
71
8
72
9
73
5
0
VERTEX
8
OBJECT__39
10
0
20
0
30
0
70
128
71
10
72
11
73
9
0
VERTEX
8
OBJECT__39
10
0
20
0
30
0
70
128
71
12
72
13
73
14
0
VERTEX
8
OBJECT__39
10
0
20
0
30
0
70
128
71
15
72
7
73
16
0
VERTEX
8
OBJECT__39
10
0
20
0
30
0
70
128
71
3
72
6
73
1
0
VERTEX
8
OBJECT__39
10
0
20
0
30
0
70
128
71
9
72
8
73
10
0
VERTEX
8
OBJECT__39
10
0
20
0
30
0
70
128
71
14
72
11
73
12
0
VERTEX
8
OBJECT__39
10
0
20
0
30
0
70
128
71
7
72
15
73
6
0
VERTEX
8
OBJECT__39
10
0
20
0
30
0
70
128
71
11
72
10
73
12
0
VERTEX
8
OBJECT__39
10
0
20
0
30
0
70
128
71
5
72
4
73
8
0
VERTEX
8
OBJECT__39
10
0
20
0
30
0
70
128
71
13
72
17
73
18
0
VERTEX
8
OBJECT__39
10
0
20
0
30
0
70
128
71
17
72
19
73
20
0
VERTEX
8
OBJECT__39
10
0
20
0
30
0
70
128
71
19
72
21
73
22
0
VERTEX
8
OBJECT__39
10
0
20
0
30
0
70
128
71
18
72
14
73
13
0
VERTEX
8
OBJECT__39
10
0
20
0
30
0
70
128
71
22
72
20
73
19
0
VERTEX
8
OBJECT__39
10
0
20
0
30
0
70
128
71
20
72
18
73
17
0
VERTEX
8
OBJECT__39
10
0
20
0
30
0
70
128
71
21
72
23
73
24
0
VERTEX
8
OBJECT__39
10
0
20
0
30
0
70
128
71
24
72
22
73
21
0
VERTEX
8
OBJECT__39
10
0
20
0
30
0
70
128
71
23
72
25
73
16
0
VERTEX
8
OBJECT__39
10
0
20
0
30
0
70
128
71
16
72
24
73
23
0
VERTEX
8
OBJECT__39
10
0
20
0
30
0
70
128
71
16
72
25
73
15
0
SEQEND
8
OBJECT__39
0
POLYLINE
8
OBJECT__41
66
1
70
64
71
16
72
15
62
253
0
VERTEX
8
OBJECT__41
10
90.699997
20
155.975006
30
-1020.650024
70
192
0
VERTEX
8
OBJECT__41
10
75.850998
20
155.091003
30
-1005.801025
70
192
0
VERTEX
8
OBJECT__41
10
81.790001
20
155.091003
30
-1003.721985
70
192
0
VERTEX
8
OBJECT__41
10
110.522003
20
155.091003
30
-1027.586060
70
192
0
VERTEX
8
OBJECT__41
10
108.667000
20
155.091003
30
-1029.439941
70
192
0
VERTEX
8
OBJECT__41
10
97.636002
20
155.091003
30
-1040.472046
70
192
0
VERTEX
8
OBJECT__41
10
87.644997
20
155.091003
30
-1039.345947
70
192
0
VERTEX
8
OBJECT__41
10
79.527000
20
155.091003
30
-1038.431030
70
192
0
VERTEX
8
OBJECT__41
10
70.289001
20
155.091003
30
-1023.728027
70
192
0
VERTEX
8
OBJECT__41
10
93.051003
20
155.091003
30
-999.781982
70
192
0
VERTEX
8
OBJECT__41
10
100.964996
20
155.091003
30
-1002.330017
70
192
0
VERTEX
8
OBJECT__41
10
102.527000
20
155.453003
30
-1009.666016
70
192
0
VERTEX
8
OBJECT__41
10
107.070999
20
155.220993
30
-1010.500977
70
192
0
VERTEX
8
OBJECT__41
10
108.227997
20
155.160995
30
-1010.713989
70
192
0
VERTEX
8
OBJECT__41
10
109.019997
20
155.091003
30
-1010.385010
70
192
0
VERTEX
8
OBJECT__41
10
69.832001
20
155.091003
30
-1023.000977
70
192
0
VERTEX
8
OBJECT__41
10
0
20
0
30
0
70
128
71
1
72
2
73
3
0
VERTEX
8
OBJECT__41
10
0
20
0
30
0
70
128
71
1
72
4
73
5
0
VERTEX
8
OBJECT__41
10
0
20
0
30
0
70
128
71
1
72
6
73
7
0
VERTEX
8
OBJECT__41
10
0
20
0
30
0
70
128
71
1
72
8
73
9
0
VERTEX
8
OBJECT__41
10
0
20
0
30
0
70
128
71
10
72
11
73
12
0
VERTEX
8
OBJECT__41
10
0
20
0
30
0
70
128
71
12
72
1
73
10
0
VERTEX
8
OBJECT__41
10
0
20
0
30
0
70
128
71
4
72
1
73
13
0
VERTEX
8
OBJECT__41
10
0
20
0
30
0
70
128
71
13
72
14
73
4
0
VERTEX
8
OBJECT__41
10
0
20
0
30
0
70
128
71
14
72
15
73
4
0
VERTEX
8
OBJECT__41
10
0
20
0
30
0
70
128
71
12
72
13
73
1
0
VERTEX
8
OBJECT__41
10
0
20
0
30
0
70
128
71
1
72
16
73
2
0
VERTEX
8
OBJECT__41
10
0
20
0
30
0
70
128
71
9
72
16
73
1
0
VERTEX
8
OBJECT__41
10
0
20
0
30
0
70
128
71
7
72
8
73
1
0
VERTEX
8
OBJECT__41
10
0
20
0
30
0
70
128
71
5
72
6
73
1
0
VERTEX
8
OBJECT__41
10
0
20
0
30
0
70
128
71
3
72
10
73
1
0
SEQEND
8
OBJECT__41
0
POLYLINE
8
OBJECT__42
66
1
70
64
71
27
72
29
62
253
0
VERTEX
8
OBJECT__42
10
109.411003
20
101.974998
30
-1030.183960
70
192
0
VERTEX
8
OBJECT__42
10
87.415001
20
101.974998
30
-1041.390991
70
192
0
VERTEX
8
OBJECT__42
10
97.636002
20
155.091003
30
-1040.472046
70
192
0
VERTEX
8
OBJECT__42
10
87.644997
20
155.091003
30
-1039.345947
70
192
0
VERTEX
8
OBJECT__42
10
70.289001
20
155.091003
30
-1023.728027
70
192
0
VERTEX
8
OBJECT__42
10
79.527000
20
155.091003
30
-1038.431030
70
192
0
VERTEX
8
OBJECT__42
10
75.850998
20
101.974998
30
-1035.499023
70
192
0
VERTEX
8
OBJECT__42
10
69.959000
20
101.974998
30
-1023.934998
70
192
0
VERTEX
8
OBJECT__42
10
81.166000
20
101.974998
30
-1001.939026
70
192
0
VERTEX
8
OBJECT__42
10
75.850998
20
155.091003
30
-1005.801025
70
192
0
VERTEX
8
OBJECT__42
10
69.832001
20
155.091003
30
-1023.000977
70
192
0
VERTEX
8
OBJECT__42
10
81.790001
20
155.091003
30
-1003.721985
70
192
0
VERTEX
8
OBJECT__42
10
105.549004
20
101.974998
30
-1005.801025
70
192
0
VERTEX
8
OBJECT__42
10
107.846001
20
121.074997
30
-1008.525024
70
192
0
VERTEX
8
OBJECT__42
10
109.019997
20
147.475006
30
-1010.385010
70
192
0
VERTEX
8
OBJECT__42
10
107.846001
20
142.074997
30
-1008.525024
70
192
0
VERTEX
8
OBJECT__42
10
105.549004
20
147.475006
30
-1005.801025
70
192
0
VERTEX
8
OBJECT__42
10
105.549004
20
142.074997
30
-1005.801025
70
192
0
VERTEX
8
OBJECT__42
10
110.522003
20
155.091003
30
-1027.586060
70
192
0
VERTEX
8
OBJECT__42
10
109.019997
20
155.091003
30
-1010.385010
70
192
0
VERTEX
8
OBJECT__42
10
108.667000
20
155.091003
30
-1029.439941
70
192
0
VERTEX
8
OBJECT__42
10
93.051003
20
155.091003
30
-999.781982
70
192
0
VERTEX
8
OBJECT__42
10
102.824997
20
142.074997
30
-1003.504028
70
192
0
VERTEX
8
OBJECT__42
10
100.964996
20
147.475006
30
-1002.330017
70
192
0
VERTEX
8
OBJECT__42
10
102.824997
20
121.074997
30
-1003.504028
70
192
0
VERTEX
8
OBJECT__42
10
105.549004
20
121.074997
30
-1005.801025
70
192
0
VERTEX
8
OBJECT__42
10
100.964996
20
155.091003
30
-1002.330017
70
192
0
VERTEX
8
OBJECT__42
10
0
20
0
30
0
70
128
71
1
72
2
73
3
0
VERTEX
8
OBJECT__42
10
0
20
0
30
0
70
128
71
2
72
4
73
3
0
VERTEX
8
OBJECT__42
10
0
20
0
30
0
70
128
71
5
72
6
73
7
0
VERTEX
8
OBJECT__42
10
0
20
0
30
0
70
128
71
2
72
7
73
6
0
VERTEX
8
OBJECT__42
10
0
20
0
30
0
70
128
71
6
72
4
73
2
0
VERTEX
8
OBJECT__42
10
0
20
0
30
0
70
128
71
8
72
9
73
10
0
VERTEX
8
OBJECT__42
10
0
20
0
30
0
70
128
71
10
72
11
73
8
0
VERTEX
8
OBJECT__42
10
0
20
0
30
0
70
128
71
9
72
12
73
10
0
VERTEX
8
OBJECT__42
10
0
20
0
30
0
70
128
71
13
72
1
73
14
0
VERTEX
8
OBJECT__42
10
0
20
0
30
0
70
128
71
1
72
15
73
16
0
VERTEX
8
OBJECT__42
10
0
20
0
30
0
70
128
71
16
72
14
73
1
0
VERTEX
8
OBJECT__42
10
0
20
0
30
0
70
128
71
17
72
18
73
16
0
VERTEX
8
OBJECT__42
10
0
20
0
30
0
70
128
71
16
72
15
73
17
0
VERTEX
8
OBJECT__42
10
0
20
0
30
0
70
128
71
19
72
20
73
15
0
VERTEX
8
OBJECT__42
10
0
20
0
30
0
70
128
71
1
72
21
73
19
0
VERTEX
8
OBJECT__42
10
0
20
0
30
0
70
128
71
15
72
1
73
19
0
VERTEX
8
OBJECT__42
10
0
20
0
30
0
70
128
71
22
72
23
73
24
0
VERTEX
8
OBJECT__42
10
0
20
0
30
0
70
128
71
17
72
24
73
23
0
VERTEX
8
OBJECT__42
10
0
20
0
30
0
70
128
71
23
72
18
73
17
0
VERTEX
8
OBJECT__42
10
0
20
0
30
0
70
128
71
9
72
23
73
22
0
VERTEX
8
OBJECT__42
10
0
20
0
30
0
70
128
71
9
72
25
73
23
0
VERTEX
8
OBJECT__42
10
0
20
0
30
0
70
128
71
22
72
12
73
9
0
VERTEX
8
OBJECT__42
10
0
20
0
30
0
70
128
71
13
72
26
73
25
0
VERTEX
8
OBJECT__42
10
0
20
0
30
0
70
128
71
25
72
9
73
13
0
VERTEX
8
OBJECT__42
10
0
20
0
30
0
70
128
71
24
72
27
73
22
0
VERTEX
8
OBJECT__42
10
0
20
0
30
0
70
128
71
14
72
26
73
13
0
VERTEX
8
OBJECT__42
10
0
20
0
30
0
70
128
71
11
72
5
73
8
0
VERTEX
8
OBJECT__42
10
0
20
0
30
0
70
128
71
7
72
8
73
5
0
VERTEX
8
OBJECT__42
10
0
20
0
30
0
70
128
71
3
72
21
73
1
0
SEQEND
8
OBJECT__42
0
POLYLINE
8
OBJECT__44
66
1
70
64
71
5
72
3
62
253
0
VERTEX
8
OBJECT__44
10
16.202999
20
62.069000
30
-1038.447998
70
192
0
VERTEX
8
OBJECT__44
10
16.202999
20
87.931000
30
-1038.447998
70
192
0
VERTEX
8
OBJECT__44
10
16.202999
20
95.922997
30
-1013.851990
70
192
0
VERTEX
8
OBJECT__44
10
16.202999
20
75.000000
30
-998.650024
70
192
0
VERTEX
8
OBJECT__44
10
16.202999
20
54.077000
30
-1013.851990
70
192
0
VERTEX
8
OBJECT__44
10
0
20
0
30
0
70
128
71
1
72
2
73
3
0
VERTEX
8
OBJECT__44
10
0
20
0
30
0
70
128
71
3
72
4
73
1
0
VERTEX
8
OBJECT__44
10
0
20
0
30
0
70
128
71
4
72
5
73
1
0
SEQEND
8
OBJECT__44
0
POLYLINE
8
OBJECT__45
66
1
70
64
71
10
72
10
62
253
0
VERTEX
8
OBJECT__45
10
16.202999
20
95.922997
30
-1013.851990
70
192
0
VERTEX
8
OBJECT__45
10
3.203000
20
95.922997
30
-1013.851990
70
192
0
VERTEX
8
OBJECT__45
10
3.203000
20
75.000000
30
-998.650024
70
192
0
VERTEX
8
OBJECT__45
10
16.202999
20
87.931000
30
-1038.447998
70
192
0
VERTEX
8
OBJECT__45
10
3.203000
20
87.931000
30
-1038.447998
70
192
0
VERTEX
8
OBJECT__45
10
3.203000
20
62.069000
30
-1038.447998
70
192
0
VERTEX
8
OBJECT__45
10
16.202999
20
54.077000
30
-1013.851990
70
192
0
VERTEX
8
OBJECT__45
10
3.203000
20
54.077000
30
-1013.851990
70
192
0
VERTEX
8
OBJECT__45
10
16.202999
20
75.000000
30
-998.650024
70
192
0
VERTEX
8
OBJECT__45
10
16.202999
20
62.069000
30
-1038.447998
70
192
0
VERTEX
8
OBJECT__45
10
0
20
0
30
0
70
128
71
1
72
2
73
3
0
VERTEX
8
OBJECT__45
10
0
20
0
30
0
70
128
71
4
72
5
73
2
0
VERTEX
8
OBJECT__45
10
0
20
0
30
0
70
128
71
6
72
5
73
4
0
VERTEX
8
OBJECT__45
10
0
20
0
30
0
70
128
71
7
72
8
73
6
0
VERTEX
8
OBJECT__45
10
0
20
0
30
0
70
128
71
9
72
3
73
8
0
VERTEX
8
OBJECT__45
10
0
20
0
30
0
70
128
71
8
72
7
73
9
0
VERTEX
8
OBJECT__45
10
0
20
0
30
0
70
128
71
6
72
10
73
7
0
VERTEX
8
OBJECT__45
10
0
20
0
30
0
70
128
71
4
72
10
73
6
0
VERTEX
8
OBJECT__45
10
0
20
0
30
0
70
128
71
2
72
1
73
4
0
VERTEX
8
OBJECT__45
10
0
20
0
30
0
70
128
71
3
72
9
73
1
0
SEQEND
8
OBJECT__45
0
POLYLINE
8
OBJECT__47
66
1
70
64
71
11
72
11
62
253
0
VERTEX
8
OBJECT__47
10
3.203000
20
105.310997
30
-1003.150024
70
192
0
VERTEX
8
OBJECT__47
10
3.203000
20
75.000000
30
-985.650024
70
192
0
VERTEX
8
OBJECT__47
10
3.203000
20
75.000000
30
-998.650024
70
192
0
VERTEX
8
OBJECT__47
10
3.203000
20
44.688999
30
-1003.150024
70
192
0
VERTEX
8
OBJECT__47
10
3.203000
20
54.077000
30
-1013.851990
70
192
0
VERTEX
8
OBJECT__47
10
3.203000
20
44.688999
30
-1038.150024
70
192
0
VERTEX
8
OBJECT__47
10
3.203000
20
62.069000
30
-1038.447998
70
192
0
VERTEX
8
OBJECT__47
10
3.203000
20
75.000000
30
-1055.650024
70
192
0
VERTEX
8
OBJECT__47
10
3.203000
20
87.931000
30
-1038.447998
70
192
0
VERTEX
8
OBJECT__47
10
3.203000
20
105.310997
30
-1038.150024
70
192
0
VERTEX
8
OBJECT__47
10
3.203000
20
95.922997
30
-1013.851990
70
192
0
VERTEX
8
OBJECT__47
10
0
20
0
30
0
70
128
71
1
72
2
73
3
0
VERTEX
8
OBJECT__47
10
0
20
0
30
0
70
128
71
4
72
5
73
3
0
VERTEX
8
OBJECT__47
10
0
20
0
30
0
70
128
71
3
72
2
73
4
0
VERTEX
8
OBJECT__47
10
0
20
0
30
0
70
128
71
6
72
7
73
5
0
VERTEX
8
OBJECT__47
10
0
20
0
30
0
70
128
71
8
72
9
73
7
0
VERTEX
8
OBJECT__47
10
0
20
0
30
0
70
128
71
5
72
4
73
6
0
VERTEX
8
OBJECT__47
10
0
20
0
30
0
70
128
71
8
72
10
73
9
0
VERTEX
8
OBJECT__47
10
0
20
0
30
0
70
128
71
7
72
6
73
8
0
VERTEX
8
OBJECT__47
10
0
20
0
30
0
70
128
71
10
72
1
73
11
0
VERTEX
8
OBJECT__47
10
0
20
0
30
0
70
128
71
11
72
9
73
10
0
VERTEX
8
OBJECT__47
10
0
20
0
30
0
70
128
71
3
72
11
73
1
0
SEQEND
8
OBJECT__47
0
POLYLINE
8
OBJECT__48
66
1
70
64
71
12
72
12
62
253
0
VERTEX
8
OBJECT__48
10
3.203000
20
105.310997
30
-1003.150024
70
192
0
VERTEX
8
OBJECT__48
10
-11.797000
20
105.310997
30
-1003.150024
70
192
0
VERTEX
8
OBJECT__48
10
-11.797000
20
75.000000
30
-985.650024
70
192
0
VERTEX
8
OBJECT__48
10
3.203000
20
105.310997
30
-1038.150024
70
192
0
VERTEX
8
OBJECT__48
10
-11.797000
20
105.310997
30
-1038.150024
70
192
0
VERTEX
8
OBJECT__48
10
-11.797000
20
75.000000
30
-1055.650024
70
192
0
VERTEX
8
OBJECT__48
10
-11.797000
20
44.688999
30
-1038.150024
70
192
0
VERTEX
8
OBJECT__48
10
3.203000
20
75.000000
30
-1055.650024
70
192
0
VERTEX
8
OBJECT__48
10
3.203000
20
44.688999
30
-1003.150024
70
192
0
VERTEX
8
OBJECT__48
10
-11.797000
20
44.688999
30
-1003.150024
70
192
0
VERTEX
8
OBJECT__48
10
3.203000
20
75.000000
30
-985.650024
70
192
0
VERTEX
8
OBJECT__48
10
3.203000
20
44.688999
30
-1038.150024
70
192
0
VERTEX
8
OBJECT__48
10
0
20
0
30
0
70
128
71
1
72
2
73
3
0
VERTEX
8
OBJECT__48
10
0
20
0
30
0
70
128
71
4
72
5
73
2
0
VERTEX
8
OBJECT__48
10
0
20
0
30
0
70
128
71
6
72
5
73
4
0
VERTEX
8
OBJECT__48
10
0
20
0
30
0
70
128
71
7
72
6
73
8
0
VERTEX
8
OBJECT__48
10
0
20
0
30
0
70
128
71
9
72
10
73
7
0
VERTEX
8
OBJECT__48
10
0
20
0
30
0
70
128
71
11
72
3
73
10
0
VERTEX
8
OBJECT__48
10
0
20
0
30
0
70
128
71
10
72
9
73
11
0
VERTEX
8
OBJECT__48
10
0
20
0
30
0
70
128
71
7
72
12
73
9
0
VERTEX
8
OBJECT__48
10
0
20
0
30
0
70
128
71
8
72
12
73
7
0
VERTEX
8
OBJECT__48
10
0
20
0
30
0
70
128
71
4
72
8
73
6
0
VERTEX
8
OBJECT__48
10
0
20
0
30
0
70
128
71
2
72
1
73
4
0
VERTEX
8
OBJECT__48
10
0
20
0
30
0
70
128
71
3
72
11
73
1
0
SEQEND
8
OBJECT__48
0
POLYLINE
8
OBJECT__49
66
1
70
64
71
6
72
4
62
253
0
VERTEX
8
OBJECT__49
10
-11.797000
20
75.000000
30
-1055.650024
70
192
0
VERTEX
8
OBJECT__49
10
-11.797000
20
44.688999
30
-1038.150024
70
192
0
VERTEX
8
OBJECT__49
10
-11.797000
20
44.688999
30
-1003.150024
70
192
0
VERTEX
8
OBJECT__49
10
-11.797000
20
75.000000
30
-985.650024
70
192
0
VERTEX
8
OBJECT__49
10
-11.797000
20
105.310997
30
-1003.150024
70
192
0
VERTEX
8
OBJECT__49
10
-11.797000
20
105.310997
30
-1038.150024
70
192
0
VERTEX
8
OBJECT__49
10
0
20
0
30
0
70
128
71
1
72
2
73
3
0
VERTEX
8
OBJECT__49
10
0
20
0
30
0
70
128
71
1
72
4
73
5
0
VERTEX
8
OBJECT__49
10
0
20
0
30
0
70
128
71
5
72
6
73
1
0
VERTEX
8
OBJECT__49
10
0
20
0
30
0
70
128
71
3
72
4
73
1
0
SEQEND
8
OBJECT__49
0
POLYLINE
8
OBJECT__50
66
1
70
64
71
4
72
2
62
253
0
VERTEX
8
OBJECT__50
10
79.199997
20
-56.240002
30
-1067.650024
70
192
0
VERTEX
8
OBJECT__50
10
90.699997
20
-44.740002
30
-1067.650024
70
192
0
VERTEX
8
OBJECT__50
10
102.199997
20
-56.240002
30
-1067.650024
70
192
0
VERTEX
8
OBJECT__50
10
90.699997
20
-67.739998
30
-1067.650024
70
192
0
VERTEX
8
OBJECT__50
10
0
20
0
30
0
70
128
71
1
72
2
73
3
0
VERTEX
8
OBJECT__50
10
0
20
0
30
0
70
128
71
3
72
4
73
1
0
SEQEND
8
OBJECT__50
0
POLYLINE
8
OBJECT__51
66
1
70
64
71
8
72
8
62
253
0
VERTEX
8
OBJECT__51
10
102.199997
20
-56.240002
30
-1055.150024
70
192
0
VERTEX
8
OBJECT__51
10
102.199997
20
-56.240002
30
-1067.650024
70
192
0
VERTEX
8
OBJECT__51
10
90.699997
20
-44.740002
30
-1067.650024
70
192
0
VERTEX
8
OBJECT__51
10
90.699997
20
-67.739998
30
-1055.150024
70
192
0
VERTEX
8
OBJECT__51
10
90.699997
20
-67.739998
30
-1067.650024
70
192
0
VERTEX
8
OBJECT__51
10
79.199997
20
-56.240002
30
-1067.650024
70
192
0
VERTEX
8
OBJECT__51
10
79.199997
20
-56.240002
30
-1055.150024
70
192
0
VERTEX
8
OBJECT__51
10
90.699997
20
-44.740002
30
-1055.150024
70
192
0
VERTEX
8
OBJECT__51
10
0
20
0
30
0
70
128
71
1
72
2
73
3
0
VERTEX
8
OBJECT__51
10
0
20
0
30
0
70
128
71
4
72
5
73
2
0
VERTEX
8
OBJECT__51
10
0
20
0
30
0
70
128
71
6
72
5
73
4
0
VERTEX
8
OBJECT__51
10
0
20
0
30
0
70
128
71
3
72
6
73
7
0
VERTEX
8
OBJECT__51
10
0
20
0
30
0
70
128
71
7
72
8
73
3
0
VERTEX
8
OBJECT__51
10
0
20
0
30
0
70
128
71
4
72
7
73
6
0
VERTEX
8
OBJECT__51
10
0
20
0
30
0
70
128
71
2
72
1
73
4
0
VERTEX
8
OBJECT__51
10
0
20
0
30
0
70
128
71
3
72
8
73
1
0
SEQEND
8
OBJECT__51
0
POLYLINE
8
OBJECT__53
66
1
70
64
71
5
72
3
62
253
0
VERTEX
8
OBJECT__53
10
28.000000
20
6.798000
30
20.923000
70
192
0
VERTEX
8
OBJECT__53
10
28.000000
20
-17.798000
30
-12.931000
70
192
0
VERTEX
8
OBJECT__53
10
28.000000
20
6.798000
30
-20.923000
70
192
0
VERTEX
8
OBJECT__53
10
28.000000
20
-17.798000
30
12.931000
70
192
0
VERTEX
8
OBJECT__53
10
28.000000
20
22.000000
30
0.000000
70
192
0
VERTEX
8
OBJECT__53
10
0
20
0
30
0
70
128
71
1
72
2
73
3
0
VERTEX
8
OBJECT__53
10
0
20
0
30
0
70
128
71
1
72
4
73
2
0
VERTEX
8
OBJECT__53
10
0
20
0
30
0
70
128
71
3
72
5
73
1
0
SEQEND
8
OBJECT__53
0
POLYLINE
8
OBJECT__54
66
1
70
64
71
10
72
10
62
253
0
VERTEX
8
OBJECT__54
10
28.000000
20
6.798000
30
-20.923000
70
192
0
VERTEX
8
OBJECT__54
10
15.000000
20
6.798000
30
-20.923000
70
192
0
VERTEX
8
OBJECT__54
10
15.000000
20
22.000000
30
0.000000
70
192
0
VERTEX
8
OBJECT__54
10
28.000000
20
-17.798000
30
-12.931000
70
192
0
VERTEX
8
OBJECT__54
10
15.000000
20
-17.798000
30
-12.931000
70
192
0
VERTEX
8
OBJECT__54
10
28.000000
20
-17.798000
30
12.931000
70
192
0
VERTEX
8
OBJECT__54
10
15.000000
20
-17.798000
30
12.931000
70
192
0
VERTEX
8
OBJECT__54
10
15.000000
20
6.798000
30
20.923000
70
192
0
VERTEX
8
OBJECT__54
10
28.000000
20
6.798000
30
20.923000
70
192
0
VERTEX
8
OBJECT__54
10
28.000000
20
22.000000
30
0.000000
70
192
0
VERTEX
8
OBJECT__54
10
0
20
0
30
0
70
128
71
1
72
2
73
3
0
VERTEX
8
OBJECT__54
10
0
20
0
30
0
70
128
71
4
72
5
73
2
0
VERTEX
8
OBJECT__54
10
0
20
0
30
0
70
128
71
6
72
7
73
5
0
VERTEX
8
OBJECT__54
10
0
20
0
30
0
70
128
71
8
72
7
73
6
0
VERTEX
8
OBJECT__54
10
0
20
0
30
0
70
128
71
3
72
8
73
9
0
VERTEX
8
OBJECT__54
10
0
20
0
30
0
70
128
71
9
72
10
73
3
0
VERTEX
8
OBJECT__54
10
0
20
0
30
0
70
128
71
6
72
9
73
8
0
VERTEX
8
OBJECT__54
10
0
20
0
30
0
70
128
71
5
72
4
73
6
0
VERTEX
8
OBJECT__54
10
0
20
0
30
0
70
128
71
2
72
1
73
4
0
VERTEX
8
OBJECT__54
10
0
20
0
30
0
70
128
71
3
72
10
73
1
0
SEQEND
8
OBJECT__54
0
POLYLINE
8
OBJECT__56
66
1
70
64
71
11
72
11
62
253
0
VERTEX
8
OBJECT__56
10
15.000000
20
-17.500000
30
30.311001
70
192
0
VERTEX
8
OBJECT__56
10
15.000000
20
-17.798000
30
12.931000
70
192
0
VERTEX
8
OBJECT__56
10
15.000000
20
6.798000
30
20.923000
70
192
0
VERTEX
8
OBJECT__56
10
15.000000
20
-35.000000
30
0.000000
70
192
0
VERTEX
8
OBJECT__56
10
15.000000
20
-17.798000
30
-12.931000
70
192
0
VERTEX
8
OBJECT__56
10
15.000000
20
17.500000
30
30.311001
70
192
0
VERTEX
8
OBJECT__56
10
15.000000
20
-17.500000
30
-30.311001
70
192
0
VERTEX
8
OBJECT__56
10
15.000000
20
17.500000
30
-30.311001
70
192
0
VERTEX
8
OBJECT__56
10
15.000000
20
6.798000
30
-20.923000
70
192
0
VERTEX
8
OBJECT__56
10
15.000000
20
35.000000
30
0.000000
70
192
0
VERTEX
8
OBJECT__56
10
15.000000
20
22.000000
30
0.000000
70
192
0
VERTEX
8
OBJECT__56
10
0
20
0
30
0
70
128
71
1
72
2
73
3
0
VERTEX
8
OBJECT__56
10
0
20
0
30
0
70
128
71
4
72
5
73
2
0
VERTEX
8
OBJECT__56
10
0
20
0
30
0
70
128
71
3
72
6
73
1
0
VERTEX
8
OBJECT__56
10
0
20
0
30
0
70
128
71
4
72
7
73
5
0
VERTEX
8
OBJECT__56
10
0
20
0
30
0
70
128
71
2
72
1
73
4
0
VERTEX
8
OBJECT__56
10
0
20
0
30
0
70
128
71
7
72
8
73
9
0
VERTEX
8
OBJECT__56
10
0
20
0
30
0
70
128
71
9
72
5
73
7
0
VERTEX
8
OBJECT__56
10
0
20
0
30
0
70
128
71
8
72
10
73
11
0
VERTEX
8
OBJECT__56
10
0
20
0
30
0
70
128
71
11
72
9
73
8
0
VERTEX
8
OBJECT__56
10
0
20
0
30
0
70
128
71
3
72
11
73
6
0
VERTEX
8
OBJECT__56
10
0
20
0
30
0
70
128
71
11
72
10
73
6
0
SEQEND
8
OBJECT__56
0
POLYLINE
8
OBJECT__57
66
1
70
64
71
12
72
12
62
253
0
VERTEX
8
OBJECT__57
10
15.000000
20
17.500000
30
-30.311001
70
192
0
VERTEX
8
OBJECT__57
10
0.000000
20
17.500000
30
-30.311001
70
192
0
VERTEX
8
OBJECT__57
10
0.000000
20
35.000000
30
0.000000
70
192
0
VERTEX
8
OBJECT__57
10
15.000000
20
-17.500000
30
-30.311001
70
192
0
VERTEX
8
OBJECT__57
10
0.000000
20
-17.500000
30
-30.311001
70
192
0
VERTEX
8
OBJECT__57
10
15.000000
20
-35.000000
30
0.000000
70
192
0
VERTEX
8
OBJECT__57
10
0.000000
20
-35.000000
30
0.000000
70
192
0
VERTEX
8
OBJECT__57
10
15.000000
20
-17.500000
30
30.311001
70
192
0
VERTEX
8
OBJECT__57
10
0.000000
20
-17.500000
30
30.311001
70
192
0
VERTEX
8
OBJECT__57
10
0.000000
20
17.500000
30
30.311001
70
192
0
VERTEX
8
OBJECT__57
10
15.000000
20
35.000000
30
0.000000
70
192
0
VERTEX
8
OBJECT__57
10
15.000000
20
17.500000
30
30.311001
70
192
0
VERTEX
8
OBJECT__57
10
0
20
0
30
0
70
128
71
1
72
2
73
3
0
VERTEX
8
OBJECT__57
10
0
20
0
30
0
70
128
71
4
72
5
73
2
0
VERTEX
8
OBJECT__57
10
0
20
0
30
0
70
128
71
6
72
7
73
5
0
VERTEX
8
OBJECT__57
10
0
20
0
30
0
70
128
71
8
72
9
73
7
0
VERTEX
8
OBJECT__57
10
0
20
0
30
0
70
128
71
10
72
9
73
8
0
VERTEX
8
OBJECT__57
10
0
20
0
30
0
70
128
71
11
72
3
73
10
0
VERTEX
8
OBJECT__57
10
0
20
0
30
0
70
128
71
10
72
12
73
11
0
VERTEX
8
OBJECT__57
10
0
20
0
30
0
70
128
71
8
72
12
73
10
0
VERTEX
8
OBJECT__57
10
0
20
0
30
0
70
128
71
7
72
6
73
8
0
VERTEX
8
OBJECT__57
10
0
20
0
30
0
70
128
71
5
72
4
73
6
0
VERTEX
8
OBJECT__57
10
0
20
0
30
0
70
128
71
2
72
1
73
4
0
VERTEX
8
OBJECT__57
10
0
20
0
30
0
70
128
71
3
72
11
73
1
0
SEQEND
8
OBJECT__57
0
POLYLINE
8
OBJECT__58
66
1
70
64
71
6
72
4
62
253
0
VERTEX
8
OBJECT__58
10
0.000000
20
-17.500000
30
30.311001
70
192
0
VERTEX
8
OBJECT__58
10
0.000000
20
17.500000
30
-30.311001
70
192
0
VERTEX
8
OBJECT__58
10
0.000000
20
-17.500000
30
-30.311001
70
192
0
VERTEX
8
OBJECT__58
10
0.000000
20
17.500000
30
30.311001
70
192
0
VERTEX
8
OBJECT__58
10
0.000000
20
35.000000
30
0.000000
70
192
0
VERTEX
8
OBJECT__58
10
0.000000
20
-35.000000
30
0.000000
70
192
0
VERTEX
8
OBJECT__58
10
0
20
0
30
0
70
128
71
1
72
2
73
3
0
VERTEX
8
OBJECT__58
10
0
20
0
30
0
70
128
71
1
72
4
73
5
0
VERTEX
8
OBJECT__58
10
0
20
0
30
0
70
128
71
5
72
2
73
1
0
VERTEX
8
OBJECT__58
10
0
20
0
30
0
70
128
71
3
72
6
73
1
0
SEQEND
8
OBJECT__58
0
POLYLINE
8
OBJECT__59
66
1
70
64
71
16
72
18
62
253
0
VERTEX
8
OBJECT__59
10
59.799999
20
0.000000
30
-993.450012
70
192
0
VERTEX
8
OBJECT__59
10
59.799999
20
0.000000
30
-3.450000
70
192
0
VERTEX
8
OBJECT__59
10
70.699997
20
10.900000
30
-3.450000
70
192
0
VERTEX
8
OBJECT__59
10
70.699997
20
-10.900000
30
-993.450012
70
192
0
VERTEX
8
OBJECT__59
10
70.699997
20
-10.900000
30
-3.450000
70
192
0
VERTEX
8
OBJECT__59
10
81.599998
20
0.000000
30
-3.450000
70
192
0
VERTEX
8
OBJECT__59
10
81.430000
20
-1.920000
30
-5.477000
70
192
0
VERTEX
8
OBJECT__59
10
81.599998
20
0.000000
30
-993.450012
70
192
0
VERTEX
8
OBJECT__59
10
81.519997
20
0.007000
30
-10.164000
70
192
0
VERTEX
8
OBJECT__59
10
81.292000
20
-2.572000
30
-8.990000
70
192
0
VERTEX
8
OBJECT__59
10
70.699997
20
10.900000
30
-993.450012
70
192
0
VERTEX
8
OBJECT__59
10
81.579002
20
0.678000
30
-10.470000
70
192
0
VERTEX
8
OBJECT__59
10
81.207001
20
2.900000
30
-7.650000
70
192
0
VERTEX
8
OBJECT__59
10
81.473000
20
1.662000
30
-5.273000
70
192
0
VERTEX
8
OBJECT__59
10
81.238998
20
2.782000
30
-6.831000
70
192
0
VERTEX
8
OBJECT__59
10
81.453003
20
0.002000
30
-5.368000
70
192
0
VERTEX
8
OBJECT__59
10
0
20
0
30
0
70
128
71
1
72
2
73
3
0
VERTEX
8
OBJECT__59
10
0
20
0
30
0
70
128
71
4
72
5
73
2
0
VERTEX
8
OBJECT__59
10
0
20
0
30
0
70
128
71
6
72
5
73
7
0
VERTEX
8
OBJECT__59
10
0
20
0
30
0
70
128
71
4
72
8
73
9
0
VERTEX
8
OBJECT__59
10
0
20
0
30
0
70
128
71
9
72
10
73
4
0
VERTEX
8
OBJECT__59
10
0
20
0
30
0
70
128
71
10
72
5
73
4
0
VERTEX
8
OBJECT__59
10
0
20
0
30
0
70
128
71
10
72
7
73
5
0
VERTEX
8
OBJECT__59
10
0
20
0
30
0
70
128
71
8
72
11
73
12
0
VERTEX
8
OBJECT__59
10
0
20
0
30
0
70
128
71
11
72
3
73
13
0
VERTEX
8
OBJECT__59
10
0
20
0
30
0
70
128
71
3
72
14
73
15
0
VERTEX
8
OBJECT__59
10
0
20
0
30
0
70
128
71
15
72
13
73
3
0
VERTEX
8
OBJECT__59
10
0
20
0
30
0
70
128
71
6
72
16
73
14
0
VERTEX
8
OBJECT__59
10
0
20
0
30
0
70
128
71
14
72
3
73
6
0
VERTEX
8
OBJECT__59
10
0
20
0
30
0
70
128
71
13
72
12
73
11
0
VERTEX
8
OBJECT__59
10
0
20
0
30
0
70
128
71
12
72
9
73
8
0
VERTEX
8
OBJECT__59
10
0
20
0
30
0
70
128
71
7
72
16
73
6
0
VERTEX
8
OBJECT__59
10
0
20
0
30
0
70
128
71
2
72
1
73
4
0
VERTEX
8
OBJECT__59
10
0
20
0
30
0
70
128
71
3
72
11
73
1
0
SEQEND
8
OBJECT__59
0
POLYLINE
8
OBJECT__61
66
1
70
64
71
8
72
8
62
253
0
VERTEX
8
OBJECT__61
10
81.180000
20
49.150002
30
-388.450012
70
192
0
VERTEX
8
OBJECT__61
10
70.699997
20
38.669998
30
-388.450012
70
192
0
VERTEX
8
OBJECT__61
10
70.699997
20
38.669998
30
-397.220001
70
192
0
VERTEX
8
OBJECT__61
10
81.180000
20
49.150002
30
-397.220001
70
192
0
VERTEX
8
OBJECT__61
10
60.220001
20
49.150002
30
-388.450012
70
192
0
VERTEX
8
OBJECT__61
10
60.220001
20
49.150002
30
-397.220001
70
192
0
VERTEX
8
OBJECT__61
10
70.699997
20
59.630001
30
-388.450012
70
192
0
VERTEX
8
OBJECT__61
10
70.699997
20
59.630001
30
-397.220001
70
192
0
VERTEX
8
OBJECT__61
10
0
20
0
30
0
70
128
71
1
72
2
73
3
0
VERTEX
8
OBJECT__61
10
0
20
0
30
0
70
128
71
1
72
3
73
4
0
VERTEX
8
OBJECT__61
10
0
20
0
30
0
70
128
71
2
72
5
73
6
0
VERTEX
8
OBJECT__61
10
0
20
0
30
0
70
128
71
2
72
6
73
3
0
VERTEX
8
OBJECT__61
10
0
20
0
30
0
70
128
71
5
72
7
73
8
0
VERTEX
8
OBJECT__61
10
0
20
0
30
0
70
128
71
5
72
8
73
6
0
VERTEX
8
OBJECT__61
10
0
20
0
30
0
70
128
71
7
72
1
73
4
0
VERTEX
8
OBJECT__61
10
0
20
0
30
0
70
128
71
7
72
4
73
8
0
SEQEND
8
OBJECT__61
0
POLYLINE
8
OBJECT__63
66
1
70
64
71
6
72
4
62
253
0
VERTEX
8
OBJECT__63
10
52.700001
20
-17.150000
30
-403.450012
70
192
0
VERTEX
8
OBJECT__63
10
88.699997
20
-17.150000
30
-403.450012
70
192
0
VERTEX
8
OBJECT__63
10
85.262001
20
-17.150000
30
-414.029999
70
192
0
VERTEX
8
OBJECT__63
10
65.138000
20
-17.150000
30
-386.330994
70
192
0
VERTEX
8
OBJECT__63
10
85.262001
20
-17.150000
30
-392.869995
70
192
0
VERTEX
8
OBJECT__63
10
65.138000
20
-17.150000
30
-420.569000
70
192
0
VERTEX
8
OBJECT__63
10
0
20
0
30
0
70
128
71
1
72
2
73
3
0
VERTEX
8
OBJECT__63
10
0
20
0
30
0
70
128
71
1
72
4
73
5
0
VERTEX
8
OBJECT__63
10
0
20
0
30
0
70
128
71
5
72
2
73
1
0
VERTEX
8
OBJECT__63
10
0
20
0
30
0
70
128
71
3
72
6
73
1
0
SEQEND
8
OBJECT__63
0
POLYLINE
8
OBJECT__64
66
1
70
64
71
11
72
11
62
253
0
VERTEX
8
OBJECT__64
10
65.138000
20
-17.150000
30
-420.569000
70
192
0
VERTEX
8
OBJECT__64
10
65.138000
20
-39.150002
30
-420.569000
70
192
0
VERTEX
8
OBJECT__64
10
52.700001
20
-39.150002
30
-403.450012
70
192
0
VERTEX
8
OBJECT__64
10
85.262001
20
-17.150000
30
-414.029999
70
192
0
VERTEX
8
OBJECT__64
10
85.262001
20
-39.150002
30
-414.029999
70
192
0
VERTEX
8
OBJECT__64
10
85.262001
20
-39.150002
30
-392.869995
70
192
0
VERTEX
8
OBJECT__64
10
88.699997
20
-17.150000
30
-403.450012
70
192
0
VERTEX
8
OBJECT__64
10
65.138000
20
-39.150002
30
-386.330994
70
192
0
VERTEX
8
OBJECT__64
10
85.262001
20
-17.150000
30
-392.869995
70
192
0
VERTEX
8
OBJECT__64
10
65.138000
20
-17.150000
30
-386.330994
70
192
0
VERTEX
8
OBJECT__64
10
52.700001
20
-17.150000
30
-403.450012
70
192
0
VERTEX
8
OBJECT__64
10
0
20
0
30
0
70
128
71
1
72
2
73
3
0
VERTEX
8
OBJECT__64
10
0
20
0
30
0
70
128
71
4
72
5
73
2
0
VERTEX
8
OBJECT__64
10
0
20
0
30
0
70
128
71
6
72
5
73
7
0
VERTEX
8
OBJECT__64
10
0
20
0
30
0
70
128
71
5
72
4
73
7
0
VERTEX
8
OBJECT__64
10
0
20
0
30
0
70
128
71
8
72
6
73
9
0
VERTEX
8
OBJECT__64
10
0
20
0
30
0
70
128
71
10
72
11
73
3
0
VERTEX
8
OBJECT__64
10
0
20
0
30
0
70
128
71
3
72
8
73
10
0
VERTEX
8
OBJECT__64
10
0
20
0
30
0
70
128
71
9
72
10
73
8
0
VERTEX
8
OBJECT__64
10
0
20
0
30
0
70
128
71
7
72
9
73
6
0
VERTEX
8
OBJECT__64
10
0
20
0
30
0
70
128
71
2
72
1
73
4
0
VERTEX
8
OBJECT__64
10
0
20
0
30
0
70
128
71
3
72
11
73
1
0
SEQEND
8
OBJECT__64
0
POLYLINE
8
OBJECT__66
66
1
70
64
71
5
72
3
62
253
0
VERTEX
8
OBJECT__66
10
52.700001
20
-39.150002
30
-403.450012
70
192
0
VERTEX
8
OBJECT__66
10
85.262001
20
-39.150002
30
-414.029999
70
192
0
VERTEX
8
OBJECT__66
10
85.262001
20
-39.150002
30
-392.869995
70
192
0
VERTEX
8
OBJECT__66
10
65.138000
20
-39.150002
30
-420.569000
70
192
0
VERTEX
8
OBJECT__66
10
65.138000
20
-39.150002
30
-386.330994
70
192
0
VERTEX
8
OBJECT__66
10
0
20
0
30
0
70
128
71
1
72
2
73
3
0
VERTEX
8
OBJECT__66
10
0
20
0
30
0
70
128
71
1
72
4
73
2
0
VERTEX
8
OBJECT__66
10
0
20
0
30
0
70
128
71
3
72
5
73
1
0
SEQEND
8
OBJECT__66
0
POLYLINE
8
OBJECT__67
66
1
70
64
71
8
72
8
62
253
0
VERTEX
8
OBJECT__67
10
14.203000
20
90.500000
30
-1020.650024
70
192
0
VERTEX
8
OBJECT__67
10
14.203000
20
75.000000
30
-1005.150024
70
192
0
VERTEX
8
OBJECT__67
10
56.702999
20
75.000000
30
-1005.150024
70
192
0
VERTEX
8
OBJECT__67
10
56.702999
20
90.500000
30
-1020.650024
70
192
0
VERTEX
8
OBJECT__67
10
14.203000
20
59.500000
30
-1020.650024
70
192
0
VERTEX
8
OBJECT__67
10
56.702999
20
59.500000
30
-1020.650024
70
192
0
VERTEX
8
OBJECT__67
10
14.203000
20
75.000000
30
-1036.150024
70
192
0
VERTEX
8
OBJECT__67
10
56.702999
20
75.000000
30
-1036.150024
70
192
0
VERTEX
8
OBJECT__67
10
0
20
0
30
0
70
128
71
1
72
2
73
3
0
VERTEX
8
OBJECT__67
10
0
20
0
30
0
70
128
71
1
72
3
73
4
0
VERTEX
8
OBJECT__67
10
0
20
0
30
0
70
128
71
2
72
5
73
6
0
VERTEX
8
OBJECT__67
10
0
20
0
30
0
70
128
71
2
72
6
73
3
0
VERTEX
8
OBJECT__67
10
0
20
0
30
0
70
128
71
5
72
7
73
8
0
VERTEX
8
OBJECT__67
10
0
20
0
30
0
70
128
71
5
72
8
73
6
0
VERTEX
8
OBJECT__67
10
0
20
0
30
0
70
128
71
7
72
1
73
4
0
VERTEX
8
OBJECT__67
10
0
20
0
30
0
70
128
71
7
72
4
73
8
0
SEQEND
8
OBJECT__67
0
POLYLINE
8
OBJECT__69
66
1
70
64
71
9
72
7
62
253
0
VERTEX
8
OBJECT__69
10
60.681999
20
51.831001
30
-415.127991
70
192
0
VERTEX
8
OBJECT__69
10
60.312000
20
49.215000
30
-414.795990
70
192
0
VERTEX
8
OBJECT__69
10
58.901001
20
49.535999
30
-416.377014
70
192
0
VERTEX
8
OBJECT__69
10
58.933998
20
49.226002
30
-416.406006
70
192
0
VERTEX
8
OBJECT__69
10
60.647999
20
46.591000
30
-415.097992
70
192
0
VERTEX
8
OBJECT__69
10
60.682999
20
46.465000
30
-415.127991
70
192
0
VERTEX
8
OBJECT__69
10
59.236000
20
46.397999
30
-416.671997
70
192
0
VERTEX
8
OBJECT__69
10
59.222000
20
46.532001
30
-416.660004
70
192
0
VERTEX
8
OBJECT__69
10
59.235001
20
51.896999
30
-416.671997
70
192
0
VERTEX
8
OBJECT__69
10
0
20
0
30
0
70
128
71
1
72
2
73
3
0
VERTEX
8
OBJECT__69
10
0
20
0
30
0
70
128
71
2
72
4
73
3
0
VERTEX
8
OBJECT__69
10
0
20
0
30
0
70
128
71
4
72
2
73
5
0
VERTEX
8
OBJECT__69
10
0
20
0
30
0
70
128
71
6
72
7
73
8
0
VERTEX
8
OBJECT__69
10
0
20
0
30
0
70
128
71
8
72
5
73
6
0
VERTEX
8
OBJECT__69
10
0
20
0
30
0
70
128
71
5
72
8
73
4
0
VERTEX
8
OBJECT__69
10
0
20
0
30
0
70
128
71
3
72
9
73
1
0
SEQEND
8
OBJECT__69
0
POLYLINE
8
OBJECT__70
66
1
70
64
71
20
72
18
62
253
0
VERTEX
8
OBJECT__70
10
82.164001
20
46.397999
30
-416.671997
70
192
0
VERTEX
8
OBJECT__70
10
81.584000
20
44.935001
30
-417.070007
70
192
0
VERTEX
8
OBJECT__70
10
80.207001
20
45.064999
30
-415.563995
70
192
0
VERTEX
8
OBJECT__70
10
79.352997
20
41.848999
30
-418.371002
70
192
0
VERTEX
8
OBJECT__70
10
78.251999
20
42.182999
30
-416.955994
70
192
0
VERTEX
8
OBJECT__70
10
76.087997
20
39.548000
30
-419.670990
70
192
0
VERTEX
8
OBJECT__70
10
75.398003
20
40.091999
30
-418.315002
70
192
0
VERTEX
8
OBJECT__70
10
72.058998
20
38.391998
30
-420.407990
70
192
0
VERTEX
8
OBJECT__70
10
71.885002
20
39.055000
30
-419.075989
70
192
0
VERTEX
8
OBJECT__70
10
68.583000
20
38.499001
30
-420.337006
70
192
0
VERTEX
8
OBJECT__70
10
68.853996
20
39.151001
30
-419.003998
70
192
0
VERTEX
8
OBJECT__70
10
65.348000
20
39.530998
30
-419.681000
70
192
0
VERTEX
8
OBJECT__70
10
66.032997
20
40.077000
30
-418.325989
70
192
0
VERTEX
8
OBJECT__70
10
62.484001
20
41.438000
30
-418.584991
70
192
0
VERTEX
8
OBJECT__70
10
63.530998
20
41.806000
30
-417.182007
70
192
0
VERTEX
8
OBJECT__70
10
60.084000
20
44.423000
30
-417.244995
70
192
0
VERTEX
8
OBJECT__70
10
61.426998
20
44.580002
30
-415.753998
70
192
0
VERTEX
8
OBJECT__70
10
59.236000
20
46.397999
30
-416.671997
70
192
0
VERTEX
8
OBJECT__70
10
60.682999
20
46.465000
30
-415.127991
70
192
0
VERTEX
8
OBJECT__70
10
80.717003
20
46.465000
30
-415.127991
70
192
0
VERTEX
8
OBJECT__70
10
0
20
0
30
0
70
128
71
1
72
2
73
3
0
VERTEX
8
OBJECT__70
10
0
20
0
30
0
70
128
71
2
72
4
73
5
0
VERTEX
8
OBJECT__70
10
0
20
0
30
0
70
128
71
4
72
6
73
7
0
VERTEX
8
OBJECT__70
10
0
20
0
30
0
70
128
71
6
72
8
73
9
0
VERTEX
8
OBJECT__70
10
0
20
0
30
0
70
128
71
10
72
11
73
9
0
VERTEX
8
OBJECT__70
10
0
20
0
30
0
70
128
71
12
72
13
73
11
0
VERTEX
8
OBJECT__70
10
0
20
0
30
0
70
128
71
14
72
15
73
13
0
VERTEX
8
OBJECT__70
10
0
20
0
30
0
70
128
71
16
72
17
73
15
0
VERTEX
8
OBJECT__70
10
0
20
0
30
0
70
128
71
18
72
19
73
17
0
VERTEX
8
OBJECT__70
10
0
20
0
30
0
70
128
71
17
72
16
73
18
0
VERTEX
8
OBJECT__70
10
0
20
0
30
0
70
128
71
15
72
14
73
16
0
VERTEX
8
OBJECT__70
10
0
20
0
30
0
70
128
71
13
72
12
73
14
0
VERTEX
8
OBJECT__70
10
0
20
0
30
0
70
128
71
11
72
10
73
12
0
VERTEX
8
OBJECT__70
10
0
20
0
30
0
70
128
71
9
72
8
73
10
0
VERTEX
8
OBJECT__70
10
0
20
0
30
0
70
128
71
9
72
7
73
6
0
VERTEX
8
OBJECT__70
10
0
20
0
30
0
70
128
71
7
72
5
73
4
0
VERTEX
8
OBJECT__70
10
0
20
0
30
0
70
128
71
5
72
3
73
2
0
VERTEX
8
OBJECT__70
10
0
20
0
30
0
70
128
71
3
72
20
73
1
0
SEQEND
8
OBJECT__70
0
POLYLINE
8
OBJECT__72
66
1
70
64
71
9
72
7
62
253
0
VERTEX
8
OBJECT__72
10
80.718002
20
51.831001
30
-415.127991
70
192
0
VERTEX
8
OBJECT__72
10
82.165001
20
51.896999
30
-416.671997
70
192
0
VERTEX
8
OBJECT__72
10
82.166000
20
51.870998
30
-416.670990
70
192
0
VERTEX
8
OBJECT__72
10
82.232002
20
49.162998
30
-416.613007
70
192
0
VERTEX
8
OBJECT__72
10
81.087997
20
49.172001
30
-414.795013
70
192
0
VERTEX
8
OBJECT__72
10
80.724998
20
51.806000
30
-415.122009
70
192
0
VERTEX
8
OBJECT__72
10
82.287003
20
46.941002
30
-416.565002
70
192
0
VERTEX
8
OBJECT__72
10
80.717003
20
46.465000
30
-415.127991
70
192
0
VERTEX
8
OBJECT__72
10
82.164001
20
46.397999
30
-416.671997
70
192
0
VERTEX
8
OBJECT__72
10
0
20
0
30
0
70
128
71
1
72
2
73
3
0
VERTEX
8
OBJECT__72
10
0
20
0
30
0
70
128
71
4
72
5
73
6
0
VERTEX
8
OBJECT__72
10
0
20
0
30
0
70
128
71
5
72
4
73
7
0
VERTEX
8
OBJECT__72
10
0
20
0
30
0
70
128
71
7
72
8
73
5
0
VERTEX
8
OBJECT__72
10
0
20
0
30
0
70
128
71
7
72
9
73
8
0
VERTEX
8
OBJECT__72
10
0
20
0
30
0
70
128
71
6
72
3
73
4
0
VERTEX
8
OBJECT__72
10
0
20
0
30
0
70
128
71
3
72
6
73
1
0
SEQEND
8
OBJECT__72
0
POLYLINE
8
OBJECT__73
66
1
70
64
71
12
72
12
62
253
0
VERTEX
8
OBJECT__73
10
470.700012
20
11.500000
30
53.083000
70
192
0
VERTEX
8
OBJECT__73
10
470.700012
20
9.959000
30
51.834000
70
192
0
VERTEX
8
OBJECT__73
10
464.950012
20
9.959000
30
51.834000
70
192
0
VERTEX
8
OBJECT__73
10
459.200012
20
0.000000
30
53.083000
70
192
0
VERTEX
8
OBJECT__73
10
459.200012
20
0.000000
30
51.834000
70
192
0
VERTEX
8
OBJECT__73
10
482.200012
20
0.000000
30
53.083000
70
192
0
VERTEX
8
OBJECT__73
10
476.450012
20
9.959000
30
51.834000
70
192
0
VERTEX
8
OBJECT__73
10
482.200012
20
0.000000
30
51.834000
70
192
0
VERTEX
8
OBJECT__73
10
470.700012
20
-11.500000
30
53.083000
70
192
0
VERTEX
8
OBJECT__73
10
470.700012
20
-9.959000
30
51.834000
70
192
0
VERTEX
8
OBJECT__73
10
476.450012
20
-9.959000
30
51.834000
70
192
0
VERTEX
8
OBJECT__73
10
464.950012
20
-9.959000
30
51.834000
70
192
0
VERTEX
8
OBJECT__73
10
0
20
0
30
0
70
128
71
1
72
2
73
3
0
VERTEX
8
OBJECT__73
10
0
20
0
30
0
70
128
71
3
72
4
73
1
0
VERTEX
8
OBJECT__73
10
0
20
0
30
0
70
128
71
3
72
5
73
4
0
VERTEX
8
OBJECT__73
10
0
20
0
30
0
70
128
71
1
72
6
73
7
0
VERTEX
8
OBJECT__73
10
0
20
0
30
0
70
128
71
7
72
2
73
1
0
VERTEX
8
OBJECT__73
10
0
20
0
30
0
70
128
71
6
72
8
73
7
0
VERTEX
8
OBJECT__73
10
0
20
0
30
0
70
128
71
9
72
10
73
11
0
VERTEX
8
OBJECT__73
10
0
20
0
30
0
70
128
71
11
72
6
73
9
0
VERTEX
8
OBJECT__73
10
0
20
0
30
0
70
128
71
11
72
8
73
6
0
VERTEX
8
OBJECT__73
10
0
20
0
30
0
70
128
71
9
72
4
73
12
0
VERTEX
8
OBJECT__73
10
0
20
0
30
0
70
128
71
12
72
10
73
9
0
VERTEX
8
OBJECT__73
10
0
20
0
30
0
70
128
71
4
72
5
73
12
0
SEQEND
8
OBJECT__73
0
POLYLINE
8
OBJECT__74
66
1
70
64
71
15
72
20
62
253
0
VERTEX
8
OBJECT__74
10
476.903015
20
-10.743000
30
37.361000
70
192
0
VERTEX
8
OBJECT__74
10
483.105011
20
0.000000
30
37.361000
70
192
0
VERTEX
8
OBJECT__74
10
482.200012
20
0.000000
30
51.834000
70
192
0
VERTEX
8
OBJECT__74
10
476.450012
20
-9.959000
30
51.834000
70
192
0
VERTEX
8
OBJECT__74
10
470.700012
20
-9.959000
30
51.834000
70
192
0
VERTEX
8
OBJECT__74
10
464.497009
20
-10.743000
30
37.361000
70
192
0
VERTEX
8
OBJECT__74
10
458.295013
20
0.000000
30
37.361000
70
192
0
VERTEX
8
OBJECT__74
10
464.950012
20
-9.959000
30
51.834000
70
192
0
VERTEX
8
OBJECT__74
10
464.497009
20
10.743000
30
37.361000
70
192
0
VERTEX
8
OBJECT__74
10
459.200012
20
0.000000
30
51.834000
70
192
0
VERTEX
8
OBJECT__74
10
464.950012
20
9.959000
30
51.834000
70
192
0
VERTEX
8
OBJECT__74
10
470.700012
20
9.959000
30
51.834000
70
192
0
VERTEX
8
OBJECT__74
10
476.903015
20
10.743000
30
37.361000
70
192
0
VERTEX
8
OBJECT__74
10
476.450012
20
9.959000
30
51.834000
70
192
0
VERTEX
8
OBJECT__74
10
470.700012
20
0.000000
30
29.850000
70
192
0
VERTEX
8
OBJECT__74
10
0
20
0
30
0
70
128
71
1
72
2
73
3
0
VERTEX
8
OBJECT__74
10
0
20
0
30
0
70
128
71
1
72
4
73
5
0
VERTEX
8
OBJECT__74
10
0
20
0
30
0
70
128
71
5
72
6
73
1
0
VERTEX
8
OBJECT__74
10
0
20
0
30
0
70
128
71
7
72
6
73
8
0
VERTEX
8
OBJECT__74
10
0
20
0
30
0
70
128
71
9
72
7
73
10
0
VERTEX
8
OBJECT__74
10
0
20
0
30
0
70
128
71
9
72
11
73
12
0
VERTEX
8
OBJECT__74
10
0
20
0
30
0
70
128
71
12
72
13
73
9
0
VERTEX
8
OBJECT__74
10
0
20
0
30
0
70
128
71
2
72
13
73
14
0
VERTEX
8
OBJECT__74
10
0
20
0
30
0
70
128
71
15
72
13
73
2
0
VERTEX
8
OBJECT__74
10
0
20
0
30
0
70
128
71
15
72
9
73
13
0
VERTEX
8
OBJECT__74
10
0
20
0
30
0
70
128
71
15
72
7
73
9
0
VERTEX
8
OBJECT__74
10
0
20
0
30
0
70
128
71
15
72
6
73
7
0
VERTEX
8
OBJECT__74
10
0
20
0
30
0
70
128
71
15
72
1
73
6
0
VERTEX
8
OBJECT__74
10
0
20
0
30
0
70
128
71
15
72
2
73
1
0
VERTEX
8
OBJECT__74
10
0
20
0
30
0
70
128
71
14
72
3
73
2
0
VERTEX
8
OBJECT__74
10
0
20
0
30
0
70
128
71
12
72
14
73
13
0
VERTEX
8
OBJECT__74
10
0
20
0
30
0
70
128
71
10
72
11
73
9
0
VERTEX
8
OBJECT__74
10
0
20
0
30
0
70
128
71
8
72
10
73
7
0
VERTEX
8
OBJECT__74
10
0
20
0
30
0
70
128
71
5
72
8
73
6
0
VERTEX
8
OBJECT__74
10
0
20
0
30
0
70
128
71
3
72
4
73
1
0
SEQEND
8
OBJECT__74
0
POLYLINE
8
OBJECT__76
66
1
70
64
71
19
72
17
62
253
0
VERTEX
8
OBJECT__76
10
60.896999
20
45.634998
30
-390.308014
70
192
0
VERTEX
8
OBJECT__76
10
57.757000
20
51.175999
30
-391.669006
70
192
0
VERTEX
8
OBJECT__76
10
57.639000
20
48.230999
30
-391.802002
70
192
0
VERTEX
8
OBJECT__76
10
60.387001
20
54.571999
30
-390.696991
70
192
0
VERTEX
8
OBJECT__76
10
58.719002
20
54.571999
30
-390.696991
70
192
0
VERTEX
8
OBJECT__76
10
58.588001
20
45.719002
30
-390.946014
70
192
0
VERTEX
8
OBJECT__76
10
60.446999
20
40.794998
30
-389.269989
70
192
0
VERTEX
8
OBJECT__76
10
61.073002
20
42.537998
30
-390.173004
70
192
0
VERTEX
8
OBJECT__76
10
70.496002
20
37.310001
30
-387.066010
70
192
0
VERTEX
8
OBJECT__76
10
69.792000
20
35.782001
30
-385.973999
70
192
0
VERTEX
8
OBJECT__76
10
80.737999
20
40.526001
30
-389.117004
70
192
0
VERTEX
8
OBJECT__76
10
81.292999
20
44.326000
30
-390.924011
70
192
0
VERTEX
8
OBJECT__76
10
82.185997
20
45.814999
30
-390.390015
70
192
0
VERTEX
8
OBJECT__76
10
81.314003
20
45.596001
30
-390.942993
70
192
0
VERTEX
8
OBJECT__76
10
83.647003
20
51.148998
30
-391.673004
70
192
0
VERTEX
8
OBJECT__76
10
81.449997
20
53.594002
30
-391.059998
70
192
0
VERTEX
8
OBJECT__76
10
82.681000
20
54.571999
30
-390.696991
70
192
0
VERTEX
8
OBJECT__76
10
80.199997
20
56.488998
30
-389.816986
70
192
0
VERTEX
8
OBJECT__76
10
80.199997
20
55.951000
30
-390.084991
70
192
0
VERTEX
8
OBJECT__76
10
0
20
0
30
0
70
128
71
1
72
2
73
3
0
VERTEX
8
OBJECT__76
10
0
20
0
30
0
70
128
71
4
72
5
73
2
0
VERTEX
8
OBJECT__76
10
0
20
0
30
0
70
128
71
2
72
1
73
4
0
VERTEX
8
OBJECT__76
10
0
20
0
30
0
70
128
71
6
72
7
73
8
0
VERTEX
8
OBJECT__76
10
0
20
0
30
0
70
128
71
9
72
8
73
7
0
VERTEX
8
OBJECT__76
10
0
20
0
30
0
70
128
71
7
72
10
73
9
0
VERTEX
8
OBJECT__76
10
0
20
0
30
0
70
128
71
11
72
12
73
9
0
VERTEX
8
OBJECT__76
10
0
20
0
30
0
70
128
71
13
72
14
73
12
0
VERTEX
8
OBJECT__76
10
0
20
0
30
0
70
128
71
12
72
11
73
13
0
VERTEX
8
OBJECT__76
10
0
20
0
30
0
70
128
71
9
72
10
73
11
0
VERTEX
8
OBJECT__76
10
0
20
0
30
0
70
128
71
14
72
13
73
15
0
VERTEX
8
OBJECT__76
10
0
20
0
30
0
70
128
71
15
72
16
73
14
0
VERTEX
8
OBJECT__76
10
0
20
0
30
0
70
128
71
17
72
18
73
19
0
VERTEX
8
OBJECT__76
10
0
20
0
30
0
70
128
71
19
72
16
73
17
0
VERTEX
8
OBJECT__76
10
0
20
0
30
0
70
128
71
15
72
17
73
16
0
VERTEX
8
OBJECT__76
10
0
20
0
30
0
70
128
71
8
72
1
73
6
0
VERTEX
8
OBJECT__76
10
0
20
0
30
0
70
128
71
3
72
6
73
1
0
SEQEND
8
OBJECT__76
0
POLYLINE
8
OBJECT__77
66
1
70
64
71
9
72
7
62
253
0
VERTEX
8
OBJECT__77
10
80.199997
20
56.134998
30
-416.644012
70
192
0
VERTEX
8
OBJECT__77
10
80.199997
20
54.900002
30
-417.584015
70
192
0
VERTEX
8
OBJECT__77
10
80.199997
20
53.245998
30
-415.644012
70
192
0
VERTEX
8
OBJECT__77
10
80.199997
20
56.488998
30
-389.816986
70
192
0
VERTEX
8
OBJECT__77
10
80.199997
20
57.633999
30
-389.843994
70
192
0
VERTEX
8
OBJECT__77
10
80.199997
20
58.235001
30
-390.820007
70
192
0
VERTEX
8
OBJECT__77
10
80.199997
20
55.951000
30
-390.084991
70
192
0
VERTEX
8
OBJECT__77
10
80.199997
20
56.595001
30
-411.338013
70
192
0
VERTEX
8
OBJECT__77
10
80.199997
20
53.251999
30
-415.571991
70
192
0
VERTEX
8
OBJECT__77
10
0
20
0
30
0
70
128
71
1
72
2
73
3
0
VERTEX
8
OBJECT__77
10
0
20
0
30
0
70
128
71
4
72
5
73
6
0
VERTEX
8
OBJECT__77
10
0
20
0
30
0
70
128
71
7
72
4
73
8
0
VERTEX
8
OBJECT__77
10
0
20
0
30
0
70
128
71
3
72
9
73
1
0
VERTEX
8
OBJECT__77
10
0
20
0
30
0
70
128
71
8
72
9
73
7
0
VERTEX
8
OBJECT__77
10
0
20
0
30
0
70
128
71
6
72
8
73
4
0
VERTEX
8
OBJECT__77
10
0
20
0
30
0
70
128
71
9
72
8
73
1
0
SEQEND
8
OBJECT__77
0
POLYLINE
8
OBJECT__79
66
1
70
64
71
8
72
8
62
253
0
VERTEX
8
OBJECT__79
10
90.699997
20
-43.740002
30
-1054.650024
70
192
0
VERTEX
8
OBJECT__79
10
103.199997
20
-56.240002
30
-1054.650024
70
192
0
VERTEX
8
OBJECT__79
10
100.015999
20
-56.240002
30
-1054.650024
70
192
0
VERTEX
8
OBJECT__79
10
90.699997
20
-68.739998
30
-1054.650024
70
192
0
VERTEX
8
OBJECT__79
10
90.699997
20
-65.556000
30
-1054.650024
70
192
0
VERTEX
8
OBJECT__79
10
78.199997
20
-56.240002
30
-1054.650024
70
192
0
VERTEX
8
OBJECT__79
10
81.385002
20
-56.240002
30
-1054.650024
70
192
0
VERTEX
8
OBJECT__79
10
90.699997
20
-46.924000
30
-1054.650024
70
192
0
VERTEX
8
OBJECT__79
10
0
20
0
30
0
70
128
71
1
72
2
73
3
0
VERTEX
8
OBJECT__79
10
0
20
0
30
0
70
128
71
2
72
4
73
5
0
VERTEX
8
OBJECT__79
10
0
20
0
30
0
70
128
71
6
72
7
73
5
0
VERTEX
8
OBJECT__79
10
0
20
0
30
0
70
128
71
1
72
8
73
7
0
VERTEX
8
OBJECT__79
10
0
20
0
30
0
70
128
71
5
72
3
73
2
0
VERTEX
8
OBJECT__79
10
0
20
0
30
0
70
128
71
7
72
6
73
1
0
VERTEX
8
OBJECT__79
10
0
20
0
30
0
70
128
71
5
72
4
73
6
0
VERTEX
8
OBJECT__79
10
0
20
0
30
0
70
128
71
3
72
8
73
1
0
SEQEND
8
OBJECT__79
0
POLYLINE
8
OBJECT__80
66
1
70
64
71
8
72
8
62
253
0
VERTEX
8
OBJECT__80
10
90.699997
20
-43.740002
30
-1054.650024
70
192
0
VERTEX
8
OBJECT__80
10
78.199997
20
-56.240002
30
-1054.650024
70
192
0
VERTEX
8
OBJECT__80
10
78.199997
20
-56.240002
30
-1052.150024
70
192
0
VERTEX
8
OBJECT__80
10
103.199997
20
-56.240002
30
-1052.150024
70
192
0
VERTEX
8
OBJECT__80
10
103.199997
20
-56.240002
30
-1054.650024
70
192
0
VERTEX
8
OBJECT__80
10
90.699997
20
-68.739998
30
-1052.150024
70
192
0
VERTEX
8
OBJECT__80
10
90.699997
20
-68.739998
30
-1054.650024
70
192
0
VERTEX
8
OBJECT__80
10
90.699997
20
-43.740002
30
-1052.150024
70
192
0
VERTEX
8
OBJECT__80
10
0
20
0
30
0
70
128
71
1
72
2
73
3
0
VERTEX
8
OBJECT__80
10
0
20
0
30
0
70
128
71
4
72
5
73
1
0
VERTEX
8
OBJECT__80
10
0
20
0
30
0
70
128
71
6
72
7
73
5
0
VERTEX
8
OBJECT__80
10
0
20
0
30
0
70
128
71
6
72
3
73
2
0
VERTEX
8
OBJECT__80
10
0
20
0
30
0
70
128
71
2
72
7
73
6
0
VERTEX
8
OBJECT__80
10
0
20
0
30
0
70
128
71
5
72
4
73
6
0
VERTEX
8
OBJECT__80
10
0
20
0
30
0
70
128
71
1
72
8
73
4
0
VERTEX
8
OBJECT__80
10
0
20
0
30
0
70
128
71
3
72
8
73
1
0
SEQEND
8
OBJECT__80
0
POLYLINE
8
OBJECT__82
66
1
70
64
71
8
72
8
62
253
0
VERTEX
8
OBJECT__82
10
58.700001
20
-16.000000
30
-403.450012
70
192
0
VERTEX
8
OBJECT__82
10
58.700001
20
-17.448000
30
-403.450012
70
192
0
VERTEX
8
OBJECT__82
10
70.699997
20
-17.448000
30
-391.450012
70
192
0
VERTEX
8
OBJECT__82
10
70.699997
20
-16.000000
30
-415.450012
70
192
0
VERTEX
8
OBJECT__82
10
70.699997
20
-17.448000
30
-415.450012
70
192
0
VERTEX
8
OBJECT__82
10
82.699997
20
-16.000000
30
-403.450012
70
192
0
VERTEX
8
OBJECT__82
10
82.699997
20
-17.448000
30
-403.450012
70
192
0
VERTEX
8
OBJECT__82
10
70.699997
20
-16.000000
30
-391.450012
70
192
0
VERTEX
8
OBJECT__82
10
0
20
0
30
0
70
128
71
1
72
2
73
3
0
VERTEX
8
OBJECT__82
10
0
20
0
30
0
70
128
71
4
72
5
73
2
0
VERTEX
8
OBJECT__82
10
0
20
0
30
0
70
128
71
6
72
7
73
5
0
VERTEX
8
OBJECT__82
10
0
20
0
30
0
70
128
71
8
72
3
73
7
0
VERTEX
8
OBJECT__82
10
0
20
0
30
0
70
128
71
7
72
6
73
8
0
VERTEX
8
OBJECT__82
10
0
20
0
30
0
70
128
71
5
72
4
73
6
0
VERTEX
8
OBJECT__82
10
0
20
0
30
0
70
128
71
2
72
1
73
4
0
VERTEX
8
OBJECT__82
10
0
20
0
30
0
70
128
71
3
72
8
73
1
0
SEQEND
8
OBJECT__82
0
POLYLINE
8
OBJECT__83
66
1
70
64
71
9
72
9
62
253
0
VERTEX
8
OBJECT__83
10
60.119999
20
-16.000000
30
-418.011993
70
192
0
VERTEX
8
OBJECT__83
10
70.699997
20
-16.000000
30
-415.450012
70
192
0
VERTEX
8
OBJECT__83
10
58.700001
20
-16.000000
30
-403.450012
70
192
0
VERTEX
8
OBJECT__83
10
53.581001
20
-16.000000
30
-397.888000
70
192
0
VERTEX
8
OBJECT__83
10
70.699997
20
-16.000000
30
-391.450012
70
192
0
VERTEX
8
OBJECT__83
10
81.279999
20
-16.000000
30
-418.011993
70
192
0
VERTEX
8
OBJECT__83
10
87.819000
20
-16.000000
30
-397.888000
70
192
0
VERTEX
8
OBJECT__83
10
82.699997
20
-16.000000
30
-403.450012
70
192
0
VERTEX
8
OBJECT__83
10
70.699997
20
-16.000000
30
-385.450012
70
192
0
VERTEX
8
OBJECT__83
10
0
20
0
30
0
70
128
71
1
72
2
73
3
0
VERTEX
8
OBJECT__83
10
0
20
0
30
0
70
128
71
4
72
3
73
5
0
VERTEX
8
OBJECT__83
10
0
20
0
30
0
70
128
71
1
72
6
73
2
0
VERTEX
8
OBJECT__83
10
0
20
0
30
0
70
128
71
3
72
4
73
1
0
VERTEX
8
OBJECT__83
10
0
20
0
30
0
70
128
71
6
72
7
73
8
0
VERTEX
8
OBJECT__83
10
0
20
0
30
0
70
128
71
7
72
9
73
5
0
VERTEX
8
OBJECT__83
10
0
20
0
30
0
70
128
71
8
72
2
73
6
0
VERTEX
8
OBJECT__83
10
0
20
0
30
0
70
128
71
5
72
9
73
4
0
VERTEX
8
OBJECT__83
10
0
20
0
30
0
70
128
71
5
72
8
73
7
0
SEQEND
8
OBJECT__83
0
POLYLINE
8
OBJECT__85
66
1
70
64
71
30
72
34
62
253
0
VERTEX
8
OBJECT__85
10
70.699997
20
-16.000000
30
-385.450012
70
192
0
VERTEX
8
OBJECT__85
10
87.819000
20
-16.000000
30
-397.888000
70
192
0
VERTEX
8
OBJECT__85
10
75.200996
20
-12.887000
30
-386.022003
70
192
0
VERTEX
8
OBJECT__85
10
83.717003
20
-4.109000
30
-391.018005
70
192
0
VERTEX
8
OBJECT__85
10
87.819000
20
16.000000
30
-397.888000
70
192
0
VERTEX
8
OBJECT__85
10
83.042999
20
5.830000
30
-390.347992
70
192
0
VERTEX
8
OBJECT__85
10
70.699997
20
16.000000
30
-385.450012
70
192
0
VERTEX
8
OBJECT__85
10
72.319000
20
13.554000
30
-385.523010
70
192
0
VERTEX
8
OBJECT__85
10
70.699997
20
13.650000
30
-385.450012
70
192
0
VERTEX
8
OBJECT__85
10
53.581001
20
16.000000
30
-397.888000
70
192
0
VERTEX
8
OBJECT__85
10
60.340000
20
8.888000
30
-388.730011
70
192
0
VERTEX
8
OBJECT__85
10
53.581001
20
-16.000000
30
-397.888000
70
192
0
VERTEX
8
OBJECT__85
10
57.180000
20
-1.882000
30
-391.566010
70
192
0
VERTEX
8
OBJECT__85
10
70.763000
20
-12.452000
30
-386.337006
70
192
0
VERTEX
8
OBJECT__85
10
63.783001
20
-11.768000
30
-386.832001
70
192
0
VERTEX
8
OBJECT__85
10
60.119999
20
16.000000
30
-418.011993
70
192
0
VERTEX
8
OBJECT__85
10
81.279999
20
16.000000
30
-418.011993
70
192
0
VERTEX
8
OBJECT__85
10
74.150002
20
13.207000
30
-421.115997
70
192
0
VERTEX
8
OBJECT__85
10
62.257999
20
10.727000
30
-419.347992
70
192
0
VERTEX
8
OBJECT__85
10
80.852997
20
5.921000
30
-417.292999
70
192
0
VERTEX
8
OBJECT__85
10
57.243000
20
-2.285000
30
-415.403992
70
192
0
VERTEX
8
OBJECT__85
10
60.548000
20
-5.892000
30
-417.290985
70
192
0
VERTEX
8
OBJECT__85
10
60.285999
20
5.610000
30
-417.796997
70
192
0
VERTEX
8
OBJECT__85
10
81.279999
20
-16.000000
30
-418.011993
70
192
0
VERTEX
8
OBJECT__85
10
60.119999
20
-16.000000
30
-418.011993
70
192
0
VERTEX
8
OBJECT__85
10
67.250999
20
-13.207000
30
-421.115997
70
192
0
VERTEX
8
OBJECT__85
10
79.142998
20
-10.726000
30
-419.346985
70
192
0
VERTEX
8
OBJECT__85
10
84.148003
20
2.341000
30
-415.415009
70
192
0
VERTEX
8
OBJECT__85
10
84.349998
20
0.000000
30
-415.183990
70
192
0
VERTEX
8
OBJECT__85
10
81.099998
20
-6.694000
30
-417.782013
70
192
0
VERTEX
8
OBJECT__85
10
0
20
0
30
0
70
128
71
1
72
2
73
3
0
VERTEX
8
OBJECT__85
10
0
20
0
30
0
70
128
71
2
72
4
73
3
0
VERTEX
8
OBJECT__85
10
0
20
0
30
0
70
128
71
5
72
6
73
4
0
VERTEX
8
OBJECT__85
10
0
20
0
30
0
70
128
71
5
72
7
73
8
0
VERTEX
8
OBJECT__85
10
0
20
0
30
0
70
128
71
7
72
9
73
8
0
VERTEX
8
OBJECT__85
10
0
20
0
30
0
70
128
71
8
72
6
73
5
0
VERTEX
8
OBJECT__85
10
0
20
0
30
0
70
128
71
4
72
2
73
5
0
VERTEX
8
OBJECT__85
10
0
20
0
30
0
70
128
71
7
72
10
73
11
0
VERTEX
8
OBJECT__85
10
0
20
0
30
0
70
128
71
10
72
12
73
13
0
VERTEX
8
OBJECT__85
10
0
20
0
30
0
70
128
71
13
72
11
73
10
0
VERTEX
8
OBJECT__85
10
0
20
0
30
0
70
128
71
1
72
14
73
15
0
VERTEX
8
OBJECT__85
10
0
20
0
30
0
70
128
71
15
72
12
73
1
0
VERTEX
8
OBJECT__85
10
0
20
0
30
0
70
128
71
15
72
13
73
12
0
VERTEX
8
OBJECT__85
10
0
20
0
30
0
70
128
71
16
72
17
73
18
0
VERTEX
8
OBJECT__85
10
0
20
0
30
0
70
128
71
18
72
19
73
16
0
VERTEX
8
OBJECT__85
10
0
20
0
30
0
70
128
71
17
72
20
73
18
0
VERTEX
8
OBJECT__85
10
0
20
0
30
0
70
128
71
12
72
21
73
22
0
VERTEX
8
OBJECT__85
10
0
20
0
30
0
70
128
71
10
72
23
73
21
0
VERTEX
8
OBJECT__85
10
0
20
0
30
0
70
128
71
10
72
16
73
23
0
VERTEX
8
OBJECT__85
10
0
20
0
30
0
70
128
71
21
72
12
73
10
0
VERTEX
8
OBJECT__85
10
0
20
0
30
0
70
128
71
24
72
25
73
26
0
VERTEX
8
OBJECT__85
10
0
20
0
30
0
70
128
71
26
72
27
73
24
0
VERTEX
8
OBJECT__85
10
0
20
0
30
0
70
128
71
25
72
22
73
26
0
VERTEX
8
OBJECT__85
10
0
20
0
30
0
70
128
71
5
72
28
73
20
0
VERTEX
8
OBJECT__85
10
0
20
0
30
0
70
128
71
5
72
2
73
29
0
VERTEX
8
OBJECT__85
10
0
20
0
30
0
70
128
71
29
72
28
73
5
0
VERTEX
8
OBJECT__85
10
0
20
0
30
0
70
128
71
2
72
24
73
30
0
VERTEX
8
OBJECT__85
10
0
20
0
30
0
70
128
71
30
72
29
73
2
0
VERTEX
8
OBJECT__85
10
0
20
0
30
0
70
128
71
20
72
17
73
5
0
VERTEX
8
OBJECT__85
10
0
20
0
30
0
70
128
71
27
72
30
73
24
0
VERTEX
8
OBJECT__85
10
0
20
0
30
0
70
128
71
22
72
25
73
12
0
VERTEX
8
OBJECT__85
10
0
20
0
30
0
70
128
71
19
72
23
73
16
0
VERTEX
8
OBJECT__85
10
0
20
0
30
0
70
128
71
11
72
9
73
7
0
VERTEX
8
OBJECT__85
10
0
20
0
30
0
70
128
71
3
72
14
73
1
0
SEQEND
8
OBJECT__85
0
POLYLINE
8
OBJECT__86
66
1
70
64
71
9
72
9
62
253
0
VERTEX
8
OBJECT__86
10
87.819000
20
16.000000
30
-397.888000
70
192
0
VERTEX
8
OBJECT__86
10
83.699997
20
16.000000
30
-403.450012
70
192
0
VERTEX
8
OBJECT__86
10
70.699997
20
16.000000
30
-390.450012
70
192
0
VERTEX
8
OBJECT__86
10
81.279999
20
16.000000
30
-418.011993
70
192
0
VERTEX
8
OBJECT__86
10
70.699997
20
16.000000
30
-416.450012
70
192
0
VERTEX
8
OBJECT__86
10
60.119999
20
16.000000
30
-418.011993
70
192
0
VERTEX
8
OBJECT__86
10
53.581001
20
16.000000
30
-397.888000
70
192
0
VERTEX
8
OBJECT__86
10
57.700001
20
16.000000
30
-403.450012
70
192
0
VERTEX
8
OBJECT__86
10
70.699997
20
16.000000
30
-385.450012
70
192
0
VERTEX
8
OBJECT__86
10
0
20
0
30
0
70
128
71
1
72
2
73
3
0
VERTEX
8
OBJECT__86
10
0
20
0
30
0
70
128
71
4
72
5
73
2
0
VERTEX
8
OBJECT__86
10
0
20
0
30
0
70
128
71
6
72
7
73
8
0
VERTEX
8
OBJECT__86
10
0
20
0
30
0
70
128
71
2
72
1
73
4
0
VERTEX
8
OBJECT__86
10
0
20
0
30
0
70
128
71
8
72
5
73
6
0
VERTEX
8
OBJECT__86
10
0
20
0
30
0
70
128
71
7
72
9
73
3
0
VERTEX
8
OBJECT__86
10
0
20
0
30
0
70
128
71
5
72
4
73
6
0
VERTEX
8
OBJECT__86
10
0
20
0
30
0
70
128
71
3
72
9
73
1
0
VERTEX
8
OBJECT__86
10
0
20
0
30
0
70
128
71
3
72
8
73
7
0
SEQEND
8
OBJECT__86
0
POLYLINE
8
OBJECT__87
66
1
70
64
71
8
72
8
62
253
0
VERTEX
8
OBJECT__87
10
57.700001
20
17.000000
30
-403.450012
70
192
0
VERTEX
8
OBJECT__87
10
57.700001
20
16.000000
30
-403.450012
70
192
0
VERTEX
8
OBJECT__87
10
70.699997
20
16.000000
30
-390.450012
70
192
0
VERTEX
8
OBJECT__87
10
70.699997
20
16.000000
30
-416.450012
70
192
0
VERTEX
8
OBJECT__87
10
83.699997
20
16.000000
30
-403.450012
70
192
0
VERTEX
8
OBJECT__87
10
70.699997
20
17.000000
30
-416.450012
70
192
0
VERTEX
8
OBJECT__87
10
70.699997
20
17.000000
30
-390.450012
70
192
0
VERTEX
8
OBJECT__87
10
83.699997
20
17.000000
30
-403.450012
70
192
0
VERTEX
8
OBJECT__87
10
0
20
0
30
0
70
128
71
1
72
2
73
3
0
VERTEX
8
OBJECT__87
10
0
20
0
30
0
70
128
71
4
72
2
73
1
0
VERTEX
8
OBJECT__87
10
0
20
0
30
0
70
128
71
5
72
4
73
6
0
VERTEX
8
OBJECT__87
10
0
20
0
30
0
70
128
71
7
72
3
73
5
0
VERTEX
8
OBJECT__87
10
0
20
0
30
0
70
128
71
5
72
8
73
7
0
VERTEX
8
OBJECT__87
10
0
20
0
30
0
70
128
71
6
72
8
73
5
0
VERTEX
8
OBJECT__87
10
0
20
0
30
0
70
128
71
1
72
6
73
4
0
VERTEX
8
OBJECT__87
10
0
20
0
30
0
70
128
71
3
72
7
73
1
0
SEQEND
8
OBJECT__87
0
POLYLINE
8
OBJECT__88
66
1
70
64
71
4
72
2
62
253
0
VERTEX
8
OBJECT__88
10
70.699997
20
58.709999
30
-425.149994
70
192
0
VERTEX
8
OBJECT__88
10
80.650002
20
48.759998
30
-425.149994
70
192
0
VERTEX
8
OBJECT__88
10
70.699997
20
38.810001
30
-425.149994
70
192
0
VERTEX
8
OBJECT__88
10
60.750000
20
48.759998
30
-425.149994
70
192
0
VERTEX
8
OBJECT__88
10
0
20
0
30
0
70
128
71
1
72
2
73
3
0
VERTEX
8
OBJECT__88
10
0
20
0
30
0
70
128
71
3
72
4
73
1
0
SEQEND
8
OBJECT__88
0
POLYLINE
8
OBJECT__89
66
1
70
64
71
8
72
8
62
253
0
VERTEX
8
OBJECT__89
10
60.750000
20
48.759998
30
-421.950012
70
192
0
VERTEX
8
OBJECT__89
10
70.699997
20
58.709999
30
-421.950012
70
192
0
VERTEX
8
OBJECT__89
10
70.699997
20
58.709999
30
-425.149994
70
192
0
VERTEX
8
OBJECT__89
10
70.699997
20
38.810001
30
-421.950012
70
192
0
VERTEX
8
OBJECT__89
10
60.750000
20
48.759998
30
-425.149994
70
192
0
VERTEX
8
OBJECT__89
10
80.650002
20
48.759998
30
-425.149994
70
192
0
VERTEX
8
OBJECT__89
10
80.650002
20
48.759998
30
-421.950012
70
192
0
VERTEX
8
OBJECT__89
10
70.699997
20
38.810001
30
-425.149994
70
192
0
VERTEX
8
OBJECT__89
10
0
20
0
30
0
70
128
71
1
72
2
73
3
0
VERTEX
8
OBJECT__89
10
0
20
0
30
0
70
128
71
4
72
1
73
5
0
VERTEX
8
OBJECT__89
10
0
20
0
30
0
70
128
71
6
72
7
73
4
0
VERTEX
8
OBJECT__89
10
0
20
0
30
0
70
128
71
3
72
2
73
7
0
VERTEX
8
OBJECT__89
10
0
20
0
30
0
70
128
71
7
72
6
73
3
0
VERTEX
8
OBJECT__89
10
0
20
0
30
0
70
128
71
4
72
8
73
6
0
VERTEX
8
OBJECT__89
10
0
20
0
30
0
70
128
71
5
72
8
73
4
0
VERTEX
8
OBJECT__89
10
0
20
0
30
0
70
128
71
3
72
5
73
1
0
SEQEND
8
OBJECT__89
0
POLYLINE
8
OBJECT__91
66
1
70
64
71
8
72
8
62
253
0
VERTEX
8
OBJECT__91
10
70.699997
20
59.081001
30
-421.579010
70
192
0
VERTEX
8
OBJECT__91
10
70.699997
20
58.709999
30
-421.950012
70
192
0
VERTEX
8
OBJECT__91
10
60.750000
20
48.759998
30
-421.950012
70
192
0
VERTEX
8
OBJECT__91
10
60.379002
20
48.759998
30
-421.579010
70
192
0
VERTEX
8
OBJECT__91
10
70.699997
20
38.810001
30
-421.950012
70
192
0
VERTEX
8
OBJECT__91
10
81.021004
20
48.759998
30
-421.579010
70
192
0
VERTEX
8
OBJECT__91
10
70.699997
20
38.438999
30
-421.579010
70
192
0
VERTEX
8
OBJECT__91
10
80.650002
20
48.759998
30
-421.950012
70
192
0
VERTEX
8
OBJECT__91
10
0
20
0
30
0
70
128
71
1
72
2
73
3
0
VERTEX
8
OBJECT__91
10
0
20
0
30
0
70
128
71
4
72
3
73
5
0
VERTEX
8
OBJECT__91
10
0
20
0
30
0
70
128
71
6
72
7
73
5
0
VERTEX
8
OBJECT__91
10
0
20
0
30
0
70
128
71
6
72
8
73
2
0
VERTEX
8
OBJECT__91
10
0
20
0
30
0
70
128
71
2
72
1
73
6
0
VERTEX
8
OBJECT__91
10
0
20
0
30
0
70
128
71
5
72
8
73
6
0
VERTEX
8
OBJECT__91
10
0
20
0
30
0
70
128
71
5
72
7
73
4
0
VERTEX
8
OBJECT__91
10
0
20
0
30
0
70
128
71
3
72
4
73
1
0
SEQEND
8
OBJECT__91
0
POLYLINE
8
OBJECT__92
66
1
70
64
71
11
72
11
62
253
0
VERTEX
8
OBJECT__92
10
60.379002
20
48.759998
30
-421.579010
70
192
0
VERTEX
8
OBJECT__92
10
60.325001
20
48.759998
30
-420.549988
70
192
0
VERTEX
8
OBJECT__92
10
63.363998
20
56.096001
30
-420.549988
70
192
0
VERTEX
8
OBJECT__92
10
70.699997
20
59.081001
30
-421.579010
70
192
0
VERTEX
8
OBJECT__92
10
70.699997
20
38.438999
30
-421.579010
70
192
0
VERTEX
8
OBJECT__92
10
70.699997
20
38.384998
30
-420.549988
70
192
0
VERTEX
8
OBJECT__92
10
63.363998
20
41.424000
30
-420.549988
70
192
0
VERTEX
8
OBJECT__92
10
81.021004
20
48.759998
30
-421.579010
70
192
0
VERTEX
8
OBJECT__92
10
81.074997
20
48.759998
30
-420.549988
70
192
0
VERTEX
8
OBJECT__92
10
78.036003
20
41.424000
30
-420.549988
70
192
0
VERTEX
8
OBJECT__92
10
70.699997
20
59.134998
30
-420.549988
70
192
0
VERTEX
8
OBJECT__92
10
0
20
0
30
0
70
128
71
1
72
2
73
3
0
VERTEX
8
OBJECT__92
10
0
20
0
30
0
70
128
71
3
72
4
73
1
0
VERTEX
8
OBJECT__92
10
0
20
0
30
0
70
128
71
5
72
6
73
7
0
VERTEX
8
OBJECT__92
10
0
20
0
30
0
70
128
71
7
72
1
73
5
0
VERTEX
8
OBJECT__92
10
0
20
0
30
0
70
128
71
8
72
9
73
10
0
VERTEX
8
OBJECT__92
10
0
20
0
30
0
70
128
71
10
72
5
73
8
0
VERTEX
8
OBJECT__92
10
0
20
0
30
0
70
128
71
11
72
9
73
8
0
VERTEX
8
OBJECT__92
10
0
20
0
30
0
70
128
71
8
72
4
73
11
0
VERTEX
8
OBJECT__92
10
0
20
0
30
0
70
128
71
10
72
6
73
5
0
VERTEX
8
OBJECT__92
10
0
20
0
30
0
70
128
71
7
72
2
73
1
0
VERTEX
8
OBJECT__92
10
0
20
0
30
0
70
128
71
3
72
11
73
4
0
SEQEND
8
OBJECT__92
0
POLYLINE
8
OBJECT__93
66
1
70
64
71
13
72
13
62
253
0
VERTEX
8
OBJECT__93
10
70.699997
20
59.134998
30
-420.549988
70
192
0
VERTEX
8
OBJECT__93
10
63.363998
20
56.096001
30
-420.549988
70
192
0
VERTEX
8
OBJECT__93
10
66.334000
20
56.321999
30
-420.549988
70
192
0
VERTEX
8
OBJECT__93
10
60.325001
20
48.759998
30
-420.549988
70
192
0
VERTEX
8
OBJECT__93
10
63.138000
20
44.394001
30
-420.549988
70
192
0
VERTEX
8
OBJECT__93
10
63.138000
20
53.125999
30
-420.549988
70
192
0
VERTEX
8
OBJECT__93
10
63.363998
20
41.424000
30
-420.549988
70
192
0
VERTEX
8
OBJECT__93
10
70.699997
20
38.384998
30
-420.549988
70
192
0
VERTEX
8
OBJECT__93
10
70.699997
20
40.028000
30
-420.549988
70
192
0
VERTEX
8
OBJECT__93
10
78.036003
20
41.424000
30
-420.549988
70
192
0
VERTEX
8
OBJECT__93
10
78.262001
20
44.394001
30
-420.549988
70
192
0
VERTEX
8
OBJECT__93
10
81.074997
20
48.759998
30
-420.549988
70
192
0
VERTEX
8
OBJECT__93
10
70.699997
20
57.492001
30
-420.549988
70
192
0
VERTEX
8
OBJECT__93
10
0
20
0
30
0
70
128
71
1
72
2
73
3
0
VERTEX
8
OBJECT__93
10
0
20
0
30
0
70
128
71
4
72
5
73
6
0
VERTEX
8
OBJECT__93
10
0
20
0
30
0
70
128
71
2
72
6
73
3
0
VERTEX
8
OBJECT__93
10
0
20
0
30
0
70
128
71
4
72
7
73
5
0
VERTEX
8
OBJECT__93
10
0
20
0
30
0
70
128
71
6
72
2
73
4
0
VERTEX
8
OBJECT__93
10
0
20
0
30
0
70
128
71
7
72
8
73
9
0
VERTEX
8
OBJECT__93
10
0
20
0
30
0
70
128
71
10
72
11
73
9
0
VERTEX
8
OBJECT__93
10
0
20
0
30
0
70
128
71
12
72
1
73
13
0
VERTEX
8
OBJECT__93
10
0
20
0
30
0
70
128
71
9
72
5
73
7
0
VERTEX
8
OBJECT__93
10
0
20
0
30
0
70
128
71
10
72
12
73
11
0
VERTEX
8
OBJECT__93
10
0
20
0
30
0
70
128
71
3
72
13
73
1
0
VERTEX
8
OBJECT__93
10
0
20
0
30
0
70
128
71
13
72
11
73
12
0
VERTEX
8
OBJECT__93
10
0
20
0
30
0
70
128
71
9
72
8
73
10
0
SEQEND
8
OBJECT__93
0
POLYLINE
8
OBJECT__94
66
1
70
64
71
13
72
13
62
253
0
VERTEX
8
OBJECT__94
10
63.037998
20
44.335999
30
-418.350006
70
192
0
VERTEX
8
OBJECT__94
10
63.037998
20
53.183998
30
-418.350006
70
192
0
VERTEX
8
OBJECT__94
10
63.138000
20
53.125999
30
-420.549988
70
192
0
VERTEX
8
OBJECT__94
10
66.276001
20
56.422001
30
-418.350006
70
192
0
VERTEX
8
OBJECT__94
10
66.334000
20
56.321999
30
-420.549988
70
192
0
VERTEX
8
OBJECT__94
10
70.699997
20
57.608002
30
-418.350006
70
192
0
VERTEX
8
OBJECT__94
10
70.699997
20
57.492001
30
-420.549988
70
192
0
VERTEX
8
OBJECT__94
10
70.699997
20
40.028000
30
-420.549988
70
192
0
VERTEX
8
OBJECT__94
10
78.262001
20
44.394001
30
-420.549988
70
192
0
VERTEX
8
OBJECT__94
10
75.124001
20
41.098000
30
-418.350006
70
192
0
VERTEX
8
OBJECT__94
10
78.362000
20
44.335999
30
-418.350006
70
192
0
VERTEX
8
OBJECT__94
10
70.699997
20
39.911999
30
-418.350006
70
192
0
VERTEX
8
OBJECT__94
10
63.138000
20
44.394001
30
-420.549988
70
192
0
VERTEX
8
OBJECT__94
10
0
20
0
30
0
70
128
71
1
72
2
73
3
0
VERTEX
8
OBJECT__94
10
0
20
0
30
0
70
128
71
2
72
4
73
5
0
VERTEX
8
OBJECT__94
10
0
20
0
30
0
70
128
71
4
72
6
73
7
0
VERTEX
8
OBJECT__94
10
0
20
0
30
0
70
128
71
7
72
5
73
4
0
VERTEX
8
OBJECT__94
10
0
20
0
30
0
70
128
71
5
72
3
73
2
0
VERTEX
8
OBJECT__94
10
0
20
0
30
0
70
128
71
8
72
9
73
10
0
VERTEX
8
OBJECT__94
10
0
20
0
30
0
70
128
71
9
72
11
73
10
0
VERTEX
8
OBJECT__94
10
0
20
0
30
0
70
128
71
12
72
1
73
13
0
VERTEX
8
OBJECT__94
10
0
20
0
30
0
70
128
71
13
72
8
73
12
0
VERTEX
8
OBJECT__94
10
0
20
0
30
0
70
128
71
11
72
9
73
7
0
VERTEX
8
OBJECT__94
10
0
20
0
30
0
70
128
71
7
72
6
73
11
0
VERTEX
8
OBJECT__94
10
0
20
0
30
0
70
128
71
10
72
12
73
8
0
VERTEX
8
OBJECT__94
10
0
20
0
30
0
70
128
71
3
72
13
73
1
0
SEQEND
8
OBJECT__94
0
POLYLINE
8
OBJECT__95
66
1
70
64
71
14
72
14
62
253
0
VERTEX
8
OBJECT__95
10
78.116997
20
41.342999
30
-418.350006
70
192
0
VERTEX
8
OBJECT__95
10
75.124001
20
41.098000
30
-418.350006
70
192
0
VERTEX
8
OBJECT__95
10
78.362000
20
44.335999
30
-418.350006
70
192
0
VERTEX
8
OBJECT__95
10
70.699997
20
38.270000
30
-418.350006
70
192
0
VERTEX
8
OBJECT__95
10
70.699997
20
39.911999
30
-418.350006
70
192
0
VERTEX
8
OBJECT__95
10
60.209999
20
48.759998
30
-418.350006
70
192
0
VERTEX
8
OBJECT__95
10
63.037998
20
53.183998
30
-418.350006
70
192
0
VERTEX
8
OBJECT__95
10
63.037998
20
44.335999
30
-418.350006
70
192
0
VERTEX
8
OBJECT__95
10
70.699997
20
59.250000
30
-418.350006
70
192
0
VERTEX
8
OBJECT__95
10
70.699997
20
57.608002
30
-418.350006
70
192
0
VERTEX
8
OBJECT__95
10
66.276001
20
56.422001
30
-418.350006
70
192
0
VERTEX
8
OBJECT__95
10
63.283001
20
41.342999
30
-418.350006
70
192
0
VERTEX
8
OBJECT__95
10
63.283001
20
56.176998
30
-418.350006
70
192
0
VERTEX
8
OBJECT__95
10
81.190002
20
48.759998
30
-418.350006
70
192
0
VERTEX
8
OBJECT__95
10
0
20
0
30
0
70
128
71
1
72
2
73
3
0
VERTEX
8
OBJECT__95
10
0
20
0
30
0
70
128
71
4
72
5
73
2
0
VERTEX
8
OBJECT__95
10
0
20
0
30
0
70
128
71
6
72
7
73
8
0
VERTEX
8
OBJECT__95
10
0
20
0
30
0
70
128
71
9
72
10
73
11
0
VERTEX
8
OBJECT__95
10
0
20
0
30
0
70
128
71
2
72
1
73
4
0
VERTEX
8
OBJECT__95
10
0
20
0
30
0
70
128
71
12
72
8
73
5
0
VERTEX
8
OBJECT__95
10
0
20
0
30
0
70
128
71
6
72
13
73
7
0
VERTEX
8
OBJECT__95
10
0
20
0
30
0
70
128
71
11
72
13
73
9
0
VERTEX
8
OBJECT__95
10
0
20
0
30
0
70
128
71
5
72
4
73
12
0
VERTEX
8
OBJECT__95
10
0
20
0
30
0
70
128
71
11
72
7
73
13
0
VERTEX
8
OBJECT__95
10
0
20
0
30
0
70
128
71
14
72
3
73
10
0
VERTEX
8
OBJECT__95
10
0
20
0
30
0
70
128
71
8
72
12
73
6
0
VERTEX
8
OBJECT__95
10
0
20
0
30
0
70
128
71
3
72
14
73
1
0
VERTEX
8
OBJECT__95
10
0
20
0
30
0
70
128
71
10
72
9
73
14
0
SEQEND
8
OBJECT__95
0
POLYLINE
8
OBJECT__96
66
1
70
64
71
14
72
14
62
253
0
VERTEX
8
OBJECT__96
10
59.800999
20
48.759998
30
-410.549988
70
192
0
VERTEX
8
OBJECT__96
10
62.993999
20
56.466000
30
-410.549988
70
192
0
VERTEX
8
OBJECT__96
10
63.283001
20
56.176998
30
-418.350006
70
192
0
VERTEX
8
OBJECT__96
10
70.699997
20
59.659000
30
-410.549988
70
192
0
VERTEX
8
OBJECT__96
10
70.699997
20
59.250000
30
-418.350006
70
192
0
VERTEX
8
OBJECT__96
10
70.699997
20
37.861000
30
-410.549988
70
192
0
VERTEX
8
OBJECT__96
10
62.993999
20
41.054001
30
-410.549988
70
192
0
VERTEX
8
OBJECT__96
10
63.283001
20
41.342999
30
-418.350006
70
192
0
VERTEX
8
OBJECT__96
10
60.209999
20
48.759998
30
-418.350006
70
192
0
VERTEX
8
OBJECT__96
10
81.598999
20
48.759998
30
-410.549988
70
192
0
VERTEX
8
OBJECT__96
10
78.405998
20
41.054001
30
-410.549988
70
192
0
VERTEX
8
OBJECT__96
10
78.116997
20
41.342999
30
-418.350006
70
192
0
VERTEX
8
OBJECT__96
10
70.699997
20
38.270000
30
-418.350006
70
192
0
VERTEX
8
OBJECT__96
10
81.190002
20
48.759998
30
-418.350006
70
192
0
VERTEX
8
OBJECT__96
10
0
20
0
30
0
70
128
71
1
72
2
73
3
0
VERTEX
8
OBJECT__96
10
0
20
0
30
0
70
128
71
2
72
4
73
5
0
VERTEX
8
OBJECT__96
10
0
20
0
30
0
70
128
71
5
72
3
73
2
0
VERTEX
8
OBJECT__96
10
0
20
0
30
0
70
128
71
6
72
7
73
8
0
VERTEX
8
OBJECT__96
10
0
20
0
30
0
70
128
71
7
72
1
73
9
0
VERTEX
8
OBJECT__96
10
0
20
0
30
0
70
128
71
9
72
8
73
7
0
VERTEX
8
OBJECT__96
10
0
20
0
30
0
70
128
71
10
72
11
73
12
0
VERTEX
8
OBJECT__96
10
0
20
0
30
0
70
128
71
6
72
13
73
12
0
VERTEX
8
OBJECT__96
10
0
20
0
30
0
70
128
71
12
72
11
73
6
0
VERTEX
8
OBJECT__96
10
0
20
0
30
0
70
128
71
10
72
14
73
5
0
VERTEX
8
OBJECT__96
10
0
20
0
30
0
70
128
71
5
72
4
73
10
0
VERTEX
8
OBJECT__96
10
0
20
0
30
0
70
128
71
12
72
14
73
10
0
VERTEX
8
OBJECT__96
10
0
20
0
30
0
70
128
71
8
72
13
73
6
0
VERTEX
8
OBJECT__96
10
0
20
0
30
0
70
128
71
3
72
9
73
1
0
SEQEND
8
OBJECT__96
0
POLYLINE
8
OBJECT__97
66
1
70
64
71
13
72
13
62
253
0
VERTEX
8
OBJECT__97
10
70.699997
20
59.659000
30
-410.549988
70
192
0
VERTEX
8
OBJECT__97
10
62.993999
20
56.466000
30
-410.549988
70
192
0
VERTEX
8
OBJECT__97
10
66.052002
20
56.811001
30
-410.549988
70
192
0
VERTEX
8
OBJECT__97
10
59.800999
20
48.759998
30
-410.549988
70
192
0
VERTEX
8
OBJECT__97
10
62.993999
20
41.054001
30
-410.549988
70
192
0
VERTEX
8
OBJECT__97
10
62.648998
20
44.112000
30
-410.549988
70
192
0
VERTEX
8
OBJECT__97
10
62.648998
20
53.408001
30
-410.549988
70
192
0
VERTEX
8
OBJECT__97
10
70.699997
20
37.861000
30
-410.549988
70
192
0
VERTEX
8
OBJECT__97
10
70.699997
20
39.464001
30
-410.549988
70
192
0
VERTEX
8
OBJECT__97
10
78.405998
20
41.054001
30
-410.549988
70
192
0
VERTEX
8
OBJECT__97
10
78.750999
20
44.112000
30
-410.549988
70
192
0
VERTEX
8
OBJECT__97
10
81.598999
20
48.759998
30
-410.549988
70
192
0
VERTEX
8
OBJECT__97
10
70.699997
20
58.056000
30
-410.549988
70
192
0
VERTEX
8
OBJECT__97
10
0
20
0
30
0
70
128
71
1
72
2
73
3
0
VERTEX
8
OBJECT__97
10
0
20
0
30
0
70
128
71
4
72
5
73
6
0
VERTEX
8
OBJECT__97
10
0
20
0
30
0
70
128
71
2
72
7
73
3
0
VERTEX
8
OBJECT__97
10
0
20
0
30
0
70
128
71
6
72
7
73
4
0
VERTEX
8
OBJECT__97
10
0
20
0
30
0
70
128
71
7
72
2
73
4
0
VERTEX
8
OBJECT__97
10
0
20
0
30
0
70
128
71
5
72
8
73
9
0
VERTEX
8
OBJECT__97
10
0
20
0
30
0
70
128
71
10
72
11
73
9
0
VERTEX
8
OBJECT__97
10
0
20
0
30
0
70
128
71
12
72
1
73
13
0
VERTEX
8
OBJECT__97
10
0
20
0
30
0
70
128
71
9
72
6
73
5
0
VERTEX
8
OBJECT__97
10
0
20
0
30
0
70
128
71
10
72
12
73
11
0
VERTEX
8
OBJECT__97
10
0
20
0
30
0
70
128
71
3
72
13
73
1
0
VERTEX
8
OBJECT__97
10
0
20
0
30
0
70
128
71
13
72
11
73
12
0
VERTEX
8
OBJECT__97
10
0
20
0
30
0
70
128
71
9
72
8
73
10
0
SEQEND
8
OBJECT__97
0
POLYLINE
8
OBJECT__98
66
1
70
64
71
13
72
13
62
253
0
VERTEX
8
OBJECT__98
10
62.549000
20
44.054001
30
-408.350006
70
192
0
VERTEX
8
OBJECT__98
10
62.549000
20
53.466000
30
-408.350006
70
192
0
VERTEX
8
OBJECT__98
10
62.648998
20
53.408001
30
-410.549988
70
192
0
VERTEX
8
OBJECT__98
10
65.994003
20
56.910999
30
-408.350006
70
192
0
VERTEX
8
OBJECT__98
10
66.052002
20
56.811001
30
-410.549988
70
192
0
VERTEX
8
OBJECT__98
10
70.699997
20
58.172001
30
-408.350006
70
192
0
VERTEX
8
OBJECT__98
10
70.699997
20
58.056000
30
-410.549988
70
192
0
VERTEX
8
OBJECT__98
10
70.699997
20
39.464001
30
-410.549988
70
192
0
VERTEX
8
OBJECT__98
10
78.750999
20
44.112000
30
-410.549988
70
192
0
VERTEX
8
OBJECT__98
10
75.405998
20
40.609001
30
-408.350006
70
192
0
VERTEX
8
OBJECT__98
10
78.850998
20
44.054001
30
-408.350006
70
192
0
VERTEX
8
OBJECT__98
10
70.699997
20
39.348000
30
-408.350006
70
192
0
VERTEX
8
OBJECT__98
10
62.648998
20
44.112000
30
-410.549988
70
192
0
VERTEX
8
OBJECT__98
10
0
20
0
30
0
70
128
71
1
72
2
73
3
0
VERTEX
8
OBJECT__98
10
0
20
0
30
0
70
128
71
2
72
4
73
5
0
VERTEX
8
OBJECT__98
10
0
20
0
30
0
70
128
71
4
72
6
73
7
0
VERTEX
8
OBJECT__98
10
0
20
0
30
0
70
128
71
7
72
5
73
4
0
VERTEX
8
OBJECT__98
10
0
20
0
30
0
70
128
71
5
72
3
73
2
0
VERTEX
8
OBJECT__98
10
0
20
0
30
0
70
128
71
8
72
9
73
10
0
VERTEX
8
OBJECT__98
10
0
20
0
30
0
70
128
71
9
72
11
73
10
0
VERTEX
8
OBJECT__98
10
0
20
0
30
0
70
128
71
12
72
1
73
13
0
VERTEX
8
OBJECT__98
10
0
20
0
30
0
70
128
71
13
72
8
73
12
0
VERTEX
8
OBJECT__98
10
0
20
0
30
0
70
128
71
11
72
9
73
7
0
VERTEX
8
OBJECT__98
10
0
20
0
30
0
70
128
71
7
72
6
73
11
0
VERTEX
8
OBJECT__98
10
0
20
0
30
0
70
128
71
10
72
12
73
8
0
VERTEX
8
OBJECT__98
10
0
20
0
30
0
70
128
71
3
72
13
73
1
0
SEQEND
8
OBJECT__98
0
POLYLINE
8
OBJECT__99
66
1
70
64
71
14
72
14
62
253
0
VERTEX
8
OBJECT__99
10
78.487999
20
40.972000
30
-408.350006
70
192
0
VERTEX
8
OBJECT__99
10
75.405998
20
40.609001
30
-408.350006
70
192
0
VERTEX
8
OBJECT__99
10
78.850998
20
44.054001
30
-408.350006
70
192
0
VERTEX
8
OBJECT__99
10
70.699997
20
37.745998
30
-408.350006
70
192
0
VERTEX
8
OBJECT__99
10
70.699997
20
39.348000
30
-408.350006
70
192
0
VERTEX
8
OBJECT__99
10
59.686001
20
48.759998
30
-408.350006
70
192
0
VERTEX
8
OBJECT__99
10
62.549000
20
53.466000
30
-408.350006
70
192
0
VERTEX
8
OBJECT__99
10
62.549000
20
44.054001
30
-408.350006
70
192
0
VERTEX
8
OBJECT__99
10
70.699997
20
59.773998
30
-408.350006
70
192
0
VERTEX
8
OBJECT__99
10
70.699997
20
58.172001
30
-408.350006
70
192
0
VERTEX
8
OBJECT__99
10
65.994003
20
56.910999
30
-408.350006
70
192
0
VERTEX
8
OBJECT__99
10
62.911999
20
40.972000
30
-408.350006
70
192
0
VERTEX
8
OBJECT__99
10
62.911999
20
56.548000
30
-408.350006
70
192
0
VERTEX
8
OBJECT__99
10
81.713997
20
48.759998
30
-408.350006
70
192
0
VERTEX
8
OBJECT__99
10
0
20
0
30
0
70
128
71
1
72
2
73
3
0
VERTEX
8
OBJECT__99
10
0
20
0
30
0
70
128
71
4
72
5
73
2
0
VERTEX
8
OBJECT__99
10
0
20
0
30
0
70
128
71
6
72
7
73
8
0
VERTEX
8
OBJECT__99
10
0
20
0
30
0
70
128
71
9
72
10
73
11
0
VERTEX
8
OBJECT__99
10
0
20
0
30
0
70
128
71
2
72
1
73
4
0
VERTEX
8
OBJECT__99
10
0
20
0
30
0
70
128
71
12
72
8
73
5
0
VERTEX
8
OBJECT__99
10
0
20
0
30
0
70
128
71
6
72
13
73
7
0
VERTEX
8
OBJECT__99
10
0
20
0
30
0
70
128
71
11
72
13
73
9
0
VERTEX
8
OBJECT__99
10
0
20
0
30
0
70
128
71
5
72
4
73
12
0
VERTEX
8
OBJECT__99
10
0
20
0
30
0
70
128
71
11
72
7
73
13
0
VERTEX
8
OBJECT__99
10
0
20
0
30
0
70
128
71
8
72
12
73
6
0
VERTEX
8
OBJECT__99
10
0
20
0
30
0
70
128
71
3
72
14
73
1
0
VERTEX
8
OBJECT__99
10
0
20
0
30
0
70
128
71
3
72
10
73
14
0
VERTEX
8
OBJECT__99
10
0
20
0
30
0
70
128
71
10
72
9
73
14
0
SEQEND
8
OBJECT__99
0
POLYLINE
8
OBJECT__100
66
1
70
64
71
11
72
11
62
253
0
VERTEX
8
OBJECT__100
10
70.699997
20
60.560001
30
-393.350006
70
192
0
VERTEX
8
OBJECT__100
10
70.699997
20
59.773998
30
-408.350006
70
192
0
VERTEX
8
OBJECT__100
10
62.911999
20
56.548000
30
-408.350006
70
192
0
VERTEX
8
OBJECT__100
10
58.900002
20
48.759998
30
-393.350006
70
192
0
VERTEX
8
OBJECT__100
10
59.686001
20
48.759998
30
-408.350006
70
192
0
VERTEX
8
OBJECT__100
10
62.911999
20
40.972000
30
-408.350006
70
192
0
VERTEX
8
OBJECT__100
10
70.699997
20
36.959999
30
-393.350006
70
192
0
VERTEX
8
OBJECT__100
10
82.500000
20
48.759998
30
-393.350006
70
192
0
VERTEX
8
OBJECT__100
10
78.487999
20
40.972000
30
-408.350006
70
192
0
VERTEX
8
OBJECT__100
10
70.699997
20
37.745998
30
-408.350006
70
192
0
VERTEX
8
OBJECT__100
10
81.713997
20
48.759998
30
-408.350006
70
192
0
VERTEX
8
OBJECT__100
10
0
20
0
30
0
70
128
71
1
72
2
73
3
0
VERTEX
8
OBJECT__100
10
0
20
0
30
0
70
128
71
3
72
4
73
1
0
VERTEX
8
OBJECT__100
10
0
20
0
30
0
70
128
71
4
72
5
73
6
0
VERTEX
8
OBJECT__100
10
0
20
0
30
0
70
128
71
6
72
7
73
4
0
VERTEX
8
OBJECT__100
10
0
20
0
30
0
70
128
71
8
72
7
73
9
0
VERTEX
8
OBJECT__100
10
0
20
0
30
0
70
128
71
7
72
10
73
9
0
VERTEX
8
OBJECT__100
10
0
20
0
30
0
70
128
71
8
72
11
73
2
0
VERTEX
8
OBJECT__100
10
0
20
0
30
0
70
128
71
2
72
1
73
8
0
VERTEX
8
OBJECT__100
10
0
20
0
30
0
70
128
71
9
72
11
73
8
0
VERTEX
8
OBJECT__100
10
0
20
0
30
0
70
128
71
6
72
10
73
7
0
VERTEX
8
OBJECT__100
10
0
20
0
30
0
70
128
71
3
72
5
73
4
0
SEQEND
8
OBJECT__100
0
POLYLINE
8
OBJECT__101
66
1
70
64
71
26
72
30
62
253
0
VERTEX
8
OBJECT__101
10
86.099998
20
0.000000
30
15.650000
70
192
0
VERTEX
8
OBJECT__101
10
86.099998
20
15.650000
30
0.000000
70
192
0
VERTEX
8
OBJECT__101
10
81.788002
20
4.037000
30
15.120000
70
192
0
VERTEX
8
OBJECT__101
10
73.554001
20
11.450000
30
10.669000
70
192
0
VERTEX
8
OBJECT__101
10
6.500000
20
15.650000
30
0.000000
70
192
0
VERTEX
8
OBJECT__101
10
62.084000
20
8.063000
30
13.413000
70
192
0
VERTEX
8
OBJECT__101
10
6.500000
20
0.000000
30
15.650000
70
192
0
VERTEX
8
OBJECT__101
10
60.409000
20
-0.150000
30
14.570000
70
192
0
VERTEX
8
OBJECT__101
10
6.500000
20
-15.650000
30
0.000000
70
192
0
VERTEX
8
OBJECT__101
10
59.615002
20
-4.044000
30
15.119000
70
192
0
VERTEX
8
OBJECT__101
10
86.099998
20
-15.650000
30
0.000000
70
192
0
VERTEX
8
OBJECT__101
10
72.629997
20
-11.641000
30
10.460000
70
192
0
VERTEX
8
OBJECT__101
10
70.699997
20
-11.800000
30
10.280000
70
192
0
VERTEX
8
OBJECT__101
10
80.917999
20
-5.903000
30
14.494000
70
192
0
VERTEX
8
OBJECT__101
10
81.439003
20
0.049000
30
14.869000
70
192
0
VERTEX
8
OBJECT__101
10
86.099998
20
0.000000
30
-15.650000
70
192
0
VERTEX
8
OBJECT__101
10
78.669998
20
-7.940000
30
-13.486000
70
192
0
VERTEX
8
OBJECT__101
10
67.392998
20
-10.753000
30
-11.371000
70
192
0
VERTEX
8
OBJECT__101
10
6.500000
20
0.000000
30
-15.650000
70
192
0
VERTEX
8
OBJECT__101
10
59.483002
20
0.006000
30
-15.632000
70
192
0
VERTEX
8
OBJECT__101
10
66.662003
20
10.500000
30
-11.605000
70
192
0
VERTEX
8
OBJECT__101
10
59.450001
20
0.050000
30
-15.650000
70
192
0
VERTEX
8
OBJECT__101
10
69.461998
20
11.182000
30
-10.950000
70
192
0
VERTEX
8
OBJECT__101
10
70.699997
20
11.250000
30
-10.879000
70
192
0
VERTEX
8
OBJECT__101
10
81.316002
20
3.724000
30
-15.201000
70
192
0
VERTEX
8
OBJECT__101
10
80.502998
20
0.141000
30
-14.674000
70
192
0
VERTEX
8
OBJECT__101
10
0
20
0
30
0
70
128
71
1
72
2
73
3
0
VERTEX
8
OBJECT__101
10
0
20
0
30
0
70
128
71
2
72
4
73
3
0
VERTEX
8
OBJECT__101
10
0
20
0
30
0
70
128
71
5
72
6
73
4
0
VERTEX
8
OBJECT__101
10
0
20
0
30
0
70
128
71
5
72
7
73
8
0
VERTEX
8
OBJECT__101
10
0
20
0
30
0
70
128
71
8
72
6
73
5
0
VERTEX
8
OBJECT__101
10
0
20
0
30
0
70
128
71
4
72
2
73
5
0
VERTEX
8
OBJECT__101
10
0
20
0
30
0
70
128
71
7
72
9
73
10
0
VERTEX
8
OBJECT__101
10
0
20
0
30
0
70
128
71
11
72
12
73
13
0
VERTEX
8
OBJECT__101
10
0
20
0
30
0
70
128
71
11
72
14
73
12
0
VERTEX
8
OBJECT__101
10
0
20
0
30
0
70
128
71
1
72
15
73
14
0
VERTEX
8
OBJECT__101
10
0
20
0
30
0
70
128
71
14
72
11
73
1
0
VERTEX
8
OBJECT__101
10
0
20
0
30
0
70
128
71
13
72
9
73
11
0
VERTEX
8
OBJECT__101
10
0
20
0
30
0
70
128
71
13
72
10
73
9
0
VERTEX
8
OBJECT__101
10
0
20
0
30
0
70
128
71
16
72
11
73
17
0
VERTEX
8
OBJECT__101
10
0
20
0
30
0
70
128
71
11
72
9
73
18
0
VERTEX
8
OBJECT__101
10
0
20
0
30
0
70
128
71
18
72
17
73
11
0
VERTEX
8
OBJECT__101
10
0
20
0
30
0
70
128
71
9
72
19
73
20
0
VERTEX
8
OBJECT__101
10
0
20
0
30
0
70
128
71
20
72
18
73
9
0
VERTEX
8
OBJECT__101
10
0
20
0
30
0
70
128
71
5
72
21
73
22
0
VERTEX
8
OBJECT__101
10
0
20
0
30
0
70
128
71
5
72
2
73
23
0
VERTEX
8
OBJECT__101
10
0
20
0
30
0
70
128
71
2
72
24
73
23
0
VERTEX
8
OBJECT__101
10
0
20
0
30
0
70
128
71
23
72
21
73
5
0
VERTEX
8
OBJECT__101
10
0
20
0
30
0
70
128
71
2
72
16
73
25
0
VERTEX
8
OBJECT__101
10
0
20
0
30
0
70
128
71
25
72
24
73
2
0
VERTEX
8
OBJECT__101
10
0
20
0
30
0
70
128
71
16
72
26
73
25
0
VERTEX
8
OBJECT__101
10
0
20
0
30
0
70
128
71
22
72
19
73
5
0
VERTEX
8
OBJECT__101
10
0
20
0
30
0
70
128
71
22
72
20
73
19
0
VERTEX
8
OBJECT__101
10
0
20
0
30
0
70
128
71
17
72
26
73
16
0
VERTEX
8
OBJECT__101
10
0
20
0
30
0
70
128
71
10
72
8
73
7
0
VERTEX
8
OBJECT__101
10
0
20
0
30
0
70
128
71
3
72
15
73
1
0
SEQEND
8
OBJECT__101
0
POLYLINE
8
OBJECT__103
66
1
70
64
71
4
72
2
62
253
0
VERTEX
8
OBJECT__103
10
70.699997
20
-23.150000
30
-376.450012
70
192
0
VERTEX
8
OBJECT__103
10
65.699997
20
-28.150000
30
-376.450012
70
192
0
VERTEX
8
OBJECT__103
10
70.699997
20
-33.150002
30
-376.450012
70
192
0
VERTEX
8
OBJECT__103
10
75.699997
20
-28.150000
30
-376.450012
70
192
0
VERTEX
8
OBJECT__103
10
0
20
0
30
0
70
128
71
1
72
2
73
3
0
VERTEX
8
OBJECT__103
10
0
20
0
30
0
70
128
71
3
72
4
73
1
0
SEQEND
8
OBJECT__103
0
POLYLINE
8
OBJECT__104
66
1
70
64
71
8
72
8
62
253
0
VERTEX
8
OBJECT__104
10
70.699997
20
-33.150002
30
-376.450012
70
192
0
VERTEX
8
OBJECT__104
10
65.699997
20
-28.150000
30
-376.450012
70
192
0
VERTEX
8
OBJECT__104
10
65.699997
20
-28.150000
30
-387.274994
70
192
0
VERTEX
8
OBJECT__104
10
70.699997
20
-33.150002
30
-387.274994
70
192
0
VERTEX
8
OBJECT__104
10
75.699997
20
-28.150000
30
-387.274994
70
192
0
VERTEX
8
OBJECT__104
10
70.699997
20
-23.150000
30
-387.274994
70
192
0
VERTEX
8
OBJECT__104
10
70.699997
20
-23.150000
30
-376.450012
70
192
0
VERTEX
8
OBJECT__104
10
75.699997
20
-28.150000
30
-376.450012
70
192
0
VERTEX
8
OBJECT__104
10
0
20
0
30
0
70
128
71
1
72
2
73
3
0
VERTEX
8
OBJECT__104
10
0
20
0
30
0
70
128
71
1
72
4
73
5
0
VERTEX
8
OBJECT__104
10
0
20
0
30
0
70
128
71
6
72
7
73
8
0
VERTEX
8
OBJECT__104
10
0
20
0
30
0
70
128
71
2
72
7
73
6
0
VERTEX
8
OBJECT__104
10
0
20
0
30
0
70
128
71
6
72
3
73
2
0
VERTEX
8
OBJECT__104
10
0
20
0
30
0
70
128
71
8
72
5
73
6
0
VERTEX
8
OBJECT__104
10
0
20
0
30
0
70
128
71
5
72
8
73
1
0
VERTEX
8
OBJECT__104
10
0
20
0
30
0
70
128
71
3
72
4
73
1
0
SEQEND
8
OBJECT__104
0
POLYLINE
8
OBJECT__106
66
1
70
64
71
10
72
10
62
253
0
VERTEX
8
OBJECT__106
10
465.138000
20
17.118999
30
41.650002
70
192
0
VERTEX
8
OBJECT__106
10
465.138000
20
17.118999
30
20.650000
70
192
0
VERTEX
8
OBJECT__106
10
452.700012
20
0.000000
30
20.650000
70
192
0
VERTEX
8
OBJECT__106
10
485.261993
20
10.580000
30
41.650002
70
192
0
VERTEX
8
OBJECT__106
10
485.261993
20
10.580000
30
20.650000
70
192
0
VERTEX
8
OBJECT__106
10
485.261993
20
-10.580000
30
41.650002
70
192
0
VERTEX
8
OBJECT__106
10
485.261993
20
-10.580000
30
20.650000
70
192
0
VERTEX
8
OBJECT__106
10
465.138000
20
-17.118999
30
41.650002
70
192
0
VERTEX
8
OBJECT__106
10
465.138000
20
-17.118999
30
20.650000
70
192
0
VERTEX
8
OBJECT__106
10
452.700012
20
0.000000
30
41.650002
70
192
0
VERTEX
8
OBJECT__106
10
0
20
0
30
0
70
128
71
1
72
2
73
3
0
VERTEX
8
OBJECT__106
10
0
20
0
30
0
70
128
71
4
72
5
73
2
0
VERTEX
8
OBJECT__106
10
0
20
0
30
0
70
128
71
6
72
7
73
5
0
VERTEX
8
OBJECT__106
10
0
20
0
30
0
70
128
71
8
72
9
73
7
0
VERTEX
8
OBJECT__106
10
0
20
0
30
0
70
128
71
10
72
3
73
9
0
VERTEX
8
OBJECT__106
10
0
20
0
30
0
70
128
71
9
72
8
73
10
0
VERTEX
8
OBJECT__106
10
0
20
0
30
0
70
128
71
7
72
6
73
8
0
VERTEX
8
OBJECT__106
10
0
20
0
30
0
70
128
71
5
72
4
73
6
0
VERTEX
8
OBJECT__106
10
0
20
0
30
0
70
128
71
2
72
1
73
4
0
VERTEX
8
OBJECT__106
10
0
20
0
30
0
70
128
71
3
72
10
73
1
0
SEQEND
8
OBJECT__106
0
POLYLINE
8
OBJECT__107
66
1
70
64
71
19
72
19
62
253
0
VERTEX
8
OBJECT__107
10
465.138000
20
17.118999
30
41.650002
70
192
0
VERTEX
8
OBJECT__107
10
452.700012
20
0.000000
30
41.650002
70
192
0
VERTEX
8
OBJECT__107
10
454.700012
20
8.246000
30
44.750000
70
192
0
VERTEX
8
OBJECT__107
10
462.727997
20
16.139000
30
44.750000
70
192
0
VERTEX
8
OBJECT__107
10
452.700012
20
0.000000
30
44.750000
70
192
0
VERTEX
8
OBJECT__107
10
465.138000
20
16.139000
30
44.750000
70
192
0
VERTEX
8
OBJECT__107
10
478.671997
20
16.139000
30
44.750000
70
192
0
VERTEX
8
OBJECT__107
10
485.261993
20
10.580000
30
41.650002
70
192
0
VERTEX
8
OBJECT__107
10
485.261993
20
-10.580000
30
41.650002
70
192
0
VERTEX
8
OBJECT__107
10
488.700012
20
0.000000
30
44.750000
70
192
0
VERTEX
8
OBJECT__107
10
486.700012
20
-8.246000
30
44.750000
70
192
0
VERTEX
8
OBJECT__107
10
486.700012
20
8.246000
30
44.750000
70
192
0
VERTEX
8
OBJECT__107
10
484.802002
20
10.112000
30
44.750000
70
192
0
VERTEX
8
OBJECT__107
10
465.138000
20
-17.118999
30
41.650002
70
192
0
VERTEX
8
OBJECT__107
10
478.671997
20
-16.139000
30
44.750000
70
192
0
VERTEX
8
OBJECT__107
10
484.802002
20
-10.112000
30
44.750000
70
192
0
VERTEX
8
OBJECT__107
10
462.727997
20
-16.139000
30
44.750000
70
192
0
VERTEX
8
OBJECT__107
10
454.700012
20
-8.246000
30
44.750000
70
192
0
VERTEX
8
OBJECT__107
10
465.138000
20
-16.139000
30
44.750000
70
192
0
VERTEX
8
OBJECT__107
10
0
20
0
30
0
70
128
71
1
72
2
73
3
0
VERTEX
8
OBJECT__107
10
0
20
0
30
0
70
128
71
3
72
4
73
1
0
VERTEX
8
OBJECT__107
10
0
20
0
30
0
70
128
71
2
72
5
73
3
0
VERTEX
8
OBJECT__107
10
0
20
0
30
0
70
128
71
1
72
6
73
7
0
VERTEX
8
OBJECT__107
10
0
20
0
30
0
70
128
71
7
72
8
73
1
0
VERTEX
8
OBJECT__107
10
0
20
0
30
0
70
128
71
9
72
10
73
11
0
VERTEX
8
OBJECT__107
10
0
20
0
30
0
70
128
71
8
72
12
73
10
0
VERTEX
8
OBJECT__107
10
0
20
0
30
0
70
128
71
10
72
9
73
8
0
VERTEX
8
OBJECT__107
10
0
20
0
30
0
70
128
71
8
72
13
73
12
0
VERTEX
8
OBJECT__107
10
0
20
0
30
0
70
128
71
14
72
9
73
15
0
VERTEX
8
OBJECT__107
10
0
20
0
30
0
70
128
71
9
72
16
73
15
0
VERTEX
8
OBJECT__107
10
0
20
0
30
0
70
128
71
14
72
17
73
18
0
VERTEX
8
OBJECT__107
10
0
20
0
30
0
70
128
71
18
72
2
73
14
0
VERTEX
8
OBJECT__107
10
0
20
0
30
0
70
128
71
14
72
19
73
17
0
VERTEX
8
OBJECT__107
10
0
20
0
30
0
70
128
71
18
72
5
73
2
0
VERTEX
8
OBJECT__107
10
0
20
0
30
0
70
128
71
15
72
19
73
14
0
VERTEX
8
OBJECT__107
10
0
20
0
30
0
70
128
71
11
72
16
73
9
0
VERTEX
8
OBJECT__107
10
0
20
0
30
0
70
128
71
7
72
13
73
8
0
VERTEX
8
OBJECT__107
10
0
20
0
30
0
70
128
71
4
72
6
73
1
0
SEQEND
8
OBJECT__107
0
POLYLINE
8
OBJECT__109
66
1
70
64
71
3
72
1
62
253
0
VERTEX
8
OBJECT__109
10
486.700012
20
8.246000
30
44.750000
70
192
0
VERTEX
8
OBJECT__109
10
486.700012
20
-8.246000
30
44.750000
70
192
0
VERTEX
8
OBJECT__109
10
488.700012
20
0.000000
30
44.750000
70
192
0
VERTEX
8
OBJECT__109
10
0
20
0
30
0
70
128
71
1
72
2
73
3
0
SEQEND
8
OBJECT__109
0
POLYLINE
8
OBJECT__110
66
1
70
64
71
6
72
4
62
253
0
VERTEX
8
OBJECT__110
10
486.700012
20
-8.246000
30
44.750000
70
192
0
VERTEX
8
OBJECT__110
10
486.700012
20
8.246000
30
44.750000
70
192
0
VERTEX
8
OBJECT__110
10
486.700012
20
8.131000
30
45.604000
70
192
0
VERTEX
8
OBJECT__110
10
486.700012
20
3.422000
30
49.250000
70
192
0
VERTEX
8
OBJECT__110
10
486.700012
20
-3.422000
30
49.250000
70
192
0
VERTEX
8
OBJECT__110
10
486.700012
20
-5.885000
30
48.273998
70
192
0
VERTEX
8
OBJECT__110
10
0
20
0
30
0
70
128
71
1
72
2
73
3
0
VERTEX
8
OBJECT__110
10
0
20
0
30
0
70
128
71
3
72
4
73
1
0
VERTEX
8
OBJECT__110
10
0
20
0
30
0
70
128
71
4
72
5
73
1
0
VERTEX
8
OBJECT__110
10
0
20
0
30
0
70
128
71
5
72
6
73
1
0
SEQEND
8
OBJECT__110
0
POLYLINE
8
OBJECT__111
66
1
70
64
71
12
72
10
62
253
0
VERTEX
8
OBJECT__111
10
477.946014
20
14.670000
30
49.250000
70
192
0
VERTEX
8
OBJECT__111
10
478.671997
20
16.139000
30
44.750000
70
192
0
VERTEX
8
OBJECT__111
10
465.138000
20
16.139000
30
44.750000
70
192
0
VERTEX
8
OBJECT__111
10
463.454010
20
14.670000
30
49.250000
70
192
0
VERTEX
8
OBJECT__111
10
486.700012
20
8.131000
30
45.604000
70
192
0
VERTEX
8
OBJECT__111
10
486.700012
20
8.246000
30
44.750000
70
192
0
VERTEX
8
OBJECT__111
10
484.802002
20
10.112000
30
44.750000
70
192
0
VERTEX
8
OBJECT__111
10
486.700012
20
3.422000
30
49.250000
70
192
0
VERTEX
8
OBJECT__111
10
462.727997
20
16.139000
30
44.750000
70
192
0
VERTEX
8
OBJECT__111
10
454.700012
20
8.246000
30
44.750000
70
192
0
VERTEX
8
OBJECT__111
10
454.700012
20
5.885000
30
48.273998
70
192
0
VERTEX
8
OBJECT__111
10
454.700012
20
3.422000
30
49.250000
70
192
0
VERTEX
8
OBJECT__111
10
0
20
0
30
0
70
128
71
1
72
2
73
3
0
VERTEX
8
OBJECT__111
10
0
20
0
30
0
70
128
71
3
72
4
73
1
0
VERTEX
8
OBJECT__111
10
0
20
0
30
0
70
128
71
5
72
6
73
7
0
VERTEX
8
OBJECT__111
10
0
20
0
30
0
70
128
71
7
72
1
73
5
0
VERTEX
8
OBJECT__111
10
0
20
0
30
0
70
128
71
1
72
8
73
5
0
VERTEX
8
OBJECT__111
10
0
20
0
30
0
70
128
71
4
72
9
73
10
0
VERTEX
8
OBJECT__111
10
0
20
0
30
0
70
128
71
10
72
11
73
4
0
VERTEX
8
OBJECT__111
10
0
20
0
30
0
70
128
71
11
72
12
73
4
0
VERTEX
8
OBJECT__111
10
0
20
0
30
0
70
128
71
7
72
2
73
1
0
VERTEX
8
OBJECT__111
10
0
20
0
30
0
70
128
71
3
72
9
73
4
0
SEQEND
8
OBJECT__111
0
POLYLINE
8
OBJECT__112
66
1
70
64
71
8
72
6
62
253
0
VERTEX
8
OBJECT__112
10
454.700012
20
-3.422000
30
49.250000
70
192
0
VERTEX
8
OBJECT__112
10
463.454010
20
-14.670000
30
49.250000
70
192
0
VERTEX
8
OBJECT__112
10
477.946014
20
-14.670000
30
49.250000
70
192
0
VERTEX
8
OBJECT__112
10
486.700012
20
3.422000
30
49.250000
70
192
0
VERTEX
8
OBJECT__112
10
477.946014
20
14.670000
30
49.250000
70
192
0
VERTEX
8
OBJECT__112
10
463.454010
20
14.670000
30
49.250000
70
192
0
VERTEX
8
OBJECT__112
10
486.700012
20
-3.422000
30
49.250000
70
192
0
VERTEX
8
OBJECT__112
10
454.700012
20
3.422000
30
49.250000
70
192
0
VERTEX
8
OBJECT__112
10
0
20
0
30
0
70
128
71
1
72
2
73
3
0
VERTEX
8
OBJECT__112
10
0
20
0
30
0
70
128
71
4
72
5
73
6
0
VERTEX
8
OBJECT__112
10
0
20
0
30
0
70
128
71
3
72
7
73
1
0
VERTEX
8
OBJECT__112
10
0
20
0
30
0
70
128
71
6
72
8
73
4
0
VERTEX
8
OBJECT__112
10
0
20
0
30
0
70
128
71
8
72
1
73
4
0
VERTEX
8
OBJECT__112
10
0
20
0
30
0
70
128
71
7
72
4
73
1
0
SEQEND
8
OBJECT__112
0
POLYLINE
8
OBJECT__113
66
1
70
64
71
12
72
10
62
253
0
VERTEX
8
OBJECT__113
10
477.946014
20
-14.670000
30
49.250000
70
192
0
VERTEX
8
OBJECT__113
10
463.454010
20
-14.670000
30
49.250000
70
192
0
VERTEX
8
OBJECT__113
10
465.138000
20
-16.139000
30
44.750000
70
192
0
VERTEX
8
OBJECT__113
10
462.727997
20
-16.139000
30
44.750000
70
192
0
VERTEX
8
OBJECT__113
10
478.671997
20
-16.139000
30
44.750000
70
192
0
VERTEX
8
OBJECT__113
10
484.802002
20
-10.112000
30
44.750000
70
192
0
VERTEX
8
OBJECT__113
10
486.700012
20
-5.885000
30
48.273998
70
192
0
VERTEX
8
OBJECT__113
10
486.700012
20
-8.246000
30
44.750000
70
192
0
VERTEX
8
OBJECT__113
10
454.700012
20
-8.131000
30
45.604000
70
192
0
VERTEX
8
OBJECT__113
10
454.700012
20
-3.422000
30
49.250000
70
192
0
VERTEX
8
OBJECT__113
10
454.700012
20
-8.246000
30
44.750000
70
192
0
VERTEX
8
OBJECT__113
10
486.700012
20
-3.422000
30
49.250000
70
192
0
VERTEX
8
OBJECT__113
10
0
20
0
30
0
70
128
71
1
72
2
73
3
0
VERTEX
8
OBJECT__113
10
0
20
0
30
0
70
128
71
2
72
4
73
3
0
VERTEX
8
OBJECT__113
10
0
20
0
30
0
70
128
71
1
72
5
73
6
0
VERTEX
8
OBJECT__113
10
0
20
0
30
0
70
128
71
6
72
7
73
1
0
VERTEX
8
OBJECT__113
10
0
20
0
30
0
70
128
71
6
72
8
73
7
0
VERTEX
8
OBJECT__113
10
0
20
0
30
0
70
128
71
4
72
2
73
9
0
VERTEX
8
OBJECT__113
10
0
20
0
30
0
70
128
71
2
72
10
73
9
0
VERTEX
8
OBJECT__113
10
0
20
0
30
0
70
128
71
9
72
11
73
4
0
VERTEX
8
OBJECT__113
10
0
20
0
30
0
70
128
71
7
72
12
73
1
0
VERTEX
8
OBJECT__113
10
0
20
0
30
0
70
128
71
3
72
5
73
1
0
SEQEND
8
OBJECT__113
0
POLYLINE
8
OBJECT__114
66
1
70
64
71
6
72
4
62
253
0
VERTEX
8
OBJECT__114
10
454.700012
20
8.246000
30
44.750000
70
192
0
VERTEX
8
OBJECT__114
10
454.700012
20
-8.246000
30
44.750000
70
192
0
VERTEX
8
OBJECT__114
10
454.700012
20
-8.131000
30
45.604000
70
192
0
VERTEX
8
OBJECT__114
10
454.700012
20
-3.422000
30
49.250000
70
192
0
VERTEX
8
OBJECT__114
10
454.700012
20
3.422000
30
49.250000
70
192
0
VERTEX
8
OBJECT__114
10
454.700012
20
5.885000
30
48.273998
70
192
0
VERTEX
8
OBJECT__114
10
0
20
0
30
0
70
128
71
1
72
2
73
3
0
VERTEX
8
OBJECT__114
10
0
20
0
30
0
70
128
71
3
72
4
73
1
0
VERTEX
8
OBJECT__114
10
0
20
0
30
0
70
128
71
4
72
5
73
1
0
VERTEX
8
OBJECT__114
10
0
20
0
30
0
70
128
71
5
72
6
73
1
0
SEQEND
8
OBJECT__114
0
POLYLINE
8
OBJECT__115
66
1
70
64
71
24
72
34
62
253
0
VERTEX
8
OBJECT__115
10
448.673004
20
-10.937000
30
96.846001
70
192
0
VERTEX
8
OBJECT__115
10
430.200012
20
-10.937000
30
101.795998
70
192
0
VERTEX
8
OBJECT__115
10
430.200012
20
0.000000
30
93.849998
70
192
0
VERTEX
8
OBJECT__115
10
444.700012
20
0.000000
30
89.964996
70
192
0
VERTEX
8
OBJECT__115
10
455.315002
20
0.000000
30
79.349998
70
192
0
VERTEX
8
OBJECT__115
10
462.196014
20
-10.937000
30
83.322998
70
192
0
VERTEX
8
OBJECT__115
10
459.200012
20
0.000000
30
64.849998
70
192
0
VERTEX
8
OBJECT__115
10
430.200012
20
-9.946000
30
104.845001
70
192
0
VERTEX
8
OBJECT__115
10
455.101990
20
-6.760000
30
107.981003
70
192
0
VERTEX
8
OBJECT__115
10
430.200012
20
-6.760000
30
114.653999
70
192
0
VERTEX
8
OBJECT__115
10
473.330994
20
-6.760000
30
89.751999
70
192
0
VERTEX
8
OBJECT__115
10
467.145996
20
-10.937000
30
64.849998
70
192
0
VERTEX
8
OBJECT__115
10
455.101990
20
6.760000
30
107.981003
70
192
0
VERTEX
8
OBJECT__115
10
430.200012
20
0.000000
30
116.849998
70
192
0
VERTEX
8
OBJECT__115
10
430.200012
20
6.760000
30
114.653999
70
192
0
VERTEX
8
OBJECT__115
10
473.330994
20
6.760000
30
89.751999
70
192
0
VERTEX
8
OBJECT__115
10
480.003998
20
-6.760000
30
64.849998
70
192
0
VERTEX
8
OBJECT__115
10
482.200012
20
0.000000
30
64.849998
70
192
0
VERTEX
8
OBJECT__115
10
430.200012
20
9.946000
30
104.845001
70
192
0
VERTEX
8
OBJECT__115
10
448.673004
20
10.937000
30
96.846001
70
192
0
VERTEX
8
OBJECT__115
10
430.200012
20
10.937000
30
101.795998
70
192
0
VERTEX
8
OBJECT__115
10
462.196014
20
10.937000
30
83.322998
70
192
0
VERTEX
8
OBJECT__115
10
480.003998
20
6.760000
30
64.849998
70
192
0
VERTEX
8
OBJECT__115
10
467.145996
20
10.937000
30
64.849998
70
192
0
VERTEX
8
OBJECT__115
10
0
20
0
30
0
70
128
71
1
72
2
73
3
0
VERTEX
8
OBJECT__115
10
0
20
0
30
0
70
128
71
4
72
5
73
6
0
VERTEX
8
OBJECT__115
10
0
20
0
30
0
70
128
71
6
72
5
73
7
0
VERTEX
8
OBJECT__115
10
0
20
0
30
0
70
128
71
8
72
2
73
1
0
VERTEX
8
OBJECT__115
10
0
20
0
30
0
70
128
71
9
72
10
73
8
0
VERTEX
8
OBJECT__115
10
0
20
0
30
0
70
128
71
1
72
6
73
11
0
VERTEX
8
OBJECT__115
10
0
20
0
30
0
70
128
71
11
72
6
73
12
0
VERTEX
8
OBJECT__115
10
0
20
0
30
0
70
128
71
9
72
13
73
14
0
VERTEX
8
OBJECT__115
10
0
20
0
30
0
70
128
71
13
72
15
73
14
0
VERTEX
8
OBJECT__115
10
0
20
0
30
0
70
128
71
9
72
11
73
16
0
VERTEX
8
OBJECT__115
10
0
20
0
30
0
70
128
71
11
72
17
73
18
0
VERTEX
8
OBJECT__115
10
0
20
0
30
0
70
128
71
18
72
16
73
11
0
VERTEX
8
OBJECT__115
10
0
20
0
30
0
70
128
71
19
72
13
73
20
0
VERTEX
8
OBJECT__115
10
0
20
0
30
0
70
128
71
20
72
21
73
19
0
VERTEX
8
OBJECT__115
10
0
20
0
30
0
70
128
71
13
72
16
73
22
0
VERTEX
8
OBJECT__115
10
0
20
0
30
0
70
128
71
16
72
23
73
24
0
VERTEX
8
OBJECT__115
10
0
20
0
30
0
70
128
71
20
72
4
73
3
0
VERTEX
8
OBJECT__115
10
0
20
0
30
0
70
128
71
20
72
22
73
5
0
VERTEX
8
OBJECT__115
10
0
20
0
30
0
70
128
71
22
72
24
73
7
0
VERTEX
8
OBJECT__115
10
0
20
0
30
0
70
128
71
7
72
5
73
22
0
VERTEX
8
OBJECT__115
10
0
20
0
30
0
70
128
71
5
72
4
73
20
0
VERTEX
8
OBJECT__115
10
0
20
0
30
0
70
128
71
3
72
21
73
20
0
VERTEX
8
OBJECT__115
10
0
20
0
30
0
70
128
71
24
72
22
73
16
0
VERTEX
8
OBJECT__115
10
0
20
0
30
0
70
128
71
22
72
20
73
13
0
VERTEX
8
OBJECT__115
10
0
20
0
30
0
70
128
71
19
72
15
73
13
0
VERTEX
8
OBJECT__115
10
0
20
0
30
0
70
128
71
18
72
23
73
16
0
VERTEX
8
OBJECT__115
10
0
20
0
30
0
70
128
71
16
72
13
73
9
0
VERTEX
8
OBJECT__115
10
0
20
0
30
0
70
128
71
14
72
10
73
9
0
VERTEX
8
OBJECT__115
10
0
20
0
30
0
70
128
71
12
72
17
73
11
0
VERTEX
8
OBJECT__115
10
0
20
0
30
0
70
128
71
11
72
9
73
1
0
VERTEX
8
OBJECT__115
10
0
20
0
30
0
70
128
71
1
72
9
73
8
0
VERTEX
8
OBJECT__115
10
0
20
0
30
0
70
128
71
7
72
12
73
6
0
VERTEX
8
OBJECT__115
10
0
20
0
30
0
70
128
71
6
72
1
73
4
0
VERTEX
8
OBJECT__115
10
0
20
0
30
0
70
128
71
3
72
4
73
1
0
SEQEND
8
OBJECT__115
0
POLYLINE
8
OBJECT__116
66
1
70
64
71
16
72
16
62
253
0
VERTEX
8
OBJECT__116
10
430.200012
20
9.946000
30
104.845001
70
192
0
VERTEX
8
OBJECT__116
10
430.200012
20
10.937000
30
101.795998
70
192
0
VERTEX
8
OBJECT__116
10
111.199997
20
10.937000
30
101.795998
70
192
0
VERTEX
8
OBJECT__116
10
111.199997
20
0.000000
30
93.849998
70
192
0
VERTEX
8
OBJECT__116
10
430.200012
20
0.000000
30
93.849998
70
192
0
VERTEX
8
OBJECT__116
10
430.200012
20
0.000000
30
116.849998
70
192
0
VERTEX
8
OBJECT__116
10
430.200012
20
6.760000
30
114.653999
70
192
0
VERTEX
8
OBJECT__116
10
111.199997
20
6.760000
30
114.653999
70
192
0
VERTEX
8
OBJECT__116
10
111.199997
20
9.946000
30
104.845001
70
192
0
VERTEX
8
OBJECT__116
10
430.200012
20
-9.946000
30
104.845001
70
192
0
VERTEX
8
OBJECT__116
10
430.200012
20
-6.760000
30
114.653999
70
192
0
VERTEX
8
OBJECT__116
10
111.199997
20
-6.760000
30
114.653999
70
192
0
VERTEX
8
OBJECT__116
10
111.199997
20
0.000000
30
116.849998
70
192
0
VERTEX
8
OBJECT__116
10
430.200012
20
-10.937000
30
101.795998
70
192
0
VERTEX
8
OBJECT__116
10
111.199997
20
-10.937000
30
101.795998
70
192
0
VERTEX
8
OBJECT__116
10
111.199997
20
-9.946000
30
104.845001
70
192
0
VERTEX
8
OBJECT__116
10
0
20
0
30
0
70
128
71
1
72
2
73
3
0
VERTEX
8
OBJECT__116
10
0
20
0
30
0
70
128
71
4
72
3
73
2
0
VERTEX
8
OBJECT__116
10
0
20
0
30
0
70
128
71
2
72
5
73
4
0
VERTEX
8
OBJECT__116
10
0
20
0
30
0
70
128
71
6
72
7
73
8
0
VERTEX
8
OBJECT__116
10
0
20
0
30
0
70
128
71
9
72
8
73
7
0
VERTEX
8
OBJECT__116
10
0
20
0
30
0
70
128
71
7
72
1
73
9
0
VERTEX
8
OBJECT__116
10
0
20
0
30
0
70
128
71
10
72
11
73
12
0
VERTEX
8
OBJECT__116
10
0
20
0
30
0
70
128
71
13
72
12
73
11
0
VERTEX
8
OBJECT__116
10
0
20
0
30
0
70
128
71
11
72
6
73
13
0
VERTEX
8
OBJECT__116
10
0
20
0
30
0
70
128
71
5
72
14
73
15
0
VERTEX
8
OBJECT__116
10
0
20
0
30
0
70
128
71
16
72
15
73
14
0
VERTEX
8
OBJECT__116
10
0
20
0
30
0
70
128
71
14
72
10
73
16
0
VERTEX
8
OBJECT__116
10
0
20
0
30
0
70
128
71
15
72
4
73
5
0
VERTEX
8
OBJECT__116
10
0
20
0
30
0
70
128
71
12
72
16
73
10
0
VERTEX
8
OBJECT__116
10
0
20
0
30
0
70
128
71
8
72
13
73
6
0
VERTEX
8
OBJECT__116
10
0
20
0
30
0
70
128
71
3
72
9
73
1
0
SEQEND
8
OBJECT__116
0
POLYLINE
8
OBJECT__118
66
1
70
64
71
26
72
36
62
253
0
VERTEX
8
OBJECT__118
10
79.204002
20
-10.937000
30
83.322998
70
192
0
VERTEX
8
OBJECT__118
10
74.253998
20
-10.937000
30
64.849998
70
192
0
VERTEX
8
OBJECT__118
10
82.199997
20
0.000000
30
64.849998
70
192
0
VERTEX
8
OBJECT__118
10
86.084999
20
0.000000
30
79.349998
70
192
0
VERTEX
8
OBJECT__118
10
96.699997
20
0.000000
30
89.964996
70
192
0
VERTEX
8
OBJECT__118
10
92.726997
20
-10.937000
30
96.846001
70
192
0
VERTEX
8
OBJECT__118
10
111.199997
20
0.000000
30
93.849998
70
192
0
VERTEX
8
OBJECT__118
10
71.205002
20
-9.946000
30
64.849998
70
192
0
VERTEX
8
OBJECT__118
10
68.069000
20
-6.760000
30
89.751999
70
192
0
VERTEX
8
OBJECT__118
10
61.396000
20
-6.760000
30
64.849998
70
192
0
VERTEX
8
OBJECT__118
10
86.297997
20
-6.760000
30
107.981003
70
192
0
VERTEX
8
OBJECT__118
10
111.199997
20
-9.946000
30
104.845001
70
192
0
VERTEX
8
OBJECT__118
10
111.199997
20
-10.937000
30
101.795998
70
192
0
VERTEX
8
OBJECT__118
10
68.069000
20
6.760000
30
89.751999
70
192
0
VERTEX
8
OBJECT__118
10
59.200001
20
0.000000
30
64.849998
70
192
0
VERTEX
8
OBJECT__118
10
61.396000
20
6.760000
30
64.849998
70
192
0
VERTEX
8
OBJECT__118
10
86.297997
20
6.760000
30
107.981003
70
192
0
VERTEX
8
OBJECT__118
10
111.199997
20
-6.760000
30
114.653999
70
192
0
VERTEX
8
OBJECT__118
10
111.199997
20
0.000000
30
116.849998
70
192
0
VERTEX
8
OBJECT__118
10
71.205002
20
9.946000
30
64.849998
70
192
0
VERTEX
8
OBJECT__118
10
79.204002
20
10.937000
30
83.322998
70
192
0
VERTEX
8
OBJECT__118
10
74.253998
20
10.937000
30
64.849998
70
192
0
VERTEX
8
OBJECT__118
10
92.726997
20
10.937000
30
96.846001
70
192
0
VERTEX
8
OBJECT__118
10
111.199997
20
9.946000
30
104.845001
70
192
0
VERTEX
8
OBJECT__118
10
111.199997
20
10.937000
30
101.795998
70
192
0
VERTEX
8
OBJECT__118
10
111.199997
20
6.760000
30
114.653999
70
192
0
VERTEX
8
OBJECT__118
10
0
20
0
30
0
70
128
71
1
72
2
73
3
0
VERTEX
8
OBJECT__118
10
0
20
0
30
0
70
128
71
4
72
5
73
6
0
VERTEX
8
OBJECT__118
10
0
20
0
30
0
70
128
71
6
72
5
73
7
0
VERTEX
8
OBJECT__118
10
0
20
0
30
0
70
128
71
8
72
2
73
1
0
VERTEX
8
OBJECT__118
10
0
20
0
30
0
70
128
71
9
72
10
73
8
0
VERTEX
8
OBJECT__118
10
0
20
0
30
0
70
128
71
1
72
6
73
11
0
VERTEX
8
OBJECT__118
10
0
20
0
30
0
70
128
71
12
72
11
73
6
0
VERTEX
8
OBJECT__118
10
0
20
0
30
0
70
128
71
6
72
13
73
12
0
VERTEX
8
OBJECT__118
10
0
20
0
30
0
70
128
71
9
72
14
73
15
0
VERTEX
8
OBJECT__118
10
0
20
0
30
0
70
128
71
14
72
16
73
15
0
VERTEX
8
OBJECT__118
10
0
20
0
30
0
70
128
71
9
72
11
73
17
0
VERTEX
8
OBJECT__118
10
0
20
0
30
0
70
128
71
11
72
18
73
19
0
VERTEX
8
OBJECT__118
10
0
20
0
30
0
70
128
71
19
72
17
73
11
0
VERTEX
8
OBJECT__118
10
0
20
0
30
0
70
128
71
20
72
14
73
21
0
VERTEX
8
OBJECT__118
10
0
20
0
30
0
70
128
71
21
72
22
73
20
0
VERTEX
8
OBJECT__118
10
0
20
0
30
0
70
128
71
14
72
17
73
23
0
VERTEX
8
OBJECT__118
10
0
20
0
30
0
70
128
71
24
72
25
73
23
0
VERTEX
8
OBJECT__118
10
0
20
0
30
0
70
128
71
17
72
26
73
24
0
VERTEX
8
OBJECT__118
10
0
20
0
30
0
70
128
71
21
72
4
73
3
0
VERTEX
8
OBJECT__118
10
0
20
0
30
0
70
128
71
21
72
23
73
5
0
VERTEX
8
OBJECT__118
10
0
20
0
30
0
70
128
71
23
72
25
73
7
0
VERTEX
8
OBJECT__118
10
0
20
0
30
0
70
128
71
7
72
5
73
23
0
VERTEX
8
OBJECT__118
10
0
20
0
30
0
70
128
71
5
72
4
73
21
0
VERTEX
8
OBJECT__118
10
0
20
0
30
0
70
128
71
3
72
22
73
21
0
VERTEX
8
OBJECT__118
10
0
20
0
30
0
70
128
71
23
72
17
73
24
0
VERTEX
8
OBJECT__118
10
0
20
0
30
0
70
128
71
23
72
21
73
14
0
VERTEX
8
OBJECT__118
10
0
20
0
30
0
70
128
71
20
72
16
73
14
0
VERTEX
8
OBJECT__118
10
0
20
0
30
0
70
128
71
19
72
26
73
17
0
VERTEX
8
OBJECT__118
10
0
20
0
30
0
70
128
71
17
72
14
73
9
0
VERTEX
8
OBJECT__118
10
0
20
0
30
0
70
128
71
15
72
10
73
9
0
VERTEX
8
OBJECT__118
10
0
20
0
30
0
70
128
71
12
72
18
73
11
0
VERTEX
8
OBJECT__118
10
0
20
0
30
0
70
128
71
11
72
9
73
1
0
VERTEX
8
OBJECT__118
10
0
20
0
30
0
70
128
71
1
72
9
73
8
0
VERTEX
8
OBJECT__118
10
0
20
0
30
0
70
128
71
7
72
13
73
6
0
VERTEX
8
OBJECT__118
10
0
20
0
30
0
70
128
71
6
72
1
73
4
0
VERTEX
8
OBJECT__118
10
0
20
0
30
0
70
128
71
3
72
4
73
1
0
SEQEND
8
OBJECT__118
0
POLYLINE
8
OBJECT__119
66
1
70
64
71
12
72
12
62
253
0
VERTEX
8
OBJECT__119
10
82.199997
20
0.000000
30
9.350000
70
192
0
VERTEX
8
OBJECT__119
10
70.699997
20
11.500000
30
9.350000
70
192
0
VERTEX
8
OBJECT__119
10
74.253998
20
10.937000
30
64.849998
70
192
0
VERTEX
8
OBJECT__119
10
71.205002
20
9.946000
30
64.849998
70
192
0
VERTEX
8
OBJECT__119
10
59.200001
20
0.000000
30
9.350000
70
192
0
VERTEX
8
OBJECT__119
10
61.396000
20
6.760000
30
64.849998
70
192
0
VERTEX
8
OBJECT__119
10
59.200001
20
0.000000
30
64.849998
70
192
0
VERTEX
8
OBJECT__119
10
70.699997
20
-11.500000
30
9.350000
70
192
0
VERTEX
8
OBJECT__119
10
71.205002
20
-9.946000
30
64.849998
70
192
0
VERTEX
8
OBJECT__119
10
61.396000
20
-6.760000
30
64.849998
70
192
0
VERTEX
8
OBJECT__119
10
82.199997
20
0.000000
30
64.849998
70
192
0
VERTEX
8
OBJECT__119
10
74.253998
20
-10.937000
30
64.849998
70
192
0
VERTEX
8
OBJECT__119
10
0
20
0
30
0
70
128
71
1
72
2
73
3
0
VERTEX
8
OBJECT__119
10
0
20
0
30
0
70
128
71
2
72
4
73
3
0
VERTEX
8
OBJECT__119
10
0
20
0
30
0
70
128
71
2
72
5
73
6
0
VERTEX
8
OBJECT__119
10
0
20
0
30
0
70
128
71
5
72
7
73
6
0
VERTEX
8
OBJECT__119
10
0
20
0
30
0
70
128
71
8
72
9
73
10
0
VERTEX
8
OBJECT__119
10
0
20
0
30
0
70
128
71
10
72
5
73
8
0
VERTEX
8
OBJECT__119
10
0
20
0
30
0
70
128
71
1
72
11
73
12
0
VERTEX
8
OBJECT__119
10
0
20
0
30
0
70
128
71
12
72
8
73
1
0
VERTEX
8
OBJECT__119
10
0
20
0
30
0
70
128
71
12
72
9
73
8
0
VERTEX
8
OBJECT__119
10
0
20
0
30
0
70
128
71
10
72
7
73
5
0
VERTEX
8
OBJECT__119
10
0
20
0
30
0
70
128
71
6
72
4
73
2
0
VERTEX
8
OBJECT__119
10
0
20
0
30
0
70
128
71
3
72
11
73
1
0
SEQEND
8
OBJECT__119
0
POLYLINE
8
OBJECT__120
66
1
70
64
71
11
72
9
62
253
0
VERTEX
8
OBJECT__120
10
61.200001
20
54.139000
30
-417.019989
70
192
0
VERTEX
8
OBJECT__120
10
61.200001
20
54.900002
30
-417.584015
70
192
0
VERTEX
8
OBJECT__120
10
61.200001
20
56.134998
30
-416.644012
70
192
0
VERTEX
8
OBJECT__120
10
61.200001
20
55.401001
30
-396.019012
70
192
0
VERTEX
8
OBJECT__120
10
61.200001
20
58.235001
30
-390.820007
70
192
0
VERTEX
8
OBJECT__120
10
61.200001
20
57.633999
30
-389.843994
70
192
0
VERTEX
8
OBJECT__120
10
61.200001
20
56.595001
30
-411.338013
70
192
0
VERTEX
8
OBJECT__120
10
61.200001
20
53.251999
30
-415.571991
70
192
0
VERTEX
8
OBJECT__120
10
61.200001
20
56.488998
30
-389.816986
70
192
0
VERTEX
8
OBJECT__120
10
61.200001
20
56.118000
30
-390.002991
70
192
0
VERTEX
8
OBJECT__120
10
61.200001
20
55.951000
30
-390.084991
70
192
0
VERTEX
8
OBJECT__120
10
0
20
0
30
0
70
128
71
1
72
2
73
3
0
VERTEX
8
OBJECT__120
10
0
20
0
30
0
70
128
71
4
72
5
73
6
0
VERTEX
8
OBJECT__120
10
0
20
0
30
0
70
128
71
7
72
5
73
4
0
VERTEX
8
OBJECT__120
10
0
20
0
30
0
70
128
71
7
72
8
73
1
0
VERTEX
8
OBJECT__120
10
0
20
0
30
0
70
128
71
6
72
9
73
4
0
VERTEX
8
OBJECT__120
10
0
20
0
30
0
70
128
71
3
72
7
73
1
0
VERTEX
8
OBJECT__120
10
0
20
0
30
0
70
128
71
9
72
10
73
4
0
VERTEX
8
OBJECT__120
10
0
20
0
30
0
70
128
71
10
72
11
73
4
0
VERTEX
8
OBJECT__120
10
0
20
0
30
0
70
128
71
4
72
8
73
7
0
SEQEND
8
OBJECT__120
0
POLYLINE
8
OBJECT__122
66
1
70
64
71
5
72
3
62
253
0
VERTEX
8
OBJECT__122
10
16.202999
20
-87.442001
30
-1038.447998
70
192
0
VERTEX
8
OBJECT__122
10
16.202999
20
-61.580002
30
-1038.447998
70
192
0
VERTEX
8
OBJECT__122
10
16.202999
20
-53.588001
30
-1013.851990
70
192
0
VERTEX
8
OBJECT__122
10
16.202999
20
-74.511002
30
-998.650024
70
192
0
VERTEX
8
OBJECT__122
10
16.202999
20
-95.433998
30
-1013.851990
70
192
0
VERTEX
8
OBJECT__122
10
0
20
0
30
0
70
128
71
1
72
2
73
3
0
VERTEX
8
OBJECT__122
10
0
20
0
30
0
70
128
71
3
72
4
73
1
0
VERTEX
8
OBJECT__122
10
0
20
0
30
0
70
128
71
4
72
5
73
1
0
SEQEND
8
OBJECT__122
0
POLYLINE
8
OBJECT__123
66
1
70
64
71
10
72
10
62
253
0
VERTEX
8
OBJECT__123
10
16.202999
20
-53.588001
30
-1013.851990
70
192
0
VERTEX
8
OBJECT__123
10
3.203000
20
-53.588001
30
-1013.851990
70
192
0
VERTEX
8
OBJECT__123
10
3.203000
20
-74.511002
30
-998.650024
70
192
0
VERTEX
8
OBJECT__123
10
16.202999
20
-61.580002
30
-1038.447998
70
192
0
VERTEX
8
OBJECT__123
10
3.203000
20
-61.580002
30
-1038.447998
70
192
0
VERTEX
8
OBJECT__123
10
3.203000
20
-87.442001
30
-1038.447998
70
192
0
VERTEX
8
OBJECT__123
10
16.202999
20
-95.433998
30
-1013.851990
70
192
0
VERTEX
8
OBJECT__123
10
3.203000
20
-95.433998
30
-1013.851990
70
192
0
VERTEX
8
OBJECT__123
10
16.202999
20
-74.511002
30
-998.650024
70
192
0
VERTEX
8
OBJECT__123
10
16.202999
20
-87.442001
30
-1038.447998
70
192
0
VERTEX
8
OBJECT__123
10
0
20
0
30
0
70
128
71
1
72
2
73
3
0
VERTEX
8
OBJECT__123
10
0
20
0
30
0
70
128
71
4
72
5
73
2
0
VERTEX
8
OBJECT__123
10
0
20
0
30
0
70
128
71
6
72
5
73
4
0
VERTEX
8
OBJECT__123
10
0
20
0
30
0
70
128
71
7
72
8
73
6
0
VERTEX
8
OBJECT__123
10
0
20
0
30
0
70
128
71
9
72
3
73
8
0
VERTEX
8
OBJECT__123
10
0
20
0
30
0
70
128
71
8
72
7
73
9
0
VERTEX
8
OBJECT__123
10
0
20
0
30
0
70
128
71
6
72
10
73
7
0
VERTEX
8
OBJECT__123
10
0
20
0
30
0
70
128
71
4
72
10
73
6
0
VERTEX
8
OBJECT__123
10
0
20
0
30
0
70
128
71
2
72
1
73
4
0
VERTEX
8
OBJECT__123
10
0
20
0
30
0
70
128
71
3
72
9
73
1
0
SEQEND
8
OBJECT__123
0
POLYLINE
8
OBJECT__125
66
1
70
64
71
11
72
11
62
253
0
VERTEX
8
OBJECT__125
10
3.203000
20
-44.200001
30
-1003.150024
70
192
0
VERTEX
8
OBJECT__125
10
3.203000
20
-74.511002
30
-985.650024
70
192
0
VERTEX
8
OBJECT__125
10
3.203000
20
-74.511002
30
-998.650024
70
192
0
VERTEX
8
OBJECT__125
10
3.203000
20
-104.821999
30
-1003.150024
70
192
0
VERTEX
8
OBJECT__125
10
3.203000
20
-95.433998
30
-1013.851990
70
192
0
VERTEX
8
OBJECT__125
10
3.203000
20
-104.821999
30
-1038.150024
70
192
0
VERTEX
8
OBJECT__125
10
3.203000
20
-87.442001
30
-1038.447998
70
192
0
VERTEX
8
OBJECT__125
10
3.203000
20
-74.511002
30
-1055.650024
70
192
0
VERTEX
8
OBJECT__125
10
3.203000
20
-61.580002
30
-1038.447998
70
192
0
VERTEX
8
OBJECT__125
10
3.203000
20
-44.200001
30
-1038.150024
70
192
0
VERTEX
8
OBJECT__125
10
3.203000
20
-53.588001
30
-1013.851990
70
192
0
VERTEX
8
OBJECT__125
10
0
20
0
30
0
70
128
71
1
72
2
73
3
0
VERTEX
8
OBJECT__125
10
0
20
0
30
0
70
128
71
4
72
5
73
3
0
VERTEX
8
OBJECT__125
10
0
20
0
30
0
70
128
71
3
72
2
73
4
0
VERTEX
8
OBJECT__125
10
0
20
0
30
0
70
128
71
6
72
7
73
5
0
VERTEX
8
OBJECT__125
10
0
20
0
30
0
70
128
71
8
72
9
73
7
0
VERTEX
8
OBJECT__125
10
0
20
0
30
0
70
128
71
5
72
4
73
6
0
VERTEX
8
OBJECT__125
10
0
20
0
30
0
70
128
71
8
72
10
73
9
0
VERTEX
8
OBJECT__125
10
0
20
0
30
0
70
128
71
7
72
6
73
8
0
VERTEX
8
OBJECT__125
10
0
20
0
30
0
70
128
71
10
72
1
73
11
0
VERTEX
8
OBJECT__125
10
0
20
0
30
0
70
128
71
11
72
9
73
10
0
VERTEX
8
OBJECT__125
10
0
20
0
30
0
70
128
71
3
72
11
73
1
0
SEQEND
8
OBJECT__125
0
POLYLINE
8
OBJECT__126
66
1
70
64
71
12
72
12
62
253
0
VERTEX
8
OBJECT__126
10
3.203000
20
-44.200001
30
-1003.150024
70
192
0
VERTEX
8
OBJECT__126
10
-11.797000
20
-44.200001
30
-1003.150024
70
192
0
VERTEX
8
OBJECT__126
10
-11.797000
20
-74.511002
30
-985.650024
70
192
0
VERTEX
8
OBJECT__126
10
3.203000
20
-44.200001
30
-1038.150024
70
192
0
VERTEX
8
OBJECT__126
10
-11.797000
20
-44.200001
30
-1038.150024
70
192
0
VERTEX
8
OBJECT__126
10
-11.797000
20
-74.511002
30
-1055.650024
70
192
0
VERTEX
8
OBJECT__126
10
-11.797000
20
-104.821999
30
-1038.150024
70
192
0
VERTEX
8
OBJECT__126
10
3.203000
20
-74.511002
30
-1055.650024
70
192
0
VERTEX
8
OBJECT__126
10
3.203000
20
-104.821999
30
-1003.150024
70
192
0
VERTEX
8
OBJECT__126
10
-11.797000
20
-104.821999
30
-1003.150024
70
192
0
VERTEX
8
OBJECT__126
10
3.203000
20
-74.511002
30
-985.650024
70
192
0
VERTEX
8
OBJECT__126
10
3.203000
20
-104.821999
30
-1038.150024
70
192
0
VERTEX
8
OBJECT__126
10
0
20
0
30
0
70
128
71
1
72
2
73
3
0
VERTEX
8
OBJECT__126
10
0
20
0
30
0
70
128
71
4
72
5
73
2
0
VERTEX
8
OBJECT__126
10
0
20
0
30
0
70
128
71
6
72
5
73
4
0
VERTEX
8
OBJECT__126
10
0
20
0
30
0
70
128
71
7
72
6
73
8
0
VERTEX
8
OBJECT__126
10
0
20
0
30
0
70
128
71
9
72
10
73
7
0
VERTEX
8
OBJECT__126
10
0
20
0
30
0
70
128
71
11
72
3
73
10
0
VERTEX
8
OBJECT__126
10
0
20
0
30
0
70
128
71
10
72
9
73
11
0
VERTEX
8
OBJECT__126
10
0
20
0
30
0
70
128
71
7
72
12
73
9
0
VERTEX
8
OBJECT__126
10
0
20
0
30
0
70
128
71
8
72
12
73
7
0
VERTEX
8
OBJECT__126
10
0
20
0
30
0
70
128
71
4
72
8
73
6
0
VERTEX
8
OBJECT__126
10
0
20
0
30
0
70
128
71
2
72
1
73
4
0
VERTEX
8
OBJECT__126
10
0
20
0
30
0
70
128
71
3
72
11
73
1
0
SEQEND
8
OBJECT__126
0
POLYLINE
8
OBJECT__127
66
1
70
64
71
6
72
4
62
253
0
VERTEX
8
OBJECT__127
10
-11.797000
20
-74.511002
30
-1055.650024
70
192
0
VERTEX
8
OBJECT__127
10
-11.797000
20
-104.821999
30
-1038.150024
70
192
0
VERTEX
8
OBJECT__127
10
-11.797000
20
-104.821999
30
-1003.150024
70
192
0
VERTEX
8
OBJECT__127
10
-11.797000
20
-74.511002
30
-985.650024
70
192
0
VERTEX
8
OBJECT__127
10
-11.797000
20
-44.200001
30
-1003.150024
70
192
0
VERTEX
8
OBJECT__127
10
-11.797000
20
-44.200001
30
-1038.150024
70
192
0
VERTEX
8
OBJECT__127
10
0
20
0
30
0
70
128
71
1
72
2
73
3
0
VERTEX
8
OBJECT__127
10
0
20
0
30
0
70
128
71
1
72
4
73
5
0
VERTEX
8
OBJECT__127
10
0
20
0
30
0
70
128
71
5
72
6
73
1
0
VERTEX
8
OBJECT__127
10
0
20
0
30
0
70
128
71
3
72
4
73
1
0
SEQEND
8
OBJECT__127
0
POLYLINE
8
OBJECT__128
66
1
70
64
71
4
72
2
62
253
0
VERTEX
8
OBJECT__128
10
70.699997
20
65.150002
30
-183.449997
70
192
0
VERTEX
8
OBJECT__128
10
54.700001
20
49.150002
30
-183.449997
70
192
0
VERTEX
8
OBJECT__128
10
70.699997
20
33.150002
30
-183.449997
70
192
0
VERTEX
8
OBJECT__128
10
86.699997
20
49.150002
30
-183.449997
70
192
0
VERTEX
8
OBJECT__128
10
0
20
0
30
0
70
128
71
1
72
2
73
3
0
VERTEX
8
OBJECT__128
10
0
20
0
30
0
70
128
71
3
72
4
73
1
0
SEQEND
8
OBJECT__128
0
POLYLINE
8
OBJECT__129
66
1
70
64
71
8
72
8
62
253
0
VERTEX
8
OBJECT__129
10
86.699997
20
49.150002
30
-258.450012
70
192
0
VERTEX
8
OBJECT__129
10
86.699997
20
49.150002
30
-183.449997
70
192
0
VERTEX
8
OBJECT__129
10
70.699997
20
33.150002
30
-183.449997
70
192
0
VERTEX
8
OBJECT__129
10
54.700001
20
49.150002
30
-183.449997
70
192
0
VERTEX
8
OBJECT__129
10
54.700001
20
49.150002
30
-258.450012
70
192
0
VERTEX
8
OBJECT__129
10
70.699997
20
33.150002
30
-258.450012
70
192
0
VERTEX
8
OBJECT__129
10
70.699997
20
65.150002
30
-183.449997
70
192
0
VERTEX
8
OBJECT__129
10
70.699997
20
65.150002
30
-258.450012
70
192
0
VERTEX
8
OBJECT__129
10
0
20
0
30
0
70
128
71
1
72
2
73
3
0
VERTEX
8
OBJECT__129
10
0
20
0
30
0
70
128
71
4
72
5
73
6
0
VERTEX
8
OBJECT__129
10
0
20
0
30
0
70
128
71
4
72
7
73
8
0
VERTEX
8
OBJECT__129
10
0
20
0
30
0
70
128
71
2
72
1
73
8
0
VERTEX
8
OBJECT__129
10
0
20
0
30
0
70
128
71
8
72
7
73
2
0
VERTEX
8
OBJECT__129
10
0
20
0
30
0
70
128
71
8
72
5
73
4
0
VERTEX
8
OBJECT__129
10
0
20
0
30
0
70
128
71
6
72
3
73
4
0
VERTEX
8
OBJECT__129
10
0
20
0
30
0
70
128
71
3
72
6
73
1
0
SEQEND
8
OBJECT__129
0
POLYLINE
8
OBJECT__131
66
1
70
64
71
8
72
8
62
253
0
VERTEX
8
OBJECT__131
10
70.699997
20
33.150002
30
-258.450012
70
192
0
VERTEX
8
OBJECT__131
10
70.699997
20
37.150002
30
-258.450012
70
192
0
VERTEX
8
OBJECT__131
10
82.699997
20
49.150002
30
-258.450012
70
192
0
VERTEX
8
OBJECT__131
10
54.700001
20
49.150002
30
-258.450012
70
192
0
VERTEX
8
OBJECT__131
10
58.700001
20
49.150002
30
-258.450012
70
192
0
VERTEX
8
OBJECT__131
10
86.699997
20
49.150002
30
-258.450012
70
192
0
VERTEX
8
OBJECT__131
10
70.699997
20
61.150002
30
-258.450012
70
192
0
VERTEX
8
OBJECT__131
10
70.699997
20
65.150002
30
-258.450012
70
192
0
VERTEX
8
OBJECT__131
10
0
20
0
30
0
70
128
71
1
72
2
73
3
0
VERTEX
8
OBJECT__131
10
0
20
0
30
0
70
128
71
4
72
5
73
2
0
VERTEX
8
OBJECT__131
10
0
20
0
30
0
70
128
71
6
72
3
73
7
0
VERTEX
8
OBJECT__131
10
0
20
0
30
0
70
128
71
2
72
1
73
4
0
VERTEX
8
OBJECT__131
10
0
20
0
30
0
70
128
71
4
72
8
73
7
0
VERTEX
8
OBJECT__131
10
0
20
0
30
0
70
128
71
3
72
6
73
1
0
VERTEX
8
OBJECT__131
10
0
20
0
30
0
70
128
71
7
72
8
73
6
0
VERTEX
8
OBJECT__131
10
0
20
0
30
0
70
128
71
7
72
5
73
4
0
SEQEND
8
OBJECT__131
0
POLYLINE
8
OBJECT__132
66
1
70
64
71
8
72
8
62
253
0
VERTEX
8
OBJECT__132
10
70.699997
20
37.150002
30
-388.450012
70
192
0
VERTEX
8
OBJECT__132
10
82.699997
20
49.150002
30
-388.450012
70
192
0
VERTEX
8
OBJECT__132
10
82.699997
20
49.150002
30
-258.450012
70
192
0
VERTEX
8
OBJECT__132
10
58.700001
20
49.150002
30
-388.450012
70
192
0
VERTEX
8
OBJECT__132
10
70.699997
20
37.150002
30
-258.450012
70
192
0
VERTEX
8
OBJECT__132
10
70.699997
20
61.150002
30
-258.450012
70
192
0
VERTEX
8
OBJECT__132
10
70.699997
20
61.150002
30
-388.450012
70
192
0
VERTEX
8
OBJECT__132
10
58.700001
20
49.150002
30
-258.450012
70
192
0
VERTEX
8
OBJECT__132
10
0
20
0
30
0
70
128
71
1
72
2
73
3
0
VERTEX
8
OBJECT__132
10
0
20
0
30
0
70
128
71
4
72
1
73
5
0
VERTEX
8
OBJECT__132
10
0
20
0
30
0
70
128
71
6
72
7
73
4
0
VERTEX
8
OBJECT__132
10
0
20
0
30
0
70
128
71
3
72
2
73
7
0
VERTEX
8
OBJECT__132
10
0
20
0
30
0
70
128
71
7
72
6
73
3
0
VERTEX
8
OBJECT__132
10
0
20
0
30
0
70
128
71
4
72
8
73
6
0
VERTEX
8
OBJECT__132
10
0
20
0
30
0
70
128
71
5
72
8
73
4
0
VERTEX
8
OBJECT__132
10
0
20
0
30
0
70
128
71
3
72
5
73
1
0
SEQEND
8
OBJECT__132
0
POLYLINE
8
OBJECT__133
66
1
70
64
71
4
72
2
62
253
0
VERTEX
8
OBJECT__133
10
82.699997
20
49.150002
30
-388.450012
70
192
0
VERTEX
8
OBJECT__133
10
70.699997
20
37.150002
30
-388.450012
70
192
0
VERTEX
8
OBJECT__133
10
58.700001
20
49.150002
30
-388.450012
70
192
0
VERTEX
8
OBJECT__133
10
70.699997
20
61.150002
30
-388.450012
70
192
0
VERTEX
8
OBJECT__133
10
0
20
0
30
0
70
128
71
1
72
2
73
3
0
VERTEX
8
OBJECT__133
10
0
20
0
30
0
70
128
71
3
72
4
73
1
0
SEQEND
8
OBJECT__133
0
POLYLINE
8
OBJECT__134
66
1
70
64
71
8
72
8
62
253
0
VERTEX
8
OBJECT__134
10
14.203000
20
-82.261002
30
-1034.072998
70
192
0
VERTEX
8
OBJECT__134
10
14.203000
20
-61.088001
30
-1028.400024
70
192
0
VERTEX
8
OBJECT__134
10
56.702999
20
-61.088001
30
-1028.400024
70
192
0
VERTEX
8
OBJECT__134
10
56.702999
20
-82.261002
30
-1034.072998
70
192
0
VERTEX
8
OBJECT__134
10
14.203000
20
-66.761002
30
-1007.226990
70
192
0
VERTEX
8
OBJECT__134
10
56.702999
20
-66.761002
30
-1007.226990
70
192
0
VERTEX
8
OBJECT__134
10
14.203000
20
-87.933998
30
-1012.900024
70
192
0
VERTEX
8
OBJECT__134
10
56.702999
20
-87.933998
30
-1012.900024
70
192
0
VERTEX
8
OBJECT__134
10
0
20
0
30
0
70
128
71
1
72
2
73
3
0
VERTEX
8
OBJECT__134
10
0
20
0
30
0
70
128
71
1
72
3
73
4
0
VERTEX
8
OBJECT__134
10
0
20
0
30
0
70
128
71
2
72
5
73
6
0
VERTEX
8
OBJECT__134
10
0
20
0
30
0
70
128
71
2
72
6
73
3
0
VERTEX
8
OBJECT__134
10
0
20
0
30
0
70
128
71
5
72
7
73
8
0
VERTEX
8
OBJECT__134
10
0
20
0
30
0
70
128
71
5
72
8
73
6
0
VERTEX
8
OBJECT__134
10
0
20
0
30
0
70
128
71
7
72
1
73
4
0
VERTEX
8
OBJECT__134
10
0
20
0
30
0
70
128
71
7
72
4
73
8
0
SEQEND
8
OBJECT__134
0
POLYLINE
8
OBJECT__136
66
1
70
64
71
25
72
25
62
253
0
VERTEX
8
OBJECT__136
10
567.890991
20
23.955000
30
13.150000
70
192
0
VERTEX
8
OBJECT__136
10
571.447021
20
29.582001
30
13.150000
70
192
0
VERTEX
8
OBJECT__136
10
575.700012
20
0.000000
30
13.150000
70
192
0
VERTEX
8
OBJECT__136
10
567.890991
20
-23.955000
30
13.150000
70
192
0
VERTEX
8
OBJECT__136
10
571.447021
20
-29.582001
30
13.150000
70
192
0
VERTEX
8
OBJECT__136
10
539.460022
20
-79.353996
30
13.150000
70
192
0
VERTEX
8
OBJECT__136
10
545.625977
20
-66.378998
30
13.150000
70
192
0
VERTEX
8
OBJECT__136
10
485.643005
20
-103.931000
30
13.150000
70
192
0
VERTEX
8
OBJECT__136
10
506.196014
20
-93.595001
30
13.150000
70
192
0
VERTEX
8
OBJECT__136
10
382.368011
20
56.766998
30
13.150000
70
192
0
VERTEX
8
OBJECT__136
10
427.080994
20
95.511002
30
13.150000
70
192
0
VERTEX
8
OBJECT__136
10
413.837006
20
82.380997
30
13.150000
70
192
0
VERTEX
8
OBJECT__136
10
485.643005
20
103.931000
30
13.150000
70
192
0
VERTEX
8
OBJECT__136
10
458.634003
20
99.370003
30
13.150000
70
192
0
VERTEX
8
OBJECT__136
10
458.634003
20
-99.370003
30
13.150000
70
192
0
VERTEX
8
OBJECT__136
10
382.066010
20
46.519001
30
13.150000
70
192
0
VERTEX
8
OBJECT__136
10
506.196014
20
93.595001
30
13.150000
70
192
0
VERTEX
8
OBJECT__136
10
539.460022
20
79.353996
30
13.150000
70
192
0
VERTEX
8
OBJECT__136
10
545.625977
20
66.378998
30
13.150000
70
192
0
VERTEX
8
OBJECT__136
10
427.080994
20
-95.511002
30
13.150000
70
192
0
VERTEX
8
OBJECT__136
10
413.837006
20
-82.380997
30
13.150000
70
192
0
VERTEX
8
OBJECT__136
10
382.368011
20
-56.766998
30
13.150000
70
192
0
VERTEX
8
OBJECT__136
10
382.066010
20
-46.519001
30
13.150000
70
192
0
VERTEX
8
OBJECT__136
10
365.700012
20
0.000000
30
13.150000
70
192
0
VERTEX
8
OBJECT__136
10
370.600006
20
0.000000
30
13.150000
70
192
0
VERTEX
8
OBJECT__136
10
0
20
0
30
0
70
128
71
1
72
2
73
3
0
VERTEX
8
OBJECT__136
10
0
20
0
30
0
70
128
71
3
72
4
73
1
0
VERTEX
8
OBJECT__136
10
0
20
0
30
0
70
128
71
5
72
6
73
7
0
VERTEX
8
OBJECT__136
10
0
20
0
30
0
70
128
71
6
72
8
73
9
0
VERTEX
8
OBJECT__136
10
0
20
0
30
0
70
128
71
10
72
11
73
12
0
VERTEX
8
OBJECT__136
10
0
20
0
30
0
70
128
71
11
72
13
73
14
0
VERTEX
8
OBJECT__136
10
0
20
0
30
0
70
128
71
7
72
4
73
5
0
VERTEX
8
OBJECT__136
10
0
20
0
30
0
70
128
71
8
72
15
73
9
0
VERTEX
8
OBJECT__136
10
0
20
0
30
0
70
128
71
12
72
16
73
10
0
VERTEX
8
OBJECT__136
10
0
20
0
30
0
70
128
71
13
72
17
73
14
0
VERTEX
8
OBJECT__136
10
0
20
0
30
0
70
128
71
18
72
19
73
17
0
VERTEX
8
OBJECT__136
10
0
20
0
30
0
70
128
71
2
72
1
73
19
0
VERTEX
8
OBJECT__136
10
0
20
0
30
0
70
128
71
9
72
7
73
6
0
VERTEX
8
OBJECT__136
10
0
20
0
30
0
70
128
71
20
72
21
73
15
0
VERTEX
8
OBJECT__136
10
0
20
0
30
0
70
128
71
22
72
23
73
21
0
VERTEX
8
OBJECT__136
10
0
20
0
30
0
70
128
71
24
72
25
73
23
0
VERTEX
8
OBJECT__136
10
0
20
0
30
0
70
128
71
14
72
12
73
11
0
VERTEX
8
OBJECT__136
10
0
20
0
30
0
70
128
71
19
72
18
73
2
0
VERTEX
8
OBJECT__136
10
0
20
0
30
0
70
128
71
15
72
8
73
20
0
VERTEX
8
OBJECT__136
10
0
20
0
30
0
70
128
71
23
72
22
73
24
0
VERTEX
8
OBJECT__136
10
0
20
0
30
0
70
128
71
17
72
13
73
18
0
VERTEX
8
OBJECT__136
10
0
20
0
30
0
70
128
71
21
72
20
73
22
0
VERTEX
8
OBJECT__136
10
0
20
0
30
0
70
128
71
3
72
5
73
4
0
VERTEX
8
OBJECT__136
10
0
20
0
30
0
70
128
71
16
72
25
73
10
0
VERTEX
8
OBJECT__136
10
0
20
0
30
0
70
128
71
25
72
24
73
10
0
SEQEND
8
OBJECT__136
0
POLYLINE
8
OBJECT__137
66
1
70
64
71
23
72
23
62
253
0
VERTEX
8
OBJECT__137
10
382.368011
20
56.766998
30
17.450001
70
192
0
VERTEX
8
OBJECT__137
10
382.368011
20
56.766998
30
13.150000
70
192
0
VERTEX
8
OBJECT__137
10
365.700012
20
0.000000
30
13.150000
70
192
0
VERTEX
8
OBJECT__137
10
427.080994
20
95.511002
30
17.450001
70
192
0
VERTEX
8
OBJECT__137
10
427.080994
20
95.511002
30
13.150000
70
192
0
VERTEX
8
OBJECT__137
10
485.643005
20
103.931000
30
17.450001
70
192
0
VERTEX
8
OBJECT__137
10
485.643005
20
103.931000
30
13.150000
70
192
0
VERTEX
8
OBJECT__137
10
539.460022
20
79.353996
30
17.450001
70
192
0
VERTEX
8
OBJECT__137
10
539.460022
20
79.353996
30
13.150000
70
192
0
VERTEX
8
OBJECT__137
10
571.447021
20
29.582001
30
17.450001
70
192
0
VERTEX
8
OBJECT__137
10
571.447021
20
29.582001
30
13.150000
70
192
0
VERTEX
8
OBJECT__137
10
571.447021
20
-29.582001
30
17.450001
70
192
0
VERTEX
8
OBJECT__137
10
575.700012
20
0.000000
30
13.150000
70
192
0
VERTEX
8
OBJECT__137
10
571.447021
20
-29.582001
30
13.150000
70
192
0
VERTEX
8
OBJECT__137
10
539.460022
20
-79.353996
30
17.450001
70
192
0
VERTEX
8
OBJECT__137
10
539.460022
20
-79.353996
30
13.150000
70
192
0
VERTEX
8
OBJECT__137
10
485.643005
20
-103.931000
30
17.450001
70
192
0
VERTEX
8
OBJECT__137
10
485.643005
20
-103.931000
30
13.150000
70
192
0
VERTEX
8
OBJECT__137
10
427.080994
20
-95.511002
30
17.450001
70
192
0
VERTEX
8
OBJECT__137
10
427.080994
20
-95.511002
30
13.150000
70
192
0
VERTEX
8
OBJECT__137
10
382.368011
20
-56.766998
30
17.450001
70
192
0
VERTEX
8
OBJECT__137
10
382.368011
20
-56.766998
30
13.150000
70
192
0
VERTEX
8
OBJECT__137
10
365.700012
20
0.000000
30
17.450001
70
192
0
VERTEX
8
OBJECT__137
10
0
20
0
30
0
70
128
71
1
72
2
73
3
0
VERTEX
8
OBJECT__137
10
0
20
0
30
0
70
128
71
4
72
5
73
2
0
VERTEX
8
OBJECT__137
10
0
20
0
30
0
70
128
71
6
72
7
73
5
0
VERTEX
8
OBJECT__137
10
0
20
0
30
0
70
128
71
8
72
9
73
7
0
VERTEX
8
OBJECT__137
10
0
20
0
30
0
70
128
71
10
72
11
73
9
0
VERTEX
8
OBJECT__137
10
0
20
0
30
0
70
128
71
10
72
12
73
13
0
VERTEX
8
OBJECT__137
10
0
20
0
30
0
70
128
71
12
72
14
73
13
0
VERTEX
8
OBJECT__137
10
0
20
0
30
0
70
128
71
15
72
16
73
14
0
VERTEX
8
OBJECT__137
10
0
20
0
30
0
70
128
71
17
72
18
73
16
0
VERTEX
8
OBJECT__137
10
0
20
0
30
0
70
128
71
19
72
20
73
18
0
VERTEX
8
OBJECT__137
10
0
20
0
30
0
70
128
71
21
72
22
73
20
0
VERTEX
8
OBJECT__137
10
0
20
0
30
0
70
128
71
23
72
3
73
22
0
VERTEX
8
OBJECT__137
10
0
20
0
30
0
70
128
71
22
72
21
73
23
0
VERTEX
8
OBJECT__137
10
0
20
0
30
0
70
128
71
20
72
19
73
21
0
VERTEX
8
OBJECT__137
10
0
20
0
30
0
70
128
71
18
72
17
73
19
0
VERTEX
8
OBJECT__137
10
0
20
0
30
0
70
128
71
16
72
15
73
17
0
VERTEX
8
OBJECT__137
10
0
20
0
30
0
70
128
71
14
72
12
73
15
0
VERTEX
8
OBJECT__137
10
0
20
0
30
0
70
128
71
13
72
11
73
10
0
VERTEX
8
OBJECT__137
10
0
20
0
30
0
70
128
71
9
72
8
73
10
0
VERTEX
8
OBJECT__137
10
0
20
0
30
0
70
128
71
7
72
6
73
8
0
VERTEX
8
OBJECT__137
10
0
20
0
30
0
70
128
71
5
72
4
73
6
0
VERTEX
8
OBJECT__137
10
0
20
0
30
0
70
128
71
2
72
1
73
4
0
VERTEX
8
OBJECT__137
10
0
20
0
30
0
70
128
71
3
72
23
73
1
0
SEQEND
8
OBJECT__137
0
POLYLINE
8
OBJECT__139
66
1
70
64
71
21
72
21
62
253
0
VERTEX
8
OBJECT__139
10
539.460022
20
79.353996
30
17.450001
70
192
0
VERTEX
8
OBJECT__139
10
485.643005
20
103.931000
30
17.450001
70
192
0
VERTEX
8
OBJECT__139
10
498.203003
20
84.643997
30
17.450001
70
192
0
VERTEX
8
OBJECT__139
10
427.080994
20
95.511002
30
17.450001
70
192
0
VERTEX
8
OBJECT__139
10
443.196991
20
84.643997
30
17.450001
70
192
0
VERTEX
8
OBJECT__139
10
571.447021
20
29.582001
30
17.450001
70
192
0
VERTEX
8
OBJECT__139
10
542.703003
20
52.313000
30
17.450001
70
192
0
VERTEX
8
OBJECT__139
10
382.368011
20
56.766998
30
17.450001
70
192
0
VERTEX
8
OBJECT__139
10
398.696991
20
52.313000
30
17.450001
70
192
0
VERTEX
8
OBJECT__139
10
382.368011
20
-56.766998
30
17.450001
70
192
0
VERTEX
8
OBJECT__139
10
398.696991
20
-52.313000
30
17.450001
70
192
0
VERTEX
8
OBJECT__139
10
381.700012
20
0.000000
30
17.450001
70
192
0
VERTEX
8
OBJECT__139
10
427.080994
20
-95.511002
30
17.450001
70
192
0
VERTEX
8
OBJECT__139
10
443.196991
20
-84.643997
30
17.450001
70
192
0
VERTEX
8
OBJECT__139
10
485.643005
20
-103.931000
30
17.450001
70
192
0
VERTEX
8
OBJECT__139
10
498.203003
20
-84.643997
30
17.450001
70
192
0
VERTEX
8
OBJECT__139
10
539.460022
20
-79.353996
30
17.450001
70
192
0
VERTEX
8
OBJECT__139
10
542.703003
20
-52.313000
30
17.450001
70
192
0
VERTEX
8
OBJECT__139
10
559.700012
20
0.000000
30
17.450001
70
192
0
VERTEX
8
OBJECT__139
10
365.700012
20
0.000000
30
17.450001
70
192
0
VERTEX
8
OBJECT__139
10
571.447021
20
-29.582001
30
17.450001
70
192
0
VERTEX
8
OBJECT__139
10
0
20
0
30
0
70
128
71
1
72
2
73
3
0
VERTEX
8
OBJECT__139
10
0
20
0
30
0
70
128
71
2
72
4
73
5
0
VERTEX
8
OBJECT__139
10
0
20
0
30
0
70
128
71
6
72
1
73
7
0
VERTEX
8
OBJECT__139
10
0
20
0
30
0
70
128
71
5
72
3
73
2
0
VERTEX
8
OBJECT__139
10
0
20
0
30
0
70
128
71
4
72
8
73
9
0
VERTEX
8
OBJECT__139
10
0
20
0
30
0
70
128
71
10
72
11
73
12
0
VERTEX
8
OBJECT__139
10
0
20
0
30
0
70
128
71
13
72
14
73
11
0
VERTEX
8
OBJECT__139
10
0
20
0
30
0
70
128
71
15
72
16
73
14
0
VERTEX
8
OBJECT__139
10
0
20
0
30
0
70
128
71
17
72
18
73
16
0
VERTEX
8
OBJECT__139
10
0
20
0
30
0
70
128
71
7
72
19
73
6
0
VERTEX
8
OBJECT__139
10
0
20
0
30
0
70
128
71
9
72
5
73
4
0
VERTEX
8
OBJECT__139
10
0
20
0
30
0
70
128
71
11
72
10
73
13
0
VERTEX
8
OBJECT__139
10
0
20
0
30
0
70
128
71
16
72
15
73
17
0
VERTEX
8
OBJECT__139
10
0
20
0
30
0
70
128
71
3
72
7
73
1
0
VERTEX
8
OBJECT__139
10
0
20
0
30
0
70
128
71
8
72
20
73
12
0
VERTEX
8
OBJECT__139
10
0
20
0
30
0
70
128
71
14
72
13
73
15
0
VERTEX
8
OBJECT__139
10
0
20
0
30
0
70
128
71
21
72
19
73
18
0
VERTEX
8
OBJECT__139
10
0
20
0
30
0
70
128
71
12
72
9
73
8
0
VERTEX
8
OBJECT__139
10
0
20
0
30
0
70
128
71
18
72
17
73
21
0
VERTEX
8
OBJECT__139
10
0
20
0
30
0
70
128
71
12
72
20
73
10
0
VERTEX
8
OBJECT__139
10
0
20
0
30
0
70
128
71
19
72
21
73
6
0
SEQEND
8
OBJECT__139
0
POLYLINE
8
OBJECT__140
66
1
70
64
71
20
72
20
62
253
0
VERTEX
8
OBJECT__140
10
559.700012
20
0.000000
30
17.450001
70
192
0
VERTEX
8
OBJECT__140
10
542.703003
20
52.313000
30
17.450001
70
192
0
VERTEX
8
OBJECT__140
10
540.275024
20
50.549999
30
14.450000
70
192
0
VERTEX
8
OBJECT__140
10
498.203003
20
84.643997
30
17.450001
70
192
0
VERTEX
8
OBJECT__140
10
497.274994
20
81.791000
30
14.450000
70
192
0
VERTEX
8
OBJECT__140
10
443.196991
20
84.643997
30
17.450001
70
192
0
VERTEX
8
OBJECT__140
10
444.125000
20
81.791000
30
14.450000
70
192
0
VERTEX
8
OBJECT__140
10
398.696991
20
52.313000
30
17.450001
70
192
0
VERTEX
8
OBJECT__140
10
401.125000
20
50.549999
30
14.450000
70
192
0
VERTEX
8
OBJECT__140
10
381.700012
20
0.000000
30
17.450001
70
192
0
VERTEX
8
OBJECT__140
10
384.700012
20
0.000000
30
14.450000
70
192
0
VERTEX
8
OBJECT__140
10
398.696991
20
-52.313000
30
17.450001
70
192
0
VERTEX
8
OBJECT__140
10
401.125000
20
-50.549999
30
14.450000
70
192
0
VERTEX
8
OBJECT__140
10
443.196991
20
-84.643997
30
17.450001
70
192
0
VERTEX
8
OBJECT__140
10
444.125000
20
-81.791000
30
14.450000
70
192
0
VERTEX
8
OBJECT__140
10
498.203003
20
-84.643997
30
17.450001
70
192
0
VERTEX
8
OBJECT__140
10
497.274994
20
-81.791000
30
14.450000
70
192
0
VERTEX
8
OBJECT__140
10
542.703003
20
-52.313000
30
17.450001
70
192
0
VERTEX
8
OBJECT__140
10
540.275024
20
-50.549999
30
14.450000
70
192
0
VERTEX
8
OBJECT__140
10
556.700012
20
0.000000
30
14.450000
70
192
0
VERTEX
8
OBJECT__140
10
0
20
0
30
0
70
128
71
1
72
2
73
3
0
VERTEX
8
OBJECT__140
10
0
20
0
30
0
70
128
71
2
72
4
73
5
0
VERTEX
8
OBJECT__140
10
0
20
0
30
0
70
128
71
4
72
6
73
7
0
VERTEX
8
OBJECT__140
10
0
20
0
30
0
70
128
71
6
72
8
73
9
0
VERTEX
8
OBJECT__140
10
0
20
0
30
0
70
128
71
10
72
11
73
9
0
VERTEX
8
OBJECT__140
10
0
20
0
30
0
70
128
71
10
72
12
73
13
0
VERTEX
8
OBJECT__140
10
0
20
0
30
0
70
128
71
14
72
15
73
13
0
VERTEX
8
OBJECT__140
10
0
20
0
30
0
70
128
71
14
72
16
73
17
0
VERTEX
8
OBJECT__140
10
0
20
0
30
0
70
128
71
18
72
19
73
17
0
VERTEX
8
OBJECT__140
10
0
20
0
30
0
70
128
71
1
72
20
73
19
0
VERTEX
8
OBJECT__140
10
0
20
0
30
0
70
128
71
19
72
18
73
1
0
VERTEX
8
OBJECT__140
10
0
20
0
30
0
70
128
71
17
72
16
73
18
0
VERTEX
8
OBJECT__140
10
0
20
0
30
0
70
128
71
17
72
15
73
14
0
VERTEX
8
OBJECT__140
10
0
20
0
30
0
70
128
71
13
72
12
73
14
0
VERTEX
8
OBJECT__140
10
0
20
0
30
0
70
128
71
13
72
11
73
10
0
VERTEX
8
OBJECT__140
10
0
20
0
30
0
70
128
71
9
72
8
73
10
0
VERTEX
8
OBJECT__140
10
0
20
0
30
0
70
128
71
9
72
7
73
6
0
VERTEX
8
OBJECT__140
10
0
20
0
30
0
70
128
71
7
72
5
73
4
0
VERTEX
8
OBJECT__140
10
0
20
0
30
0
70
128
71
5
72
3
73
2
0
VERTEX
8
OBJECT__140
10
0
20
0
30
0
70
128
71
3
72
20
73
1
0
SEQEND
8
OBJECT__140
0
POLYLINE
8
OBJECT__141
66
1
70
64
71
15
72
15
62
253
0
VERTEX
8
OBJECT__141
10
401.125000
20
50.549999
30
14.450000
70
192
0
VERTEX
8
OBJECT__141
10
384.700012
20
0.000000
30
14.450000
70
192
0
VERTEX
8
OBJECT__141
10
446.399994
20
0.000000
30
14.450000
70
192
0
VERTEX
8
OBJECT__141
10
401.125000
20
-50.549999
30
14.450000
70
192
0
VERTEX
8
OBJECT__141
10
444.125000
20
-81.791000
30
14.450000
70
192
0
VERTEX
8
OBJECT__141
10
463.191010
20
-23.111000
30
14.450000
70
192
0
VERTEX
8
OBJECT__141
10
463.191010
20
23.111000
30
14.450000
70
192
0
VERTEX
8
OBJECT__141
10
444.125000
20
81.791000
30
14.450000
70
192
0
VERTEX
8
OBJECT__141
10
497.274994
20
-81.791000
30
14.450000
70
192
0
VERTEX
8
OBJECT__141
10
540.275024
20
-50.549999
30
14.450000
70
192
0
VERTEX
8
OBJECT__141
10
490.359009
20
-14.283000
30
14.450000
70
192
0
VERTEX
8
OBJECT__141
10
497.274994
20
81.791000
30
14.450000
70
192
0
VERTEX
8
OBJECT__141
10
556.700012
20
0.000000
30
14.450000
70
192
0
VERTEX
8
OBJECT__141
10
540.275024
20
50.549999
30
14.450000
70
192
0
VERTEX
8
OBJECT__141
10
490.359009
20
14.283000
30
14.450000
70
192
0
VERTEX
8
OBJECT__141
10
0
20
0
30
0
70
128
71
1
72
2
73
3
0
VERTEX
8
OBJECT__141
10
0
20
0
30
0
70
128
71
4
72
5
73
6
0
VERTEX
8
OBJECT__141
10
0
20
0
30
0
70
128
71
7
72
8
73
1
0
VERTEX
8
OBJECT__141
10
0
20
0
30
0
70
128
71
3
72
2
73
4
0
VERTEX
8
OBJECT__141
10
0
20
0
30
0
70
128
71
9
72
10
73
11
0
VERTEX
8
OBJECT__141
10
0
20
0
30
0
70
128
71
6
72
3
73
4
0
VERTEX
8
OBJECT__141
10
0
20
0
30
0
70
128
71
6
72
5
73
9
0
VERTEX
8
OBJECT__141
10
0
20
0
30
0
70
128
71
12
72
8
73
7
0
VERTEX
8
OBJECT__141
10
0
20
0
30
0
70
128
71
11
72
6
73
9
0
VERTEX
8
OBJECT__141
10
0
20
0
30
0
70
128
71
13
72
14
73
15
0
VERTEX
8
OBJECT__141
10
0
20
0
30
0
70
128
71
3
72
7
73
1
0
VERTEX
8
OBJECT__141
10
0
20
0
30
0
70
128
71
11
72
10
73
13
0
VERTEX
8
OBJECT__141
10
0
20
0
30
0
70
128
71
15
72
11
73
13
0
VERTEX
8
OBJECT__141
10
0
20
0
30
0
70
128
71
7
72
15
73
12
0
VERTEX
8
OBJECT__141
10
0
20
0
30
0
70
128
71
15
72
14
73
12
0
SEQEND
8
OBJECT__141
0
POLYLINE
8
OBJECT__142
66
1
70
64
71
10
72
10
62
253
0
VERTEX
8
OBJECT__142
10
446.399994
20
0.000000
30
14.450000
70
192
0
VERTEX
8
OBJECT__142
10
452.600006
20
0.000000
30
20.650000
70
192
0
VERTEX
8
OBJECT__142
10
465.106995
20
17.214001
30
20.650000
70
192
0
VERTEX
8
OBJECT__142
10
463.191010
20
23.111000
30
14.450000
70
192
0
VERTEX
8
OBJECT__142
10
485.342987
20
10.639000
30
20.650000
70
192
0
VERTEX
8
OBJECT__142
10
490.359009
20
-14.283000
30
14.450000
70
192
0
VERTEX
8
OBJECT__142
10
490.359009
20
14.283000
30
14.450000
70
192
0
VERTEX
8
OBJECT__142
10
463.191010
20
-23.111000
30
14.450000
70
192
0
VERTEX
8
OBJECT__142
10
485.342987
20
-10.639000
30
20.650000
70
192
0
VERTEX
8
OBJECT__142
10
465.106995
20
-17.214001
30
20.650000
70
192
0
VERTEX
8
OBJECT__142
10
0
20
0
30
0
70
128
71
1
72
2
73
3
0
VERTEX
8
OBJECT__142
10
0
20
0
30
0
70
128
71
4
72
3
73
5
0
VERTEX
8
OBJECT__142
10
0
20
0
30
0
70
128
71
6
72
7
73
5
0
VERTEX
8
OBJECT__142
10
0
20
0
30
0
70
128
71
8
72
6
73
9
0
VERTEX
8
OBJECT__142
10
0
20
0
30
0
70
128
71
1
72
8
73
10
0
VERTEX
8
OBJECT__142
10
0
20
0
30
0
70
128
71
10
72
2
73
1
0
VERTEX
8
OBJECT__142
10
0
20
0
30
0
70
128
71
9
72
10
73
8
0
VERTEX
8
OBJECT__142
10
0
20
0
30
0
70
128
71
5
72
9
73
6
0
VERTEX
8
OBJECT__142
10
0
20
0
30
0
70
128
71
5
72
7
73
4
0
VERTEX
8
OBJECT__142
10
0
20
0
30
0
70
128
71
3
72
4
73
1
0
SEQEND
8
OBJECT__142
0
POLYLINE
8
OBJECT__143
66
1
70
64
71
11
72
10
62
253
0
VERTEX
8
OBJECT__143
10
59.900002
20
8.348000
30
-390.062988
70
192
0
VERTEX
8
OBJECT__143
10
57.203999
20
-2.045000
30
-392.786987
70
192
0
VERTEX
8
OBJECT__143
10
64.939003
20
-12.375000
30
-387.243011
70
192
0
VERTEX
8
OBJECT__143
10
70.668999
20
-12.505000
30
-387.143005
70
192
0
VERTEX
8
OBJECT__143
10
70.658997
20
13.630000
30
-386.265015
70
192
0
VERTEX
8
OBJECT__143
10
71.556000
20
0.516000
30
-386.270996
70
192
0
VERTEX
8
OBJECT__143
10
72.456001
20
13.537000
30
-386.339996
70
192
0
VERTEX
8
OBJECT__143
10
70.699997
20
13.650000
30
-386.250000
70
192
0
VERTEX
8
OBJECT__143
10
75.890999
20
-12.624000
30
-387.052002
70
192
0
VERTEX
8
OBJECT__143
10
83.986000
20
-3.130000
30
-392.527008
70
192
0
VERTEX
8
OBJECT__143
10
82.838997
20
6.242000
30
-391.265015
70
192
0
VERTEX
8
OBJECT__143
10
0
20
0
30
0
70
128
71
1
72
2
73
3
0
VERTEX
8
OBJECT__143
10
0
20
0
30
0
70
128
71
4
72
5
73
1
0
VERTEX
8
OBJECT__143
10
0
20
0
30
0
70
128
71
6
72
7
73
8
0
VERTEX
8
OBJECT__143
10
0
20
0
30
0
70
128
71
5
72
4
73
6
0
VERTEX
8
OBJECT__143
10
0
20
0
30
0
70
128
71
6
72
4
73
9
0
VERTEX
8
OBJECT__143
10
0
20
0
30
0
70
128
71
6
72
10
73
11
0
VERTEX
8
OBJECT__143
10
0
20
0
30
0
70
128
71
11
72
7
73
6
0
VERTEX
8
OBJECT__143
10
0
20
0
30
0
70
128
71
9
72
10
73
6
0
VERTEX
8
OBJECT__143
10
0
20
0
30
0
70
128
71
8
72
5
73
6
0
VERTEX
8
OBJECT__143
10
0
20
0
30
0
70
128
71
3
72
4
73
1
0
SEQEND
8
OBJECT__143
0
POLYLINE
8
OBJECT__145
66
1
70
64
71
8
72
8
62
253
0
VERTEX
8
OBJECT__145
10
83.199997
20
-56.240002
30
-1066.650024
70
192
0
VERTEX
8
OBJECT__145
10
90.699997
20
-48.740002
30
-1066.650024
70
192
0
VERTEX
8
OBJECT__145
10
90.699997
20
-48.740002
30
-1086.650024
70
192
0
VERTEX
8
OBJECT__145
10
83.199997
20
-56.240002
30
-1086.650024
70
192
0
VERTEX
8
OBJECT__145
10
90.699997
20
-63.740002
30
-1086.650024
70
192
0
VERTEX
8
OBJECT__145
10
90.699997
20
-63.740002
30
-1066.650024
70
192
0
VERTEX
8
OBJECT__145
10
98.199997
20
-56.240002
30
-1086.650024
70
192
0
VERTEX
8
OBJECT__145
10
98.199997
20
-56.240002
30
-1066.650024
70
192
0
VERTEX
8
OBJECT__145
10
0
20
0
30
0
70
128
71
1
72
2
73
3
0
VERTEX
8
OBJECT__145
10
0
20
0
30
0
70
128
71
4
72
5
73
6
0
VERTEX
8
OBJECT__145
10
0
20
0
30
0
70
128
71
7
72
8
73
6
0
VERTEX
8
OBJECT__145
10
0
20
0
30
0
70
128
71
3
72
2
73
8
0
VERTEX
8
OBJECT__145
10
0
20
0
30
0
70
128
71
8
72
7
73
3
0
VERTEX
8
OBJECT__145
10
0
20
0
30
0
70
128
71
6
72
5
73
7
0
VERTEX
8
OBJECT__145
10
0
20
0
30
0
70
128
71
6
72
1
73
4
0
VERTEX
8
OBJECT__145
10
0
20
0
30
0
70
128
71
3
72
4
73
1
0
SEQEND
8
OBJECT__145
0
POLYLINE
8
OBJECT__146
66
1
70
64
71
4
72
2
62
253
0
VERTEX
8
OBJECT__146
10
90.699997
20
-48.740002
30
-1086.650024
70
192
0
VERTEX
8
OBJECT__146
10
98.199997
20
-56.240002
30
-1086.650024
70
192
0
VERTEX
8
OBJECT__146
10
90.699997
20
-63.740002
30
-1086.650024
70
192
0
VERTEX
8
OBJECT__146
10
83.199997
20
-56.240002
30
-1086.650024
70
192
0
VERTEX
8
OBJECT__146
10
0
20
0
30
0
70
128
71
1
72
2
73
3
0
VERTEX
8
OBJECT__146
10
0
20
0
30
0
70
128
71
3
72
4
73
1
0
SEQEND
8
OBJECT__146
0
POLYLINE
8
OBJECT__148
66
1
70
64
71
10
72
10
62
253
0
VERTEX
8
OBJECT__148
10
70.699997
20
41.759998
30
-390.149994
70
192
0
VERTEX
8
OBJECT__148
10
65.053001
20
44.623001
30
-390.149994
70
192
0
VERTEX
8
OBJECT__148
10
65.053001
20
44.623001
30
-518.789001
70
192
0
VERTEX
8
OBJECT__148
10
63.700001
20
48.759998
30
-390.149994
70
192
0
VERTEX
8
OBJECT__148
10
63.700001
20
48.759998
30
-518.789001
70
192
0
VERTEX
8
OBJECT__148
10
70.699997
20
55.759998
30
-518.789001
70
192
0
VERTEX
8
OBJECT__148
10
77.699997
20
48.759998
30
-390.149994
70
192
0
VERTEX
8
OBJECT__148
10
77.699997
20
48.759998
30
-518.789001
70
192
0
VERTEX
8
OBJECT__148
10
70.699997
20
41.759998
30
-518.789001
70
192
0
VERTEX
8
OBJECT__148
10
70.699997
20
55.759998
30
-390.149994
70
192
0
VERTEX
8
OBJECT__148
10
0
20
0
30
0
70
128
71
1
72
2
73
3
0
VERTEX
8
OBJECT__148
10
0
20
0
30
0
70
128
71
4
72
5
73
3
0
VERTEX
8
OBJECT__148
10
0
20
0
30
0
70
128
71
3
72
2
73
4
0
VERTEX
8
OBJECT__148
10
0
20
0
30
0
70
128
71
6
72
5
73
4
0
VERTEX
8
OBJECT__148
10
0
20
0
30
0
70
128
71
7
72
8
73
6
0
VERTEX
8
OBJECT__148
10
0
20
0
30
0
70
128
71
1
72
9
73
8
0
VERTEX
8
OBJECT__148
10
0
20
0
30
0
70
128
71
8
72
7
73
1
0
VERTEX
8
OBJECT__148
10
0
20
0
30
0
70
128
71
6
72
10
73
7
0
VERTEX
8
OBJECT__148
10
0
20
0
30
0
70
128
71
4
72
10
73
6
0
VERTEX
8
OBJECT__148
10
0
20
0
30
0
70
128
71
3
72
9
73
1
0
SEQEND
8
OBJECT__148
0
POLYLINE
8
OBJECT__149
66
1
70
64
71
18
72
26
62
253
0
VERTEX
8
OBJECT__149
10
75.646004
20
55.759998
30
-610.833008
70
192
0
VERTEX
8
OBJECT__149
10
70.699997
20
55.759998
30
-518.789001
70
192
0
VERTEX
8
OBJECT__149
10
77.699997
20
48.759998
30
-518.789001
70
192
0
VERTEX
8
OBJECT__149
10
82.606003
20
48.759998
30
-610.083008
70
192
0
VERTEX
8
OBJECT__149
10
97.265999
20
48.759998
30
-700.325989
70
192
0
VERTEX
8
OBJECT__149
10
90.427002
20
55.759998
30
-701.817993
70
192
0
VERTEX
8
OBJECT__149
10
121.513000
20
48.759998
30
-788.479004
70
192
0
VERTEX
8
OBJECT__149
10
63.700001
20
48.759998
30
-518.789001
70
192
0
VERTEX
8
OBJECT__149
10
83.587997
20
48.759998
30
-703.309021
70
192
0
VERTEX
8
OBJECT__149
10
108.233002
20
48.759998
30
-792.911011
70
192
0
VERTEX
8
OBJECT__149
10
68.685997
20
48.759998
30
-611.583008
70
192
0
VERTEX
8
OBJECT__149
10
75.646004
20
41.759998
30
-610.833008
70
192
0
VERTEX
8
OBJECT__149
10
70.699997
20
41.759998
30
-518.789001
70
192
0
VERTEX
8
OBJECT__149
10
65.053001
20
44.623001
30
-518.789001
70
192
0
VERTEX
8
OBJECT__149
10
90.427002
20
41.759998
30
-701.817993
70
192
0
VERTEX
8
OBJECT__149
10
109.515999
20
44.623001
30
-792.481995
70
192
0
VERTEX
8
OBJECT__149
10
114.873001
20
41.759998
30
-790.695007
70
192
0
VERTEX
8
OBJECT__149
10
114.873001
20
55.759998
30
-790.695007
70
192
0
VERTEX
8
OBJECT__149
10
0
20
0
30
0
70
128
71
1
72
2
73
3
0
VERTEX
8
OBJECT__149
10
0
20
0
30
0
70
128
71
4
72
5
73
6
0
VERTEX
8
OBJECT__149
10
0
20
0
30
0
70
128
71
6
72
5
73
7
0
VERTEX
8
OBJECT__149
10
0
20
0
30
0
70
128
71
8
72
2
73
1
0
VERTEX
8
OBJECT__149
10
0
20
0
30
0
70
128
71
1
72
6
73
9
0
VERTEX
8
OBJECT__149
10
0
20
0
30
0
70
128
71
10
72
9
73
6
0
VERTEX
8
OBJECT__149
10
0
20
0
30
0
70
128
71
11
72
12
73
13
0
VERTEX
8
OBJECT__149
10
0
20
0
30
0
70
128
71
13
72
14
73
11
0
VERTEX
8
OBJECT__149
10
0
20
0
30
0
70
128
71
11
72
9
73
15
0
VERTEX
8
OBJECT__149
10
0
20
0
30
0
70
128
71
9
72
16
73
17
0
VERTEX
8
OBJECT__149
10
0
20
0
30
0
70
128
71
9
72
10
73
16
0
VERTEX
8
OBJECT__149
10
0
20
0
30
0
70
128
71
13
72
12
73
4
0
VERTEX
8
OBJECT__149
10
0
20
0
30
0
70
128
71
12
72
15
73
5
0
VERTEX
8
OBJECT__149
10
0
20
0
30
0
70
128
71
15
72
17
73
7
0
VERTEX
8
OBJECT__149
10
0
20
0
30
0
70
128
71
7
72
5
73
15
0
VERTEX
8
OBJECT__149
10
0
20
0
30
0
70
128
71
5
72
4
73
12
0
VERTEX
8
OBJECT__149
10
0
20
0
30
0
70
128
71
4
72
3
73
13
0
VERTEX
8
OBJECT__149
10
0
20
0
30
0
70
128
71
17
72
15
73
9
0
VERTEX
8
OBJECT__149
10
0
20
0
30
0
70
128
71
15
72
12
73
11
0
VERTEX
8
OBJECT__149
10
0
20
0
30
0
70
128
71
14
72
8
73
11
0
VERTEX
8
OBJECT__149
10
0
20
0
30
0
70
128
71
6
72
18
73
10
0
VERTEX
8
OBJECT__149
10
0
20
0
30
0
70
128
71
9
72
11
73
1
0
VERTEX
8
OBJECT__149
10
0
20
0
30
0
70
128
71
1
72
11
73
8
0
VERTEX
8
OBJECT__149
10
0
20
0
30
0
70
128
71
7
72
18
73
6
0
VERTEX
8
OBJECT__149
10
0
20
0
30
0
70
128
71
6
72
1
73
4
0
VERTEX
8
OBJECT__149
10
0
20
0
30
0
70
128
71
3
72
4
73
1
0
SEQEND
8
OBJECT__149
0
POLYLINE
8
OBJECT__151
66
1
70
64
71
14
72
18
62
253
0
VERTEX
8
OBJECT__151
10
109.515999
20
44.623001
30
-792.481995
70
192
0
VERTEX
8
OBJECT__151
10
108.233002
20
48.759998
30
-792.911011
70
192
0
VERTEX
8
OBJECT__151
10
125.552002
20
48.759998
30
-863.202026
70
192
0
VERTEX
8
OBJECT__151
10
132.460999
20
41.759998
30
-862.080017
70
192
0
VERTEX
8
OBJECT__151
10
114.873001
20
41.759998
30
-790.695007
70
192
0
VERTEX
8
OBJECT__151
10
132.727997
20
44.623001
30
-935.362000
70
192
0
VERTEX
8
OBJECT__151
10
131.375000
20
48.759998
30
-935.362000
70
192
0
VERTEX
8
OBJECT__151
10
121.513000
20
48.759998
30
-788.479004
70
192
0
VERTEX
8
OBJECT__151
10
145.375000
20
48.759998
30
-935.362000
70
192
0
VERTEX
8
OBJECT__151
10
139.369995
20
48.759998
30
-860.956970
70
192
0
VERTEX
8
OBJECT__151
10
132.460999
20
55.759998
30
-862.080017
70
192
0
VERTEX
8
OBJECT__151
10
138.375000
20
55.759998
30
-935.362000
70
192
0
VERTEX
8
OBJECT__151
10
114.873001
20
55.759998
30
-790.695007
70
192
0
VERTEX
8
OBJECT__151
10
138.375000
20
41.759998
30
-935.362000
70
192
0
VERTEX
8
OBJECT__151
10
0
20
0
30
0
70
128
71
1
72
2
73
3
0
VERTEX
8
OBJECT__151
10
0
20
0
30
0
70
128
71
4
72
5
73
1
0
VERTEX
8
OBJECT__151
10
0
20
0
30
0
70
128
71
6
72
4
73
3
0
VERTEX
8
OBJECT__151
10
0
20
0
30
0
70
128
71
3
72
7
73
6
0
VERTEX
8
OBJECT__151
10
0
20
0
30
0
70
128
71
8
72
5
73
4
0
VERTEX
8
OBJECT__151
10
0
20
0
30
0
70
128
71
9
72
10
73
4
0
VERTEX
8
OBJECT__151
10
0
20
0
30
0
70
128
71
8
72
10
73
11
0
VERTEX
8
OBJECT__151
10
0
20
0
30
0
70
128
71
10
72
9
73
12
0
VERTEX
8
OBJECT__151
10
0
20
0
30
0
70
128
71
13
72
11
73
3
0
VERTEX
8
OBJECT__151
10
0
20
0
30
0
70
128
71
11
72
12
73
7
0
VERTEX
8
OBJECT__151
10
0
20
0
30
0
70
128
71
7
72
3
73
11
0
VERTEX
8
OBJECT__151
10
0
20
0
30
0
70
128
71
3
72
2
73
13
0
VERTEX
8
OBJECT__151
10
0
20
0
30
0
70
128
71
12
72
11
73
10
0
VERTEX
8
OBJECT__151
10
0
20
0
30
0
70
128
71
11
72
13
73
8
0
VERTEX
8
OBJECT__151
10
0
20
0
30
0
70
128
71
4
72
14
73
9
0
VERTEX
8
OBJECT__151
10
0
20
0
30
0
70
128
71
4
72
10
73
8
0
VERTEX
8
OBJECT__151
10
0
20
0
30
0
70
128
71
6
72
14
73
4
0
VERTEX
8
OBJECT__151
10
0
20
0
30
0
70
128
71
3
72
4
73
1
0
SEQEND
8
OBJECT__151
0
POLYLINE
8
OBJECT__152
66
1
70
64
71
10
72
10
62
253
0
VERTEX
8
OBJECT__152
10
132.727997
20
44.623001
30
-935.362000
70
192
0
VERTEX
8
OBJECT__152
10
131.375000
20
48.759998
30
-935.362000
70
192
0
VERTEX
8
OBJECT__152
10
131.375000
20
48.759998
30
-950.648010
70
192
0
VERTEX
8
OBJECT__152
10
138.375000
20
41.759998
30
-950.648010
70
192
0
VERTEX
8
OBJECT__152
10
138.375000
20
41.759998
30
-935.362000
70
192
0
VERTEX
8
OBJECT__152
10
132.727997
20
44.623001
30
-950.648010
70
192
0
VERTEX
8
OBJECT__152
10
138.375000
20
55.759998
30
-950.648010
70
192
0
VERTEX
8
OBJECT__152
10
145.375000
20
48.759998
30
-935.362000
70
192
0
VERTEX
8
OBJECT__152
10
145.375000
20
48.759998
30
-950.648010
70
192
0
VERTEX
8
OBJECT__152
10
138.375000
20
55.759998
30
-935.362000
70
192
0
VERTEX
8
OBJECT__152
10
0
20
0
30
0
70
128
71
1
72
2
73
3
0
VERTEX
8
OBJECT__152
10
0
20
0
30
0
70
128
71
4
72
5
73
1
0
VERTEX
8
OBJECT__152
10
0
20
0
30
0
70
128
71
1
72
6
73
4
0
VERTEX
8
OBJECT__152
10
0
20
0
30
0
70
128
71
7
72
3
73
2
0
VERTEX
8
OBJECT__152
10
0
20
0
30
0
70
128
71
8
72
9
73
7
0
VERTEX
8
OBJECT__152
10
0
20
0
30
0
70
128
71
5
72
4
73
9
0
VERTEX
8
OBJECT__152
10
0
20
0
30
0
70
128
71
9
72
8
73
5
0
VERTEX
8
OBJECT__152
10
0
20
0
30
0
70
128
71
7
72
10
73
8
0
VERTEX
8
OBJECT__152
10
0
20
0
30
0
70
128
71
2
72
10
73
7
0
VERTEX
8
OBJECT__152
10
0
20
0
30
0
70
128
71
3
72
6
73
1
0
SEQEND
8
OBJECT__152
0
POLYLINE
8
OBJECT__153
66
1
70
64
71
14
72
18
62
253
0
VERTEX
8
OBJECT__153
10
132.727997
20
15.476000
30
-1101.121948
70
192
0
VERTEX
8
OBJECT__153
10
138.375000
20
12.820000
30
-1100.052979
70
192
0
VERTEX
8
OBJECT__153
10
138.375000
20
34.458000
30
-1026.739014
70
192
0
VERTEX
8
OBJECT__153
10
131.375000
20
41.331001
30
-1028.069946
70
192
0
VERTEX
8
OBJECT__153
10
131.375000
20
19.313999
30
-1102.666992
70
192
0
VERTEX
8
OBJECT__153
10
132.727997
20
44.623001
30
-950.648010
70
192
0
VERTEX
8
OBJECT__153
10
138.375000
20
41.759998
30
-950.648010
70
192
0
VERTEX
8
OBJECT__153
10
138.375000
20
25.808001
30
-1105.280029
70
192
0
VERTEX
8
OBJECT__153
10
138.375000
20
48.202999
30
-1029.401001
70
192
0
VERTEX
8
OBJECT__153
10
131.375000
20
48.759998
30
-950.648010
70
192
0
VERTEX
8
OBJECT__153
10
145.375000
20
41.331001
30
-1028.069946
70
192
0
VERTEX
8
OBJECT__153
10
138.375000
20
55.759998
30
-950.648010
70
192
0
VERTEX
8
OBJECT__153
10
145.375000
20
48.759998
30
-950.648010
70
192
0
VERTEX
8
OBJECT__153
10
145.375000
20
19.313999
30
-1102.666992
70
192
0
VERTEX
8
OBJECT__153
10
0
20
0
30
0
70
128
71
1
72
2
73
3
0
VERTEX
8
OBJECT__153
10
0
20
0
30
0
70
128
71
4
72
5
73
1
0
VERTEX
8
OBJECT__153
10
0
20
0
30
0
70
128
71
6
72
4
73
3
0
VERTEX
8
OBJECT__153
10
0
20
0
30
0
70
128
71
3
72
7
73
6
0
VERTEX
8
OBJECT__153
10
0
20
0
30
0
70
128
71
8
72
5
73
4
0
VERTEX
8
OBJECT__153
10
0
20
0
30
0
70
128
71
9
72
4
73
10
0
VERTEX
8
OBJECT__153
10
0
20
0
30
0
70
128
71
8
72
9
73
11
0
VERTEX
8
OBJECT__153
10
0
20
0
30
0
70
128
71
9
72
12
73
13
0
VERTEX
8
OBJECT__153
10
0
20
0
30
0
70
128
71
11
72
3
73
2
0
VERTEX
8
OBJECT__153
10
0
20
0
30
0
70
128
71
13
72
7
73
3
0
VERTEX
8
OBJECT__153
10
0
20
0
30
0
70
128
71
3
72
11
73
13
0
VERTEX
8
OBJECT__153
10
0
20
0
30
0
70
128
71
2
72
14
73
11
0
VERTEX
8
OBJECT__153
10
0
20
0
30
0
70
128
71
13
72
11
73
9
0
VERTEX
8
OBJECT__153
10
0
20
0
30
0
70
128
71
11
72
14
73
8
0
VERTEX
8
OBJECT__153
10
0
20
0
30
0
70
128
71
10
72
12
73
9
0
VERTEX
8
OBJECT__153
10
0
20
0
30
0
70
128
71
4
72
9
73
8
0
VERTEX
8
OBJECT__153
10
0
20
0
30
0
70
128
71
6
72
10
73
4
0
VERTEX
8
OBJECT__153
10
0
20
0
30
0
70
128
71
3
72
4
73
1
0
SEQEND
8
OBJECT__153
0
POLYLINE
8
OBJECT__154
66
1
70
64
71
17
72
21
62
253
0
VERTEX
8
OBJECT__154
10
138.375000
20
6.661000
30
-1109.812988
70
192
0
VERTEX
8
OBJECT__154
10
131.375000
20
11.815000
30
-1114.548950
70
192
0
VERTEX
8
OBJECT__154
10
132.727997
20
-1.256000
30
-1119.328003
70
192
0
VERTEX
8
OBJECT__154
10
131.375000
20
0.606000
30
-1123.021973
70
192
0
VERTEX
8
OBJECT__154
10
138.375000
20
12.820000
30
-1100.052979
70
192
0
VERTEX
8
OBJECT__154
10
132.727997
20
15.476000
30
-1101.121948
70
192
0
VERTEX
8
OBJECT__154
10
135.630005
20
2.522000
30
-1126.822021
70
192
0
VERTEX
8
OBJECT__154
10
138.375000
20
16.969000
30
-1119.286011
70
192
0
VERTEX
8
OBJECT__154
10
138.375000
20
3.758000
30
-1129.272949
70
192
0
VERTEX
8
OBJECT__154
10
131.375000
20
19.313999
30
-1102.666992
70
192
0
VERTEX
8
OBJECT__154
10
145.375000
20
11.815000
30
-1114.548950
70
192
0
VERTEX
8
OBJECT__154
10
145.375000
20
0.606000
30
-1123.021973
70
192
0
VERTEX
8
OBJECT__154
10
142.630005
20
1.842000
30
-1125.473022
70
192
0
VERTEX
8
OBJECT__154
10
138.375000
20
25.808001
30
-1105.280029
70
192
0
VERTEX
8
OBJECT__154
10
145.375000
20
19.313999
30
-1102.666992
70
192
0
VERTEX
8
OBJECT__154
10
138.375000
20
-2.545000
30
-1116.771973
70
192
0
VERTEX
8
OBJECT__154
10
141.119995
20
-1.309000
30
-1119.223022
70
192
0
VERTEX
8
OBJECT__154
10
0
20
0
30
0
70
128
71
1
72
2
73
3
0
VERTEX
8
OBJECT__154
10
0
20
0
30
0
70
128
71
2
72
4
73
3
0
VERTEX
8
OBJECT__154
10
0
20
0
30
0
70
128
71
1
72
5
73
6
0
VERTEX
8
OBJECT__154
10
0
20
0
30
0
70
128
71
6
72
2
73
1
0
VERTEX
8
OBJECT__154
10
0
20
0
30
0
70
128
71
7
72
4
73
2
0
VERTEX
8
OBJECT__154
10
0
20
0
30
0
70
128
71
8
72
9
73
7
0
VERTEX
8
OBJECT__154
10
0
20
0
30
0
70
128
71
8
72
2
73
10
0
VERTEX
8
OBJECT__154
10
0
20
0
30
0
70
128
71
11
72
12
73
13
0
VERTEX
8
OBJECT__154
10
0
20
0
30
0
70
128
71
13
72
8
73
11
0
VERTEX
8
OBJECT__154
10
0
20
0
30
0
70
128
71
8
72
14
73
15
0
VERTEX
8
OBJECT__154
10
0
20
0
30
0
70
128
71
1
72
16
73
17
0
VERTEX
8
OBJECT__154
10
0
20
0
30
0
70
128
71
17
72
11
73
1
0
VERTEX
8
OBJECT__154
10
0
20
0
30
0
70
128
71
11
72
15
73
5
0
VERTEX
8
OBJECT__154
10
0
20
0
30
0
70
128
71
5
72
1
73
11
0
VERTEX
8
OBJECT__154
10
0
20
0
30
0
70
128
71
17
72
12
73
11
0
VERTEX
8
OBJECT__154
10
0
20
0
30
0
70
128
71
15
72
11
73
8
0
VERTEX
8
OBJECT__154
10
0
20
0
30
0
70
128
71
13
72
9
73
8
0
VERTEX
8
OBJECT__154
10
0
20
0
30
0
70
128
71
10
72
14
73
8
0
VERTEX
8
OBJECT__154
10
0
20
0
30
0
70
128
71
2
72
8
73
7
0
VERTEX
8
OBJECT__154
10
0
20
0
30
0
70
128
71
6
72
10
73
2
0
VERTEX
8
OBJECT__154
10
0
20
0
30
0
70
128
71
3
72
16
73
1
0
SEQEND
8
OBJECT__154
0
POLYLINE
8
OBJECT__155
66
1
70
64
71
16
72
20
62
253
0
VERTEX
8
OBJECT__155
10
120.668999
20
-42.689999
30
-1125.371948
70
192
0
VERTEX
8
OBJECT__155
10
114.683998
20
-34.993999
30
-1127.089966
70
192
0
VERTEX
8
OBJECT__155
10
130.882004
20
-18.983000
30
-1127.050049
70
192
0
VERTEX
8
OBJECT__155
10
122.223999
20
-39.423000
30
-1116.156982
70
192
0
VERTEX
8
OBJECT__155
10
133.531006
20
-20.142000
30
-1124.463013
70
192
0
VERTEX
8
OBJECT__155
10
130.992996
20
-18.749001
30
-1123.451050
70
192
0
VERTEX
8
OBJECT__155
10
137.949997
20
-22.867001
30
-1131.673950
70
192
0
VERTEX
8
OBJECT__155
10
135.630005
20
2.522000
30
-1126.822021
70
192
0
VERTEX
8
OBJECT__155
10
138.375000
20
3.758000
30
-1129.272949
70
192
0
VERTEX
8
OBJECT__155
10
138.375000
20
-2.545000
30
-1116.771973
70
192
0
VERTEX
8
OBJECT__155
10
132.727997
20
-1.256000
30
-1119.328003
70
192
0
VERTEX
8
OBJECT__155
10
141.119995
20
-1.309000
30
-1119.223022
70
192
0
VERTEX
8
OBJECT__155
10
116.238998
20
-31.726999
30
-1117.875000
70
192
0
VERTEX
8
OBJECT__155
10
145.375000
20
0.606000
30
-1123.021973
70
192
0
VERTEX
8
OBJECT__155
10
142.630005
20
1.842000
30
-1125.473022
70
192
0
VERTEX
8
OBJECT__155
10
131.375000
20
0.606000
30
-1123.021973
70
192
0
VERTEX
8
OBJECT__155
10
0
20
0
30
0
70
128
71
1
72
2
73
3
0
VERTEX
8
OBJECT__155
10
0
20
0
30
0
70
128
71
4
72
5
73
6
0
VERTEX
8
OBJECT__155
10
0
20
0
30
0
70
128
71
7
72
3
73
8
0
VERTEX
8
OBJECT__155
10
0
20
0
30
0
70
128
71
8
72
9
73
7
0
VERTEX
8
OBJECT__155
10
0
20
0
30
0
70
128
71
10
72
11
73
6
0
VERTEX
8
OBJECT__155
10
0
20
0
30
0
70
128
71
5
72
12
73
10
0
VERTEX
8
OBJECT__155
10
0
20
0
30
0
70
128
71
2
72
13
73
6
0
VERTEX
8
OBJECT__155
10
0
20
0
30
0
70
128
71
1
72
7
73
5
0
VERTEX
8
OBJECT__155
10
0
20
0
30
0
70
128
71
14
72
12
73
5
0
VERTEX
8
OBJECT__155
10
0
20
0
30
0
70
128
71
7
72
15
73
14
0
VERTEX
8
OBJECT__155
10
0
20
0
30
0
70
128
71
16
72
3
73
6
0
VERTEX
8
OBJECT__155
10
0
20
0
30
0
70
128
71
6
72
11
73
16
0
VERTEX
8
OBJECT__155
10
0
20
0
30
0
70
128
71
16
72
8
73
3
0
VERTEX
8
OBJECT__155
10
0
20
0
30
0
70
128
71
5
72
7
73
14
0
VERTEX
8
OBJECT__155
10
0
20
0
30
0
70
128
71
5
72
4
73
1
0
VERTEX
8
OBJECT__155
10
0
20
0
30
0
70
128
71
6
72
3
73
2
0
VERTEX
8
OBJECT__155
10
0
20
0
30
0
70
128
71
6
72
5
73
10
0
VERTEX
8
OBJECT__155
10
0
20
0
30
0
70
128
71
9
72
15
73
7
0
VERTEX
8
OBJECT__155
10
0
20
0
30
0
70
128
71
6
72
13
73
4
0
VERTEX
8
OBJECT__155
10
0
20
0
30
0
70
128
71
3
72
7
73
1
0
SEQEND
8
OBJECT__155
0
POLYLINE
8
OBJECT__156
66
1
70
64
71
16
72
24
62
253
0
VERTEX
8
OBJECT__156
10
94.432999
20
-48.880001
30
-1113.562012
70
192
0
VERTEX
8
OBJECT__156
10
100.925003
20
-56.228001
30
-1112.199951
70
192
0
VERTEX
8
OBJECT__156
10
94.124001
20
-60.891998
30
-1102.438965
70
192
0
VERTEX
8
OBJECT__156
10
98.708000
20
-43.749001
30
-1106.255005
70
192
0
VERTEX
8
OBJECT__156
10
93.220001
20
-47.512001
30
-1098.417969
70
192
0
VERTEX
8
OBJECT__156
10
100.012001
20
-54.653999
30
-1097.496948
70
192
0
VERTEX
8
OBJECT__156
10
90.814003
20
-49.161999
30
-1089.850952
70
192
0
VERTEX
8
OBJECT__156
10
97.806000
20
-56.167000
30
-1089.671021
70
192
0
VERTEX
8
OBJECT__156
10
114.683998
20
-34.993999
30
-1127.089966
70
192
0
VERTEX
8
OBJECT__156
10
120.668999
20
-42.689999
30
-1125.371948
70
192
0
VERTEX
8
OBJECT__156
10
116.238998
20
-31.726999
30
-1117.875000
70
192
0
VERTEX
8
OBJECT__156
10
105.199997
20
-51.097000
30
-1104.891968
70
192
0
VERTEX
8
OBJECT__156
10
87.332001
20
-53.750000
30
-1103.359985
70
192
0
VERTEX
8
OBJECT__156
10
90.846001
20
-63.139999
30
-1090.637939
70
192
0
VERTEX
8
OBJECT__156
10
83.852997
20
-56.134998
30
-1090.817993
70
192
0
VERTEX
8
OBJECT__156
10
122.223999
20
-39.423000
30
-1116.156982
70
192
0
VERTEX
8
OBJECT__156
10
0
20
0
30
0
70
128
71
1
72
2
73
3
0
VERTEX
8
OBJECT__156
10
0
20
0
30
0
70
128
71
4
72
5
73
6
0
VERTEX
8
OBJECT__156
10
0
20
0
30
0
70
128
71
5
72
7
73
8
0
VERTEX
8
OBJECT__156
10
0
20
0
30
0
70
128
71
8
72
6
73
5
0
VERTEX
8
OBJECT__156
10
0
20
0
30
0
70
128
71
9
72
10
73
2
0
VERTEX
8
OBJECT__156
10
0
20
0
30
0
70
128
71
11
72
4
73
12
0
VERTEX
8
OBJECT__156
10
0
20
0
30
0
70
128
71
13
72
3
73
14
0
VERTEX
8
OBJECT__156
10
0
20
0
30
0
70
128
71
1
72
13
73
5
0
VERTEX
8
OBJECT__156
10
0
20
0
30
0
70
128
71
13
72
15
73
7
0
VERTEX
8
OBJECT__156
10
0
20
0
30
0
70
128
71
2
72
12
73
6
0
VERTEX
8
OBJECT__156
10
0
20
0
30
0
70
128
71
3
72
6
73
8
0
VERTEX
8
OBJECT__156
10
0
20
0
30
0
70
128
71
10
72
16
73
12
0
VERTEX
8
OBJECT__156
10
0
20
0
30
0
70
128
71
9
72
1
73
4
0
VERTEX
8
OBJECT__156
10
0
20
0
30
0
70
128
71
4
72
11
73
9
0
VERTEX
8
OBJECT__156
10
0
20
0
30
0
70
128
71
12
72
2
73
10
0
VERTEX
8
OBJECT__156
10
0
20
0
30
0
70
128
71
8
72
14
73
3
0
VERTEX
8
OBJECT__156
10
0
20
0
30
0
70
128
71
6
72
3
73
2
0
VERTEX
8
OBJECT__156
10
0
20
0
30
0
70
128
71
7
72
5
73
13
0
VERTEX
8
OBJECT__156
10
0
20
0
30
0
70
128
71
5
72
4
73
1
0
VERTEX
8
OBJECT__156
10
0
20
0
30
0
70
128
71
14
72
15
73
13
0
VERTEX
8
OBJECT__156
10
0
20
0
30
0
70
128
71
12
72
16
73
11
0
VERTEX
8
OBJECT__156
10
0
20
0
30
0
70
128
71
2
72
1
73
9
0
VERTEX
8
OBJECT__156
10
0
20
0
30
0
70
128
71
6
72
12
73
4
0
VERTEX
8
OBJECT__156
10
0
20
0
30
0
70
128
71
3
72
13
73
1
0
SEQEND
8
OBJECT__156
0
POLYLINE
8
OBJECT__157
66
1
70
64
71
8
72
8
62
253
0
VERTEX
8
OBJECT__157
10
83.852997
20
-56.134998
30
-1090.817993
70
192
0
VERTEX
8
OBJECT__157
10
90.846001
20
-63.139999
30
-1090.637939
70
192
0
VERTEX
8
OBJECT__157
10
90.699997
20
-63.240002
30
-1087.086060
70
192
0
VERTEX
8
OBJECT__157
10
90.814003
20
-49.161999
30
-1089.850952
70
192
0
VERTEX
8
OBJECT__157
10
90.699997
20
-49.240002
30
-1087.086060
70
192
0
VERTEX
8
OBJECT__157
10
97.699997
20
-56.240002
30
-1087.086060
70
192
0
VERTEX
8
OBJECT__157
10
83.699997
20
-56.240002
30
-1087.086060
70
192
0
VERTEX
8
OBJECT__157
10
97.806000
20
-56.167000
30
-1089.671021
70
192
0
VERTEX
8
OBJECT__157
10
0
20
0
30
0
70
128
71
1
72
2
73
3
0
VERTEX
8
OBJECT__157
10
0
20
0
30
0
70
128
71
4
72
5
73
6
0
VERTEX
8
OBJECT__157
10
0
20
0
30
0
70
128
71
1
72
7
73
5
0
VERTEX
8
OBJECT__157
10
0
20
0
30
0
70
128
71
2
72
8
73
6
0
VERTEX
8
OBJECT__157
10
0
20
0
30
0
70
128
71
6
72
3
73
2
0
VERTEX
8
OBJECT__157
10
0
20
0
30
0
70
128
71
5
72
4
73
1
0
VERTEX
8
OBJECT__157
10
0
20
0
30
0
70
128
71
6
72
8
73
4
0
VERTEX
8
OBJECT__157
10
0
20
0
30
0
70
128
71
3
72
7
73
1
0
SEQEND
8
OBJECT__157
0
POLYLINE
8
OBJECT__158
66
1
70
64
71
5
72
3
62
253
0
VERTEX
8
OBJECT__158
10
65.303001
20
-16.610001
30
-990.650024
70
192
0
VERTEX
8
OBJECT__158
10
84.830002
20
10.266000
30
-990.650024
70
192
0
VERTEX
8
OBJECT__158
10
65.303001
20
16.610001
30
-990.650024
70
192
0
VERTEX
8
OBJECT__158
10
84.830002
20
-10.266000
30
-990.650024
70
192
0
VERTEX
8
OBJECT__158
10
53.235001
20
0.000000
30
-990.650024
70
192
0
VERTEX
8
OBJECT__158
10
0
20
0
30
0
70
128
71
1
72
2
73
3
0
VERTEX
8
OBJECT__158
10
0
20
0
30
0
70
128
71
1
72
4
73
2
0
VERTEX
8
OBJECT__158
10
0
20
0
30
0
70
128
71
3
72
5
73
1
0
SEQEND
8
OBJECT__158
0
POLYLINE
8
OBJECT__159
66
1
70
64
71
26
72
26
62
253
0
VERTEX
8
OBJECT__159
10
84.830002
20
10.266000
30
-990.650024
70
192
0
VERTEX
8
OBJECT__159
10
84.830002
20
-10.266000
30
-990.650024
70
192
0
VERTEX
8
OBJECT__159
10
88.448997
20
-0.769000
30
-999.268005
70
192
0
VERTEX
8
OBJECT__159
10
84.697998
20
-10.302000
30
-1000.054016
70
192
0
VERTEX
8
OBJECT__159
10
84.052002
20
11.770000
30
-1000.203979
70
192
0
VERTEX
8
OBJECT__159
10
78.980003
20
15.831000
30
-1002.109985
70
192
0
VERTEX
8
OBJECT__159
10
84.574997
20
10.277000
30
-1000.091980
70
192
0
VERTEX
8
OBJECT__159
10
65.303001
20
16.610001
30
-990.650024
70
192
0
VERTEX
8
OBJECT__159
10
65.882004
20
17.483000
30
-1009.814026
70
192
0
VERTEX
8
OBJECT__159
10
61.237000
20
15.837000
30
-1018.814026
70
192
0
VERTEX
8
OBJECT__159
10
61.199001
20
15.889000
30
-1020.650024
70
192
0
VERTEX
8
OBJECT__159
10
53.298000
20
6.315000
30
-1020.650024
70
192
0
VERTEX
8
OBJECT__159
10
53.298000
20
0.000000
30
-1020.650024
70
192
0
VERTEX
8
OBJECT__159
10
53.235001
20
0.000000
30
-990.650024
70
192
0
VERTEX
8
OBJECT__159
10
63.744999
20
16.827999
30
-1011.948975
70
192
0
VERTEX
8
OBJECT__159
10
65.097000
20
17.242001
30
-1010.598999
70
192
0
VERTEX
8
OBJECT__159
10
61.533001
20
-15.921000
30
-1016.611023
70
192
0
VERTEX
8
OBJECT__159
10
65.108002
20
-17.205000
30
-1011.023987
70
192
0
VERTEX
8
OBJECT__159
10
61.237000
20
-15.837000
30
-1018.814026
70
192
0
VERTEX
8
OBJECT__159
10
53.298000
20
-6.315000
30
-1020.650024
70
192
0
VERTEX
8
OBJECT__159
10
61.199001
20
-15.889000
30
-1020.650024
70
192
0
VERTEX
8
OBJECT__159
10
84.052002
20
-11.770000
30
-1000.203979
70
192
0
VERTEX
8
OBJECT__159
10
84.178001
20
-11.623000
30
-1000.163025
70
192
0
VERTEX
8
OBJECT__159
10
65.303001
20
-16.610001
30
-990.650024
70
192
0
VERTEX
8
OBJECT__159
10
68.662003
20
-17.948000
30
-1007.786987
70
192
0
VERTEX
8
OBJECT__159
10
65.882004
20
-17.483000
30
-1009.814026
70
192
0
VERTEX
8
OBJECT__159
10
0
20
0
30
0
70
128
71
1
72
2
73
3
0
VERTEX
8
OBJECT__159
10
0
20
0
30
0
70
128
71
2
72
4
73
3
0
VERTEX
8
OBJECT__159
10
0
20
0
30
0
70
128
71
1
72
5
73
6
0
VERTEX
8
OBJECT__159
10
0
20
0
30
0
70
128
71
1
72
7
73
5
0
VERTEX
8
OBJECT__159
10
0
20
0
30
0
70
128
71
6
72
8
73
1
0
VERTEX
8
OBJECT__159
10
0
20
0
30
0
70
128
71
6
72
9
73
8
0
VERTEX
8
OBJECT__159
10
0
20
0
30
0
70
128
71
10
72
11
73
12
0
VERTEX
8
OBJECT__159
10
0
20
0
30
0
70
128
71
13
72
14
73
15
0
VERTEX
8
OBJECT__159
10
0
20
0
30
0
70
128
71
15
72
10
73
13
0
VERTEX
8
OBJECT__159
10
0
20
0
30
0
70
128
71
14
72
8
73
16
0
VERTEX
8
OBJECT__159
10
0
20
0
30
0
70
128
71
16
72
15
73
14
0
VERTEX
8
OBJECT__159
10
0
20
0
30
0
70
128
71
14
72
13
73
17
0
VERTEX
8
OBJECT__159
10
0
20
0
30
0
70
128
71
17
72
18
73
14
0
VERTEX
8
OBJECT__159
10
0
20
0
30
0
70
128
71
19
72
13
73
20
0
VERTEX
8
OBJECT__159
10
0
20
0
30
0
70
128
71
20
72
21
73
19
0
VERTEX
8
OBJECT__159
10
0
20
0
30
0
70
128
71
19
72
17
73
13
0
VERTEX
8
OBJECT__159
10
0
20
0
30
0
70
128
71
2
72
22
73
23
0
VERTEX
8
OBJECT__159
10
0
20
0
30
0
70
128
71
24
72
25
73
22
0
VERTEX
8
OBJECT__159
10
0
20
0
30
0
70
128
71
22
72
2
73
24
0
VERTEX
8
OBJECT__159
10
0
20
0
30
0
70
128
71
24
72
26
73
25
0
VERTEX
8
OBJECT__159
10
0
20
0
30
0
70
128
71
24
72
18
73
26
0
VERTEX
8
OBJECT__159
10
0
20
0
30
0
70
128
71
23
72
4
73
2
0
VERTEX
8
OBJECT__159
10
0
20
0
30
0
70
128
71
18
72
24
73
14
0
VERTEX
8
OBJECT__159
10
0
20
0
30
0
70
128
71
12
72
13
73
10
0
VERTEX
8
OBJECT__159
10
0
20
0
30
0
70
128
71
9
72
16
73
8
0
VERTEX
8
OBJECT__159
10
0
20
0
30
0
70
128
71
3
72
7
73
1
0
SEQEND
8
OBJECT__159
0
POLYLINE
8
OBJECT__161
66
1
70
64
71
7
72
5
62
253
0
VERTEX
8
OBJECT__161
10
61.237000
20
-55.587002
30
-1018.814026
70
192
0
VERTEX
8
OBJECT__161
10
65.108002
20
-17.205000
30
-1011.023987
70
192
0
VERTEX
8
OBJECT__161
10
61.533001
20
-15.921000
30
-1016.611023
70
192
0
VERTEX
8
OBJECT__161
10
63.696999
20
-57.518002
30
-1012.010986
70
192
0
VERTEX
8
OBJECT__161
10
65.882004
20
-17.483000
30
-1009.814026
70
192
0
VERTEX
8
OBJECT__161
10
61.237000
20
-15.837000
30
-1018.814026
70
192
0
VERTEX
8
OBJECT__161
10
65.882004
20
-58.787998
30
-1009.814026
70
192
0
VERTEX
8
OBJECT__161
10
0
20
0
30
0
70
128
71
1
72
2
73
3
0
VERTEX
8
OBJECT__161
10
0
20
0
30
0
70
128
71
1
72
4
73
5
0
VERTEX
8
OBJECT__161
10
0
20
0
30
0
70
128
71
5
72
2
73
1
0
VERTEX
8
OBJECT__161
10
0
20
0
30
0
70
128
71
3
72
6
73
1
0
VERTEX
8
OBJECT__161
10
0
20
0
30
0
70
128
71
4
72
7
73
5
0
SEQEND
8
OBJECT__161
0
POLYLINE
8
OBJECT__162
66
1
70
64
71
4
72
2
62
253
0
VERTEX
8
OBJECT__162
10
61.237000
20
-15.837000
30
-1018.814026
70
192
0
VERTEX
8
OBJECT__162
10
61.199001
20
-15.889000
30
-1020.650024
70
192
0
VERTEX
8
OBJECT__162
10
61.199001
20
-55.500000
30
-1020.650024
70
192
0
VERTEX
8
OBJECT__162
10
61.237000
20
-55.587002
30
-1018.814026
70
192
0
VERTEX
8
OBJECT__162
10
0
20
0
30
0
70
128
71
1
72
2
73
3
0
VERTEX
8
OBJECT__162
10
0
20
0
30
0
70
128
71
3
72
4
73
1
0
SEQEND
8
OBJECT__162
0
POLYLINE
8
OBJECT__163
66
1
70
64
71
15
72
15
62
253
0
VERTEX
8
OBJECT__163
10
56.090000
20
5.302000
30
-1027.761963
70
192
0
VERTEX
8
OBJECT__163
10
56.090000
20
-5.302000
30
-1027.761963
70
192
0
VERTEX
8
OBJECT__163
10
53.298000
20
0.000000
30
-1020.650024
70
192
0
VERTEX
8
OBJECT__163
10
53.298000
20
-6.315000
30
-1020.650024
70
192
0
VERTEX
8
OBJECT__163
10
53.298000
20
6.315000
30
-1020.650024
70
192
0
VERTEX
8
OBJECT__163
10
61.212002
20
15.802000
30
-1021.921021
70
192
0
VERTEX
8
OBJECT__163
10
61.648998
20
11.599000
30
-1027.281982
70
192
0
VERTEX
8
OBJECT__163
10
61.199001
20
15.889000
30
-1020.650024
70
192
0
VERTEX
8
OBJECT__163
10
61.823002
20
9.921000
30
-1029.422974
70
192
0
VERTEX
8
OBJECT__163
10
61.923000
20
3.826000
30
-1030.074951
70
192
0
VERTEX
8
OBJECT__163
10
62.009998
20
-1.505000
30
-1030.645020
70
192
0
VERTEX
8
OBJECT__163
10
61.950001
20
-3.494000
30
-1030.229980
70
192
0
VERTEX
8
OBJECT__163
10
61.703999
20
-11.561000
30
-1028.546021
70
192
0
VERTEX
8
OBJECT__163
10
61.641998
20
-12.097000
30
-1027.567993
70
192
0
VERTEX
8
OBJECT__163
10
61.199001
20
-15.889000
30
-1020.650024
70
192
0
VERTEX
8
OBJECT__163
10
0
20
0
30
0
70
128
71
1
72
2
73
3
0
VERTEX
8
OBJECT__163
10
0
20
0
30
0
70
128
71
2
72
4
73
3
0
VERTEX
8
OBJECT__163
10
0
20
0
30
0
70
128
71
5
72
6
73
7
0
VERTEX
8
OBJECT__163
10
0
20
0
30
0
70
128
71
5
72
8
73
6
0
VERTEX
8
OBJECT__163
10
0
20
0
30
0
70
128
71
1
72
7
73
9
0
VERTEX
8
OBJECT__163
10
0
20
0
30
0
70
128
71
1
72
10
73
11
0
VERTEX
8
OBJECT__163
10
0
20
0
30
0
70
128
71
11
72
2
73
1
0
VERTEX
8
OBJECT__163
10
0
20
0
30
0
70
128
71
2
72
12
73
13
0
VERTEX
8
OBJECT__163
10
0
20
0
30
0
70
128
71
4
72
2
73
14
0
VERTEX
8
OBJECT__163
10
0
20
0
30
0
70
128
71
14
72
15
73
4
0
VERTEX
8
OBJECT__163
10
0
20
0
30
0
70
128
71
13
72
14
73
2
0
VERTEX
8
OBJECT__163
10
0
20
0
30
0
70
128
71
11
72
12
73
2
0
VERTEX
8
OBJECT__163
10
0
20
0
30
0
70
128
71
9
72
10
73
1
0
VERTEX
8
OBJECT__163
10
0
20
0
30
0
70
128
71
7
72
1
73
5
0
VERTEX
8
OBJECT__163
10
0
20
0
30
0
70
128
71
3
72
5
73
1
0
SEQEND
8
OBJECT__163
0
POLYLINE
8
OBJECT__164
66
1
70
64
71
4
72
2
62
253
0
VERTEX
8
OBJECT__164
10
61.237000
20
15.837000
30
-1018.814026
70
192
0
VERTEX
8
OBJECT__164
10
61.237000
20
55.587002
30
-1018.814026
70
192
0
VERTEX
8
OBJECT__164
10
61.199001
20
55.500000
30
-1020.650024
70
192
0
VERTEX
8
OBJECT__164
10
61.199001
20
15.889000
30
-1020.650024
70
192
0
VERTEX
8
OBJECT__164
10
0
20
0
30
0
70
128
71
1
72
2
73
3
0
VERTEX
8
OBJECT__164
10
0
20
0
30
0
70
128
71
3
72
4
73
1
0
SEQEND
8
OBJECT__164
0
POLYLINE
8
OBJECT__165
66
1
70
64
71
8
72
6
62
253
0
VERTEX
8
OBJECT__165
10
65.097000
20
17.242001
30
-1010.598999
70
192
0
VERTEX
8
OBJECT__165
10
65.882004
20
17.483000
30
-1009.814026
70
192
0
VERTEX
8
OBJECT__165
10
61.487000
20
55.880001
30
-1016.818970
70
192
0
VERTEX
8
OBJECT__165
10
61.237000
20
55.587002
30
-1018.814026
70
192
0
VERTEX
8
OBJECT__165
10
61.237000
20
15.837000
30
-1018.814026
70
192
0
VERTEX
8
OBJECT__165
10
63.744999
20
16.827999
30
-1011.948975
70
192
0
VERTEX
8
OBJECT__165
10
65.882004
20
58.787998
30
-1009.814026
70
192
0
VERTEX
8
OBJECT__165
10
62.790001
20
56.742001
30
-1014.741028
70
192
0
VERTEX
8
OBJECT__165
10
0
20
0
30
0
70
128
71
1
72
2
73
3
0
VERTEX
8
OBJECT__165
10
0
20
0
30
0
70
128
71
4
72
5
73
6
0
VERTEX
8
OBJECT__165
10
0
20
0
30
0
70
128
71
6
72
1
73
4
0
VERTEX
8
OBJECT__165
10
0
20
0
30
0
70
128
71
2
72
7
73
8
0
VERTEX
8
OBJECT__165
10
0
20
0
30
0
70
128
71
8
72
3
73
2
0
VERTEX
8
OBJECT__165
10
0
20
0
30
0
70
128
71
3
72
4
73
1
0
SEQEND
8
OBJECT__165
0
POLYLINE
8
OBJECT__166
66
1
70
64
71
9
72
7
62
253
0
VERTEX
8
OBJECT__166
10
78.980003
20
15.831000
30
-1002.109985
70
192
0
VERTEX
8
OBJECT__166
10
70.865997
20
61.748001
30
-1006.344971
70
192
0
VERTEX
8
OBJECT__166
10
65.882004
20
58.787998
30
-1009.814026
70
192
0
VERTEX
8
OBJECT__166
10
83.295998
20
72.942001
30
-1000.455017
70
192
0
VERTEX
8
OBJECT__166
10
81.212997
20
70.986000
30
-1001.205994
70
192
0
VERTEX
8
OBJECT__166
10
77.867996
20
67.622002
30
-1002.599976
70
192
0
VERTEX
8
OBJECT__166
10
84.052002
20
74.217003
30
-1000.203979
70
192
0
VERTEX
8
OBJECT__166
10
65.882004
20
17.483000
30
-1009.814026
70
192
0
VERTEX
8
OBJECT__166
10
84.052002
20
11.770000
30
-1000.203979
70
192
0
VERTEX
8
OBJECT__166
10
0
20
0
30
0
70
128
71
1
72
2
73
3
0
VERTEX
8
OBJECT__166
10
0
20
0
30
0
70
128
71
1
72
4
73
5
0
VERTEX
8
OBJECT__166
10
0
20
0
30
0
70
128
71
5
72
6
73
1
0
VERTEX
8
OBJECT__166
10
0
20
0
30
0
70
128
71
6
72
2
73
1
0
VERTEX
8
OBJECT__166
10
0
20
0
30
0
70
128
71
1
72
7
73
4
0
VERTEX
8
OBJECT__166
10
0
20
0
30
0
70
128
71
3
72
8
73
1
0
VERTEX
8
OBJECT__166
10
0
20
0
30
0
70
128
71
1
72
9
73
7
0
SEQEND
8
OBJECT__166
0
POLYLINE
8
OBJECT__167
66
1
70
64
71
5
72
3
62
253
0
VERTEX
8
OBJECT__167
10
77.867996
20
74.912003
30
-1002.953979
70
192
0
VERTEX
8
OBJECT__167
10
81.212997
20
70.986000
30
-1001.205994
70
192
0
VERTEX
8
OBJECT__167
10
81.212997
20
79.681999
30
-1001.356018
70
192
0
VERTEX
8
OBJECT__167
10
77.867996
20
84.092003
30
-1003.398987
70
192
0
VERTEX
8
OBJECT__167
10
77.867996
20
67.622002
30
-1002.599976
70
192
0
VERTEX
8
OBJECT__167
10
0
20
0
30
0
70
128
71
1
72
2
73
3
0
VERTEX
8
OBJECT__167
10
0
20
0
30
0
70
128
71
3
72
4
73
1
0
VERTEX
8
OBJECT__167
10
0
20
0
30
0
70
128
71
1
72
5
73
2
0
SEQEND
8
OBJECT__167
0
POLYLINE
8
OBJECT__168
66
1
70
64
71
5
72
3
62
253
0
VERTEX
8
OBJECT__168
10
81.212997
20
79.681999
30
-1001.356018
70
192
0
VERTEX
8
OBJECT__168
10
83.295998
20
72.942001
30
-1000.455017
70
192
0
VERTEX
8
OBJECT__168
10
84.052002
20
74.217003
30
-1000.203979
70
192
0
VERTEX
8
OBJECT__168
10
81.212997
20
70.986000
30
-1001.205994
70
192
0
VERTEX
8
OBJECT__168
10
84.191002
20
75.000000
30
-1000.158997
70
192
0
VERTEX
8
OBJECT__168
10
0
20
0
30
0
70
128
71
1
72
2
73
3
0
VERTEX
8
OBJECT__168
10
0
20
0
30
0
70
128
71
1
72
4
73
2
0
VERTEX
8
OBJECT__168
10
0
20
0
30
0
70
128
71
3
72
5
73
1
0
SEQEND
8
OBJECT__168
0
POLYLINE
8
OBJECT__169
66
1
70
64
71
39
72
39
62
253
0
VERTEX
8
OBJECT__169
10
50.780998
20
66.539001
30
-1038.218994
70
192
0
VERTEX
8
OBJECT__169
10
50.780998
20
83.460999
30
-1038.218994
70
192
0
VERTEX
8
OBJECT__169
10
54.695000
20
75.027000
30
-1040.046997
70
192
0
VERTEX
8
OBJECT__169
10
54.695000
20
65.040001
30
-1037.415039
70
192
0
VERTEX
8
OBJECT__169
10
50.780998
20
64.499001
30
-1035.660034
70
192
0
VERTEX
8
OBJECT__169
10
54.695000
20
75.401001
30
-1040.145996
70
192
0
VERTEX
8
OBJECT__169
10
54.695000
20
85.414001
30
-1037.135986
70
192
0
VERTEX
8
OBJECT__169
10
50.780998
20
85.500999
30
-1035.660034
70
192
0
VERTEX
8
OBJECT__169
10
54.695000
20
86.234001
30
-1036.220947
70
192
0
VERTEX
8
OBJECT__169
10
61.237000
20
55.587002
30
-1018.814026
70
192
0
VERTEX
8
OBJECT__169
10
50.780998
20
58.261002
30
-1015.036011
70
192
0
VERTEX
8
OBJECT__169
10
54.695000
20
55.500000
30
-1020.650024
70
192
0
VERTEX
8
OBJECT__169
10
61.199001
20
55.500000
30
-1020.650024
70
192
0
VERTEX
8
OBJECT__169
10
61.487000
20
55.880001
30
-1016.818970
70
192
0
VERTEX
8
OBJECT__169
10
50.780998
20
55.988998
30
-1024.989014
70
192
0
VERTEX
8
OBJECT__169
10
54.695000
20
61.789001
30
-1034.010010
70
192
0
VERTEX
8
OBJECT__169
10
54.695000
20
57.796001
30
-1029.828979
70
192
0
VERTEX
8
OBJECT__169
10
54.695000
20
63.830002
30
-1036.146973
70
192
0
VERTEX
8
OBJECT__169
10
50.780998
20
75.000000
30
-1001.150024
70
192
0
VERTEX
8
OBJECT__169
10
70.865997
20
61.748001
30
-1006.344971
70
192
0
VERTEX
8
OBJECT__169
10
77.867996
20
67.622002
30
-1002.599976
70
192
0
VERTEX
8
OBJECT__169
10
65.882004
20
58.787998
30
-1009.814026
70
192
0
VERTEX
8
OBJECT__169
10
50.780998
20
59.754002
30
-1008.492004
70
192
0
VERTEX
8
OBJECT__169
10
62.790001
20
56.742001
30
-1014.741028
70
192
0
VERTEX
8
OBJECT__169
10
50.780998
20
90.246002
30
-1008.492004
70
192
0
VERTEX
8
OBJECT__169
10
70.394997
20
93.169998
30
-1014.049011
70
192
0
VERTEX
8
OBJECT__169
10
70.207001
20
93.379997
30
-1014.679016
70
192
0
VERTEX
8
OBJECT__169
10
70.987999
20
92.509003
30
-1012.065979
70
192
0
VERTEX
8
OBJECT__169
10
77.867996
20
84.092003
30
-1003.398987
70
192
0
VERTEX
8
OBJECT__169
10
77.867996
20
74.912003
30
-1002.953979
70
192
0
VERTEX
8
OBJECT__169
10
50.780998
20
94.011002
30
-1024.989014
70
192
0
VERTEX
8
OBJECT__169
10
54.695000
20
92.528000
30
-1029.194946
70
192
0
VERTEX
8
OBJECT__169
10
54.695000
20
88.197998
30
-1034.029053
70
192
0
VERTEX
8
OBJECT__169
10
50.780998
20
91.738998
30
-1015.036011
70
192
0
VERTEX
8
OBJECT__169
10
54.695000
20
94.500000
30
-1020.650024
70
192
0
VERTEX
8
OBJECT__169
10
69.510002
20
94.157997
30
-1017.013000
70
192
0
VERTEX
8
OBJECT__169
10
63.464001
20
94.500000
30
-1020.650024
70
192
0
VERTEX
8
OBJECT__169
10
69.199997
20
94.500000
30
-1020.650024
70
192
0
VERTEX
8
OBJECT__169
10
68.210999
20
94.500000
30
-1020.650024
70
192
0
VERTEX
8
OBJECT__169
10
0
20
0
30
0
70
128
71
1
72
2
73
3
0
VERTEX
8
OBJECT__169
10
0
20
0
30
0
70
128
71
4
72
5
73
1
0
VERTEX
8
OBJECT__169
10
0
20
0
30
0
70
128
71
3
72
4
73
1
0
VERTEX
8
OBJECT__169
10
0
20
0
30
0
70
128
71
2
72
6
73
3
0
VERTEX
8
OBJECT__169
10
0
20
0
30
0
70
128
71
7
72
6
73
2
0
VERTEX
8
OBJECT__169
10
0
20
0
30
0
70
128
71
8
72
9
73
7
0
VERTEX
8
OBJECT__169
10
0
20
0
30
0
70
128
71
2
72
8
73
7
0
VERTEX
8
OBJECT__169
10
0
20
0
30
0
70
128
71
10
72
11
73
12
0
VERTEX
8
OBJECT__169
10
0
20
0
30
0
70
128
71
12
72
13
73
10
0
VERTEX
8
OBJECT__169
10
0
20
0
30
0
70
128
71
10
72
14
73
11
0
VERTEX
8
OBJECT__169
10
0
20
0
30
0
70
128
71
12
72
11
73
15
0
VERTEX
8
OBJECT__169
10
0
20
0
30
0
70
128
71
5
72
16
73
17
0
VERTEX
8
OBJECT__169
10
0
20
0
30
0
70
128
71
5
72
18
73
16
0
VERTEX
8
OBJECT__169
10
0
20
0
30
0
70
128
71
17
72
15
73
5
0
VERTEX
8
OBJECT__169
10
0
20
0
30
0
70
128
71
15
72
17
73
12
0
VERTEX
8
OBJECT__169
10
0
20
0
30
0
70
128
71
19
72
20
73
21
0
VERTEX
8
OBJECT__169
10
0
20
0
30
0
70
128
71
19
72
22
73
20
0
VERTEX
8
OBJECT__169
10
0
20
0
30
0
70
128
71
23
72
11
73
24
0
VERTEX
8
OBJECT__169
10
0
20
0
30
0
70
128
71
22
72
19
73
23
0
VERTEX
8
OBJECT__169
10
0
20
0
30
0
70
128
71
24
72
22
73
23
0
VERTEX
8
OBJECT__169
10
0
20
0
30
0
70
128
71
25
72
26
73
27
0
VERTEX
8
OBJECT__169
10
0
20
0
30
0
70
128
71
25
72
28
73
26
0
VERTEX
8
OBJECT__169
10
0
20
0
30
0
70
128
71
19
72
29
73
28
0
VERTEX
8
OBJECT__169
10
0
20
0
30
0
70
128
71
19
72
30
73
29
0
VERTEX
8
OBJECT__169
10
0
20
0
30
0
70
128
71
28
72
25
73
19
0
VERTEX
8
OBJECT__169
10
0
20
0
30
0
70
128
71
8
72
31
73
32
0
VERTEX
8
OBJECT__169
10
0
20
0
30
0
70
128
71
32
72
33
73
8
0
VERTEX
8
OBJECT__169
10
0
20
0
30
0
70
128
71
31
72
34
73
35
0
VERTEX
8
OBJECT__169
10
0
20
0
30
0
70
128
71
35
72
32
73
31
0
VERTEX
8
OBJECT__169
10
0
20
0
30
0
70
128
71
34
72
36
73
37
0
VERTEX
8
OBJECT__169
10
0
20
0
30
0
70
128
71
36
72
38
73
39
0
VERTEX
8
OBJECT__169
10
0
20
0
30
0
70
128
71
39
72
37
73
36
0
VERTEX
8
OBJECT__169
10
0
20
0
30
0
70
128
71
34
72
27
73
36
0
VERTEX
8
OBJECT__169
10
0
20
0
30
0
70
128
71
37
72
35
73
34
0
VERTEX
8
OBJECT__169
10
0
20
0
30
0
70
128
71
33
72
9
73
8
0
VERTEX
8
OBJECT__169
10
0
20
0
30
0
70
128
71
27
72
34
73
25
0
VERTEX
8
OBJECT__169
10
0
20
0
30
0
70
128
71
21
72
30
73
19
0
VERTEX
8
OBJECT__169
10
0
20
0
30
0
70
128
71
14
72
24
73
11
0
VERTEX
8
OBJECT__169
10
0
20
0
30
0
70
128
71
4
72
18
73
5
0
SEQEND
8
OBJECT__169
0
POLYLINE
8
OBJECT__170
66
1
70
64
71
25
72
32
62
253
0
VERTEX
8
OBJECT__170
10
50.780998
20
90.246002
30
-1008.492004
70
192
0
VERTEX
8
OBJECT__170
10
51.484001
20
87.642998
30
-1010.567017
70
192
0
VERTEX
8
OBJECT__170
10
51.484001
20
75.000000
30
-1004.479004
70
192
0
VERTEX
8
OBJECT__170
10
51.484001
20
90.765999
30
-1024.248047
70
192
0
VERTEX
8
OBJECT__170
10
50.780998
20
91.738998
30
-1015.036011
70
192
0
VERTEX
8
OBJECT__170
10
50.780998
20
94.011002
30
-1024.989014
70
192
0
VERTEX
8
OBJECT__170
10
50.780998
20
85.500999
30
-1035.660034
70
192
0
VERTEX
8
OBJECT__170
10
51.484001
20
82.015999
30
-1035.219971
70
192
0
VERTEX
8
OBJECT__170
10
50.780998
20
83.460999
30
-1038.218994
70
192
0
VERTEX
8
OBJECT__170
10
50.780998
20
66.539001
30
-1038.218994
70
192
0
VERTEX
8
OBJECT__170
10
51.484001
20
67.984001
30
-1035.219971
70
192
0
VERTEX
8
OBJECT__170
10
51.484001
20
59.234001
30
-1024.248047
70
192
0
VERTEX
8
OBJECT__170
10
50.780998
20
64.499001
30
-1035.660034
70
192
0
VERTEX
8
OBJECT__170
10
50.780998
20
55.988998
30
-1024.989014
70
192
0
VERTEX
8
OBJECT__170
10
50.780998
20
58.261002
30
-1015.036011
70
192
0
VERTEX
8
OBJECT__170
10
51.484001
20
62.356998
30
-1010.567017
70
192
0
VERTEX
8
OBJECT__170
10
50.780998
20
59.754002
30
-1008.492004
70
192
0
VERTEX
8
OBJECT__170
10
50.780998
20
75.000000
30
-1001.150024
70
192
0
VERTEX
8
OBJECT__170
10
48.666000
20
86.153000
30
-1011.755981
70
192
0
VERTEX
8
OBJECT__170
10
48.666000
20
88.906998
30
-1023.823975
70
192
0
VERTEX
8
OBJECT__170
10
48.666000
20
81.189003
30
-1033.501953
70
192
0
VERTEX
8
OBJECT__170
10
48.666000
20
68.810997
30
-1033.501953
70
192
0
VERTEX
8
OBJECT__170
10
48.666000
20
61.092999
30
-1023.823975
70
192
0
VERTEX
8
OBJECT__170
10
48.666000
20
63.847000
30
-1011.755981
70
192
0
VERTEX
8
OBJECT__170
10
48.666000
20
75.000000
30
-1006.385010
70
192
0
VERTEX
8
OBJECT__170
10
0
20
0
30
0
70
128
71
1
72
2
73
3
0
VERTEX
8
OBJECT__170
10
0
20
0
30
0
70
128
71
4
72
2
73
5
0
VERTEX
8
OBJECT__170
10
0
20
0
30
0
70
128
71
2
72
1
73
5
0
VERTEX
8
OBJECT__170
10
0
20
0
30
0
70
128
71
4
72
6
73
7
0
VERTEX
8
OBJECT__170
10
0
20
0
30
0
70
128
71
7
72
8
73
4
0
VERTEX
8
OBJECT__170
10
0
20
0
30
0
70
128
71
9
72
10
73
11
0
VERTEX
8
OBJECT__170
10
0
20
0
30
0
70
128
71
12
72
11
73
13
0
VERTEX
8
OBJECT__170
10
0
20
0
30
0
70
128
71
11
72
10
73
13
0
VERTEX
8
OBJECT__170
10
0
20
0
30
0
70
128
71
12
72
14
73
15
0
VERTEX
8
OBJECT__170
10
0
20
0
30
0
70
128
71
15
72
16
73
12
0
VERTEX
8
OBJECT__170
10
0
20
0
30
0
70
128
71
17
72
18
73
3
0
VERTEX
8
OBJECT__170
10
0
20
0
30
0
70
128
71
3
72
2
73
19
0
VERTEX
8
OBJECT__170
10
0
20
0
30
0
70
128
71
4
72
20
73
19
0
VERTEX
8
OBJECT__170
10
0
20
0
30
0
70
128
71
8
72
21
73
20
0
VERTEX
8
OBJECT__170
10
0
20
0
30
0
70
128
71
8
72
11
73
22
0
VERTEX
8
OBJECT__170
10
0
20
0
30
0
70
128
71
11
72
12
73
23
0
VERTEX
8
OBJECT__170
10
0
20
0
30
0
70
128
71
12
72
16
73
24
0
VERTEX
8
OBJECT__170
10
0
20
0
30
0
70
128
71
3
72
25
73
24
0
VERTEX
8
OBJECT__170
10
0
20
0
30
0
70
128
71
24
72
16
73
3
0
VERTEX
8
OBJECT__170
10
0
20
0
30
0
70
128
71
24
72
23
73
12
0
VERTEX
8
OBJECT__170
10
0
20
0
30
0
70
128
71
23
72
22
73
11
0
VERTEX
8
OBJECT__170
10
0
20
0
30
0
70
128
71
22
72
21
73
8
0
VERTEX
8
OBJECT__170
10
0
20
0
30
0
70
128
71
20
72
4
73
8
0
VERTEX
8
OBJECT__170
10
0
20
0
30
0
70
128
71
19
72
2
73
4
0
VERTEX
8
OBJECT__170
10
0
20
0
30
0
70
128
71
19
72
25
73
3
0
VERTEX
8
OBJECT__170
10
0
20
0
30
0
70
128
71
3
72
16
73
17
0
VERTEX
8
OBJECT__170
10
0
20
0
30
0
70
128
71
15
72
17
73
16
0
VERTEX
8
OBJECT__170
10
0
20
0
30
0
70
128
71
13
72
14
73
12
0
VERTEX
8
OBJECT__170
10
0
20
0
30
0
70
128
71
11
72
8
73
9
0
VERTEX
8
OBJECT__170
10
0
20
0
30
0
70
128
71
7
72
9
73
8
0
VERTEX
8
OBJECT__170
10
0
20
0
30
0
70
128
71
5
72
6
73
4
0
VERTEX
8
OBJECT__170
10
0
20
0
30
0
70
128
71
3
72
18
73
1
0
SEQEND
8
OBJECT__170
0
POLYLINE
8
OBJECT__171
66
1
70
64
71
14
72
12
62
253
0
VERTEX
8
OBJECT__171
10
61.212002
20
15.802000
30
-1021.921021
70
192
0
VERTEX
8
OBJECT__171
10
61.199001
20
15.889000
30
-1020.650024
70
192
0
VERTEX
8
OBJECT__171
10
61.199001
20
55.500000
30
-1020.650024
70
192
0
VERTEX
8
OBJECT__171
10
62.599998
20
60.352001
30
-1033.754028
70
192
0
VERTEX
8
OBJECT__171
10
61.823002
20
9.921000
30
-1029.422974
70
192
0
VERTEX
8
OBJECT__171
10
61.648998
20
11.599000
30
-1027.281982
70
192
0
VERTEX
8
OBJECT__171
10
62.009998
20
-1.505000
30
-1030.645020
70
192
0
VERTEX
8
OBJECT__171
10
61.923000
20
3.826000
30
-1030.074951
70
192
0
VERTEX
8
OBJECT__171
10
62.599998
20
-60.352001
30
-1033.754028
70
192
0
VERTEX
8
OBJECT__171
10
61.703999
20
-11.561000
30
-1028.546021
70
192
0
VERTEX
8
OBJECT__171
10
61.950001
20
-3.494000
30
-1030.229980
70
192
0
VERTEX
8
OBJECT__171
10
61.199001
20
-55.500000
30
-1020.650024
70
192
0
VERTEX
8
OBJECT__171
10
61.199001
20
-15.889000
30
-1020.650024
70
192
0
VERTEX
8
OBJECT__171
10
61.641998
20
-12.097000
30
-1027.567993
70
192
0
VERTEX
8
OBJECT__171
10
0
20
0
30
0
70
128
71
1
72
2
73
3
0
VERTEX
8
OBJECT__171
10
0
20
0
30
0
70
128
71
4
72
5
73
6
0
VERTEX
8
OBJECT__171
10
0
20
0
30
0
70
128
71
6
72
1
73
4
0
VERTEX
8
OBJECT__171
10
0
20
0
30
0
70
128
71
4
72
7
73
8
0
VERTEX
8
OBJECT__171
10
0
20
0
30
0
70
128
71
4
72
9
73
7
0
VERTEX
8
OBJECT__171
10
0
20
0
30
0
70
128
71
9
72
10
73
11
0
VERTEX
8
OBJECT__171
10
0
20
0
30
0
70
128
71
11
72
7
73
9
0
VERTEX
8
OBJECT__171
10
0
20
0
30
0
70
128
71
8
72
5
73
4
0
VERTEX
8
OBJECT__171
10
0
20
0
30
0
70
128
71
9
72
12
73
13
0
VERTEX
8
OBJECT__171
10
0
20
0
30
0
70
128
71
13
72
14
73
9
0
VERTEX
8
OBJECT__171
10
0
20
0
30
0
70
128
71
14
72
10
73
9
0
VERTEX
8
OBJECT__171
10
0
20
0
30
0
70
128
71
3
72
4
73
1
0
SEQEND
8
OBJECT__171
0
POLYLINE
8
OBJECT__172
66
1
70
64
71
30
72
28
62
253
0
VERTEX
8
OBJECT__172
10
54.695000
20
88.197998
30
-1034.029053
70
192
0
VERTEX
8
OBJECT__172
10
54.695000
20
92.528000
30
-1029.194946
70
192
0
VERTEX
8
OBJECT__172
10
69.931000
20
93.792999
30
-1026.208008
70
192
0
VERTEX
8
OBJECT__172
10
63.464001
20
94.500000
30
-1020.650024
70
192
0
VERTEX
8
OBJECT__172
10
68.210999
20
94.500000
30
-1020.650024
70
192
0
VERTEX
8
OBJECT__172
10
54.695000
20
94.500000
30
-1020.650024
70
192
0
VERTEX
8
OBJECT__172
10
69.199997
20
94.500000
30
-1020.650024
70
192
0
VERTEX
8
OBJECT__172
10
90.678001
20
75.021004
30
-1042.150024
70
192
0
VERTEX
8
OBJECT__172
10
90.699997
20
75.000000
30
-1042.150024
70
192
0
VERTEX
8
OBJECT__172
10
78.278000
20
86.301003
30
-1037.527954
70
192
0
VERTEX
8
OBJECT__172
10
73.816002
20
75.000000
30
-1041.730957
70
192
0
VERTEX
8
OBJECT__172
10
71.819000
20
75.000000
30
-1041.625000
70
192
0
VERTEX
8
OBJECT__172
10
76.643997
20
87.787003
30
-1036.918945
70
192
0
VERTEX
8
OBJECT__172
10
71.651001
20
75.000000
30
-1041.614990
70
192
0
VERTEX
8
OBJECT__172
10
54.695000
20
75.027000
30
-1040.046997
70
192
0
VERTEX
8
OBJECT__172
10
54.695000
20
86.234001
30
-1036.220947
70
192
0
VERTEX
8
OBJECT__172
10
75.741997
20
88.594002
30
-1035.479980
70
192
0
VERTEX
8
OBJECT__172
10
54.695000
20
85.414001
30
-1037.135986
70
192
0
VERTEX
8
OBJECT__172
10
54.695000
20
75.401001
30
-1040.145996
70
192
0
VERTEX
8
OBJECT__172
10
87.570000
20
74.972000
30
-1042.135986
70
192
0
VERTEX
8
OBJECT__172
10
71.643997
20
74.941002
30
-1041.614014
70
192
0
VERTEX
8
OBJECT__172
10
63.320999
20
61.514999
30
-1034.380981
70
192
0
VERTEX
8
OBJECT__172
10
54.695000
20
65.040001
30
-1037.415039
70
192
0
VERTEX
8
OBJECT__172
10
54.695000
20
61.789001
30
-1034.010010
70
192
0
VERTEX
8
OBJECT__172
10
54.695000
20
63.830002
30
-1036.146973
70
192
0
VERTEX
8
OBJECT__172
10
61.199001
20
55.500000
30
-1020.650024
70
192
0
VERTEX
8
OBJECT__172
10
54.695000
20
55.500000
30
-1020.650024
70
192
0
VERTEX
8
OBJECT__172
10
54.695000
20
57.796001
30
-1029.828979
70
192
0
VERTEX
8
OBJECT__172
10
62.599998
20
60.352001
30
-1033.754028
70
192
0
VERTEX
8
OBJECT__172
10
75.942001
20
74.945000
30
-1041.829956
70
192
0
VERTEX
8
OBJECT__172
10
0
20
0
30
0
70
128
71
1
72
2
73
3
0
VERTEX
8
OBJECT__172
10
0
20
0
30
0
70
128
71
3
72
2
73
4
0
VERTEX
8
OBJECT__172
10
0
20
0
30
0
70
128
71
4
72
5
73
3
0
VERTEX
8
OBJECT__172
10
0
20
0
30
0
70
128
71
2
72
6
73
4
0
VERTEX
8
OBJECT__172
10
0
20
0
30
0
70
128
71
5
72
7
73
3
0
VERTEX
8
OBJECT__172
10
0
20
0
30
0
70
128
71
10
72
8
73
11
0
VERTEX
8
OBJECT__172
10
0
20
0
30
0
70
128
71
11
72
12
73
10
0
VERTEX
8
OBJECT__172
10
0
20
0
30
0
70
128
71
13
72
10
73
14
0
VERTEX
8
OBJECT__172
10
0
20
0
30
0
70
128
71
14
72
15
73
13
0
VERTEX
8
OBJECT__172
10
0
20
0
30
0
70
128
71
12
72
14
73
10
0
VERTEX
8
OBJECT__172
10
0
20
0
30
0
70
128
71
16
72
1
73
17
0
VERTEX
8
OBJECT__172
10
0
20
0
30
0
70
128
71
13
72
18
73
16
0
VERTEX
8
OBJECT__172
10
0
20
0
30
0
70
128
71
13
72
19
73
18
0
VERTEX
8
OBJECT__172
10
0
20
0
30
0
70
128
71
13
72
15
73
19
0
VERTEX
8
OBJECT__172
10
0
20
0
30
0
70
128
71
17
72
13
73
16
0
VERTEX
8
OBJECT__172
10
0
20
0
30
0
70
128
71
11
72
9
73
20
0
VERTEX
8
OBJECT__172
10
0
20
0
30
0
70
128
71
21
72
22
73
23
0
VERTEX
8
OBJECT__172
10
0
20
0
30
0
70
128
71
15
72
14
73
21
0
VERTEX
8
OBJECT__172
10
0
20
0
30
0
70
128
71
22
72
24
73
25
0
VERTEX
8
OBJECT__172
10
0
20
0
30
0
70
128
71
25
72
23
73
22
0
VERTEX
8
OBJECT__172
10
0
20
0
30
0
70
128
71
26
72
27
73
28
0
VERTEX
8
OBJECT__172
10
0
20
0
30
0
70
128
71
28
72
29
73
26
0
VERTEX
8
OBJECT__172
10
0
20
0
30
0
70
128
71
24
72
22
73
29
0
VERTEX
8
OBJECT__172
10
0
20
0
30
0
70
128
71
28
72
24
73
29
0
VERTEX
8
OBJECT__172
10
0
20
0
30
0
70
128
71
23
72
15
73
21
0
VERTEX
8
OBJECT__172
10
0
20
0
30
0
70
128
71
20
72
30
73
11
0
VERTEX
8
OBJECT__172
10
0
20
0
30
0
70
128
71
9
72
11
73
8
0
VERTEX
8
OBJECT__172
10
0
20
0
30
0
70
128
71
3
72
17
73
1
0
SEQEND
8
OBJECT__172
0
POLYLINE
8
OBJECT__173
66
1
70
64
71
25
72
23
62
253
0
VERTEX
8
OBJECT__173
10
54.695000
20
-86.669998
30
-1031.671997
70
192
0
VERTEX
8
OBJECT__173
10
54.695000
20
-75.000000
30
-1040.150024
70
192
0
VERTEX
8
OBJECT__173
10
71.651001
20
-75.000000
30
-1041.614990
70
192
0
VERTEX
8
OBJECT__173
10
78.810997
20
-86.026001
30
-1037.177002
70
192
0
VERTEX
8
OBJECT__173
10
76.196999
20
-88.253998
30
-1034.878052
70
192
0
VERTEX
8
OBJECT__173
10
71.819000
20
-75.000000
30
-1041.625000
70
192
0
VERTEX
8
OBJECT__173
10
73.816002
20
-75.000000
30
-1041.730957
70
192
0
VERTEX
8
OBJECT__173
10
82.720001
20
-82.695999
30
-1040.614014
70
192
0
VERTEX
8
OBJECT__173
10
90.699997
20
-75.000000
30
-1042.150024
70
192
0
VERTEX
8
OBJECT__173
10
90.678001
20
-75.021004
30
-1042.150024
70
192
0
VERTEX
8
OBJECT__173
10
54.695000
20
-93.545998
30
-1026.676025
70
192
0
VERTEX
8
OBJECT__173
10
71.919998
20
-91.898003
30
-1031.116943
70
192
0
VERTEX
8
OBJECT__173
10
63.464001
20
-94.500000
30
-1020.650024
70
192
0
VERTEX
8
OBJECT__173
10
54.695000
20
-94.500000
30
-1020.650024
70
192
0
VERTEX
8
OBJECT__173
10
69.199997
20
-94.500000
30
-1020.650024
70
192
0
VERTEX
8
OBJECT__173
10
68.210999
20
-94.500000
30
-1020.650024
70
192
0
VERTEX
8
OBJECT__173
10
63.467999
20
-94.500000
30
-1020.650024
70
192
0
VERTEX
8
OBJECT__173
10
54.695000
20
-56.453999
30
-1026.676025
70
192
0
VERTEX
8
OBJECT__173
10
54.695000
20
-55.500000
30
-1020.650024
70
192
0
VERTEX
8
OBJECT__173
10
62.599998
20
-60.352001
30
-1033.754028
70
192
0
VERTEX
8
OBJECT__173
10
54.695000
20
-63.330002
30
-1031.671997
70
192
0
VERTEX
8
OBJECT__173
10
61.199001
20
-55.500000
30
-1020.650024
70
192
0
VERTEX
8
OBJECT__173
10
62.984001
20
-61.341999
30
-1034.714966
70
192
0
VERTEX
8
OBJECT__173
10
63.834999
20
-63.536999
30
-1036.844971
70
192
0
VERTEX
8
OBJECT__173
10
87.570000
20
-74.972000
30
-1042.135986
70
192
0
VERTEX
8
OBJECT__173
10
0
20
0
30
0
70
128
71
1
72
2
73
3
0
VERTEX
8
OBJECT__173
10
0
20
0
30
0
70
128
71
3
72
4
73
5
0
VERTEX
8
OBJECT__173
10
0
20
0
30
0
70
128
71
4
72
6
73
7
0
VERTEX
8
OBJECT__173
10
0
20
0
30
0
70
128
71
4
72
3
73
6
0
VERTEX
8
OBJECT__173
10
0
20
0
30
0
70
128
71
7
72
8
73
4
0
VERTEX
8
OBJECT__173
10
0
20
0
30
0
70
128
71
7
72
9
73
10
0
VERTEX
8
OBJECT__173
10
0
20
0
30
0
70
128
71
10
72
8
73
7
0
VERTEX
8
OBJECT__173
10
0
20
0
30
0
70
128
71
3
72
5
73
1
0
VERTEX
8
OBJECT__173
10
0
20
0
30
0
70
128
71
11
72
12
73
13
0
VERTEX
8
OBJECT__173
10
0
20
0
30
0
70
128
71
13
72
14
73
11
0
VERTEX
8
OBJECT__173
10
0
20
0
30
0
70
128
71
12
72
15
73
16
0
VERTEX
8
OBJECT__173
10
0
20
0
30
0
70
128
71
16
72
17
73
12
0
VERTEX
8
OBJECT__173
10
0
20
0
30
0
70
128
71
17
72
13
73
12
0
VERTEX
8
OBJECT__173
10
0
20
0
30
0
70
128
71
1
72
5
73
12
0
VERTEX
8
OBJECT__173
10
0
20
0
30
0
70
128
71
20
72
21
73
18
0
VERTEX
8
OBJECT__173
10
0
20
0
30
0
70
128
71
18
72
22
73
20
0
VERTEX
8
OBJECT__173
10
0
20
0
30
0
70
128
71
19
72
22
73
18
0
VERTEX
8
OBJECT__173
10
0
20
0
30
0
70
128
71
21
72
23
73
24
0
VERTEX
8
OBJECT__173
10
0
20
0
30
0
70
128
71
24
72
2
73
21
0
VERTEX
8
OBJECT__173
10
0
20
0
30
0
70
128
71
9
72
7
73
25
0
VERTEX
8
OBJECT__173
10
0
20
0
30
0
70
128
71
24
72
3
73
2
0
VERTEX
8
OBJECT__173
10
0
20
0
30
0
70
128
71
20
72
23
73
21
0
VERTEX
8
OBJECT__173
10
0
20
0
30
0
70
128
71
11
72
1
73
12
0
SEQEND
8
OBJECT__173
0
POLYLINE
8
OBJECT__174
66
1
70
64
71
10
72
8
62
253
0
VERTEX
8
OBJECT__174
10
62.984001
20
-61.341999
30
-1034.714966
70
192
0
VERTEX
8
OBJECT__174
10
63.320999
20
61.514999
30
-1034.380981
70
192
0
VERTEX
8
OBJECT__174
10
71.643997
20
74.941002
30
-1041.614014
70
192
0
VERTEX
8
OBJECT__174
10
62.599998
20
-60.352001
30
-1033.754028
70
192
0
VERTEX
8
OBJECT__174
10
62.599998
20
60.352001
30
-1033.754028
70
192
0
VERTEX
8
OBJECT__174
10
71.819000
20
75.000000
30
-1041.625000
70
192
0
VERTEX
8
OBJECT__174
10
63.834999
20
-63.536999
30
-1036.844971
70
192
0
VERTEX
8
OBJECT__174
10
71.819000
20
-75.000000
30
-1041.625000
70
192
0
VERTEX
8
OBJECT__174
10
71.651001
20
-75.000000
30
-1041.614990
70
192
0
VERTEX
8
OBJECT__174
10
71.651001
20
75.000000
30
-1041.614990
70
192
0
VERTEX
8
OBJECT__174
10
0
20
0
30
0
70
128
71
1
72
2
73
3
0
VERTEX
8
OBJECT__174
10
0
20
0
30
0
70
128
71
1
72
4
73
5
0
VERTEX
8
OBJECT__174
10
0
20
0
30
0
70
128
71
5
72
2
73
1
0
VERTEX
8
OBJECT__174
10
0
20
0
30
0
70
128
71
6
72
7
73
1
0
VERTEX
8
OBJECT__174
10
0
20
0
30
0
70
128
71
8
72
9
73
7
0
VERTEX
8
OBJECT__174
10
0
20
0
30
0
70
128
71
7
72
6
73
8
0
VERTEX
8
OBJECT__174
10
0
20
0
30
0
70
128
71
3
72
6
73
1
0
VERTEX
8
OBJECT__174
10
0
20
0
30
0
70
128
71
3
72
10
73
6
0
SEQEND
8
OBJECT__174
0
POLYLINE
8
OBJECT__175
66
1
70
64
71
15
72
13
62
253
0
VERTEX
8
OBJECT__175
10
90.699997
20
-75.000000
30
-1042.150024
70
192
0
VERTEX
8
OBJECT__175
10
87.570000
20
-74.972000
30
-1042.135986
70
192
0
VERTEX
8
OBJECT__175
10
89.052002
20
-71.629997
30
-1042.145996
70
192
0
VERTEX
8
OBJECT__175
10
90.699997
20
-71.718002
30
-1042.150024
70
192
0
VERTEX
8
OBJECT__175
10
76.765999
20
-63.014000
30
-1041.864014
70
192
0
VERTEX
8
OBJECT__175
10
73.816002
20
-75.000000
30
-1041.730957
70
192
0
VERTEX
8
OBJECT__175
10
71.819000
20
-75.000000
30
-1041.625000
70
192
0
VERTEX
8
OBJECT__175
10
71.819000
20
75.000000
30
-1041.625000
70
192
0
VERTEX
8
OBJECT__175
10
77.556000
20
-48.041000
30
-1041.895996
70
192
0
VERTEX
8
OBJECT__175
10
77.117996
20
-56.341000
30
-1041.878052
70
192
0
VERTEX
8
OBJECT__175
10
90.699997
20
-40.762001
30
-1042.150024
70
192
0
VERTEX
8
OBJECT__175
10
87.570000
20
74.972000
30
-1042.135986
70
192
0
VERTEX
8
OBJECT__175
10
90.699997
20
75.000000
30
-1042.150024
70
192
0
VERTEX
8
OBJECT__175
10
75.942001
20
74.945000
30
-1041.829956
70
192
0
VERTEX
8
OBJECT__175
10
73.816002
20
75.000000
30
-1041.730957
70
192
0
VERTEX
8
OBJECT__175
10
0
20
0
30
0
70
128
71
1
72
2
73
3
0
VERTEX
8
OBJECT__175
10
0
20
0
30
0
70
128
71
5
72
3
73
2
0
VERTEX
8
OBJECT__175
10
0
20
0
30
0
70
128
71
2
72
6
73
5
0
VERTEX
8
OBJECT__175
10
0
20
0
30
0
70
128
71
6
72
7
73
5
0
VERTEX
8
OBJECT__175
10
0
20
0
30
0
70
128
71
7
72
8
73
9
0
VERTEX
8
OBJECT__175
10
0
20
0
30
0
70
128
71
9
72
10
73
7
0
VERTEX
8
OBJECT__175
10
0
20
0
30
0
70
128
71
10
72
5
73
7
0
VERTEX
8
OBJECT__175
10
0
20
0
30
0
70
128
71
11
72
12
73
13
0
VERTEX
8
OBJECT__175
10
0
20
0
30
0
70
128
71
14
72
12
73
11
0
VERTEX
8
OBJECT__175
10
0
20
0
30
0
70
128
71
11
72
9
73
14
0
VERTEX
8
OBJECT__175
10
0
20
0
30
0
70
128
71
9
72
8
73
15
0
VERTEX
8
OBJECT__175
10
0
20
0
30
0
70
128
71
15
72
14
73
9
0
VERTEX
8
OBJECT__175
10
0
20
0
30
0
70
128
71
3
72
4
73
1
0
SEQEND
8
OBJECT__175
0
POLYLINE
8
OBJECT__176
66
1
70
64
71
21
72
21
62
253
0
VERTEX
8
OBJECT__176
10
89.052002
20
-71.629997
30
-1042.145996
70
192
0
VERTEX
8
OBJECT__176
10
76.765999
20
-63.014000
30
-1041.864014
70
192
0
VERTEX
8
OBJECT__176
10
77.709999
20
-63.740002
30
-1051.270020
70
192
0
VERTEX
8
OBJECT__176
10
90.699997
20
-71.239998
30
-1051.270020
70
192
0
VERTEX
8
OBJECT__176
10
90.699997
20
-71.718002
30
-1042.150024
70
192
0
VERTEX
8
OBJECT__176
10
77.709999
20
-56.240002
30
-1051.270020
70
192
0
VERTEX
8
OBJECT__176
10
77.117996
20
-56.341000
30
-1041.878052
70
192
0
VERTEX
8
OBJECT__176
10
77.556000
20
-48.041000
30
-1041.895996
70
192
0
VERTEX
8
OBJECT__176
10
77.709999
20
-48.740002
30
-1051.270020
70
192
0
VERTEX
8
OBJECT__176
10
90.699997
20
-40.762001
30
-1042.150024
70
192
0
VERTEX
8
OBJECT__176
10
90.699997
20
-41.240002
30
-1051.270020
70
192
0
VERTEX
8
OBJECT__176
10
103.690002
20
-48.740002
30
-1051.270020
70
192
0
VERTEX
8
OBJECT__176
10
94.819000
20
-41.299000
30
-1041.751953
70
192
0
VERTEX
8
OBJECT__176
10
103.119003
20
-46.659000
30
-1038.201050
70
192
0
VERTEX
8
OBJECT__176
10
103.690002
20
-56.240002
30
-1051.270020
70
192
0
VERTEX
8
OBJECT__176
10
103.320999
20
-47.390999
30
-1038.024048
70
192
0
VERTEX
8
OBJECT__176
10
105.822998
20
-56.426998
30
-1035.844971
70
192
0
VERTEX
8
OBJECT__176
10
106.379997
20
-58.438999
30
-1035.359985
70
192
0
VERTEX
8
OBJECT__176
10
103.197998
20
-64.255997
30
-1037.864014
70
192
0
VERTEX
8
OBJECT__176
10
103.690002
20
-63.740002
30
-1051.270020
70
192
0
VERTEX
8
OBJECT__176
10
101.307999
20
-67.711998
30
-1039.350952
70
192
0
VERTEX
8
OBJECT__176
10
0
20
0
30
0
70
128
71
1
72
2
73
3
0
VERTEX
8
OBJECT__176
10
0
20
0
30
0
70
128
71
4
72
5
73
1
0
VERTEX
8
OBJECT__176
10
0
20
0
30
0
70
128
71
6
72
3
73
2
0
VERTEX
8
OBJECT__176
10
0
20
0
30
0
70
128
71
2
72
7
73
6
0
VERTEX
8
OBJECT__176
10
0
20
0
30
0
70
128
71
7
72
8
73
9
0
VERTEX
8
OBJECT__176
10
0
20
0
30
0
70
128
71
8
72
10
73
11
0
VERTEX
8
OBJECT__176
10
0
20
0
30
0
70
128
71
11
72
9
73
8
0
VERTEX
8
OBJECT__176
10
0
20
0
30
0
70
128
71
12
72
11
73
13
0
VERTEX
8
OBJECT__176
10
0
20
0
30
0
70
128
71
13
72
14
73
12
0
VERTEX
8
OBJECT__176
10
0
20
0
30
0
70
128
71
15
72
12
73
16
0
VERTEX
8
OBJECT__176
10
0
20
0
30
0
70
128
71
16
72
17
73
15
0
VERTEX
8
OBJECT__176
10
0
20
0
30
0
70
128
71
11
72
10
73
13
0
VERTEX
8
OBJECT__176
10
0
20
0
30
0
70
128
71
15
72
18
73
19
0
VERTEX
8
OBJECT__176
10
0
20
0
30
0
70
128
71
15
72
17
73
18
0
VERTEX
8
OBJECT__176
10
0
20
0
30
0
70
128
71
20
72
21
73
5
0
VERTEX
8
OBJECT__176
10
0
20
0
30
0
70
128
71
20
72
19
73
21
0
VERTEX
8
OBJECT__176
10
0
20
0
30
0
70
128
71
5
72
4
73
20
0
VERTEX
8
OBJECT__176
10
0
20
0
30
0
70
128
71
19
72
20
73
15
0
VERTEX
8
OBJECT__176
10
0
20
0
30
0
70
128
71
14
72
16
73
12
0
VERTEX
8
OBJECT__176
10
0
20
0
30
0
70
128
71
9
72
6
73
7
0
VERTEX
8
OBJECT__176
10
0
20
0
30
0
70
128
71
3
72
4
73
1
0
SEQEND
8
OBJECT__176
0
POLYLINE
8
OBJECT__177
66
1
70
64
71
14
72
14
62
253
0
VERTEX
8
OBJECT__177
10
77.709999
20
-63.740002
30
-1051.270020
70
192
0
VERTEX
8
OBJECT__177
10
80.348000
20
-62.216000
30
-1054.161011
70
192
0
VERTEX
8
OBJECT__177
10
90.699997
20
-68.193001
30
-1054.161011
70
192
0
VERTEX
8
OBJECT__177
10
80.348000
20
-50.264000
30
-1054.161011
70
192
0
VERTEX
8
OBJECT__177
10
77.709999
20
-56.240002
30
-1051.270020
70
192
0
VERTEX
8
OBJECT__177
10
90.699997
20
-41.240002
30
-1051.270020
70
192
0
VERTEX
8
OBJECT__177
10
90.699997
20
-44.286999
30
-1054.161011
70
192
0
VERTEX
8
OBJECT__177
10
103.690002
20
-48.740002
30
-1051.270020
70
192
0
VERTEX
8
OBJECT__177
10
101.052002
20
-50.264000
30
-1054.161011
70
192
0
VERTEX
8
OBJECT__177
10
103.690002
20
-56.240002
30
-1051.270020
70
192
0
VERTEX
8
OBJECT__177
10
101.052002
20
-62.216000
30
-1054.161011
70
192
0
VERTEX
8
OBJECT__177
10
90.699997
20
-71.239998
30
-1051.270020
70
192
0
VERTEX
8
OBJECT__177
10
103.690002
20
-63.740002
30
-1051.270020
70
192
0
VERTEX
8
OBJECT__177
10
77.709999
20
-48.740002
30
-1051.270020
70
192
0
VERTEX
8
OBJECT__177
10
0
20
0
30
0
70
128
71
1
72
2
73
3
0
VERTEX
8
OBJECT__177
10
0
20
0
30
0
70
128
71
4
72
2
73
5
0
VERTEX
8
OBJECT__177
10
0
20
0
30
0
70
128
71
2
72
1
73
5
0
VERTEX
8
OBJECT__177
10
0
20
0
30
0
70
128
71
6
72
7
73
4
0
VERTEX
8
OBJECT__177
10
0
20
0
30
0
70
128
71
8
72
9
73
7
0
VERTEX
8
OBJECT__177
10
0
20
0
30
0
70
128
71
9
72
8
73
10
0
VERTEX
8
OBJECT__177
10
0
20
0
30
0
70
128
71
10
72
11
73
9
0
VERTEX
8
OBJECT__177
10
0
20
0
30
0
70
128
71
12
72
3
73
11
0
VERTEX
8
OBJECT__177
10
0
20
0
30
0
70
128
71
11
72
13
73
12
0
VERTEX
8
OBJECT__177
10
0
20
0
30
0
70
128
71
10
72
13
73
11
0
VERTEX
8
OBJECT__177
10
0
20
0
30
0
70
128
71
7
72
6
73
8
0
VERTEX
8
OBJECT__177
10
0
20
0
30
0
70
128
71
4
72
14
73
6
0
VERTEX
8
OBJECT__177
10
0
20
0
30
0
70
128
71
5
72
14
73
4
0
VERTEX
8
OBJECT__177
10
0
20
0
30
0
70
128
71
3
72
12
73
1
0
SEQEND
8
OBJECT__177
0
POLYLINE
8
OBJECT__178
66
1
70
64
71
33
72
33
62
253
0
VERTEX
8
OBJECT__178
10
54.693001
20
-75.000000
30
-1040.150024
70
192
0
VERTEX
8
OBJECT__178
10
54.693001
20
-59.754002
30
-1032.807983
70
192
0
VERTEX
8
OBJECT__178
10
54.695000
20
-63.330002
30
-1031.671997
70
192
0
VERTEX
8
OBJECT__178
10
54.693001
20
-58.261002
30
-1026.264038
70
192
0
VERTEX
8
OBJECT__178
10
54.695000
20
-56.453999
30
-1026.676025
70
192
0
VERTEX
8
OBJECT__178
10
54.693001
20
-90.246002
30
-1032.807983
70
192
0
VERTEX
8
OBJECT__178
10
54.695000
20
-86.669998
30
-1031.671997
70
192
0
VERTEX
8
OBJECT__178
10
54.693001
20
-91.738998
30
-1026.264038
70
192
0
VERTEX
8
OBJECT__178
10
54.695000
20
-93.545998
30
-1026.676025
70
192
0
VERTEX
8
OBJECT__178
10
54.695000
20
-75.000000
30
-1040.150024
70
192
0
VERTEX
8
OBJECT__178
10
70.938004
20
-92.550003
30
-1014.192017
70
192
0
VERTEX
8
OBJECT__178
10
63.467999
20
-94.500000
30
-1020.650024
70
192
0
VERTEX
8
OBJECT__178
10
68.210999
20
-94.500000
30
-1020.650024
70
192
0
VERTEX
8
OBJECT__178
10
63.464001
20
-94.500000
30
-1020.650024
70
192
0
VERTEX
8
OBJECT__178
10
54.695000
20
-94.500000
30
-1020.650024
70
192
0
VERTEX
8
OBJECT__178
10
54.693001
20
-94.011002
30
-1016.310974
70
192
0
VERTEX
8
OBJECT__178
10
76.042999
20
-86.525002
30
-1004.921021
70
192
0
VERTEX
8
OBJECT__178
10
54.693001
20
-85.500999
30
-1005.640015
70
192
0
VERTEX
8
OBJECT__178
10
76.093002
20
-86.459000
30
-1004.879028
70
192
0
VERTEX
8
OBJECT__178
10
72.103996
20
-91.241997
30
-1009.859009
70
192
0
VERTEX
8
OBJECT__178
10
69.199997
20
-94.500000
30
-1020.650024
70
192
0
VERTEX
8
OBJECT__178
10
54.693001
20
-83.460999
30
-1003.080994
70
192
0
VERTEX
8
OBJECT__178
10
77.867996
20
-84.092003
30
-1003.398987
70
192
0
VERTEX
8
OBJECT__178
10
77.867996
20
-67.622002
30
-1002.599976
70
192
0
VERTEX
8
OBJECT__178
10
54.693001
20
-66.539001
30
-1003.080994
70
192
0
VERTEX
8
OBJECT__178
10
73.024002
20
-64.051003
30
-1005.515015
70
192
0
VERTEX
8
OBJECT__178
10
54.693001
20
-64.499001
30
-1005.640015
70
192
0
VERTEX
8
OBJECT__178
10
54.693001
20
-55.988998
30
-1016.310974
70
192
0
VERTEX
8
OBJECT__178
10
54.695000
20
-55.500000
30
-1020.650024
70
192
0
VERTEX
8
OBJECT__178
10
61.237000
20
-55.587002
30
-1018.814026
70
192
0
VERTEX
8
OBJECT__178
10
61.199001
20
-55.500000
30
-1020.650024
70
192
0
VERTEX
8
OBJECT__178
10
63.696999
20
-57.518002
30
-1012.010986
70
192
0
VERTEX
8
OBJECT__178
10
65.882004
20
-58.787998
30
-1009.814026
70
192
0
VERTEX
8
OBJECT__178
10
0
20
0
30
0
70
128
71
1
72
2
73
3
0
VERTEX
8
OBJECT__178
10
0
20
0
30
0
70
128
71
3
72
2
73
4
0
VERTEX
8
OBJECT__178
10
0
20
0
30
0
70
128
71
4
72
5
73
3
0
VERTEX
8
OBJECT__178
10
0
20
0
30
0
70
128
71
6
72
1
73
7
0
VERTEX
8
OBJECT__178
10
0
20
0
30
0
70
128
71
7
72
8
73
6
0
VERTEX
8
OBJECT__178
10
0
20
0
30
0
70
128
71
7
72
9
73
8
0
VERTEX
8
OBJECT__178
10
0
20
0
30
0
70
128
71
1
72
10
73
7
0
VERTEX
8
OBJECT__178
10
0
20
0
30
0
70
128
71
11
72
12
73
13
0
VERTEX
8
OBJECT__178
10
0
20
0
30
0
70
128
71
11
72
14
73
12
0
VERTEX
8
OBJECT__178
10
0
20
0
30
0
70
128
71
15
72
14
73
11
0
VERTEX
8
OBJECT__178
10
0
20
0
30
0
70
128
71
16
72
8
73
15
0
VERTEX
8
OBJECT__178
10
0
20
0
30
0
70
128
71
15
72
17
73
16
0
VERTEX
8
OBJECT__178
10
0
20
0
30
0
70
128
71
17
72
18
73
16
0
VERTEX
8
OBJECT__178
10
0
20
0
30
0
70
128
71
17
72
19
73
18
0
VERTEX
8
OBJECT__178
10
0
20
0
30
0
70
128
71
15
72
20
73
17
0
VERTEX
8
OBJECT__178
10
0
20
0
30
0
70
128
71
15
72
11
73
20
0
VERTEX
8
OBJECT__178
10
0
20
0
30
0
70
128
71
13
72
21
73
11
0
VERTEX
8
OBJECT__178
10
0
20
0
30
0
70
128
71
8
72
9
73
15
0
VERTEX
8
OBJECT__178
10
0
20
0
30
0
70
128
71
22
72
18
73
19
0
VERTEX
8
OBJECT__178
10
0
20
0
30
0
70
128
71
22
72
23
73
24
0
VERTEX
8
OBJECT__178
10
0
20
0
30
0
70
128
71
24
72
25
73
22
0
VERTEX
8
OBJECT__178
10
0
20
0
30
0
70
128
71
25
72
24
73
26
0
VERTEX
8
OBJECT__178
10
0
20
0
30
0
70
128
71
26
72
27
73
25
0
VERTEX
8
OBJECT__178
10
0
20
0
30
0
70
128
71
4
72
28
73
29
0
VERTEX
8
OBJECT__178
10
0
20
0
30
0
70
128
71
29
72
28
73
30
0
VERTEX
8
OBJECT__178
10
0
20
0
30
0
70
128
71
30
72
31
73
29
0
VERTEX
8
OBJECT__178
10
0
20
0
30
0
70
128
71
28
72
27
73
32
0
VERTEX
8
OBJECT__178
10
0
20
0
30
0
70
128
71
32
72
30
73
28
0
VERTEX
8
OBJECT__178
10
0
20
0
30
0
70
128
71
27
72
26
73
33
0
VERTEX
8
OBJECT__178
10
0
20
0
30
0
70
128
71
33
72
32
73
27
0
VERTEX
8
OBJECT__178
10
0
20
0
30
0
70
128
71
29
72
5
73
4
0
VERTEX
8
OBJECT__178
10
0
20
0
30
0
70
128
71
19
72
23
73
22
0
VERTEX
8
OBJECT__178
10
0
20
0
30
0
70
128
71
3
72
10
73
1
0
SEQEND
8
OBJECT__178
0
POLYLINE
8
OBJECT__179
66
1
70
64
71
9
72
7
62
253
0
VERTEX
8
OBJECT__179
10
68.662003
20
-17.948000
30
-1007.786987
70
192
0
VERTEX
8
OBJECT__179
10
65.882004
20
-17.483000
30
-1009.814026
70
192
0
VERTEX
8
OBJECT__179
10
65.882004
20
-58.787998
30
-1009.814026
70
192
0
VERTEX
8
OBJECT__179
10
84.052002
20
-11.770000
30
-1000.203979
70
192
0
VERTEX
8
OBJECT__179
10
77.867996
20
-67.622002
30
-1002.599976
70
192
0
VERTEX
8
OBJECT__179
10
81.212997
20
-70.986000
30
-1001.205994
70
192
0
VERTEX
8
OBJECT__179
10
73.024002
20
-64.051003
30
-1005.515015
70
192
0
VERTEX
8
OBJECT__179
10
83.926003
20
-73.910004
30
-1000.244995
70
192
0
VERTEX
8
OBJECT__179
10
84.052002
20
-74.217003
30
-1000.203979
70
192
0
VERTEX
8
OBJECT__179
10
0
20
0
30
0
70
128
71
1
72
2
73
3
0
VERTEX
8
OBJECT__179
10
0
20
0
30
0
70
128
71
4
72
5
73
6
0
VERTEX
8
OBJECT__179
10
0
20
0
30
0
70
128
71
4
72
1
73
7
0
VERTEX
8
OBJECT__179
10
0
20
0
30
0
70
128
71
7
72
5
73
4
0
VERTEX
8
OBJECT__179
10
0
20
0
30
0
70
128
71
6
72
8
73
4
0
VERTEX
8
OBJECT__179
10
0
20
0
30
0
70
128
71
8
72
9
73
4
0
VERTEX
8
OBJECT__179
10
0
20
0
30
0
70
128
71
3
72
7
73
1
0
SEQEND
8
OBJECT__179
0
POLYLINE
8
OBJECT__180
66
1
70
64
71
4
72
2
62
253
0
VERTEX
8
OBJECT__180
10
77.867996
20
-67.622002
30
-1002.599976
70
192
0
VERTEX
8
OBJECT__180
10
77.867996
20
-84.092003
30
-1003.398987
70
192
0
VERTEX
8
OBJECT__180
10
81.212997
20
-79.681999
30
-1001.356018
70
192
0
VERTEX
8
OBJECT__180
10
81.212997
20
-70.986000
30
-1001.205994
70
192
0
VERTEX
8
OBJECT__180
10
0
20
0
30
0
70
128
71
1
72
2
73
3
0
VERTEX
8
OBJECT__180
10
0
20
0
30
0
70
128
71
3
72
4
73
1
0
SEQEND
8
OBJECT__180
0
POLYLINE
8
OBJECT__181
66
1
70
64
71
5
72
3
62
253
0
VERTEX
8
OBJECT__181
10
83.926003
20
-73.910004
30
-1000.244995
70
192
0
VERTEX
8
OBJECT__181
10
81.212997
20
-79.681999
30
-1001.356018
70
192
0
VERTEX
8
OBJECT__181
10
83.167000
20
-77.334999
30
-1000.513000
70
192
0
VERTEX
8
OBJECT__181
10
84.052002
20
-74.217003
30
-1000.203979
70
192
0
VERTEX
8
OBJECT__181
10
81.212997
20
-70.986000
30
-1001.205994
70
192
0
VERTEX
8
OBJECT__181
10
0
20
0
30
0
70
128
71
1
72
2
73
3
0
VERTEX
8
OBJECT__181
10
0
20
0
30
0
70
128
71
3
72
4
73
1
0
VERTEX
8
OBJECT__181
10
0
20
0
30
0
70
128
71
1
72
5
73
2
0
SEQEND
8
OBJECT__181
0
POLYLINE
8
OBJECT__182
66
1
70
64
71
19
72
19
62
253
0
VERTEX
8
OBJECT__182
10
54.693001
20
-59.754002
30
-1032.807983
70
192
0
VERTEX
8
OBJECT__182
10
54.693001
20
-75.000000
30
-1040.150024
70
192
0
VERTEX
8
OBJECT__182
10
54.400002
20
-75.000000
30
-1040.135986
70
192
0
VERTEX
8
OBJECT__182
10
54.400002
20
-56.002998
30
-1016.314026
70
192
0
VERTEX
8
OBJECT__182
10
54.693001
20
-55.988998
30
-1016.310974
70
192
0
VERTEX
8
OBJECT__182
10
54.693001
20
-58.261002
30
-1026.264038
70
192
0
VERTEX
8
OBJECT__182
10
54.400002
20
-59.764999
30
-1032.798950
70
192
0
VERTEX
8
OBJECT__182
10
54.400002
20
-66.544998
30
-1003.093994
70
192
0
VERTEX
8
OBJECT__182
10
54.693001
20
-64.499001
30
-1005.640015
70
192
0
VERTEX
8
OBJECT__182
10
54.693001
20
-66.539001
30
-1003.080994
70
192
0
VERTEX
8
OBJECT__182
10
54.693001
20
-83.460999
30
-1003.080994
70
192
0
VERTEX
8
OBJECT__182
10
54.400002
20
-75.000000
30
-1001.164001
70
192
0
VERTEX
8
OBJECT__182
10
54.400002
20
-93.997002
30
-1016.314026
70
192
0
VERTEX
8
OBJECT__182
10
54.693001
20
-94.011002
30
-1016.310974
70
192
0
VERTEX
8
OBJECT__182
10
54.693001
20
-85.500999
30
-1005.640015
70
192
0
VERTEX
8
OBJECT__182
10
54.400002
20
-83.455002
30
-1003.093994
70
192
0
VERTEX
8
OBJECT__182
10
54.400002
20
-90.235001
30
-1032.798950
70
192
0
VERTEX
8
OBJECT__182
10
54.693001
20
-91.738998
30
-1026.264038
70
192
0
VERTEX
8
OBJECT__182
10
54.693001
20
-90.246002
30
-1032.807983
70
192
0
VERTEX
8
OBJECT__182
10
0
20
0
30
0
70
128
71
1
72
2
73
3
0
VERTEX
8
OBJECT__182
10
0
20
0
30
0
70
128
71
4
72
5
73
6
0
VERTEX
8
OBJECT__182
10
0
20
0
30
0
70
128
71
6
72
7
73
4
0
VERTEX
8
OBJECT__182
10
0
20
0
30
0
70
128
71
4
72
8
73
9
0
VERTEX
8
OBJECT__182
10
0
20
0
30
0
70
128
71
8
72
10
73
9
0
VERTEX
8
OBJECT__182
10
0
20
0
30
0
70
128
71
11
72
10
73
12
0
VERTEX
8
OBJECT__182
10
0
20
0
30
0
70
128
71
10
72
8
73
12
0
VERTEX
8
OBJECT__182
10
0
20
0
30
0
70
128
71
13
72
14
73
15
0
VERTEX
8
OBJECT__182
10
0
20
0
30
0
70
128
71
15
72
16
73
13
0
VERTEX
8
OBJECT__182
10
0
20
0
30
0
70
128
71
13
72
17
73
18
0
VERTEX
8
OBJECT__182
10
0
20
0
30
0
70
128
71
17
72
19
73
18
0
VERTEX
8
OBJECT__182
10
0
20
0
30
0
70
128
71
19
72
17
73
3
0
VERTEX
8
OBJECT__182
10
0
20
0
30
0
70
128
71
3
72
2
73
19
0
VERTEX
8
OBJECT__182
10
0
20
0
30
0
70
128
71
18
72
14
73
13
0
VERTEX
8
OBJECT__182
10
0
20
0
30
0
70
128
71
15
72
11
73
16
0
VERTEX
8
OBJECT__182
10
0
20
0
30
0
70
128
71
12
72
16
73
11
0
VERTEX
8
OBJECT__182
10
0
20
0
30
0
70
128
71
9
72
5
73
4
0
VERTEX
8
OBJECT__182
10
0
20
0
30
0
70
128
71
6
72
1
73
7
0
VERTEX
8
OBJECT__182
10
0
20
0
30
0
70
128
71
3
72
7
73
1
0
SEQEND
8
OBJECT__182
0
POLYLINE
8
OBJECT__183
66
1
70
64
71
13
72
13
62
253
0
VERTEX
8
OBJECT__183
10
54.400002
20
-66.544998
30
-1003.093994
70
192
0
VERTEX
8
OBJECT__183
10
54.400002
20
-56.002998
30
-1016.314026
70
192
0
VERTEX
8
OBJECT__183
10
54.400002
20
-62.636002
30
-1016.791992
70
192
0
VERTEX
8
OBJECT__183
10
54.400002
20
-74.511002
30
-1008.164001
70
192
0
VERTEX
8
OBJECT__183
10
54.400002
20
-75.000000
30
-1001.164001
70
192
0
VERTEX
8
OBJECT__183
10
54.400002
20
-59.764999
30
-1032.798950
70
192
0
VERTEX
8
OBJECT__183
10
54.400002
20
-67.171997
30
-1030.750977
70
192
0
VERTEX
8
OBJECT__183
10
54.400002
20
-75.000000
30
-1040.135986
70
192
0
VERTEX
8
OBJECT__183
10
54.400002
20
-81.849998
30
-1030.750977
70
192
0
VERTEX
8
OBJECT__183
10
54.400002
20
-90.235001
30
-1032.798950
70
192
0
VERTEX
8
OBJECT__183
10
54.400002
20
-83.455002
30
-1003.093994
70
192
0
VERTEX
8
OBJECT__183
10
54.400002
20
-86.386002
30
-1016.791992
70
192
0
VERTEX
8
OBJECT__183
10
54.400002
20
-93.997002
30
-1016.314026
70
192
0
VERTEX
8
OBJECT__183
10
0
20
0
30
0
70
128
71
1
72
2
73
3
0
VERTEX
8
OBJECT__183
10
0
20
0
30
0
70
128
71
4
72
5
73
1
0
VERTEX
8
OBJECT__183
10
0
20
0
30
0
70
128
71
6
72
7
73
3
0
VERTEX
8
OBJECT__183
10
0
20
0
30
0
70
128
71
8
72
9
73
7
0
VERTEX
8
OBJECT__183
10
0
20
0
30
0
70
128
71
3
72
2
73
6
0
VERTEX
8
OBJECT__183
10
0
20
0
30
0
70
128
71
8
72
10
73
9
0
VERTEX
8
OBJECT__183
10
0
20
0
30
0
70
128
71
11
72
4
73
12
0
VERTEX
8
OBJECT__183
10
0
20
0
30
0
70
128
71
7
72
6
73
8
0
VERTEX
8
OBJECT__183
10
0
20
0
30
0
70
128
71
10
72
13
73
12
0
VERTEX
8
OBJECT__183
10
0
20
0
30
0
70
128
71
12
72
13
73
11
0
VERTEX
8
OBJECT__183
10
0
20
0
30
0
70
128
71
12
72
9
73
10
0
VERTEX
8
OBJECT__183
10
0
20
0
30
0
70
128
71
3
72
4
73
1
0
VERTEX
8
OBJECT__183
10
0
20
0
30
0
70
128
71
11
72
5
73
4
0
SEQEND
8
OBJECT__183
0
POLYLINE
8
OBJECT__184
66
1
70
64
71
63
72
65
62
253
0
VERTEX
8
OBJECT__184
10
111.148003
20
-101.025002
30
-1014.005981
70
192
0
VERTEX
8
OBJECT__184
10
110.555000
20
101.705002
30
-1014.479004
70
192
0
VERTEX
8
OBJECT__184
10
100.028999
20
101.705002
30
-1001.278992
70
192
0
VERTEX
8
OBJECT__184
10
90.699997
20
-101.025002
30
-999.150024
70
192
0
VERTEX
8
OBJECT__184
10
78.063004
20
-101.025002
30
-1038.043945
70
192
0
VERTEX
8
OBJECT__184
10
71.919998
20
-91.898003
30
-1031.116943
70
192
0
VERTEX
8
OBJECT__184
10
76.196999
20
-88.253998
30
-1034.878052
70
192
0
VERTEX
8
OBJECT__184
10
69.199997
20
-101.025002
30
-1020.650024
70
192
0
VERTEX
8
OBJECT__184
10
69.199997
20
-94.500000
30
-1020.650024
70
192
0
VERTEX
8
OBJECT__184
10
70.251999
20
-101.025002
30
-1014.005981
70
192
0
VERTEX
8
OBJECT__184
10
70.938004
20
-92.550003
30
-1014.192017
70
192
0
VERTEX
8
OBJECT__184
10
101.307999
20
-67.711998
30
-1039.350952
70
192
0
VERTEX
8
OBJECT__184
10
103.336998
20
-101.025002
30
-1038.043945
70
192
0
VERTEX
8
OBJECT__184
10
90.699997
20
-75.000000
30
-1042.150024
70
192
0
VERTEX
8
OBJECT__184
10
90.699997
20
-71.718002
30
-1042.150024
70
192
0
VERTEX
8
OBJECT__184
10
90.678001
20
-75.021004
30
-1042.150024
70
192
0
VERTEX
8
OBJECT__184
10
82.720001
20
-82.695999
30
-1040.614014
70
192
0
VERTEX
8
OBJECT__184
10
78.810997
20
-86.026001
30
-1037.177002
70
192
0
VERTEX
8
OBJECT__184
10
105.822998
20
-56.426998
30
-1035.844971
70
192
0
VERTEX
8
OBJECT__184
10
107.509003
20
101.705002
30
-1034.055054
70
192
0
VERTEX
8
OBJECT__184
10
111.661003
20
101.705002
30
-1015.866028
70
192
0
VERTEX
8
OBJECT__184
10
103.320999
20
-47.390999
30
-1038.024048
70
192
0
VERTEX
8
OBJECT__184
10
102.563004
20
101.705002
30
-1036.437012
70
192
0
VERTEX
8
OBJECT__184
10
106.379997
20
-58.438999
30
-1035.359985
70
192
0
VERTEX
8
OBJECT__184
10
103.197998
20
-64.255997
30
-1037.864014
70
192
0
VERTEX
8
OBJECT__184
10
90.699997
20
101.705002
30
-1042.150024
70
192
0
VERTEX
8
OBJECT__184
10
90.699997
20
75.000000
30
-1042.150024
70
192
0
VERTEX
8
OBJECT__184
10
78.836998
20
101.705002
30
-1036.437012
70
192
0
VERTEX
8
OBJECT__184
10
90.678001
20
75.021004
30
-1042.150024
70
192
0
VERTEX
8
OBJECT__184
10
78.278000
20
86.301003
30
-1037.527954
70
192
0
VERTEX
8
OBJECT__184
10
103.119003
20
-46.659000
30
-1038.201050
70
192
0
VERTEX
8
OBJECT__184
10
94.819000
20
-41.299000
30
-1041.751953
70
192
0
VERTEX
8
OBJECT__184
10
90.699997
20
-40.762001
30
-1042.150024
70
192
0
VERTEX
8
OBJECT__184
10
70.845001
20
101.705002
30
-1014.479004
70
192
0
VERTEX
8
OBJECT__184
10
69.510002
20
94.157997
30
-1017.013000
70
192
0
VERTEX
8
OBJECT__184
10
70.207001
20
93.379997
30
-1014.679016
70
192
0
VERTEX
8
OBJECT__184
10
69.738998
20
101.705002
30
-1015.866028
70
192
0
VERTEX
8
OBJECT__184
10
73.890999
20
101.705002
30
-1034.055054
70
192
0
VERTEX
8
OBJECT__184
10
69.931000
20
93.792999
30
-1026.208008
70
192
0
VERTEX
8
OBJECT__184
10
69.199997
20
94.500000
30
-1020.650024
70
192
0
VERTEX
8
OBJECT__184
10
75.741997
20
88.594002
30
-1035.479980
70
192
0
VERTEX
8
OBJECT__184
10
76.643997
20
87.787003
30
-1036.918945
70
192
0
VERTEX
8
OBJECT__184
10
72.103996
20
-91.241997
30
-1009.859009
70
192
0
VERTEX
8
OBJECT__184
10
77.867996
20
-84.092003
30
-1003.398987
70
192
0
VERTEX
8
OBJECT__184
10
76.093002
20
-86.459000
30
-1004.879028
70
192
0
VERTEX
8
OBJECT__184
10
83.167000
20
-77.334999
30
-1000.513000
70
192
0
VERTEX
8
OBJECT__184
10
81.212997
20
-79.681999
30
-1001.356018
70
192
0
VERTEX
8
OBJECT__184
10
76.042999
20
-86.525002
30
-1004.921021
70
192
0
VERTEX
8
OBJECT__184
10
84.178001
20
-11.623000
30
-1000.163025
70
192
0
VERTEX
8
OBJECT__184
10
84.052002
20
-11.770000
30
-1000.203979
70
192
0
VERTEX
8
OBJECT__184
10
84.052002
20
-74.217003
30
-1000.203979
70
192
0
VERTEX
8
OBJECT__184
10
88.448997
20
-0.769000
30
-999.268005
70
192
0
VERTEX
8
OBJECT__184
10
84.697998
20
-10.302000
30
-1000.054016
70
192
0
VERTEX
8
OBJECT__184
10
84.574997
20
10.277000
30
-1000.091980
70
192
0
VERTEX
8
OBJECT__184
10
84.191002
20
75.000000
30
-1000.158997
70
192
0
VERTEX
8
OBJECT__184
10
84.052002
20
74.217003
30
-1000.203979
70
192
0
VERTEX
8
OBJECT__184
10
90.699997
20
101.705002
30
-1001.278992
70
192
0
VERTEX
8
OBJECT__184
10
84.052002
20
11.770000
30
-1000.203979
70
192
0
VERTEX
8
OBJECT__184
10
77.867996
20
84.092003
30
-1003.398987
70
192
0
VERTEX
8
OBJECT__184
10
81.212997
20
79.681999
30
-1001.356018
70
192
0
VERTEX
8
OBJECT__184
10
81.371002
20
101.705002
30
-1001.278992
70
192
0
VERTEX
8
OBJECT__184
10
70.987999
20
92.509003
30
-1012.065979
70
192
0
VERTEX
8
OBJECT__184
10
70.394997
20
93.169998
30
-1014.049011
70
192
0
VERTEX
8
OBJECT__184
10
0
20
0
30
0
70
128
71
1
72
2
73
3
0
VERTEX
8
OBJECT__184
10
0
20
0
30
0
70
128
71
3
72
4
73
1
0
VERTEX
8
OBJECT__184
10
0
20
0
30
0
70
128
71
5
72
6
73
7
0
VERTEX
8
OBJECT__184
10
0
20
0
30
0
70
128
71
8
72
9
73
6
0
VERTEX
8
OBJECT__184
10
0
20
0
30
0
70
128
71
6
72
5
73
8
0
VERTEX
8
OBJECT__184
10
0
20
0
30
0
70
128
71
10
72
11
73
9
0
VERTEX
8
OBJECT__184
10
0
20
0
30
0
70
128
71
9
72
8
73
10
0
VERTEX
8
OBJECT__184
10
0
20
0
30
0
70
128
71
12
72
13
73
14
0
VERTEX
8
OBJECT__184
10
0
20
0
30
0
70
128
71
14
72
15
73
12
0
VERTEX
8
OBJECT__184
10
0
20
0
30
0
70
128
71
13
72
16
73
14
0
VERTEX
8
OBJECT__184
10
0
20
0
30
0
70
128
71
13
72
17
73
16
0
VERTEX
8
OBJECT__184
10
0
20
0
30
0
70
128
71
13
72
5
73
18
0
VERTEX
8
OBJECT__184
10
0
20
0
30
0
70
128
71
18
72
17
73
13
0
VERTEX
8
OBJECT__184
10
0
20
0
30
0
70
128
71
19
72
20
73
21
0
VERTEX
8
OBJECT__184
10
0
20
0
30
0
70
128
71
20
72
19
73
22
0
VERTEX
8
OBJECT__184
10
0
20
0
30
0
70
128
71
22
72
23
73
20
0
VERTEX
8
OBJECT__184
10
0
20
0
30
0
70
128
71
2
72
1
73
24
0
VERTEX
8
OBJECT__184
10
0
20
0
30
0
70
128
71
24
72
19
73
2
0
VERTEX
8
OBJECT__184
10
0
20
0
30
0
70
128
71
1
72
13
73
25
0
VERTEX
8
OBJECT__184
10
0
20
0
30
0
70
128
71
25
72
24
73
1
0
VERTEX
8
OBJECT__184
10
0
20
0
30
0
70
128
71
27
72
28
73
26
0
VERTEX
8
OBJECT__184
10
0
20
0
30
0
70
128
71
26
72
23
73
27
0
VERTEX
8
OBJECT__184
10
0
20
0
30
0
70
128
71
27
72
29
73
28
0
VERTEX
8
OBJECT__184
10
0
20
0
30
0
70
128
71
29
72
30
73
28
0
VERTEX
8
OBJECT__184
10
0
20
0
30
0
70
128
71
27
72
31
73
32
0
VERTEX
8
OBJECT__184
10
0
20
0
30
0
70
128
71
23
72
22
73
31
0
VERTEX
8
OBJECT__184
10
0
20
0
30
0
70
128
71
31
72
27
73
23
0
VERTEX
8
OBJECT__184
10
0
20
0
30
0
70
128
71
32
72
33
73
27
0
VERTEX
8
OBJECT__184
10
0
20
0
30
0
70
128
71
34
72
35
73
36
0
VERTEX
8
OBJECT__184
10
0
20
0
30
0
70
128
71
35
72
34
73
37
0
VERTEX
8
OBJECT__184
10
0
20
0
30
0
70
128
71
38
72
39
73
40
0
VERTEX
8
OBJECT__184
10
0
20
0
30
0
70
128
71
40
72
37
73
38
0
VERTEX
8
OBJECT__184
10
0
20
0
30
0
70
128
71
37
72
40
73
35
0
VERTEX
8
OBJECT__184
10
0
20
0
30
0
70
128
71
41
72
39
73
38
0
VERTEX
8
OBJECT__184
10
0
20
0
30
0
70
128
71
28
72
42
73
41
0
VERTEX
8
OBJECT__184
10
0
20
0
30
0
70
128
71
38
72
28
73
41
0
VERTEX
8
OBJECT__184
10
0
20
0
30
0
70
128
71
28
72
30
73
42
0
VERTEX
8
OBJECT__184
10
0
20
0
30
0
70
128
71
10
72
4
73
43
0
VERTEX
8
OBJECT__184
10
0
20
0
30
0
70
128
71
4
72
44
73
45
0
VERTEX
8
OBJECT__184
10
0
20
0
30
0
70
128
71
4
72
46
73
47
0
VERTEX
8
OBJECT__184
10
0
20
0
30
0
70
128
71
47
72
44
73
4
0
VERTEX
8
OBJECT__184
10
0
20
0
30
0
70
128
71
45
72
48
73
4
0
VERTEX
8
OBJECT__184
10
0
20
0
30
0
70
128
71
48
72
43
73
4
0
VERTEX
8
OBJECT__184
10
0
20
0
30
0
70
128
71
49
72
50
73
51
0
VERTEX
8
OBJECT__184
10
0
20
0
30
0
70
128
71
51
72
4
73
49
0
VERTEX
8
OBJECT__184
10
0
20
0
30
0
70
128
71
4
72
52
73
53
0
VERTEX
8
OBJECT__184
10
0
20
0
30
0
70
128
71
53
72
49
73
4
0
VERTEX
8
OBJECT__184
10
0
20
0
30
0
70
128
71
51
72
46
73
4
0
VERTEX
8
OBJECT__184
10
0
20
0
30
0
70
128
71
54
72
55
73
56
0
VERTEX
8
OBJECT__184
10
0
20
0
30
0
70
128
71
54
72
57
73
55
0
VERTEX
8
OBJECT__184
10
0
20
0
30
0
70
128
71
56
72
58
73
54
0
VERTEX
8
OBJECT__184
10
0
20
0
30
0
70
128
71
54
72
52
73
57
0
VERTEX
8
OBJECT__184
10
0
20
0
30
0
70
128
71
52
72
4
73
57
0
VERTEX
8
OBJECT__184
10
0
20
0
30
0
70
128
71
57
72
59
73
60
0
VERTEX
8
OBJECT__184
10
0
20
0
30
0
70
128
71
59
72
57
73
61
0
VERTEX
8
OBJECT__184
10
0
20
0
30
0
70
128
71
61
72
62
73
59
0
VERTEX
8
OBJECT__184
10
0
20
0
30
0
70
128
71
34
72
63
73
62
0
VERTEX
8
OBJECT__184
10
0
20
0
30
0
70
128
71
62
72
61
73
34
0
VERTEX
8
OBJECT__184
10
0
20
0
30
0
70
128
71
60
72
55
73
57
0
VERTEX
8
OBJECT__184
10
0
20
0
30
0
70
128
71
43
72
11
73
10
0
VERTEX
8
OBJECT__184
10
0
20
0
30
0
70
128
71
36
72
63
73
34
0
VERTEX
8
OBJECT__184
10
0
20
0
30
0
70
128
71
21
72
2
73
19
0
VERTEX
8
OBJECT__184
10
0
20
0
30
0
70
128
71
12
72
25
73
13
0
VERTEX
8
OBJECT__184
10
0
20
0
30
0
70
128
71
7
72
18
73
5
0
VERTEX
8
OBJECT__184
10
0
20
0
30
0
70
128
71
3
72
57
73
4
0
SEQEND
8
OBJECT__184
0
POLYLINE
8
OBJECT__185
66
1
70
64
71
6
72
4
62
253
0
VERTEX
8
OBJECT__185
10
111.148003
20
-101.025002
30
-1014.005981
70
192
0
VERTEX
8
OBJECT__185
10
69.199997
20
-101.025002
30
-1020.650024
70
192
0
VERTEX
8
OBJECT__185
10
78.063004
20
-101.025002
30
-1038.043945
70
192
0
VERTEX
8
OBJECT__185
10
90.699997
20
-101.025002
30
-999.150024
70
192
0
VERTEX
8
OBJECT__185
10
70.251999
20
-101.025002
30
-1014.005981
70
192
0
VERTEX
8
OBJECT__185
10
103.336998
20
-101.025002
30
-1038.043945
70
192
0
VERTEX
8
OBJECT__185
10
0
20
0
30
0
70
128
71
1
72
2
73
3
0
VERTEX
8
OBJECT__185
10
0
20
0
30
0
70
128
71
1
72
4
73
5
0
VERTEX
8
OBJECT__185
10
0
20
0
30
0
70
128
71
5
72
2
73
1
0
VERTEX
8
OBJECT__185
10
0
20
0
30
0
70
128
71
3
72
6
73
1
0
SEQEND
8
OBJECT__185
0
POLYLINE
8
OBJECT__186
66
1
70
64
71
20
72
20
62
253
0
VERTEX
8
OBJECT__186
10
90.699997
20
101.974998
30
-1042.137939
70
192
0
VERTEX
8
OBJECT__186
10
90.699997
20
101.705002
30
-1042.150024
70
192
0
VERTEX
8
OBJECT__186
10
78.836998
20
101.705002
30
-1036.437012
70
192
0
VERTEX
8
OBJECT__186
10
73.900002
20
101.974998
30
-1034.047974
70
192
0
VERTEX
8
OBJECT__186
10
69.738998
20
101.705002
30
-1015.866028
70
192
0
VERTEX
8
OBJECT__186
10
69.750999
20
101.974998
30
-1015.867981
70
192
0
VERTEX
8
OBJECT__186
10
81.376999
20
101.974998
30
-1001.289978
70
192
0
VERTEX
8
OBJECT__186
10
70.845001
20
101.705002
30
-1014.479004
70
192
0
VERTEX
8
OBJECT__186
10
100.023003
20
101.974998
30
-1001.289978
70
192
0
VERTEX
8
OBJECT__186
10
90.699997
20
101.705002
30
-1001.278992
70
192
0
VERTEX
8
OBJECT__186
10
81.371002
20
101.705002
30
-1001.278992
70
192
0
VERTEX
8
OBJECT__186
10
100.028999
20
101.705002
30
-1001.278992
70
192
0
VERTEX
8
OBJECT__186
10
110.555000
20
101.705002
30
-1014.479004
70
192
0
VERTEX
8
OBJECT__186
10
111.649002
20
101.974998
30
-1015.867981
70
192
0
VERTEX
8
OBJECT__186
10
107.509003
20
101.705002
30
-1034.055054
70
192
0
VERTEX
8
OBJECT__186
10
107.500000
20
101.974998
30
-1034.047974
70
192
0
VERTEX
8
OBJECT__186
10
112.188004
20
101.974998
30
-1020.650024
70
192
0
VERTEX
8
OBJECT__186
10
111.661003
20
101.705002
30
-1015.866028
70
192
0
VERTEX
8
OBJECT__186
10
102.563004
20
101.705002
30
-1036.437012
70
192
0
VERTEX
8
OBJECT__186
10
73.890999
20
101.705002
30
-1034.055054
70
192
0
VERTEX
8
OBJECT__186
10
0
20
0
30
0
70
128
71
1
72
2
73
3
0
VERTEX
8
OBJECT__186
10
0
20
0
30
0
70
128
71
3
72
4
73
1
0
VERTEX
8
OBJECT__186
10
0
20
0
30
0
70
128
71
5
72
6
73
4
0
VERTEX
8
OBJECT__186
10
0
20
0
30
0
70
128
71
7
72
6
73
8
0
VERTEX
8
OBJECT__186
10
0
20
0
30
0
70
128
71
6
72
5
73
8
0
VERTEX
8
OBJECT__186
10
0
20
0
30
0
70
128
71
9
72
7
73
10
0
VERTEX
8
OBJECT__186
10
0
20
0
30
0
70
128
71
7
72
11
73
10
0
VERTEX
8
OBJECT__186
10
0
20
0
30
0
70
128
71
9
72
12
73
13
0
VERTEX
8
OBJECT__186
10
0
20
0
30
0
70
128
71
13
72
14
73
9
0
VERTEX
8
OBJECT__186
10
0
20
0
30
0
70
128
71
15
72
16
73
17
0
VERTEX
8
OBJECT__186
10
0
20
0
30
0
70
128
71
17
72
18
73
15
0
VERTEX
8
OBJECT__186
10
0
20
0
30
0
70
128
71
1
72
16
73
19
0
VERTEX
8
OBJECT__186
10
0
20
0
30
0
70
128
71
16
72
15
73
19
0
VERTEX
8
OBJECT__186
10
0
20
0
30
0
70
128
71
19
72
2
73
1
0
VERTEX
8
OBJECT__186
10
0
20
0
30
0
70
128
71
17
72
14
73
18
0
VERTEX
8
OBJECT__186
10
0
20
0
30
0
70
128
71
13
72
18
73
14
0
VERTEX
8
OBJECT__186
10
0
20
0
30
0
70
128
71
10
72
12
73
9
0
VERTEX
8
OBJECT__186
10
0
20
0
30
0
70
128
71
8
72
11
73
7
0
VERTEX
8
OBJECT__186
10
0
20
0
30
0
70
128
71
4
72
20
73
5
0
VERTEX
8
OBJECT__186
10
0
20
0
30
0
70
128
71
3
72
20
73
4
0
SEQEND
8
OBJECT__186
0
POLYLINE
8
OBJECT__187
66
1
70
64
71
8
72
6
62
253
0
VERTEX
8
OBJECT__187
10
107.500000
20
101.974998
30
-1034.047974
70
192
0
VERTEX
8
OBJECT__187
10
90.699997
20
101.974998
30
-1042.137939
70
192
0
VERTEX
8
OBJECT__187
10
73.900002
20
101.974998
30
-1034.047974
70
192
0
VERTEX
8
OBJECT__187
10
111.649002
20
101.974998
30
-1015.867981
70
192
0
VERTEX
8
OBJECT__187
10
69.750999
20
101.974998
30
-1015.867981
70
192
0
VERTEX
8
OBJECT__187
10
81.376999
20
101.974998
30
-1001.289978
70
192
0
VERTEX
8
OBJECT__187
10
112.188004
20
101.974998
30
-1020.650024
70
192
0
VERTEX
8
OBJECT__187
10
100.023003
20
101.974998
30
-1001.289978
70
192
0
VERTEX
8
OBJECT__187
10
0
20
0
30
0
70
128
71
1
72
2
73
3
0
VERTEX
8
OBJECT__187
10
0
20
0
30
0
70
128
71
4
72
5
73
6
0
VERTEX
8
OBJECT__187
10
0
20
0
30
0
70
128
71
5
72
7
73
1
0
VERTEX
8
OBJECT__187
10
0
20
0
30
0
70
128
71
6
72
8
73
4
0
VERTEX
8
OBJECT__187
10
0
20
0
30
0
70
128
71
4
72
7
73
5
0
VERTEX
8
OBJECT__187
10
0
20
0
30
0
70
128
71
3
72
5
73
1
0
SEQEND
8
OBJECT__187
0
POLYLINE
8
OBJECT__188
66
1
70
64
71
8
72
8
62
253
0
VERTEX
8
OBJECT__188
10
460.220001
20
0.000000
30
64.849998
70
192
0
VERTEX
8
OBJECT__188
10
470.700012
20
10.480000
30
64.849998
70
192
0
VERTEX
8
OBJECT__188
10
470.700012
20
10.480000
30
53.849998
70
192
0
VERTEX
8
OBJECT__188
10
460.220001
20
0.000000
30
53.849998
70
192
0
VERTEX
8
OBJECT__188
10
481.179993
20
0.000000
30
64.849998
70
192
0
VERTEX
8
OBJECT__188
10
481.179993
20
0.000000
30
53.849998
70
192
0
VERTEX
8
OBJECT__188
10
470.700012
20
-10.480000
30
64.849998
70
192
0
VERTEX
8
OBJECT__188
10
470.700012
20
-10.480000
30
53.849998
70
192
0
VERTEX
8
OBJECT__188
10
0
20
0
30
0
70
128
71
1
72
2
73
3
0
VERTEX
8
OBJECT__188
10
0
20
0
30
0
70
128
71
1
72
3
73
4
0
VERTEX
8
OBJECT__188
10
0
20
0
30
0
70
128
71
2
72
5
73
6
0
VERTEX
8
OBJECT__188
10
0
20
0
30
0
70
128
71
2
72
6
73
3
0
VERTEX
8
OBJECT__188
10
0
20
0
30
0
70
128
71
5
72
7
73
8
0
VERTEX
8
OBJECT__188
10
0
20
0
30
0
70
128
71
5
72
8
73
6
0
VERTEX
8
OBJECT__188
10
0
20
0
30
0
70
128
71
7
72
1
73
4
0
VERTEX
8
OBJECT__188
10
0
20
0
30
0
70
128
71
7
72
4
73
8
0
SEQEND
8
OBJECT__188
0
POLYLINE
8
OBJECT__190
66
1
70
64
71
5
72
4
62
253
0
VERTEX
8
OBJECT__190
10
110.710999
20
-154.104004
30
-1000.638977
70
192
0
VERTEX
8
OBJECT__190
10
102.225998
20
-154.104004
30
-1000.638977
70
192
0
VERTEX
8
OBJECT__190
10
106.468002
20
-155.024994
30
-1004.882019
70
192
0
VERTEX
8
OBJECT__190
10
102.225998
20
-154.104004
30
-1009.124023
70
192
0
VERTEX
8
OBJECT__190
10
110.710999
20
-154.104004
30
-1009.124023
70
192
0
VERTEX
8
OBJECT__190
10
0
20
0
30
0
70
128
71
1
72
2
73
3
0
VERTEX
8
OBJECT__190
10
0
20
0
30
0
70
128
71
2
72
4
73
3
0
VERTEX
8
OBJECT__190
10
0
20
0
30
0
70
128
71
4
72
5
73
3
0
VERTEX
8
OBJECT__190
10
0
20
0
30
0
70
128
71
5
72
1
73
3
0
SEQEND
8
OBJECT__190
0
POLYLINE
8
OBJECT__191
66
1
70
64
71
22
72
22
62
253
0
VERTEX
8
OBJECT__191
10
110.710999
20
-154.104004
30
-1000.638977
70
192
0
VERTEX
8
OBJECT__191
10
110.710999
20
-154.104004
30
-1009.124023
70
192
0
VERTEX
8
OBJECT__191
10
112.247002
20
-120.697998
30
-1003.265991
70
192
0
VERTEX
8
OBJECT__191
10
110.706001
20
-114.505997
30
-1009.119019
70
192
0
VERTEX
8
OBJECT__191
10
110.876999
20
-115.539001
30
-1008.950989
70
192
0
VERTEX
8
OBJECT__191
10
102.225998
20
-154.104004
30
-1000.638977
70
192
0
VERTEX
8
OBJECT__191
10
110.031998
20
-120.542000
30
-1001.481995
70
192
0
VERTEX
8
OBJECT__191
10
106.816002
20
-120.316002
30
-998.892029
70
192
0
VERTEX
8
OBJECT__191
10
102.225998
20
-154.104004
30
-1009.124023
70
192
0
VERTEX
8
OBJECT__191
10
100.513000
20
-148.024994
30
-1004.153992
70
192
0
VERTEX
8
OBJECT__191
10
101.107002
20
-146.524994
30
-1002.189026
70
192
0
VERTEX
8
OBJECT__191
10
101.107002
20
-101.025002
30
-1002.189026
70
192
0
VERTEX
8
OBJECT__191
10
101.945000
20
-112.044998
30
-1000.939026
70
192
0
VERTEX
8
OBJECT__191
10
102.305000
20
-112.656998
30
-1000.788025
70
192
0
VERTEX
8
OBJECT__191
10
101.945000
20
-101.025002
30
-1000.939026
70
192
0
VERTEX
8
OBJECT__191
10
109.161003
20
-146.524994
30
-1010.242981
70
192
0
VERTEX
8
OBJECT__191
10
110.438004
20
-112.893997
30
-1009.380005
70
192
0
VERTEX
8
OBJECT__191
10
109.161003
20
-101.025002
30
-1010.242981
70
192
0
VERTEX
8
OBJECT__191
10
110.411003
20
-112.044998
30
-1009.405029
70
192
0
VERTEX
8
OBJECT__191
10
110.411003
20
-101.025002
30
-1009.405029
70
192
0
VERTEX
8
OBJECT__191
10
102.225998
20
-148.024994
30
-1009.124023
70
192
0
VERTEX
8
OBJECT__191
10
107.195999
20
-148.024994
30
-1010.836975
70
192
0
VERTEX
8
OBJECT__191
10
0
20
0
30
0
70
128
71
1
72
2
73
3
0
VERTEX
8
OBJECT__191
10
0
20
0
30
0
70
128
71
2
72
4
73
5
0
VERTEX
8
OBJECT__191
10
0
20
0
30
0
70
128
71
5
72
3
73
2
0
VERTEX
8
OBJECT__191
10
0
20
0
30
0
70
128
71
6
72
1
73
7
0
VERTEX
8
OBJECT__191
10
0
20
0
30
0
70
128
71
7
72
8
73
6
0
VERTEX
8
OBJECT__191
10
0
20
0
30
0
70
128
71
9
72
6
73
10
0
VERTEX
8
OBJECT__191
10
0
20
0
30
0
70
128
71
6
72
11
73
10
0
VERTEX
8
OBJECT__191
10
0
20
0
30
0
70
128
71
12
72
11
73
13
0
VERTEX
8
OBJECT__191
10
0
20
0
30
0
70
128
71
14
72
13
73
11
0
VERTEX
8
OBJECT__191
10
0
20
0
30
0
70
128
71
11
72
6
73
14
0
VERTEX
8
OBJECT__191
10
0
20
0
30
0
70
128
71
13
72
15
73
12
0
VERTEX
8
OBJECT__191
10
0
20
0
30
0
70
128
71
16
72
17
73
4
0
VERTEX
8
OBJECT__191
10
0
20
0
30
0
70
128
71
18
72
19
73
17
0
VERTEX
8
OBJECT__191
10
0
20
0
30
0
70
128
71
18
72
20
73
19
0
VERTEX
8
OBJECT__191
10
0
20
0
30
0
70
128
71
17
72
16
73
18
0
VERTEX
8
OBJECT__191
10
0
20
0
30
0
70
128
71
9
72
21
73
22
0
VERTEX
8
OBJECT__191
10
0
20
0
30
0
70
128
71
22
72
2
73
9
0
VERTEX
8
OBJECT__191
10
0
20
0
30
0
70
128
71
22
72
16
73
2
0
VERTEX
8
OBJECT__191
10
0
20
0
30
0
70
128
71
4
72
2
73
16
0
VERTEX
8
OBJECT__191
10
0
20
0
30
0
70
128
71
10
72
21
73
9
0
VERTEX
8
OBJECT__191
10
0
20
0
30
0
70
128
71
8
72
14
73
6
0
VERTEX
8
OBJECT__191
10
0
20
0
30
0
70
128
71
3
72
7
73
1
0
SEQEND
8
OBJECT__191
0
POLYLINE
8
OBJECT__193
66
1
70
64
71
5
72
3
62
253
0
VERTEX
8
OBJECT__193
10
101.945000
20
-101.025002
30
-1000.939026
70
192
0
VERTEX
8
OBJECT__193
10
101.945000
20
-112.044998
30
-1000.939026
70
192
0
VERTEX
8
OBJECT__193
10
106.750999
20
-112.044998
30
-1004.598999
70
192
0
VERTEX
8
OBJECT__193
10
110.411003
20
-101.025002
30
-1009.405029
70
192
0
VERTEX
8
OBJECT__193
10
110.411003
20
-112.044998
30
-1009.405029
70
192
0
VERTEX
8
OBJECT__193
10
0
20
0
30
0
70
128
71
1
72
2
73
3
0
VERTEX
8
OBJECT__193
10
0
20
0
30
0
70
128
71
3
72
4
73
1
0
VERTEX
8
OBJECT__193
10
0
20
0
30
0
70
128
71
3
72
5
73
4
0
SEQEND
8
OBJECT__193
0
POLYLINE
8
OBJECT__194
66
1
70
64
71
10
72
8
62
253
0
VERTEX
8
OBJECT__194
10
106.750999
20
-112.044998
30
-1004.598999
70
192
0
VERTEX
8
OBJECT__194
10
102.305000
20
-112.656998
30
-1000.788025
70
192
0
VERTEX
8
OBJECT__194
10
106.816002
20
-120.316002
30
-998.892029
70
192
0
VERTEX
8
OBJECT__194
10
101.945000
20
-112.044998
30
-1000.939026
70
192
0
VERTEX
8
OBJECT__194
10
110.706001
20
-114.505997
30
-1009.119019
70
192
0
VERTEX
8
OBJECT__194
10
110.438004
20
-112.893997
30
-1009.380005
70
192
0
VERTEX
8
OBJECT__194
10
110.031998
20
-120.542000
30
-1001.481995
70
192
0
VERTEX
8
OBJECT__194
10
112.247002
20
-120.697998
30
-1003.265991
70
192
0
VERTEX
8
OBJECT__194
10
110.876999
20
-115.539001
30
-1008.950989
70
192
0
VERTEX
8
OBJECT__194
10
110.411003
20
-112.044998
30
-1009.405029
70
192
0
VERTEX
8
OBJECT__194
10
0
20
0
30
0
70
128
71
1
72
2
73
3
0
VERTEX
8
OBJECT__194
10
0
20
0
30
0
70
128
71
1
72
4
73
2
0
VERTEX
8
OBJECT__194
10
0
20
0
30
0
70
128
71
1
72
5
73
6
0
VERTEX
8
OBJECT__194
10
0
20
0
30
0
70
128
71
1
72
7
73
8
0
VERTEX
8
OBJECT__194
10
0
20
0
30
0
70
128
71
8
72
9
73
1
0
VERTEX
8
OBJECT__194
10
0
20
0
30
0
70
128
71
9
72
5
73
1
0
VERTEX
8
OBJECT__194
10
0
20
0
30
0
70
128
71
6
72
10
73
1
0
VERTEX
8
OBJECT__194
10
0
20
0
30
0
70
128
71
3
72
7
73
1
0
SEQEND
8
OBJECT__194
0
POLYLINE
8
OBJECT__195
66
1
70
64
71
4
72
2
62
253
0
VERTEX
8
OBJECT__195
10
101.945000
20
-101.025002
30
-1000.939026
70
192
0
VERTEX
8
OBJECT__195
10
110.411003
20
-101.025002
30
-1009.405029
70
192
0
VERTEX
8
OBJECT__195
10
109.161003
20
-101.025002
30
-1010.242981
70
192
0
VERTEX
8
OBJECT__195
10
101.107002
20
-101.025002
30
-1002.189026
70
192
0
VERTEX
8
OBJECT__195
10
0
20
0
30
0
70
128
71
1
72
2
73
3
0
VERTEX
8
OBJECT__195
10
0
20
0
30
0
70
128
71
3
72
4
73
1
0
SEQEND
8
OBJECT__195
0
POLYLINE
8
OBJECT__196
66
1
70
64
71
11
72
10
62
253
0
VERTEX
8
OBJECT__196
10
81.500000
20
8.348000
30
-416.837006
70
192
0
VERTEX
8
OBJECT__196
10
84.195999
20
-2.045000
30
-414.113007
70
192
0
VERTEX
8
OBJECT__196
10
76.460999
20
-12.375000
30
-419.657013
70
192
0
VERTEX
8
OBJECT__196
10
70.731003
20
-12.505000
30
-419.756989
70
192
0
VERTEX
8
OBJECT__196
10
70.740997
20
13.630000
30
-420.635010
70
192
0
VERTEX
8
OBJECT__196
10
69.844002
20
0.516000
30
-420.628998
70
192
0
VERTEX
8
OBJECT__196
10
68.944000
20
13.537000
30
-420.559998
70
192
0
VERTEX
8
OBJECT__196
10
70.699997
20
13.650000
30
-420.649994
70
192
0
VERTEX
8
OBJECT__196
10
65.509003
20
-12.624000
30
-419.847992
70
192
0
VERTEX
8
OBJECT__196
10
57.414001
20
-3.130000
30
-414.372986
70
192
0
VERTEX
8
OBJECT__196
10
58.561001
20
6.242000
30
-415.635010
70
192
0
VERTEX
8
OBJECT__196
10
0
20
0
30
0
70
128
71
1
72
2
73
3
0
VERTEX
8
OBJECT__196
10
0
20
0
30
0
70
128
71
4
72
5
73
1
0
VERTEX
8
OBJECT__196
10
0
20
0
30
0
70
128
71
6
72
7
73
8
0
VERTEX
8
OBJECT__196
10
0
20
0
30
0
70
128
71
5
72
4
73
6
0
VERTEX
8
OBJECT__196
10
0
20
0
30
0
70
128
71
6
72
4
73
9
0
VERTEX
8
OBJECT__196
10
0
20
0
30
0
70
128
71
6
72
10
73
11
0
VERTEX
8
OBJECT__196
10
0
20
0
30
0
70
128
71
11
72
7
73
6
0
VERTEX
8
OBJECT__196
10
0
20
0
30
0
70
128
71
9
72
10
73
6
0
VERTEX
8
OBJECT__196
10
0
20
0
30
0
70
128
71
8
72
5
73
6
0
VERTEX
8
OBJECT__196
10
0
20
0
30
0
70
128
71
3
72
4
73
1
0
SEQEND
8
OBJECT__196
0
POLYLINE
8
OBJECT__198
66
1
70
64
71
8
72
8
62
253
0
VERTEX
8
OBJECT__198
10
63.200001
20
48.759998
30
-421.049988
70
192
0
VERTEX
8
OBJECT__198
10
70.699997
20
56.259998
30
-421.049988
70
192
0
VERTEX
8
OBJECT__198
10
70.699997
20
56.259998
30
-441.049988
70
192
0
VERTEX
8
OBJECT__198
10
70.699997
20
41.259998
30
-421.049988
70
192
0
VERTEX
8
OBJECT__198
10
63.200001
20
48.759998
30
-441.049988
70
192
0
VERTEX
8
OBJECT__198
10
78.199997
20
48.759998
30
-441.049988
70
192
0
VERTEX
8
OBJECT__198
10
78.199997
20
48.759998
30
-421.049988
70
192
0
VERTEX
8
OBJECT__198
10
70.699997
20
41.259998
30
-441.049988
70
192
0
VERTEX
8
OBJECT__198
10
0
20
0
30
0
70
128
71
1
72
2
73
3
0
VERTEX
8
OBJECT__198
10
0
20
0
30
0
70
128
71
4
72
1
73
5
0
VERTEX
8
OBJECT__198
10
0
20
0
30
0
70
128
71
6
72
7
73
4
0
VERTEX
8
OBJECT__198
10
0
20
0
30
0
70
128
71
3
72
2
73
7
0
VERTEX
8
OBJECT__198
10
0
20
0
30
0
70
128
71
7
72
6
73
3
0
VERTEX
8
OBJECT__198
10
0
20
0
30
0
70
128
71
4
72
8
73
6
0
VERTEX
8
OBJECT__198
10
0
20
0
30
0
70
128
71
5
72
8
73
4
0
VERTEX
8
OBJECT__198
10
0
20
0
30
0
70
128
71
3
72
5
73
1
0
SEQEND
8
OBJECT__198
0
POLYLINE
8
OBJECT__199
66
1
70
64
71
4
72
2
62
253
0
VERTEX
8
OBJECT__199
10
63.200001
20
48.759998
30
-441.049988
70
192
0
VERTEX
8
OBJECT__199
10
70.699997
20
56.259998
30
-441.049988
70
192
0
VERTEX
8
OBJECT__199
10
78.199997
20
48.759998
30
-441.049988
70
192
0
VERTEX
8
OBJECT__199
10
70.699997
20
41.259998
30
-441.049988
70
192
0
VERTEX
8
OBJECT__199
10
0
20
0
30
0
70
128
71
1
72
2
73
3
0
VERTEX
8
OBJECT__199
10
0
20
0
30
0
70
128
71
3
72
4
73
1
0
SEQEND
8
OBJECT__199
0
POLYLINE
8
OBJECT__201
66
1
70
64
71
6
72
4
62
253
0
VERTEX
8
OBJECT__201
10
457.399994
20
0.000000
30
60.849998
70
192
0
VERTEX
8
OBJECT__201
10
457.399994
20
0.000000
30
55.099998
70
192
0
VERTEX
8
OBJECT__201
10
464.964996
20
-12.000000
30
55.099998
70
192
0
VERTEX
8
OBJECT__201
10
464.964996
20
12.000000
30
60.849998
70
192
0
VERTEX
8
OBJECT__201
10
464.964996
20
12.000000
30
55.099998
70
192
0
VERTEX
8
OBJECT__201
10
464.964996
20
-12.000000
30
60.849998
70
192
0
VERTEX
8
OBJECT__201
10
0
20
0
30
0
70
128
71
1
72
2
73
3
0
VERTEX
8
OBJECT__201
10
0
20
0
30
0
70
128
71
4
72
5
73
2
0
VERTEX
8
OBJECT__201
10
0
20
0
30
0
70
128
71
2
72
1
73
4
0
VERTEX
8
OBJECT__201
10
0
20
0
30
0
70
128
71
3
72
6
73
1
0
SEQEND
8
OBJECT__201
0
POLYLINE
8
OBJECT__202
66
1
70
64
71
6
72
4
62
253
0
VERTEX
8
OBJECT__202
10
464.964996
20
12.000000
30
60.849998
70
192
0
VERTEX
8
OBJECT__202
10
457.399994
20
0.000000
30
60.849998
70
192
0
VERTEX
8
OBJECT__202
10
464.964996
20
-12.000000
30
60.849998
70
192
0
VERTEX
8
OBJECT__202
10
476.434998
20
-12.000000
30
60.849998
70
192
0
VERTEX
8
OBJECT__202
10
484.000000
20
0.000000
30
60.849998
70
192
0
VERTEX
8
OBJECT__202
10
476.434998
20
12.000000
30
60.849998
70
192
0
VERTEX
8
OBJECT__202
10
0
20
0
30
0
70
128
71
1
72
2
73
3
0
VERTEX
8
OBJECT__202
10
0
20
0
30
0
70
128
71
4
72
5
73
6
0
VERTEX
8
OBJECT__202
10
0
20
0
30
0
70
128
71
6
72
1
73
4
0
VERTEX
8
OBJECT__202
10
0
20
0
30
0
70
128
71
3
72
4
73
1
0
SEQEND
8
OBJECT__202
0
POLYLINE
8
OBJECT__204
66
1
70
64
71
7
72
5
62
253
0
VERTEX
8
OBJECT__204
10
464.964996
20
-12.000000
30
60.849998
70
192
0
VERTEX
8
OBJECT__204
10
465.746002
20
-12.000000
30
55.014999
70
192
0
VERTEX
8
OBJECT__204
10
474.700012
20
-12.000000
30
54.893002
70
192
0
VERTEX
8
OBJECT__204
10
476.434998
20
-12.000000
30
60.849998
70
192
0
VERTEX
8
OBJECT__204
10
464.964996
20
-12.000000
30
55.099998
70
192
0
VERTEX
8
OBJECT__204
10
475.653992
20
-12.000000
30
55.014999
70
192
0
VERTEX
8
OBJECT__204
10
476.434998
20
-12.000000
30
55.099998
70
192
0
VERTEX
8
OBJECT__204
10
0
20
0
30
0
70
128
71
1
72
2
73
3
0
VERTEX
8
OBJECT__204
10
0
20
0
30
0
70
128
71
3
72
4
73
1
0
VERTEX
8
OBJECT__204
10
0
20
0
30
0
70
128
71
1
72
5
73
2
0
VERTEX
8
OBJECT__204
10
0
20
0
30
0
70
128
71
3
72
6
73
4
0
VERTEX
8
OBJECT__204
10
0
20
0
30
0
70
128
71
6
72
7
73
4
0
SEQEND
8
OBJECT__204
0
POLYLINE
8
OBJECT__205
66
1
70
64
71
6
72
4
62
253
0
VERTEX
8
OBJECT__205
10
484.000000
20
0.000000
30
60.849998
70
192
0
VERTEX
8
OBJECT__205
10
484.000000
20
0.000000
30
55.099998
70
192
0
VERTEX
8
OBJECT__205
10
476.434998
20
12.000000
30
55.099998
70
192
0
VERTEX
8
OBJECT__205
10
476.434998
20
-12.000000
30
60.849998
70
192
0
VERTEX
8
OBJECT__205
10
476.434998
20
-12.000000
30
55.099998
70
192
0
VERTEX
8
OBJECT__205
10
476.434998
20
12.000000
30
60.849998
70
192
0
VERTEX
8
OBJECT__205
10
0
20
0
30
0
70
128
71
1
72
2
73
3
0
VERTEX
8
OBJECT__205
10
0
20
0
30
0
70
128
71
4
72
5
73
2
0
VERTEX
8
OBJECT__205
10
0
20
0
30
0
70
128
71
2
72
1
73
4
0
VERTEX
8
OBJECT__205
10
0
20
0
30
0
70
128
71
3
72
6
73
1
0
SEQEND
8
OBJECT__205
0
POLYLINE
8
OBJECT__206
66
1
70
64
71
7
72
5
62
253
0
VERTEX
8
OBJECT__206
10
476.434998
20
12.000000
30
60.849998
70
192
0
VERTEX
8
OBJECT__206
10
475.653992
20
12.000000
30
55.014999
70
192
0
VERTEX
8
OBJECT__206
10
466.700012
20
12.000000
30
54.893002
70
192
0
VERTEX
8
OBJECT__206
10
464.964996
20
12.000000
30
60.849998
70
192
0
VERTEX
8
OBJECT__206
10
476.434998
20
12.000000
30
55.099998
70
192
0
VERTEX
8
OBJECT__206
10
465.746002
20
12.000000
30
55.014999
70
192
0
VERTEX
8
OBJECT__206
10
464.964996
20
12.000000
30
55.099998
70
192
0
VERTEX
8
OBJECT__206
10
0
20
0
30
0
70
128
71
1
72
2
73
3
0
VERTEX
8
OBJECT__206
10
0
20
0
30
0
70
128
71
3
72
4
73
1
0
VERTEX
8
OBJECT__206
10
0
20
0
30
0
70
128
71
1
72
5
73
2
0
VERTEX
8
OBJECT__206
10
0
20
0
30
0
70
128
71
3
72
6
73
4
0
VERTEX
8
OBJECT__206
10
0
20
0
30
0
70
128
71
6
72
7
73
4
0
SEQEND
8
OBJECT__206
0
ENDSEC
0
EOF
