999
Converted by 3D Exploration 
999
XDimension Software, LLC
999
http://www.xdsoft.com/explorer/
0
SECTION
2
HEADER
9
$ACADVER
1
AC1008
9
$UCSORG
10
0.0
20
0.0
30
0.0
9
$UCSXDIR
10
1.0
20
0.0
30
0.0
9
$TILEMODE
70
1
9
$UCSYDIR
10
0.0
20
1.0
30
0.0
9
$EXTMIN
10
-31.611000
20
-101.536003
30
-101.536003
9
$EXTMAX
10
53.160999
20
101.536003
30
21.645000
0
ENDSEC
0
SECTION
2
TABLES
0
TABLE
2
LTYPE
70
1
0
LTYPE
2
CONTINUOUS
70
64
3
Solid line
72
65
73
0
40
0.0
0
ENDTAB
0
TABLE
2
LAYER
70
17
0
LAYER
2
OBJECT__0
70
0
62
253
6
CONTINUOUS
0
LAYER
2
OBJECT__1
70
0
62
253
6
CONTINUOUS
0
LAYER
2
OBJECT__3
70
0
62
253
6
CONTINUOUS
0
LAYER
2
OBJECT__4
70
0
62
253
6
CONTINUOUS
0
LAYER
2
OBJECT__5
70
0
62
253
6
CONTINUOUS
0
LAYER
2
OBJECT__6
70
0
62
253
6
CONTINUOUS
0
LAYER
2
OBJECT__7
70
0
62
253
6
CONTINUOUS
0
LAYER
2
OBJECT__8
70
0
62
253
6
CONTINUOUS
0
LAYER
2
OBJECT__9
70
0
62
253
6
CONTINUOUS
0
LAYER
2
OBJECT__10
70
0
62
253
6
CONTINUOUS
0
LAYER
2
OBJECT__11
70
0
62
253
6
CONTINUOUS
0
LAYER
2
OBJECT__12
70
0
62
253
6
CONTINUOUS
0
LAYER
2
OBJECT__13
70
0
62
253
6
CONTINUOUS
0
LAYER
2
OBJECT__14
70
0
62
253
6
CONTINUOUS
0
LAYER
2
OBJECT__15
70
0
62
253
6
CONTINUOUS
0
LAYER
2
OBJECT__16
70
0
62
253
6
CONTINUOUS
0
ENDTAB
0
TABLE
2
STYLE
70
1
0
STYLE
2
STANDARD
70
0
40
0.0
41
1.0
50
0.0
71
0
42
0.2
3
txt
4
1
0
ENDTAB
0
TABLE
2
UCS
70
0
0
ENDTAB
0
ENDSEC
0
SECTION
2
ENTITIES
0
POLYLINE
8
OBJECT__0
66
1
70
64
71
50
72
48
62
253
0
VERTEX
8
OBJECT__0
10
-25.447001
20
5.335000
30
0.000000
70
192
0
VERTEX
8
OBJECT__0
10
-24.410000
20
-8.956000
30
0.000000
70
192
0
VERTEX
8
OBJECT__0
10
-25.368000
20
-5.697000
30
0.000000
70
192
0
VERTEX
8
OBJECT__0
10
-23.941999
20
-9.911000
30
0.000000
70
192
0
VERTEX
8
OBJECT__0
10
-5.693000
20
25.368999
30
0.000000
70
192
0
VERTEX
8
OBJECT__0
10
-0.365000
20
25.997999
30
0.000000
70
192
0
VERTEX
8
OBJECT__0
10
-9.911000
20
23.941999
30
0.000000
70
192
0
VERTEX
8
OBJECT__0
10
-8.962000
20
24.407000
30
0.000000
70
192
0
VERTEX
8
OBJECT__0
10
-18.285999
20
18.287001
30
0.000000
70
192
0
VERTEX
8
OBJECT__0
10
-16.530001
20
20.069000
30
0.000000
70
192
0
VERTEX
8
OBJECT__0
10
-23.923000
20
9.904000
30
0.000000
70
192
0
VERTEX
8
OBJECT__0
10
-22.240999
20
13.466000
30
0.000000
70
192
0
VERTEX
8
OBJECT__0
10
-26.000000
20
0.000000
30
0.000000
70
192
0
VERTEX
8
OBJECT__0
10
0.000000
20
-26.000999
30
0.000000
70
192
0
VERTEX
8
OBJECT__0
10
8.956000
20
-24.409000
30
0.000000
70
192
0
VERTEX
8
OBJECT__0
10
5.711000
20
-25.365000
30
0.000000
70
192
0
VERTEX
8
OBJECT__0
10
18.287001
20
-18.289000
30
0.000000
70
192
0
VERTEX
8
OBJECT__0
10
16.535999
20
-20.063999
30
0.000000
70
192
0
VERTEX
8
OBJECT__0
10
26.000000
20
0.000000
30
0.000000
70
192
0
VERTEX
8
OBJECT__0
10
25.445999
20
-5.338000
30
0.000000
70
192
0
VERTEX
8
OBJECT__0
10
-0.001000
20
25.980000
30
0.000000
70
192
0
VERTEX
8
OBJECT__0
10
-13.783000
20
22.046000
30
0.000000
70
192
0
VERTEX
8
OBJECT__0
10
-20.297001
20
16.247999
30
0.000000
70
192
0
VERTEX
8
OBJECT__0
10
-24.528999
20
8.620000
30
0.000000
70
192
0
VERTEX
8
OBJECT__0
10
9.911000
20
-23.941999
30
0.000000
70
192
0
VERTEX
8
OBJECT__0
10
13.779000
20
-22.048000
30
0.000000
70
192
0
VERTEX
8
OBJECT__0
10
23.923000
20
-9.903000
30
0.000000
70
192
0
VERTEX
8
OBJECT__0
10
22.242001
20
-13.466000
30
0.000000
70
192
0
VERTEX
8
OBJECT__0
10
24.533001
20
-8.612000
30
0.000000
70
192
0
VERTEX
8
OBJECT__0
10
3.026000
20
25.823000
30
0.000000
70
192
0
VERTEX
8
OBJECT__0
10
-18.288000
20
-18.287001
30
0.000000
70
192
0
VERTEX
8
OBJECT__0
10
-20.069000
20
-16.531000
30
0.000000
70
192
0
VERTEX
8
OBJECT__0
10
20.301001
20
-16.243999
30
0.000000
70
192
0
VERTEX
8
OBJECT__0
10
25.858999
20
2.708000
30
0.000000
70
192
0
VERTEX
8
OBJECT__0
10
23.926001
20
9.916000
30
0.000000
70
192
0
VERTEX
8
OBJECT__0
10
25.285999
20
6.054000
30
0.000000
70
192
0
VERTEX
8
OBJECT__0
10
18.496000
20
18.273001
30
0.000000
70
192
0
VERTEX
8
OBJECT__0
10
21.853001
20
14.087000
30
0.000000
70
192
0
VERTEX
8
OBJECT__0
10
-22.049999
20
-13.776000
30
0.000000
70
192
0
VERTEX
8
OBJECT__0
10
-9.903000
20
-23.923000
30
0.000000
70
192
0
VERTEX
8
OBJECT__0
10
-13.466000
20
-22.242001
30
0.000000
70
192
0
VERTEX
8
OBJECT__0
10
18.379000
20
18.378000
30
0.000000
70
192
0
VERTEX
8
OBJECT__0
10
11.399000
20
23.368000
30
0.000000
70
192
0
VERTEX
8
OBJECT__0
10
15.957000
20
20.528000
30
0.000000
70
192
0
VERTEX
8
OBJECT__0
10
-16.246000
20
-20.299999
30
0.000000
70
192
0
VERTEX
8
OBJECT__0
10
-5.337000
20
-25.447001
30
0.000000
70
192
0
VERTEX
8
OBJECT__0
10
23.504000
20
11.116000
30
0.000000
70
192
0
VERTEX
8
OBJECT__0
10
9.929000
20
23.969999
30
0.000000
70
192
0
VERTEX
8
OBJECT__0
10
8.265000
20
24.652000
30
0.000000
70
192
0
VERTEX
8
OBJECT__0
10
-8.613000
20
-24.532000
30
0.000000
70
192
0
VERTEX
8
OBJECT__0
10
0
20
0
30
0
70
128
71
1
72
2
73
3
0
VERTEX
8
OBJECT__0
10
0
20
0
30
0
70
128
71
4
72
5
73
6
0
VERTEX
8
OBJECT__0
10
0
20
0
30
0
70
128
71
4
72
7
73
8
0
VERTEX
8
OBJECT__0
10
0
20
0
30
0
70
128
71
1
72
4
73
2
0
VERTEX
8
OBJECT__0
10
0
20
0
30
0
70
128
71
8
72
5
73
4
0
VERTEX
8
OBJECT__0
10
0
20
0
30
0
70
128
71
4
72
9
73
10
0
VERTEX
8
OBJECT__0
10
0
20
0
30
0
70
128
71
4
72
11
73
12
0
VERTEX
8
OBJECT__0
10
0
20
0
30
0
70
128
71
3
72
13
73
1
0
VERTEX
8
OBJECT__0
10
0
20
0
30
0
70
128
71
14
72
15
73
16
0
VERTEX
8
OBJECT__0
10
0
20
0
30
0
70
128
71
14
72
17
73
18
0
VERTEX
8
OBJECT__0
10
0
20
0
30
0
70
128
71
14
72
19
73
20
0
VERTEX
8
OBJECT__0
10
0
20
0
30
0
70
128
71
6
72
21
73
4
0
VERTEX
8
OBJECT__0
10
0
20
0
30
0
70
128
71
10
72
22
73
4
0
VERTEX
8
OBJECT__0
10
0
20
0
30
0
70
128
71
12
72
23
73
4
0
VERTEX
8
OBJECT__0
10
0
20
0
30
0
70
128
71
1
72
24
73
4
0
VERTEX
8
OBJECT__0
10
0
20
0
30
0
70
128
71
14
72
25
73
15
0
VERTEX
8
OBJECT__0
10
0
20
0
30
0
70
128
71
18
72
26
73
14
0
VERTEX
8
OBJECT__0
10
0
20
0
30
0
70
128
71
14
72
27
73
28
0
VERTEX
8
OBJECT__0
10
0
20
0
30
0
70
128
71
20
72
29
73
14
0
VERTEX
8
OBJECT__0
10
0
20
0
30
0
70
128
71
22
72
7
73
4
0
VERTEX
8
OBJECT__0
10
0
20
0
30
0
70
128
71
24
72
11
73
4
0
VERTEX
8
OBJECT__0
10
0
20
0
30
0
70
128
71
30
72
31
73
32
0
VERTEX
8
OBJECT__0
10
0
20
0
30
0
70
128
71
26
72
25
73
14
0
VERTEX
8
OBJECT__0
10
0
20
0
30
0
70
128
71
28
72
33
73
14
0
VERTEX
8
OBJECT__0
10
0
20
0
30
0
70
128
71
14
72
34
73
19
0
VERTEX
8
OBJECT__0
10
0
20
0
30
0
70
128
71
14
72
35
73
36
0
VERTEX
8
OBJECT__0
10
0
20
0
30
0
70
128
71
14
72
37
73
38
0
VERTEX
8
OBJECT__0
10
0
20
0
30
0
70
128
71
23
72
9
73
4
0
VERTEX
8
OBJECT__0
10
0
20
0
30
0
70
128
71
32
72
39
73
30
0
VERTEX
8
OBJECT__0
10
0
20
0
30
0
70
128
71
30
72
40
73
41
0
VERTEX
8
OBJECT__0
10
0
20
0
30
0
70
128
71
33
72
17
73
14
0
VERTEX
8
OBJECT__0
10
0
20
0
30
0
70
128
71
36
72
34
73
14
0
VERTEX
8
OBJECT__0
10
0
20
0
30
0
70
128
71
14
72
42
73
37
0
VERTEX
8
OBJECT__0
10
0
20
0
30
0
70
128
71
14
72
43
73
44
0
VERTEX
8
OBJECT__0
10
0
20
0
30
0
70
128
71
39
72
4
73
30
0
VERTEX
8
OBJECT__0
10
0
20
0
30
0
70
128
71
41
72
45
73
30
0
VERTEX
8
OBJECT__0
10
0
20
0
30
0
70
128
71
30
72
14
73
46
0
VERTEX
8
OBJECT__0
10
0
20
0
30
0
70
128
71
29
72
27
73
14
0
VERTEX
8
OBJECT__0
10
0
20
0
30
0
70
128
71
38
72
47
73
14
0
VERTEX
8
OBJECT__0
10
0
20
0
30
0
70
128
71
14
72
48
73
43
0
VERTEX
8
OBJECT__0
10
0
20
0
30
0
70
128
71
14
72
30
73
49
0
VERTEX
8
OBJECT__0
10
0
20
0
30
0
70
128
71
45
72
31
73
30
0
VERTEX
8
OBJECT__0
10
0
20
0
30
0
70
128
71
46
72
50
73
30
0
VERTEX
8
OBJECT__0
10
0
20
0
30
0
70
128
71
47
72
35
73
14
0
VERTEX
8
OBJECT__0
10
0
20
0
30
0
70
128
71
49
72
48
73
14
0
VERTEX
8
OBJECT__0
10
0
20
0
30
0
70
128
71
50
72
40
73
30
0
VERTEX
8
OBJECT__0
10
0
20
0
30
0
70
128
71
44
72
42
73
14
0
VERTEX
8
OBJECT__0
10
0
20
0
30
0
70
128
71
21
72
30
73
4
0
SEQEND
8
OBJECT__0
0
POLYLINE
8
OBJECT__1
66
1
70
64
71
52
72
50
62
253
0
VERTEX
8
OBJECT__1
10
-9.903000
20
-23.923000
30
0.000000
70
192
0
VERTEX
8
OBJECT__1
10
-8.613000
20
-24.532000
30
0.000000
70
192
0
VERTEX
8
OBJECT__1
10
-8.960000
20
-24.408001
30
11.811000
70
192
0
VERTEX
8
OBJECT__1
10
-5.337000
20
-25.447001
30
0.000000
70
192
0
VERTEX
8
OBJECT__1
10
-5.707000
20
-25.365999
30
11.811000
70
192
0
VERTEX
8
OBJECT__1
10
-0.375000
20
-25.997000
30
11.811000
70
192
0
VERTEX
8
OBJECT__1
10
0.000000
20
-26.000999
30
0.000000
70
192
0
VERTEX
8
OBJECT__1
10
-0.001000
20
-25.978001
30
11.811000
70
192
0
VERTEX
8
OBJECT__1
10
25.281000
20
-6.073000
30
11.811000
70
192
0
VERTEX
8
OBJECT__1
10
23.924999
20
-9.916000
30
11.811000
70
192
0
VERTEX
8
OBJECT__1
10
24.533001
20
-8.612000
30
0.000000
70
192
0
VERTEX
8
OBJECT__1
10
23.923000
20
-9.903000
30
0.000000
70
192
0
VERTEX
8
OBJECT__1
10
26.000000
20
0.000000
30
0.000000
70
192
0
VERTEX
8
OBJECT__1
10
26.000000
20
0.000000
30
11.811000
70
192
0
VERTEX
8
OBJECT__1
10
25.856001
20
-2.732000
30
11.811000
70
192
0
VERTEX
8
OBJECT__1
10
25.445999
20
-5.338000
30
0.000000
70
192
0
VERTEX
8
OBJECT__1
10
-23.941999
20
-9.911000
30
0.000000
70
192
0
VERTEX
8
OBJECT__1
10
-22.049999
20
-13.776000
30
0.000000
70
192
0
VERTEX
8
OBJECT__1
10
-22.243000
20
-13.462000
30
11.811000
70
192
0
VERTEX
8
OBJECT__1
10
-20.069000
20
-16.531000
30
0.000000
70
192
0
VERTEX
8
OBJECT__1
10
-20.302999
20
-16.242001
30
11.811000
70
192
0
VERTEX
8
OBJECT__1
10
-18.285999
20
-18.288000
30
11.811000
70
192
0
VERTEX
8
OBJECT__1
10
-18.288000
20
-18.287001
30
0.000000
70
192
0
VERTEX
8
OBJECT__1
10
-16.246000
20
-20.299999
30
0.000000
70
192
0
VERTEX
8
OBJECT__1
10
-16.534000
20
-20.066000
30
11.811000
70
192
0
VERTEX
8
OBJECT__1
10
-13.466000
20
-22.242001
30
0.000000
70
192
0
VERTEX
8
OBJECT__1
10
-13.782000
20
-22.047001
30
11.811000
70
192
0
VERTEX
8
OBJECT__1
10
-9.911000
20
-23.941999
30
11.811000
70
192
0
VERTEX
8
OBJECT__1
10
-26.000000
20
0.000000
30
0.000000
70
192
0
VERTEX
8
OBJECT__1
10
-25.368000
20
-5.697000
30
0.000000
70
192
0
VERTEX
8
OBJECT__1
10
-25.445999
20
-5.341000
30
11.811000
70
192
0
VERTEX
8
OBJECT__1
10
-24.410000
20
-8.956000
30
0.000000
70
192
0
VERTEX
8
OBJECT__1
10
-24.534000
20
-8.606000
30
11.811000
70
192
0
VERTEX
8
OBJECT__1
10
-23.922001
20
-9.903000
30
11.811000
70
192
0
VERTEX
8
OBJECT__1
10
11.389000
20
-23.372999
30
11.811000
70
192
0
VERTEX
8
OBJECT__1
10
9.911000
20
-23.941999
30
0.000000
70
192
0
VERTEX
8
OBJECT__1
10
13.779000
20
-22.048000
30
0.000000
70
192
0
VERTEX
8
OBJECT__1
10
15.947000
20
-20.535000
30
11.811000
70
192
0
VERTEX
8
OBJECT__1
10
18.379000
20
-18.378000
30
11.811000
70
192
0
VERTEX
8
OBJECT__1
10
16.535999
20
-20.063999
30
0.000000
70
192
0
VERTEX
8
OBJECT__1
10
18.287001
20
-18.289000
30
0.000000
70
192
0
VERTEX
8
OBJECT__1
10
18.483999
20
-18.285000
30
11.811000
70
192
0
VERTEX
8
OBJECT__1
10
20.301001
20
-16.243999
30
0.000000
70
192
0
VERTEX
8
OBJECT__1
10
21.844999
20
-14.099000
30
11.811000
70
192
0
VERTEX
8
OBJECT__1
10
22.242001
20
-13.466000
30
0.000000
70
192
0
VERTEX
8
OBJECT__1
10
23.493999
20
-11.136000
30
11.811000
70
192
0
VERTEX
8
OBJECT__1
10
5.711000
20
-25.365000
30
0.000000
70
192
0
VERTEX
8
OBJECT__1
10
3.011000
20
-25.825001
30
11.811000
70
192
0
VERTEX
8
OBJECT__1
10
8.251000
20
-24.656000
30
11.811000
70
192
0
VERTEX
8
OBJECT__1
10
8.956000
20
-24.409000
30
0.000000
70
192
0
VERTEX
8
OBJECT__1
10
9.929000
20
-23.969999
30
11.811000
70
192
0
VERTEX
8
OBJECT__1
10
-26.000000
20
0.000000
30
11.811000
70
192
0
VERTEX
8
OBJECT__1
10
0
20
0
30
0
70
128
71
1
72
2
73
3
0
VERTEX
8
OBJECT__1
10
0
20
0
30
0
70
128
71
2
72
4
73
5
0
VERTEX
8
OBJECT__1
10
0
20
0
30
0
70
128
71
6
72
5
73
4
0
VERTEX
8
OBJECT__1
10
0
20
0
30
0
70
128
71
4
72
7
73
6
0
VERTEX
8
OBJECT__1
10
0
20
0
30
0
70
128
71
5
72
3
73
2
0
VERTEX
8
OBJECT__1
10
0
20
0
30
0
70
128
71
7
72
8
73
6
0
VERTEX
8
OBJECT__1
10
0
20
0
30
0
70
128
71
9
72
10
73
11
0
VERTEX
8
OBJECT__1
10
0
20
0
30
0
70
128
71
10
72
12
73
11
0
VERTEX
8
OBJECT__1
10
0
20
0
30
0
70
128
71
13
72
14
73
15
0
VERTEX
8
OBJECT__1
10
0
20
0
30
0
70
128
71
15
72
16
73
13
0
VERTEX
8
OBJECT__1
10
0
20
0
30
0
70
128
71
15
72
9
73
16
0
VERTEX
8
OBJECT__1
10
0
20
0
30
0
70
128
71
17
72
18
73
19
0
VERTEX
8
OBJECT__1
10
0
20
0
30
0
70
128
71
18
72
20
73
21
0
VERTEX
8
OBJECT__1
10
0
20
0
30
0
70
128
71
21
72
19
73
18
0
VERTEX
8
OBJECT__1
10
0
20
0
30
0
70
128
71
22
72
21
73
20
0
VERTEX
8
OBJECT__1
10
0
20
0
30
0
70
128
71
20
72
23
73
22
0
VERTEX
8
OBJECT__1
10
0
20
0
30
0
70
128
71
23
72
24
73
25
0
VERTEX
8
OBJECT__1
10
0
20
0
30
0
70
128
71
24
72
26
73
27
0
VERTEX
8
OBJECT__1
10
0
20
0
30
0
70
128
71
28
72
27
73
26
0
VERTEX
8
OBJECT__1
10
0
20
0
30
0
70
128
71
26
72
1
73
28
0
VERTEX
8
OBJECT__1
10
0
20
0
30
0
70
128
71
27
72
25
73
24
0
VERTEX
8
OBJECT__1
10
0
20
0
30
0
70
128
71
29
72
30
73
31
0
VERTEX
8
OBJECT__1
10
0
20
0
30
0
70
128
71
30
72
32
73
33
0
VERTEX
8
OBJECT__1
10
0
20
0
30
0
70
128
71
33
72
31
73
30
0
VERTEX
8
OBJECT__1
10
0
20
0
30
0
70
128
71
34
72
33
73
32
0
VERTEX
8
OBJECT__1
10
0
20
0
30
0
70
128
71
32
72
17
73
34
0
VERTEX
8
OBJECT__1
10
0
20
0
30
0
70
128
71
35
72
36
73
37
0
VERTEX
8
OBJECT__1
10
0
20
0
30
0
70
128
71
37
72
38
73
35
0
VERTEX
8
OBJECT__1
10
0
20
0
30
0
70
128
71
39
72
38
73
40
0
VERTEX
8
OBJECT__1
10
0
20
0
30
0
70
128
71
40
72
41
73
39
0
VERTEX
8
OBJECT__1
10
0
20
0
30
0
70
128
71
37
72
40
73
38
0
VERTEX
8
OBJECT__1
10
0
20
0
30
0
70
128
71
42
72
41
73
43
0
VERTEX
8
OBJECT__1
10
0
20
0
30
0
70
128
71
43
72
44
73
42
0
VERTEX
8
OBJECT__1
10
0
20
0
30
0
70
128
71
45
72
12
73
46
0
VERTEX
8
OBJECT__1
10
0
20
0
30
0
70
128
71
46
72
44
73
45
0
VERTEX
8
OBJECT__1
10
0
20
0
30
0
70
128
71
43
72
45
73
44
0
VERTEX
8
OBJECT__1
10
0
20
0
30
0
70
128
71
12
72
10
73
46
0
VERTEX
8
OBJECT__1
10
0
20
0
30
0
70
128
71
7
72
47
73
48
0
VERTEX
8
OBJECT__1
10
0
20
0
30
0
70
128
71
49
72
48
73
47
0
VERTEX
8
OBJECT__1
10
0
20
0
30
0
70
128
71
47
72
50
73
49
0
VERTEX
8
OBJECT__1
10
0
20
0
30
0
70
128
71
51
72
49
73
50
0
VERTEX
8
OBJECT__1
10
0
20
0
30
0
70
128
71
50
72
36
73
51
0
VERTEX
8
OBJECT__1
10
0
20
0
30
0
70
128
71
48
72
8
73
7
0
VERTEX
8
OBJECT__1
10
0
20
0
30
0
70
128
71
42
72
39
73
41
0
VERTEX
8
OBJECT__1
10
0
20
0
30
0
70
128
71
35
72
51
73
36
0
VERTEX
8
OBJECT__1
10
0
20
0
30
0
70
128
71
31
72
52
73
29
0
VERTEX
8
OBJECT__1
10
0
20
0
30
0
70
128
71
25
72
22
73
23
0
VERTEX
8
OBJECT__1
10
0
20
0
30
0
70
128
71
19
72
34
73
17
0
VERTEX
8
OBJECT__1
10
0
20
0
30
0
70
128
71
11
72
16
73
9
0
VERTEX
8
OBJECT__1
10
0
20
0
30
0
70
128
71
3
72
28
73
1
0
SEQEND
8
OBJECT__1
0
POLYLINE
8
OBJECT__3
66
1
70
64
71
52
72
50
62
253
0
VERTEX
8
OBJECT__3
10
9.929000
20
23.969999
30
0.000000
70
192
0
VERTEX
8
OBJECT__3
10
5.707000
20
25.365999
30
11.811000
70
192
0
VERTEX
8
OBJECT__3
10
8.960000
20
24.408001
30
11.811000
70
192
0
VERTEX
8
OBJECT__3
10
0.000000
20
26.000000
30
11.811000
70
192
0
VERTEX
8
OBJECT__3
10
-0.001000
20
25.980000
30
0.000000
70
192
0
VERTEX
8
OBJECT__3
10
8.265000
20
24.652000
30
0.000000
70
192
0
VERTEX
8
OBJECT__3
10
3.026000
20
25.823000
30
0.000000
70
192
0
VERTEX
8
OBJECT__3
10
9.911000
20
23.941999
30
11.811000
70
192
0
VERTEX
8
OBJECT__3
10
22.243000
20
13.462000
30
11.811000
70
192
0
VERTEX
8
OBJECT__3
10
23.922001
20
9.903000
30
11.811000
70
192
0
VERTEX
8
OBJECT__3
10
23.504000
20
11.116000
30
0.000000
70
192
0
VERTEX
8
OBJECT__3
10
23.926001
20
9.916000
30
0.000000
70
192
0
VERTEX
8
OBJECT__3
10
21.853001
20
14.087000
30
0.000000
70
192
0
VERTEX
8
OBJECT__3
10
20.302999
20
16.242001
30
11.811000
70
192
0
VERTEX
8
OBJECT__3
10
18.496000
20
18.273001
30
0.000000
70
192
0
VERTEX
8
OBJECT__3
10
18.285999
20
18.288000
30
11.811000
70
192
0
VERTEX
8
OBJECT__3
10
18.379000
20
18.378000
30
0.000000
70
192
0
VERTEX
8
OBJECT__3
10
15.957000
20
20.528000
30
0.000000
70
192
0
VERTEX
8
OBJECT__3
10
16.533001
20
20.066000
30
11.811000
70
192
0
VERTEX
8
OBJECT__3
10
11.399000
20
23.368000
30
0.000000
70
192
0
VERTEX
8
OBJECT__3
10
13.782000
20
22.047001
30
11.811000
70
192
0
VERTEX
8
OBJECT__3
10
-18.288000
20
18.285999
30
11.811000
70
192
0
VERTEX
8
OBJECT__3
10
-16.242001
20
20.302999
30
11.811000
70
192
0
VERTEX
8
OBJECT__3
10
-16.530001
20
20.069000
30
0.000000
70
192
0
VERTEX
8
OBJECT__3
10
-9.911000
20
23.941999
30
0.000000
70
192
0
VERTEX
8
OBJECT__3
10
-13.783000
20
22.046000
30
0.000000
70
192
0
VERTEX
8
OBJECT__3
10
-13.462000
20
22.243000
30
11.811000
70
192
0
VERTEX
8
OBJECT__3
10
-9.903000
20
23.922001
30
11.811000
70
192
0
VERTEX
8
OBJECT__3
10
-23.941999
20
9.911000
30
11.811000
70
192
0
VERTEX
8
OBJECT__3
10
-22.047001
20
13.782000
30
11.811000
70
192
0
VERTEX
8
OBJECT__3
10
-22.240999
20
13.466000
30
0.000000
70
192
0
VERTEX
8
OBJECT__3
10
-20.297001
20
16.247999
30
0.000000
70
192
0
VERTEX
8
OBJECT__3
10
-18.285999
20
18.287001
30
0.000000
70
192
0
VERTEX
8
OBJECT__3
10
-20.066000
20
16.534000
30
11.811000
70
192
0
VERTEX
8
OBJECT__3
10
-0.365000
20
25.997999
30
0.000000
70
192
0
VERTEX
8
OBJECT__3
10
-5.693000
20
25.368999
30
0.000000
70
192
0
VERTEX
8
OBJECT__3
10
-5.341000
20
25.445999
30
11.811000
70
192
0
VERTEX
8
OBJECT__3
10
-8.962000
20
24.407000
30
0.000000
70
192
0
VERTEX
8
OBJECT__3
10
-8.606000
20
24.534000
30
11.811000
70
192
0
VERTEX
8
OBJECT__3
10
26.000000
20
0.000000
30
11.811000
70
192
0
VERTEX
8
OBJECT__3
10
26.000000
20
0.000000
30
0.000000
70
192
0
VERTEX
8
OBJECT__3
10
25.858999
20
2.708000
30
0.000000
70
192
0
VERTEX
8
OBJECT__3
10
25.445999
20
5.341000
30
11.811000
70
192
0
VERTEX
8
OBJECT__3
10
25.285999
20
6.054000
30
0.000000
70
192
0
VERTEX
8
OBJECT__3
10
24.534000
20
8.606000
30
11.811000
70
192
0
VERTEX
8
OBJECT__3
10
-26.000000
20
0.000000
30
11.811000
70
192
0
VERTEX
8
OBJECT__3
10
-25.365999
20
5.707000
30
11.811000
70
192
0
VERTEX
8
OBJECT__3
10
-25.447001
20
5.335000
30
0.000000
70
192
0
VERTEX
8
OBJECT__3
10
-24.528999
20
8.620000
30
0.000000
70
192
0
VERTEX
8
OBJECT__3
10
-24.408001
20
8.960000
30
11.811000
70
192
0
VERTEX
8
OBJECT__3
10
-23.923000
20
9.904000
30
0.000000
70
192
0
VERTEX
8
OBJECT__3
10
-26.000000
20
0.000000
30
0.000000
70
192
0
VERTEX
8
OBJECT__3
10
0
20
0
30
0
70
128
71
1
72
2
73
3
0
VERTEX
8
OBJECT__3
10
0
20
0
30
0
70
128
71
1
72
4
73
2
0
VERTEX
8
OBJECT__3
10
0
20
0
30
0
70
128
71
4
72
1
73
6
0
VERTEX
8
OBJECT__3
10
0
20
0
30
0
70
128
71
6
72
7
73
4
0
VERTEX
8
OBJECT__3
10
0
20
0
30
0
70
128
71
4
72
7
73
5
0
VERTEX
8
OBJECT__3
10
0
20
0
30
0
70
128
71
3
72
8
73
1
0
VERTEX
8
OBJECT__3
10
0
20
0
30
0
70
128
71
9
72
10
73
11
0
VERTEX
8
OBJECT__3
10
0
20
0
30
0
70
128
71
10
72
12
73
11
0
VERTEX
8
OBJECT__3
10
0
20
0
30
0
70
128
71
13
72
14
73
9
0
VERTEX
8
OBJECT__3
10
0
20
0
30
0
70
128
71
15
72
16
73
14
0
VERTEX
8
OBJECT__3
10
0
20
0
30
0
70
128
71
14
72
13
73
15
0
VERTEX
8
OBJECT__3
10
0
20
0
30
0
70
128
71
15
72
17
73
16
0
VERTEX
8
OBJECT__3
10
0
20
0
30
0
70
128
71
17
72
18
73
19
0
VERTEX
8
OBJECT__3
10
0
20
0
30
0
70
128
71
20
72
8
73
21
0
VERTEX
8
OBJECT__3
10
0
20
0
30
0
70
128
71
21
72
18
73
20
0
VERTEX
8
OBJECT__3
10
0
20
0
30
0
70
128
71
20
72
1
73
8
0
VERTEX
8
OBJECT__3
10
0
20
0
30
0
70
128
71
21
72
19
73
18
0
VERTEX
8
OBJECT__3
10
0
20
0
30
0
70
128
71
22
72
23
73
24
0
VERTEX
8
OBJECT__3
10
0
20
0
30
0
70
128
71
25
72
26
73
27
0
VERTEX
8
OBJECT__3
10
0
20
0
30
0
70
128
71
23
72
27
73
26
0
VERTEX
8
OBJECT__3
10
0
20
0
30
0
70
128
71
26
72
24
73
23
0
VERTEX
8
OBJECT__3
10
0
20
0
30
0
70
128
71
27
72
28
73
25
0
VERTEX
8
OBJECT__3
10
0
20
0
30
0
70
128
71
29
72
30
73
31
0
VERTEX
8
OBJECT__3
10
0
20
0
30
0
70
128
71
32
72
31
73
30
0
VERTEX
8
OBJECT__3
10
0
20
0
30
0
70
128
71
33
72
32
73
34
0
VERTEX
8
OBJECT__3
10
0
20
0
30
0
70
128
71
34
72
22
73
33
0
VERTEX
8
OBJECT__3
10
0
20
0
30
0
70
128
71
30
72
34
73
32
0
VERTEX
8
OBJECT__3
10
0
20
0
30
0
70
128
71
35
72
36
73
37
0
VERTEX
8
OBJECT__3
10
0
20
0
30
0
70
128
71
4
72
5
73
35
0
VERTEX
8
OBJECT__3
10
0
20
0
30
0
70
128
71
36
72
38
73
39
0
VERTEX
8
OBJECT__3
10
0
20
0
30
0
70
128
71
39
72
37
73
36
0
VERTEX
8
OBJECT__3
10
0
20
0
30
0
70
128
71
28
72
39
73
38
0
VERTEX
8
OBJECT__3
10
0
20
0
30
0
70
128
71
38
72
25
73
28
0
VERTEX
8
OBJECT__3
10
0
20
0
30
0
70
128
71
40
72
41
73
42
0
VERTEX
8
OBJECT__3
10
0
20
0
30
0
70
128
71
42
72
43
73
40
0
VERTEX
8
OBJECT__3
10
0
20
0
30
0
70
128
71
44
72
12
73
45
0
VERTEX
8
OBJECT__3
10
0
20
0
30
0
70
128
71
45
72
43
73
44
0
VERTEX
8
OBJECT__3
10
0
20
0
30
0
70
128
71
12
72
10
73
45
0
VERTEX
8
OBJECT__3
10
0
20
0
30
0
70
128
71
46
72
47
73
48
0
VERTEX
8
OBJECT__3
10
0
20
0
30
0
70
128
71
49
72
48
73
47
0
VERTEX
8
OBJECT__3
10
0
20
0
30
0
70
128
71
47
72
50
73
49
0
VERTEX
8
OBJECT__3
10
0
20
0
30
0
70
128
71
51
72
49
73
50
0
VERTEX
8
OBJECT__3
10
0
20
0
30
0
70
128
71
50
72
29
73
51
0
VERTEX
8
OBJECT__3
10
0
20
0
30
0
70
128
71
48
72
52
73
46
0
VERTEX
8
OBJECT__3
10
0
20
0
30
0
70
128
71
42
72
44
73
43
0
VERTEX
8
OBJECT__3
10
0
20
0
30
0
70
128
71
37
72
4
73
35
0
VERTEX
8
OBJECT__3
10
0
20
0
30
0
70
128
71
31
72
51
73
29
0
VERTEX
8
OBJECT__3
10
0
20
0
30
0
70
128
71
24
72
33
73
22
0
VERTEX
8
OBJECT__3
10
0
20
0
30
0
70
128
71
19
72
16
73
17
0
VERTEX
8
OBJECT__3
10
0
20
0
30
0
70
128
71
11
72
13
73
9
0
SEQEND
8
OBJECT__3
0
POLYLINE
8
OBJECT__4
66
1
70
64
71
70
72
70
62
253
0
VERTEX
8
OBJECT__4
10
9.929000
20
-23.969999
30
11.811000
70
192
0
VERTEX
8
OBJECT__4
10
11.389000
20
-23.372999
30
11.811000
70
192
0
VERTEX
8
OBJECT__4
10
42.537998
20
-87.532997
30
11.811000
70
192
0
VERTEX
8
OBJECT__4
10
15.947000
20
-20.535000
30
11.811000
70
192
0
VERTEX
8
OBJECT__4
10
50.424999
20
-74.450996
30
11.811000
70
192
0
VERTEX
8
OBJECT__4
10
34.715000
20
-94.443001
30
11.811000
70
192
0
VERTEX
8
OBJECT__4
10
8.251000
20
-24.656000
30
11.811000
70
192
0
VERTEX
8
OBJECT__4
10
-8.960000
20
-24.408001
30
11.811000
70
192
0
VERTEX
8
OBJECT__4
10
-28.851000
20
-74.512001
30
11.811000
70
192
0
VERTEX
8
OBJECT__4
10
-31.611000
20
-59.467999
30
11.811000
70
192
0
VERTEX
8
OBJECT__4
10
20.822001
20
-100.642998
30
11.811000
70
192
0
VERTEX
8
OBJECT__4
10
3.011000
20
-25.825001
30
11.811000
70
192
0
VERTEX
8
OBJECT__4
10
5.611000
20
-101.536003
30
11.811000
70
192
0
VERTEX
8
OBJECT__4
10
-0.001000
20
-25.978001
30
11.811000
70
192
0
VERTEX
8
OBJECT__4
10
-8.951000
20
-96.983002
30
11.811000
70
192
0
VERTEX
8
OBJECT__4
10
-5.707000
20
-25.365999
30
11.811000
70
192
0
VERTEX
8
OBJECT__4
10
-20.957001
20
-87.567001
30
11.811000
70
192
0
VERTEX
8
OBJECT__4
10
-13.782000
20
-22.047001
30
11.811000
70
192
0
VERTEX
8
OBJECT__4
10
-9.911000
20
-23.941999
30
11.811000
70
192
0
VERTEX
8
OBJECT__4
10
-0.375000
20
-25.997000
30
11.811000
70
192
0
VERTEX
8
OBJECT__4
10
53.160999
20
-59.467999
30
11.811000
70
192
0
VERTEX
8
OBJECT__4
10
25.856001
20
-2.732000
30
11.811000
70
192
0
VERTEX
8
OBJECT__4
10
26.000000
20
0.000000
30
11.811000
70
192
0
VERTEX
8
OBJECT__4
10
25.281000
20
-6.073000
30
11.811000
70
192
0
VERTEX
8
OBJECT__4
10
18.379000
20
-18.378000
30
11.811000
70
192
0
VERTEX
8
OBJECT__4
10
53.160999
20
59.467999
30
11.811000
70
192
0
VERTEX
8
OBJECT__4
10
23.493999
20
-11.136000
30
11.811000
70
192
0
VERTEX
8
OBJECT__4
10
23.924999
20
-9.916000
30
11.811000
70
192
0
VERTEX
8
OBJECT__4
10
-16.534000
20
-20.066000
30
11.811000
70
192
0
VERTEX
8
OBJECT__4
10
-24.534000
20
-8.606000
30
11.811000
70
192
0
VERTEX
8
OBJECT__4
10
-23.922001
20
-9.903000
30
11.811000
70
192
0
VERTEX
8
OBJECT__4
10
-20.302999
20
-16.242001
30
11.811000
70
192
0
VERTEX
8
OBJECT__4
10
-18.285999
20
-18.288000
30
11.811000
70
192
0
VERTEX
8
OBJECT__4
10
-22.243000
20
-13.462000
30
11.811000
70
192
0
VERTEX
8
OBJECT__4
10
-9.903000
20
23.922001
30
11.811000
70
192
0
VERTEX
8
OBJECT__4
10
-13.462000
20
22.243000
30
11.811000
70
192
0
VERTEX
8
OBJECT__4
10
-31.611000
20
59.467999
30
11.811000
70
192
0
VERTEX
8
OBJECT__4
10
25.445999
20
5.341000
30
11.811000
70
192
0
VERTEX
8
OBJECT__4
10
-25.445999
20
-5.341000
30
11.811000
70
192
0
VERTEX
8
OBJECT__4
10
-28.851000
20
74.512001
30
11.811000
70
192
0
VERTEX
8
OBJECT__4
10
-8.606000
20
24.534000
30
11.811000
70
192
0
VERTEX
8
OBJECT__4
10
-5.341000
20
25.445999
30
11.811000
70
192
0
VERTEX
8
OBJECT__4
10
0.000000
20
26.000000
30
11.811000
70
192
0
VERTEX
8
OBJECT__4
10
-20.957001
20
87.567001
30
11.811000
70
192
0
VERTEX
8
OBJECT__4
10
-8.951000
20
96.983002
30
11.811000
70
192
0
VERTEX
8
OBJECT__4
10
8.960000
20
24.408001
30
11.811000
70
192
0
VERTEX
8
OBJECT__4
10
34.715000
20
94.443001
30
11.811000
70
192
0
VERTEX
8
OBJECT__4
10
42.537998
20
87.532997
30
11.811000
70
192
0
VERTEX
8
OBJECT__4
10
9.911000
20
23.941999
30
11.811000
70
192
0
VERTEX
8
OBJECT__4
10
50.424999
20
74.450996
30
11.811000
70
192
0
VERTEX
8
OBJECT__4
10
24.534000
20
8.606000
30
11.811000
70
192
0
VERTEX
8
OBJECT__4
10
23.922001
20
9.903000
30
11.811000
70
192
0
VERTEX
8
OBJECT__4
10
21.844999
20
-14.099000
30
11.811000
70
192
0
VERTEX
8
OBJECT__4
10
5.611000
20
101.536003
30
11.811000
70
192
0
VERTEX
8
OBJECT__4
10
5.707000
20
25.365999
30
11.811000
70
192
0
VERTEX
8
OBJECT__4
10
13.782000
20
22.047001
30
11.811000
70
192
0
VERTEX
8
OBJECT__4
10
18.483999
20
-18.285000
30
11.811000
70
192
0
VERTEX
8
OBJECT__4
10
-22.047001
20
13.782000
30
11.811000
70
192
0
VERTEX
8
OBJECT__4
10
-23.941999
20
9.911000
30
11.811000
70
192
0
VERTEX
8
OBJECT__4
10
-26.000000
20
0.000000
30
11.811000
70
192
0
VERTEX
8
OBJECT__4
10
-24.408001
20
8.960000
30
11.811000
70
192
0
VERTEX
8
OBJECT__4
10
-16.242001
20
20.302999
30
11.811000
70
192
0
VERTEX
8
OBJECT__4
10
-18.288000
20
18.285999
30
11.811000
70
192
0
VERTEX
8
OBJECT__4
10
16.533001
20
20.066000
30
11.811000
70
192
0
VERTEX
8
OBJECT__4
10
20.302999
20
16.242001
30
11.811000
70
192
0
VERTEX
8
OBJECT__4
10
18.285999
20
18.288000
30
11.811000
70
192
0
VERTEX
8
OBJECT__4
10
-20.066000
20
16.534000
30
11.811000
70
192
0
VERTEX
8
OBJECT__4
10
22.243000
20
13.462000
30
11.811000
70
192
0
VERTEX
8
OBJECT__4
10
20.822001
20
100.642998
30
11.811000
70
192
0
VERTEX
8
OBJECT__4
10
-25.365999
20
5.707000
30
11.811000
70
192
0
VERTEX
8
OBJECT__4
10
0
20
0
30
0
70
128
71
1
72
2
73
3
0
VERTEX
8
OBJECT__4
10
0
20
0
30
0
70
128
71
2
72
4
73
5
0
VERTEX
8
OBJECT__4
10
0
20
0
30
0
70
128
71
6
72
7
73
1
0
VERTEX
8
OBJECT__4
10
0
20
0
30
0
70
128
71
8
72
9
73
10
0
VERTEX
8
OBJECT__4
10
0
20
0
30
0
70
128
71
3
72
6
73
1
0
VERTEX
8
OBJECT__4
10
0
20
0
30
0
70
128
71
11
72
12
73
7
0
VERTEX
8
OBJECT__4
10
0
20
0
30
0
70
128
71
13
72
14
73
12
0
VERTEX
8
OBJECT__4
10
0
20
0
30
0
70
128
71
14
72
13
73
15
0
VERTEX
8
OBJECT__4
10
0
20
0
30
0
70
128
71
16
72
17
73
9
0
VERTEX
8
OBJECT__4
10
0
20
0
30
0
70
128
71
10
72
18
73
19
0
VERTEX
8
OBJECT__4
10
0
20
0
30
0
70
128
71
7
72
6
73
11
0
VERTEX
8
OBJECT__4
10
0
20
0
30
0
70
128
71
15
72
20
73
14
0
VERTEX
8
OBJECT__4
10
0
20
0
30
0
70
128
71
20
72
15
73
17
0
VERTEX
8
OBJECT__4
10
0
20
0
30
0
70
128
71
10
72
19
73
8
0
VERTEX
8
OBJECT__4
10
0
20
0
30
0
70
128
71
21
72
22
73
23
0
VERTEX
8
OBJECT__4
10
0
20
0
30
0
70
128
71
12
72
11
73
13
0
VERTEX
8
OBJECT__4
10
0
20
0
30
0
70
128
71
9
72
8
73
16
0
VERTEX
8
OBJECT__4
10
0
20
0
30
0
70
128
71
21
72
24
73
22
0
VERTEX
8
OBJECT__4
10
0
20
0
30
0
70
128
71
4
72
25
73
21
0
VERTEX
8
OBJECT__4
10
0
20
0
30
0
70
128
71
17
72
16
73
20
0
VERTEX
8
OBJECT__4
10
0
20
0
30
0
70
128
71
23
72
26
73
21
0
VERTEX
8
OBJECT__4
10
0
20
0
30
0
70
128
71
21
72
27
73
28
0
VERTEX
8
OBJECT__4
10
0
20
0
30
0
70
128
71
21
72
5
73
4
0
VERTEX
8
OBJECT__4
10
0
20
0
30
0
70
128
71
10
72
29
73
18
0
VERTEX
8
OBJECT__4
10
0
20
0
30
0
70
128
71
10
72
30
73
31
0
VERTEX
8
OBJECT__4
10
0
20
0
30
0
70
128
71
28
72
24
73
21
0
VERTEX
8
OBJECT__4
10
0
20
0
30
0
70
128
71
5
72
3
73
2
0
VERTEX
8
OBJECT__4
10
0
20
0
30
0
70
128
71
10
72
32
73
33
0
VERTEX
8
OBJECT__4
10
0
20
0
30
0
70
128
71
31
72
34
73
10
0
VERTEX
8
OBJECT__4
10
0
20
0
30
0
70
128
71
35
72
36
73
37
0
VERTEX
8
OBJECT__4
10
0
20
0
30
0
70
128
71
23
72
38
73
26
0
VERTEX
8
OBJECT__4
10
0
20
0
30
0
70
128
71
33
72
29
73
10
0
VERTEX
8
OBJECT__4
10
0
20
0
30
0
70
128
71
10
72
39
73
30
0
VERTEX
8
OBJECT__4
10
0
20
0
30
0
70
128
71
40
72
41
73
35
0
VERTEX
8
OBJECT__4
10
0
20
0
30
0
70
128
71
42
72
41
73
40
0
VERTEX
8
OBJECT__4
10
0
20
0
30
0
70
128
71
43
72
42
73
44
0
VERTEX
8
OBJECT__4
10
0
20
0
30
0
70
128
71
46
72
47
73
48
0
VERTEX
8
OBJECT__4
10
0
20
0
30
0
70
128
71
49
72
48
73
50
0
VERTEX
8
OBJECT__4
10
0
20
0
30
0
70
128
71
26
72
51
73
52
0
VERTEX
8
OBJECT__4
10
0
20
0
30
0
70
128
71
21
72
53
73
27
0
VERTEX
8
OBJECT__4
10
0
20
0
30
0
70
128
71
34
72
32
73
10
0
VERTEX
8
OBJECT__4
10
0
20
0
30
0
70
128
71
40
72
44
73
42
0
VERTEX
8
OBJECT__4
10
0
20
0
30
0
70
128
71
45
72
54
73
43
0
VERTEX
8
OBJECT__4
10
0
20
0
30
0
70
128
71
47
72
46
73
55
0
VERTEX
8
OBJECT__4
10
0
20
0
30
0
70
128
71
50
72
56
73
49
0
VERTEX
8
OBJECT__4
10
0
20
0
30
0
70
128
71
38
72
51
73
26
0
VERTEX
8
OBJECT__4
10
0
20
0
30
0
70
128
71
25
72
57
73
21
0
VERTEX
8
OBJECT__4
10
0
20
0
30
0
70
128
71
37
72
58
73
59
0
VERTEX
8
OBJECT__4
10
0
20
0
30
0
70
128
71
44
72
45
73
43
0
VERTEX
8
OBJECT__4
10
0
20
0
30
0
70
128
71
48
72
49
73
46
0
VERTEX
8
OBJECT__4
10
0
20
0
30
0
70
128
71
56
72
50
73
26
0
VERTEX
8
OBJECT__4
10
0
20
0
30
0
70
128
71
57
72
53
73
21
0
VERTEX
8
OBJECT__4
10
0
20
0
30
0
70
128
71
10
72
37
73
60
0
VERTEX
8
OBJECT__4
10
0
20
0
30
0
70
128
71
59
72
61
73
37
0
VERTEX
8
OBJECT__4
10
0
20
0
30
0
70
128
71
37
72
62
73
63
0
VERTEX
8
OBJECT__4
10
0
20
0
30
0
70
128
71
37
72
40
73
35
0
VERTEX
8
OBJECT__4
10
0
20
0
30
0
70
128
71
26
72
64
73
56
0
VERTEX
8
OBJECT__4
10
0
20
0
30
0
70
128
71
26
72
65
73
66
0
VERTEX
8
OBJECT__4
10
0
20
0
30
0
70
128
71
60
72
39
73
10
0
VERTEX
8
OBJECT__4
10
0
20
0
30
0
70
128
71
37
72
67
73
58
0
VERTEX
8
OBJECT__4
10
0
20
0
30
0
70
128
71
36
72
62
73
37
0
VERTEX
8
OBJECT__4
10
0
20
0
30
0
70
128
71
66
72
64
73
26
0
VERTEX
8
OBJECT__4
10
0
20
0
30
0
70
128
71
52
72
68
73
26
0
VERTEX
8
OBJECT__4
10
0
20
0
30
0
70
128
71
63
72
67
73
37
0
VERTEX
8
OBJECT__4
10
0
20
0
30
0
70
128
71
54
72
69
73
55
0
VERTEX
8
OBJECT__4
10
0
20
0
30
0
70
128
71
68
72
65
73
26
0
VERTEX
8
OBJECT__4
10
0
20
0
30
0
70
128
71
61
72
70
73
37
0
VERTEX
8
OBJECT__4
10
0
20
0
30
0
70
128
71
55
72
69
73
47
0
VERTEX
8
OBJECT__4
10
0
20
0
30
0
70
128
71
55
72
43
73
54
0
VERTEX
8
OBJECT__4
10
0
20
0
30
0
70
128
71
70
72
60
73
37
0
SEQEND
8
OBJECT__4
0
POLYLINE
8
OBJECT__5
66
1
70
64
71
4
72
2
62
253
0
VERTEX
8
OBJECT__5
10
53.160999
20
59.467999
30
19.646000
70
192
0
VERTEX
8
OBJECT__5
10
53.160999
20
-59.467999
30
19.646000
70
192
0
VERTEX
8
OBJECT__5
10
53.160999
20
-59.467999
30
11.811000
70
192
0
VERTEX
8
OBJECT__5
10
53.160999
20
59.467999
30
11.811000
70
192
0
VERTEX
8
OBJECT__5
10
0
20
0
30
0
70
128
71
1
72
2
73
3
0
VERTEX
8
OBJECT__5
10
0
20
0
30
0
70
128
71
3
72
4
73
1
0
SEQEND
8
OBJECT__5
0
POLYLINE
8
OBJECT__6
66
1
70
64
71
35
72
33
62
253
0
VERTEX
8
OBJECT__6
10
-31.611000
20
-59.467999
30
11.811000
70
192
0
VERTEX
8
OBJECT__6
10
-28.851000
20
-74.512001
30
11.811000
70
192
0
VERTEX
8
OBJECT__6
10
-30.117001
20
-67.612000
30
19.646000
70
192
0
VERTEX
8
OBJECT__6
10
-28.851000
20
-74.512001
30
19.646000
70
192
0
VERTEX
8
OBJECT__6
10
-20.957001
20
-87.567001
30
11.811000
70
192
0
VERTEX
8
OBJECT__6
10
-23.912001
20
-82.680000
30
19.646000
70
192
0
VERTEX
8
OBJECT__6
10
-20.957001
20
-87.567001
30
19.646000
70
192
0
VERTEX
8
OBJECT__6
10
-28.205000
20
-75.580002
30
19.646000
70
192
0
VERTEX
8
OBJECT__6
10
-8.951000
20
-96.983002
30
11.811000
70
192
0
VERTEX
8
OBJECT__6
10
-12.421000
20
-94.261002
30
19.646000
70
192
0
VERTEX
8
OBJECT__6
10
-18.958000
20
-89.135002
30
19.646000
70
192
0
VERTEX
8
OBJECT__6
10
-8.951000
20
-96.983002
30
19.646000
70
192
0
VERTEX
8
OBJECT__6
10
5.611000
20
-101.536003
30
11.811000
70
192
0
VERTEX
8
OBJECT__6
10
2.641000
20
-100.607002
30
19.646000
70
192
0
VERTEX
8
OBJECT__6
10
-5.289000
20
-98.127998
30
19.646000
70
192
0
VERTEX
8
OBJECT__6
10
5.611000
20
-101.536003
30
19.646000
70
192
0
VERTEX
8
OBJECT__6
10
20.822001
20
-100.642998
30
11.811000
70
192
0
VERTEX
8
OBJECT__6
10
19.027000
20
-100.749001
30
19.646000
70
192
0
VERTEX
8
OBJECT__6
10
10.739000
20
-101.235001
30
19.646000
70
192
0
VERTEX
8
OBJECT__6
10
20.822001
20
-100.642998
30
19.646000
70
192
0
VERTEX
8
OBJECT__6
10
34.715000
20
-94.443001
30
11.811000
70
192
0
VERTEX
8
OBJECT__6
10
34.289001
20
-94.633003
30
19.646000
70
192
0
VERTEX
8
OBJECT__6
10
26.719999
20
-98.011002
30
19.646000
70
192
0
VERTEX
8
OBJECT__6
10
34.715000
20
-94.443001
30
19.646000
70
192
0
VERTEX
8
OBJECT__6
10
42.537998
20
-87.532997
30
11.811000
70
192
0
VERTEX
8
OBJECT__6
10
40.585999
20
-89.257004
30
19.646000
70
192
0
VERTEX
8
OBJECT__6
10
42.537998
20
-87.532997
30
19.646000
70
192
0
VERTEX
8
OBJECT__6
10
50.424999
20
-74.450996
30
11.811000
70
192
0
VERTEX
8
OBJECT__6
10
49.747002
20
-75.574997
30
19.646000
70
192
0
VERTEX
8
OBJECT__6
10
45.463001
20
-82.681000
30
19.646000
70
192
0
VERTEX
8
OBJECT__6
10
50.424999
20
-74.450996
30
19.646000
70
192
0
VERTEX
8
OBJECT__6
10
53.160999
20
-59.467999
30
11.811000
70
192
0
VERTEX
8
OBJECT__6
10
53.160999
20
-59.467999
30
19.646000
70
192
0
VERTEX
8
OBJECT__6
10
51.673000
20
-67.613998
30
19.646000
70
192
0
VERTEX
8
OBJECT__6
10
-31.611000
20
-59.467999
30
19.646000
70
192
0
VERTEX
8
OBJECT__6
10
0
20
0
30
0
70
128
71
1
72
2
73
3
0
VERTEX
8
OBJECT__6
10
0
20
0
30
0
70
128
71
2
72
4
73
3
0
VERTEX
8
OBJECT__6
10
0
20
0
30
0
70
128
71
2
72
5
73
6
0
VERTEX
8
OBJECT__6
10
0
20
0
30
0
70
128
71
5
72
7
73
6
0
VERTEX
8
OBJECT__6
10
0
20
0
30
0
70
128
71
6
72
8
73
2
0
VERTEX
8
OBJECT__6
10
0
20
0
30
0
70
128
71
5
72
9
73
10
0
VERTEX
8
OBJECT__6
10
0
20
0
30
0
70
128
71
10
72
11
73
5
0
VERTEX
8
OBJECT__6
10
0
20
0
30
0
70
128
71
9
72
12
73
10
0
VERTEX
8
OBJECT__6
10
0
20
0
30
0
70
128
71
13
72
14
73
15
0
VERTEX
8
OBJECT__6
10
0
20
0
30
0
70
128
71
13
72
16
73
14
0
VERTEX
8
OBJECT__6
10
0
20
0
30
0
70
128
71
15
72
9
73
13
0
VERTEX
8
OBJECT__6
10
0
20
0
30
0
70
128
71
17
72
18
73
19
0
VERTEX
8
OBJECT__6
10
0
20
0
30
0
70
128
71
19
72
13
73
17
0
VERTEX
8
OBJECT__6
10
0
20
0
30
0
70
128
71
17
72
20
73
18
0
VERTEX
8
OBJECT__6
10
0
20
0
30
0
70
128
71
21
72
22
73
23
0
VERTEX
8
OBJECT__6
10
0
20
0
30
0
70
128
71
23
72
17
73
21
0
VERTEX
8
OBJECT__6
10
0
20
0
30
0
70
128
71
21
72
24
73
22
0
VERTEX
8
OBJECT__6
10
0
20
0
30
0
70
128
71
21
72
25
73
26
0
VERTEX
8
OBJECT__6
10
0
20
0
30
0
70
128
71
25
72
27
73
26
0
VERTEX
8
OBJECT__6
10
0
20
0
30
0
70
128
71
28
72
29
73
30
0
VERTEX
8
OBJECT__6
10
0
20
0
30
0
70
128
71
30
72
25
73
28
0
VERTEX
8
OBJECT__6
10
0
20
0
30
0
70
128
71
28
72
31
73
29
0
VERTEX
8
OBJECT__6
10
0
20
0
30
0
70
128
71
32
72
33
73
34
0
VERTEX
8
OBJECT__6
10
0
20
0
30
0
70
128
71
34
72
28
73
32
0
VERTEX
8
OBJECT__6
10
0
20
0
30
0
70
128
71
34
72
31
73
28
0
VERTEX
8
OBJECT__6
10
0
20
0
30
0
70
128
71
30
72
27
73
25
0
VERTEX
8
OBJECT__6
10
0
20
0
30
0
70
128
71
26
72
24
73
21
0
VERTEX
8
OBJECT__6
10
0
20
0
30
0
70
128
71
23
72
20
73
17
0
VERTEX
8
OBJECT__6
10
0
20
0
30
0
70
128
71
19
72
16
73
13
0
VERTEX
8
OBJECT__6
10
0
20
0
30
0
70
128
71
15
72
12
73
9
0
VERTEX
8
OBJECT__6
10
0
20
0
30
0
70
128
71
11
72
7
73
5
0
VERTEX
8
OBJECT__6
10
0
20
0
30
0
70
128
71
8
72
4
73
2
0
VERTEX
8
OBJECT__6
10
0
20
0
30
0
70
128
71
3
72
35
73
1
0
SEQEND
8
OBJECT__6
0
POLYLINE
8
OBJECT__7
66
1
70
64
71
4
72
2
62
253
0
VERTEX
8
OBJECT__7
10
-31.611000
20
59.467999
30
19.646000
70
192
0
VERTEX
8
OBJECT__7
10
-31.611000
20
59.467999
30
11.811000
70
192
0
VERTEX
8
OBJECT__7
10
-31.611000
20
-59.467999
30
11.811000
70
192
0
VERTEX
8
OBJECT__7
10
-31.611000
20
-59.467999
30
19.646000
70
192
0
VERTEX
8
OBJECT__7
10
0
20
0
30
0
70
128
71
1
72
2
73
3
0
VERTEX
8
OBJECT__7
10
0
20
0
30
0
70
128
71
3
72
4
73
1
0
SEQEND
8
OBJECT__7
0
POLYLINE
8
OBJECT__8
66
1
70
64
71
55
72
53
62
253
0
VERTEX
8
OBJECT__8
10
19.027000
20
-100.749001
30
19.646000
70
192
0
VERTEX
8
OBJECT__8
10
18.552000
20
-98.596001
30
21.645000
70
192
0
VERTEX
8
OBJECT__8
10
13.140000
20
-99.748001
30
21.645000
70
192
0
VERTEX
8
OBJECT__8
10
10.739000
20
-101.235001
30
19.646000
70
192
0
VERTEX
8
OBJECT__8
10
-31.011999
20
-59.467999
30
21.072001
70
192
0
VERTEX
8
OBJECT__8
10
-30.117001
20
-67.612000
30
19.646000
70
192
0
VERTEX
8
OBJECT__8
10
-29.016001
20
-66.147003
30
21.645000
70
192
0
VERTEX
8
OBJECT__8
10
-29.575001
20
-59.467999
30
21.645000
70
192
0
VERTEX
8
OBJECT__8
10
-28.641001
20
-67.288002
30
21.645000
70
192
0
VERTEX
8
OBJECT__8
10
43.962002
20
-82.416000
30
21.645000
70
192
0
VERTEX
8
OBJECT__8
10
38.984001
20
-87.695000
30
21.645000
70
192
0
VERTEX
8
OBJECT__8
10
42.537998
20
-87.532997
30
19.646000
70
192
0
VERTEX
8
OBJECT__8
10
40.585999
20
-89.257004
30
19.646000
70
192
0
VERTEX
8
OBJECT__8
10
45.463001
20
-82.681000
30
19.646000
70
192
0
VERTEX
8
OBJECT__8
10
44.241001
20
-81.844002
30
21.645000
70
192
0
VERTEX
8
OBJECT__8
10
34.289001
20
-94.633003
30
19.646000
70
192
0
VERTEX
8
OBJECT__8
10
33.023998
20
-92.718002
30
21.645000
70
192
0
VERTEX
8
OBJECT__8
10
26.132000
20
-96.597000
30
21.645000
70
192
0
VERTEX
8
OBJECT__8
10
20.822001
20
-100.642998
30
19.646000
70
192
0
VERTEX
8
OBJECT__8
10
26.719999
20
-98.011002
30
19.646000
70
192
0
VERTEX
8
OBJECT__8
10
25.035000
20
-97.213997
30
21.645000
70
192
0
VERTEX
8
OBJECT__8
10
34.715000
20
-94.443001
30
19.646000
70
192
0
VERTEX
8
OBJECT__8
10
35.632999
20
-91.250000
30
21.645000
70
192
0
VERTEX
8
OBJECT__8
10
47.705002
20
-74.738998
30
21.645000
70
192
0
VERTEX
8
OBJECT__8
10
49.747002
20
-75.574997
30
19.646000
70
192
0
VERTEX
8
OBJECT__8
10
50.424999
20
-74.450996
30
19.646000
70
192
0
VERTEX
8
OBJECT__8
10
51.673000
20
-67.613998
30
19.646000
70
192
0
VERTEX
8
OBJECT__8
10
49.937000
20
-67.277000
30
21.645000
70
192
0
VERTEX
8
OBJECT__8
10
49.297001
20
-71.472000
30
21.645000
70
192
0
VERTEX
8
OBJECT__8
10
52.563000
20
-59.467999
30
21.072001
70
192
0
VERTEX
8
OBJECT__8
10
51.125999
20
-59.467999
30
21.645000
70
192
0
VERTEX
8
OBJECT__8
10
53.160999
20
-59.467999
30
19.646000
70
192
0
VERTEX
8
OBJECT__8
10
-12.421000
20
-94.261002
30
19.646000
70
192
0
VERTEX
8
OBJECT__8
10
-11.390000
20
-92.670998
30
21.645000
70
192
0
VERTEX
8
OBJECT__8
10
-17.610001
20
-88.146004
30
21.645000
70
192
0
VERTEX
8
OBJECT__8
10
-18.958000
20
-89.135002
30
19.646000
70
192
0
VERTEX
8
OBJECT__8
10
-23.912001
20
-82.680000
30
19.646000
70
192
0
VERTEX
8
OBJECT__8
10
-22.420000
20
-81.632004
30
21.645000
70
192
0
VERTEX
8
OBJECT__8
10
-25.209999
20
-77.720001
30
21.645000
70
192
0
VERTEX
8
OBJECT__8
10
-28.205000
20
-75.580002
30
19.646000
70
192
0
VERTEX
8
OBJECT__8
10
-28.851000
20
-74.512001
30
19.646000
70
192
0
VERTEX
8
OBJECT__8
10
-26.171000
20
-74.800003
30
21.645000
70
192
0
VERTEX
8
OBJECT__8
10
-20.957001
20
-87.567001
30
19.646000
70
192
0
VERTEX
8
OBJECT__8
10
-18.191999
20
-87.557999
30
21.645000
70
192
0
VERTEX
8
OBJECT__8
10
-17.756001
20
-87.999001
30
21.645000
70
192
0
VERTEX
8
OBJECT__8
10
-5.289000
20
-98.127998
30
19.646000
70
192
0
VERTEX
8
OBJECT__8
10
2.641000
20
-100.607002
30
19.646000
70
192
0
VERTEX
8
OBJECT__8
10
2.941000
20
-98.931000
30
21.645000
70
192
0
VERTEX
8
OBJECT__8
10
-7.781000
20
-95.296997
30
21.645000
70
192
0
VERTEX
8
OBJECT__8
10
-4.547000
20
-96.393997
30
21.645000
70
192
0
VERTEX
8
OBJECT__8
10
-8.951000
20
-96.983002
30
19.646000
70
192
0
VERTEX
8
OBJECT__8
10
10.788000
20
-99.610001
30
21.645000
70
192
0
VERTEX
8
OBJECT__8
10
3.714000
20
-99.193001
30
21.645000
70
192
0
VERTEX
8
OBJECT__8
10
5.611000
20
-101.536003
30
19.646000
70
192
0
VERTEX
8
OBJECT__8
10
-31.611000
20
-59.467999
30
19.646000
70
192
0
VERTEX
8
OBJECT__8
10
0
20
0
30
0
70
128
71
1
72
2
73
3
0
VERTEX
8
OBJECT__8
10
0
20
0
30
0
70
128
71
3
72
4
73
1
0
VERTEX
8
OBJECT__8
10
0
20
0
30
0
70
128
71
5
72
6
73
7
0
VERTEX
8
OBJECT__8
10
0
20
0
30
0
70
128
71
7
72
8
73
5
0
VERTEX
8
OBJECT__8
10
0
20
0
30
0
70
128
71
6
72
9
73
7
0
VERTEX
8
OBJECT__8
10
0
20
0
30
0
70
128
71
10
72
11
73
12
0
VERTEX
8
OBJECT__8
10
0
20
0
30
0
70
128
71
11
72
13
73
12
0
VERTEX
8
OBJECT__8
10
0
20
0
30
0
70
128
71
14
72
15
73
10
0
VERTEX
8
OBJECT__8
10
0
20
0
30
0
70
128
71
16
72
17
73
18
0
VERTEX
8
OBJECT__8
10
0
20
0
30
0
70
128
71
19
72
20
73
21
0
VERTEX
8
OBJECT__8
10
0
20
0
30
0
70
128
71
2
72
1
73
19
0
VERTEX
8
OBJECT__8
10
0
20
0
30
0
70
128
71
20
72
18
73
21
0
VERTEX
8
OBJECT__8
10
0
20
0
30
0
70
128
71
17
72
16
73
22
0
VERTEX
8
OBJECT__8
10
0
20
0
30
0
70
128
71
13
72
11
73
23
0
VERTEX
8
OBJECT__8
10
0
20
0
30
0
70
128
71
23
72
22
73
13
0
VERTEX
8
OBJECT__8
10
0
20
0
30
0
70
128
71
24
72
25
73
26
0
VERTEX
8
OBJECT__8
10
0
20
0
30
0
70
128
71
27
72
28
73
29
0
VERTEX
8
OBJECT__8
10
0
20
0
30
0
70
128
71
29
72
26
73
27
0
VERTEX
8
OBJECT__8
10
0
20
0
30
0
70
128
71
25
72
24
73
15
0
VERTEX
8
OBJECT__8
10
0
20
0
30
0
70
128
71
27
72
30
73
31
0
VERTEX
8
OBJECT__8
10
0
20
0
30
0
70
128
71
27
72
32
73
30
0
VERTEX
8
OBJECT__8
10
0
20
0
30
0
70
128
71
33
72
34
73
35
0
VERTEX
8
OBJECT__8
10
0
20
0
30
0
70
128
71
35
72
36
73
33
0
VERTEX
8
OBJECT__8
10
0
20
0
30
0
70
128
71
37
72
38
73
39
0
VERTEX
8
OBJECT__8
10
0
20
0
30
0
70
128
71
39
72
40
73
37
0
VERTEX
8
OBJECT__8
10
0
20
0
30
0
70
128
71
9
72
6
73
41
0
VERTEX
8
OBJECT__8
10
0
20
0
30
0
70
128
71
41
72
42
73
9
0
VERTEX
8
OBJECT__8
10
0
20
0
30
0
70
128
71
38
72
37
73
43
0
VERTEX
8
OBJECT__8
10
0
20
0
30
0
70
128
71
43
72
44
73
38
0
VERTEX
8
OBJECT__8
10
0
20
0
30
0
70
128
71
36
72
45
73
44
0
VERTEX
8
OBJECT__8
10
0
20
0
30
0
70
128
71
46
72
47
73
48
0
VERTEX
8
OBJECT__8
10
0
20
0
30
0
70
128
71
49
72
34
73
33
0
VERTEX
8
OBJECT__8
10
0
20
0
30
0
70
128
71
46
72
50
73
49
0
VERTEX
8
OBJECT__8
10
0
20
0
30
0
70
128
71
49
72
51
73
46
0
VERTEX
8
OBJECT__8
10
0
20
0
30
0
70
128
71
52
72
53
73
54
0
VERTEX
8
OBJECT__8
10
0
20
0
30
0
70
128
71
53
72
47
73
54
0
VERTEX
8
OBJECT__8
10
0
20
0
30
0
70
128
71
54
72
4
73
52
0
VERTEX
8
OBJECT__8
10
0
20
0
30
0
70
128
71
53
72
48
73
47
0
VERTEX
8
OBJECT__8
10
0
20
0
30
0
70
128
71
33
72
51
73
49
0
VERTEX
8
OBJECT__8
10
0
20
0
30
0
70
128
71
48
72
50
73
46
0
VERTEX
8
OBJECT__8
10
0
20
0
30
0
70
128
71
43
72
36
73
44
0
VERTEX
8
OBJECT__8
10
0
20
0
30
0
70
128
71
41
72
40
73
42
0
VERTEX
8
OBJECT__8
10
0
20
0
30
0
70
128
71
39
72
42
73
40
0
VERTEX
8
OBJECT__8
10
0
20
0
30
0
70
128
71
35
72
45
73
36
0
VERTEX
8
OBJECT__8
10
0
20
0
30
0
70
128
71
31
72
28
73
27
0
VERTEX
8
OBJECT__8
10
0
20
0
30
0
70
128
71
15
72
14
73
25
0
VERTEX
8
OBJECT__8
10
0
20
0
30
0
70
128
71
26
72
29
73
24
0
VERTEX
8
OBJECT__8
10
0
20
0
30
0
70
128
71
22
72
23
73
17
0
VERTEX
8
OBJECT__8
10
0
20
0
30
0
70
128
71
21
72
2
73
19
0
VERTEX
8
OBJECT__8
10
0
20
0
30
0
70
128
71
18
72
20
73
16
0
VERTEX
8
OBJECT__8
10
0
20
0
30
0
70
128
71
12
72
14
73
10
0
VERTEX
8
OBJECT__8
10
0
20
0
30
0
70
128
71
5
72
55
73
6
0
VERTEX
8
OBJECT__8
10
0
20
0
30
0
70
128
71
3
72
52
73
4
0
SEQEND
8
OBJECT__8
0
POLYLINE
8
OBJECT__9
66
1
70
64
71
35
72
33
62
253
0
VERTEX
8
OBJECT__9
10
-31.611000
20
59.467999
30
11.811000
70
192
0
VERTEX
8
OBJECT__9
10
-31.611000
20
59.467999
30
19.646000
70
192
0
VERTEX
8
OBJECT__9
10
-30.117001
20
67.612000
30
19.646000
70
192
0
VERTEX
8
OBJECT__9
10
-28.851000
20
74.512001
30
11.811000
70
192
0
VERTEX
8
OBJECT__9
10
-28.205000
20
75.580002
30
19.646000
70
192
0
VERTEX
8
OBJECT__9
10
-23.912001
20
82.680000
30
19.646000
70
192
0
VERTEX
8
OBJECT__9
10
-20.957001
20
87.567001
30
11.811000
70
192
0
VERTEX
8
OBJECT__9
10
-28.851000
20
74.512001
30
19.646000
70
192
0
VERTEX
8
OBJECT__9
10
-18.958000
20
89.135002
30
19.646000
70
192
0
VERTEX
8
OBJECT__9
10
-12.421000
20
94.261002
30
19.646000
70
192
0
VERTEX
8
OBJECT__9
10
-8.951000
20
96.983002
30
11.811000
70
192
0
VERTEX
8
OBJECT__9
10
-20.957001
20
87.567001
30
19.646000
70
192
0
VERTEX
8
OBJECT__9
10
5.611000
20
101.536003
30
11.811000
70
192
0
VERTEX
8
OBJECT__9
10
-5.289000
20
98.127998
30
19.646000
70
192
0
VERTEX
8
OBJECT__9
10
2.641000
20
100.607002
30
19.646000
70
192
0
VERTEX
8
OBJECT__9
10
-8.951000
20
96.983002
30
19.646000
70
192
0
VERTEX
8
OBJECT__9
10
20.822001
20
100.642998
30
11.811000
70
192
0
VERTEX
8
OBJECT__9
10
10.739000
20
101.235001
30
19.646000
70
192
0
VERTEX
8
OBJECT__9
10
5.611000
20
101.536003
30
19.646000
70
192
0
VERTEX
8
OBJECT__9
10
19.027000
20
100.749001
30
19.646000
70
192
0
VERTEX
8
OBJECT__9
10
34.715000
20
94.443001
30
11.811000
70
192
0
VERTEX
8
OBJECT__9
10
26.719999
20
98.011002
30
19.646000
70
192
0
VERTEX
8
OBJECT__9
10
34.289001
20
94.633003
30
19.646000
70
192
0
VERTEX
8
OBJECT__9
10
20.822001
20
100.642998
30
19.646000
70
192
0
VERTEX
8
OBJECT__9
10
34.715000
20
94.443001
30
19.646000
70
192
0
VERTEX
8
OBJECT__9
10
40.585999
20
89.257004
30
19.646000
70
192
0
VERTEX
8
OBJECT__9
10
42.537998
20
87.532997
30
11.811000
70
192
0
VERTEX
8
OBJECT__9
10
50.424999
20
74.450996
30
11.811000
70
192
0
VERTEX
8
OBJECT__9
10
45.463001
20
82.681000
30
19.646000
70
192
0
VERTEX
8
OBJECT__9
10
49.747002
20
75.574997
30
19.646000
70
192
0
VERTEX
8
OBJECT__9
10
42.537998
20
87.532997
30
19.646000
70
192
0
VERTEX
8
OBJECT__9
10
53.160999
20
59.467999
30
11.811000
70
192
0
VERTEX
8
OBJECT__9
10
51.673000
20
67.613998
30
19.646000
70
192
0
VERTEX
8
OBJECT__9
10
50.424999
20
74.450996
30
19.646000
70
192
0
VERTEX
8
OBJECT__9
10
53.160999
20
59.467999
30
19.646000
70
192
0
VERTEX
8
OBJECT__9
10
0
20
0
30
0
70
128
71
1
72
2
73
3
0
VERTEX
8
OBJECT__9
10
0
20
0
30
0
70
128
71
3
72
4
73
1
0
VERTEX
8
OBJECT__9
10
0
20
0
30
0
70
128
71
4
72
5
73
6
0
VERTEX
8
OBJECT__9
10
0
20
0
30
0
70
128
71
6
72
7
73
4
0
VERTEX
8
OBJECT__9
10
0
20
0
30
0
70
128
71
4
72
8
73
5
0
VERTEX
8
OBJECT__9
10
0
20
0
30
0
70
128
71
7
72
9
73
10
0
VERTEX
8
OBJECT__9
10
0
20
0
30
0
70
128
71
10
72
11
73
7
0
VERTEX
8
OBJECT__9
10
0
20
0
30
0
70
128
71
7
72
12
73
9
0
VERTEX
8
OBJECT__9
10
0
20
0
30
0
70
128
71
13
72
11
73
14
0
VERTEX
8
OBJECT__9
10
0
20
0
30
0
70
128
71
14
72
15
73
13
0
VERTEX
8
OBJECT__9
10
0
20
0
30
0
70
128
71
11
72
16
73
14
0
VERTEX
8
OBJECT__9
10
0
20
0
30
0
70
128
71
17
72
13
73
18
0
VERTEX
8
OBJECT__9
10
0
20
0
30
0
70
128
71
13
72
19
73
18
0
VERTEX
8
OBJECT__9
10
0
20
0
30
0
70
128
71
18
72
20
73
17
0
VERTEX
8
OBJECT__9
10
0
20
0
30
0
70
128
71
21
72
17
73
22
0
VERTEX
8
OBJECT__9
10
0
20
0
30
0
70
128
71
22
72
23
73
21
0
VERTEX
8
OBJECT__9
10
0
20
0
30
0
70
128
71
17
72
24
73
22
0
VERTEX
8
OBJECT__9
10
0
20
0
30
0
70
128
71
21
72
25
73
26
0
VERTEX
8
OBJECT__9
10
0
20
0
30
0
70
128
71
26
72
27
73
21
0
VERTEX
8
OBJECT__9
10
0
20
0
30
0
70
128
71
28
72
27
73
29
0
VERTEX
8
OBJECT__9
10
0
20
0
30
0
70
128
71
29
72
30
73
28
0
VERTEX
8
OBJECT__9
10
0
20
0
30
0
70
128
71
27
72
31
73
29
0
VERTEX
8
OBJECT__9
10
0
20
0
30
0
70
128
71
32
72
28
73
33
0
VERTEX
8
OBJECT__9
10
0
20
0
30
0
70
128
71
28
72
34
73
33
0
VERTEX
8
OBJECT__9
10
0
20
0
30
0
70
128
71
33
72
35
73
32
0
VERTEX
8
OBJECT__9
10
0
20
0
30
0
70
128
71
30
72
34
73
28
0
VERTEX
8
OBJECT__9
10
0
20
0
30
0
70
128
71
26
72
31
73
27
0
VERTEX
8
OBJECT__9
10
0
20
0
30
0
70
128
71
23
72
25
73
21
0
VERTEX
8
OBJECT__9
10
0
20
0
30
0
70
128
71
20
72
24
73
17
0
VERTEX
8
OBJECT__9
10
0
20
0
30
0
70
128
71
15
72
19
73
13
0
VERTEX
8
OBJECT__9
10
0
20
0
30
0
70
128
71
10
72
16
73
11
0
VERTEX
8
OBJECT__9
10
0
20
0
30
0
70
128
71
6
72
12
73
7
0
VERTEX
8
OBJECT__9
10
0
20
0
30
0
70
128
71
3
72
8
73
4
0
SEQEND
8
OBJECT__9
0
POLYLINE
8
OBJECT__10
66
1
70
64
71
6
72
4
62
253
0
VERTEX
8
OBJECT__10
10
53.160999
20
59.467999
30
19.646000
70
192
0
VERTEX
8
OBJECT__10
10
52.563000
20
59.467999
30
21.072001
70
192
0
VERTEX
8
OBJECT__10
10
52.563000
20
-59.467999
30
21.072001
70
192
0
VERTEX
8
OBJECT__10
10
51.125999
20
59.467999
30
21.645000
70
192
0
VERTEX
8
OBJECT__10
10
51.125999
20
-59.467999
30
21.645000
70
192
0
VERTEX
8
OBJECT__10
10
53.160999
20
-59.467999
30
19.646000
70
192
0
VERTEX
8
OBJECT__10
10
0
20
0
30
0
70
128
71
1
72
2
73
3
0
VERTEX
8
OBJECT__10
10
0
20
0
30
0
70
128
71
4
72
5
73
3
0
VERTEX
8
OBJECT__10
10
0
20
0
30
0
70
128
71
3
72
2
73
4
0
VERTEX
8
OBJECT__10
10
0
20
0
30
0
70
128
71
3
72
6
73
1
0
SEQEND
8
OBJECT__10
0
POLYLINE
8
OBJECT__11
66
1
70
64
71
6
72
4
62
253
0
VERTEX
8
OBJECT__11
10
-31.611000
20
-59.467999
30
19.646000
70
192
0
VERTEX
8
OBJECT__11
10
-31.011999
20
-59.467999
30
21.072001
70
192
0
VERTEX
8
OBJECT__11
10
-31.011999
20
59.467999
30
21.072001
70
192
0
VERTEX
8
OBJECT__11
10
-29.575001
20
-59.467999
30
21.645000
70
192
0
VERTEX
8
OBJECT__11
10
-29.575001
20
59.467999
30
21.645000
70
192
0
VERTEX
8
OBJECT__11
10
-31.611000
20
59.467999
30
19.646000
70
192
0
VERTEX
8
OBJECT__11
10
0
20
0
30
0
70
128
71
1
72
2
73
3
0
VERTEX
8
OBJECT__11
10
0
20
0
30
0
70
128
71
4
72
5
73
3
0
VERTEX
8
OBJECT__11
10
0
20
0
30
0
70
128
71
3
72
2
73
4
0
VERTEX
8
OBJECT__11
10
0
20
0
30
0
70
128
71
3
72
6
73
1
0
SEQEND
8
OBJECT__11
0
POLYLINE
8
OBJECT__12
66
1
70
64
71
59
72
79
62
253
0
VERTEX
8
OBJECT__12
10
3.714000
20
-99.193001
30
21.645000
70
192
0
VERTEX
8
OBJECT__12
10
10.788000
20
-99.610001
30
21.645000
70
192
0
VERTEX
8
OBJECT__12
10
10.775000
20
-88.224998
30
18.964001
70
192
0
VERTEX
8
OBJECT__12
10
5.165000
20
-87.669998
30
18.964001
70
192
0
VERTEX
8
OBJECT__12
10
2.941000
20
-98.931000
30
21.645000
70
192
0
VERTEX
8
OBJECT__12
10
38.978001
20
-65.078003
30
18.964001
70
192
0
VERTEX
8
OBJECT__12
10
49.937000
20
-67.277000
30
21.645000
70
192
0
VERTEX
8
OBJECT__12
10
47.978001
20
-59.467999
30
21.402000
70
192
0
VERTEX
8
OBJECT__12
10
51.125999
20
-59.467999
30
21.645000
70
192
0
VERTEX
8
OBJECT__12
10
-18.191999
20
-87.557999
30
21.645000
70
192
0
VERTEX
8
OBJECT__12
10
-9.559000
20
-79.802002
30
18.964001
70
192
0
VERTEX
8
OBJECT__12
10
-13.134000
20
-75.443001
30
18.964001
70
192
0
VERTEX
8
OBJECT__12
10
-22.420000
20
-81.632004
30
21.645000
70
192
0
VERTEX
8
OBJECT__12
10
-17.756001
20
-87.999001
30
21.645000
70
192
0
VERTEX
8
OBJECT__12
10
-7.781000
20
-95.296997
30
21.645000
70
192
0
VERTEX
8
OBJECT__12
10
-0.230000
20
-86.036003
30
18.964001
70
192
0
VERTEX
8
OBJECT__12
10
-5.200000
20
-83.376999
30
18.964001
70
192
0
VERTEX
8
OBJECT__12
10
-11.390000
20
-92.670998
30
21.645000
70
192
0
VERTEX
8
OBJECT__12
10
-17.610001
20
-88.146004
30
21.645000
70
192
0
VERTEX
8
OBJECT__12
10
-28.641001
20
-67.288002
30
21.645000
70
192
0
VERTEX
8
OBJECT__12
10
-26.171000
20
-74.800003
30
21.645000
70
192
0
VERTEX
8
OBJECT__12
10
-15.793000
20
-70.473000
30
18.964001
70
192
0
VERTEX
8
OBJECT__12
10
-25.209999
20
-77.720001
30
21.645000
70
192
0
VERTEX
8
OBJECT__12
10
-26.409000
20
-59.467999
30
21.399000
70
192
0
VERTEX
8
OBJECT__12
10
-29.575001
20
-59.467999
30
21.645000
70
192
0
VERTEX
8
OBJECT__12
10
-29.016001
20
-66.147003
30
21.645000
70
192
0
VERTEX
8
OBJECT__12
10
-17.427000
20
-65.078003
30
18.964001
70
192
0
VERTEX
8
OBJECT__12
10
-17.958000
20
-59.467999
30
19.051001
70
192
0
VERTEX
8
OBJECT__12
10
10.775000
20
-76.671997
30
17.420000
70
192
0
VERTEX
8
OBJECT__12
10
4.191000
20
-75.362999
30
17.420000
70
192
0
VERTEX
8
OBJECT__12
10
-1.390000
20
-71.633003
30
17.420000
70
192
0
VERTEX
8
OBJECT__12
10
-5.120000
20
-66.052002
30
17.420000
70
192
0
VERTEX
8
OBJECT__12
10
-16.083000
20
-59.467999
30
18.530001
70
192
0
VERTEX
8
OBJECT__12
10
-6.398000
20
-59.467999
30
18.048000
70
192
0
VERTEX
8
OBJECT__12
10
37.342999
20
-70.473000
30
18.964001
70
192
0
VERTEX
8
OBJECT__12
10
37.903999
20
-59.467999
30
18.586000
70
192
0
VERTEX
8
OBJECT__12
10
27.945999
20
-59.467999
30
18.075001
70
192
0
VERTEX
8
OBJECT__12
10
39.512001
20
-59.467999
30
19.035999
70
192
0
VERTEX
8
OBJECT__12
10
34.683998
20
-75.443001
30
18.964001
70
192
0
VERTEX
8
OBJECT__12
10
26.670000
20
-66.052002
30
17.420000
70
192
0
VERTEX
8
OBJECT__12
10
22.941000
20
-71.633003
30
17.420000
70
192
0
VERTEX
8
OBJECT__12
10
31.108999
20
-79.802002
30
18.964001
70
192
0
VERTEX
8
OBJECT__12
10
26.750999
20
-83.376999
30
18.964001
70
192
0
VERTEX
8
OBJECT__12
10
17.358999
20
-75.362999
30
17.420000
70
192
0
VERTEX
8
OBJECT__12
10
21.780001
20
-86.036003
30
18.964001
70
192
0
VERTEX
8
OBJECT__12
10
16.385000
20
-87.669998
30
18.964001
70
192
0
VERTEX
8
OBJECT__12
10
35.632999
20
-91.250000
30
21.645000
70
192
0
VERTEX
8
OBJECT__12
10
38.984001
20
-87.695000
30
21.645000
70
192
0
VERTEX
8
OBJECT__12
10
33.023998
20
-92.718002
30
21.645000
70
192
0
VERTEX
8
OBJECT__12
10
44.241001
20
-81.844002
30
21.645000
70
192
0
VERTEX
8
OBJECT__12
10
47.705002
20
-74.738998
30
21.645000
70
192
0
VERTEX
8
OBJECT__12
10
49.297001
20
-71.472000
30
21.645000
70
192
0
VERTEX
8
OBJECT__12
10
43.962002
20
-82.416000
30
21.645000
70
192
0
VERTEX
8
OBJECT__12
10
25.035000
20
-97.213997
30
21.645000
70
192
0
VERTEX
8
OBJECT__12
10
18.552000
20
-98.596001
30
21.645000
70
192
0
VERTEX
8
OBJECT__12
10
13.140000
20
-99.748001
30
21.645000
70
192
0
VERTEX
8
OBJECT__12
10
26.132000
20
-96.597000
30
21.645000
70
192
0
VERTEX
8
OBJECT__12
10
10.775000
20
-59.467999
30
17.194000
70
192
0
VERTEX
8
OBJECT__12
10
-4.547000
20
-96.393997
30
21.645000
70
192
0
VERTEX
8
OBJECT__12
10
0
20
0
30
0
70
128
71
1
72
2
73
3
0
VERTEX
8
OBJECT__12
10
0
20
0
30
0
70
128
71
4
72
5
73
1
0
VERTEX
8
OBJECT__12
10
0
20
0
30
0
70
128
71
6
72
7
73
8
0
VERTEX
8
OBJECT__12
10
0
20
0
30
0
70
128
71
7
72
9
73
8
0
VERTEX
8
OBJECT__12
10
0
20
0
30
0
70
128
71
10
72
11
73
12
0
VERTEX
8
OBJECT__12
10
0
20
0
30
0
70
128
71
12
72
13
73
10
0
VERTEX
8
OBJECT__12
10
0
20
0
30
0
70
128
71
10
72
14
73
11
0
VERTEX
8
OBJECT__12
10
0
20
0
30
0
70
128
71
15
72
16
73
17
0
VERTEX
8
OBJECT__12
10
0
20
0
30
0
70
128
71
17
72
18
73
15
0
VERTEX
8
OBJECT__12
10
0
20
0
30
0
70
128
71
5
72
4
73
16
0
VERTEX
8
OBJECT__12
10
0
20
0
30
0
70
128
71
19
72
18
73
17
0
VERTEX
8
OBJECT__12
10
0
20
0
30
0
70
128
71
20
72
21
73
22
0
VERTEX
8
OBJECT__12
10
0
20
0
30
0
70
128
71
23
72
13
73
12
0
VERTEX
8
OBJECT__12
10
0
20
0
30
0
70
128
71
22
72
21
73
23
0
VERTEX
8
OBJECT__12
10
0
20
0
30
0
70
128
71
24
72
25
73
26
0
VERTEX
8
OBJECT__12
10
0
20
0
30
0
70
128
71
27
72
28
73
24
0
VERTEX
8
OBJECT__12
10
0
20
0
30
0
70
128
71
24
72
20
73
27
0
VERTEX
8
OBJECT__12
10
0
20
0
30
0
70
128
71
4
72
29
73
30
0
VERTEX
8
OBJECT__12
10
0
20
0
30
0
70
128
71
30
72
16
73
4
0
VERTEX
8
OBJECT__12
10
0
20
0
30
0
70
128
71
12
72
31
73
32
0
VERTEX
8
OBJECT__12
10
0
20
0
30
0
70
128
71
32
72
22
73
12
0
VERTEX
8
OBJECT__12
10
0
20
0
30
0
70
128
71
17
72
30
73
31
0
VERTEX
8
OBJECT__12
10
0
20
0
30
0
70
128
71
31
72
11
73
17
0
VERTEX
8
OBJECT__12
10
0
20
0
30
0
70
128
71
33
72
28
73
27
0
VERTEX
8
OBJECT__12
10
0
20
0
30
0
70
128
71
22
72
32
73
34
0
VERTEX
8
OBJECT__12
10
0
20
0
30
0
70
128
71
34
72
33
73
22
0
VERTEX
8
OBJECT__12
10
0
20
0
30
0
70
128
71
35
72
36
73
37
0
VERTEX
8
OBJECT__12
10
0
20
0
30
0
70
128
71
36
72
35
73
6
0
VERTEX
8
OBJECT__12
10
0
20
0
30
0
70
128
71
6
72
38
73
36
0
VERTEX
8
OBJECT__12
10
0
20
0
30
0
70
128
71
39
72
40
73
41
0
VERTEX
8
OBJECT__12
10
0
20
0
30
0
70
128
71
41
72
42
73
39
0
VERTEX
8
OBJECT__12
10
0
20
0
30
0
70
128
71
43
72
41
73
44
0
VERTEX
8
OBJECT__12
10
0
20
0
30
0
70
128
71
44
72
45
73
43
0
VERTEX
8
OBJECT__12
10
0
20
0
30
0
70
128
71
46
72
44
73
29
0
VERTEX
8
OBJECT__12
10
0
20
0
30
0
70
128
71
29
72
3
73
46
0
VERTEX
8
OBJECT__12
10
0
20
0
30
0
70
128
71
47
72
48
73
42
0
VERTEX
8
OBJECT__12
10
0
20
0
30
0
70
128
71
43
72
49
73
47
0
VERTEX
8
OBJECT__12
10
0
20
0
30
0
70
128
71
50
72
51
73
35
0
VERTEX
8
OBJECT__12
10
0
20
0
30
0
70
128
71
52
72
7
73
6
0
VERTEX
8
OBJECT__12
10
0
20
0
30
0
70
128
71
35
72
51
73
52
0
VERTEX
8
OBJECT__12
10
0
20
0
30
0
70
128
71
53
72
39
73
42
0
VERTEX
8
OBJECT__12
10
0
20
0
30
0
70
128
71
42
72
48
73
53
0
VERTEX
8
OBJECT__12
10
0
20
0
30
0
70
128
71
54
72
45
73
46
0
VERTEX
8
OBJECT__12
10
0
20
0
30
0
70
128
71
46
72
55
73
54
0
VERTEX
8
OBJECT__12
10
0
20
0
30
0
70
128
71
49
72
43
73
45
0
VERTEX
8
OBJECT__12
10
0
20
0
30
0
70
128
71
56
72
55
73
46
0
VERTEX
8
OBJECT__12
10
0
20
0
30
0
70
128
71
3
72
2
73
56
0
VERTEX
8
OBJECT__12
10
0
20
0
30
0
70
128
71
46
72
3
73
56
0
VERTEX
8
OBJECT__12
10
0
20
0
30
0
70
128
71
45
72
57
73
49
0
VERTEX
8
OBJECT__12
10
0
20
0
30
0
70
128
71
54
72
57
73
45
0
VERTEX
8
OBJECT__12
10
0
20
0
30
0
70
128
71
53
72
50
73
39
0
VERTEX
8
OBJECT__12
10
0
20
0
30
0
70
128
71
6
72
35
73
52
0
VERTEX
8
OBJECT__12
10
0
20
0
30
0
70
128
71
35
72
39
73
50
0
VERTEX
8
OBJECT__12
10
0
20
0
30
0
70
128
71
42
72
43
73
47
0
VERTEX
8
OBJECT__12
10
0
20
0
30
0
70
128
71
46
72
45
73
44
0
VERTEX
8
OBJECT__12
10
0
20
0
30
0
70
128
71
58
72
29
73
44
0
VERTEX
8
OBJECT__12
10
0
20
0
30
0
70
128
71
43
72
42
73
41
0
VERTEX
8
OBJECT__12
10
0
20
0
30
0
70
128
71
39
72
35
73
40
0
VERTEX
8
OBJECT__12
10
0
20
0
30
0
70
128
71
58
72
41
73
40
0
VERTEX
8
OBJECT__12
10
0
20
0
30
0
70
128
71
37
72
40
73
35
0
VERTEX
8
OBJECT__12
10
0
20
0
30
0
70
128
71
44
72
41
73
58
0
VERTEX
8
OBJECT__12
10
0
20
0
30
0
70
128
71
27
72
22
73
33
0
VERTEX
8
OBJECT__12
10
0
20
0
30
0
70
128
71
17
72
16
73
30
0
VERTEX
8
OBJECT__12
10
0
20
0
30
0
70
128
71
12
72
11
73
31
0
VERTEX
8
OBJECT__12
10
0
20
0
30
0
70
128
71
58
72
34
73
32
0
VERTEX
8
OBJECT__12
10
0
20
0
30
0
70
128
71
58
72
31
73
30
0
VERTEX
8
OBJECT__12
10
0
20
0
30
0
70
128
71
32
72
31
73
58
0
VERTEX
8
OBJECT__12
10
0
20
0
30
0
70
128
71
4
72
3
73
29
0
VERTEX
8
OBJECT__12
10
0
20
0
30
0
70
128
71
26
72
20
73
24
0
VERTEX
8
OBJECT__12
10
0
20
0
30
0
70
128
71
12
72
22
73
23
0
VERTEX
8
OBJECT__12
10
0
20
0
30
0
70
128
71
22
72
27
73
20
0
VERTEX
8
OBJECT__12
10
0
20
0
30
0
70
128
71
17
72
11
73
19
0
VERTEX
8
OBJECT__12
10
0
20
0
30
0
70
128
71
16
72
59
73
5
0
VERTEX
8
OBJECT__12
10
0
20
0
30
0
70
128
71
15
72
59
73
16
0
VERTEX
8
OBJECT__12
10
0
20
0
30
0
70
128
71
14
72
19
73
11
0
VERTEX
8
OBJECT__12
10
0
20
0
30
0
70
128
71
40
72
37
73
58
0
VERTEX
8
OBJECT__12
10
0
20
0
30
0
70
128
71
8
72
38
73
6
0
VERTEX
8
OBJECT__12
10
0
20
0
30
0
70
128
71
30
72
29
73
58
0
VERTEX
8
OBJECT__12
10
0
20
0
30
0
70
128
71
3
72
4
73
1
0
SEQEND
8
OBJECT__12
0
POLYLINE
8
OBJECT__13
66
1
70
64
71
14
72
12
62
253
0
VERTEX
8
OBJECT__13
10
47.978001
20
-59.467999
30
21.402000
70
192
0
VERTEX
8
OBJECT__13
10
51.125999
20
-59.467999
30
21.645000
70
192
0
VERTEX
8
OBJECT__13
10
51.125999
20
59.467999
30
21.645000
70
192
0
VERTEX
8
OBJECT__13
10
37.903999
20
-59.467999
30
18.586000
70
192
0
VERTEX
8
OBJECT__13
10
39.512001
20
-59.467999
30
19.035999
70
192
0
VERTEX
8
OBJECT__13
10
39.512001
20
59.467999
30
19.035999
70
192
0
VERTEX
8
OBJECT__13
10
47.978001
20
59.467999
30
21.402000
70
192
0
VERTEX
8
OBJECT__13
10
10.775000
20
0.000000
30
17.194000
70
192
0
VERTEX
8
OBJECT__13
10
10.775000
20
-59.467999
30
17.194000
70
192
0
VERTEX
8
OBJECT__13
10
27.945999
20
-59.467999
30
18.075001
70
192
0
VERTEX
8
OBJECT__13
10
37.903999
20
59.467999
30
18.586000
70
192
0
VERTEX
8
OBJECT__13
10
10.775000
20
28.545000
30
17.194000
70
192
0
VERTEX
8
OBJECT__13
10
27.945999
20
59.467999
30
18.075001
70
192
0
VERTEX
8
OBJECT__13
10
10.775000
20
59.467999
30
17.194000
70
192
0
VERTEX
8
OBJECT__13
10
0
20
0
30
0
70
128
71
1
72
2
73
3
0
VERTEX
8
OBJECT__13
10
0
20
0
30
0
70
128
71
4
72
5
73
6
0
VERTEX
8
OBJECT__13
10
0
20
0
30
0
70
128
71
1
72
7
73
6
0
VERTEX
8
OBJECT__13
10
0
20
0
30
0
70
128
71
6
72
5
73
1
0
VERTEX
8
OBJECT__13
10
0
20
0
30
0
70
128
71
8
72
9
73
10
0
VERTEX
8
OBJECT__13
10
0
20
0
30
0
70
128
71
11
72
12
73
8
0
VERTEX
8
OBJECT__13
10
0
20
0
30
0
70
128
71
8
72
4
73
11
0
VERTEX
8
OBJECT__13
10
0
20
0
30
0
70
128
71
12
72
11
73
13
0
VERTEX
8
OBJECT__13
10
0
20
0
30
0
70
128
71
13
72
14
73
12
0
VERTEX
8
OBJECT__13
10
0
20
0
30
0
70
128
71
10
72
4
73
8
0
VERTEX
8
OBJECT__13
10
0
20
0
30
0
70
128
71
6
72
11
73
4
0
VERTEX
8
OBJECT__13
10
0
20
0
30
0
70
128
71
3
72
7
73
1
0
SEQEND
8
OBJECT__13
0
POLYLINE
8
OBJECT__14
66
1
70
64
71
55
72
53
62
253
0
VERTEX
8
OBJECT__14
10
19.027000
20
100.749001
30
19.646000
70
192
0
VERTEX
8
OBJECT__14
10
10.739000
20
101.235001
30
19.646000
70
192
0
VERTEX
8
OBJECT__14
10
13.140000
20
99.748001
30
21.645000
70
192
0
VERTEX
8
OBJECT__14
10
10.788000
20
99.610001
30
21.645000
70
192
0
VERTEX
8
OBJECT__14
10
-31.011999
20
59.467999
30
21.072001
70
192
0
VERTEX
8
OBJECT__14
10
-29.575001
20
59.467999
30
21.645000
70
192
0
VERTEX
8
OBJECT__14
10
-29.016001
20
66.147003
30
21.645000
70
192
0
VERTEX
8
OBJECT__14
10
-30.117001
20
67.612000
30
19.646000
70
192
0
VERTEX
8
OBJECT__14
10
-31.611000
20
59.467999
30
19.646000
70
192
0
VERTEX
8
OBJECT__14
10
43.962002
20
82.416000
30
21.645000
70
192
0
VERTEX
8
OBJECT__14
10
45.463001
20
82.681000
30
19.646000
70
192
0
VERTEX
8
OBJECT__14
10
42.537998
20
87.532997
30
19.646000
70
192
0
VERTEX
8
OBJECT__14
10
38.984001
20
87.695000
30
21.645000
70
192
0
VERTEX
8
OBJECT__14
10
40.585999
20
89.257004
30
19.646000
70
192
0
VERTEX
8
OBJECT__14
10
34.289001
20
94.633003
30
19.646000
70
192
0
VERTEX
8
OBJECT__14
10
26.719999
20
98.011002
30
19.646000
70
192
0
VERTEX
8
OBJECT__14
10
26.132000
20
96.597000
30
21.645000
70
192
0
VERTEX
8
OBJECT__14
10
20.822001
20
100.642998
30
19.646000
70
192
0
VERTEX
8
OBJECT__14
10
18.552000
20
98.596001
30
21.645000
70
192
0
VERTEX
8
OBJECT__14
10
25.035000
20
97.213997
30
21.645000
70
192
0
VERTEX
8
OBJECT__14
10
34.715000
20
94.443001
30
19.646000
70
192
0
VERTEX
8
OBJECT__14
10
35.632999
20
91.250000
30
21.645000
70
192
0
VERTEX
8
OBJECT__14
10
33.023998
20
92.718002
30
21.645000
70
192
0
VERTEX
8
OBJECT__14
10
51.673000
20
67.613998
30
19.646000
70
192
0
VERTEX
8
OBJECT__14
10
50.424999
20
74.450996
30
19.646000
70
192
0
VERTEX
8
OBJECT__14
10
49.297001
20
71.472000
30
21.645000
70
192
0
VERTEX
8
OBJECT__14
10
47.705002
20
74.738998
30
21.645000
70
192
0
VERTEX
8
OBJECT__14
10
49.747002
20
75.574997
30
19.646000
70
192
0
VERTEX
8
OBJECT__14
10
44.241001
20
81.844002
30
21.645000
70
192
0
VERTEX
8
OBJECT__14
10
49.937000
20
67.277000
30
21.645000
70
192
0
VERTEX
8
OBJECT__14
10
51.125999
20
59.467999
30
21.645000
70
192
0
VERTEX
8
OBJECT__14
10
52.563000
20
59.467999
30
21.072001
70
192
0
VERTEX
8
OBJECT__14
10
-12.421000
20
94.261002
30
19.646000
70
192
0
VERTEX
8
OBJECT__14
10
-18.958000
20
89.135002
30
19.646000
70
192
0
VERTEX
8
OBJECT__14
10
-17.610001
20
88.146004
30
21.645000
70
192
0
VERTEX
8
OBJECT__14
10
-17.756001
20
87.999001
30
21.645000
70
192
0
VERTEX
8
OBJECT__14
10
-23.912001
20
82.680000
30
19.646000
70
192
0
VERTEX
8
OBJECT__14
10
-28.205000
20
75.580002
30
19.646000
70
192
0
VERTEX
8
OBJECT__14
10
-25.209999
20
77.720001
30
21.645000
70
192
0
VERTEX
8
OBJECT__14
10
-26.171000
20
74.800003
30
21.645000
70
192
0
VERTEX
8
OBJECT__14
10
-28.641001
20
67.288002
30
21.645000
70
192
0
VERTEX
8
OBJECT__14
10
-28.851000
20
74.512001
30
19.646000
70
192
0
VERTEX
8
OBJECT__14
10
-22.420000
20
81.632004
30
21.645000
70
192
0
VERTEX
8
OBJECT__14
10
-18.191999
20
87.557999
30
21.645000
70
192
0
VERTEX
8
OBJECT__14
10
-20.957001
20
87.567001
30
19.646000
70
192
0
VERTEX
8
OBJECT__14
10
-5.289000
20
98.127998
30
19.646000
70
192
0
VERTEX
8
OBJECT__14
10
-4.547000
20
96.393997
30
21.645000
70
192
0
VERTEX
8
OBJECT__14
10
2.941000
20
98.931000
30
21.645000
70
192
0
VERTEX
8
OBJECT__14
10
-8.951000
20
96.983002
30
19.646000
70
192
0
VERTEX
8
OBJECT__14
10
-7.781000
20
95.296997
30
21.645000
70
192
0
VERTEX
8
OBJECT__14
10
-11.390000
20
92.670998
30
21.645000
70
192
0
VERTEX
8
OBJECT__14
10
5.611000
20
101.536003
30
19.646000
70
192
0
VERTEX
8
OBJECT__14
10
3.714000
20
99.193001
30
21.645000
70
192
0
VERTEX
8
OBJECT__14
10
2.641000
20
100.607002
30
19.646000
70
192
0
VERTEX
8
OBJECT__14
10
53.160999
20
59.467999
30
19.646000
70
192
0
VERTEX
8
OBJECT__14
10
0
20
0
30
0
70
128
71
1
72
2
73
3
0
VERTEX
8
OBJECT__14
10
0
20
0
30
0
70
128
71
2
72
4
73
3
0
VERTEX
8
OBJECT__14
10
0
20
0
30
0
70
128
71
5
72
6
73
7
0
VERTEX
8
OBJECT__14
10
0
20
0
30
0
70
128
71
8
72
9
73
5
0
VERTEX
8
OBJECT__14
10
0
20
0
30
0
70
128
71
7
72
8
73
5
0
VERTEX
8
OBJECT__14
10
0
20
0
30
0
70
128
71
10
72
11
73
12
0
VERTEX
8
OBJECT__14
10
0
20
0
30
0
70
128
71
12
72
13
73
10
0
VERTEX
8
OBJECT__14
10
0
20
0
30
0
70
128
71
12
72
14
73
13
0
VERTEX
8
OBJECT__14
10
0
20
0
30
0
70
128
71
15
72
16
73
17
0
VERTEX
8
OBJECT__14
10
0
20
0
30
0
70
128
71
18
72
19
73
20
0
VERTEX
8
OBJECT__14
10
0
20
0
30
0
70
128
71
20
72
16
73
18
0
VERTEX
8
OBJECT__14
10
0
20
0
30
0
70
128
71
18
72
1
73
19
0
VERTEX
8
OBJECT__14
10
0
20
0
30
0
70
128
71
14
72
21
73
22
0
VERTEX
8
OBJECT__14
10
0
20
0
30
0
70
128
71
23
72
22
73
21
0
VERTEX
8
OBJECT__14
10
0
20
0
30
0
70
128
71
21
72
15
73
23
0
VERTEX
8
OBJECT__14
10
0
20
0
30
0
70
128
71
24
72
25
73
26
0
VERTEX
8
OBJECT__14
10
0
20
0
30
0
70
128
71
27
72
26
73
25
0
VERTEX
8
OBJECT__14
10
0
20
0
30
0
70
128
71
25
72
28
73
27
0
VERTEX
8
OBJECT__14
10
0
20
0
30
0
70
128
71
28
72
11
73
29
0
VERTEX
8
OBJECT__14
10
0
20
0
30
0
70
128
71
24
72
30
73
31
0
VERTEX
8
OBJECT__14
10
0
20
0
30
0
70
128
71
31
72
32
73
24
0
VERTEX
8
OBJECT__14
10
0
20
0
30
0
70
128
71
33
72
34
73
35
0
VERTEX
8
OBJECT__14
10
0
20
0
30
0
70
128
71
34
72
36
73
35
0
VERTEX
8
OBJECT__14
10
0
20
0
30
0
70
128
71
37
72
38
73
39
0
VERTEX
8
OBJECT__14
10
0
20
0
30
0
70
128
71
38
72
40
73
39
0
VERTEX
8
OBJECT__14
10
0
20
0
30
0
70
128
71
41
72
40
73
42
0
VERTEX
8
OBJECT__14
10
0
20
0
30
0
70
128
71
40
72
38
73
42
0
VERTEX
8
OBJECT__14
10
0
20
0
30
0
70
128
71
43
72
44
73
45
0
VERTEX
8
OBJECT__14
10
0
20
0
30
0
70
128
71
44
72
34
73
45
0
VERTEX
8
OBJECT__14
10
0
20
0
30
0
70
128
71
45
72
37
73
43
0
VERTEX
8
OBJECT__14
10
0
20
0
30
0
70
128
71
46
72
47
73
48
0
VERTEX
8
OBJECT__14
10
0
20
0
30
0
70
128
71
46
72
49
73
50
0
VERTEX
8
OBJECT__14
10
0
20
0
30
0
70
128
71
50
72
49
73
33
0
VERTEX
8
OBJECT__14
10
0
20
0
30
0
70
128
71
33
72
51
73
50
0
VERTEX
8
OBJECT__14
10
0
20
0
30
0
70
128
71
4
72
2
73
52
0
VERTEX
8
OBJECT__14
10
0
20
0
30
0
70
128
71
52
72
53
73
4
0
VERTEX
8
OBJECT__14
10
0
20
0
30
0
70
128
71
54
72
48
73
53
0
VERTEX
8
OBJECT__14
10
0
20
0
30
0
70
128
71
52
72
54
73
53
0
VERTEX
8
OBJECT__14
10
0
20
0
30
0
70
128
71
50
72
47
73
46
0
VERTEX
8
OBJECT__14
10
0
20
0
30
0
70
128
71
48
72
54
73
46
0
VERTEX
8
OBJECT__14
10
0
20
0
30
0
70
128
71
44
72
36
73
34
0
VERTEX
8
OBJECT__14
10
0
20
0
30
0
70
128
71
42
72
8
73
41
0
VERTEX
8
OBJECT__14
10
0
20
0
30
0
70
128
71
39
72
43
73
37
0
VERTEX
8
OBJECT__14
10
0
20
0
30
0
70
128
71
35
72
51
73
33
0
VERTEX
8
OBJECT__14
10
0
20
0
30
0
70
128
71
32
72
55
73
24
0
VERTEX
8
OBJECT__14
10
0
20
0
30
0
70
128
71
29
72
27
73
28
0
VERTEX
8
OBJECT__14
10
0
20
0
30
0
70
128
71
26
72
30
73
24
0
VERTEX
8
OBJECT__14
10
0
20
0
30
0
70
128
71
22
72
13
73
14
0
VERTEX
8
OBJECT__14
10
0
20
0
30
0
70
128
71
20
72
17
73
16
0
VERTEX
8
OBJECT__14
10
0
20
0
30
0
70
128
71
17
72
23
73
15
0
VERTEX
8
OBJECT__14
10
0
20
0
30
0
70
128
71
10
72
29
73
11
0
VERTEX
8
OBJECT__14
10
0
20
0
30
0
70
128
71
7
72
41
73
8
0
VERTEX
8
OBJECT__14
10
0
20
0
30
0
70
128
71
3
72
19
73
1
0
SEQEND
8
OBJECT__14
0
POLYLINE
8
OBJECT__15
66
1
70
64
71
14
72
12
62
253
0
VERTEX
8
OBJECT__15
10
-26.409000
20
-59.467999
30
21.399000
70
192
0
VERTEX
8
OBJECT__15
10
-26.409000
20
59.467999
30
21.399000
70
192
0
VERTEX
8
OBJECT__15
10
-29.575001
20
59.467999
30
21.645000
70
192
0
VERTEX
8
OBJECT__15
10
-16.083000
20
59.467999
30
18.530001
70
192
0
VERTEX
8
OBJECT__15
10
-17.958000
20
59.467999
30
19.051001
70
192
0
VERTEX
8
OBJECT__15
10
-17.958000
20
-59.467999
30
19.051001
70
192
0
VERTEX
8
OBJECT__15
10
-6.398000
20
59.467999
30
18.048000
70
192
0
VERTEX
8
OBJECT__15
10
10.775000
20
0.000000
30
17.194000
70
192
0
VERTEX
8
OBJECT__15
10
10.775000
20
28.545000
30
17.194000
70
192
0
VERTEX
8
OBJECT__15
10
-6.398000
20
-59.467999
30
18.048000
70
192
0
VERTEX
8
OBJECT__15
10
10.775000
20
-59.467999
30
17.194000
70
192
0
VERTEX
8
OBJECT__15
10
-16.083000
20
-59.467999
30
18.530001
70
192
0
VERTEX
8
OBJECT__15
10
10.775000
20
59.467999
30
17.194000
70
192
0
VERTEX
8
OBJECT__15
10
-29.575001
20
-59.467999
30
21.645000
70
192
0
VERTEX
8
OBJECT__15
10
0
20
0
30
0
70
128
71
1
72
2
73
3
0
VERTEX
8
OBJECT__15
10
0
20
0
30
0
70
128
71
4
72
5
73
6
0
VERTEX
8
OBJECT__15
10
0
20
0
30
0
70
128
71
1
72
6
73
5
0
VERTEX
8
OBJECT__15
10
0
20
0
30
0
70
128
71
5
72
2
73
1
0
VERTEX
8
OBJECT__15
10
0
20
0
30
0
70
128
71
7
72
8
73
9
0
VERTEX
8
OBJECT__15
10
0
20
0
30
0
70
128
71
10
72
11
73
8
0
VERTEX
8
OBJECT__15
10
0
20
0
30
0
70
128
71
8
72
7
73
10
0
VERTEX
8
OBJECT__15
10
0
20
0
30
0
70
128
71
4
72
12
73
10
0
VERTEX
8
OBJECT__15
10
0
20
0
30
0
70
128
71
10
72
7
73
4
0
VERTEX
8
OBJECT__15
10
0
20
0
30
0
70
128
71
9
72
13
73
7
0
VERTEX
8
OBJECT__15
10
0
20
0
30
0
70
128
71
6
72
12
73
4
0
VERTEX
8
OBJECT__15
10
0
20
0
30
0
70
128
71
3
72
14
73
1
0
SEQEND
8
OBJECT__15
0
POLYLINE
8
OBJECT__16
66
1
70
64
71
59
72
79
62
253
0
VERTEX
8
OBJECT__16
10
3.714000
20
99.193001
30
21.645000
70
192
0
VERTEX
8
OBJECT__16
10
5.165000
20
87.669998
30
18.964001
70
192
0
VERTEX
8
OBJECT__16
10
10.775000
20
88.224998
30
18.964001
70
192
0
VERTEX
8
OBJECT__16
10
10.788000
20
99.610001
30
21.645000
70
192
0
VERTEX
8
OBJECT__16
10
38.978001
20
65.078003
30
18.964001
70
192
0
VERTEX
8
OBJECT__16
10
39.512001
20
59.467999
30
19.035999
70
192
0
VERTEX
8
OBJECT__16
10
47.978001
20
59.467999
30
21.402000
70
192
0
VERTEX
8
OBJECT__16
10
49.937000
20
67.277000
30
21.645000
70
192
0
VERTEX
8
OBJECT__16
10
-18.191999
20
87.557999
30
21.645000
70
192
0
VERTEX
8
OBJECT__16
10
-22.420000
20
81.632004
30
21.645000
70
192
0
VERTEX
8
OBJECT__16
10
-13.134000
20
75.443001
30
18.964001
70
192
0
VERTEX
8
OBJECT__16
10
-9.559000
20
79.802002
30
18.964001
70
192
0
VERTEX
8
OBJECT__16
10
-17.756001
20
87.999001
30
21.645000
70
192
0
VERTEX
8
OBJECT__16
10
-17.610001
20
88.146004
30
21.645000
70
192
0
VERTEX
8
OBJECT__16
10
-7.781000
20
95.296997
30
21.645000
70
192
0
VERTEX
8
OBJECT__16
10
-11.390000
20
92.670998
30
21.645000
70
192
0
VERTEX
8
OBJECT__16
10
-5.200000
20
83.376999
30
18.964001
70
192
0
VERTEX
8
OBJECT__16
10
-0.230000
20
86.036003
30
18.964001
70
192
0
VERTEX
8
OBJECT__16
10
-4.547000
20
96.393997
30
21.645000
70
192
0
VERTEX
8
OBJECT__16
10
2.941000
20
98.931000
30
21.645000
70
192
0
VERTEX
8
OBJECT__16
10
-28.641001
20
67.288002
30
21.645000
70
192
0
VERTEX
8
OBJECT__16
10
-17.427000
20
65.078003
30
18.964001
70
192
0
VERTEX
8
OBJECT__16
10
-15.793000
20
70.473000
30
18.964001
70
192
0
VERTEX
8
OBJECT__16
10
-25.209999
20
77.720001
30
21.645000
70
192
0
VERTEX
8
OBJECT__16
10
-26.409000
20
59.467999
30
21.399000
70
192
0
VERTEX
8
OBJECT__16
10
-29.016001
20
66.147003
30
21.645000
70
192
0
VERTEX
8
OBJECT__16
10
-29.575001
20
59.467999
30
21.645000
70
192
0
VERTEX
8
OBJECT__16
10
35.632999
20
91.250000
30
21.645000
70
192
0
VERTEX
8
OBJECT__16
10
26.750999
20
83.376999
30
18.964001
70
192
0
VERTEX
8
OBJECT__16
10
31.108999
20
79.802002
30
18.964001
70
192
0
VERTEX
8
OBJECT__16
10
38.984001
20
87.695000
30
21.645000
70
192
0
VERTEX
8
OBJECT__16
10
44.241001
20
81.844002
30
21.645000
70
192
0
VERTEX
8
OBJECT__16
10
34.683998
20
75.443001
30
18.964001
70
192
0
VERTEX
8
OBJECT__16
10
37.342999
20
70.473000
30
18.964001
70
192
0
VERTEX
8
OBJECT__16
10
49.297001
20
71.472000
30
21.645000
70
192
0
VERTEX
8
OBJECT__16
10
43.962002
20
82.416000
30
21.645000
70
192
0
VERTEX
8
OBJECT__16
10
25.035000
20
97.213997
30
21.645000
70
192
0
VERTEX
8
OBJECT__16
10
18.552000
20
98.596001
30
21.645000
70
192
0
VERTEX
8
OBJECT__16
10
16.385000
20
87.669998
30
18.964001
70
192
0
VERTEX
8
OBJECT__16
10
21.780001
20
86.036003
30
18.964001
70
192
0
VERTEX
8
OBJECT__16
10
26.132000
20
96.597000
30
21.645000
70
192
0
VERTEX
8
OBJECT__16
10
33.023998
20
92.718002
30
21.645000
70
192
0
VERTEX
8
OBJECT__16
10
13.140000
20
99.748001
30
21.645000
70
192
0
VERTEX
8
OBJECT__16
10
37.903999
20
59.467999
30
18.586000
70
192
0
VERTEX
8
OBJECT__16
10
26.670000
20
66.052002
30
17.420000
70
192
0
VERTEX
8
OBJECT__16
10
27.945999
20
59.467999
30
18.075001
70
192
0
VERTEX
8
OBJECT__16
10
17.358999
20
75.362999
30
17.420000
70
192
0
VERTEX
8
OBJECT__16
10
22.941000
20
71.633003
30
17.420000
70
192
0
VERTEX
8
OBJECT__16
10
10.775000
20
76.671997
30
17.420000
70
192
0
VERTEX
8
OBJECT__16
10
4.191000
20
75.362999
30
17.420000
70
192
0
VERTEX
8
OBJECT__16
10
-1.390000
20
71.633003
30
17.420000
70
192
0
VERTEX
8
OBJECT__16
10
-5.120000
20
66.052002
30
17.420000
70
192
0
VERTEX
8
OBJECT__16
10
-16.083000
20
59.467999
30
18.530001
70
192
0
VERTEX
8
OBJECT__16
10
-6.398000
20
59.467999
30
18.048000
70
192
0
VERTEX
8
OBJECT__16
10
-17.958000
20
59.467999
30
19.051001
70
192
0
VERTEX
8
OBJECT__16
10
10.775000
20
59.467999
30
17.194000
70
192
0
VERTEX
8
OBJECT__16
10
47.705002
20
74.738998
30
21.645000
70
192
0
VERTEX
8
OBJECT__16
10
-26.171000
20
74.800003
30
21.645000
70
192
0
VERTEX
8
OBJECT__16
10
51.125999
20
59.467999
30
21.645000
70
192
0
VERTEX
8
OBJECT__16
10
0
20
0
30
0
70
128
71
1
72
2
73
3
0
VERTEX
8
OBJECT__16
10
0
20
0
30
0
70
128
71
3
72
4
73
1
0
VERTEX
8
OBJECT__16
10
0
20
0
30
0
70
128
71
5
72
6
73
7
0
VERTEX
8
OBJECT__16
10
0
20
0
30
0
70
128
71
7
72
8
73
5
0
VERTEX
8
OBJECT__16
10
0
20
0
30
0
70
128
71
9
72
10
73
11
0
VERTEX
8
OBJECT__16
10
0
20
0
30
0
70
128
71
12
72
13
73
9
0
VERTEX
8
OBJECT__16
10
0
20
0
30
0
70
128
71
12
72
14
73
13
0
VERTEX
8
OBJECT__16
10
0
20
0
30
0
70
128
71
15
72
16
73
17
0
VERTEX
8
OBJECT__16
10
0
20
0
30
0
70
128
71
18
72
19
73
15
0
VERTEX
8
OBJECT__16
10
0
20
0
30
0
70
128
71
20
72
19
73
18
0
VERTEX
8
OBJECT__16
10
0
20
0
30
0
70
128
71
14
72
12
73
17
0
VERTEX
8
OBJECT__16
10
0
20
0
30
0
70
128
71
21
72
22
73
23
0
VERTEX
8
OBJECT__16
10
0
20
0
30
0
70
128
71
24
72
23
73
11
0
VERTEX
8
OBJECT__16
10
0
20
0
30
0
70
128
71
11
72
10
73
24
0
VERTEX
8
OBJECT__16
10
0
20
0
30
0
70
128
71
22
72
21
73
25
0
VERTEX
8
OBJECT__16
10
0
20
0
30
0
70
128
71
25
72
21
73
26
0
VERTEX
8
OBJECT__16
10
0
20
0
30
0
70
128
71
26
72
27
73
25
0
VERTEX
8
OBJECT__16
10
0
20
0
30
0
70
128
71
28
72
29
73
30
0
VERTEX
8
OBJECT__16
10
0
20
0
30
0
70
128
71
30
72
31
73
28
0
VERTEX
8
OBJECT__16
10
0
20
0
30
0
70
128
71
32
72
33
73
34
0
VERTEX
8
OBJECT__16
10
0
20
0
30
0
70
128
71
35
72
34
73
5
0
VERTEX
8
OBJECT__16
10
0
20
0
30
0
70
128
71
5
72
8
73
35
0
VERTEX
8
OBJECT__16
10
0
20
0
30
0
70
128
71
36
72
31
73
30
0
VERTEX
8
OBJECT__16
10
0
20
0
30
0
70
128
71
33
72
32
73
36
0
VERTEX
8
OBJECT__16
10
0
20
0
30
0
70
128
71
37
72
38
73
39
0
VERTEX
8
OBJECT__16
10
0
20
0
30
0
70
128
71
40
72
41
73
37
0
VERTEX
8
OBJECT__16
10
0
20
0
30
0
70
128
71
42
72
41
73
40
0
VERTEX
8
OBJECT__16
10
0
20
0
30
0
70
128
71
43
72
3
73
39
0
VERTEX
8
OBJECT__16
10
0
20
0
30
0
70
128
71
39
72
38
73
43
0
VERTEX
8
OBJECT__16
10
0
20
0
30
0
70
128
71
44
72
6
73
5
0
VERTEX
8
OBJECT__16
10
0
20
0
30
0
70
128
71
34
72
45
73
46
0
VERTEX
8
OBJECT__16
10
0
20
0
30
0
70
128
71
46
72
44
73
34
0
VERTEX
8
OBJECT__16
10
0
20
0
30
0
70
128
71
29
72
40
73
47
0
VERTEX
8
OBJECT__16
10
0
20
0
30
0
70
128
71
48
72
30
73
29
0
VERTEX
8
OBJECT__16
10
0
20
0
30
0
70
128
71
33
72
30
73
48
0
VERTEX
8
OBJECT__16
10
0
20
0
30
0
70
128
71
45
72
34
73
33
0
VERTEX
8
OBJECT__16
10
0
20
0
30
0
70
128
71
39
72
3
73
49
0
VERTEX
8
OBJECT__16
10
0
20
0
30
0
70
128
71
47
72
40
73
39
0
VERTEX
8
OBJECT__16
10
0
20
0
30
0
70
128
71
2
72
18
73
50
0
VERTEX
8
OBJECT__16
10
0
20
0
30
0
70
128
71
49
72
3
73
2
0
VERTEX
8
OBJECT__16
10
0
20
0
30
0
70
128
71
17
72
12
73
51
0
VERTEX
8
OBJECT__16
10
0
20
0
30
0
70
128
71
50
72
18
73
17
0
VERTEX
8
OBJECT__16
10
0
20
0
30
0
70
128
71
11
72
23
73
52
0
VERTEX
8
OBJECT__16
10
0
20
0
30
0
70
128
71
51
72
12
73
11
0
VERTEX
8
OBJECT__16
10
0
20
0
30
0
70
128
71
23
72
53
73
54
0
VERTEX
8
OBJECT__16
10
0
20
0
30
0
70
128
71
53
72
23
73
22
0
VERTEX
8
OBJECT__16
10
0
20
0
30
0
70
128
71
22
72
55
73
53
0
VERTEX
8
OBJECT__16
10
0
20
0
30
0
70
128
71
54
72
52
73
23
0
VERTEX
8
OBJECT__16
10
0
20
0
30
0
70
128
71
52
72
54
73
56
0
VERTEX
8
OBJECT__16
10
0
20
0
30
0
70
128
71
52
72
51
73
11
0
VERTEX
8
OBJECT__16
10
0
20
0
30
0
70
128
71
51
72
50
73
17
0
VERTEX
8
OBJECT__16
10
0
20
0
30
0
70
128
71
50
72
51
73
56
0
VERTEX
8
OBJECT__16
10
0
20
0
30
0
70
128
71
50
72
49
73
2
0
VERTEX
8
OBJECT__16
10
0
20
0
30
0
70
128
71
56
72
51
73
52
0
VERTEX
8
OBJECT__16
10
0
20
0
30
0
70
128
71
49
72
47
73
39
0
VERTEX
8
OBJECT__16
10
0
20
0
30
0
70
128
71
48
72
45
73
33
0
VERTEX
8
OBJECT__16
10
0
20
0
30
0
70
128
71
47
72
48
73
29
0
VERTEX
8
OBJECT__16
10
0
20
0
30
0
70
128
71
47
72
49
73
56
0
VERTEX
8
OBJECT__16
10
0
20
0
30
0
70
128
71
45
72
48
73
56
0
VERTEX
8
OBJECT__16
10
0
20
0
30
0
70
128
71
56
72
48
73
47
0
VERTEX
8
OBJECT__16
10
0
20
0
30
0
70
128
71
5
72
34
73
44
0
VERTEX
8
OBJECT__16
10
0
20
0
30
0
70
128
71
43
72
4
73
3
0
VERTEX
8
OBJECT__16
10
0
20
0
30
0
70
128
71
40
72
29
73
42
0
VERTEX
8
OBJECT__16
10
0
20
0
30
0
70
128
71
39
72
40
73
37
0
VERTEX
8
OBJECT__16
10
0
20
0
30
0
70
128
71
30
72
33
73
36
0
VERTEX
8
OBJECT__16
10
0
20
0
30
0
70
128
71
35
72
57
73
34
0
VERTEX
8
OBJECT__16
10
0
20
0
30
0
70
128
71
34
72
57
73
32
0
VERTEX
8
OBJECT__16
10
0
20
0
30
0
70
128
71
28
72
42
73
29
0
VERTEX
8
OBJECT__16
10
0
20
0
30
0
70
128
71
25
72
55
73
22
0
VERTEX
8
OBJECT__16
10
0
20
0
30
0
70
128
71
24
72
58
73
23
0
VERTEX
8
OBJECT__16
10
0
20
0
30
0
70
128
71
23
72
58
73
21
0
VERTEX
8
OBJECT__16
10
0
20
0
30
0
70
128
71
17
72
16
73
14
0
VERTEX
8
OBJECT__16
10
0
20
0
30
0
70
128
71
18
72
2
73
20
0
VERTEX
8
OBJECT__16
10
0
20
0
30
0
70
128
71
17
72
18
73
15
0
VERTEX
8
OBJECT__16
10
0
20
0
30
0
70
128
71
11
72
12
73
9
0
VERTEX
8
OBJECT__16
10
0
20
0
30
0
70
128
71
56
72
46
73
45
0
VERTEX
8
OBJECT__16
10
0
20
0
30
0
70
128
71
56
72
49
73
50
0
VERTEX
8
OBJECT__16
10
0
20
0
30
0
70
128
71
7
72
59
73
8
0
VERTEX
8
OBJECT__16
10
0
20
0
30
0
70
128
71
1
72
20
73
2
0
SEQEND
8
OBJECT__16
0
ENDSEC
0
EOF
