999
Converted by 3D Exploration 
999
XDimension Software, LLC
999
http://www.xdsoft.com/explorer/
0
SECTION
2
HEADER
9
$ACADVER
1
AC1008
9
$UCSORG
10
0.0
20
0.0
30
0.0
9
$UCSXDIR
10
1.0
20
0.0
30
0.0
9
$TILEMODE
70
1
9
$UCSYDIR
10
0.0
20
1.0
30
0.0
9
$EXTMIN
10
-32.750000
20
-32.750000
30
-32.750000
9
$EXTMAX
10
55.000000
20
32.750000
30
43.639999
0
ENDSEC
0
SECTION
2
TABLES
0
TABLE
2
LTYPE
70
1
0
LTYPE
2
CONTINUOUS
70
64
3
Solid line
72
65
73
0
40
0.0
0
ENDTAB
0
TABLE
2
LAYER
70
18
0
LAYER
2
OBJECT__0
70
0
62
253
6
CONTINUOUS
0
LAYER
2
OBJECT__1
70
0
62
253
6
CONTINUOUS
0
LAYER
2
OBJECT__3
70
0
62
253
6
CONTINUOUS
0
LAYER
2
OBJECT__4
70
0
62
253
6
CONTINUOUS
0
LAYER
2
OBJECT__6
70
0
62
253
6
CONTINUOUS
0
LAYER
2
OBJECT__7
70
0
62
253
6
CONTINUOUS
0
LAYER
2
OBJECT__8
70
0
62
253
6
CONTINUOUS
0
LAYER
2
OBJECT__10
70
0
62
253
6
CONTINUOUS
0
LAYER
2
OBJECT__11
70
0
62
253
6
CONTINUOUS
0
LAYER
2
OBJECT__12
70
0
62
253
6
CONTINUOUS
0
LAYER
2
OBJECT__14
70
0
62
253
6
CONTINUOUS
0
LAYER
2
OBJECT__15
70
0
62
253
6
CONTINUOUS
0
LAYER
2
OBJECT__16
70
0
62
253
6
CONTINUOUS
0
LAYER
2
OBJECT__17
70
0
62
253
6
CONTINUOUS
0
ENDTAB
0
TABLE
2
STYLE
70
1
0
STYLE
2
STANDARD
70
0
40
0.0
41
1.0
50
0.0
71
0
42
0.2
3
txt
4
1
0
ENDTAB
0
TABLE
2
UCS
70
0
0
ENDTAB
0
ENDSEC
0
SECTION
2
ENTITIES
0
POLYLINE
8
OBJECT__0
66
1
70
64
71
17
72
22
62
253
0
VERTEX
8
OBJECT__0
10
51.493000
20
0.000000
30
32.139999
70
192
0
VERTEX
8
OBJECT__0
10
53.972000
20
0.000000
30
33.162998
70
192
0
VERTEX
8
OBJECT__0
10
53.972000
20
-2.145000
30
34.401001
70
192
0
VERTEX
8
OBJECT__0
10
51.493000
20
-3.031000
30
34.557999
70
192
0
VERTEX
8
OBJECT__0
10
53.972000
20
-2.145000
30
36.879002
70
192
0
VERTEX
8
OBJECT__0
10
51.493000
20
-3.031000
30
37.389999
70
192
0
VERTEX
8
OBJECT__0
10
53.972000
20
0.000000
30
38.117001
70
192
0
VERTEX
8
OBJECT__0
10
51.493000
20
0.000000
30
39.139999
70
192
0
VERTEX
8
OBJECT__0
10
51.493000
20
-1.832000
30
38.082001
70
192
0
VERTEX
8
OBJECT__0
10
53.972000
20
2.145000
30
36.879002
70
192
0
VERTEX
8
OBJECT__0
10
51.493000
20
1.832000
30
38.082001
70
192
0
VERTEX
8
OBJECT__0
10
51.493000
20
3.031000
30
37.389999
70
192
0
VERTEX
8
OBJECT__0
10
51.493000
20
3.031000
30
34.557999
70
192
0
VERTEX
8
OBJECT__0
10
53.972000
20
2.145000
30
34.401001
70
192
0
VERTEX
8
OBJECT__0
10
51.493000
20
3.031000
30
33.889999
70
192
0
VERTEX
8
OBJECT__0
10
51.493000
20
-3.031000
30
33.889999
70
192
0
VERTEX
8
OBJECT__0
10
55.000000
20
0.000000
30
35.639999
70
192
0
VERTEX
8
OBJECT__0
10
0
20
0
30
0
70
128
71
1
72
2
73
3
0
VERTEX
8
OBJECT__0
10
0
20
0
30
0
70
128
71
4
72
3
73
5
0
VERTEX
8
OBJECT__0
10
0
20
0
30
0
70
128
71
5
72
6
73
4
0
VERTEX
8
OBJECT__0
10
0
20
0
30
0
70
128
71
7
72
8
73
9
0
VERTEX
8
OBJECT__0
10
0
20
0
30
0
70
128
71
9
72
5
73
7
0
VERTEX
8
OBJECT__0
10
0
20
0
30
0
70
128
71
7
72
10
73
11
0
VERTEX
8
OBJECT__0
10
0
20
0
30
0
70
128
71
10
72
12
73
11
0
VERTEX
8
OBJECT__0
10
0
20
0
30
0
70
128
71
13
72
12
73
10
0
VERTEX
8
OBJECT__0
10
0
20
0
30
0
70
128
71
14
72
15
73
13
0
VERTEX
8
OBJECT__0
10
0
20
0
30
0
70
128
71
15
72
14
73
2
0
VERTEX
8
OBJECT__0
10
0
20
0
30
0
70
128
71
2
72
1
73
15
0
VERTEX
8
OBJECT__0
10
0
20
0
30
0
70
128
71
10
72
14
73
13
0
VERTEX
8
OBJECT__0
10
0
20
0
30
0
70
128
71
11
72
8
73
7
0
VERTEX
8
OBJECT__0
10
0
20
0
30
0
70
128
71
9
72
6
73
5
0
VERTEX
8
OBJECT__0
10
0
20
0
30
0
70
128
71
4
72
16
73
3
0
VERTEX
8
OBJECT__0
10
0
20
0
30
0
70
128
71
3
72
16
73
1
0
VERTEX
8
OBJECT__0
10
0
20
0
30
0
70
128
71
2
72
14
73
17
0
VERTEX
8
OBJECT__0
10
0
20
0
30
0
70
128
71
14
72
10
73
17
0
VERTEX
8
OBJECT__0
10
0
20
0
30
0
70
128
71
10
72
7
73
17
0
VERTEX
8
OBJECT__0
10
0
20
0
30
0
70
128
71
7
72
5
73
17
0
VERTEX
8
OBJECT__0
10
0
20
0
30
0
70
128
71
5
72
3
73
17
0
VERTEX
8
OBJECT__0
10
0
20
0
30
0
70
128
71
3
72
2
73
17
0
SEQEND
8
OBJECT__0
0
POLYLINE
8
OBJECT__1
66
1
70
64
71
15
72
15
62
253
0
VERTEX
8
OBJECT__1
10
0.000000
20
0.000000
30
32.243000
70
192
0
VERTEX
8
OBJECT__1
10
0.000000
20
3.231000
30
34.590000
70
192
0
VERTEX
8
OBJECT__1
10
51.493000
20
3.031000
30
33.889999
70
192
0
VERTEX
8
OBJECT__1
10
51.493000
20
3.031000
30
34.557999
70
192
0
VERTEX
8
OBJECT__1
10
0.000000
20
1.997000
30
38.388000
70
192
0
VERTEX
8
OBJECT__1
10
51.493000
20
3.031000
30
37.389999
70
192
0
VERTEX
8
OBJECT__1
10
51.493000
20
1.832000
30
38.082001
70
192
0
VERTEX
8
OBJECT__1
10
0.000000
20
-1.997000
30
38.388000
70
192
0
VERTEX
8
OBJECT__1
10
51.493000
20
-1.832000
30
38.082001
70
192
0
VERTEX
8
OBJECT__1
10
51.493000
20
0.000000
30
39.139999
70
192
0
VERTEX
8
OBJECT__1
10
0.000000
20
-3.231000
30
34.590000
70
192
0
VERTEX
8
OBJECT__1
10
51.493000
20
-3.031000
30
34.557999
70
192
0
VERTEX
8
OBJECT__1
10
51.493000
20
-3.031000
30
37.389999
70
192
0
VERTEX
8
OBJECT__1
10
51.493000
20
0.000000
30
32.139999
70
192
0
VERTEX
8
OBJECT__1
10
51.493000
20
-3.031000
30
33.889999
70
192
0
VERTEX
8
OBJECT__1
10
0
20
0
30
0
70
128
71
1
72
2
73
3
0
VERTEX
8
OBJECT__1
10
0
20
0
30
0
70
128
71
2
72
4
73
3
0
VERTEX
8
OBJECT__1
10
0
20
0
30
0
70
128
71
2
72
5
73
6
0
VERTEX
8
OBJECT__1
10
0
20
0
30
0
70
128
71
5
72
7
73
6
0
VERTEX
8
OBJECT__1
10
0
20
0
30
0
70
128
71
8
72
9
73
10
0
VERTEX
8
OBJECT__1
10
0
20
0
30
0
70
128
71
10
72
5
73
8
0
VERTEX
8
OBJECT__1
10
0
20
0
30
0
70
128
71
11
72
12
73
13
0
VERTEX
8
OBJECT__1
10
0
20
0
30
0
70
128
71
13
72
8
73
11
0
VERTEX
8
OBJECT__1
10
0
20
0
30
0
70
128
71
1
72
14
73
15
0
VERTEX
8
OBJECT__1
10
0
20
0
30
0
70
128
71
15
72
11
73
1
0
VERTEX
8
OBJECT__1
10
0
20
0
30
0
70
128
71
15
72
12
73
11
0
VERTEX
8
OBJECT__1
10
0
20
0
30
0
70
128
71
13
72
9
73
8
0
VERTEX
8
OBJECT__1
10
0
20
0
30
0
70
128
71
10
72
7
73
5
0
VERTEX
8
OBJECT__1
10
0
20
0
30
0
70
128
71
6
72
4
73
2
0
VERTEX
8
OBJECT__1
10
0
20
0
30
0
70
128
71
3
72
14
73
1
0
SEQEND
8
OBJECT__1
0
POLYLINE
8
OBJECT__3
66
1
70
64
71
38
72
38
62
253
0
VERTEX
8
OBJECT__3
10
-14.750000
20
0.000000
30
-15.000000
70
192
0
VERTEX
8
OBJECT__3
10
-12.408000
20
-7.974000
30
-15.000000
70
192
0
VERTEX
8
OBJECT__3
10
-13.627000
20
-5.645000
30
-14.000000
70
192
0
VERTEX
8
OBJECT__3
10
-12.175000
20
-7.818000
30
-14.000000
70
192
0
VERTEX
8
OBJECT__3
10
-6.127000
20
-13.417000
30
-15.000000
70
192
0
VERTEX
8
OBJECT__3
10
-6.075000
20
-13.339000
30
-14.000000
70
192
0
VERTEX
8
OBJECT__3
10
-10.430000
20
-10.430000
30
-14.000000
70
192
0
VERTEX
8
OBJECT__3
10
0.000000
20
-14.750000
30
-15.000000
70
192
0
VERTEX
8
OBJECT__3
10
2.099000
20
-14.600000
30
-15.000000
70
192
0
VERTEX
8
OBJECT__3
10
2.048000
20
-14.343000
30
-14.000000
70
192
0
VERTEX
8
OBJECT__3
10
0.000000
20
-14.750000
30
-14.000000
70
192
0
VERTEX
8
OBJECT__3
10
-5.645000
20
-13.627000
30
-14.000000
70
192
0
VERTEX
8
OBJECT__3
10
9.659000
20
-11.147000
30
-15.000000
70
192
0
VERTEX
8
OBJECT__3
10
9.566000
20
-11.007000
30
-14.000000
70
192
0
VERTEX
8
OBJECT__3
10
5.645000
20
-13.627000
30
-14.000000
70
192
0
VERTEX
8
OBJECT__3
10
14.153000
20
-4.156000
30
-15.000000
70
192
0
VERTEX
8
OBJECT__3
10
13.627000
20
-5.645000
30
-14.000000
70
192
0
VERTEX
8
OBJECT__3
10
10.430000
20
-10.430000
30
-14.000000
70
192
0
VERTEX
8
OBJECT__3
10
13.932000
20
-4.112000
30
-14.000000
70
192
0
VERTEX
8
OBJECT__3
10
14.153000
20
4.156000
30
-15.000000
70
192
0
VERTEX
8
OBJECT__3
10
13.932000
20
4.112000
30
-14.000000
70
192
0
VERTEX
8
OBJECT__3
10
14.750000
20
0.000000
30
-14.000000
70
192
0
VERTEX
8
OBJECT__3
10
9.659000
20
11.147000
30
-15.000000
70
192
0
VERTEX
8
OBJECT__3
10
10.430000
20
10.430000
30
-14.000000
70
192
0
VERTEX
8
OBJECT__3
10
13.627000
20
5.645000
30
-14.000000
70
192
0
VERTEX
8
OBJECT__3
10
9.566000
20
11.007000
30
-14.000000
70
192
0
VERTEX
8
OBJECT__3
10
2.099000
20
14.600000
30
-15.000000
70
192
0
VERTEX
8
OBJECT__3
10
5.645000
20
13.627000
30
-14.000000
70
192
0
VERTEX
8
OBJECT__3
10
2.048000
20
14.343000
30
-14.000000
70
192
0
VERTEX
8
OBJECT__3
10
-6.127000
20
13.417000
30
-15.000000
70
192
0
VERTEX
8
OBJECT__3
10
-5.645000
20
13.627000
30
-14.000000
70
192
0
VERTEX
8
OBJECT__3
10
0.000000
20
14.750000
30
-14.000000
70
192
0
VERTEX
8
OBJECT__3
10
-6.075000
20
13.339000
30
-14.000000
70
192
0
VERTEX
8
OBJECT__3
10
-12.408000
20
7.974000
30
-15.000000
70
192
0
VERTEX
8
OBJECT__3
10
-10.430000
20
10.430000
30
-14.000000
70
192
0
VERTEX
8
OBJECT__3
10
-12.175000
20
7.818000
30
-14.000000
70
192
0
VERTEX
8
OBJECT__3
10
-14.750000
20
0.000000
30
-14.000000
70
192
0
VERTEX
8
OBJECT__3
10
-13.627000
20
5.645000
30
-14.000000
70
192
0
VERTEX
8
OBJECT__3
10
0
20
0
30
0
70
128
71
1
72
2
73
3
0
VERTEX
8
OBJECT__3
10
0
20
0
30
0
70
128
71
2
72
4
73
3
0
VERTEX
8
OBJECT__3
10
0
20
0
30
0
70
128
71
5
72
6
73
7
0
VERTEX
8
OBJECT__3
10
0
20
0
30
0
70
128
71
7
72
2
73
5
0
VERTEX
8
OBJECT__3
10
0
20
0
30
0
70
128
71
8
72
9
73
10
0
VERTEX
8
OBJECT__3
10
0
20
0
30
0
70
128
71
8
72
11
73
12
0
VERTEX
8
OBJECT__3
10
0
20
0
30
0
70
128
71
12
72
5
73
8
0
VERTEX
8
OBJECT__3
10
0
20
0
30
0
70
128
71
12
72
6
73
5
0
VERTEX
8
OBJECT__3
10
0
20
0
30
0
70
128
71
13
72
14
73
15
0
VERTEX
8
OBJECT__3
10
0
20
0
30
0
70
128
71
15
72
9
73
13
0
VERTEX
8
OBJECT__3
10
0
20
0
30
0
70
128
71
13
72
16
73
17
0
VERTEX
8
OBJECT__3
10
0
20
0
30
0
70
128
71
17
72
18
73
13
0
VERTEX
8
OBJECT__3
10
0
20
0
30
0
70
128
71
16
72
19
73
17
0
VERTEX
8
OBJECT__3
10
0
20
0
30
0
70
128
71
20
72
21
73
22
0
VERTEX
8
OBJECT__3
10
0
20
0
30
0
70
128
71
22
72
16
73
20
0
VERTEX
8
OBJECT__3
10
0
20
0
30
0
70
128
71
23
72
24
73
25
0
VERTEX
8
OBJECT__3
10
0
20
0
30
0
70
128
71
25
72
20
73
23
0
VERTEX
8
OBJECT__3
10
0
20
0
30
0
70
128
71
23
72
26
73
24
0
VERTEX
8
OBJECT__3
10
0
20
0
30
0
70
128
71
23
72
27
73
28
0
VERTEX
8
OBJECT__3
10
0
20
0
30
0
70
128
71
27
72
29
73
28
0
VERTEX
8
OBJECT__3
10
0
20
0
30
0
70
128
71
30
72
31
73
32
0
VERTEX
8
OBJECT__3
10
0
20
0
30
0
70
128
71
32
72
27
73
30
0
VERTEX
8
OBJECT__3
10
0
20
0
30
0
70
128
71
30
72
33
73
31
0
VERTEX
8
OBJECT__3
10
0
20
0
30
0
70
128
71
30
72
34
73
35
0
VERTEX
8
OBJECT__3
10
0
20
0
30
0
70
128
71
34
72
36
73
35
0
VERTEX
8
OBJECT__3
10
0
20
0
30
0
70
128
71
1
72
37
73
38
0
VERTEX
8
OBJECT__3
10
0
20
0
30
0
70
128
71
38
72
34
73
1
0
VERTEX
8
OBJECT__3
10
0
20
0
30
0
70
128
71
38
72
36
73
34
0
VERTEX
8
OBJECT__3
10
0
20
0
30
0
70
128
71
35
72
33
73
30
0
VERTEX
8
OBJECT__3
10
0
20
0
30
0
70
128
71
32
72
29
73
27
0
VERTEX
8
OBJECT__3
10
0
20
0
30
0
70
128
71
28
72
26
73
23
0
VERTEX
8
OBJECT__3
10
0
20
0
30
0
70
128
71
25
72
21
73
20
0
VERTEX
8
OBJECT__3
10
0
20
0
30
0
70
128
71
22
72
19
73
16
0
VERTEX
8
OBJECT__3
10
0
20
0
30
0
70
128
71
18
72
14
73
13
0
VERTEX
8
OBJECT__3
10
0
20
0
30
0
70
128
71
15
72
10
73
9
0
VERTEX
8
OBJECT__3
10
0
20
0
30
0
70
128
71
10
72
11
73
8
0
VERTEX
8
OBJECT__3
10
0
20
0
30
0
70
128
71
7
72
4
73
2
0
VERTEX
8
OBJECT__3
10
0
20
0
30
0
70
128
71
3
72
37
73
1
0
SEQEND
8
OBJECT__3
0
POLYLINE
8
OBJECT__4
66
1
70
64
71
68
72
84
62
253
0
VERTEX
8
OBJECT__4
10
-5.645000
20
13.627000
30
-14.000000
70
192
0
VERTEX
8
OBJECT__4
10
-5.227000
20
12.619000
30
-13.078000
70
192
0
VERTEX
8
OBJECT__4
10
0.000000
20
13.658000
30
-13.078000
70
192
0
VERTEX
8
OBJECT__4
10
-9.658000
20
9.658000
30
-13.078000
70
192
0
VERTEX
8
OBJECT__4
10
-6.075000
20
13.339000
30
-14.000000
70
192
0
VERTEX
8
OBJECT__4
10
-10.430000
20
10.430000
30
-14.000000
70
192
0
VERTEX
8
OBJECT__4
10
-12.175000
20
7.818000
30
-14.000000
70
192
0
VERTEX
8
OBJECT__4
10
-12.619000
20
5.227000
30
-13.078000
70
192
0
VERTEX
8
OBJECT__4
10
-13.627000
20
5.645000
30
-14.000000
70
192
0
VERTEX
8
OBJECT__4
10
-14.750000
20
0.000000
30
-14.000000
70
192
0
VERTEX
8
OBJECT__4
10
-13.658000
20
0.000000
30
-13.078000
70
192
0
VERTEX
8
OBJECT__4
10
-13.627000
20
-5.645000
30
-14.000000
70
192
0
VERTEX
8
OBJECT__4
10
-12.619000
20
-5.227000
30
-13.078000
70
192
0
VERTEX
8
OBJECT__4
10
-9.658000
20
-9.658000
30
-13.078000
70
192
0
VERTEX
8
OBJECT__4
10
-12.175000
20
-7.818000
30
-14.000000
70
192
0
VERTEX
8
OBJECT__4
10
-10.430000
20
-10.430000
30
-14.000000
70
192
0
VERTEX
8
OBJECT__4
10
-6.075000
20
-13.339000
30
-14.000000
70
192
0
VERTEX
8
OBJECT__4
10
-5.227000
20
-12.619000
30
-13.078000
70
192
0
VERTEX
8
OBJECT__4
10
-5.645000
20
-13.627000
30
-14.000000
70
192
0
VERTEX
8
OBJECT__4
10
0.000000
20
-14.750000
30
-14.000000
70
192
0
VERTEX
8
OBJECT__4
10
0.000000
20
-13.658000
30
-13.078000
70
192
0
VERTEX
8
OBJECT__4
10
5.227000
20
-12.619000
30
-13.078000
70
192
0
VERTEX
8
OBJECT__4
10
2.048000
20
-14.343000
30
-14.000000
70
192
0
VERTEX
8
OBJECT__4
10
5.645000
20
-13.627000
30
-14.000000
70
192
0
VERTEX
8
OBJECT__4
10
9.566000
20
-11.007000
30
-14.000000
70
192
0
VERTEX
8
OBJECT__4
10
9.658000
20
-9.658000
30
-13.078000
70
192
0
VERTEX
8
OBJECT__4
10
13.627000
20
-5.645000
30
-14.000000
70
192
0
VERTEX
8
OBJECT__4
10
12.619000
20
-5.227000
30
-13.078000
70
192
0
VERTEX
8
OBJECT__4
10
13.658000
20
0.000000
30
-13.078000
70
192
0
VERTEX
8
OBJECT__4
10
13.932000
20
-4.112000
30
-14.000000
70
192
0
VERTEX
8
OBJECT__4
10
14.750000
20
0.000000
30
-14.000000
70
192
0
VERTEX
8
OBJECT__4
10
13.932000
20
4.112000
30
-14.000000
70
192
0
VERTEX
8
OBJECT__4
10
12.619000
20
5.227000
30
-13.078000
70
192
0
VERTEX
8
OBJECT__4
10
13.627000
20
5.645000
30
-14.000000
70
192
0
VERTEX
8
OBJECT__4
10
10.430000
20
10.430000
30
-14.000000
70
192
0
VERTEX
8
OBJECT__4
10
9.658000
20
9.658000
30
-13.078000
70
192
0
VERTEX
8
OBJECT__4
10
5.227000
20
12.619000
30
-13.078000
70
192
0
VERTEX
8
OBJECT__4
10
9.566000
20
11.007000
30
-14.000000
70
192
0
VERTEX
8
OBJECT__4
10
5.645000
20
13.627000
30
-14.000000
70
192
0
VERTEX
8
OBJECT__4
10
2.048000
20
14.343000
30
-14.000000
70
192
0
VERTEX
8
OBJECT__4
10
-5.071000
20
12.241000
30
-11.709000
70
192
0
VERTEX
8
OBJECT__4
10
-9.369000
20
9.369000
30
-11.709000
70
192
0
VERTEX
8
OBJECT__4
10
-5.458000
20
11.983000
30
-11.709000
70
192
0
VERTEX
8
OBJECT__4
10
-10.937000
20
7.023000
30
-11.709000
70
192
0
VERTEX
8
OBJECT__4
10
-12.241000
20
5.071000
30
-11.709000
70
192
0
VERTEX
8
OBJECT__4
10
-13.250000
20
0.000000
30
-11.709000
70
192
0
VERTEX
8
OBJECT__4
10
-12.241000
20
-5.071000
30
-11.709000
70
192
0
VERTEX
8
OBJECT__4
10
-9.369000
20
-9.369000
30
-11.709000
70
192
0
VERTEX
8
OBJECT__4
10
-10.937000
20
-7.023000
30
-11.709000
70
192
0
VERTEX
8
OBJECT__4
10
-5.458000
20
-11.983000
30
-11.709000
70
192
0
VERTEX
8
OBJECT__4
10
-5.071000
20
-12.241000
30
-11.709000
70
192
0
VERTEX
8
OBJECT__4
10
0.000000
20
-13.250000
30
-11.709000
70
192
0
VERTEX
8
OBJECT__4
10
5.071000
20
-12.241000
30
-11.709000
70
192
0
VERTEX
8
OBJECT__4
10
1.840000
20
-12.884000
30
-11.709000
70
192
0
VERTEX
8
OBJECT__4
10
8.593000
20
-9.888000
30
-11.709000
70
192
0
VERTEX
8
OBJECT__4
10
9.369000
20
-9.369000
30
-11.709000
70
192
0
VERTEX
8
OBJECT__4
10
12.241000
20
-5.071000
30
-11.709000
70
192
0
VERTEX
8
OBJECT__4
10
13.250000
20
0.000000
30
-11.709000
70
192
0
VERTEX
8
OBJECT__4
10
12.515000
20
-3.694000
30
-11.709000
70
192
0
VERTEX
8
OBJECT__4
10
12.515000
20
3.694000
30
-11.709000
70
192
0
VERTEX
8
OBJECT__4
10
12.241000
20
5.071000
30
-11.709000
70
192
0
VERTEX
8
OBJECT__4
10
9.369000
20
9.369000
30
-11.709000
70
192
0
VERTEX
8
OBJECT__4
10
5.071000
20
12.241000
30
-11.709000
70
192
0
VERTEX
8
OBJECT__4
10
8.593000
20
9.888000
30
-11.709000
70
192
0
VERTEX
8
OBJECT__4
10
1.840000
20
12.884000
30
-11.709000
70
192
0
VERTEX
8
OBJECT__4
10
0.000000
20
13.250000
30
-11.709000
70
192
0
VERTEX
8
OBJECT__4
10
0.000000
20
14.750000
30
-14.000000
70
192
0
VERTEX
8
OBJECT__4
10
10.430000
20
-10.430000
30
-14.000000
70
192
0
VERTEX
8
OBJECT__4
10
0
20
0
30
0
70
128
71
1
72
2
73
3
0
VERTEX
8
OBJECT__4
10
0
20
0
30
0
70
128
71
4
72
2
73
5
0
VERTEX
8
OBJECT__4
10
0
20
0
30
0
70
128
71
2
72
1
73
5
0
VERTEX
8
OBJECT__4
10
0
20
0
30
0
70
128
71
4
72
6
73
7
0
VERTEX
8
OBJECT__4
10
0
20
0
30
0
70
128
71
7
72
8
73
4
0
VERTEX
8
OBJECT__4
10
0
20
0
30
0
70
128
71
9
72
10
73
11
0
VERTEX
8
OBJECT__4
10
0
20
0
30
0
70
128
71
10
72
12
73
13
0
VERTEX
8
OBJECT__4
10
0
20
0
30
0
70
128
71
14
72
13
73
15
0
VERTEX
8
OBJECT__4
10
0
20
0
30
0
70
128
71
13
72
12
73
15
0
VERTEX
8
OBJECT__4
10
0
20
0
30
0
70
128
71
14
72
16
73
17
0
VERTEX
8
OBJECT__4
10
0
20
0
30
0
70
128
71
17
72
18
73
14
0
VERTEX
8
OBJECT__4
10
0
20
0
30
0
70
128
71
19
72
20
73
21
0
VERTEX
8
OBJECT__4
10
0
20
0
30
0
70
128
71
22
72
21
73
23
0
VERTEX
8
OBJECT__4
10
0
20
0
30
0
70
128
71
21
72
20
73
23
0
VERTEX
8
OBJECT__4
10
0
20
0
30
0
70
128
71
22
72
24
73
25
0
VERTEX
8
OBJECT__4
10
0
20
0
30
0
70
128
71
25
72
26
73
22
0
VERTEX
8
OBJECT__4
10
0
20
0
30
0
70
128
71
27
72
28
73
26
0
VERTEX
8
OBJECT__4
10
0
20
0
30
0
70
128
71
29
72
28
73
30
0
VERTEX
8
OBJECT__4
10
0
20
0
30
0
70
128
71
28
72
27
73
30
0
VERTEX
8
OBJECT__4
10
0
20
0
30
0
70
128
71
29
72
31
73
32
0
VERTEX
8
OBJECT__4
10
0
20
0
30
0
70
128
71
32
72
33
73
29
0
VERTEX
8
OBJECT__4
10
0
20
0
30
0
70
128
71
34
72
35
73
36
0
VERTEX
8
OBJECT__4
10
0
20
0
30
0
70
128
71
37
72
36
73
38
0
VERTEX
8
OBJECT__4
10
0
20
0
30
0
70
128
71
36
72
35
73
38
0
VERTEX
8
OBJECT__4
10
0
20
0
30
0
70
128
71
37
72
39
73
40
0
VERTEX
8
OBJECT__4
10
0
20
0
30
0
70
128
71
40
72
3
73
37
0
VERTEX
8
OBJECT__4
10
0
20
0
30
0
70
128
71
3
72
2
73
41
0
VERTEX
8
OBJECT__4
10
0
20
0
30
0
70
128
71
4
72
42
73
43
0
VERTEX
8
OBJECT__4
10
0
20
0
30
0
70
128
71
43
72
2
73
4
0
VERTEX
8
OBJECT__4
10
0
20
0
30
0
70
128
71
4
72
8
73
44
0
VERTEX
8
OBJECT__4
10
0
20
0
30
0
70
128
71
8
72
45
73
44
0
VERTEX
8
OBJECT__4
10
0
20
0
30
0
70
128
71
8
72
11
73
46
0
VERTEX
8
OBJECT__4
10
0
20
0
30
0
70
128
71
11
72
13
73
47
0
VERTEX
8
OBJECT__4
10
0
20
0
30
0
70
128
71
14
72
48
73
49
0
VERTEX
8
OBJECT__4
10
0
20
0
30
0
70
128
71
49
72
13
73
14
0
VERTEX
8
OBJECT__4
10
0
20
0
30
0
70
128
71
14
72
18
73
50
0
VERTEX
8
OBJECT__4
10
0
20
0
30
0
70
128
71
18
72
51
73
50
0
VERTEX
8
OBJECT__4
10
0
20
0
30
0
70
128
71
18
72
21
73
52
0
VERTEX
8
OBJECT__4
10
0
20
0
30
0
70
128
71
22
72
53
73
54
0
VERTEX
8
OBJECT__4
10
0
20
0
30
0
70
128
71
54
72
21
73
22
0
VERTEX
8
OBJECT__4
10
0
20
0
30
0
70
128
71
22
72
26
73
55
0
VERTEX
8
OBJECT__4
10
0
20
0
30
0
70
128
71
26
72
56
73
55
0
VERTEX
8
OBJECT__4
10
0
20
0
30
0
70
128
71
28
72
57
73
56
0
VERTEX
8
OBJECT__4
10
0
20
0
30
0
70
128
71
29
72
58
73
59
0
VERTEX
8
OBJECT__4
10
0
20
0
30
0
70
128
71
59
72
28
73
29
0
VERTEX
8
OBJECT__4
10
0
20
0
30
0
70
128
71
29
72
33
73
60
0
VERTEX
8
OBJECT__4
10
0
20
0
30
0
70
128
71
33
72
61
73
60
0
VERTEX
8
OBJECT__4
10
0
20
0
30
0
70
128
71
36
72
62
73
61
0
VERTEX
8
OBJECT__4
10
0
20
0
30
0
70
128
71
37
72
63
73
64
0
VERTEX
8
OBJECT__4
10
0
20
0
30
0
70
128
71
64
72
36
73
37
0
VERTEX
8
OBJECT__4
10
0
20
0
30
0
70
128
71
37
72
3
73
65
0
VERTEX
8
OBJECT__4
10
0
20
0
30
0
70
128
71
3
72
66
73
65
0
VERTEX
8
OBJECT__4
10
0
20
0
30
0
70
128
71
65
72
63
73
37
0
VERTEX
8
OBJECT__4
10
0
20
0
30
0
70
128
71
64
72
62
73
36
0
VERTEX
8
OBJECT__4
10
0
20
0
30
0
70
128
71
61
72
33
73
36
0
VERTEX
8
OBJECT__4
10
0
20
0
30
0
70
128
71
60
72
58
73
29
0
VERTEX
8
OBJECT__4
10
0
20
0
30
0
70
128
71
59
72
57
73
28
0
VERTEX
8
OBJECT__4
10
0
20
0
30
0
70
128
71
56
72
26
73
28
0
VERTEX
8
OBJECT__4
10
0
20
0
30
0
70
128
71
55
72
53
73
22
0
VERTEX
8
OBJECT__4
10
0
20
0
30
0
70
128
71
54
72
52
73
21
0
VERTEX
8
OBJECT__4
10
0
20
0
30
0
70
128
71
52
72
51
73
18
0
VERTEX
8
OBJECT__4
10
0
20
0
30
0
70
128
71
50
72
48
73
14
0
VERTEX
8
OBJECT__4
10
0
20
0
30
0
70
128
71
49
72
47
73
13
0
VERTEX
8
OBJECT__4
10
0
20
0
30
0
70
128
71
47
72
46
73
11
0
VERTEX
8
OBJECT__4
10
0
20
0
30
0
70
128
71
46
72
45
73
8
0
VERTEX
8
OBJECT__4
10
0
20
0
30
0
70
128
71
44
72
42
73
4
0
VERTEX
8
OBJECT__4
10
0
20
0
30
0
70
128
71
43
72
41
73
2
0
VERTEX
8
OBJECT__4
10
0
20
0
30
0
70
128
71
41
72
66
73
3
0
VERTEX
8
OBJECT__4
10
0
20
0
30
0
70
128
71
40
72
67
73
3
0
VERTEX
8
OBJECT__4
10
0
20
0
30
0
70
128
71
38
72
39
73
37
0
VERTEX
8
OBJECT__4
10
0
20
0
30
0
70
128
71
36
72
33
73
34
0
VERTEX
8
OBJECT__4
10
0
20
0
30
0
70
128
71
32
72
34
73
33
0
VERTEX
8
OBJECT__4
10
0
20
0
30
0
70
128
71
30
72
31
73
29
0
VERTEX
8
OBJECT__4
10
0
20
0
30
0
70
128
71
26
72
68
73
27
0
VERTEX
8
OBJECT__4
10
0
20
0
30
0
70
128
71
25
72
68
73
26
0
VERTEX
8
OBJECT__4
10
0
20
0
30
0
70
128
71
23
72
24
73
22
0
VERTEX
8
OBJECT__4
10
0
20
0
30
0
70
128
71
21
72
18
73
19
0
VERTEX
8
OBJECT__4
10
0
20
0
30
0
70
128
71
17
72
19
73
18
0
VERTEX
8
OBJECT__4
10
0
20
0
30
0
70
128
71
15
72
16
73
14
0
VERTEX
8
OBJECT__4
10
0
20
0
30
0
70
128
71
13
72
11
73
10
0
VERTEX
8
OBJECT__4
10
0
20
0
30
0
70
128
71
11
72
8
73
9
0
VERTEX
8
OBJECT__4
10
0
20
0
30
0
70
128
71
7
72
9
73
8
0
VERTEX
8
OBJECT__4
10
0
20
0
30
0
70
128
71
5
72
6
73
4
0
VERTEX
8
OBJECT__4
10
0
20
0
30
0
70
128
71
3
72
67
73
1
0
SEQEND
8
OBJECT__4
0
POLYLINE
8
OBJECT__6
66
1
70
64
71
39
72
39
62
253
0
VERTEX
8
OBJECT__6
10
-13.250000
20
0.000000
30
8.500000
70
192
0
VERTEX
8
OBJECT__6
10
-13.250000
20
0.000000
30
-11.709000
70
192
0
VERTEX
8
OBJECT__6
10
-12.241000
20
-5.071000
30
-11.709000
70
192
0
VERTEX
8
OBJECT__6
10
-11.147000
20
-7.163000
30
8.500000
70
192
0
VERTEX
8
OBJECT__6
10
-5.504000
20
-12.053000
30
8.500000
70
192
0
VERTEX
8
OBJECT__6
10
-9.369000
20
-9.369000
30
-11.709000
70
192
0
VERTEX
8
OBJECT__6
10
-10.937000
20
-7.023000
30
-11.709000
70
192
0
VERTEX
8
OBJECT__6
10
0.000000
20
-13.250000
30
8.500000
70
192
0
VERTEX
8
OBJECT__6
10
0.000000
20
-13.250000
30
-11.709000
70
192
0
VERTEX
8
OBJECT__6
10
1.840000
20
-12.884000
30
-11.709000
70
192
0
VERTEX
8
OBJECT__6
10
-5.071000
20
-12.241000
30
-11.709000
70
192
0
VERTEX
8
OBJECT__6
10
-5.458000
20
-11.983000
30
-11.709000
70
192
0
VERTEX
8
OBJECT__6
10
8.677000
20
-10.014000
30
8.500000
70
192
0
VERTEX
8
OBJECT__6
10
1.886000
20
-13.115000
30
8.500000
70
192
0
VERTEX
8
OBJECT__6
10
5.071000
20
-12.241000
30
-11.709000
70
192
0
VERTEX
8
OBJECT__6
10
9.369000
20
-9.369000
30
-11.709000
70
192
0
VERTEX
8
OBJECT__6
10
12.241000
20
-5.071000
30
-11.709000
70
192
0
VERTEX
8
OBJECT__6
10
12.713000
20
-3.733000
30
8.500000
70
192
0
VERTEX
8
OBJECT__6
10
8.593000
20
-9.888000
30
-11.709000
70
192
0
VERTEX
8
OBJECT__6
10
12.713000
20
3.733000
30
8.500000
70
192
0
VERTEX
8
OBJECT__6
10
13.250000
20
0.000000
30
-11.709000
70
192
0
VERTEX
8
OBJECT__6
10
12.515000
20
-3.694000
30
-11.709000
70
192
0
VERTEX
8
OBJECT__6
10
8.677000
20
10.014000
30
8.500000
70
192
0
VERTEX
8
OBJECT__6
10
12.241000
20
5.071000
30
-11.709000
70
192
0
VERTEX
8
OBJECT__6
10
12.515000
20
3.694000
30
-11.709000
70
192
0
VERTEX
8
OBJECT__6
10
9.369000
20
9.369000
30
-11.709000
70
192
0
VERTEX
8
OBJECT__6
10
8.593000
20
9.888000
30
-11.709000
70
192
0
VERTEX
8
OBJECT__6
10
5.071000
20
12.241000
30
-11.709000
70
192
0
VERTEX
8
OBJECT__6
10
1.886000
20
13.115000
30
8.500000
70
192
0
VERTEX
8
OBJECT__6
10
0.000000
20
13.250000
30
8.500000
70
192
0
VERTEX
8
OBJECT__6
10
0.000000
20
13.250000
30
-11.709000
70
192
0
VERTEX
8
OBJECT__6
10
-5.071000
20
12.241000
30
-11.709000
70
192
0
VERTEX
8
OBJECT__6
10
-5.504000
20
12.053000
30
8.500000
70
192
0
VERTEX
8
OBJECT__6
10
1.840000
20
12.884000
30
-11.709000
70
192
0
VERTEX
8
OBJECT__6
10
-5.458000
20
11.983000
30
-11.709000
70
192
0
VERTEX
8
OBJECT__6
10
-9.369000
20
9.369000
30
-11.709000
70
192
0
VERTEX
8
OBJECT__6
10
-11.147000
20
7.163000
30
8.500000
70
192
0
VERTEX
8
OBJECT__6
10
-12.241000
20
5.071000
30
-11.709000
70
192
0
VERTEX
8
OBJECT__6
10
-10.937000
20
7.023000
30
-11.709000
70
192
0
VERTEX
8
OBJECT__6
10
0
20
0
30
0
70
128
71
1
72
2
73
3
0
VERTEX
8
OBJECT__6
10
0
20
0
30
0
70
128
71
3
72
4
73
1
0
VERTEX
8
OBJECT__6
10
0
20
0
30
0
70
128
71
5
72
4
73
6
0
VERTEX
8
OBJECT__6
10
0
20
0
30
0
70
128
71
4
72
7
73
6
0
VERTEX
8
OBJECT__6
10
0
20
0
30
0
70
128
71
8
72
9
73
10
0
VERTEX
8
OBJECT__6
10
0
20
0
30
0
70
128
71
8
72
5
73
11
0
VERTEX
8
OBJECT__6
10
0
20
0
30
0
70
128
71
11
72
9
73
8
0
VERTEX
8
OBJECT__6
10
0
20
0
30
0
70
128
71
5
72
12
73
11
0
VERTEX
8
OBJECT__6
10
0
20
0
30
0
70
128
71
13
72
14
73
15
0
VERTEX
8
OBJECT__6
10
0
20
0
30
0
70
128
71
14
72
10
73
15
0
VERTEX
8
OBJECT__6
10
0
20
0
30
0
70
128
71
13
72
16
73
17
0
VERTEX
8
OBJECT__6
10
0
20
0
30
0
70
128
71
17
72
18
73
13
0
VERTEX
8
OBJECT__6
10
0
20
0
30
0
70
128
71
13
72
19
73
16
0
VERTEX
8
OBJECT__6
10
0
20
0
30
0
70
128
71
20
72
18
73
21
0
VERTEX
8
OBJECT__6
10
0
20
0
30
0
70
128
71
18
72
22
73
21
0
VERTEX
8
OBJECT__6
10
0
20
0
30
0
70
128
71
23
72
20
73
24
0
VERTEX
8
OBJECT__6
10
0
20
0
30
0
70
128
71
20
72
25
73
24
0
VERTEX
8
OBJECT__6
10
0
20
0
30
0
70
128
71
24
72
26
73
23
0
VERTEX
8
OBJECT__6
10
0
20
0
30
0
70
128
71
23
72
27
73
28
0
VERTEX
8
OBJECT__6
10
0
20
0
30
0
70
128
71
28
72
29
73
23
0
VERTEX
8
OBJECT__6
10
0
20
0
30
0
70
128
71
30
72
31
73
32
0
VERTEX
8
OBJECT__6
10
0
20
0
30
0
70
128
71
32
72
33
73
30
0
VERTEX
8
OBJECT__6
10
0
20
0
30
0
70
128
71
30
72
29
73
34
0
VERTEX
8
OBJECT__6
10
0
20
0
30
0
70
128
71
34
72
31
73
30
0
VERTEX
8
OBJECT__6
10
0
20
0
30
0
70
128
71
33
72
35
73
36
0
VERTEX
8
OBJECT__6
10
0
20
0
30
0
70
128
71
36
72
37
73
33
0
VERTEX
8
OBJECT__6
10
0
20
0
30
0
70
128
71
1
72
37
73
38
0
VERTEX
8
OBJECT__6
10
0
20
0
30
0
70
128
71
37
72
39
73
38
0
VERTEX
8
OBJECT__6
10
0
20
0
30
0
70
128
71
38
72
2
73
1
0
VERTEX
8
OBJECT__6
10
0
20
0
30
0
70
128
71
36
72
39
73
37
0
VERTEX
8
OBJECT__6
10
0
20
0
30
0
70
128
71
32
72
35
73
33
0
VERTEX
8
OBJECT__6
10
0
20
0
30
0
70
128
71
28
72
34
73
29
0
VERTEX
8
OBJECT__6
10
0
20
0
30
0
70
128
71
26
72
27
73
23
0
VERTEX
8
OBJECT__6
10
0
20
0
30
0
70
128
71
21
72
25
73
20
0
VERTEX
8
OBJECT__6
10
0
20
0
30
0
70
128
71
17
72
22
73
18
0
VERTEX
8
OBJECT__6
10
0
20
0
30
0
70
128
71
15
72
19
73
13
0
VERTEX
8
OBJECT__6
10
0
20
0
30
0
70
128
71
10
72
14
73
8
0
VERTEX
8
OBJECT__6
10
0
20
0
30
0
70
128
71
6
72
12
73
5
0
VERTEX
8
OBJECT__6
10
0
20
0
30
0
70
128
71
3
72
7
73
4
0
SEQEND
8
OBJECT__6
0
POLYLINE
8
OBJECT__7
66
1
70
64
71
11
72
9
62
253
0
VERTEX
8
OBJECT__7
10
-2.135000
20
-14.847000
30
8.640000
70
192
0
VERTEX
8
OBJECT__7
10
-14.392000
20
-4.226000
30
8.640000
70
192
0
VERTEX
8
OBJECT__7
10
-14.392000
20
4.226000
30
8.640000
70
192
0
VERTEX
8
OBJECT__7
10
15.000000
20
0.000000
30
8.640000
70
192
0
VERTEX
8
OBJECT__7
10
12.619000
20
-8.110000
30
8.640000
70
192
0
VERTEX
8
OBJECT__7
10
-9.823000
20
11.336000
30
8.640000
70
192
0
VERTEX
8
OBJECT__7
10
-2.135000
20
14.847000
30
8.640000
70
192
0
VERTEX
8
OBJECT__7
10
-9.823000
20
-11.336000
30
8.640000
70
192
0
VERTEX
8
OBJECT__7
10
12.619000
20
8.110000
30
8.640000
70
192
0
VERTEX
8
OBJECT__7
10
6.231000
20
13.644000
30
8.640000
70
192
0
VERTEX
8
OBJECT__7
10
6.231000
20
-13.644000
30
8.640000
70
192
0
VERTEX
8
OBJECT__7
10
0
20
0
30
0
70
128
71
1
72
2
73
3
0
VERTEX
8
OBJECT__7
10
0
20
0
30
0
70
128
71
1
72
4
73
5
0
VERTEX
8
OBJECT__7
10
0
20
0
30
0
70
128
71
1
72
6
73
7
0
VERTEX
8
OBJECT__7
10
0
20
0
30
0
70
128
71
1
72
8
73
2
0
VERTEX
8
OBJECT__7
10
0
20
0
30
0
70
128
71
1
72
9
73
4
0
VERTEX
8
OBJECT__7
10
0
20
0
30
0
70
128
71
3
72
6
73
1
0
VERTEX
8
OBJECT__7
10
0
20
0
30
0
70
128
71
1
72
10
73
9
0
VERTEX
8
OBJECT__7
10
0
20
0
30
0
70
128
71
5
72
11
73
1
0
VERTEX
8
OBJECT__7
10
0
20
0
30
0
70
128
71
7
72
10
73
1
0
SEQEND
8
OBJECT__7
0
POLYLINE
8
OBJECT__8
66
1
70
64
71
37
72
37
62
253
0
VERTEX
8
OBJECT__8
10
15.000000
20
0.000000
30
8.640000
70
192
0
VERTEX
8
OBJECT__8
10
12.619000
20
8.110000
30
8.640000
70
192
0
VERTEX
8
OBJECT__8
10
13.858000
20
5.740000
30
43.527000
70
192
0
VERTEX
8
OBJECT__8
10
12.381000
20
7.951000
30
43.527000
70
192
0
VERTEX
8
OBJECT__8
10
6.231000
20
13.644000
30
8.640000
70
192
0
VERTEX
8
OBJECT__8
10
6.178000
20
13.565000
30
43.527000
70
192
0
VERTEX
8
OBJECT__8
10
10.607000
20
10.607000
30
43.527000
70
192
0
VERTEX
8
OBJECT__8
10
-2.135000
20
14.847000
30
8.640000
70
192
0
VERTEX
8
OBJECT__8
10
0.000000
20
15.000000
30
43.527000
70
192
0
VERTEX
8
OBJECT__8
10
5.740000
20
13.858000
30
43.527000
70
192
0
VERTEX
8
OBJECT__8
10
-2.083000
20
14.586000
30
43.527000
70
192
0
VERTEX
8
OBJECT__8
10
-9.823000
20
11.336000
30
8.640000
70
192
0
VERTEX
8
OBJECT__8
10
-9.728000
20
11.194000
30
43.527000
70
192
0
VERTEX
8
OBJECT__8
10
-5.740000
20
13.858000
30
43.527000
70
192
0
VERTEX
8
OBJECT__8
10
-14.392000
20
4.226000
30
8.640000
70
192
0
VERTEX
8
OBJECT__8
10
-13.858000
20
5.740000
30
43.527000
70
192
0
VERTEX
8
OBJECT__8
10
-10.607000
20
10.607000
30
43.527000
70
192
0
VERTEX
8
OBJECT__8
10
-14.168000
20
4.181000
30
43.527000
70
192
0
VERTEX
8
OBJECT__8
10
-14.392000
20
-4.226000
30
8.640000
70
192
0
VERTEX
8
OBJECT__8
10
-15.000000
20
0.000000
30
43.527000
70
192
0
VERTEX
8
OBJECT__8
10
-14.168000
20
-4.181000
30
43.527000
70
192
0
VERTEX
8
OBJECT__8
10
-9.823000
20
-11.336000
30
8.640000
70
192
0
VERTEX
8
OBJECT__8
10
-10.607000
20
-10.607000
30
43.527000
70
192
0
VERTEX
8
OBJECT__8
10
-13.858000
20
-5.740000
30
43.527000
70
192
0
VERTEX
8
OBJECT__8
10
-9.728000
20
-11.194000
30
43.527000
70
192
0
VERTEX
8
OBJECT__8
10
-2.135000
20
-14.847000
30
8.640000
70
192
0
VERTEX
8
OBJECT__8
10
-5.740000
20
-13.858000
30
43.527000
70
192
0
VERTEX
8
OBJECT__8
10
-2.083000
20
-14.586000
30
43.527000
70
192
0
VERTEX
8
OBJECT__8
10
6.231000
20
-13.644000
30
8.640000
70
192
0
VERTEX
8
OBJECT__8
10
5.740000
20
-13.858000
30
43.527000
70
192
0
VERTEX
8
OBJECT__8
10
0.000000
20
-15.000000
30
43.527000
70
192
0
VERTEX
8
OBJECT__8
10
6.178000
20
-13.565000
30
43.527000
70
192
0
VERTEX
8
OBJECT__8
10
12.619000
20
-8.110000
30
8.640000
70
192
0
VERTEX
8
OBJECT__8
10
10.607000
20
-10.607000
30
43.527000
70
192
0
VERTEX
8
OBJECT__8
10
12.381000
20
-7.951000
30
43.527000
70
192
0
VERTEX
8
OBJECT__8
10
15.000000
20
0.000000
30
43.527000
70
192
0
VERTEX
8
OBJECT__8
10
13.858000
20
-5.740000
30
43.527000
70
192
0
VERTEX
8
OBJECT__8
10
0
20
0
30
0
70
128
71
1
72
2
73
3
0
VERTEX
8
OBJECT__8
10
0
20
0
30
0
70
128
71
2
72
4
73
3
0
VERTEX
8
OBJECT__8
10
0
20
0
30
0
70
128
71
5
72
6
73
7
0
VERTEX
8
OBJECT__8
10
0
20
0
30
0
70
128
71
7
72
2
73
5
0
VERTEX
8
OBJECT__8
10
0
20
0
30
0
70
128
71
5
72
8
73
9
0
VERTEX
8
OBJECT__8
10
0
20
0
30
0
70
128
71
9
72
10
73
5
0
VERTEX
8
OBJECT__8
10
0
20
0
30
0
70
128
71
8
72
11
73
9
0
VERTEX
8
OBJECT__8
10
0
20
0
30
0
70
128
71
12
72
13
73
14
0
VERTEX
8
OBJECT__8
10
0
20
0
30
0
70
128
71
14
72
8
73
12
0
VERTEX
8
OBJECT__8
10
0
20
0
30
0
70
128
71
12
72
15
73
16
0
VERTEX
8
OBJECT__8
10
0
20
0
30
0
70
128
71
16
72
17
73
12
0
VERTEX
8
OBJECT__8
10
0
20
0
30
0
70
128
71
15
72
18
73
16
0
VERTEX
8
OBJECT__8
10
0
20
0
30
0
70
128
71
15
72
19
73
20
0
VERTEX
8
OBJECT__8
10
0
20
0
30
0
70
128
71
19
72
21
73
20
0
VERTEX
8
OBJECT__8
10
0
20
0
30
0
70
128
71
22
72
23
73
24
0
VERTEX
8
OBJECT__8
10
0
20
0
30
0
70
128
71
24
72
19
73
22
0
VERTEX
8
OBJECT__8
10
0
20
0
30
0
70
128
71
22
72
25
73
23
0
VERTEX
8
OBJECT__8
10
0
20
0
30
0
70
128
71
22
72
26
73
27
0
VERTEX
8
OBJECT__8
10
0
20
0
30
0
70
128
71
26
72
28
73
27
0
VERTEX
8
OBJECT__8
10
0
20
0
30
0
70
128
71
29
72
30
73
31
0
VERTEX
8
OBJECT__8
10
0
20
0
30
0
70
128
71
31
72
26
73
29
0
VERTEX
8
OBJECT__8
10
0
20
0
30
0
70
128
71
29
72
32
73
30
0
VERTEX
8
OBJECT__8
10
0
20
0
30
0
70
128
71
29
72
33
73
34
0
VERTEX
8
OBJECT__8
10
0
20
0
30
0
70
128
71
33
72
35
73
34
0
VERTEX
8
OBJECT__8
10
0
20
0
30
0
70
128
71
1
72
36
73
37
0
VERTEX
8
OBJECT__8
10
0
20
0
30
0
70
128
71
37
72
33
73
1
0
VERTEX
8
OBJECT__8
10
0
20
0
30
0
70
128
71
37
72
35
73
33
0
VERTEX
8
OBJECT__8
10
0
20
0
30
0
70
128
71
34
72
32
73
29
0
VERTEX
8
OBJECT__8
10
0
20
0
30
0
70
128
71
31
72
28
73
26
0
VERTEX
8
OBJECT__8
10
0
20
0
30
0
70
128
71
27
72
25
73
22
0
VERTEX
8
OBJECT__8
10
0
20
0
30
0
70
128
71
24
72
21
73
19
0
VERTEX
8
OBJECT__8
10
0
20
0
30
0
70
128
71
20
72
18
73
15
0
VERTEX
8
OBJECT__8
10
0
20
0
30
0
70
128
71
17
72
13
73
12
0
VERTEX
8
OBJECT__8
10
0
20
0
30
0
70
128
71
14
72
11
73
8
0
VERTEX
8
OBJECT__8
10
0
20
0
30
0
70
128
71
10
72
6
73
5
0
VERTEX
8
OBJECT__8
10
0
20
0
30
0
70
128
71
7
72
4
73
2
0
VERTEX
8
OBJECT__8
10
0
20
0
30
0
70
128
71
3
72
36
73
1
0
SEQEND
8
OBJECT__8
0
POLYLINE
8
OBJECT__10
66
1
70
64
71
27
72
26
62
253
0
VERTEX
8
OBJECT__10
10
0.000000
20
0.000000
30
43.639999
70
192
0
VERTEX
8
OBJECT__10
10
0.000000
20
15.000000
30
43.527000
70
192
0
VERTEX
8
OBJECT__10
10
-2.083000
20
14.586000
30
43.527000
70
192
0
VERTEX
8
OBJECT__10
10
-5.740000
20
13.858000
30
43.527000
70
192
0
VERTEX
8
OBJECT__10
10
-9.728000
20
11.194000
30
43.527000
70
192
0
VERTEX
8
OBJECT__10
10
-13.858000
20
5.740000
30
43.527000
70
192
0
VERTEX
8
OBJECT__10
10
-14.168000
20
4.181000
30
43.527000
70
192
0
VERTEX
8
OBJECT__10
10
-15.000000
20
0.000000
30
43.527000
70
192
0
VERTEX
8
OBJECT__10
10
-14.168000
20
-4.181000
30
43.527000
70
192
0
VERTEX
8
OBJECT__10
10
-10.607000
20
-10.607000
30
43.527000
70
192
0
VERTEX
8
OBJECT__10
10
-9.728000
20
-11.194000
30
43.527000
70
192
0
VERTEX
8
OBJECT__10
10
-5.740000
20
-13.858000
30
43.527000
70
192
0
VERTEX
8
OBJECT__10
10
-2.083000
20
-14.586000
30
43.527000
70
192
0
VERTEX
8
OBJECT__10
10
5.740000
20
-13.858000
30
43.527000
70
192
0
VERTEX
8
OBJECT__10
10
6.178000
20
-13.565000
30
43.527000
70
192
0
VERTEX
8
OBJECT__10
10
10.607000
20
-10.607000
30
43.527000
70
192
0
VERTEX
8
OBJECT__10
10
12.381000
20
-7.951000
30
43.527000
70
192
0
VERTEX
8
OBJECT__10
10
13.858000
20
5.740000
30
43.527000
70
192
0
VERTEX
8
OBJECT__10
10
12.381000
20
7.951000
30
43.527000
70
192
0
VERTEX
8
OBJECT__10
10
10.607000
20
10.607000
30
43.527000
70
192
0
VERTEX
8
OBJECT__10
10
6.178000
20
13.565000
30
43.527000
70
192
0
VERTEX
8
OBJECT__10
10
5.740000
20
13.858000
30
43.527000
70
192
0
VERTEX
8
OBJECT__10
10
15.000000
20
0.000000
30
43.527000
70
192
0
VERTEX
8
OBJECT__10
10
13.858000
20
-5.740000
30
43.527000
70
192
0
VERTEX
8
OBJECT__10
10
0.000000
20
-15.000000
30
43.527000
70
192
0
VERTEX
8
OBJECT__10
10
-13.858000
20
-5.740000
30
43.527000
70
192
0
VERTEX
8
OBJECT__10
10
-10.607000
20
10.607000
30
43.527000
70
192
0
VERTEX
8
OBJECT__10
10
0
20
0
30
0
70
128
71
1
72
2
73
3
0
VERTEX
8
OBJECT__10
10
0
20
0
30
0
70
128
71
1
72
4
73
5
0
VERTEX
8
OBJECT__10
10
0
20
0
30
0
70
128
71
1
72
6
73
7
0
VERTEX
8
OBJECT__10
10
0
20
0
30
0
70
128
71
1
72
8
73
9
0
VERTEX
8
OBJECT__10
10
0
20
0
30
0
70
128
71
1
72
10
73
11
0
VERTEX
8
OBJECT__10
10
0
20
0
30
0
70
128
71
1
72
12
73
13
0
VERTEX
8
OBJECT__10
10
0
20
0
30
0
70
128
71
1
72
14
73
15
0
VERTEX
8
OBJECT__10
10
0
20
0
30
0
70
128
71
1
72
16
73
17
0
VERTEX
8
OBJECT__10
10
0
20
0
30
0
70
128
71
1
72
18
73
19
0
VERTEX
8
OBJECT__10
10
0
20
0
30
0
70
128
71
1
72
20
73
21
0
VERTEX
8
OBJECT__10
10
0
20
0
30
0
70
128
71
1
72
22
73
2
0
VERTEX
8
OBJECT__10
10
0
20
0
30
0
70
128
71
21
72
22
73
1
0
VERTEX
8
OBJECT__10
10
0
20
0
30
0
70
128
71
19
72
20
73
1
0
VERTEX
8
OBJECT__10
10
0
20
0
30
0
70
128
71
1
72
23
73
18
0
VERTEX
8
OBJECT__10
10
0
20
0
30
0
70
128
71
1
72
24
73
23
0
VERTEX
8
OBJECT__10
10
0
20
0
30
0
70
128
71
17
72
24
73
1
0
VERTEX
8
OBJECT__10
10
0
20
0
30
0
70
128
71
15
72
16
73
1
0
VERTEX
8
OBJECT__10
10
0
20
0
30
0
70
128
71
1
72
25
73
14
0
VERTEX
8
OBJECT__10
10
0
20
0
30
0
70
128
71
13
72
25
73
1
0
VERTEX
8
OBJECT__10
10
0
20
0
30
0
70
128
71
11
72
12
73
1
0
VERTEX
8
OBJECT__10
10
0
20
0
30
0
70
128
71
1
72
26
73
10
0
VERTEX
8
OBJECT__10
10
0
20
0
30
0
70
128
71
9
72
26
73
1
0
VERTEX
8
OBJECT__10
10
0
20
0
30
0
70
128
71
7
72
8
73
1
0
VERTEX
8
OBJECT__10
10
0
20
0
30
0
70
128
71
1
72
27
73
6
0
VERTEX
8
OBJECT__10
10
0
20
0
30
0
70
128
71
5
72
27
73
1
0
VERTEX
8
OBJECT__10
10
0
20
0
30
0
70
128
71
3
72
4
73
1
0
SEQEND
8
OBJECT__10
0
POLYLINE
8
OBJECT__11
66
1
70
64
71
28
72
28
62
253
0
VERTEX
8
OBJECT__11
10
-23.158001
20
23.158001
30
-15.000000
70
192
0
VERTEX
8
OBJECT__11
10
-30.257000
20
12.533000
30
-15.000000
70
192
0
VERTEX
8
OBJECT__11
10
-10.609000
20
6.125000
30
-15.000000
70
192
0
VERTEX
8
OBJECT__11
10
-6.125000
20
10.609000
30
-15.000000
70
192
0
VERTEX
8
OBJECT__11
10
-12.533000
20
30.257000
30
-15.000000
70
192
0
VERTEX
8
OBJECT__11
10
-32.750000
20
0.000000
30
-15.000000
70
192
0
VERTEX
8
OBJECT__11
10
-12.250000
20
0.000000
30
-15.000000
70
192
0
VERTEX
8
OBJECT__11
10
-30.257000
20
-12.533000
30
-15.000000
70
192
0
VERTEX
8
OBJECT__11
10
-10.609000
20
-6.125000
30
-15.000000
70
192
0
VERTEX
8
OBJECT__11
10
-23.158001
20
-23.158001
30
-15.000000
70
192
0
VERTEX
8
OBJECT__11
10
-6.125000
20
-10.609000
30
-15.000000
70
192
0
VERTEX
8
OBJECT__11
10
-12.533000
20
-30.257000
30
-15.000000
70
192
0
VERTEX
8
OBJECT__11
10
0.000000
20
-32.750000
30
-15.000000
70
192
0
VERTEX
8
OBJECT__11
10
0.000000
20
-12.250000
30
-15.000000
70
192
0
VERTEX
8
OBJECT__11
10
12.533000
20
-30.257000
30
-15.000000
70
192
0
VERTEX
8
OBJECT__11
10
6.125000
20
-10.609000
30
-15.000000
70
192
0
VERTEX
8
OBJECT__11
10
23.158001
20
23.158001
30
-15.000000
70
192
0
VERTEX
8
OBJECT__11
10
6.125000
20
10.609000
30
-15.000000
70
192
0
VERTEX
8
OBJECT__11
10
10.609000
20
6.125000
30
-15.000000
70
192
0
VERTEX
8
OBJECT__11
10
23.158001
20
-23.158001
30
-15.000000
70
192
0
VERTEX
8
OBJECT__11
10
30.257000
20
-12.533000
30
-15.000000
70
192
0
VERTEX
8
OBJECT__11
10
10.609000
20
-6.125000
30
-15.000000
70
192
0
VERTEX
8
OBJECT__11
10
30.257000
20
12.533000
30
-15.000000
70
192
0
VERTEX
8
OBJECT__11
10
12.250000
20
0.000000
30
-15.000000
70
192
0
VERTEX
8
OBJECT__11
10
12.533000
20
30.257000
30
-15.000000
70
192
0
VERTEX
8
OBJECT__11
10
0.000000
20
32.750000
30
-15.000000
70
192
0
VERTEX
8
OBJECT__11
10
0.000000
20
12.250000
30
-15.000000
70
192
0
VERTEX
8
OBJECT__11
10
32.750000
20
0.000000
30
-15.000000
70
192
0
VERTEX
8
OBJECT__11
10
0
20
0
30
0
70
128
71
1
72
2
73
3
0
VERTEX
8
OBJECT__11
10
0
20
0
30
0
70
128
71
4
72
5
73
1
0
VERTEX
8
OBJECT__11
10
0
20
0
30
0
70
128
71
2
72
6
73
7
0
VERTEX
8
OBJECT__11
10
0
20
0
30
0
70
128
71
7
72
3
73
2
0
VERTEX
8
OBJECT__11
10
0
20
0
30
0
70
128
71
8
72
9
73
7
0
VERTEX
8
OBJECT__11
10
0
20
0
30
0
70
128
71
10
72
11
73
9
0
VERTEX
8
OBJECT__11
10
0
20
0
30
0
70
128
71
7
72
6
73
8
0
VERTEX
8
OBJECT__11
10
0
20
0
30
0
70
128
71
9
72
8
73
10
0
VERTEX
8
OBJECT__11
10
0
20
0
30
0
70
128
71
12
72
13
73
14
0
VERTEX
8
OBJECT__11
10
0
20
0
30
0
70
128
71
15
72
16
73
14
0
VERTEX
8
OBJECT__11
10
0
20
0
30
0
70
128
71
17
72
18
73
19
0
VERTEX
8
OBJECT__11
10
0
20
0
30
0
70
128
71
10
72
12
73
11
0
VERTEX
8
OBJECT__11
10
0
20
0
30
0
70
128
71
14
72
13
73
15
0
VERTEX
8
OBJECT__11
10
0
20
0
30
0
70
128
71
20
72
21
73
22
0
VERTEX
8
OBJECT__11
10
0
20
0
30
0
70
128
71
23
72
19
73
24
0
VERTEX
8
OBJECT__11
10
0
20
0
30
0
70
128
71
19
72
23
73
17
0
VERTEX
8
OBJECT__11
10
0
20
0
30
0
70
128
71
25
72
26
73
27
0
VERTEX
8
OBJECT__11
10
0
20
0
30
0
70
128
71
5
72
4
73
27
0
VERTEX
8
OBJECT__11
10
0
20
0
30
0
70
128
71
14
72
11
73
12
0
VERTEX
8
OBJECT__11
10
0
20
0
30
0
70
128
71
16
72
15
73
20
0
VERTEX
8
OBJECT__11
10
0
20
0
30
0
70
128
71
17
72
25
73
18
0
VERTEX
8
OBJECT__11
10
0
20
0
30
0
70
128
71
27
72
26
73
5
0
VERTEX
8
OBJECT__11
10
0
20
0
30
0
70
128
71
22
72
16
73
20
0
VERTEX
8
OBJECT__11
10
0
20
0
30
0
70
128
71
21
72
28
73
24
0
VERTEX
8
OBJECT__11
10
0
20
0
30
0
70
128
71
27
72
18
73
25
0
VERTEX
8
OBJECT__11
10
0
20
0
30
0
70
128
71
24
72
22
73
21
0
VERTEX
8
OBJECT__11
10
0
20
0
30
0
70
128
71
3
72
4
73
1
0
VERTEX
8
OBJECT__11
10
0
20
0
30
0
70
128
71
24
72
28
73
23
0
SEQEND
8
OBJECT__11
0
POLYLINE
8
OBJECT__12
66
1
70
64
71
32
72
32
62
253
0
VERTEX
8
OBJECT__12
10
12.533000
20
30.257000
30
-29.500000
70
192
0
VERTEX
8
OBJECT__12
10
0.000000
20
32.750000
30
-29.500000
70
192
0
VERTEX
8
OBJECT__12
10
0.000000
20
32.750000
30
-15.000000
70
192
0
VERTEX
8
OBJECT__12
10
23.158001
20
23.158001
30
-15.000000
70
192
0
VERTEX
8
OBJECT__12
10
23.158001
20
23.158001
30
-29.500000
70
192
0
VERTEX
8
OBJECT__12
10
30.257000
20
12.533000
30
-15.000000
70
192
0
VERTEX
8
OBJECT__12
10
30.257000
20
12.533000
30
-29.500000
70
192
0
VERTEX
8
OBJECT__12
10
32.750000
20
0.000000
30
-15.000000
70
192
0
VERTEX
8
OBJECT__12
10
32.750000
20
0.000000
30
-29.500000
70
192
0
VERTEX
8
OBJECT__12
10
30.257000
20
-12.533000
30
-15.000000
70
192
0
VERTEX
8
OBJECT__12
10
30.257000
20
-12.533000
30
-29.500000
70
192
0
VERTEX
8
OBJECT__12
10
23.158001
20
-23.158001
30
-15.000000
70
192
0
VERTEX
8
OBJECT__12
10
23.158001
20
-23.158001
30
-29.500000
70
192
0
VERTEX
8
OBJECT__12
10
12.533000
20
-30.257000
30
-15.000000
70
192
0
VERTEX
8
OBJECT__12
10
12.533000
20
-30.257000
30
-29.500000
70
192
0
VERTEX
8
OBJECT__12
10
0.000000
20
-32.750000
30
-29.500000
70
192
0
VERTEX
8
OBJECT__12
10
0.000000
20
-32.750000
30
-15.000000
70
192
0
VERTEX
8
OBJECT__12
10
-12.533000
20
-30.257000
30
-15.000000
70
192
0
VERTEX
8
OBJECT__12
10
-12.533000
20
-30.257000
30
-29.500000
70
192
0
VERTEX
8
OBJECT__12
10
-23.158001
20
-23.158001
30
-29.500000
70
192
0
VERTEX
8
OBJECT__12
10
-30.257000
20
-12.533000
30
-15.000000
70
192
0
VERTEX
8
OBJECT__12
10
-30.257000
20
-12.533000
30
-29.500000
70
192
0
VERTEX
8
OBJECT__12
10
-32.750000
20
0.000000
30
-29.500000
70
192
0
VERTEX
8
OBJECT__12
10
-30.257000
20
12.533000
30
-15.000000
70
192
0
VERTEX
8
OBJECT__12
10
-30.257000
20
12.533000
30
-29.500000
70
192
0
VERTEX
8
OBJECT__12
10
-23.158001
20
23.158001
30
-29.500000
70
192
0
VERTEX
8
OBJECT__12
10
-12.533000
20
30.257000
30
-29.500000
70
192
0
VERTEX
8
OBJECT__12
10
-23.158001
20
23.158001
30
-15.000000
70
192
0
VERTEX
8
OBJECT__12
10
-12.533000
20
30.257000
30
-15.000000
70
192
0
VERTEX
8
OBJECT__12
10
-32.750000
20
0.000000
30
-15.000000
70
192
0
VERTEX
8
OBJECT__12
10
-23.158001
20
-23.158001
30
-15.000000
70
192
0
VERTEX
8
OBJECT__12
10
12.533000
20
30.257000
30
-15.000000
70
192
0
VERTEX
8
OBJECT__12
10
0
20
0
30
0
70
128
71
1
72
2
73
3
0
VERTEX
8
OBJECT__12
10
0
20
0
30
0
70
128
71
4
72
5
73
1
0
VERTEX
8
OBJECT__12
10
0
20
0
30
0
70
128
71
6
72
7
73
5
0
VERTEX
8
OBJECT__12
10
0
20
0
30
0
70
128
71
8
72
9
73
7
0
VERTEX
8
OBJECT__12
10
0
20
0
30
0
70
128
71
10
72
11
73
9
0
VERTEX
8
OBJECT__12
10
0
20
0
30
0
70
128
71
12
72
13
73
11
0
VERTEX
8
OBJECT__12
10
0
20
0
30
0
70
128
71
12
72
14
73
15
0
VERTEX
8
OBJECT__12
10
0
20
0
30
0
70
128
71
16
72
15
73
14
0
VERTEX
8
OBJECT__12
10
0
20
0
30
0
70
128
71
17
72
18
73
19
0
VERTEX
8
OBJECT__12
10
0
20
0
30
0
70
128
71
20
72
19
73
18
0
VERTEX
8
OBJECT__12
10
0
20
0
30
0
70
128
71
21
72
22
73
20
0
VERTEX
8
OBJECT__12
10
0
20
0
30
0
70
128
71
23
72
22
73
21
0
VERTEX
8
OBJECT__12
10
0
20
0
30
0
70
128
71
24
72
25
73
23
0
VERTEX
8
OBJECT__12
10
0
20
0
30
0
70
128
71
26
72
25
73
24
0
VERTEX
8
OBJECT__12
10
0
20
0
30
0
70
128
71
27
72
26
73
28
0
VERTEX
8
OBJECT__12
10
0
20
0
30
0
70
128
71
3
72
2
73
27
0
VERTEX
8
OBJECT__12
10
0
20
0
30
0
70
128
71
27
72
29
73
3
0
VERTEX
8
OBJECT__12
10
0
20
0
30
0
70
128
71
28
72
29
73
27
0
VERTEX
8
OBJECT__12
10
0
20
0
30
0
70
128
71
24
72
28
73
26
0
VERTEX
8
OBJECT__12
10
0
20
0
30
0
70
128
71
23
72
30
73
24
0
VERTEX
8
OBJECT__12
10
0
20
0
30
0
70
128
71
21
72
30
73
23
0
VERTEX
8
OBJECT__12
10
0
20
0
30
0
70
128
71
20
72
31
73
21
0
VERTEX
8
OBJECT__12
10
0
20
0
30
0
70
128
71
18
72
31
73
20
0
VERTEX
8
OBJECT__12
10
0
20
0
30
0
70
128
71
19
72
16
73
17
0
VERTEX
8
OBJECT__12
10
0
20
0
30
0
70
128
71
14
72
17
73
16
0
VERTEX
8
OBJECT__12
10
0
20
0
30
0
70
128
71
15
72
13
73
12
0
VERTEX
8
OBJECT__12
10
0
20
0
30
0
70
128
71
11
72
10
73
12
0
VERTEX
8
OBJECT__12
10
0
20
0
30
0
70
128
71
9
72
8
73
10
0
VERTEX
8
OBJECT__12
10
0
20
0
30
0
70
128
71
7
72
6
73
8
0
VERTEX
8
OBJECT__12
10
0
20
0
30
0
70
128
71
5
72
4
73
6
0
VERTEX
8
OBJECT__12
10
0
20
0
30
0
70
128
71
1
72
32
73
4
0
VERTEX
8
OBJECT__12
10
0
20
0
30
0
70
128
71
3
72
32
73
1
0
SEQEND
8
OBJECT__12
0
POLYLINE
8
OBJECT__14
66
1
70
64
71
32
72
32
62
253
0
VERTEX
8
OBJECT__14
10
23.158001
20
23.158001
30
-29.500000
70
192
0
VERTEX
8
OBJECT__14
10
19.322001
20
17.396999
30
-29.500000
70
192
0
VERTEX
8
OBJECT__14
10
10.575000
20
23.752001
30
-29.500000
70
192
0
VERTEX
8
OBJECT__14
10
30.257000
20
12.533000
30
-29.500000
70
192
0
VERTEX
8
OBJECT__14
10
24.726999
20
8.034000
30
-29.500000
70
192
0
VERTEX
8
OBJECT__14
10
0.000000
20
-32.750000
30
-29.500000
70
192
0
VERTEX
8
OBJECT__14
10
0.000000
20
-26.000000
30
-29.500000
70
192
0
VERTEX
8
OBJECT__14
10
5.406000
20
-25.431999
30
-29.500000
70
192
0
VERTEX
8
OBJECT__14
10
-12.533000
20
-30.257000
30
-29.500000
70
192
0
VERTEX
8
OBJECT__14
10
-5.406000
20
-25.431999
30
-29.500000
70
192
0
VERTEX
8
OBJECT__14
10
32.750000
20
0.000000
30
-29.500000
70
192
0
VERTEX
8
OBJECT__14
10
25.858000
20
-2.718000
30
-29.500000
70
192
0
VERTEX
8
OBJECT__14
10
-23.158001
20
-23.158001
30
-29.500000
70
192
0
VERTEX
8
OBJECT__14
10
-15.282000
20
-21.034000
30
-29.500000
70
192
0
VERTEX
8
OBJECT__14
10
30.257000
20
-12.533000
30
-29.500000
70
192
0
VERTEX
8
OBJECT__14
10
22.517000
20
-13.000000
30
-29.500000
70
192
0
VERTEX
8
OBJECT__14
10
12.533000
20
-30.257000
30
-29.500000
70
192
0
VERTEX
8
OBJECT__14
10
15.282000
20
-21.034000
30
-29.500000
70
192
0
VERTEX
8
OBJECT__14
10
12.533000
20
30.257000
30
-29.500000
70
192
0
VERTEX
8
OBJECT__14
10
0.000000
20
26.000000
30
-29.500000
70
192
0
VERTEX
8
OBJECT__14
10
23.158001
20
-23.158001
30
-29.500000
70
192
0
VERTEX
8
OBJECT__14
10
-32.750000
20
0.000000
30
-29.500000
70
192
0
VERTEX
8
OBJECT__14
10
-30.257000
20
12.533000
30
-29.500000
70
192
0
VERTEX
8
OBJECT__14
10
-24.726999
20
8.034000
30
-29.500000
70
192
0
VERTEX
8
OBJECT__14
10
-23.158001
20
23.158001
30
-29.500000
70
192
0
VERTEX
8
OBJECT__14
10
-19.322001
20
17.396999
30
-29.500000
70
192
0
VERTEX
8
OBJECT__14
10
-12.533000
20
30.257000
30
-29.500000
70
192
0
VERTEX
8
OBJECT__14
10
-10.575000
20
23.752001
30
-29.500000
70
192
0
VERTEX
8
OBJECT__14
10
0.000000
20
32.750000
30
-29.500000
70
192
0
VERTEX
8
OBJECT__14
10
-30.257000
20
-12.533000
30
-29.500000
70
192
0
VERTEX
8
OBJECT__14
10
-22.517000
20
-13.000000
30
-29.500000
70
192
0
VERTEX
8
OBJECT__14
10
-25.858000
20
-2.718000
30
-29.500000
70
192
0
VERTEX
8
OBJECT__14
10
0
20
0
30
0
70
128
71
1
72
2
73
3
0
VERTEX
8
OBJECT__14
10
0
20
0
30
0
70
128
71
4
72
5
73
2
0
VERTEX
8
OBJECT__14
10
0
20
0
30
0
70
128
71
6
72
7
73
8
0
VERTEX
8
OBJECT__14
10
0
20
0
30
0
70
128
71
6
72
9
73
10
0
VERTEX
8
OBJECT__14
10
0
20
0
30
0
70
128
71
2
72
1
73
4
0
VERTEX
8
OBJECT__14
10
0
20
0
30
0
70
128
71
11
72
12
73
5
0
VERTEX
8
OBJECT__14
10
0
20
0
30
0
70
128
71
10
72
7
73
6
0
VERTEX
8
OBJECT__14
10
0
20
0
30
0
70
128
71
9
72
13
73
14
0
VERTEX
8
OBJECT__14
10
0
20
0
30
0
70
128
71
5
72
4
73
11
0
VERTEX
8
OBJECT__14
10
0
20
0
30
0
70
128
71
15
72
16
73
12
0
VERTEX
8
OBJECT__14
10
0
20
0
30
0
70
128
71
17
72
8
73
18
0
VERTEX
8
OBJECT__14
10
0
20
0
30
0
70
128
71
14
72
10
73
9
0
VERTEX
8
OBJECT__14
10
0
20
0
30
0
70
128
71
19
72
3
73
20
0
VERTEX
8
OBJECT__14
10
0
20
0
30
0
70
128
71
12
72
11
73
15
0
VERTEX
8
OBJECT__14
10
0
20
0
30
0
70
128
71
21
72
18
73
16
0
VERTEX
8
OBJECT__14
10
0
20
0
30
0
70
128
71
8
72
17
73
6
0
VERTEX
8
OBJECT__14
10
0
20
0
30
0
70
128
71
22
72
23
73
24
0
VERTEX
8
OBJECT__14
10
0
20
0
30
0
70
128
71
23
72
25
73
26
0
VERTEX
8
OBJECT__14
10
0
20
0
30
0
70
128
71
25
72
27
73
28
0
VERTEX
8
OBJECT__14
10
0
20
0
30
0
70
128
71
27
72
29
73
20
0
VERTEX
8
OBJECT__14
10
0
20
0
30
0
70
128
71
3
72
19
73
1
0
VERTEX
8
OBJECT__14
10
0
20
0
30
0
70
128
71
18
72
21
73
17
0
VERTEX
8
OBJECT__14
10
0
20
0
30
0
70
128
71
13
72
30
73
31
0
VERTEX
8
OBJECT__14
10
0
20
0
30
0
70
128
71
30
72
22
73
32
0
VERTEX
8
OBJECT__14
10
0
20
0
30
0
70
128
71
26
72
24
73
23
0
VERTEX
8
OBJECT__14
10
0
20
0
30
0
70
128
71
20
72
28
73
27
0
VERTEX
8
OBJECT__14
10
0
20
0
30
0
70
128
71
16
72
15
73
21
0
VERTEX
8
OBJECT__14
10
0
20
0
30
0
70
128
71
32
72
31
73
30
0
VERTEX
8
OBJECT__14
10
0
20
0
30
0
70
128
71
28
72
26
73
25
0
VERTEX
8
OBJECT__14
10
0
20
0
30
0
70
128
71
31
72
14
73
13
0
VERTEX
8
OBJECT__14
10
0
20
0
30
0
70
128
71
20
72
29
73
19
0
VERTEX
8
OBJECT__14
10
0
20
0
30
0
70
128
71
24
72
32
73
22
0
SEQEND
8
OBJECT__14
0
POLYLINE
8
OBJECT__15
66
1
70
64
71
31
72
31
62
253
0
VERTEX
8
OBJECT__15
10
10.575000
20
23.752001
30
-29.500000
70
192
0
VERTEX
8
OBJECT__15
10
10.575000
20
23.752001
30
-108.500000
70
192
0
VERTEX
8
OBJECT__15
10
0.000000
20
26.000000
30
-108.500000
70
192
0
VERTEX
8
OBJECT__15
10
19.322001
20
17.396999
30
-29.500000
70
192
0
VERTEX
8
OBJECT__15
10
19.322001
20
17.396999
30
-108.500000
70
192
0
VERTEX
8
OBJECT__15
10
24.726999
20
8.034000
30
-29.500000
70
192
0
VERTEX
8
OBJECT__15
10
24.726999
20
8.034000
30
-108.500000
70
192
0
VERTEX
8
OBJECT__15
10
25.858000
20
-2.718000
30
-29.500000
70
192
0
VERTEX
8
OBJECT__15
10
22.517000
20
-13.000000
30
-108.500000
70
192
0
VERTEX
8
OBJECT__15
10
25.858000
20
-2.718000
30
-108.500000
70
192
0
VERTEX
8
OBJECT__15
10
15.282000
20
-21.034000
30
-108.500000
70
192
0
VERTEX
8
OBJECT__15
10
22.517000
20
-13.000000
30
-29.500000
70
192
0
VERTEX
8
OBJECT__15
10
5.406000
20
-25.431999
30
-108.500000
70
192
0
VERTEX
8
OBJECT__15
10
15.282000
20
-21.034000
30
-29.500000
70
192
0
VERTEX
8
OBJECT__15
10
-5.406000
20
-25.431999
30
-108.500000
70
192
0
VERTEX
8
OBJECT__15
10
0.000000
20
-26.000000
30
-29.500000
70
192
0
VERTEX
8
OBJECT__15
10
5.406000
20
-25.431999
30
-29.500000
70
192
0
VERTEX
8
OBJECT__15
10
-15.282000
20
-21.034000
30
-29.500000
70
192
0
VERTEX
8
OBJECT__15
10
-15.282000
20
-21.034000
30
-108.500000
70
192
0
VERTEX
8
OBJECT__15
10
-22.517000
20
-13.000000
30
-29.500000
70
192
0
VERTEX
8
OBJECT__15
10
-22.517000
20
-13.000000
30
-108.500000
70
192
0
VERTEX
8
OBJECT__15
10
-25.858000
20
-2.718000
30
-29.500000
70
192
0
VERTEX
8
OBJECT__15
10
-25.858000
20
-2.718000
30
-108.500000
70
192
0
VERTEX
8
OBJECT__15
10
-24.726999
20
8.034000
30
-108.500000
70
192
0
VERTEX
8
OBJECT__15
10
-19.322001
20
17.396999
30
-29.500000
70
192
0
VERTEX
8
OBJECT__15
10
-19.322001
20
17.396999
30
-108.500000
70
192
0
VERTEX
8
OBJECT__15
10
-10.575000
20
23.752001
30
-29.500000
70
192
0
VERTEX
8
OBJECT__15
10
-10.575000
20
23.752001
30
-108.500000
70
192
0
VERTEX
8
OBJECT__15
10
0.000000
20
26.000000
30
-29.500000
70
192
0
VERTEX
8
OBJECT__15
10
-24.726999
20
8.034000
30
-29.500000
70
192
0
VERTEX
8
OBJECT__15
10
-5.406000
20
-25.431999
30
-29.500000
70
192
0
VERTEX
8
OBJECT__15
10
0
20
0
30
0
70
128
71
1
72
2
73
3
0
VERTEX
8
OBJECT__15
10
0
20
0
30
0
70
128
71
4
72
5
73
2
0
VERTEX
8
OBJECT__15
10
0
20
0
30
0
70
128
71
6
72
7
73
5
0
VERTEX
8
OBJECT__15
10
0
20
0
30
0
70
128
71
7
72
6
73
8
0
VERTEX
8
OBJECT__15
10
0
20
0
30
0
70
128
71
9
72
10
73
8
0
VERTEX
8
OBJECT__15
10
0
20
0
30
0
70
128
71
11
72
9
73
12
0
VERTEX
8
OBJECT__15
10
0
20
0
30
0
70
128
71
13
72
11
73
14
0
VERTEX
8
OBJECT__15
10
0
20
0
30
0
70
128
71
15
72
13
73
16
0
VERTEX
8
OBJECT__15
10
0
20
0
30
0
70
128
71
13
72
17
73
16
0
VERTEX
8
OBJECT__15
10
0
20
0
30
0
70
128
71
18
72
19
73
15
0
VERTEX
8
OBJECT__15
10
0
20
0
30
0
70
128
71
20
72
21
73
19
0
VERTEX
8
OBJECT__15
10
0
20
0
30
0
70
128
71
22
72
23
73
21
0
VERTEX
8
OBJECT__15
10
0
20
0
30
0
70
128
71
24
72
23
73
22
0
VERTEX
8
OBJECT__15
10
0
20
0
30
0
70
128
71
25
72
26
73
24
0
VERTEX
8
OBJECT__15
10
0
20
0
30
0
70
128
71
27
72
28
73
26
0
VERTEX
8
OBJECT__15
10
0
20
0
30
0
70
128
71
29
72
3
73
28
0
VERTEX
8
OBJECT__15
10
0
20
0
30
0
70
128
71
28
72
27
73
29
0
VERTEX
8
OBJECT__15
10
0
20
0
30
0
70
128
71
26
72
25
73
27
0
VERTEX
8
OBJECT__15
10
0
20
0
30
0
70
128
71
24
72
30
73
25
0
VERTEX
8
OBJECT__15
10
0
20
0
30
0
70
128
71
22
72
30
73
24
0
VERTEX
8
OBJECT__15
10
0
20
0
30
0
70
128
71
21
72
20
73
22
0
VERTEX
8
OBJECT__15
10
0
20
0
30
0
70
128
71
19
72
18
73
20
0
VERTEX
8
OBJECT__15
10
0
20
0
30
0
70
128
71
15
72
31
73
18
0
VERTEX
8
OBJECT__15
10
0
20
0
30
0
70
128
71
16
72
31
73
15
0
VERTEX
8
OBJECT__15
10
0
20
0
30
0
70
128
71
14
72
17
73
13
0
VERTEX
8
OBJECT__15
10
0
20
0
30
0
70
128
71
12
72
14
73
11
0
VERTEX
8
OBJECT__15
10
0
20
0
30
0
70
128
71
8
72
12
73
9
0
VERTEX
8
OBJECT__15
10
0
20
0
30
0
70
128
71
8
72
10
73
7
0
VERTEX
8
OBJECT__15
10
0
20
0
30
0
70
128
71
5
72
4
73
6
0
VERTEX
8
OBJECT__15
10
0
20
0
30
0
70
128
71
2
72
1
73
4
0
VERTEX
8
OBJECT__15
10
0
20
0
30
0
70
128
71
3
72
29
73
1
0
SEQEND
8
OBJECT__15
0
POLYLINE
8
OBJECT__16
66
1
70
64
71
33
72
33
62
253
0
VERTEX
8
OBJECT__16
10
19.322001
20
17.396999
30
-108.500000
70
192
0
VERTEX
8
OBJECT__16
10
24.726999
20
8.034000
30
-108.500000
70
192
0
VERTEX
8
OBJECT__16
10
18.169001
20
10.490000
30
-108.500000
70
192
0
VERTEX
8
OBJECT__16
10
0.000000
20
26.000000
30
-108.500000
70
192
0
VERTEX
8
OBJECT__16
10
0.000000
20
20.980000
30
-108.500000
70
192
0
VERTEX
8
OBJECT__16
10
-7.176000
20
19.715000
30
-108.500000
70
192
0
VERTEX
8
OBJECT__16
10
10.575000
20
23.752001
30
-108.500000
70
192
0
VERTEX
8
OBJECT__16
10
7.176000
20
19.715000
30
-108.500000
70
192
0
VERTEX
8
OBJECT__16
10
13.486000
20
16.072001
30
-108.500000
70
192
0
VERTEX
8
OBJECT__16
10
20.660999
20
3.643000
30
-108.500000
70
192
0
VERTEX
8
OBJECT__16
10
25.858000
20
-2.718000
30
-108.500000
70
192
0
VERTEX
8
OBJECT__16
10
20.660999
20
-3.643000
30
-108.500000
70
192
0
VERTEX
8
OBJECT__16
10
22.517000
20
-13.000000
30
-108.500000
70
192
0
VERTEX
8
OBJECT__16
10
18.169001
20
-10.490000
30
-108.500000
70
192
0
VERTEX
8
OBJECT__16
10
15.282000
20
-21.034000
30
-108.500000
70
192
0
VERTEX
8
OBJECT__16
10
13.486000
20
-16.072001
30
-108.500000
70
192
0
VERTEX
8
OBJECT__16
10
5.406000
20
-25.431999
30
-108.500000
70
192
0
VERTEX
8
OBJECT__16
10
7.176000
20
-19.715000
30
-108.500000
70
192
0
VERTEX
8
OBJECT__16
10
-10.575000
20
23.752001
30
-108.500000
70
192
0
VERTEX
8
OBJECT__16
10
-13.486000
20
16.072001
30
-108.500000
70
192
0
VERTEX
8
OBJECT__16
10
-15.282000
20
-21.034000
30
-108.500000
70
192
0
VERTEX
8
OBJECT__16
10
-13.486000
20
-16.072001
30
-108.500000
70
192
0
VERTEX
8
OBJECT__16
10
-7.176000
20
-19.715000
30
-108.500000
70
192
0
VERTEX
8
OBJECT__16
10
-22.517000
20
-13.000000
30
-108.500000
70
192
0
VERTEX
8
OBJECT__16
10
-18.169001
20
-10.490000
30
-108.500000
70
192
0
VERTEX
8
OBJECT__16
10
-25.858000
20
-2.718000
30
-108.500000
70
192
0
VERTEX
8
OBJECT__16
10
-20.660999
20
-3.643000
30
-108.500000
70
192
0
VERTEX
8
OBJECT__16
10
-24.726999
20
8.034000
30
-108.500000
70
192
0
VERTEX
8
OBJECT__16
10
-20.660999
20
3.643000
30
-108.500000
70
192
0
VERTEX
8
OBJECT__16
10
-19.322001
20
17.396999
30
-108.500000
70
192
0
VERTEX
8
OBJECT__16
10
-18.169001
20
10.490000
30
-108.500000
70
192
0
VERTEX
8
OBJECT__16
10
-5.406000
20
-25.431999
30
-108.500000
70
192
0
VERTEX
8
OBJECT__16
10
0.000000
20
-20.980000
30
-108.500000
70
192
0
VERTEX
8
OBJECT__16
10
0
20
0
30
0
70
128
71
1
72
2
73
3
0
VERTEX
8
OBJECT__16
10
0
20
0
30
0
70
128
71
4
72
5
73
6
0
VERTEX
8
OBJECT__16
10
0
20
0
30
0
70
128
71
4
72
7
73
8
0
VERTEX
8
OBJECT__16
10
0
20
0
30
0
70
128
71
7
72
1
73
9
0
VERTEX
8
OBJECT__16
10
0
20
0
30
0
70
128
71
2
72
10
73
3
0
VERTEX
8
OBJECT__16
10
0
20
0
30
0
70
128
71
11
72
12
73
10
0
VERTEX
8
OBJECT__16
10
0
20
0
30
0
70
128
71
13
72
14
73
12
0
VERTEX
8
OBJECT__16
10
0
20
0
30
0
70
128
71
13
72
15
73
16
0
VERTEX
8
OBJECT__16
10
0
20
0
30
0
70
128
71
15
72
17
73
18
0
VERTEX
8
OBJECT__16
10
0
20
0
30
0
70
128
71
19
72
6
73
20
0
VERTEX
8
OBJECT__16
10
0
20
0
30
0
70
128
71
8
72
5
73
4
0
VERTEX
8
OBJECT__16
10
0
20
0
30
0
70
128
71
3
72
9
73
1
0
VERTEX
8
OBJECT__16
10
0
20
0
30
0
70
128
71
12
72
11
73
13
0
VERTEX
8
OBJECT__16
10
0
20
0
30
0
70
128
71
18
72
16
73
15
0
VERTEX
8
OBJECT__16
10
0
20
0
30
0
70
128
71
21
72
22
73
23
0
VERTEX
8
OBJECT__16
10
0
20
0
30
0
70
128
71
24
72
25
73
22
0
VERTEX
8
OBJECT__16
10
0
20
0
30
0
70
128
71
24
72
26
73
27
0
VERTEX
8
OBJECT__16
10
0
20
0
30
0
70
128
71
26
72
28
73
29
0
VERTEX
8
OBJECT__16
10
0
20
0
30
0
70
128
71
28
72
30
73
31
0
VERTEX
8
OBJECT__16
10
0
20
0
30
0
70
128
71
20
72
30
73
19
0
VERTEX
8
OBJECT__16
10
0
20
0
30
0
70
128
71
9
72
8
73
7
0
VERTEX
8
OBJECT__16
10
0
20
0
30
0
70
128
71
16
72
14
73
13
0
VERTEX
8
OBJECT__16
10
0
20
0
30
0
70
128
71
17
72
32
73
33
0
VERTEX
8
OBJECT__16
10
0
20
0
30
0
70
128
71
22
72
21
73
24
0
VERTEX
8
OBJECT__16
10
0
20
0
30
0
70
128
71
29
72
27
73
26
0
VERTEX
8
OBJECT__16
10
0
20
0
30
0
70
128
71
20
72
31
73
30
0
VERTEX
8
OBJECT__16
10
0
20
0
30
0
70
128
71
10
72
2
73
11
0
VERTEX
8
OBJECT__16
10
0
20
0
30
0
70
128
71
32
72
23
73
33
0
VERTEX
8
OBJECT__16
10
0
20
0
30
0
70
128
71
27
72
25
73
24
0
VERTEX
8
OBJECT__16
10
0
20
0
30
0
70
128
71
6
72
19
73
4
0
VERTEX
8
OBJECT__16
10
0
20
0
30
0
70
128
71
23
72
32
73
21
0
VERTEX
8
OBJECT__16
10
0
20
0
30
0
70
128
71
33
72
18
73
17
0
VERTEX
8
OBJECT__16
10
0
20
0
30
0
70
128
71
31
72
29
73
28
0
SEQEND
8
OBJECT__16
0
POLYLINE
8
OBJECT__17
66
1
70
64
71
19
72
18
62
253
0
VERTEX
8
OBJECT__17
10
0.000000
20
0.000000
30
-107.300003
70
192
0
VERTEX
8
OBJECT__17
10
7.176000
20
-19.715000
30
-108.500000
70
192
0
VERTEX
8
OBJECT__17
10
0.000000
20
-20.980000
30
-108.500000
70
192
0
VERTEX
8
OBJECT__17
10
13.486000
20
-16.072001
30
-108.500000
70
192
0
VERTEX
8
OBJECT__17
10
18.169001
20
-10.490000
30
-108.500000
70
192
0
VERTEX
8
OBJECT__17
10
20.660999
20
-3.643000
30
-108.500000
70
192
0
VERTEX
8
OBJECT__17
10
20.660999
20
3.643000
30
-108.500000
70
192
0
VERTEX
8
OBJECT__17
10
18.169001
20
10.490000
30
-108.500000
70
192
0
VERTEX
8
OBJECT__17
10
13.486000
20
16.072001
30
-108.500000
70
192
0
VERTEX
8
OBJECT__17
10
7.176000
20
19.715000
30
-108.500000
70
192
0
VERTEX
8
OBJECT__17
10
0.000000
20
20.980000
30
-108.500000
70
192
0
VERTEX
8
OBJECT__17
10
-7.176000
20
19.715000
30
-108.500000
70
192
0
VERTEX
8
OBJECT__17
10
-13.486000
20
16.072001
30
-108.500000
70
192
0
VERTEX
8
OBJECT__17
10
-18.169001
20
10.490000
30
-108.500000
70
192
0
VERTEX
8
OBJECT__17
10
-20.660999
20
3.643000
30
-108.500000
70
192
0
VERTEX
8
OBJECT__17
10
-20.660999
20
-3.643000
30
-108.500000
70
192
0
VERTEX
8
OBJECT__17
10
-18.169001
20
-10.490000
30
-108.500000
70
192
0
VERTEX
8
OBJECT__17
10
-13.486000
20
-16.072001
30
-108.500000
70
192
0
VERTEX
8
OBJECT__17
10
-7.176000
20
-19.715000
30
-108.500000
70
192
0
VERTEX
8
OBJECT__17
10
0
20
0
30
0
70
128
71
1
72
2
73
3
0
VERTEX
8
OBJECT__17
10
0
20
0
30
0
70
128
71
1
72
4
73
2
0
VERTEX
8
OBJECT__17
10
0
20
0
30
0
70
128
71
1
72
5
73
4
0
VERTEX
8
OBJECT__17
10
0
20
0
30
0
70
128
71
1
72
6
73
5
0
VERTEX
8
OBJECT__17
10
0
20
0
30
0
70
128
71
1
72
7
73
6
0
VERTEX
8
OBJECT__17
10
0
20
0
30
0
70
128
71
1
72
8
73
7
0
VERTEX
8
OBJECT__17
10
0
20
0
30
0
70
128
71
1
72
9
73
8
0
VERTEX
8
OBJECT__17
10
0
20
0
30
0
70
128
71
1
72
10
73
9
0
VERTEX
8
OBJECT__17
10
0
20
0
30
0
70
128
71
1
72
11
73
10
0
VERTEX
8
OBJECT__17
10
0
20
0
30
0
70
128
71
1
72
12
73
11
0
VERTEX
8
OBJECT__17
10
0
20
0
30
0
70
128
71
1
72
13
73
12
0
VERTEX
8
OBJECT__17
10
0
20
0
30
0
70
128
71
1
72
14
73
13
0
VERTEX
8
OBJECT__17
10
0
20
0
30
0
70
128
71
1
72
15
73
14
0
VERTEX
8
OBJECT__17
10
0
20
0
30
0
70
128
71
1
72
16
73
15
0
VERTEX
8
OBJECT__17
10
0
20
0
30
0
70
128
71
1
72
17
73
16
0
VERTEX
8
OBJECT__17
10
0
20
0
30
0
70
128
71
1
72
18
73
17
0
VERTEX
8
OBJECT__17
10
0
20
0
30
0
70
128
71
1
72
19
73
18
0
VERTEX
8
OBJECT__17
10
0
20
0
30
0
70
128
71
1
72
3
73
19
0
SEQEND
8
OBJECT__17
0
ENDSEC
0
EOF
