999
Converted by 3D Exploration 
999
XDimension Software, LLC
999
http://www.xdsoft.com/explorer/
0
SECTION
2
HEADER
9
$ACADVER
1
AC1008
9
$UCSORG
10
0.0
20
0.0
30
0.0
9
$UCSXDIR
10
1.0
20
0.0
30
0.0
9
$TILEMODE
70
1
9
$UCSYDIR
10
0.0
20
1.0
30
0.0
9
$EXTMIN
10
-27.254999
20
-69.000000
30
-69.000000
9
$EXTMAX
10
233.091995
20
27.250000
30
321.750000
0
ENDSEC
0
SECTION
2
TABLES
0
TABLE
2
LTYPE
70
1
0
LTYPE
2
CONTINUOUS
70
64
3
Solid line
72
65
73
0
40
0.0
0
ENDTAB
0
TABLE
2
LAYER
70
55
0
LAYER
2
OBJECT__0
70
0
62
253
6
CONTINUOUS
0
LAYER
2
OBJECT__2
70
0
62
253
6
CONTINUOUS
0
LAYER
2
OBJECT__3
70
0
62
253
6
CONTINUOUS
0
LAYER
2
OBJECT__5
70
0
62
253
6
CONTINUOUS
0
LAYER
2
OBJECT__6
70
0
62
253
6
CONTINUOUS
0
LAYER
2
OBJECT__7
70
0
62
253
6
CONTINUOUS
0
LAYER
2
OBJECT__9
70
0
62
253
6
CONTINUOUS
0
LAYER
2
OBJECT__10
70
0
62
253
6
CONTINUOUS
0
LAYER
2
OBJECT__11
70
0
62
253
6
CONTINUOUS
0
LAYER
2
OBJECT__13
70
0
62
253
6
CONTINUOUS
0
LAYER
2
OBJECT__14
70
0
62
253
6
CONTINUOUS
0
LAYER
2
OBJECT__15
70
0
62
253
6
CONTINUOUS
0
LAYER
2
OBJECT__16
70
0
62
253
6
CONTINUOUS
0
LAYER
2
OBJECT__17
70
0
62
253
6
CONTINUOUS
0
LAYER
2
OBJECT__19
70
0
62
253
6
CONTINUOUS
0
LAYER
2
OBJECT__20
70
0
62
253
6
CONTINUOUS
0
LAYER
2
OBJECT__22
70
0
62
253
6
CONTINUOUS
0
LAYER
2
OBJECT__23
70
0
62
253
6
CONTINUOUS
0
LAYER
2
OBJECT__24
70
0
62
253
6
CONTINUOUS
0
LAYER
2
OBJECT__26
70
0
62
253
6
CONTINUOUS
0
LAYER
2
OBJECT__27
70
0
62
253
6
CONTINUOUS
0
LAYER
2
OBJECT__28
70
0
62
253
6
CONTINUOUS
0
LAYER
2
OBJECT__29
70
0
62
253
6
CONTINUOUS
0
LAYER
2
OBJECT__30
70
0
62
253
6
CONTINUOUS
0
LAYER
2
OBJECT__31
70
0
62
253
6
CONTINUOUS
0
LAYER
2
OBJECT__33
70
0
62
253
6
CONTINUOUS
0
LAYER
2
OBJECT__34
70
0
62
253
6
CONTINUOUS
0
LAYER
2
OBJECT__35
70
0
62
253
6
CONTINUOUS
0
LAYER
2
OBJECT__36
70
0
62
253
6
CONTINUOUS
0
LAYER
2
OBJECT__37
70
0
62
253
6
CONTINUOUS
0
LAYER
2
OBJECT__38
70
0
62
253
6
CONTINUOUS
0
LAYER
2
OBJECT__39
70
0
62
253
6
CONTINUOUS
0
LAYER
2
OBJECT__40
70
0
62
253
6
CONTINUOUS
0
LAYER
2
OBJECT__41
70
0
62
253
6
CONTINUOUS
0
LAYER
2
OBJECT__42
70
0
62
253
6
CONTINUOUS
0
LAYER
2
OBJECT__43
70
0
62
253
6
CONTINUOUS
0
LAYER
2
OBJECT__44
70
0
62
253
6
CONTINUOUS
0
LAYER
2
OBJECT__45
70
0
62
253
6
CONTINUOUS
0
LAYER
2
OBJECT__46
70
0
62
253
6
CONTINUOUS
0
LAYER
2
OBJECT__47
70
0
62
253
6
CONTINUOUS
0
LAYER
2
OBJECT__48
70
0
62
253
6
CONTINUOUS
0
LAYER
2
OBJECT__49
70
0
62
253
6
CONTINUOUS
0
LAYER
2
OBJECT__50
70
0
62
253
6
CONTINUOUS
0
LAYER
2
OBJECT__51
70
0
62
253
6
CONTINUOUS
0
LAYER
2
OBJECT__52
70
0
62
253
6
CONTINUOUS
0
LAYER
2
OBJECT__53
70
0
62
253
6
CONTINUOUS
0
ENDTAB
0
TABLE
2
STYLE
70
1
0
STYLE
2
STANDARD
70
0
40
0.0
41
1.0
50
0.0
71
0
42
0.2
3
txt
4
1
0
ENDTAB
0
TABLE
2
UCS
70
0
0
ENDTAB
0
ENDSEC
0
SECTION
2
ENTITIES
0
POLYLINE
8
OBJECT__0
66
1
70
64
71
24
72
24
62
253
0
VERTEX
8
OBJECT__0
10
0.000000
20
-22.000000
30
38.450001
70
192
0
VERTEX
8
OBJECT__0
10
-6.725000
20
-22.000000
30
36.647999
70
192
0
VERTEX
8
OBJECT__0
10
-6.725000
20
-28.500000
30
36.647999
70
192
0
VERTEX
8
OBJECT__0
10
0.000000
20
-28.500000
30
38.450001
70
192
0
VERTEX
8
OBJECT__0
10
-11.648000
20
-22.000000
30
31.725000
70
192
0
VERTEX
8
OBJECT__0
10
-11.648000
20
-28.500000
30
31.725000
70
192
0
VERTEX
8
OBJECT__0
10
-13.450000
20
-22.000000
30
25.000000
70
192
0
VERTEX
8
OBJECT__0
10
-13.450000
20
-28.500000
30
25.000000
70
192
0
VERTEX
8
OBJECT__0
10
-11.648000
20
-22.000000
30
18.275000
70
192
0
VERTEX
8
OBJECT__0
10
-11.648000
20
-28.500000
30
18.275000
70
192
0
VERTEX
8
OBJECT__0
10
-6.725000
20
-22.000000
30
13.352000
70
192
0
VERTEX
8
OBJECT__0
10
-6.725000
20
-28.500000
30
13.352000
70
192
0
VERTEX
8
OBJECT__0
10
0.000000
20
-22.000000
30
11.550000
70
192
0
VERTEX
8
OBJECT__0
10
0.000000
20
-28.500000
30
11.550000
70
192
0
VERTEX
8
OBJECT__0
10
6.725000
20
-22.000000
30
13.352000
70
192
0
VERTEX
8
OBJECT__0
10
6.725000
20
-28.500000
30
13.352000
70
192
0
VERTEX
8
OBJECT__0
10
11.648000
20
-22.000000
30
18.275000
70
192
0
VERTEX
8
OBJECT__0
10
11.648000
20
-28.500000
30
18.275000
70
192
0
VERTEX
8
OBJECT__0
10
13.450000
20
-22.000000
30
25.000000
70
192
0
VERTEX
8
OBJECT__0
10
13.450000
20
-28.500000
30
25.000000
70
192
0
VERTEX
8
OBJECT__0
10
11.648000
20
-22.000000
30
31.725000
70
192
0
VERTEX
8
OBJECT__0
10
11.648000
20
-28.500000
30
31.725000
70
192
0
VERTEX
8
OBJECT__0
10
6.725000
20
-22.000000
30
36.647999
70
192
0
VERTEX
8
OBJECT__0
10
6.725000
20
-28.500000
30
36.647999
70
192
0
VERTEX
8
OBJECT__0
10
0
20
0
30
0
70
128
71
1
72
2
73
3
0
VERTEX
8
OBJECT__0
10
0
20
0
30
0
70
128
71
1
72
3
73
4
0
VERTEX
8
OBJECT__0
10
0
20
0
30
0
70
128
71
2
72
5
73
6
0
VERTEX
8
OBJECT__0
10
0
20
0
30
0
70
128
71
2
72
6
73
3
0
VERTEX
8
OBJECT__0
10
0
20
0
30
0
70
128
71
5
72
7
73
8
0
VERTEX
8
OBJECT__0
10
0
20
0
30
0
70
128
71
5
72
8
73
6
0
VERTEX
8
OBJECT__0
10
0
20
0
30
0
70
128
71
7
72
9
73
10
0
VERTEX
8
OBJECT__0
10
0
20
0
30
0
70
128
71
7
72
10
73
8
0
VERTEX
8
OBJECT__0
10
0
20
0
30
0
70
128
71
9
72
11
73
12
0
VERTEX
8
OBJECT__0
10
0
20
0
30
0
70
128
71
9
72
12
73
10
0
VERTEX
8
OBJECT__0
10
0
20
0
30
0
70
128
71
11
72
13
73
14
0
VERTEX
8
OBJECT__0
10
0
20
0
30
0
70
128
71
11
72
14
73
12
0
VERTEX
8
OBJECT__0
10
0
20
0
30
0
70
128
71
13
72
15
73
16
0
VERTEX
8
OBJECT__0
10
0
20
0
30
0
70
128
71
13
72
16
73
14
0
VERTEX
8
OBJECT__0
10
0
20
0
30
0
70
128
71
15
72
17
73
18
0
VERTEX
8
OBJECT__0
10
0
20
0
30
0
70
128
71
15
72
18
73
16
0
VERTEX
8
OBJECT__0
10
0
20
0
30
0
70
128
71
17
72
19
73
20
0
VERTEX
8
OBJECT__0
10
0
20
0
30
0
70
128
71
17
72
20
73
18
0
VERTEX
8
OBJECT__0
10
0
20
0
30
0
70
128
71
19
72
21
73
22
0
VERTEX
8
OBJECT__0
10
0
20
0
30
0
70
128
71
19
72
22
73
20
0
VERTEX
8
OBJECT__0
10
0
20
0
30
0
70
128
71
21
72
23
73
24
0
VERTEX
8
OBJECT__0
10
0
20
0
30
0
70
128
71
21
72
24
73
22
0
VERTEX
8
OBJECT__0
10
0
20
0
30
0
70
128
71
23
72
1
73
4
0
VERTEX
8
OBJECT__0
10
0
20
0
30
0
70
128
71
23
72
4
73
24
0
SEQEND
8
OBJECT__0
0
POLYLINE
8
OBJECT__2
66
1
70
64
71
23
72
23
62
253
0
VERTEX
8
OBJECT__2
10
209.617996
20
-55.500000
30
214.960999
70
192
0
VERTEX
8
OBJECT__2
10
208.981003
20
-55.500000
30
218.574997
70
192
0
VERTEX
8
OBJECT__2
10
210.955994
20
-49.327999
30
218.923004
70
192
0
VERTEX
8
OBJECT__2
10
213.511002
20
-47.291000
30
215.647003
70
192
0
VERTEX
8
OBJECT__2
10
222.259995
20
-45.263000
30
217.190002
70
192
0
VERTEX
8
OBJECT__2
10
216.126007
20
-45.514000
30
219.835007
70
192
0
VERTEX
8
OBJECT__2
10
213.164993
20
-47.698002
30
219.313004
70
192
0
VERTEX
8
OBJECT__2
10
222.516998
20
-45.514000
30
220.962006
70
192
0
VERTEX
8
OBJECT__2
10
227.686996
20
-49.327999
30
221.873001
70
192
0
VERTEX
8
OBJECT__2
10
221.621994
20
-45.514000
30
220.804001
70
192
0
VERTEX
8
OBJECT__2
10
229.274994
20
-50.944000
30
218.427002
70
192
0
VERTEX
8
OBJECT__2
10
228.244995
20
-51.074001
30
221.972000
70
192
0
VERTEX
8
OBJECT__2
10
229.662003
20
-55.500000
30
222.220993
70
192
0
VERTEX
8
OBJECT__2
10
229.274994
20
-60.056000
30
218.427002
70
192
0
VERTEX
8
OBJECT__2
10
222.259995
20
-65.737000
30
217.190002
70
192
0
VERTEX
8
OBJECT__2
10
227.686996
20
-61.672001
30
221.873001
70
192
0
VERTEX
8
OBJECT__2
10
228.244995
20
-59.925999
30
221.972000
70
192
0
VERTEX
8
OBJECT__2
10
222.516998
20
-65.486000
30
220.962006
70
192
0
VERTEX
8
OBJECT__2
10
221.621994
20
-65.486000
30
220.804001
70
192
0
VERTEX
8
OBJECT__2
10
216.126007
20
-65.486000
30
219.835007
70
192
0
VERTEX
8
OBJECT__2
10
213.511002
20
-63.709000
30
215.647003
70
192
0
VERTEX
8
OBJECT__2
10
210.955994
20
-61.672001
30
218.923004
70
192
0
VERTEX
8
OBJECT__2
10
213.164993
20
-63.301998
30
219.313004
70
192
0
VERTEX
8
OBJECT__2
10
0
20
0
30
0
70
128
71
1
72
2
73
3
0
VERTEX
8
OBJECT__2
10
0
20
0
30
0
70
128
71
3
72
4
73
1
0
VERTEX
8
OBJECT__2
10
0
20
0
30
0
70
128
71
5
72
4
73
6
0
VERTEX
8
OBJECT__2
10
0
20
0
30
0
70
128
71
4
72
7
73
6
0
VERTEX
8
OBJECT__2
10
0
20
0
30
0
70
128
71
5
72
8
73
9
0
VERTEX
8
OBJECT__2
10
0
20
0
30
0
70
128
71
5
72
10
73
8
0
VERTEX
8
OBJECT__2
10
0
20
0
30
0
70
128
71
9
72
11
73
5
0
VERTEX
8
OBJECT__2
10
0
20
0
30
0
70
128
71
11
72
12
73
13
0
VERTEX
8
OBJECT__2
10
0
20
0
30
0
70
128
71
13
72
14
73
11
0
VERTEX
8
OBJECT__2
10
0
20
0
30
0
70
128
71
15
72
14
73
16
0
VERTEX
8
OBJECT__2
10
0
20
0
30
0
70
128
71
14
72
17
73
16
0
VERTEX
8
OBJECT__2
10
0
20
0
30
0
70
128
71
16
72
18
73
15
0
VERTEX
8
OBJECT__2
10
0
20
0
30
0
70
128
71
15
72
19
73
20
0
VERTEX
8
OBJECT__2
10
0
20
0
30
0
70
128
71
20
72
21
73
15
0
VERTEX
8
OBJECT__2
10
0
20
0
30
0
70
128
71
1
72
21
73
22
0
VERTEX
8
OBJECT__2
10
0
20
0
30
0
70
128
71
21
72
23
73
22
0
VERTEX
8
OBJECT__2
10
0
20
0
30
0
70
128
71
22
72
2
73
1
0
VERTEX
8
OBJECT__2
10
0
20
0
30
0
70
128
71
20
72
23
73
21
0
VERTEX
8
OBJECT__2
10
0
20
0
30
0
70
128
71
18
72
19
73
15
0
VERTEX
8
OBJECT__2
10
0
20
0
30
0
70
128
71
13
72
17
73
14
0
VERTEX
8
OBJECT__2
10
0
20
0
30
0
70
128
71
9
72
12
73
11
0
VERTEX
8
OBJECT__2
10
0
20
0
30
0
70
128
71
6
72
10
73
5
0
VERTEX
8
OBJECT__2
10
0
20
0
30
0
70
128
71
3
72
7
73
4
0
SEQEND
8
OBJECT__2
0
POLYLINE
8
OBJECT__3
66
1
70
64
71
182
72
332
62
253
0
VERTEX
8
OBJECT__3
10
8.495000
20
-61.672001
30
201.210007
70
192
0
VERTEX
8
OBJECT__3
10
10.500000
20
-55.500000
30
201.210007
70
192
0
VERTEX
8
OBJECT__3
10
12.215000
20
-55.500000
30
219.647995
70
192
0
VERTEX
8
OBJECT__3
10
17.299000
20
-55.500000
30
237.453995
70
192
0
VERTEX
8
OBJECT__3
10
15.430000
20
-61.672001
30
238.181000
70
192
0
VERTEX
8
OBJECT__3
10
25.580000
20
-55.500000
30
254.016998
70
192
0
VERTEX
8
OBJECT__3
10
23.877001
20
-61.672001
30
255.076004
70
192
0
VERTEX
8
OBJECT__3
10
36.771999
20
-55.500000
30
268.769012
70
192
0
VERTEX
8
OBJECT__3
10
35.293999
20
-61.672001
30
270.123993
70
192
0
VERTEX
8
OBJECT__3
10
50.493000
20
-55.500000
30
281.204987
70
192
0
VERTEX
8
OBJECT__3
10
49.290001
20
-61.672001
30
282.808990
70
192
0
VERTEX
8
OBJECT__3
10
66.271004
20
-55.500000
30
290.897003
70
192
0
VERTEX
8
OBJECT__3
10
65.384003
20
-61.672001
30
292.696014
70
192
0
VERTEX
8
OBJECT__3
10
83.566002
20
-55.500000
30
297.515015
70
192
0
VERTEX
8
OBJECT__3
10
83.026001
20
-61.672001
30
299.446014
70
192
0
VERTEX
8
OBJECT__3
10
101.783997
20
-55.500000
30
300.829010
70
192
0
VERTEX
8
OBJECT__3
10
101.610001
20
-61.672001
30
302.826996
70
192
0
VERTEX
8
OBJECT__3
10
120.302002
20
-55.500000
30
300.727997
70
192
0
VERTEX
8
OBJECT__3
10
120.498001
20
-61.672001
30
302.723999
70
192
0
VERTEX
8
OBJECT__3
10
138.483002
20
-55.500000
30
297.214996
70
192
0
VERTEX
8
OBJECT__3
10
139.044006
20
-61.672001
30
299.140015
70
192
0
VERTEX
8
OBJECT__3
10
155.705002
20
-55.500000
30
290.408997
70
192
0
VERTEX
8
OBJECT__3
10
156.610992
20
-61.672001
30
292.197998
70
192
0
VERTEX
8
OBJECT__3
10
171.376007
20
-55.500000
30
280.545013
70
192
0
VERTEX
8
OBJECT__3
10
172.597000
20
-61.672001
30
282.135986
70
192
0
VERTEX
8
OBJECT__3
10
184.960007
20
-55.500000
30
267.960999
70
192
0
VERTEX
8
OBJECT__3
10
186.453003
20
-61.672001
30
269.299011
70
192
0
VERTEX
8
OBJECT__3
10
195.990997
20
-55.500000
30
253.087006
70
192
0
VERTEX
8
OBJECT__3
10
197.705994
20
-61.672001
30
254.128006
70
192
0
VERTEX
8
OBJECT__3
10
204.091003
20
-55.500000
30
236.434998
70
192
0
VERTEX
8
OBJECT__3
10
205.966995
20
-61.672001
30
237.141006
70
192
0
VERTEX
8
OBJECT__3
10
208.981003
20
-55.500000
30
218.574997
70
192
0
VERTEX
8
OBJECT__3
10
10.244000
20
-61.672001
30
220.018005
70
192
0
VERTEX
8
OBJECT__3
10
5.084000
20
-65.486000
30
220.985992
70
192
0
VERTEX
8
OBJECT__3
10
6.251000
20
-63.301998
30
201.210007
70
192
0
VERTEX
8
OBJECT__3
10
3.245000
20
-65.486000
30
201.210007
70
192
0
VERTEX
8
OBJECT__3
10
10.537000
20
-65.486000
30
240.082993
70
192
0
VERTEX
8
OBJECT__3
10
19.419001
20
-65.486000
30
257.847992
70
192
0
VERTEX
8
OBJECT__3
10
31.423000
20
-65.486000
30
273.670990
70
192
0
VERTEX
8
OBJECT__3
10
46.139000
20
-65.486000
30
287.009003
70
192
0
VERTEX
8
OBJECT__3
10
63.062000
20
-65.486000
30
297.403992
70
192
0
VERTEX
8
OBJECT__3
10
81.612000
20
-65.486000
30
304.502014
70
192
0
VERTEX
8
OBJECT__3
10
101.152000
20
-65.486000
30
308.057007
70
192
0
VERTEX
8
OBJECT__3
10
121.013000
20
-65.486000
30
307.949005
70
192
0
VERTEX
8
OBJECT__3
10
140.513000
20
-65.486000
30
304.179993
70
192
0
VERTEX
8
OBJECT__3
10
158.983994
20
-65.486000
30
296.881012
70
192
0
VERTEX
8
OBJECT__3
10
175.792999
20
-65.486000
30
286.300995
70
192
0
VERTEX
8
OBJECT__3
10
190.363007
20
-65.486000
30
272.803986
70
192
0
VERTEX
8
OBJECT__3
10
202.194000
20
-65.486000
30
256.851013
70
192
0
VERTEX
8
OBJECT__3
10
210.880997
20
-65.486000
30
238.990997
70
192
0
VERTEX
8
OBJECT__3
10
210.955994
20
-61.672001
30
218.923004
70
192
0
VERTEX
8
OBJECT__3
10
213.164993
20
-63.301998
30
219.313004
70
192
0
VERTEX
8
OBJECT__3
10
-2.336000
20
-65.486000
30
201.210007
70
192
0
VERTEX
8
OBJECT__3
10
-1.295000
20
-65.486000
30
222.182007
70
192
0
VERTEX
8
OBJECT__3
10
-3.245000
20
-65.486000
30
201.210007
70
192
0
VERTEX
8
OBJECT__3
10
4.489000
20
-65.486000
30
242.434998
70
192
0
VERTEX
8
OBJECT__3
10
13.908000
20
-65.486000
30
261.274994
70
192
0
VERTEX
8
OBJECT__3
10
26.639000
20
-65.486000
30
278.054993
70
192
0
VERTEX
8
OBJECT__3
10
42.244999
20
-65.486000
30
292.200012
70
192
0
VERTEX
8
OBJECT__3
10
60.192001
20
-65.486000
30
303.225006
70
192
0
VERTEX
8
OBJECT__3
10
79.863998
20
-65.486000
30
310.751007
70
192
0
VERTEX
8
OBJECT__3
10
100.585999
20
-65.486000
30
314.522003
70
192
0
VERTEX
8
OBJECT__3
10
121.649002
20
-65.486000
30
314.407013
70
192
0
VERTEX
8
OBJECT__3
10
142.328995
20
-65.486000
30
310.411011
70
192
0
VERTEX
8
OBJECT__3
10
161.917999
20
-65.486000
30
302.670013
70
192
0
VERTEX
8
OBJECT__3
10
179.742996
20
-65.486000
30
291.450012
70
192
0
VERTEX
8
OBJECT__3
10
195.195007
20
-65.486000
30
277.135010
70
192
0
VERTEX
8
OBJECT__3
10
207.742004
20
-65.486000
30
260.217987
70
192
0
VERTEX
8
OBJECT__3
10
216.953995
20
-65.486000
30
241.276993
70
192
0
VERTEX
8
OBJECT__3
10
221.621994
20
-65.486000
30
220.804001
70
192
0
VERTEX
8
OBJECT__3
10
216.126007
20
-65.486000
30
219.835007
70
192
0
VERTEX
8
OBJECT__3
10
-8.495000
20
-61.672001
30
201.210007
70
192
0
VERTEX
8
OBJECT__3
10
-0.404000
20
-61.672001
30
244.337997
70
192
0
VERTEX
8
OBJECT__3
10
9.449000
20
-61.672001
30
264.046997
70
192
0
VERTEX
8
OBJECT__3
10
22.768000
20
-61.672001
30
281.601990
70
192
0
VERTEX
8
OBJECT__3
10
39.095001
20
-61.672001
30
296.398987
70
192
0
VERTEX
8
OBJECT__3
10
57.869999
20
-61.672001
30
307.933014
70
192
0
VERTEX
8
OBJECT__3
10
78.449997
20
-61.672001
30
315.807007
70
192
0
VERTEX
8
OBJECT__3
10
100.128998
20
-61.672001
30
319.752014
70
192
0
VERTEX
8
OBJECT__3
10
122.164001
20
-61.672001
30
319.631989
70
192
0
VERTEX
8
OBJECT__3
10
143.798004
20
-61.672001
30
315.450989
70
192
0
VERTEX
8
OBJECT__3
10
164.291000
20
-61.672001
30
307.352997
70
192
0
VERTEX
8
OBJECT__3
10
182.938995
20
-61.672001
30
295.614990
70
192
0
VERTEX
8
OBJECT__3
10
199.104004
20
-61.672001
30
280.640015
70
192
0
VERTEX
8
OBJECT__3
10
212.229996
20
-61.672001
30
262.941010
70
192
0
VERTEX
8
OBJECT__3
10
221.867996
20
-61.672001
30
243.126007
70
192
0
VERTEX
8
OBJECT__3
10
222.516998
20
-65.486000
30
220.962006
70
192
0
VERTEX
8
OBJECT__3
10
-8.425000
20
-55.500000
30
223.520004
70
192
0
VERTEX
8
OBJECT__3
10
-10.500000
20
-55.500000
30
201.210007
70
192
0
VERTEX
8
OBJECT__3
10
-9.062000
20
-59.925999
30
201.210007
70
192
0
VERTEX
8
OBJECT__3
10
-6.455000
20
-61.672001
30
223.149994
70
192
0
VERTEX
8
OBJECT__3
10
-2.273000
20
-55.500000
30
245.065002
70
192
0
VERTEX
8
OBJECT__3
10
7.747000
20
-55.500000
30
265.105988
70
192
0
VERTEX
8
OBJECT__3
10
21.289000
20
-55.500000
30
282.955994
70
192
0
VERTEX
8
OBJECT__3
10
37.890999
20
-55.500000
30
298.003998
70
192
0
VERTEX
8
OBJECT__3
10
56.983002
20
-55.500000
30
309.731995
70
192
0
VERTEX
8
OBJECT__3
10
77.910004
20
-55.500000
30
317.738007
70
192
0
VERTEX
8
OBJECT__3
10
99.954002
20
-55.500000
30
321.750000
70
192
0
VERTEX
8
OBJECT__3
10
122.360001
20
-55.500000
30
321.627014
70
192
0
VERTEX
8
OBJECT__3
10
144.358994
20
-55.500000
30
317.376007
70
192
0
VERTEX
8
OBJECT__3
10
165.197998
20
-55.500000
30
309.140991
70
192
0
VERTEX
8
OBJECT__3
10
184.160004
20
-55.500000
30
297.205994
70
192
0
VERTEX
8
OBJECT__3
10
200.597000
20
-55.500000
30
281.977997
70
192
0
VERTEX
8
OBJECT__3
10
213.944000
20
-55.500000
30
263.981995
70
192
0
VERTEX
8
OBJECT__3
10
223.744995
20
-55.500000
30
243.832001
70
192
0
VERTEX
8
OBJECT__3
10
228.244995
20
-59.925999
30
221.972000
70
192
0
VERTEX
8
OBJECT__3
10
227.686996
20
-61.672001
30
221.873001
70
192
0
VERTEX
8
OBJECT__3
10
-6.455000
20
-49.327999
30
223.149994
70
192
0
VERTEX
8
OBJECT__3
10
-9.062000
20
-51.074001
30
201.210007
70
192
0
VERTEX
8
OBJECT__3
10
-8.495000
20
-49.327999
30
201.210007
70
192
0
VERTEX
8
OBJECT__3
10
-0.404000
20
-49.327999
30
244.337997
70
192
0
VERTEX
8
OBJECT__3
10
9.449000
20
-49.327999
30
264.046997
70
192
0
VERTEX
8
OBJECT__3
10
22.768000
20
-49.327999
30
281.601990
70
192
0
VERTEX
8
OBJECT__3
10
39.095001
20
-49.327999
30
296.398987
70
192
0
VERTEX
8
OBJECT__3
10
57.869999
20
-49.327999
30
307.933014
70
192
0
VERTEX
8
OBJECT__3
10
78.449997
20
-49.327999
30
315.807007
70
192
0
VERTEX
8
OBJECT__3
10
100.128998
20
-49.327999
30
319.752014
70
192
0
VERTEX
8
OBJECT__3
10
122.164001
20
-49.327999
30
319.631989
70
192
0
VERTEX
8
OBJECT__3
10
143.798004
20
-49.327999
30
315.450989
70
192
0
VERTEX
8
OBJECT__3
10
164.291000
20
-49.327999
30
307.352997
70
192
0
VERTEX
8
OBJECT__3
10
182.938995
20
-49.327999
30
295.614990
70
192
0
VERTEX
8
OBJECT__3
10
199.104004
20
-49.327999
30
280.640015
70
192
0
VERTEX
8
OBJECT__3
10
212.229996
20
-49.327999
30
262.941010
70
192
0
VERTEX
8
OBJECT__3
10
221.867996
20
-49.327999
30
243.126007
70
192
0
VERTEX
8
OBJECT__3
10
229.662003
20
-55.500000
30
222.220993
70
192
0
VERTEX
8
OBJECT__3
10
228.244995
20
-51.074001
30
221.972000
70
192
0
VERTEX
8
OBJECT__3
10
-1.295000
20
-45.514000
30
222.182007
70
192
0
VERTEX
8
OBJECT__3
10
4.489000
20
-45.514000
30
242.434998
70
192
0
VERTEX
8
OBJECT__3
10
13.908000
20
-45.514000
30
261.274994
70
192
0
VERTEX
8
OBJECT__3
10
26.639000
20
-45.514000
30
278.054993
70
192
0
VERTEX
8
OBJECT__3
10
42.244999
20
-45.514000
30
292.200012
70
192
0
VERTEX
8
OBJECT__3
10
60.192001
20
-45.514000
30
303.225006
70
192
0
VERTEX
8
OBJECT__3
10
79.863998
20
-45.514000
30
310.751007
70
192
0
VERTEX
8
OBJECT__3
10
100.585999
20
-45.514000
30
314.522003
70
192
0
VERTEX
8
OBJECT__3
10
121.649002
20
-45.514000
30
314.407013
70
192
0
VERTEX
8
OBJECT__3
10
142.328995
20
-45.514000
30
310.411011
70
192
0
VERTEX
8
OBJECT__3
10
161.917999
20
-45.514000
30
302.670013
70
192
0
VERTEX
8
OBJECT__3
10
179.742996
20
-45.514000
30
291.450012
70
192
0
VERTEX
8
OBJECT__3
10
195.195007
20
-45.514000
30
277.135010
70
192
0
VERTEX
8
OBJECT__3
10
207.742004
20
-45.514000
30
260.217987
70
192
0
VERTEX
8
OBJECT__3
10
216.953995
20
-45.514000
30
241.276993
70
192
0
VERTEX
8
OBJECT__3
10
227.686996
20
-49.327999
30
221.873001
70
192
0
VERTEX
8
OBJECT__3
10
222.516998
20
-45.514000
30
220.962006
70
192
0
VERTEX
8
OBJECT__3
10
-2.336000
20
-45.514000
30
201.210007
70
192
0
VERTEX
8
OBJECT__3
10
5.084000
20
-45.514000
30
220.985992
70
192
0
VERTEX
8
OBJECT__3
10
3.245000
20
-45.514000
30
201.210007
70
192
0
VERTEX
8
OBJECT__3
10
10.537000
20
-45.514000
30
240.082993
70
192
0
VERTEX
8
OBJECT__3
10
19.419001
20
-45.514000
30
257.847992
70
192
0
VERTEX
8
OBJECT__3
10
31.423000
20
-45.514000
30
273.670990
70
192
0
VERTEX
8
OBJECT__3
10
46.139000
20
-45.514000
30
287.009003
70
192
0
VERTEX
8
OBJECT__3
10
63.062000
20
-45.514000
30
297.403992
70
192
0
VERTEX
8
OBJECT__3
10
81.612000
20
-45.514000
30
304.502014
70
192
0
VERTEX
8
OBJECT__3
10
101.152000
20
-45.514000
30
308.057007
70
192
0
VERTEX
8
OBJECT__3
10
121.013000
20
-45.514000
30
307.949005
70
192
0
VERTEX
8
OBJECT__3
10
140.513000
20
-45.514000
30
304.179993
70
192
0
VERTEX
8
OBJECT__3
10
158.983994
20
-45.514000
30
296.881012
70
192
0
VERTEX
8
OBJECT__3
10
175.792999
20
-45.514000
30
286.300995
70
192
0
VERTEX
8
OBJECT__3
10
190.363007
20
-45.514000
30
272.803986
70
192
0
VERTEX
8
OBJECT__3
10
202.194000
20
-45.514000
30
256.851013
70
192
0
VERTEX
8
OBJECT__3
10
210.880997
20
-45.514000
30
238.990997
70
192
0
VERTEX
8
OBJECT__3
10
221.621994
20
-45.514000
30
220.804001
70
192
0
VERTEX
8
OBJECT__3
10
216.126007
20
-45.514000
30
219.835007
70
192
0
VERTEX
8
OBJECT__3
10
10.244000
20
-49.327999
30
220.018005
70
192
0
VERTEX
8
OBJECT__3
10
8.495000
20
-49.327999
30
201.210007
70
192
0
VERTEX
8
OBJECT__3
10
6.251000
20
-47.698002
30
201.210007
70
192
0
VERTEX
8
OBJECT__3
10
15.430000
20
-49.327999
30
238.181000
70
192
0
VERTEX
8
OBJECT__3
10
23.877001
20
-49.327999
30
255.076004
70
192
0
VERTEX
8
OBJECT__3
10
35.293999
20
-49.327999
30
270.123993
70
192
0
VERTEX
8
OBJECT__3
10
49.290001
20
-49.327999
30
282.808990
70
192
0
VERTEX
8
OBJECT__3
10
65.384003
20
-49.327999
30
292.696014
70
192
0
VERTEX
8
OBJECT__3
10
83.026001
20
-49.327999
30
299.446014
70
192
0
VERTEX
8
OBJECT__3
10
101.610001
20
-49.327999
30
302.826996
70
192
0
VERTEX
8
OBJECT__3
10
120.498001
20
-49.327999
30
302.723999
70
192
0
VERTEX
8
OBJECT__3
10
139.044006
20
-49.327999
30
299.140015
70
192
0
VERTEX
8
OBJECT__3
10
156.610992
20
-49.327999
30
292.197998
70
192
0
VERTEX
8
OBJECT__3
10
172.597000
20
-49.327999
30
282.135986
70
192
0
VERTEX
8
OBJECT__3
10
186.453003
20
-49.327999
30
269.299011
70
192
0
VERTEX
8
OBJECT__3
10
197.705994
20
-49.327999
30
254.128006
70
192
0
VERTEX
8
OBJECT__3
10
205.966995
20
-49.327999
30
237.141006
70
192
0
VERTEX
8
OBJECT__3
10
213.164993
20
-47.698002
30
219.313004
70
192
0
VERTEX
8
OBJECT__3
10
210.955994
20
-49.327999
30
218.923004
70
192
0
VERTEX
8
OBJECT__3
10
-3.245000
20
-45.514000
30
201.210007
70
192
0
VERTEX
8
OBJECT__3
10
0
20
0
30
0
70
128
71
1
72
2
73
3
0
VERTEX
8
OBJECT__3
10
0
20
0
30
0
70
128
71
3
72
4
73
5
0
VERTEX
8
OBJECT__3
10
0
20
0
30
0
70
128
71
4
72
6
73
7
0
VERTEX
8
OBJECT__3
10
0
20
0
30
0
70
128
71
6
72
8
73
9
0
VERTEX
8
OBJECT__3
10
0
20
0
30
0
70
128
71
8
72
10
73
11
0
VERTEX
8
OBJECT__3
10
0
20
0
30
0
70
128
71
10
72
12
73
13
0
VERTEX
8
OBJECT__3
10
0
20
0
30
0
70
128
71
12
72
14
73
15
0
VERTEX
8
OBJECT__3
10
0
20
0
30
0
70
128
71
14
72
16
73
17
0
VERTEX
8
OBJECT__3
10
0
20
0
30
0
70
128
71
16
72
18
73
19
0
VERTEX
8
OBJECT__3
10
0
20
0
30
0
70
128
71
18
72
20
73
21
0
VERTEX
8
OBJECT__3
10
0
20
0
30
0
70
128
71
20
72
22
73
23
0
VERTEX
8
OBJECT__3
10
0
20
0
30
0
70
128
71
22
72
24
73
25
0
VERTEX
8
OBJECT__3
10
0
20
0
30
0
70
128
71
24
72
26
73
27
0
VERTEX
8
OBJECT__3
10
0
20
0
30
0
70
128
71
26
72
28
73
29
0
VERTEX
8
OBJECT__3
10
0
20
0
30
0
70
128
71
28
72
30
73
31
0
VERTEX
8
OBJECT__3
10
0
20
0
30
0
70
128
71
31
72
30
73
32
0
VERTEX
8
OBJECT__3
10
0
20
0
30
0
70
128
71
33
72
34
73
35
0
VERTEX
8
OBJECT__3
10
0
20
0
30
0
70
128
71
34
72
36
73
35
0
VERTEX
8
OBJECT__3
10
0
20
0
30
0
70
128
71
33
72
5
73
37
0
VERTEX
8
OBJECT__3
10
0
20
0
30
0
70
128
71
5
72
7
73
38
0
VERTEX
8
OBJECT__3
10
0
20
0
30
0
70
128
71
7
72
9
73
39
0
VERTEX
8
OBJECT__3
10
0
20
0
30
0
70
128
71
9
72
11
73
40
0
VERTEX
8
OBJECT__3
10
0
20
0
30
0
70
128
71
11
72
13
73
41
0
VERTEX
8
OBJECT__3
10
0
20
0
30
0
70
128
71
13
72
15
73
42
0
VERTEX
8
OBJECT__3
10
0
20
0
30
0
70
128
71
15
72
17
73
43
0
VERTEX
8
OBJECT__3
10
0
20
0
30
0
70
128
71
17
72
19
73
44
0
VERTEX
8
OBJECT__3
10
0
20
0
30
0
70
128
71
19
72
21
73
45
0
VERTEX
8
OBJECT__3
10
0
20
0
30
0
70
128
71
21
72
23
73
46
0
VERTEX
8
OBJECT__3
10
0
20
0
30
0
70
128
71
23
72
25
73
47
0
VERTEX
8
OBJECT__3
10
0
20
0
30
0
70
128
71
25
72
27
73
48
0
VERTEX
8
OBJECT__3
10
0
20
0
30
0
70
128
71
27
72
29
73
49
0
VERTEX
8
OBJECT__3
10
0
20
0
30
0
70
128
71
29
72
31
73
50
0
VERTEX
8
OBJECT__3
10
0
20
0
30
0
70
128
71
31
72
51
73
52
0
VERTEX
8
OBJECT__3
10
0
20
0
30
0
70
128
71
52
72
50
73
31
0
VERTEX
8
OBJECT__3
10
0
20
0
30
0
70
128
71
53
72
36
73
34
0
VERTEX
8
OBJECT__3
10
0
20
0
30
0
70
128
71
54
72
55
73
53
0
VERTEX
8
OBJECT__3
10
0
20
0
30
0
70
128
71
34
72
37
73
56
0
VERTEX
8
OBJECT__3
10
0
20
0
30
0
70
128
71
37
72
38
73
57
0
VERTEX
8
OBJECT__3
10
0
20
0
30
0
70
128
71
38
72
39
73
58
0
VERTEX
8
OBJECT__3
10
0
20
0
30
0
70
128
71
39
72
40
73
59
0
VERTEX
8
OBJECT__3
10
0
20
0
30
0
70
128
71
40
72
41
73
60
0
VERTEX
8
OBJECT__3
10
0
20
0
30
0
70
128
71
41
72
42
73
61
0
VERTEX
8
OBJECT__3
10
0
20
0
30
0
70
128
71
42
72
43
73
62
0
VERTEX
8
OBJECT__3
10
0
20
0
30
0
70
128
71
43
72
44
73
63
0
VERTEX
8
OBJECT__3
10
0
20
0
30
0
70
128
71
44
72
45
73
64
0
VERTEX
8
OBJECT__3
10
0
20
0
30
0
70
128
71
45
72
46
73
65
0
VERTEX
8
OBJECT__3
10
0
20
0
30
0
70
128
71
46
72
47
73
66
0
VERTEX
8
OBJECT__3
10
0
20
0
30
0
70
128
71
47
72
48
73
67
0
VERTEX
8
OBJECT__3
10
0
20
0
30
0
70
128
71
48
72
49
73
68
0
VERTEX
8
OBJECT__3
10
0
20
0
30
0
70
128
71
49
72
50
73
69
0
VERTEX
8
OBJECT__3
10
0
20
0
30
0
70
128
71
70
72
69
73
50
0
VERTEX
8
OBJECT__3
10
0
20
0
30
0
70
128
71
50
72
71
73
70
0
VERTEX
8
OBJECT__3
10
0
20
0
30
0
70
128
71
72
72
55
73
54
0
VERTEX
8
OBJECT__3
10
0
20
0
30
0
70
128
71
54
72
56
73
73
0
VERTEX
8
OBJECT__3
10
0
20
0
30
0
70
128
71
56
72
57
73
74
0
VERTEX
8
OBJECT__3
10
0
20
0
30
0
70
128
71
57
72
58
73
75
0
VERTEX
8
OBJECT__3
10
0
20
0
30
0
70
128
71
58
72
59
73
76
0
VERTEX
8
OBJECT__3
10
0
20
0
30
0
70
128
71
59
72
60
73
77
0
VERTEX
8
OBJECT__3
10
0
20
0
30
0
70
128
71
60
72
61
73
78
0
VERTEX
8
OBJECT__3
10
0
20
0
30
0
70
128
71
61
72
62
73
79
0
VERTEX
8
OBJECT__3
10
0
20
0
30
0
70
128
71
62
72
63
73
80
0
VERTEX
8
OBJECT__3
10
0
20
0
30
0
70
128
71
63
72
64
73
81
0
VERTEX
8
OBJECT__3
10
0
20
0
30
0
70
128
71
64
72
65
73
82
0
VERTEX
8
OBJECT__3
10
0
20
0
30
0
70
128
71
65
72
66
73
83
0
VERTEX
8
OBJECT__3
10
0
20
0
30
0
70
128
71
66
72
67
73
84
0
VERTEX
8
OBJECT__3
10
0
20
0
30
0
70
128
71
67
72
68
73
85
0
VERTEX
8
OBJECT__3
10
0
20
0
30
0
70
128
71
68
72
69
73
86
0
VERTEX
8
OBJECT__3
10
0
20
0
30
0
70
128
71
86
72
69
73
87
0
VERTEX
8
OBJECT__3
10
0
20
0
30
0
70
128
71
88
72
89
73
90
0
VERTEX
8
OBJECT__3
10
0
20
0
30
0
70
128
71
90
72
91
73
88
0
VERTEX
8
OBJECT__3
10
0
20
0
30
0
70
128
71
91
72
73
73
92
0
VERTEX
8
OBJECT__3
10
0
20
0
30
0
70
128
71
73
72
74
73
93
0
VERTEX
8
OBJECT__3
10
0
20
0
30
0
70
128
71
74
72
75
73
94
0
VERTEX
8
OBJECT__3
10
0
20
0
30
0
70
128
71
75
72
76
73
95
0
VERTEX
8
OBJECT__3
10
0
20
0
30
0
70
128
71
76
72
77
73
96
0
VERTEX
8
OBJECT__3
10
0
20
0
30
0
70
128
71
77
72
78
73
97
0
VERTEX
8
OBJECT__3
10
0
20
0
30
0
70
128
71
78
72
79
73
98
0
VERTEX
8
OBJECT__3
10
0
20
0
30
0
70
128
71
79
72
80
73
99
0
VERTEX
8
OBJECT__3
10
0
20
0
30
0
70
128
71
80
72
81
73
100
0
VERTEX
8
OBJECT__3
10
0
20
0
30
0
70
128
71
81
72
82
73
101
0
VERTEX
8
OBJECT__3
10
0
20
0
30
0
70
128
71
82
72
83
73
102
0
VERTEX
8
OBJECT__3
10
0
20
0
30
0
70
128
71
83
72
84
73
103
0
VERTEX
8
OBJECT__3
10
0
20
0
30
0
70
128
71
84
72
85
73
104
0
VERTEX
8
OBJECT__3
10
0
20
0
30
0
70
128
71
85
72
86
73
105
0
VERTEX
8
OBJECT__3
10
0
20
0
30
0
70
128
71
105
72
86
73
106
0
VERTEX
8
OBJECT__3
10
0
20
0
30
0
70
128
71
86
72
107
73
106
0
VERTEX
8
OBJECT__3
10
0
20
0
30
0
70
128
71
88
72
108
73
109
0
VERTEX
8
OBJECT__3
10
0
20
0
30
0
70
128
71
108
72
110
73
109
0
VERTEX
8
OBJECT__3
10
0
20
0
30
0
70
128
71
88
72
92
73
111
0
VERTEX
8
OBJECT__3
10
0
20
0
30
0
70
128
71
92
72
93
73
112
0
VERTEX
8
OBJECT__3
10
0
20
0
30
0
70
128
71
93
72
94
73
113
0
VERTEX
8
OBJECT__3
10
0
20
0
30
0
70
128
71
94
72
95
73
114
0
VERTEX
8
OBJECT__3
10
0
20
0
30
0
70
128
71
95
72
96
73
115
0
VERTEX
8
OBJECT__3
10
0
20
0
30
0
70
128
71
96
72
97
73
116
0
VERTEX
8
OBJECT__3
10
0
20
0
30
0
70
128
71
97
72
98
73
117
0
VERTEX
8
OBJECT__3
10
0
20
0
30
0
70
128
71
98
72
99
73
118
0
VERTEX
8
OBJECT__3
10
0
20
0
30
0
70
128
71
99
72
100
73
119
0
VERTEX
8
OBJECT__3
10
0
20
0
30
0
70
128
71
100
72
101
73
120
0
VERTEX
8
OBJECT__3
10
0
20
0
30
0
70
128
71
101
72
102
73
121
0
VERTEX
8
OBJECT__3
10
0
20
0
30
0
70
128
71
102
72
103
73
122
0
VERTEX
8
OBJECT__3
10
0
20
0
30
0
70
128
71
103
72
104
73
123
0
VERTEX
8
OBJECT__3
10
0
20
0
30
0
70
128
71
104
72
105
73
124
0
VERTEX
8
OBJECT__3
10
0
20
0
30
0
70
128
71
105
72
125
73
126
0
VERTEX
8
OBJECT__3
10
0
20
0
30
0
70
128
71
126
72
124
73
105
0
VERTEX
8
OBJECT__3
10
0
20
0
30
0
70
128
71
110
72
108
73
127
0
VERTEX
8
OBJECT__3
10
0
20
0
30
0
70
128
71
108
72
111
73
128
0
VERTEX
8
OBJECT__3
10
0
20
0
30
0
70
128
71
111
72
112
73
129
0
VERTEX
8
OBJECT__3
10
0
20
0
30
0
70
128
71
112
72
113
73
130
0
VERTEX
8
OBJECT__3
10
0
20
0
30
0
70
128
71
113
72
114
73
131
0
VERTEX
8
OBJECT__3
10
0
20
0
30
0
70
128
71
114
72
115
73
132
0
VERTEX
8
OBJECT__3
10
0
20
0
30
0
70
128
71
115
72
116
73
133
0
VERTEX
8
OBJECT__3
10
0
20
0
30
0
70
128
71
116
72
117
73
134
0
VERTEX
8
OBJECT__3
10
0
20
0
30
0
70
128
71
117
72
118
73
135
0
VERTEX
8
OBJECT__3
10
0
20
0
30
0
70
128
71
118
72
119
73
136
0
VERTEX
8
OBJECT__3
10
0
20
0
30
0
70
128
71
119
72
120
73
137
0
VERTEX
8
OBJECT__3
10
0
20
0
30
0
70
128
71
120
72
121
73
138
0
VERTEX
8
OBJECT__3
10
0
20
0
30
0
70
128
71
121
72
122
73
139
0
VERTEX
8
OBJECT__3
10
0
20
0
30
0
70
128
71
122
72
123
73
140
0
VERTEX
8
OBJECT__3
10
0
20
0
30
0
70
128
71
123
72
124
73
141
0
VERTEX
8
OBJECT__3
10
0
20
0
30
0
70
128
71
142
72
143
73
141
0
VERTEX
8
OBJECT__3
10
0
20
0
30
0
70
128
71
144
72
127
73
145
0
VERTEX
8
OBJECT__3
10
0
20
0
30
0
70
128
71
145
72
146
73
144
0
VERTEX
8
OBJECT__3
10
0
20
0
30
0
70
128
71
127
72
128
73
147
0
VERTEX
8
OBJECT__3
10
0
20
0
30
0
70
128
71
128
72
129
73
148
0
VERTEX
8
OBJECT__3
10
0
20
0
30
0
70
128
71
129
72
130
73
149
0
VERTEX
8
OBJECT__3
10
0
20
0
30
0
70
128
71
130
72
131
73
150
0
VERTEX
8
OBJECT__3
10
0
20
0
30
0
70
128
71
131
72
132
73
151
0
VERTEX
8
OBJECT__3
10
0
20
0
30
0
70
128
71
132
72
133
73
152
0
VERTEX
8
OBJECT__3
10
0
20
0
30
0
70
128
71
133
72
134
73
153
0
VERTEX
8
OBJECT__3
10
0
20
0
30
0
70
128
71
134
72
135
73
154
0
VERTEX
8
OBJECT__3
10
0
20
0
30
0
70
128
71
135
72
136
73
155
0
VERTEX
8
OBJECT__3
10
0
20
0
30
0
70
128
71
136
72
137
73
156
0
VERTEX
8
OBJECT__3
10
0
20
0
30
0
70
128
71
137
72
138
73
157
0
VERTEX
8
OBJECT__3
10
0
20
0
30
0
70
128
71
138
72
139
73
158
0
VERTEX
8
OBJECT__3
10
0
20
0
30
0
70
128
71
139
72
140
73
159
0
VERTEX
8
OBJECT__3
10
0
20
0
30
0
70
128
71
140
72
141
73
160
0
VERTEX
8
OBJECT__3
10
0
20
0
30
0
70
128
71
161
72
162
73
160
0
VERTEX
8
OBJECT__3
10
0
20
0
30
0
70
128
71
141
72
143
73
161
0
VERTEX
8
OBJECT__3
10
0
20
0
30
0
70
128
71
163
72
164
73
165
0
VERTEX
8
OBJECT__3
10
0
20
0
30
0
70
128
71
165
72
145
73
163
0
VERTEX
8
OBJECT__3
10
0
20
0
30
0
70
128
71
145
72
147
73
166
0
VERTEX
8
OBJECT__3
10
0
20
0
30
0
70
128
71
147
72
148
73
167
0
VERTEX
8
OBJECT__3
10
0
20
0
30
0
70
128
71
148
72
149
73
168
0
VERTEX
8
OBJECT__3
10
0
20
0
30
0
70
128
71
149
72
150
73
169
0
VERTEX
8
OBJECT__3
10
0
20
0
30
0
70
128
71
150
72
151
73
170
0
VERTEX
8
OBJECT__3
10
0
20
0
30
0
70
128
71
151
72
152
73
171
0
VERTEX
8
OBJECT__3
10
0
20
0
30
0
70
128
71
152
72
153
73
172
0
VERTEX
8
OBJECT__3
10
0
20
0
30
0
70
128
71
153
72
154
73
173
0
VERTEX
8
OBJECT__3
10
0
20
0
30
0
70
128
71
154
72
155
73
174
0
VERTEX
8
OBJECT__3
10
0
20
0
30
0
70
128
71
155
72
156
73
175
0
VERTEX
8
OBJECT__3
10
0
20
0
30
0
70
128
71
156
72
157
73
176
0
VERTEX
8
OBJECT__3
10
0
20
0
30
0
70
128
71
157
72
158
73
177
0
VERTEX
8
OBJECT__3
10
0
20
0
30
0
70
128
71
158
72
159
73
178
0
VERTEX
8
OBJECT__3
10
0
20
0
30
0
70
128
71
159
72
160
73
179
0
VERTEX
8
OBJECT__3
10
0
20
0
30
0
70
128
71
179
72
160
73
180
0
VERTEX
8
OBJECT__3
10
0
20
0
30
0
70
128
71
160
72
162
73
180
0
VERTEX
8
OBJECT__3
10
0
20
0
30
0
70
128
71
164
72
163
73
3
0
VERTEX
8
OBJECT__3
10
0
20
0
30
0
70
128
71
163
72
166
73
4
0
VERTEX
8
OBJECT__3
10
0
20
0
30
0
70
128
71
166
72
167
73
6
0
VERTEX
8
OBJECT__3
10
0
20
0
30
0
70
128
71
167
72
168
73
8
0
VERTEX
8
OBJECT__3
10
0
20
0
30
0
70
128
71
168
72
169
73
10
0
VERTEX
8
OBJECT__3
10
0
20
0
30
0
70
128
71
169
72
170
73
12
0
VERTEX
8
OBJECT__3
10
0
20
0
30
0
70
128
71
170
72
171
73
14
0
VERTEX
8
OBJECT__3
10
0
20
0
30
0
70
128
71
171
72
172
73
16
0
VERTEX
8
OBJECT__3
10
0
20
0
30
0
70
128
71
172
72
173
73
18
0
VERTEX
8
OBJECT__3
10
0
20
0
30
0
70
128
71
173
72
174
73
20
0
VERTEX
8
OBJECT__3
10
0
20
0
30
0
70
128
71
174
72
175
73
22
0
VERTEX
8
OBJECT__3
10
0
20
0
30
0
70
128
71
175
72
176
73
24
0
VERTEX
8
OBJECT__3
10
0
20
0
30
0
70
128
71
176
72
177
73
26
0
VERTEX
8
OBJECT__3
10
0
20
0
30
0
70
128
71
177
72
178
73
28
0
VERTEX
8
OBJECT__3
10
0
20
0
30
0
70
128
71
178
72
179
73
30
0
VERTEX
8
OBJECT__3
10
0
20
0
30
0
70
128
71
179
72
181
73
32
0
VERTEX
8
OBJECT__3
10
0
20
0
30
0
70
128
71
32
72
30
73
179
0
VERTEX
8
OBJECT__3
10
0
20
0
30
0
70
128
71
30
72
28
73
178
0
VERTEX
8
OBJECT__3
10
0
20
0
30
0
70
128
71
28
72
26
73
177
0
VERTEX
8
OBJECT__3
10
0
20
0
30
0
70
128
71
26
72
24
73
176
0
VERTEX
8
OBJECT__3
10
0
20
0
30
0
70
128
71
24
72
22
73
175
0
VERTEX
8
OBJECT__3
10
0
20
0
30
0
70
128
71
22
72
20
73
174
0
VERTEX
8
OBJECT__3
10
0
20
0
30
0
70
128
71
20
72
18
73
173
0
VERTEX
8
OBJECT__3
10
0
20
0
30
0
70
128
71
18
72
16
73
172
0
VERTEX
8
OBJECT__3
10
0
20
0
30
0
70
128
71
16
72
14
73
171
0
VERTEX
8
OBJECT__3
10
0
20
0
30
0
70
128
71
14
72
12
73
170
0
VERTEX
8
OBJECT__3
10
0
20
0
30
0
70
128
71
12
72
10
73
169
0
VERTEX
8
OBJECT__3
10
0
20
0
30
0
70
128
71
10
72
8
73
168
0
VERTEX
8
OBJECT__3
10
0
20
0
30
0
70
128
71
8
72
6
73
167
0
VERTEX
8
OBJECT__3
10
0
20
0
30
0
70
128
71
6
72
4
73
166
0
VERTEX
8
OBJECT__3
10
0
20
0
30
0
70
128
71
4
72
3
73
163
0
VERTEX
8
OBJECT__3
10
0
20
0
30
0
70
128
71
3
72
2
73
164
0
VERTEX
8
OBJECT__3
10
0
20
0
30
0
70
128
71
180
72
181
73
179
0
VERTEX
8
OBJECT__3
10
0
20
0
30
0
70
128
71
179
72
178
73
159
0
VERTEX
8
OBJECT__3
10
0
20
0
30
0
70
128
71
178
72
177
73
158
0
VERTEX
8
OBJECT__3
10
0
20
0
30
0
70
128
71
177
72
176
73
157
0
VERTEX
8
OBJECT__3
10
0
20
0
30
0
70
128
71
176
72
175
73
156
0
VERTEX
8
OBJECT__3
10
0
20
0
30
0
70
128
71
175
72
174
73
155
0
VERTEX
8
OBJECT__3
10
0
20
0
30
0
70
128
71
174
72
173
73
154
0
VERTEX
8
OBJECT__3
10
0
20
0
30
0
70
128
71
173
72
172
73
153
0
VERTEX
8
OBJECT__3
10
0
20
0
30
0
70
128
71
172
72
171
73
152
0
VERTEX
8
OBJECT__3
10
0
20
0
30
0
70
128
71
171
72
170
73
151
0
VERTEX
8
OBJECT__3
10
0
20
0
30
0
70
128
71
170
72
169
73
150
0
VERTEX
8
OBJECT__3
10
0
20
0
30
0
70
128
71
169
72
168
73
149
0
VERTEX
8
OBJECT__3
10
0
20
0
30
0
70
128
71
168
72
167
73
148
0
VERTEX
8
OBJECT__3
10
0
20
0
30
0
70
128
71
167
72
166
73
147
0
VERTEX
8
OBJECT__3
10
0
20
0
30
0
70
128
71
166
72
163
73
145
0
VERTEX
8
OBJECT__3
10
0
20
0
30
0
70
128
71
165
72
146
73
145
0
VERTEX
8
OBJECT__3
10
0
20
0
30
0
70
128
71
160
72
141
73
161
0
VERTEX
8
OBJECT__3
10
0
20
0
30
0
70
128
71
160
72
159
73
140
0
VERTEX
8
OBJECT__3
10
0
20
0
30
0
70
128
71
159
72
158
73
139
0
VERTEX
8
OBJECT__3
10
0
20
0
30
0
70
128
71
158
72
157
73
138
0
VERTEX
8
OBJECT__3
10
0
20
0
30
0
70
128
71
157
72
156
73
137
0
VERTEX
8
OBJECT__3
10
0
20
0
30
0
70
128
71
156
72
155
73
136
0
VERTEX
8
OBJECT__3
10
0
20
0
30
0
70
128
71
155
72
154
73
135
0
VERTEX
8
OBJECT__3
10
0
20
0
30
0
70
128
71
154
72
153
73
134
0
VERTEX
8
OBJECT__3
10
0
20
0
30
0
70
128
71
153
72
152
73
133
0
VERTEX
8
OBJECT__3
10
0
20
0
30
0
70
128
71
152
72
151
73
132
0
VERTEX
8
OBJECT__3
10
0
20
0
30
0
70
128
71
151
72
150
73
131
0
VERTEX
8
OBJECT__3
10
0
20
0
30
0
70
128
71
150
72
149
73
130
0
VERTEX
8
OBJECT__3
10
0
20
0
30
0
70
128
71
149
72
148
73
129
0
VERTEX
8
OBJECT__3
10
0
20
0
30
0
70
128
71
148
72
147
73
128
0
VERTEX
8
OBJECT__3
10
0
20
0
30
0
70
128
71
147
72
145
73
127
0
VERTEX
8
OBJECT__3
10
0
20
0
30
0
70
128
71
144
72
182
73
127
0
VERTEX
8
OBJECT__3
10
0
20
0
30
0
70
128
71
141
72
124
73
142
0
VERTEX
8
OBJECT__3
10
0
20
0
30
0
70
128
71
141
72
140
73
123
0
VERTEX
8
OBJECT__3
10
0
20
0
30
0
70
128
71
140
72
139
73
122
0
VERTEX
8
OBJECT__3
10
0
20
0
30
0
70
128
71
139
72
138
73
121
0
VERTEX
8
OBJECT__3
10
0
20
0
30
0
70
128
71
138
72
137
73
120
0
VERTEX
8
OBJECT__3
10
0
20
0
30
0
70
128
71
137
72
136
73
119
0
VERTEX
8
OBJECT__3
10
0
20
0
30
0
70
128
71
136
72
135
73
118
0
VERTEX
8
OBJECT__3
10
0
20
0
30
0
70
128
71
135
72
134
73
117
0
VERTEX
8
OBJECT__3
10
0
20
0
30
0
70
128
71
134
72
133
73
116
0
VERTEX
8
OBJECT__3
10
0
20
0
30
0
70
128
71
133
72
132
73
115
0
VERTEX
8
OBJECT__3
10
0
20
0
30
0
70
128
71
132
72
131
73
114
0
VERTEX
8
OBJECT__3
10
0
20
0
30
0
70
128
71
131
72
130
73
113
0
VERTEX
8
OBJECT__3
10
0
20
0
30
0
70
128
71
130
72
129
73
112
0
VERTEX
8
OBJECT__3
10
0
20
0
30
0
70
128
71
129
72
128
73
111
0
VERTEX
8
OBJECT__3
10
0
20
0
30
0
70
128
71
128
72
127
73
108
0
VERTEX
8
OBJECT__3
10
0
20
0
30
0
70
128
71
127
72
182
73
110
0
VERTEX
8
OBJECT__3
10
0
20
0
30
0
70
128
71
126
72
142
73
124
0
VERTEX
8
OBJECT__3
10
0
20
0
30
0
70
128
71
124
72
123
73
104
0
VERTEX
8
OBJECT__3
10
0
20
0
30
0
70
128
71
123
72
122
73
103
0
VERTEX
8
OBJECT__3
10
0
20
0
30
0
70
128
71
122
72
121
73
102
0
VERTEX
8
OBJECT__3
10
0
20
0
30
0
70
128
71
121
72
120
73
101
0
VERTEX
8
OBJECT__3
10
0
20
0
30
0
70
128
71
120
72
119
73
100
0
VERTEX
8
OBJECT__3
10
0
20
0
30
0
70
128
71
119
72
118
73
99
0
VERTEX
8
OBJECT__3
10
0
20
0
30
0
70
128
71
118
72
117
73
98
0
VERTEX
8
OBJECT__3
10
0
20
0
30
0
70
128
71
117
72
116
73
97
0
VERTEX
8
OBJECT__3
10
0
20
0
30
0
70
128
71
116
72
115
73
96
0
VERTEX
8
OBJECT__3
10
0
20
0
30
0
70
128
71
115
72
114
73
95
0
VERTEX
8
OBJECT__3
10
0
20
0
30
0
70
128
71
114
72
113
73
94
0
VERTEX
8
OBJECT__3
10
0
20
0
30
0
70
128
71
113
72
112
73
93
0
VERTEX
8
OBJECT__3
10
0
20
0
30
0
70
128
71
112
72
111
73
92
0
VERTEX
8
OBJECT__3
10
0
20
0
30
0
70
128
71
111
72
108
73
88
0
VERTEX
8
OBJECT__3
10
0
20
0
30
0
70
128
71
109
72
89
73
88
0
VERTEX
8
OBJECT__3
10
0
20
0
30
0
70
128
71
106
72
125
73
105
0
VERTEX
8
OBJECT__3
10
0
20
0
30
0
70
128
71
105
72
104
73
85
0
VERTEX
8
OBJECT__3
10
0
20
0
30
0
70
128
71
104
72
103
73
84
0
VERTEX
8
OBJECT__3
10
0
20
0
30
0
70
128
71
103
72
102
73
83
0
VERTEX
8
OBJECT__3
10
0
20
0
30
0
70
128
71
102
72
101
73
82
0
VERTEX
8
OBJECT__3
10
0
20
0
30
0
70
128
71
101
72
100
73
81
0
VERTEX
8
OBJECT__3
10
0
20
0
30
0
70
128
71
100
72
99
73
80
0
VERTEX
8
OBJECT__3
10
0
20
0
30
0
70
128
71
99
72
98
73
79
0
VERTEX
8
OBJECT__3
10
0
20
0
30
0
70
128
71
98
72
97
73
78
0
VERTEX
8
OBJECT__3
10
0
20
0
30
0
70
128
71
97
72
96
73
77
0
VERTEX
8
OBJECT__3
10
0
20
0
30
0
70
128
71
96
72
95
73
76
0
VERTEX
8
OBJECT__3
10
0
20
0
30
0
70
128
71
95
72
94
73
75
0
VERTEX
8
OBJECT__3
10
0
20
0
30
0
70
128
71
94
72
93
73
74
0
VERTEX
8
OBJECT__3
10
0
20
0
30
0
70
128
71
93
72
92
73
73
0
VERTEX
8
OBJECT__3
10
0
20
0
30
0
70
128
71
92
72
88
73
91
0
VERTEX
8
OBJECT__3
10
0
20
0
30
0
70
128
71
90
72
72
73
91
0
VERTEX
8
OBJECT__3
10
0
20
0
30
0
70
128
71
87
72
107
73
86
0
VERTEX
8
OBJECT__3
10
0
20
0
30
0
70
128
71
86
72
85
73
68
0
VERTEX
8
OBJECT__3
10
0
20
0
30
0
70
128
71
85
72
84
73
67
0
VERTEX
8
OBJECT__3
10
0
20
0
30
0
70
128
71
84
72
83
73
66
0
VERTEX
8
OBJECT__3
10
0
20
0
30
0
70
128
71
83
72
82
73
65
0
VERTEX
8
OBJECT__3
10
0
20
0
30
0
70
128
71
82
72
81
73
64
0
VERTEX
8
OBJECT__3
10
0
20
0
30
0
70
128
71
81
72
80
73
63
0
VERTEX
8
OBJECT__3
10
0
20
0
30
0
70
128
71
80
72
79
73
62
0
VERTEX
8
OBJECT__3
10
0
20
0
30
0
70
128
71
79
72
78
73
61
0
VERTEX
8
OBJECT__3
10
0
20
0
30
0
70
128
71
78
72
77
73
60
0
VERTEX
8
OBJECT__3
10
0
20
0
30
0
70
128
71
77
72
76
73
59
0
VERTEX
8
OBJECT__3
10
0
20
0
30
0
70
128
71
76
72
75
73
58
0
VERTEX
8
OBJECT__3
10
0
20
0
30
0
70
128
71
75
72
74
73
57
0
VERTEX
8
OBJECT__3
10
0
20
0
30
0
70
128
71
74
72
73
73
56
0
VERTEX
8
OBJECT__3
10
0
20
0
30
0
70
128
71
73
72
91
73
54
0
VERTEX
8
OBJECT__3
10
0
20
0
30
0
70
128
71
54
72
91
73
72
0
VERTEX
8
OBJECT__3
10
0
20
0
30
0
70
128
71
70
72
87
73
69
0
VERTEX
8
OBJECT__3
10
0
20
0
30
0
70
128
71
69
72
68
73
49
0
VERTEX
8
OBJECT__3
10
0
20
0
30
0
70
128
71
68
72
67
73
48
0
VERTEX
8
OBJECT__3
10
0
20
0
30
0
70
128
71
67
72
66
73
47
0
VERTEX
8
OBJECT__3
10
0
20
0
30
0
70
128
71
66
72
65
73
46
0
VERTEX
8
OBJECT__3
10
0
20
0
30
0
70
128
71
65
72
64
73
45
0
VERTEX
8
OBJECT__3
10
0
20
0
30
0
70
128
71
64
72
63
73
44
0
VERTEX
8
OBJECT__3
10
0
20
0
30
0
70
128
71
63
72
62
73
43
0
VERTEX
8
OBJECT__3
10
0
20
0
30
0
70
128
71
62
72
61
73
42
0
VERTEX
8
OBJECT__3
10
0
20
0
30
0
70
128
71
61
72
60
73
41
0
VERTEX
8
OBJECT__3
10
0
20
0
30
0
70
128
71
60
72
59
73
40
0
VERTEX
8
OBJECT__3
10
0
20
0
30
0
70
128
71
59
72
58
73
39
0
VERTEX
8
OBJECT__3
10
0
20
0
30
0
70
128
71
58
72
57
73
38
0
VERTEX
8
OBJECT__3
10
0
20
0
30
0
70
128
71
57
72
56
73
37
0
VERTEX
8
OBJECT__3
10
0
20
0
30
0
70
128
71
56
72
54
73
34
0
VERTEX
8
OBJECT__3
10
0
20
0
30
0
70
128
71
34
72
54
73
53
0
VERTEX
8
OBJECT__3
10
0
20
0
30
0
70
128
71
52
72
71
73
50
0
VERTEX
8
OBJECT__3
10
0
20
0
30
0
70
128
71
50
72
49
73
29
0
VERTEX
8
OBJECT__3
10
0
20
0
30
0
70
128
71
49
72
48
73
27
0
VERTEX
8
OBJECT__3
10
0
20
0
30
0
70
128
71
48
72
47
73
25
0
VERTEX
8
OBJECT__3
10
0
20
0
30
0
70
128
71
47
72
46
73
23
0
VERTEX
8
OBJECT__3
10
0
20
0
30
0
70
128
71
46
72
45
73
21
0
VERTEX
8
OBJECT__3
10
0
20
0
30
0
70
128
71
45
72
44
73
19
0
VERTEX
8
OBJECT__3
10
0
20
0
30
0
70
128
71
44
72
43
73
17
0
VERTEX
8
OBJECT__3
10
0
20
0
30
0
70
128
71
43
72
42
73
15
0
VERTEX
8
OBJECT__3
10
0
20
0
30
0
70
128
71
42
72
41
73
13
0
VERTEX
8
OBJECT__3
10
0
20
0
30
0
70
128
71
41
72
40
73
11
0
VERTEX
8
OBJECT__3
10
0
20
0
30
0
70
128
71
40
72
39
73
9
0
VERTEX
8
OBJECT__3
10
0
20
0
30
0
70
128
71
39
72
38
73
7
0
VERTEX
8
OBJECT__3
10
0
20
0
30
0
70
128
71
38
72
37
73
5
0
VERTEX
8
OBJECT__3
10
0
20
0
30
0
70
128
71
37
72
34
73
33
0
VERTEX
8
OBJECT__3
10
0
20
0
30
0
70
128
71
35
72
1
73
33
0
VERTEX
8
OBJECT__3
10
0
20
0
30
0
70
128
71
32
72
51
73
31
0
VERTEX
8
OBJECT__3
10
0
20
0
30
0
70
128
71
31
72
29
73
28
0
VERTEX
8
OBJECT__3
10
0
20
0
30
0
70
128
71
29
72
27
73
26
0
VERTEX
8
OBJECT__3
10
0
20
0
30
0
70
128
71
27
72
25
73
24
0
VERTEX
8
OBJECT__3
10
0
20
0
30
0
70
128
71
25
72
23
73
22
0
VERTEX
8
OBJECT__3
10
0
20
0
30
0
70
128
71
23
72
21
73
20
0
VERTEX
8
OBJECT__3
10
0
20
0
30
0
70
128
71
21
72
19
73
18
0
VERTEX
8
OBJECT__3
10
0
20
0
30
0
70
128
71
19
72
17
73
16
0
VERTEX
8
OBJECT__3
10
0
20
0
30
0
70
128
71
17
72
15
73
14
0
VERTEX
8
OBJECT__3
10
0
20
0
30
0
70
128
71
15
72
13
73
12
0
VERTEX
8
OBJECT__3
10
0
20
0
30
0
70
128
71
13
72
11
73
10
0
VERTEX
8
OBJECT__3
10
0
20
0
30
0
70
128
71
11
72
9
73
8
0
VERTEX
8
OBJECT__3
10
0
20
0
30
0
70
128
71
9
72
7
73
6
0
VERTEX
8
OBJECT__3
10
0
20
0
30
0
70
128
71
7
72
5
73
4
0
VERTEX
8
OBJECT__3
10
0
20
0
30
0
70
128
71
5
72
33
73
3
0
VERTEX
8
OBJECT__3
10
0
20
0
30
0
70
128
71
3
72
33
73
1
0
SEQEND
8
OBJECT__3
0
POLYLINE
8
OBJECT__5
66
1
70
64
71
23
72
23
62
253
0
VERTEX
8
OBJECT__5
10
10.500000
20
-55.500000
30
81.209999
70
192
0
VERTEX
8
OBJECT__5
10
6.547000
20
-47.291000
30
81.209999
70
192
0
VERTEX
8
OBJECT__5
10
8.495000
20
-49.327999
30
201.210007
70
192
0
VERTEX
8
OBJECT__5
10
6.251000
20
-47.698002
30
201.210007
70
192
0
VERTEX
8
OBJECT__5
10
-2.336000
20
-45.263000
30
81.209999
70
192
0
VERTEX
8
OBJECT__5
10
-2.336000
20
-45.514000
30
201.210007
70
192
0
VERTEX
8
OBJECT__5
10
3.245000
20
-45.514000
30
201.210007
70
192
0
VERTEX
8
OBJECT__5
10
-9.460000
20
-50.944000
30
81.209999
70
192
0
VERTEX
8
OBJECT__5
10
-8.495000
20
-49.327999
30
201.210007
70
192
0
VERTEX
8
OBJECT__5
10
-3.245000
20
-45.514000
30
201.210007
70
192
0
VERTEX
8
OBJECT__5
10
-9.062000
20
-51.074001
30
201.210007
70
192
0
VERTEX
8
OBJECT__5
10
-9.460000
20
-60.056000
30
81.209999
70
192
0
VERTEX
8
OBJECT__5
10
-9.062000
20
-59.925999
30
201.210007
70
192
0
VERTEX
8
OBJECT__5
10
-10.500000
20
-55.500000
30
201.210007
70
192
0
VERTEX
8
OBJECT__5
10
-2.336000
20
-65.737000
30
81.209999
70
192
0
VERTEX
8
OBJECT__5
10
-3.245000
20
-65.486000
30
201.210007
70
192
0
VERTEX
8
OBJECT__5
10
-8.495000
20
-61.672001
30
201.210007
70
192
0
VERTEX
8
OBJECT__5
10
-2.336000
20
-65.486000
30
201.210007
70
192
0
VERTEX
8
OBJECT__5
10
6.547000
20
-63.709000
30
81.209999
70
192
0
VERTEX
8
OBJECT__5
10
3.245000
20
-65.486000
30
201.210007
70
192
0
VERTEX
8
OBJECT__5
10
6.251000
20
-63.301998
30
201.210007
70
192
0
VERTEX
8
OBJECT__5
10
10.500000
20
-55.500000
30
201.210007
70
192
0
VERTEX
8
OBJECT__5
10
8.495000
20
-61.672001
30
201.210007
70
192
0
VERTEX
8
OBJECT__5
10
0
20
0
30
0
70
128
71
1
72
2
73
3
0
VERTEX
8
OBJECT__5
10
0
20
0
30
0
70
128
71
2
72
4
73
3
0
VERTEX
8
OBJECT__5
10
0
20
0
30
0
70
128
71
5
72
6
73
7
0
VERTEX
8
OBJECT__5
10
0
20
0
30
0
70
128
71
7
72
2
73
5
0
VERTEX
8
OBJECT__5
10
0
20
0
30
0
70
128
71
5
72
8
73
9
0
VERTEX
8
OBJECT__5
10
0
20
0
30
0
70
128
71
9
72
10
73
5
0
VERTEX
8
OBJECT__5
10
0
20
0
30
0
70
128
71
8
72
11
73
9
0
VERTEX
8
OBJECT__5
10
0
20
0
30
0
70
128
71
12
72
13
73
14
0
VERTEX
8
OBJECT__5
10
0
20
0
30
0
70
128
71
14
72
8
73
12
0
VERTEX
8
OBJECT__5
10
0
20
0
30
0
70
128
71
15
72
16
73
17
0
VERTEX
8
OBJECT__5
10
0
20
0
30
0
70
128
71
17
72
12
73
15
0
VERTEX
8
OBJECT__5
10
0
20
0
30
0
70
128
71
15
72
18
73
16
0
VERTEX
8
OBJECT__5
10
0
20
0
30
0
70
128
71
15
72
19
73
20
0
VERTEX
8
OBJECT__5
10
0
20
0
30
0
70
128
71
19
72
21
73
20
0
VERTEX
8
OBJECT__5
10
0
20
0
30
0
70
128
71
1
72
22
73
23
0
VERTEX
8
OBJECT__5
10
0
20
0
30
0
70
128
71
23
72
19
73
1
0
VERTEX
8
OBJECT__5
10
0
20
0
30
0
70
128
71
23
72
21
73
19
0
VERTEX
8
OBJECT__5
10
0
20
0
30
0
70
128
71
20
72
18
73
15
0
VERTEX
8
OBJECT__5
10
0
20
0
30
0
70
128
71
17
72
13
73
12
0
VERTEX
8
OBJECT__5
10
0
20
0
30
0
70
128
71
14
72
11
73
8
0
VERTEX
8
OBJECT__5
10
0
20
0
30
0
70
128
71
10
72
6
73
5
0
VERTEX
8
OBJECT__5
10
0
20
0
30
0
70
128
71
7
72
4
73
2
0
VERTEX
8
OBJECT__5
10
0
20
0
30
0
70
128
71
3
72
22
73
1
0
SEQEND
8
OBJECT__5
0
POLYLINE
8
OBJECT__6
66
1
70
64
71
12
72
10
62
253
0
VERTEX
8
OBJECT__6
10
-7.325000
20
-24.947001
30
0.000000
70
192
0
VERTEX
8
OBJECT__6
10
-23.650000
20
10.801000
30
0.000000
70
192
0
VERTEX
8
OBJECT__6
10
-14.057000
20
21.872999
30
0.000000
70
192
0
VERTEX
8
OBJECT__6
10
-19.649000
20
-17.025999
30
0.000000
70
192
0
VERTEX
8
OBJECT__6
10
23.650000
20
10.801000
30
0.000000
70
192
0
VERTEX
8
OBJECT__6
10
25.735001
20
-3.700000
30
0.000000
70
192
0
VERTEX
8
OBJECT__6
10
19.649000
20
-17.025999
30
0.000000
70
192
0
VERTEX
8
OBJECT__6
10
7.325000
20
-24.947001
30
0.000000
70
192
0
VERTEX
8
OBJECT__6
10
0.000000
20
26.000000
30
0.000000
70
192
0
VERTEX
8
OBJECT__6
10
14.057000
20
21.872999
30
0.000000
70
192
0
VERTEX
8
OBJECT__6
10
-25.735001
20
-3.700000
30
0.000000
70
192
0
VERTEX
8
OBJECT__6
10
0.000000
20
-26.000000
30
0.000000
70
192
0
VERTEX
8
OBJECT__6
10
0
20
0
30
0
70
128
71
1
72
2
73
3
0
VERTEX
8
OBJECT__6
10
0
20
0
30
0
70
128
71
2
72
1
73
4
0
VERTEX
8
OBJECT__6
10
0
20
0
30
0
70
128
71
5
72
6
73
7
0
VERTEX
8
OBJECT__6
10
0
20
0
30
0
70
128
71
8
72
9
73
10
0
VERTEX
8
OBJECT__6
10
0
20
0
30
0
70
128
71
4
72
11
73
2
0
VERTEX
8
OBJECT__6
10
0
20
0
30
0
70
128
71
10
72
5
73
8
0
VERTEX
8
OBJECT__6
10
0
20
0
30
0
70
128
71
9
72
12
73
1
0
VERTEX
8
OBJECT__6
10
0
20
0
30
0
70
128
71
7
72
8
73
5
0
VERTEX
8
OBJECT__6
10
0
20
0
30
0
70
128
71
8
72
12
73
9
0
VERTEX
8
OBJECT__6
10
0
20
0
30
0
70
128
71
3
72
9
73
1
0
SEQEND
8
OBJECT__6
0
POLYLINE
8
OBJECT__7
66
1
70
64
71
56
72
58
62
253
0
VERTEX
8
OBJECT__7
10
14.057000
20
21.872999
30
50.000000
70
192
0
VERTEX
8
OBJECT__7
10
14.057000
20
21.872999
30
0.000000
70
192
0
VERTEX
8
OBJECT__7
10
0.000000
20
26.000000
30
0.000000
70
192
0
VERTEX
8
OBJECT__7
10
23.650000
20
10.801000
30
50.000000
70
192
0
VERTEX
8
OBJECT__7
10
23.650000
20
10.801000
30
0.000000
70
192
0
VERTEX
8
OBJECT__7
10
25.735001
20
-3.700000
30
50.000000
70
192
0
VERTEX
8
OBJECT__7
10
25.735001
20
-3.700000
30
0.000000
70
192
0
VERTEX
8
OBJECT__7
10
19.649000
20
-17.025999
30
50.000000
70
192
0
VERTEX
8
OBJECT__7
10
19.649000
20
-17.025999
30
0.000000
70
192
0
VERTEX
8
OBJECT__7
10
-25.735001
20
-3.700000
30
50.000000
70
192
0
VERTEX
8
OBJECT__7
10
-25.735001
20
-3.700000
30
0.000000
70
192
0
VERTEX
8
OBJECT__7
10
-19.649000
20
-17.025999
30
0.000000
70
192
0
VERTEX
8
OBJECT__7
10
-23.650000
20
10.801000
30
50.000000
70
192
0
VERTEX
8
OBJECT__7
10
-23.650000
20
10.801000
30
0.000000
70
192
0
VERTEX
8
OBJECT__7
10
-14.057000
20
21.872999
30
50.000000
70
192
0
VERTEX
8
OBJECT__7
10
-14.057000
20
21.872999
30
0.000000
70
192
0
VERTEX
8
OBJECT__7
10
0.000000
20
26.000000
30
50.000000
70
192
0
VERTEX
8
OBJECT__7
10
7.625000
20
-24.857000
30
13.738000
70
192
0
VERTEX
8
OBJECT__7
10
7.320000
20
-24.927000
30
13.591000
70
192
0
VERTEX
8
OBJECT__7
10
10.870000
20
-23.618999
30
16.827000
70
192
0
VERTEX
8
OBJECT__7
10
12.764000
20
-22.650999
30
20.304001
70
192
0
VERTEX
8
OBJECT__7
10
13.600000
20
-22.159000
30
24.962000
70
192
0
VERTEX
8
OBJECT__7
10
10.984000
20
-23.566000
30
33.020000
70
192
0
VERTEX
8
OBJECT__7
10
12.823000
20
-22.618000
30
29.530001
70
192
0
VERTEX
8
OBJECT__7
10
13.080000
20
-22.471001
30
28.726000
70
192
0
VERTEX
8
OBJECT__7
10
13.575000
20
-22.174999
30
24.172001
70
192
0
VERTEX
8
OBJECT__7
10
7.325000
20
-24.947001
30
50.000000
70
192
0
VERTEX
8
OBJECT__7
10
7.316000
20
-24.910999
30
36.366001
70
192
0
VERTEX
8
OBJECT__7
10
7.889000
20
-24.774000
30
36.077999
70
192
0
VERTEX
8
OBJECT__7
10
-7.325000
20
-24.947001
30
0.000000
70
192
0
VERTEX
8
OBJECT__7
10
0.000000
20
-26.000000
30
0.000000
70
192
0
VERTEX
8
OBJECT__7
10
-1.220000
20
-25.971001
30
11.455000
70
192
0
VERTEX
8
OBJECT__7
10
7.325000
20
-24.947001
30
0.000000
70
192
0
VERTEX
8
OBJECT__7
10
3.230000
20
-25.799000
30
11.789000
70
192
0
VERTEX
8
OBJECT__7
10
-0.622000
20
-25.993000
30
11.414000
70
192
0
VERTEX
8
OBJECT__7
10
4.086000
20
-25.677000
30
12.028000
70
192
0
VERTEX
8
OBJECT__7
10
-5.157000
20
-25.483000
30
12.416000
70
192
0
VERTEX
8
OBJECT__7
10
-19.649000
20
-17.025999
30
50.000000
70
192
0
VERTEX
8
OBJECT__7
10
-10.247000
20
-23.895000
30
33.942001
70
192
0
VERTEX
8
OBJECT__7
10
-7.322000
20
-24.937000
30
36.424999
70
192
0
VERTEX
8
OBJECT__7
10
-12.428000
20
-22.837000
30
30.521999
70
192
0
VERTEX
8
OBJECT__7
10
-13.550000
20
-22.190001
30
26.163000
70
192
0
VERTEX
8
OBJECT__7
10
-13.482000
20
-22.231001
30
26.785999
70
192
0
VERTEX
8
OBJECT__7
10
-13.342000
20
-22.316000
30
22.364000
70
192
0
VERTEX
8
OBJECT__7
10
-11.587000
20
-23.275000
30
17.879999
70
192
0
VERTEX
8
OBJECT__7
10
-13.129000
20
-22.441000
30
21.454000
70
192
0
VERTEX
8
OBJECT__7
10
-7.309000
20
-24.889000
30
13.704000
70
192
0
VERTEX
8
OBJECT__7
10
-8.657000
20
-24.516001
30
14.511000
70
192
0
VERTEX
8
OBJECT__7
10
0.000000
20
-26.000000
30
50.000000
70
192
0
VERTEX
8
OBJECT__7
10
0.000000
20
-26.000000
30
38.599998
70
192
0
VERTEX
8
OBJECT__7
10
-7.325000
20
-24.947001
30
50.000000
70
192
0
VERTEX
8
OBJECT__7
10
-2.165000
20
-25.910000
30
38.426998
70
192
0
VERTEX
8
OBJECT__7
10
-3.037000
20
-25.822001
30
38.257000
70
192
0
VERTEX
8
OBJECT__7
10
-7.158000
20
-24.995001
30
36.563999
70
192
0
VERTEX
8
OBJECT__7
10
-6.677000
20
-25.128000
30
36.848000
70
192
0
VERTEX
8
OBJECT__7
10
4.185000
20
-25.660999
30
37.939999
70
192
0
VERTEX
8
OBJECT__7
10
0
20
0
30
0
70
128
71
1
72
2
73
3
0
VERTEX
8
OBJECT__7
10
0
20
0
30
0
70
128
71
4
72
5
73
2
0
VERTEX
8
OBJECT__7
10
0
20
0
30
0
70
128
71
6
72
7
73
5
0
VERTEX
8
OBJECT__7
10
0
20
0
30
0
70
128
71
8
72
9
73
7
0
VERTEX
8
OBJECT__7
10
0
20
0
30
0
70
128
71
10
72
11
73
12
0
VERTEX
8
OBJECT__7
10
0
20
0
30
0
70
128
71
13
72
14
73
11
0
VERTEX
8
OBJECT__7
10
0
20
0
30
0
70
128
71
15
72
16
73
14
0
VERTEX
8
OBJECT__7
10
0
20
0
30
0
70
128
71
17
72
3
73
16
0
VERTEX
8
OBJECT__7
10
0
20
0
30
0
70
128
71
9
72
18
73
19
0
VERTEX
8
OBJECT__7
10
0
20
0
30
0
70
128
71
9
72
20
73
18
0
VERTEX
8
OBJECT__7
10
0
20
0
30
0
70
128
71
9
72
21
73
20
0
VERTEX
8
OBJECT__7
10
0
20
0
30
0
70
128
71
9
72
8
73
22
0
VERTEX
8
OBJECT__7
10
0
20
0
30
0
70
128
71
8
72
23
73
24
0
VERTEX
8
OBJECT__7
10
0
20
0
30
0
70
128
71
24
72
25
73
8
0
VERTEX
8
OBJECT__7
10
0
20
0
30
0
70
128
71
25
72
22
73
8
0
VERTEX
8
OBJECT__7
10
0
20
0
30
0
70
128
71
22
72
26
73
9
0
VERTEX
8
OBJECT__7
10
0
20
0
30
0
70
128
71
8
72
27
73
28
0
VERTEX
8
OBJECT__7
10
0
20
0
30
0
70
128
71
28
72
29
73
8
0
VERTEX
8
OBJECT__7
10
0
20
0
30
0
70
128
71
29
72
23
73
8
0
VERTEX
8
OBJECT__7
10
0
20
0
30
0
70
128
71
26
72
21
73
9
0
VERTEX
8
OBJECT__7
10
0
20
0
30
0
70
128
71
30
72
31
73
32
0
VERTEX
8
OBJECT__7
10
0
20
0
30
0
70
128
71
31
72
33
73
34
0
VERTEX
8
OBJECT__7
10
0
20
0
30
0
70
128
71
34
72
35
73
31
0
VERTEX
8
OBJECT__7
10
0
20
0
30
0
70
128
71
35
72
32
73
31
0
VERTEX
8
OBJECT__7
10
0
20
0
30
0
70
128
71
33
72
36
73
34
0
VERTEX
8
OBJECT__7
10
0
20
0
30
0
70
128
71
33
72
19
73
36
0
VERTEX
8
OBJECT__7
10
0
20
0
30
0
70
128
71
32
72
37
73
30
0
VERTEX
8
OBJECT__7
10
0
20
0
30
0
70
128
71
38
72
39
73
40
0
VERTEX
8
OBJECT__7
10
0
20
0
30
0
70
128
71
38
72
41
73
39
0
VERTEX
8
OBJECT__7
10
0
20
0
30
0
70
128
71
38
72
42
73
43
0
VERTEX
8
OBJECT__7
10
0
20
0
30
0
70
128
71
12
72
44
73
42
0
VERTEX
8
OBJECT__7
10
0
20
0
30
0
70
128
71
42
72
38
73
12
0
VERTEX
8
OBJECT__7
10
0
20
0
30
0
70
128
71
12
72
45
73
46
0
VERTEX
8
OBJECT__7
10
0
20
0
30
0
70
128
71
46
72
44
73
12
0
VERTEX
8
OBJECT__7
10
0
20
0
30
0
70
128
71
12
72
30
73
47
0
VERTEX
8
OBJECT__7
10
0
20
0
30
0
70
128
71
47
72
48
73
12
0
VERTEX
8
OBJECT__7
10
0
20
0
30
0
70
128
71
48
72
45
73
12
0
VERTEX
8
OBJECT__7
10
0
20
0
30
0
70
128
71
43
72
41
73
38
0
VERTEX
8
OBJECT__7
10
0
20
0
30
0
70
128
71
27
72
49
73
50
0
VERTEX
8
OBJECT__7
10
0
20
0
30
0
70
128
71
49
72
51
73
52
0
VERTEX
8
OBJECT__7
10
0
20
0
30
0
70
128
71
51
72
53
73
52
0
VERTEX
8
OBJECT__7
10
0
20
0
30
0
70
128
71
51
72
54
73
55
0
VERTEX
8
OBJECT__7
10
0
20
0
30
0
70
128
71
51
72
40
73
54
0
VERTEX
8
OBJECT__7
10
0
20
0
30
0
70
128
71
55
72
53
73
51
0
VERTEX
8
OBJECT__7
10
0
20
0
30
0
70
128
71
52
72
50
73
49
0
VERTEX
8
OBJECT__7
10
0
20
0
30
0
70
128
71
50
72
56
73
27
0
VERTEX
8
OBJECT__7
10
0
20
0
30
0
70
128
71
56
72
28
73
27
0
VERTEX
8
OBJECT__7
10
0
20
0
30
0
70
128
71
40
72
51
73
38
0
VERTEX
8
OBJECT__7
10
0
20
0
30
0
70
128
71
37
72
47
73
30
0
VERTEX
8
OBJECT__7
10
0
20
0
30
0
70
128
71
19
72
33
73
9
0
VERTEX
8
OBJECT__7
10
0
20
0
30
0
70
128
71
16
72
15
73
17
0
VERTEX
8
OBJECT__7
10
0
20
0
30
0
70
128
71
14
72
13
73
15
0
VERTEX
8
OBJECT__7
10
0
20
0
30
0
70
128
71
11
72
10
73
13
0
VERTEX
8
OBJECT__7
10
0
20
0
30
0
70
128
71
12
72
38
73
10
0
VERTEX
8
OBJECT__7
10
0
20
0
30
0
70
128
71
7
72
6
73
8
0
VERTEX
8
OBJECT__7
10
0
20
0
30
0
70
128
71
5
72
4
73
6
0
VERTEX
8
OBJECT__7
10
0
20
0
30
0
70
128
71
2
72
1
73
4
0
VERTEX
8
OBJECT__7
10
0
20
0
30
0
70
128
71
3
72
17
73
1
0
SEQEND
8
OBJECT__7
0
POLYLINE
8
OBJECT__9
66
1
70
64
71
12
72
10
62
253
0
VERTEX
8
OBJECT__9
10
0.000000
20
26.000000
30
50.000000
70
192
0
VERTEX
8
OBJECT__9
10
19.649000
20
-17.025999
30
50.000000
70
192
0
VERTEX
8
OBJECT__9
10
25.735001
20
-3.700000
30
50.000000
70
192
0
VERTEX
8
OBJECT__9
10
23.650000
20
10.801000
30
50.000000
70
192
0
VERTEX
8
OBJECT__9
10
-23.650000
20
10.801000
30
50.000000
70
192
0
VERTEX
8
OBJECT__9
10
-25.735001
20
-3.700000
30
50.000000
70
192
0
VERTEX
8
OBJECT__9
10
-19.649000
20
-17.025999
30
50.000000
70
192
0
VERTEX
8
OBJECT__9
10
-7.325000
20
-24.947001
30
50.000000
70
192
0
VERTEX
8
OBJECT__9
10
-14.057000
20
21.872999
30
50.000000
70
192
0
VERTEX
8
OBJECT__9
10
7.325000
20
-24.947001
30
50.000000
70
192
0
VERTEX
8
OBJECT__9
10
0.000000
20
-26.000000
30
50.000000
70
192
0
VERTEX
8
OBJECT__9
10
14.057000
20
21.872999
30
50.000000
70
192
0
VERTEX
8
OBJECT__9
10
0
20
0
30
0
70
128
71
1
72
2
73
3
0
VERTEX
8
OBJECT__9
10
0
20
0
30
0
70
128
71
3
72
4
73
1
0
VERTEX
8
OBJECT__9
10
0
20
0
30
0
70
128
71
5
72
6
73
7
0
VERTEX
8
OBJECT__9
10
0
20
0
30
0
70
128
71
8
72
1
73
9
0
VERTEX
8
OBJECT__9
10
0
20
0
30
0
70
128
71
1
72
10
73
2
0
VERTEX
8
OBJECT__9
10
0
20
0
30
0
70
128
71
9
72
5
73
8
0
VERTEX
8
OBJECT__9
10
0
20
0
30
0
70
128
71
1
72
11
73
10
0
VERTEX
8
OBJECT__9
10
0
20
0
30
0
70
128
71
7
72
8
73
5
0
VERTEX
8
OBJECT__9
10
0
20
0
30
0
70
128
71
8
72
11
73
1
0
VERTEX
8
OBJECT__9
10
0
20
0
30
0
70
128
71
4
72
12
73
1
0
SEQEND
8
OBJECT__9
0
POLYLINE
8
OBJECT__10
66
1
70
64
71
26
72
26
62
253
0
VERTEX
8
OBJECT__10
10
0.000000
20
-28.500000
30
38.500000
70
192
0
VERTEX
8
OBJECT__10
10
-9.546000
20
-28.500000
30
34.546001
70
192
0
VERTEX
8
OBJECT__10
10
-7.299000
20
-37.000000
30
36.356998
70
192
0
VERTEX
8
OBJECT__10
10
-9.159000
20
-37.000000
30
34.209999
70
192
0
VERTEX
8
OBJECT__10
10
-13.500000
20
-28.500000
30
25.000000
70
192
0
VERTEX
8
OBJECT__10
10
-13.095000
20
-37.000000
30
24.941999
70
192
0
VERTEX
8
OBJECT__10
10
-12.280000
20
-37.000000
30
30.608000
70
192
0
VERTEX
8
OBJECT__10
10
-9.546000
20
-28.500000
30
15.454000
70
192
0
VERTEX
8
OBJECT__10
10
-10.203000
20
-37.000000
30
16.159000
70
192
0
VERTEX
8
OBJECT__10
10
-13.363000
20
-37.000000
30
23.079000
70
192
0
VERTEX
8
OBJECT__10
10
-9.417000
20
-37.000000
30
15.655000
70
192
0
VERTEX
8
OBJECT__10
10
0.000000
20
-28.500000
30
11.500000
70
192
0
VERTEX
8
OBJECT__10
10
-3.803000
20
-37.000000
30
12.047000
70
192
0
VERTEX
8
OBJECT__10
10
0.000000
20
-37.000000
30
12.047000
70
192
0
VERTEX
8
OBJECT__10
10
9.546000
20
-28.500000
30
15.454000
70
192
0
VERTEX
8
OBJECT__10
10
9.417000
20
-37.000000
30
15.655000
70
192
0
VERTEX
8
OBJECT__10
10
3.803000
20
-37.000000
30
12.047000
70
192
0
VERTEX
8
OBJECT__10
10
13.500000
20
-28.500000
30
25.000000
70
192
0
VERTEX
8
OBJECT__10
10
13.363000
20
-37.000000
30
23.079000
70
192
0
VERTEX
8
OBJECT__10
10
10.203000
20
-37.000000
30
16.159000
70
192
0
VERTEX
8
OBJECT__10
10
13.095000
20
-37.000000
30
24.941999
70
192
0
VERTEX
8
OBJECT__10
10
9.546000
20
-28.500000
30
34.546001
70
192
0
VERTEX
8
OBJECT__10
10
12.280000
20
-37.000000
30
30.608000
70
192
0
VERTEX
8
OBJECT__10
10
9.159000
20
-37.000000
30
34.209999
70
192
0
VERTEX
8
OBJECT__10
10
0.000000
20
-37.000000
30
38.500000
70
192
0
VERTEX
8
OBJECT__10
10
7.299000
20
-37.000000
30
36.356998
70
192
0
VERTEX
8
OBJECT__10
10
0
20
0
30
0
70
128
71
1
72
2
73
3
0
VERTEX
8
OBJECT__10
10
0
20
0
30
0
70
128
71
2
72
4
73
3
0
VERTEX
8
OBJECT__10
10
0
20
0
30
0
70
128
71
5
72
6
73
7
0
VERTEX
8
OBJECT__10
10
0
20
0
30
0
70
128
71
7
72
2
73
5
0
VERTEX
8
OBJECT__10
10
0
20
0
30
0
70
128
71
8
72
9
73
10
0
VERTEX
8
OBJECT__10
10
0
20
0
30
0
70
128
71
10
72
5
73
8
0
VERTEX
8
OBJECT__10
10
0
20
0
30
0
70
128
71
8
72
11
73
9
0
VERTEX
8
OBJECT__10
10
0
20
0
30
0
70
128
71
8
72
12
73
13
0
VERTEX
8
OBJECT__10
10
0
20
0
30
0
70
128
71
12
72
14
73
13
0
VERTEX
8
OBJECT__10
10
0
20
0
30
0
70
128
71
15
72
16
73
17
0
VERTEX
8
OBJECT__10
10
0
20
0
30
0
70
128
71
17
72
12
73
15
0
VERTEX
8
OBJECT__10
10
0
20
0
30
0
70
128
71
15
72
18
73
19
0
VERTEX
8
OBJECT__10
10
0
20
0
30
0
70
128
71
19
72
20
73
15
0
VERTEX
8
OBJECT__10
10
0
20
0
30
0
70
128
71
18
72
21
73
19
0
VERTEX
8
OBJECT__10
10
0
20
0
30
0
70
128
71
18
72
22
73
23
0
VERTEX
8
OBJECT__10
10
0
20
0
30
0
70
128
71
22
72
24
73
23
0
VERTEX
8
OBJECT__10
10
0
20
0
30
0
70
128
71
1
72
25
73
26
0
VERTEX
8
OBJECT__10
10
0
20
0
30
0
70
128
71
26
72
22
73
1
0
VERTEX
8
OBJECT__10
10
0
20
0
30
0
70
128
71
26
72
24
73
22
0
VERTEX
8
OBJECT__10
10
0
20
0
30
0
70
128
71
23
72
21
73
18
0
VERTEX
8
OBJECT__10
10
0
20
0
30
0
70
128
71
20
72
16
73
15
0
VERTEX
8
OBJECT__10
10
0
20
0
30
0
70
128
71
17
72
14
73
12
0
VERTEX
8
OBJECT__10
10
0
20
0
30
0
70
128
71
13
72
11
73
8
0
VERTEX
8
OBJECT__10
10
0
20
0
30
0
70
128
71
10
72
6
73
5
0
VERTEX
8
OBJECT__10
10
0
20
0
30
0
70
128
71
7
72
4
73
2
0
VERTEX
8
OBJECT__10
10
0
20
0
30
0
70
128
71
3
72
25
73
1
0
SEQEND
8
OBJECT__10
0
POLYLINE
8
OBJECT__11
66
1
70
64
71
80
72
124
62
253
0
VERTEX
8
OBJECT__11
10
7.299000
20
-39.207001
30
36.707001
70
192
0
VERTEX
8
OBJECT__11
10
7.299000
20
-37.000000
30
36.356998
70
192
0
VERTEX
8
OBJECT__11
10
0.000000
20
-37.000000
30
38.500000
70
192
0
VERTEX
8
OBJECT__11
10
0.000000
20
-38.544998
30
38.744999
70
192
0
VERTEX
8
OBJECT__11
10
0.000000
20
-39.938999
30
39.455002
70
192
0
VERTEX
8
OBJECT__11
10
7.299000
20
-41.199001
30
37.721001
70
192
0
VERTEX
8
OBJECT__11
10
0.000000
20
-41.044998
30
40.561001
70
192
0
VERTEX
8
OBJECT__11
10
7.299000
20
-42.778999
30
39.300999
70
192
0
VERTEX
8
OBJECT__11
10
0.000000
20
-41.755001
30
41.955002
70
192
0
VERTEX
8
OBJECT__11
10
7.299000
20
-43.792999
30
41.292999
70
192
0
VERTEX
8
OBJECT__11
10
0.000000
20
-42.000000
30
43.500000
70
192
0
VERTEX
8
OBJECT__11
10
12.280000
20
-40.984001
30
31.239000
70
192
0
VERTEX
8
OBJECT__11
10
9.159000
20
-37.000000
30
34.209999
70
192
0
VERTEX
8
OBJECT__11
10
12.280000
20
-37.000000
30
30.608000
70
192
0
VERTEX
8
OBJECT__11
10
12.280000
20
-44.577999
30
33.070000
70
192
0
VERTEX
8
OBJECT__11
10
12.280000
20
-47.430000
30
35.922001
70
192
0
VERTEX
8
OBJECT__11
10
12.280000
20
-49.261002
30
39.515999
70
192
0
VERTEX
8
OBJECT__11
10
7.299000
20
-44.143002
30
43.500000
70
192
0
VERTEX
8
OBJECT__11
10
9.159000
20
-46.290001
30
43.500000
70
192
0
VERTEX
8
OBJECT__11
10
13.095000
20
-37.000000
30
24.941999
70
192
0
VERTEX
8
OBJECT__11
10
13.363000
20
-43.311001
30
24.077999
70
192
0
VERTEX
8
OBJECT__11
10
13.363000
20
-37.000000
30
23.079000
70
192
0
VERTEX
8
OBJECT__11
10
13.363000
20
-49.002998
30
26.979000
70
192
0
VERTEX
8
OBJECT__11
10
13.363000
20
-53.521000
30
31.497000
70
192
0
VERTEX
8
OBJECT__11
10
13.363000
20
-56.422001
30
37.188999
70
192
0
VERTEX
8
OBJECT__11
10
13.095000
20
-55.557999
30
43.500000
70
192
0
VERTEX
8
OBJECT__11
10
12.280000
20
-49.891998
30
43.500000
70
192
0
VERTEX
8
OBJECT__11
10
10.203000
20
-45.449001
30
17.497999
70
192
0
VERTEX
8
OBJECT__11
10
10.203000
20
-37.000000
30
16.159000
70
192
0
VERTEX
8
OBJECT__11
10
10.203000
20
-53.070000
30
21.381001
70
192
0
VERTEX
8
OBJECT__11
10
10.203000
20
-59.118999
30
27.430000
70
192
0
VERTEX
8
OBJECT__11
10
10.203000
20
-63.001999
30
35.050999
70
192
0
VERTEX
8
OBJECT__11
10
10.203000
20
-64.341003
30
43.500000
70
192
0
VERTEX
8
OBJECT__11
10
3.803000
20
-46.720001
30
13.586000
70
192
0
VERTEX
8
OBJECT__11
10
3.803000
20
-37.000000
30
12.047000
70
192
0
VERTEX
8
OBJECT__11
10
9.417000
20
-37.000000
30
15.655000
70
192
0
VERTEX
8
OBJECT__11
10
3.803000
20
-55.487999
30
18.054001
70
192
0
VERTEX
8
OBJECT__11
10
3.803000
20
-62.445999
30
25.011999
70
192
0
VERTEX
8
OBJECT__11
10
3.803000
20
-66.914001
30
33.779999
70
192
0
VERTEX
8
OBJECT__11
10
9.417000
20
-64.845001
30
43.500000
70
192
0
VERTEX
8
OBJECT__11
10
-3.803000
20
-46.720001
30
13.586000
70
192
0
VERTEX
8
OBJECT__11
10
0.000000
20
-37.000000
30
12.047000
70
192
0
VERTEX
8
OBJECT__11
10
-3.803000
20
-37.000000
30
12.047000
70
192
0
VERTEX
8
OBJECT__11
10
-3.803000
20
-55.487999
30
18.054001
70
192
0
VERTEX
8
OBJECT__11
10
-3.803000
20
-62.445999
30
25.011999
70
192
0
VERTEX
8
OBJECT__11
10
-3.803000
20
-66.914001
30
33.779999
70
192
0
VERTEX
8
OBJECT__11
10
3.803000
20
-68.453003
30
43.500000
70
192
0
VERTEX
8
OBJECT__11
10
0.000000
20
-68.453003
30
43.500000
70
192
0
VERTEX
8
OBJECT__11
10
-10.203000
20
-45.449001
30
17.497999
70
192
0
VERTEX
8
OBJECT__11
10
-9.417000
20
-37.000000
30
15.655000
70
192
0
VERTEX
8
OBJECT__11
10
-10.203000
20
-37.000000
30
16.159000
70
192
0
VERTEX
8
OBJECT__11
10
-10.203000
20
-53.070000
30
21.381001
70
192
0
VERTEX
8
OBJECT__11
10
-10.203000
20
-59.118999
30
27.430000
70
192
0
VERTEX
8
OBJECT__11
10
-10.203000
20
-63.001999
30
35.050999
70
192
0
VERTEX
8
OBJECT__11
10
-3.803000
20
-68.453003
30
43.500000
70
192
0
VERTEX
8
OBJECT__11
10
-9.417000
20
-64.845001
30
43.500000
70
192
0
VERTEX
8
OBJECT__11
10
-13.363000
20
-43.311001
30
24.077999
70
192
0
VERTEX
8
OBJECT__11
10
-13.363000
20
-49.002998
30
26.979000
70
192
0
VERTEX
8
OBJECT__11
10
-13.363000
20
-53.521000
30
31.497000
70
192
0
VERTEX
8
OBJECT__11
10
-13.363000
20
-56.422001
30
37.188999
70
192
0
VERTEX
8
OBJECT__11
10
-10.203000
20
-64.341003
30
43.500000
70
192
0
VERTEX
8
OBJECT__11
10
-13.363000
20
-57.421001
30
43.500000
70
192
0
VERTEX
8
OBJECT__11
10
-13.095000
20
-37.000000
30
24.941999
70
192
0
VERTEX
8
OBJECT__11
10
-12.280000
20
-40.984001
30
31.239000
70
192
0
VERTEX
8
OBJECT__11
10
-12.280000
20
-37.000000
30
30.608000
70
192
0
VERTEX
8
OBJECT__11
10
-12.280000
20
-44.577999
30
33.070000
70
192
0
VERTEX
8
OBJECT__11
10
-12.280000
20
-47.430000
30
35.922001
70
192
0
VERTEX
8
OBJECT__11
10
-12.280000
20
-49.261002
30
39.515999
70
192
0
VERTEX
8
OBJECT__11
10
-13.095000
20
-55.557999
30
43.500000
70
192
0
VERTEX
8
OBJECT__11
10
-12.280000
20
-49.891998
30
43.500000
70
192
0
VERTEX
8
OBJECT__11
10
-7.299000
20
-39.207001
30
36.707001
70
192
0
VERTEX
8
OBJECT__11
10
-7.299000
20
-37.000000
30
36.356998
70
192
0
VERTEX
8
OBJECT__11
10
-9.159000
20
-37.000000
30
34.209999
70
192
0
VERTEX
8
OBJECT__11
10
-7.299000
20
-41.199001
30
37.721001
70
192
0
VERTEX
8
OBJECT__11
10
-7.299000
20
-42.778999
30
39.300999
70
192
0
VERTEX
8
OBJECT__11
10
-7.299000
20
-43.792999
30
41.292999
70
192
0
VERTEX
8
OBJECT__11
10
-9.159000
20
-46.290001
30
43.500000
70
192
0
VERTEX
8
OBJECT__11
10
-7.299000
20
-44.143002
30
43.500000
70
192
0
VERTEX
8
OBJECT__11
10
-13.363000
20
-37.000000
30
23.079000
70
192
0
VERTEX
8
OBJECT__11
10
13.363000
20
-57.421001
30
43.500000
70
192
0
VERTEX
8
OBJECT__11
10
0
20
0
30
0
70
128
71
1
72
2
73
3
0
VERTEX
8
OBJECT__11
10
0
20
0
30
0
70
128
71
4
72
5
73
6
0
VERTEX
8
OBJECT__11
10
0
20
0
30
0
70
128
71
5
72
7
73
8
0
VERTEX
8
OBJECT__11
10
0
20
0
30
0
70
128
71
7
72
9
73
10
0
VERTEX
8
OBJECT__11
10
0
20
0
30
0
70
128
71
10
72
9
73
11
0
VERTEX
8
OBJECT__11
10
0
20
0
30
0
70
128
71
1
72
12
73
13
0
VERTEX
8
OBJECT__11
10
0
20
0
30
0
70
128
71
12
72
14
73
13
0
VERTEX
8
OBJECT__11
10
0
20
0
30
0
70
128
71
1
72
6
73
15
0
VERTEX
8
OBJECT__11
10
0
20
0
30
0
70
128
71
6
72
8
73
16
0
VERTEX
8
OBJECT__11
10
0
20
0
30
0
70
128
71
8
72
10
73
17
0
VERTEX
8
OBJECT__11
10
0
20
0
30
0
70
128
71
10
72
18
73
19
0
VERTEX
8
OBJECT__11
10
0
20
0
30
0
70
128
71
19
72
17
73
10
0
VERTEX
8
OBJECT__11
10
0
20
0
30
0
70
128
71
20
72
14
73
12
0
VERTEX
8
OBJECT__11
10
0
20
0
30
0
70
128
71
21
72
22
73
20
0
VERTEX
8
OBJECT__11
10
0
20
0
30
0
70
128
71
12
72
15
73
23
0
VERTEX
8
OBJECT__11
10
0
20
0
30
0
70
128
71
15
72
16
73
24
0
VERTEX
8
OBJECT__11
10
0
20
0
30
0
70
128
71
16
72
17
73
25
0
VERTEX
8
OBJECT__11
10
0
20
0
30
0
70
128
71
26
72
25
73
17
0
VERTEX
8
OBJECT__11
10
0
20
0
30
0
70
128
71
17
72
27
73
26
0
VERTEX
8
OBJECT__11
10
0
20
0
30
0
70
128
71
28
72
29
73
22
0
VERTEX
8
OBJECT__11
10
0
20
0
30
0
70
128
71
21
72
23
73
30
0
VERTEX
8
OBJECT__11
10
0
20
0
30
0
70
128
71
23
72
24
73
31
0
VERTEX
8
OBJECT__11
10
0
20
0
30
0
70
128
71
24
72
25
73
32
0
VERTEX
8
OBJECT__11
10
0
20
0
30
0
70
128
71
33
72
32
73
25
0
VERTEX
8
OBJECT__11
10
0
20
0
30
0
70
128
71
34
72
35
73
36
0
VERTEX
8
OBJECT__11
10
0
20
0
30
0
70
128
71
36
72
28
73
34
0
VERTEX
8
OBJECT__11
10
0
20
0
30
0
70
128
71
28
72
30
73
37
0
VERTEX
8
OBJECT__11
10
0
20
0
30
0
70
128
71
30
72
31
73
38
0
VERTEX
8
OBJECT__11
10
0
20
0
30
0
70
128
71
31
72
32
73
39
0
VERTEX
8
OBJECT__11
10
0
20
0
30
0
70
128
71
39
72
32
73
40
0
VERTEX
8
OBJECT__11
10
0
20
0
30
0
70
128
71
32
72
33
73
40
0
VERTEX
8
OBJECT__11
10
0
20
0
30
0
70
128
71
34
72
41
73
42
0
VERTEX
8
OBJECT__11
10
0
20
0
30
0
70
128
71
41
72
43
73
42
0
VERTEX
8
OBJECT__11
10
0
20
0
30
0
70
128
71
34
72
37
73
44
0
VERTEX
8
OBJECT__11
10
0
20
0
30
0
70
128
71
37
72
38
73
45
0
VERTEX
8
OBJECT__11
10
0
20
0
30
0
70
128
71
38
72
39
73
46
0
VERTEX
8
OBJECT__11
10
0
20
0
30
0
70
128
71
39
72
47
73
48
0
VERTEX
8
OBJECT__11
10
0
20
0
30
0
70
128
71
48
72
46
73
39
0
VERTEX
8
OBJECT__11
10
0
20
0
30
0
70
128
71
41
72
49
73
50
0
VERTEX
8
OBJECT__11
10
0
20
0
30
0
70
128
71
49
72
51
73
50
0
VERTEX
8
OBJECT__11
10
0
20
0
30
0
70
128
71
41
72
44
73
52
0
VERTEX
8
OBJECT__11
10
0
20
0
30
0
70
128
71
44
72
45
73
53
0
VERTEX
8
OBJECT__11
10
0
20
0
30
0
70
128
71
45
72
46
73
54
0
VERTEX
8
OBJECT__11
10
0
20
0
30
0
70
128
71
46
72
55
73
56
0
VERTEX
8
OBJECT__11
10
0
20
0
30
0
70
128
71
56
72
54
73
46
0
VERTEX
8
OBJECT__11
10
0
20
0
30
0
70
128
71
51
72
49
73
57
0
VERTEX
8
OBJECT__11
10
0
20
0
30
0
70
128
71
49
72
52
73
58
0
VERTEX
8
OBJECT__11
10
0
20
0
30
0
70
128
71
52
72
53
73
59
0
VERTEX
8
OBJECT__11
10
0
20
0
30
0
70
128
71
53
72
54
73
60
0
VERTEX
8
OBJECT__11
10
0
20
0
30
0
70
128
71
61
72
62
73
60
0
VERTEX
8
OBJECT__11
10
0
20
0
30
0
70
128
71
63
72
57
73
64
0
VERTEX
8
OBJECT__11
10
0
20
0
30
0
70
128
71
64
72
65
73
63
0
VERTEX
8
OBJECT__11
10
0
20
0
30
0
70
128
71
57
72
58
73
66
0
VERTEX
8
OBJECT__11
10
0
20
0
30
0
70
128
71
58
72
59
73
67
0
VERTEX
8
OBJECT__11
10
0
20
0
30
0
70
128
71
59
72
60
73
68
0
VERTEX
8
OBJECT__11
10
0
20
0
30
0
70
128
71
69
72
70
73
68
0
VERTEX
8
OBJECT__11
10
0
20
0
30
0
70
128
71
60
72
62
73
69
0
VERTEX
8
OBJECT__11
10
0
20
0
30
0
70
128
71
71
72
72
73
73
0
VERTEX
8
OBJECT__11
10
0
20
0
30
0
70
128
71
73
72
64
73
71
0
VERTEX
8
OBJECT__11
10
0
20
0
30
0
70
128
71
64
72
66
73
74
0
VERTEX
8
OBJECT__11
10
0
20
0
30
0
70
128
71
66
72
67
73
75
0
VERTEX
8
OBJECT__11
10
0
20
0
30
0
70
128
71
67
72
68
73
76
0
VERTEX
8
OBJECT__11
10
0
20
0
30
0
70
128
71
76
72
68
73
77
0
VERTEX
8
OBJECT__11
10
0
20
0
30
0
70
128
71
68
72
70
73
77
0
VERTEX
8
OBJECT__11
10
0
20
0
30
0
70
128
71
71
72
4
73
3
0
VERTEX
8
OBJECT__11
10
0
20
0
30
0
70
128
71
71
72
74
73
5
0
VERTEX
8
OBJECT__11
10
0
20
0
30
0
70
128
71
74
72
75
73
7
0
VERTEX
8
OBJECT__11
10
0
20
0
30
0
70
128
71
75
72
76
73
9
0
VERTEX
8
OBJECT__11
10
0
20
0
30
0
70
128
71
76
72
78
73
11
0
VERTEX
8
OBJECT__11
10
0
20
0
30
0
70
128
71
11
72
9
73
76
0
VERTEX
8
OBJECT__11
10
0
20
0
30
0
70
128
71
9
72
7
73
75
0
VERTEX
8
OBJECT__11
10
0
20
0
30
0
70
128
71
7
72
5
73
74
0
VERTEX
8
OBJECT__11
10
0
20
0
30
0
70
128
71
5
72
4
73
71
0
VERTEX
8
OBJECT__11
10
0
20
0
30
0
70
128
71
3
72
72
73
71
0
VERTEX
8
OBJECT__11
10
0
20
0
30
0
70
128
71
77
72
78
73
76
0
VERTEX
8
OBJECT__11
10
0
20
0
30
0
70
128
71
76
72
75
73
67
0
VERTEX
8
OBJECT__11
10
0
20
0
30
0
70
128
71
75
72
74
73
66
0
VERTEX
8
OBJECT__11
10
0
20
0
30
0
70
128
71
74
72
71
73
64
0
VERTEX
8
OBJECT__11
10
0
20
0
30
0
70
128
71
73
72
65
73
64
0
VERTEX
8
OBJECT__11
10
0
20
0
30
0
70
128
71
68
72
60
73
69
0
VERTEX
8
OBJECT__11
10
0
20
0
30
0
70
128
71
68
72
67
73
59
0
VERTEX
8
OBJECT__11
10
0
20
0
30
0
70
128
71
67
72
66
73
58
0
VERTEX
8
OBJECT__11
10
0
20
0
30
0
70
128
71
66
72
64
73
57
0
VERTEX
8
OBJECT__11
10
0
20
0
30
0
70
128
71
63
72
79
73
57
0
VERTEX
8
OBJECT__11
10
0
20
0
30
0
70
128
71
60
72
54
73
61
0
VERTEX
8
OBJECT__11
10
0
20
0
30
0
70
128
71
60
72
59
73
53
0
VERTEX
8
OBJECT__11
10
0
20
0
30
0
70
128
71
59
72
58
73
52
0
VERTEX
8
OBJECT__11
10
0
20
0
30
0
70
128
71
58
72
57
73
49
0
VERTEX
8
OBJECT__11
10
0
20
0
30
0
70
128
71
57
72
79
73
51
0
VERTEX
8
OBJECT__11
10
0
20
0
30
0
70
128
71
56
72
61
73
54
0
VERTEX
8
OBJECT__11
10
0
20
0
30
0
70
128
71
54
72
53
73
45
0
VERTEX
8
OBJECT__11
10
0
20
0
30
0
70
128
71
53
72
52
73
44
0
VERTEX
8
OBJECT__11
10
0
20
0
30
0
70
128
71
52
72
49
73
41
0
VERTEX
8
OBJECT__11
10
0
20
0
30
0
70
128
71
50
72
43
73
41
0
VERTEX
8
OBJECT__11
10
0
20
0
30
0
70
128
71
48
72
55
73
46
0
VERTEX
8
OBJECT__11
10
0
20
0
30
0
70
128
71
46
72
45
73
38
0
VERTEX
8
OBJECT__11
10
0
20
0
30
0
70
128
71
45
72
44
73
37
0
VERTEX
8
OBJECT__11
10
0
20
0
30
0
70
128
71
44
72
41
73
34
0
VERTEX
8
OBJECT__11
10
0
20
0
30
0
70
128
71
42
72
35
73
34
0
VERTEX
8
OBJECT__11
10
0
20
0
30
0
70
128
71
40
72
47
73
39
0
VERTEX
8
OBJECT__11
10
0
20
0
30
0
70
128
71
39
72
38
73
31
0
VERTEX
8
OBJECT__11
10
0
20
0
30
0
70
128
71
38
72
37
73
30
0
VERTEX
8
OBJECT__11
10
0
20
0
30
0
70
128
71
37
72
34
73
28
0
VERTEX
8
OBJECT__11
10
0
20
0
30
0
70
128
71
36
72
29
73
28
0
VERTEX
8
OBJECT__11
10
0
20
0
30
0
70
128
71
25
72
80
73
33
0
VERTEX
8
OBJECT__11
10
0
20
0
30
0
70
128
71
32
72
31
73
24
0
VERTEX
8
OBJECT__11
10
0
20
0
30
0
70
128
71
31
72
30
73
23
0
VERTEX
8
OBJECT__11
10
0
20
0
30
0
70
128
71
30
72
28
73
21
0
VERTEX
8
OBJECT__11
10
0
20
0
30
0
70
128
71
22
72
21
73
28
0
VERTEX
8
OBJECT__11
10
0
20
0
30
0
70
128
71
26
72
80
73
25
0
VERTEX
8
OBJECT__11
10
0
20
0
30
0
70
128
71
25
72
24
73
16
0
VERTEX
8
OBJECT__11
10
0
20
0
30
0
70
128
71
24
72
23
73
15
0
VERTEX
8
OBJECT__11
10
0
20
0
30
0
70
128
71
23
72
21
73
12
0
VERTEX
8
OBJECT__11
10
0
20
0
30
0
70
128
71
12
72
21
73
20
0
VERTEX
8
OBJECT__11
10
0
20
0
30
0
70
128
71
19
72
27
73
17
0
VERTEX
8
OBJECT__11
10
0
20
0
30
0
70
128
71
17
72
16
73
8
0
VERTEX
8
OBJECT__11
10
0
20
0
30
0
70
128
71
16
72
15
73
6
0
VERTEX
8
OBJECT__11
10
0
20
0
30
0
70
128
71
15
72
12
73
1
0
VERTEX
8
OBJECT__11
10
0
20
0
30
0
70
128
71
13
72
2
73
1
0
VERTEX
8
OBJECT__11
10
0
20
0
30
0
70
128
71
11
72
18
73
10
0
VERTEX
8
OBJECT__11
10
0
20
0
30
0
70
128
71
10
72
8
73
7
0
VERTEX
8
OBJECT__11
10
0
20
0
30
0
70
128
71
8
72
6
73
5
0
VERTEX
8
OBJECT__11
10
0
20
0
30
0
70
128
71
6
72
1
73
4
0
VERTEX
8
OBJECT__11
10
0
20
0
30
0
70
128
71
3
72
4
73
1
0
SEQEND
8
OBJECT__11
0
POLYLINE
8
OBJECT__13
66
1
70
64
71
26
72
26
62
253
0
VERTEX
8
OBJECT__13
10
0.000000
20
-42.000000
30
75.500000
70
192
0
VERTEX
8
OBJECT__13
10
0.000000
20
-42.000000
30
43.500000
70
192
0
VERTEX
8
OBJECT__13
10
-7.299000
20
-44.143002
30
43.500000
70
192
0
VERTEX
8
OBJECT__13
10
-9.546000
20
-45.953999
30
75.500000
70
192
0
VERTEX
8
OBJECT__13
10
-13.500000
20
-55.500000
30
75.500000
70
192
0
VERTEX
8
OBJECT__13
10
-12.280000
20
-49.891998
30
43.500000
70
192
0
VERTEX
8
OBJECT__13
10
-9.159000
20
-46.290001
30
43.500000
70
192
0
VERTEX
8
OBJECT__13
10
-9.546000
20
-65.045998
30
75.500000
70
192
0
VERTEX
8
OBJECT__13
10
-13.363000
20
-57.421001
30
43.500000
70
192
0
VERTEX
8
OBJECT__13
10
-10.203000
20
-64.341003
30
43.500000
70
192
0
VERTEX
8
OBJECT__13
10
-13.095000
20
-55.557999
30
43.500000
70
192
0
VERTEX
8
OBJECT__13
10
-9.417000
20
-64.845001
30
43.500000
70
192
0
VERTEX
8
OBJECT__13
10
-3.803000
20
-68.453003
30
43.500000
70
192
0
VERTEX
8
OBJECT__13
10
0.000000
20
-69.000000
30
75.500000
70
192
0
VERTEX
8
OBJECT__13
10
9.546000
20
-65.045998
30
75.500000
70
192
0
VERTEX
8
OBJECT__13
10
3.803000
20
-68.453003
30
43.500000
70
192
0
VERTEX
8
OBJECT__13
10
0.000000
20
-68.453003
30
43.500000
70
192
0
VERTEX
8
OBJECT__13
10
10.203000
20
-64.341003
30
43.500000
70
192
0
VERTEX
8
OBJECT__13
10
13.363000
20
-57.421001
30
43.500000
70
192
0
VERTEX
8
OBJECT__13
10
13.500000
20
-55.500000
30
75.500000
70
192
0
VERTEX
8
OBJECT__13
10
9.417000
20
-64.845001
30
43.500000
70
192
0
VERTEX
8
OBJECT__13
10
13.095000
20
-55.557999
30
43.500000
70
192
0
VERTEX
8
OBJECT__13
10
12.280000
20
-49.891998
30
43.500000
70
192
0
VERTEX
8
OBJECT__13
10
9.546000
20
-45.953999
30
75.500000
70
192
0
VERTEX
8
OBJECT__13
10
7.299000
20
-44.143002
30
43.500000
70
192
0
VERTEX
8
OBJECT__13
10
9.159000
20
-46.290001
30
43.500000
70
192
0
VERTEX
8
OBJECT__13
10
0
20
0
30
0
70
128
71
1
72
2
73
3
0
VERTEX
8
OBJECT__13
10
0
20
0
30
0
70
128
71
3
72
4
73
1
0
VERTEX
8
OBJECT__13
10
0
20
0
30
0
70
128
71
5
72
4
73
6
0
VERTEX
8
OBJECT__13
10
0
20
0
30
0
70
128
71
4
72
7
73
6
0
VERTEX
8
OBJECT__13
10
0
20
0
30
0
70
128
71
8
72
5
73
9
0
VERTEX
8
OBJECT__13
10
0
20
0
30
0
70
128
71
9
72
10
73
8
0
VERTEX
8
OBJECT__13
10
0
20
0
30
0
70
128
71
5
72
11
73
9
0
VERTEX
8
OBJECT__13
10
0
20
0
30
0
70
128
71
8
72
12
73
13
0
VERTEX
8
OBJECT__13
10
0
20
0
30
0
70
128
71
13
72
14
73
8
0
VERTEX
8
OBJECT__13
10
0
20
0
30
0
70
128
71
15
72
14
73
16
0
VERTEX
8
OBJECT__13
10
0
20
0
30
0
70
128
71
14
72
17
73
16
0
VERTEX
8
OBJECT__13
10
0
20
0
30
0
70
128
71
15
72
18
73
19
0
VERTEX
8
OBJECT__13
10
0
20
0
30
0
70
128
71
19
72
20
73
15
0
VERTEX
8
OBJECT__13
10
0
20
0
30
0
70
128
71
15
72
21
73
18
0
VERTEX
8
OBJECT__13
10
0
20
0
30
0
70
128
71
20
72
22
73
23
0
VERTEX
8
OBJECT__13
10
0
20
0
30
0
70
128
71
23
72
24
73
20
0
VERTEX
8
OBJECT__13
10
0
20
0
30
0
70
128
71
1
72
24
73
25
0
VERTEX
8
OBJECT__13
10
0
20
0
30
0
70
128
71
24
72
26
73
25
0
VERTEX
8
OBJECT__13
10
0
20
0
30
0
70
128
71
25
72
2
73
1
0
VERTEX
8
OBJECT__13
10
0
20
0
30
0
70
128
71
23
72
26
73
24
0
VERTEX
8
OBJECT__13
10
0
20
0
30
0
70
128
71
19
72
22
73
20
0
VERTEX
8
OBJECT__13
10
0
20
0
30
0
70
128
71
16
72
21
73
15
0
VERTEX
8
OBJECT__13
10
0
20
0
30
0
70
128
71
13
72
17
73
14
0
VERTEX
8
OBJECT__13
10
0
20
0
30
0
70
128
71
10
72
12
73
8
0
VERTEX
8
OBJECT__13
10
0
20
0
30
0
70
128
71
6
72
11
73
5
0
VERTEX
8
OBJECT__13
10
0
20
0
30
0
70
128
71
3
72
7
73
4
0
SEQEND
8
OBJECT__13
0
POLYLINE
8
OBJECT__14
66
1
70
64
71
16
72
16
62
253
0
VERTEX
8
OBJECT__14
10
-9.546000
20
-65.045998
30
75.500000
70
192
0
VERTEX
8
OBJECT__14
10
0.000000
20
-69.000000
30
75.500000
70
192
0
VERTEX
8
OBJECT__14
10
0.000000
20
-68.500000
30
76.000000
70
192
0
VERTEX
8
OBJECT__14
10
-9.192000
20
-64.692001
30
76.000000
70
192
0
VERTEX
8
OBJECT__14
10
-13.000000
20
-55.500000
30
76.000000
70
192
0
VERTEX
8
OBJECT__14
10
-9.546000
20
-45.953999
30
75.500000
70
192
0
VERTEX
8
OBJECT__14
10
-13.500000
20
-55.500000
30
75.500000
70
192
0
VERTEX
8
OBJECT__14
10
-9.192000
20
-46.307999
30
76.000000
70
192
0
VERTEX
8
OBJECT__14
10
0.000000
20
-42.500000
30
76.000000
70
192
0
VERTEX
8
OBJECT__14
10
0.000000
20
-42.000000
30
75.500000
70
192
0
VERTEX
8
OBJECT__14
10
9.192000
20
-46.307999
30
76.000000
70
192
0
VERTEX
8
OBJECT__14
10
9.546000
20
-45.953999
30
75.500000
70
192
0
VERTEX
8
OBJECT__14
10
13.000000
20
-55.500000
30
76.000000
70
192
0
VERTEX
8
OBJECT__14
10
9.546000
20
-65.045998
30
75.500000
70
192
0
VERTEX
8
OBJECT__14
10
13.500000
20
-55.500000
30
75.500000
70
192
0
VERTEX
8
OBJECT__14
10
9.192000
20
-64.692001
30
76.000000
70
192
0
VERTEX
8
OBJECT__14
10
0
20
0
30
0
70
128
71
1
72
2
73
3
0
VERTEX
8
OBJECT__14
10
0
20
0
30
0
70
128
71
1
72
4
73
5
0
VERTEX
8
OBJECT__14
10
0
20
0
30
0
70
128
71
6
72
7
73
5
0
VERTEX
8
OBJECT__14
10
0
20
0
30
0
70
128
71
6
72
8
73
9
0
VERTEX
8
OBJECT__14
10
0
20
0
30
0
70
128
71
10
72
9
73
11
0
VERTEX
8
OBJECT__14
10
0
20
0
30
0
70
128
71
12
72
11
73
13
0
VERTEX
8
OBJECT__14
10
0
20
0
30
0
70
128
71
14
72
15
73
13
0
VERTEX
8
OBJECT__14
10
0
20
0
30
0
70
128
71
2
72
14
73
16
0
VERTEX
8
OBJECT__14
10
0
20
0
30
0
70
128
71
16
72
3
73
2
0
VERTEX
8
OBJECT__14
10
0
20
0
30
0
70
128
71
13
72
16
73
14
0
VERTEX
8
OBJECT__14
10
0
20
0
30
0
70
128
71
13
72
15
73
12
0
VERTEX
8
OBJECT__14
10
0
20
0
30
0
70
128
71
11
72
12
73
10
0
VERTEX
8
OBJECT__14
10
0
20
0
30
0
70
128
71
9
72
10
73
6
0
VERTEX
8
OBJECT__14
10
0
20
0
30
0
70
128
71
5
72
8
73
6
0
VERTEX
8
OBJECT__14
10
0
20
0
30
0
70
128
71
5
72
7
73
1
0
VERTEX
8
OBJECT__14
10
0
20
0
30
0
70
128
71
3
72
4
73
1
0
SEQEND
8
OBJECT__14
0
POLYLINE
8
OBJECT__15
66
1
70
64
71
17
72
17
62
253
0
VERTEX
8
OBJECT__15
10
9.192000
20
-46.307999
30
76.000000
70
192
0
VERTEX
8
OBJECT__15
10
0.000000
20
-42.500000
30
76.000000
70
192
0
VERTEX
8
OBJECT__15
10
4.053000
20
-44.365002
30
76.000000
70
192
0
VERTEX
8
OBJECT__15
10
-4.053000
20
-44.365002
30
76.000000
70
192
0
VERTEX
8
OBJECT__15
10
-9.192000
20
-46.307999
30
76.000000
70
192
0
VERTEX
8
OBJECT__15
10
-10.262000
20
-49.575001
30
76.000000
70
192
0
VERTEX
8
OBJECT__15
10
13.000000
20
-55.500000
30
76.000000
70
192
0
VERTEX
8
OBJECT__15
10
10.262000
20
-49.575001
30
76.000000
70
192
0
VERTEX
8
OBJECT__15
10
-13.000000
20
-55.500000
30
76.000000
70
192
0
VERTEX
8
OBJECT__15
10
-11.670000
20
-57.557999
30
76.000000
70
192
0
VERTEX
8
OBJECT__15
10
-9.192000
20
-64.692001
30
76.000000
70
192
0
VERTEX
8
OBJECT__15
10
-7.617000
20
-64.578003
30
76.000000
70
192
0
VERTEX
8
OBJECT__15
10
0.000000
20
-68.500000
30
76.000000
70
192
0
VERTEX
8
OBJECT__15
10
0.000000
20
-67.349998
30
76.000000
70
192
0
VERTEX
8
OBJECT__15
10
9.192000
20
-64.692001
30
76.000000
70
192
0
VERTEX
8
OBJECT__15
10
7.617000
20
-64.578003
30
76.000000
70
192
0
VERTEX
8
OBJECT__15
10
11.670000
20
-57.557999
30
76.000000
70
192
0
VERTEX
8
OBJECT__15
10
0
20
0
30
0
70
128
71
1
72
2
73
3
0
VERTEX
8
OBJECT__15
10
0
20
0
30
0
70
128
71
2
72
4
73
3
0
VERTEX
8
OBJECT__15
10
0
20
0
30
0
70
128
71
5
72
6
73
4
0
VERTEX
8
OBJECT__15
10
0
20
0
30
0
70
128
71
7
72
1
73
8
0
VERTEX
8
OBJECT__15
10
0
20
0
30
0
70
128
71
4
72
2
73
5
0
VERTEX
8
OBJECT__15
10
0
20
0
30
0
70
128
71
9
72
10
73
6
0
VERTEX
8
OBJECT__15
10
0
20
0
30
0
70
128
71
11
72
12
73
10
0
VERTEX
8
OBJECT__15
10
0
20
0
30
0
70
128
71
13
72
14
73
12
0
VERTEX
8
OBJECT__15
10
0
20
0
30
0
70
128
71
13
72
15
73
16
0
VERTEX
8
OBJECT__15
10
0
20
0
30
0
70
128
71
3
72
8
73
1
0
VERTEX
8
OBJECT__15
10
0
20
0
30
0
70
128
71
10
72
9
73
11
0
VERTEX
8
OBJECT__15
10
0
20
0
30
0
70
128
71
16
72
14
73
13
0
VERTEX
8
OBJECT__15
10
0
20
0
30
0
70
128
71
15
72
7
73
17
0
VERTEX
8
OBJECT__15
10
0
20
0
30
0
70
128
71
6
72
5
73
9
0
VERTEX
8
OBJECT__15
10
0
20
0
30
0
70
128
71
17
72
16
73
15
0
VERTEX
8
OBJECT__15
10
0
20
0
30
0
70
128
71
12
72
11
73
13
0
VERTEX
8
OBJECT__15
10
0
20
0
30
0
70
128
71
8
72
17
73
7
0
SEQEND
8
OBJECT__15
0
POLYLINE
8
OBJECT__16
66
1
70
64
71
40
72
51
62
253
0
VERTEX
8
OBJECT__16
10
0.000000
20
-68.250000
30
78.110001
70
192
0
VERTEX
8
OBJECT__16
10
6.893000
20
-66.225998
30
78.110001
70
192
0
VERTEX
8
OBJECT__16
10
6.465000
20
-65.559998
30
80.140999
70
192
0
VERTEX
8
OBJECT__16
10
10.877000
20
-60.467999
30
80.140999
70
192
0
VERTEX
8
OBJECT__16
10
8.650000
20
-64.198997
30
78.110001
70
192
0
VERTEX
8
OBJECT__16
10
11.598000
20
-60.797001
30
78.110001
70
192
0
VERTEX
8
OBJECT__16
10
12.367000
20
-55.445000
30
78.110001
70
192
0
VERTEX
8
OBJECT__16
10
11.836000
20
-53.798000
30
80.140999
70
192
0
VERTEX
8
OBJECT__16
10
12.620000
20
-53.685001
30
78.110001
70
192
0
VERTEX
8
OBJECT__16
10
9.636000
20
-47.151001
30
78.110001
70
192
0
VERTEX
8
OBJECT__16
10
9.037000
20
-47.668999
30
80.140999
70
192
0
VERTEX
8
OBJECT__16
10
3.369000
20
-44.026001
30
80.140999
70
192
0
VERTEX
8
OBJECT__16
10
8.894000
20
-46.674000
30
78.110001
70
192
0
VERTEX
8
OBJECT__16
10
-3.369000
20
-44.026001
30
80.140999
70
192
0
VERTEX
8
OBJECT__16
10
0.000000
20
-43.265999
30
78.110001
70
192
0
VERTEX
8
OBJECT__16
10
3.592000
20
-43.265999
30
78.110001
70
192
0
VERTEX
8
OBJECT__16
10
-3.592000
20
-43.265999
30
78.110001
70
192
0
VERTEX
8
OBJECT__16
10
-8.894000
20
-46.674000
30
78.110001
70
192
0
VERTEX
8
OBJECT__16
10
-9.037000
20
-47.668999
30
80.140999
70
192
0
VERTEX
8
OBJECT__16
10
-9.636000
20
-47.151001
30
78.110001
70
192
0
VERTEX
8
OBJECT__16
10
-12.620000
20
-53.685001
30
78.110001
70
192
0
VERTEX
8
OBJECT__16
10
-11.836000
20
-53.798000
30
80.140999
70
192
0
VERTEX
8
OBJECT__16
10
-10.877000
20
-60.467999
30
80.140999
70
192
0
VERTEX
8
OBJECT__16
10
-12.367000
20
-55.445000
30
78.110001
70
192
0
VERTEX
8
OBJECT__16
10
-11.598000
20
-60.797001
30
78.110001
70
192
0
VERTEX
8
OBJECT__16
10
-8.650000
20
-64.198997
30
78.110001
70
192
0
VERTEX
8
OBJECT__16
10
-6.465000
20
-65.559998
30
80.140999
70
192
0
VERTEX
8
OBJECT__16
10
-6.893000
20
-66.225998
30
78.110001
70
192
0
VERTEX
8
OBJECT__16
10
0.000000
20
-67.458000
30
80.140999
70
192
0
VERTEX
8
OBJECT__16
10
5.406000
20
-63.912998
30
81.099998
70
192
0
VERTEX
8
OBJECT__16
10
0.000000
20
-65.500000
30
81.099998
70
192
0
VERTEX
8
OBJECT__16
10
9.096000
20
-59.653999
30
81.099998
70
192
0
VERTEX
8
OBJECT__16
10
9.898000
20
-54.077000
30
81.099998
70
192
0
VERTEX
8
OBJECT__16
10
7.557000
20
-48.951000
30
81.099998
70
192
0
VERTEX
8
OBJECT__16
10
2.817000
20
-45.904999
30
81.099998
70
192
0
VERTEX
8
OBJECT__16
10
-2.817000
20
-45.904999
30
81.099998
70
192
0
VERTEX
8
OBJECT__16
10
-7.557000
20
-48.951000
30
81.099998
70
192
0
VERTEX
8
OBJECT__16
10
-9.898000
20
-54.077000
30
81.099998
70
192
0
VERTEX
8
OBJECT__16
10
-9.096000
20
-59.653999
30
81.099998
70
192
0
VERTEX
8
OBJECT__16
10
-5.406000
20
-63.912998
30
81.099998
70
192
0
VERTEX
8
OBJECT__16
10
0
20
0
30
0
70
128
71
1
72
2
73
3
0
VERTEX
8
OBJECT__16
10
0
20
0
30
0
70
128
71
4
72
3
73
5
0
VERTEX
8
OBJECT__16
10
0
20
0
30
0
70
128
71
3
72
2
73
5
0
VERTEX
8
OBJECT__16
10
0
20
0
30
0
70
128
71
4
72
6
73
7
0
VERTEX
8
OBJECT__16
10
0
20
0
30
0
70
128
71
7
72
8
73
4
0
VERTEX
8
OBJECT__16
10
0
20
0
30
0
70
128
71
9
72
10
73
11
0
VERTEX
8
OBJECT__16
10
0
20
0
30
0
70
128
71
12
72
11
73
13
0
VERTEX
8
OBJECT__16
10
0
20
0
30
0
70
128
71
11
72
10
73
13
0
VERTEX
8
OBJECT__16
10
0
20
0
30
0
70
128
71
14
72
12
73
15
0
VERTEX
8
OBJECT__16
10
0
20
0
30
0
70
128
71
12
72
16
73
15
0
VERTEX
8
OBJECT__16
10
0
20
0
30
0
70
128
71
14
72
17
73
18
0
VERTEX
8
OBJECT__16
10
0
20
0
30
0
70
128
71
18
72
19
73
14
0
VERTEX
8
OBJECT__16
10
0
20
0
30
0
70
128
71
20
72
21
73
22
0
VERTEX
8
OBJECT__16
10
0
20
0
30
0
70
128
71
23
72
22
73
24
0
VERTEX
8
OBJECT__16
10
0
20
0
30
0
70
128
71
22
72
21
73
24
0
VERTEX
8
OBJECT__16
10
0
20
0
30
0
70
128
71
23
72
25
73
26
0
VERTEX
8
OBJECT__16
10
0
20
0
30
0
70
128
71
26
72
27
73
23
0
VERTEX
8
OBJECT__16
10
0
20
0
30
0
70
128
71
28
72
1
73
29
0
VERTEX
8
OBJECT__16
10
0
20
0
30
0
70
128
71
3
72
30
73
31
0
VERTEX
8
OBJECT__16
10
0
20
0
30
0
70
128
71
4
72
32
73
30
0
VERTEX
8
OBJECT__16
10
0
20
0
30
0
70
128
71
8
72
33
73
32
0
VERTEX
8
OBJECT__16
10
0
20
0
30
0
70
128
71
11
72
34
73
33
0
VERTEX
8
OBJECT__16
10
0
20
0
30
0
70
128
71
12
72
35
73
34
0
VERTEX
8
OBJECT__16
10
0
20
0
30
0
70
128
71
14
72
36
73
35
0
VERTEX
8
OBJECT__16
10
0
20
0
30
0
70
128
71
19
72
37
73
36
0
VERTEX
8
OBJECT__16
10
0
20
0
30
0
70
128
71
22
72
38
73
37
0
VERTEX
8
OBJECT__16
10
0
20
0
30
0
70
128
71
23
72
39
73
38
0
VERTEX
8
OBJECT__16
10
0
20
0
30
0
70
128
71
27
72
40
73
39
0
VERTEX
8
OBJECT__16
10
0
20
0
30
0
70
128
71
29
72
31
73
40
0
VERTEX
8
OBJECT__16
10
0
20
0
30
0
70
128
71
40
72
27
73
29
0
VERTEX
8
OBJECT__16
10
0
20
0
30
0
70
128
71
39
72
23
73
27
0
VERTEX
8
OBJECT__16
10
0
20
0
30
0
70
128
71
38
72
22
73
23
0
VERTEX
8
OBJECT__16
10
0
20
0
30
0
70
128
71
37
72
19
73
22
0
VERTEX
8
OBJECT__16
10
0
20
0
30
0
70
128
71
36
72
14
73
19
0
VERTEX
8
OBJECT__16
10
0
20
0
30
0
70
128
71
35
72
12
73
14
0
VERTEX
8
OBJECT__16
10
0
20
0
30
0
70
128
71
34
72
11
73
12
0
VERTEX
8
OBJECT__16
10
0
20
0
30
0
70
128
71
33
72
8
73
11
0
VERTEX
8
OBJECT__16
10
0
20
0
30
0
70
128
71
32
72
4
73
8
0
VERTEX
8
OBJECT__16
10
0
20
0
30
0
70
128
71
30
72
3
73
4
0
VERTEX
8
OBJECT__16
10
0
20
0
30
0
70
128
71
31
72
29
73
3
0
VERTEX
8
OBJECT__16
10
0
20
0
30
0
70
128
71
29
72
27
73
28
0
VERTEX
8
OBJECT__16
10
0
20
0
30
0
70
128
71
26
72
28
73
27
0
VERTEX
8
OBJECT__16
10
0
20
0
30
0
70
128
71
24
72
25
73
23
0
VERTEX
8
OBJECT__16
10
0
20
0
30
0
70
128
71
22
72
19
73
20
0
VERTEX
8
OBJECT__16
10
0
20
0
30
0
70
128
71
18
72
20
73
19
0
VERTEX
8
OBJECT__16
10
0
20
0
30
0
70
128
71
15
72
17
73
14
0
VERTEX
8
OBJECT__16
10
0
20
0
30
0
70
128
71
13
72
16
73
12
0
VERTEX
8
OBJECT__16
10
0
20
0
30
0
70
128
71
11
72
8
73
9
0
VERTEX
8
OBJECT__16
10
0
20
0
30
0
70
128
71
7
72
9
73
8
0
VERTEX
8
OBJECT__16
10
0
20
0
30
0
70
128
71
5
72
6
73
4
0
VERTEX
8
OBJECT__16
10
0
20
0
30
0
70
128
71
3
72
29
73
1
0
SEQEND
8
OBJECT__16
0
POLYLINE
8
OBJECT__17
66
1
70
64
71
26
72
26
62
253
0
VERTEX
8
OBJECT__17
10
0.000000
20
-68.250000
30
76.000000
70
192
0
VERTEX
8
OBJECT__17
10
9.016000
20
-64.515999
30
76.000000
70
192
0
VERTEX
8
OBJECT__17
10
6.893000
20
-66.225998
30
78.110001
70
192
0
VERTEX
8
OBJECT__17
10
8.650000
20
-64.198997
30
78.110001
70
192
0
VERTEX
8
OBJECT__17
10
12.750000
20
-55.500000
30
76.000000
70
192
0
VERTEX
8
OBJECT__17
10
12.367000
20
-55.445000
30
78.110001
70
192
0
VERTEX
8
OBJECT__17
10
11.598000
20
-60.797001
30
78.110001
70
192
0
VERTEX
8
OBJECT__17
10
9.016000
20
-46.484001
30
76.000000
70
192
0
VERTEX
8
OBJECT__17
10
9.636000
20
-47.151001
30
78.110001
70
192
0
VERTEX
8
OBJECT__17
10
12.620000
20
-53.685001
30
78.110001
70
192
0
VERTEX
8
OBJECT__17
10
8.894000
20
-46.674000
30
78.110001
70
192
0
VERTEX
8
OBJECT__17
10
0.000000
20
-42.750000
30
76.000000
70
192
0
VERTEX
8
OBJECT__17
10
3.592000
20
-43.265999
30
78.110001
70
192
0
VERTEX
8
OBJECT__17
10
0.000000
20
-43.265999
30
78.110001
70
192
0
VERTEX
8
OBJECT__17
10
-9.016000
20
-46.484001
30
76.000000
70
192
0
VERTEX
8
OBJECT__17
10
-8.894000
20
-46.674000
30
78.110001
70
192
0
VERTEX
8
OBJECT__17
10
-3.592000
20
-43.265999
30
78.110001
70
192
0
VERTEX
8
OBJECT__17
10
-12.750000
20
-55.500000
30
76.000000
70
192
0
VERTEX
8
OBJECT__17
10
-12.620000
20
-53.685001
30
78.110001
70
192
0
VERTEX
8
OBJECT__17
10
-9.636000
20
-47.151001
30
78.110001
70
192
0
VERTEX
8
OBJECT__17
10
-12.367000
20
-55.445000
30
78.110001
70
192
0
VERTEX
8
OBJECT__17
10
-9.016000
20
-64.515999
30
76.000000
70
192
0
VERTEX
8
OBJECT__17
10
-11.598000
20
-60.797001
30
78.110001
70
192
0
VERTEX
8
OBJECT__17
10
-8.650000
20
-64.198997
30
78.110001
70
192
0
VERTEX
8
OBJECT__17
10
0.000000
20
-68.250000
30
78.110001
70
192
0
VERTEX
8
OBJECT__17
10
-6.893000
20
-66.225998
30
78.110001
70
192
0
VERTEX
8
OBJECT__17
10
0
20
0
30
0
70
128
71
1
72
2
73
3
0
VERTEX
8
OBJECT__17
10
0
20
0
30
0
70
128
71
2
72
4
73
3
0
VERTEX
8
OBJECT__17
10
0
20
0
30
0
70
128
71
5
72
6
73
7
0
VERTEX
8
OBJECT__17
10
0
20
0
30
0
70
128
71
7
72
2
73
5
0
VERTEX
8
OBJECT__17
10
0
20
0
30
0
70
128
71
8
72
9
73
10
0
VERTEX
8
OBJECT__17
10
0
20
0
30
0
70
128
71
10
72
5
73
8
0
VERTEX
8
OBJECT__17
10
0
20
0
30
0
70
128
71
8
72
11
73
9
0
VERTEX
8
OBJECT__17
10
0
20
0
30
0
70
128
71
8
72
12
73
13
0
VERTEX
8
OBJECT__17
10
0
20
0
30
0
70
128
71
12
72
14
73
13
0
VERTEX
8
OBJECT__17
10
0
20
0
30
0
70
128
71
15
72
16
73
17
0
VERTEX
8
OBJECT__17
10
0
20
0
30
0
70
128
71
17
72
12
73
15
0
VERTEX
8
OBJECT__17
10
0
20
0
30
0
70
128
71
15
72
18
73
19
0
VERTEX
8
OBJECT__17
10
0
20
0
30
0
70
128
71
19
72
20
73
15
0
VERTEX
8
OBJECT__17
10
0
20
0
30
0
70
128
71
18
72
21
73
19
0
VERTEX
8
OBJECT__17
10
0
20
0
30
0
70
128
71
18
72
22
73
23
0
VERTEX
8
OBJECT__17
10
0
20
0
30
0
70
128
71
22
72
24
73
23
0
VERTEX
8
OBJECT__17
10
0
20
0
30
0
70
128
71
1
72
25
73
26
0
VERTEX
8
OBJECT__17
10
0
20
0
30
0
70
128
71
26
72
22
73
1
0
VERTEX
8
OBJECT__17
10
0
20
0
30
0
70
128
71
26
72
24
73
22
0
VERTEX
8
OBJECT__17
10
0
20
0
30
0
70
128
71
23
72
21
73
18
0
VERTEX
8
OBJECT__17
10
0
20
0
30
0
70
128
71
20
72
16
73
15
0
VERTEX
8
OBJECT__17
10
0
20
0
30
0
70
128
71
17
72
14
73
12
0
VERTEX
8
OBJECT__17
10
0
20
0
30
0
70
128
71
13
72
11
73
8
0
VERTEX
8
OBJECT__17
10
0
20
0
30
0
70
128
71
10
72
6
73
5
0
VERTEX
8
OBJECT__17
10
0
20
0
30
0
70
128
71
7
72
4
73
2
0
VERTEX
8
OBJECT__17
10
0
20
0
30
0
70
128
71
3
72
25
73
1
0
SEQEND
8
OBJECT__17
0
POLYLINE
8
OBJECT__19
66
1
70
64
71
22
72
22
62
253
0
VERTEX
8
OBJECT__19
10
14.057000
20
-21.872999
30
50.500000
70
192
0
VERTEX
8
OBJECT__19
10
0.000000
20
-26.000000
30
50.500000
70
192
0
VERTEX
8
OBJECT__19
10
0.000000
20
-25.500000
30
50.000000
70
192
0
VERTEX
8
OBJECT__19
10
23.650000
20
-10.801000
30
50.500000
70
192
0
VERTEX
8
OBJECT__19
10
13.786000
20
-21.452000
30
50.000000
70
192
0
VERTEX
8
OBJECT__19
10
23.195999
20
-10.593000
30
50.000000
70
192
0
VERTEX
8
OBJECT__19
10
25.240000
20
3.629000
30
50.000000
70
192
0
VERTEX
8
OBJECT__19
10
19.649000
20
17.025999
30
50.500000
70
192
0
VERTEX
8
OBJECT__19
10
25.735001
20
3.700000
30
50.500000
70
192
0
VERTEX
8
OBJECT__19
10
7.325000
20
24.947001
30
50.500000
70
192
0
VERTEX
8
OBJECT__19
10
19.271999
20
16.698999
30
50.000000
70
192
0
VERTEX
8
OBJECT__19
10
7.184000
20
24.466999
30
50.000000
70
192
0
VERTEX
8
OBJECT__19
10
-7.184000
20
24.466999
30
50.000000
70
192
0
VERTEX
8
OBJECT__19
10
-19.649000
20
17.025999
30
50.500000
70
192
0
VERTEX
8
OBJECT__19
10
-7.325000
20
24.947001
30
50.500000
70
192
0
VERTEX
8
OBJECT__19
10
-25.735001
20
3.700000
30
50.500000
70
192
0
VERTEX
8
OBJECT__19
10
-19.271999
20
16.698999
30
50.000000
70
192
0
VERTEX
8
OBJECT__19
10
-23.650000
20
-10.801000
30
50.500000
70
192
0
VERTEX
8
OBJECT__19
10
-25.240000
20
3.629000
30
50.000000
70
192
0
VERTEX
8
OBJECT__19
10
-23.195999
20
-10.593000
30
50.000000
70
192
0
VERTEX
8
OBJECT__19
10
-13.786000
20
-21.452000
30
50.000000
70
192
0
VERTEX
8
OBJECT__19
10
-14.057000
20
-21.872999
30
50.500000
70
192
0
VERTEX
8
OBJECT__19
10
0
20
0
30
0
70
128
71
1
72
2
73
3
0
VERTEX
8
OBJECT__19
10
0
20
0
30
0
70
128
71
4
72
1
73
5
0
VERTEX
8
OBJECT__19
10
0
20
0
30
0
70
128
71
4
72
6
73
7
0
VERTEX
8
OBJECT__19
10
0
20
0
30
0
70
128
71
8
72
9
73
7
0
VERTEX
8
OBJECT__19
10
0
20
0
30
0
70
128
71
10
72
8
73
11
0
VERTEX
8
OBJECT__19
10
0
20
0
30
0
70
128
71
10
72
12
73
13
0
VERTEX
8
OBJECT__19
10
0
20
0
30
0
70
128
71
14
72
15
73
13
0
VERTEX
8
OBJECT__19
10
0
20
0
30
0
70
128
71
16
72
14
73
17
0
VERTEX
8
OBJECT__19
10
0
20
0
30
0
70
128
71
18
72
16
73
19
0
VERTEX
8
OBJECT__19
10
0
20
0
30
0
70
128
71
18
72
20
73
21
0
VERTEX
8
OBJECT__19
10
0
20
0
30
0
70
128
71
22
72
21
73
3
0
VERTEX
8
OBJECT__19
10
0
20
0
30
0
70
128
71
3
72
2
73
22
0
VERTEX
8
OBJECT__19
10
0
20
0
30
0
70
128
71
21
72
22
73
18
0
VERTEX
8
OBJECT__19
10
0
20
0
30
0
70
128
71
19
72
20
73
18
0
VERTEX
8
OBJECT__19
10
0
20
0
30
0
70
128
71
17
72
19
73
16
0
VERTEX
8
OBJECT__19
10
0
20
0
30
0
70
128
71
13
72
17
73
14
0
VERTEX
8
OBJECT__19
10
0
20
0
30
0
70
128
71
13
72
15
73
10
0
VERTEX
8
OBJECT__19
10
0
20
0
30
0
70
128
71
11
72
12
73
10
0
VERTEX
8
OBJECT__19
10
0
20
0
30
0
70
128
71
7
72
11
73
8
0
VERTEX
8
OBJECT__19
10
0
20
0
30
0
70
128
71
7
72
9
73
4
0
VERTEX
8
OBJECT__19
10
0
20
0
30
0
70
128
71
5
72
6
73
4
0
VERTEX
8
OBJECT__19
10
0
20
0
30
0
70
128
71
3
72
5
73
1
0
SEQEND
8
OBJECT__19
0
POLYLINE
8
OBJECT__20
66
1
70
64
71
36
72
36
62
253
0
VERTEX
8
OBJECT__20
10
0.000000
20
-26.000000
30
50.500000
70
192
0
VERTEX
8
OBJECT__20
10
14.057000
20
-21.872999
30
50.500000
70
192
0
VERTEX
8
OBJECT__20
10
10.575000
20
-23.752001
30
84.099998
70
192
0
VERTEX
8
OBJECT__20
10
13.748000
20
-21.447001
30
84.099998
70
192
0
VERTEX
8
OBJECT__20
10
23.650000
20
-10.801000
30
50.500000
70
192
0
VERTEX
8
OBJECT__20
10
23.260000
20
-10.576000
30
84.099998
70
192
0
VERTEX
8
OBJECT__20
10
19.322001
20
-17.396999
30
84.099998
70
192
0
VERTEX
8
OBJECT__20
10
25.735001
20
3.700000
30
50.500000
70
192
0
VERTEX
8
OBJECT__20
10
25.858000
20
2.718000
30
84.099998
70
192
0
VERTEX
8
OBJECT__20
10
24.726999
20
-8.034000
30
84.099998
70
192
0
VERTEX
8
OBJECT__20
10
25.556999
20
3.642000
30
84.099998
70
192
0
VERTEX
8
OBJECT__20
10
19.649000
20
17.025999
30
50.500000
70
192
0
VERTEX
8
OBJECT__20
10
22.517000
20
13.000000
30
84.099998
70
192
0
VERTEX
8
OBJECT__20
10
19.231001
20
16.649000
30
84.099998
70
192
0
VERTEX
8
OBJECT__20
10
7.325000
20
24.947001
30
50.500000
70
192
0
VERTEX
8
OBJECT__20
10
7.188000
20
24.638000
30
84.099998
70
192
0
VERTEX
8
OBJECT__20
10
15.282000
20
21.034000
30
84.099998
70
192
0
VERTEX
8
OBJECT__20
10
-7.325000
20
24.947001
30
50.500000
70
192
0
VERTEX
8
OBJECT__20
10
-5.406000
20
25.431999
30
84.099998
70
192
0
VERTEX
8
OBJECT__20
10
5.406000
20
25.431999
30
84.099998
70
192
0
VERTEX
8
OBJECT__20
10
-7.188000
20
24.638000
30
84.099998
70
192
0
VERTEX
8
OBJECT__20
10
-19.649000
20
17.025999
30
50.500000
70
192
0
VERTEX
8
OBJECT__20
10
-15.282000
20
21.034000
30
84.099998
70
192
0
VERTEX
8
OBJECT__20
10
-19.231001
20
16.649000
30
84.099998
70
192
0
VERTEX
8
OBJECT__20
10
-25.735001
20
3.700000
30
50.500000
70
192
0
VERTEX
8
OBJECT__20
10
-25.556999
20
3.642000
30
84.099998
70
192
0
VERTEX
8
OBJECT__20
10
-22.517000
20
13.000000
30
84.099998
70
192
0
VERTEX
8
OBJECT__20
10
-23.650000
20
-10.801000
30
50.500000
70
192
0
VERTEX
8
OBJECT__20
10
-24.726999
20
-8.034000
30
84.099998
70
192
0
VERTEX
8
OBJECT__20
10
-25.858000
20
2.718000
30
84.099998
70
192
0
VERTEX
8
OBJECT__20
10
-23.260000
20
-10.576000
30
84.099998
70
192
0
VERTEX
8
OBJECT__20
10
-14.057000
20
-21.872999
30
50.500000
70
192
0
VERTEX
8
OBJECT__20
10
-19.322001
20
-17.396999
30
84.099998
70
192
0
VERTEX
8
OBJECT__20
10
-13.748000
20
-21.447001
30
84.099998
70
192
0
VERTEX
8
OBJECT__20
10
0.000000
20
-26.000000
30
84.099998
70
192
0
VERTEX
8
OBJECT__20
10
-10.575000
20
-23.752001
30
84.099998
70
192
0
VERTEX
8
OBJECT__20
10
0
20
0
30
0
70
128
71
1
72
2
73
3
0
VERTEX
8
OBJECT__20
10
0
20
0
30
0
70
128
71
2
72
4
73
3
0
VERTEX
8
OBJECT__20
10
0
20
0
30
0
70
128
71
5
72
6
73
7
0
VERTEX
8
OBJECT__20
10
0
20
0
30
0
70
128
71
7
72
2
73
5
0
VERTEX
8
OBJECT__20
10
0
20
0
30
0
70
128
71
8
72
9
73
10
0
VERTEX
8
OBJECT__20
10
0
20
0
30
0
70
128
71
10
72
5
73
8
0
VERTEX
8
OBJECT__20
10
0
20
0
30
0
70
128
71
8
72
11
73
9
0
VERTEX
8
OBJECT__20
10
0
20
0
30
0
70
128
71
8
72
12
73
13
0
VERTEX
8
OBJECT__20
10
0
20
0
30
0
70
128
71
12
72
14
73
13
0
VERTEX
8
OBJECT__20
10
0
20
0
30
0
70
128
71
15
72
16
73
17
0
VERTEX
8
OBJECT__20
10
0
20
0
30
0
70
128
71
17
72
12
73
15
0
VERTEX
8
OBJECT__20
10
0
20
0
30
0
70
128
71
15
72
18
73
19
0
VERTEX
8
OBJECT__20
10
0
20
0
30
0
70
128
71
19
72
20
73
15
0
VERTEX
8
OBJECT__20
10
0
20
0
30
0
70
128
71
18
72
21
73
19
0
VERTEX
8
OBJECT__20
10
0
20
0
30
0
70
128
71
18
72
22
73
23
0
VERTEX
8
OBJECT__20
10
0
20
0
30
0
70
128
71
22
72
24
73
23
0
VERTEX
8
OBJECT__20
10
0
20
0
30
0
70
128
71
25
72
26
73
27
0
VERTEX
8
OBJECT__20
10
0
20
0
30
0
70
128
71
27
72
22
73
25
0
VERTEX
8
OBJECT__20
10
0
20
0
30
0
70
128
71
25
72
28
73
29
0
VERTEX
8
OBJECT__20
10
0
20
0
30
0
70
128
71
29
72
30
73
25
0
VERTEX
8
OBJECT__20
10
0
20
0
30
0
70
128
71
28
72
31
73
29
0
VERTEX
8
OBJECT__20
10
0
20
0
30
0
70
128
71
28
72
32
73
33
0
VERTEX
8
OBJECT__20
10
0
20
0
30
0
70
128
71
32
72
34
73
33
0
VERTEX
8
OBJECT__20
10
0
20
0
30
0
70
128
71
1
72
35
73
36
0
VERTEX
8
OBJECT__20
10
0
20
0
30
0
70
128
71
36
72
32
73
1
0
VERTEX
8
OBJECT__20
10
0
20
0
30
0
70
128
71
36
72
34
73
32
0
VERTEX
8
OBJECT__20
10
0
20
0
30
0
70
128
71
33
72
31
73
28
0
VERTEX
8
OBJECT__20
10
0
20
0
30
0
70
128
71
30
72
26
73
25
0
VERTEX
8
OBJECT__20
10
0
20
0
30
0
70
128
71
27
72
24
73
22
0
VERTEX
8
OBJECT__20
10
0
20
0
30
0
70
128
71
23
72
21
73
18
0
VERTEX
8
OBJECT__20
10
0
20
0
30
0
70
128
71
20
72
16
73
15
0
VERTEX
8
OBJECT__20
10
0
20
0
30
0
70
128
71
17
72
14
73
12
0
VERTEX
8
OBJECT__20
10
0
20
0
30
0
70
128
71
13
72
11
73
8
0
VERTEX
8
OBJECT__20
10
0
20
0
30
0
70
128
71
10
72
6
73
5
0
VERTEX
8
OBJECT__20
10
0
20
0
30
0
70
128
71
7
72
4
73
2
0
VERTEX
8
OBJECT__20
10
0
20
0
30
0
70
128
71
3
72
35
73
1
0
SEQEND
8
OBJECT__20
0
POLYLINE
8
OBJECT__22
66
1
70
64
71
70
72
100
62
253
0
VERTEX
8
OBJECT__22
10
0.000000
20
-26.000000
30
84.099998
70
192
0
VERTEX
8
OBJECT__22
10
10.575000
20
-23.752001
30
84.099998
70
192
0
VERTEX
8
OBJECT__22
10
10.120000
20
-22.729000
30
91.648003
70
192
0
VERTEX
8
OBJECT__22
10
18.490000
20
-16.648001
30
91.648003
70
192
0
VERTEX
8
OBJECT__22
10
13.748000
20
-21.447001
30
84.099998
70
192
0
VERTEX
8
OBJECT__22
10
19.322001
20
-17.396999
30
84.099998
70
192
0
VERTEX
8
OBJECT__22
10
23.260000
20
-10.576000
30
84.099998
70
192
0
VERTEX
8
OBJECT__22
10
23.662001
20
-7.688000
30
91.648003
70
192
0
VERTEX
8
OBJECT__22
10
25.858000
20
2.718000
30
84.099998
70
192
0
VERTEX
8
OBJECT__22
10
24.743999
20
2.601000
30
91.648003
70
192
0
VERTEX
8
OBJECT__22
10
21.547001
20
12.440000
30
91.648003
70
192
0
VERTEX
8
OBJECT__22
10
25.556999
20
3.642000
30
84.099998
70
192
0
VERTEX
8
OBJECT__22
10
14.624000
20
20.128000
30
91.648003
70
192
0
VERTEX
8
OBJECT__22
10
19.231001
20
16.649000
30
84.099998
70
192
0
VERTEX
8
OBJECT__22
10
22.517000
20
13.000000
30
84.099998
70
192
0
VERTEX
8
OBJECT__22
10
15.282000
20
21.034000
30
84.099998
70
192
0
VERTEX
8
OBJECT__22
10
7.188000
20
24.638000
30
84.099998
70
192
0
VERTEX
8
OBJECT__22
10
5.173000
20
24.336000
30
91.648003
70
192
0
VERTEX
8
OBJECT__22
10
5.406000
20
25.431999
30
84.099998
70
192
0
VERTEX
8
OBJECT__22
10
-5.406000
20
25.431999
30
84.099998
70
192
0
VERTEX
8
OBJECT__22
10
-5.173000
20
24.336000
30
91.648003
70
192
0
VERTEX
8
OBJECT__22
10
-14.624000
20
20.128000
30
91.648003
70
192
0
VERTEX
8
OBJECT__22
10
-7.188000
20
24.638000
30
84.099998
70
192
0
VERTEX
8
OBJECT__22
10
-15.282000
20
21.034000
30
84.099998
70
192
0
VERTEX
8
OBJECT__22
10
-19.231001
20
16.649000
30
84.099998
70
192
0
VERTEX
8
OBJECT__22
10
-21.547001
20
12.440000
30
91.648003
70
192
0
VERTEX
8
OBJECT__22
10
-22.517000
20
13.000000
30
84.099998
70
192
0
VERTEX
8
OBJECT__22
10
-25.556999
20
3.642000
30
84.099998
70
192
0
VERTEX
8
OBJECT__22
10
-24.743999
20
2.601000
30
91.648003
70
192
0
VERTEX
8
OBJECT__22
10
-25.858000
20
2.718000
30
84.099998
70
192
0
VERTEX
8
OBJECT__22
10
-24.726999
20
-8.034000
30
84.099998
70
192
0
VERTEX
8
OBJECT__22
10
-23.662001
20
-7.688000
30
91.648003
70
192
0
VERTEX
8
OBJECT__22
10
-18.490000
20
-16.648001
30
91.648003
70
192
0
VERTEX
8
OBJECT__22
10
-23.260000
20
-10.576000
30
84.099998
70
192
0
VERTEX
8
OBJECT__22
10
-19.322001
20
-17.396999
30
84.099998
70
192
0
VERTEX
8
OBJECT__22
10
-13.748000
20
-21.447001
30
84.099998
70
192
0
VERTEX
8
OBJECT__22
10
-10.120000
20
-22.729000
30
91.648003
70
192
0
VERTEX
8
OBJECT__22
10
-10.575000
20
-23.752001
30
84.099998
70
192
0
VERTEX
8
OBJECT__22
10
0.000000
20
-24.879999
30
91.648003
70
192
0
VERTEX
8
OBJECT__22
10
8.793000
20
-19.747999
30
98.545998
70
192
0
VERTEX
8
OBJECT__22
10
16.065001
20
-14.465000
30
98.545998
70
192
0
VERTEX
8
OBJECT__22
10
20.559000
20
-6.680000
30
98.545998
70
192
0
VERTEX
8
OBJECT__22
10
21.499001
20
2.260000
30
98.545998
70
192
0
VERTEX
8
OBJECT__22
10
18.721001
20
10.809000
30
98.545998
70
192
0
VERTEX
8
OBJECT__22
10
12.706000
20
17.489000
30
98.545998
70
192
0
VERTEX
8
OBJECT__22
10
4.494000
20
21.145000
30
98.545998
70
192
0
VERTEX
8
OBJECT__22
10
-4.494000
20
21.145000
30
98.545998
70
192
0
VERTEX
8
OBJECT__22
10
-12.706000
20
17.489000
30
98.545998
70
192
0
VERTEX
8
OBJECT__22
10
-18.721001
20
10.809000
30
98.545998
70
192
0
VERTEX
8
OBJECT__22
10
-21.499001
20
2.260000
30
98.545998
70
192
0
VERTEX
8
OBJECT__22
10
-20.559000
20
-6.680000
30
98.545998
70
192
0
VERTEX
8
OBJECT__22
10
-16.065001
20
-14.465000
30
98.545998
70
192
0
VERTEX
8
OBJECT__22
10
-8.793000
20
-19.747999
30
98.545998
70
192
0
VERTEX
8
OBJECT__22
10
0.000000
20
-21.617001
30
98.545998
70
192
0
VERTEX
8
OBJECT__22
10
6.708000
20
-15.066000
30
104.199997
70
192
0
VERTEX
8
OBJECT__22
10
12.256000
20
-11.035000
30
104.199997
70
192
0
VERTEX
8
OBJECT__22
10
15.685000
20
-5.096000
30
104.199997
70
192
0
VERTEX
8
OBJECT__22
10
16.402000
20
1.724000
30
104.199997
70
192
0
VERTEX
8
OBJECT__22
10
14.283000
20
8.246000
30
104.199997
70
192
0
VERTEX
8
OBJECT__22
10
9.694000
20
13.342000
30
104.199997
70
192
0
VERTEX
8
OBJECT__22
10
3.429000
20
16.132000
30
104.199997
70
192
0
VERTEX
8
OBJECT__22
10
-3.429000
20
16.132000
30
104.199997
70
192
0
VERTEX
8
OBJECT__22
10
-9.694000
20
13.342000
30
104.199997
70
192
0
VERTEX
8
OBJECT__22
10
-14.283000
20
8.246000
30
104.199997
70
192
0
VERTEX
8
OBJECT__22
10
-16.402000
20
1.724000
30
104.199997
70
192
0
VERTEX
8
OBJECT__22
10
-15.685000
20
-5.096000
30
104.199997
70
192
0
VERTEX
8
OBJECT__22
10
-12.256000
20
-11.035000
30
104.199997
70
192
0
VERTEX
8
OBJECT__22
10
-6.708000
20
-15.066000
30
104.199997
70
192
0
VERTEX
8
OBJECT__22
10
0.000000
20
-16.492001
30
104.199997
70
192
0
VERTEX
8
OBJECT__22
10
24.726999
20
-8.034000
30
84.099998
70
192
0
VERTEX
8
OBJECT__22
10
0
20
0
30
0
70
128
71
1
72
2
73
3
0
VERTEX
8
OBJECT__22
10
0
20
0
30
0
70
128
71
4
72
3
73
5
0
VERTEX
8
OBJECT__22
10
0
20
0
30
0
70
128
71
3
72
2
73
5
0
VERTEX
8
OBJECT__22
10
0
20
0
30
0
70
128
71
4
72
6
73
7
0
VERTEX
8
OBJECT__22
10
0
20
0
30
0
70
128
71
7
72
8
73
4
0
VERTEX
8
OBJECT__22
10
0
20
0
30
0
70
128
71
9
72
10
73
8
0
VERTEX
8
OBJECT__22
10
0
20
0
30
0
70
128
71
11
72
10
73
12
0
VERTEX
8
OBJECT__22
10
0
20
0
30
0
70
128
71
10
72
9
73
12
0
VERTEX
8
OBJECT__22
10
0
20
0
30
0
70
128
71
13
72
11
73
14
0
VERTEX
8
OBJECT__22
10
0
20
0
30
0
70
128
71
11
72
15
73
14
0
VERTEX
8
OBJECT__22
10
0
20
0
30
0
70
128
71
13
72
16
73
17
0
VERTEX
8
OBJECT__22
10
0
20
0
30
0
70
128
71
17
72
18
73
13
0
VERTEX
8
OBJECT__22
10
0
20
0
30
0
70
128
71
19
72
20
73
21
0
VERTEX
8
OBJECT__22
10
0
20
0
30
0
70
128
71
22
72
21
73
23
0
VERTEX
8
OBJECT__22
10
0
20
0
30
0
70
128
71
21
72
20
73
23
0
VERTEX
8
OBJECT__22
10
0
20
0
30
0
70
128
71
22
72
24
73
25
0
VERTEX
8
OBJECT__22
10
0
20
0
30
0
70
128
71
25
72
26
73
22
0
VERTEX
8
OBJECT__22
10
0
20
0
30
0
70
128
71
26
72
27
73
28
0
VERTEX
8
OBJECT__22
10
0
20
0
30
0
70
128
71
28
72
29
73
26
0
VERTEX
8
OBJECT__22
10
0
20
0
30
0
70
128
71
30
72
31
73
32
0
VERTEX
8
OBJECT__22
10
0
20
0
30
0
70
128
71
33
72
32
73
34
0
VERTEX
8
OBJECT__22
10
0
20
0
30
0
70
128
71
32
72
31
73
34
0
VERTEX
8
OBJECT__22
10
0
20
0
30
0
70
128
71
33
72
35
73
36
0
VERTEX
8
OBJECT__22
10
0
20
0
30
0
70
128
71
36
72
37
73
33
0
VERTEX
8
OBJECT__22
10
0
20
0
30
0
70
128
71
38
72
1
73
39
0
VERTEX
8
OBJECT__22
10
0
20
0
30
0
70
128
71
39
72
3
73
40
0
VERTEX
8
OBJECT__22
10
0
20
0
30
0
70
128
71
3
72
4
73
41
0
VERTEX
8
OBJECT__22
10
0
20
0
30
0
70
128
71
4
72
8
73
42
0
VERTEX
8
OBJECT__22
10
0
20
0
30
0
70
128
71
8
72
10
73
43
0
VERTEX
8
OBJECT__22
10
0
20
0
30
0
70
128
71
10
72
11
73
44
0
VERTEX
8
OBJECT__22
10
0
20
0
30
0
70
128
71
11
72
13
73
45
0
VERTEX
8
OBJECT__22
10
0
20
0
30
0
70
128
71
13
72
18
73
46
0
VERTEX
8
OBJECT__22
10
0
20
0
30
0
70
128
71
18
72
21
73
47
0
VERTEX
8
OBJECT__22
10
0
20
0
30
0
70
128
71
21
72
22
73
48
0
VERTEX
8
OBJECT__22
10
0
20
0
30
0
70
128
71
22
72
26
73
49
0
VERTEX
8
OBJECT__22
10
0
20
0
30
0
70
128
71
26
72
29
73
50
0
VERTEX
8
OBJECT__22
10
0
20
0
30
0
70
128
71
29
72
32
73
51
0
VERTEX
8
OBJECT__22
10
0
20
0
30
0
70
128
71
32
72
33
73
52
0
VERTEX
8
OBJECT__22
10
0
20
0
30
0
70
128
71
33
72
37
73
53
0
VERTEX
8
OBJECT__22
10
0
20
0
30
0
70
128
71
37
72
39
73
54
0
VERTEX
8
OBJECT__22
10
0
20
0
30
0
70
128
71
54
72
40
73
55
0
VERTEX
8
OBJECT__22
10
0
20
0
30
0
70
128
71
41
72
56
73
55
0
VERTEX
8
OBJECT__22
10
0
20
0
30
0
70
128
71
42
72
57
73
56
0
VERTEX
8
OBJECT__22
10
0
20
0
30
0
70
128
71
42
72
43
73
58
0
VERTEX
8
OBJECT__22
10
0
20
0
30
0
70
128
71
44
72
59
73
58
0
VERTEX
8
OBJECT__22
10
0
20
0
30
0
70
128
71
45
72
60
73
59
0
VERTEX
8
OBJECT__22
10
0
20
0
30
0
70
128
71
45
72
46
73
61
0
VERTEX
8
OBJECT__22
10
0
20
0
30
0
70
128
71
46
72
47
73
62
0
VERTEX
8
OBJECT__22
10
0
20
0
30
0
70
128
71
48
72
63
73
62
0
VERTEX
8
OBJECT__22
10
0
20
0
30
0
70
128
71
49
72
64
73
63
0
VERTEX
8
OBJECT__22
10
0
20
0
30
0
70
128
71
49
72
50
73
65
0
VERTEX
8
OBJECT__22
10
0
20
0
30
0
70
128
71
50
72
51
73
66
0
VERTEX
8
OBJECT__22
10
0
20
0
30
0
70
128
71
52
72
67
73
66
0
VERTEX
8
OBJECT__22
10
0
20
0
30
0
70
128
71
53
72
68
73
67
0
VERTEX
8
OBJECT__22
10
0
20
0
30
0
70
128
71
53
72
54
73
69
0
VERTEX
8
OBJECT__22
10
0
20
0
30
0
70
128
71
69
72
68
73
53
0
VERTEX
8
OBJECT__22
10
0
20
0
30
0
70
128
71
67
72
52
73
53
0
VERTEX
8
OBJECT__22
10
0
20
0
30
0
70
128
71
66
72
51
73
52
0
VERTEX
8
OBJECT__22
10
0
20
0
30
0
70
128
71
66
72
65
73
50
0
VERTEX
8
OBJECT__22
10
0
20
0
30
0
70
128
71
65
72
64
73
49
0
VERTEX
8
OBJECT__22
10
0
20
0
30
0
70
128
71
63
72
48
73
49
0
VERTEX
8
OBJECT__22
10
0
20
0
30
0
70
128
71
62
72
47
73
48
0
VERTEX
8
OBJECT__22
10
0
20
0
30
0
70
128
71
62
72
61
73
46
0
VERTEX
8
OBJECT__22
10
0
20
0
30
0
70
128
71
61
72
60
73
45
0
VERTEX
8
OBJECT__22
10
0
20
0
30
0
70
128
71
59
72
44
73
45
0
VERTEX
8
OBJECT__22
10
0
20
0
30
0
70
128
71
58
72
43
73
44
0
VERTEX
8
OBJECT__22
10
0
20
0
30
0
70
128
71
58
72
57
73
42
0
VERTEX
8
OBJECT__22
10
0
20
0
30
0
70
128
71
56
72
41
73
42
0
VERTEX
8
OBJECT__22
10
0
20
0
30
0
70
128
71
55
72
40
73
41
0
VERTEX
8
OBJECT__22
10
0
20
0
30
0
70
128
71
55
72
69
73
54
0
VERTEX
8
OBJECT__22
10
0
20
0
30
0
70
128
71
54
72
53
73
37
0
VERTEX
8
OBJECT__22
10
0
20
0
30
0
70
128
71
53
72
52
73
33
0
VERTEX
8
OBJECT__22
10
0
20
0
30
0
70
128
71
52
72
51
73
32
0
VERTEX
8
OBJECT__22
10
0
20
0
30
0
70
128
71
51
72
50
73
29
0
VERTEX
8
OBJECT__22
10
0
20
0
30
0
70
128
71
50
72
49
73
26
0
VERTEX
8
OBJECT__22
10
0
20
0
30
0
70
128
71
49
72
48
73
22
0
VERTEX
8
OBJECT__22
10
0
20
0
30
0
70
128
71
48
72
47
73
21
0
VERTEX
8
OBJECT__22
10
0
20
0
30
0
70
128
71
47
72
46
73
18
0
VERTEX
8
OBJECT__22
10
0
20
0
30
0
70
128
71
46
72
45
73
13
0
VERTEX
8
OBJECT__22
10
0
20
0
30
0
70
128
71
45
72
44
73
11
0
VERTEX
8
OBJECT__22
10
0
20
0
30
0
70
128
71
44
72
43
73
10
0
VERTEX
8
OBJECT__22
10
0
20
0
30
0
70
128
71
43
72
42
73
8
0
VERTEX
8
OBJECT__22
10
0
20
0
30
0
70
128
71
42
72
41
73
4
0
VERTEX
8
OBJECT__22
10
0
20
0
30
0
70
128
71
41
72
40
73
3
0
VERTEX
8
OBJECT__22
10
0
20
0
30
0
70
128
71
40
72
54
73
39
0
VERTEX
8
OBJECT__22
10
0
20
0
30
0
70
128
71
39
72
37
73
38
0
VERTEX
8
OBJECT__22
10
0
20
0
30
0
70
128
71
36
72
38
73
37
0
VERTEX
8
OBJECT__22
10
0
20
0
30
0
70
128
71
34
72
35
73
33
0
VERTEX
8
OBJECT__22
10
0
20
0
30
0
70
128
71
32
72
29
73
30
0
VERTEX
8
OBJECT__22
10
0
20
0
30
0
70
128
71
28
72
30
73
29
0
VERTEX
8
OBJECT__22
10
0
20
0
30
0
70
128
71
25
72
27
73
26
0
VERTEX
8
OBJECT__22
10
0
20
0
30
0
70
128
71
23
72
24
73
22
0
VERTEX
8
OBJECT__22
10
0
20
0
30
0
70
128
71
21
72
18
73
19
0
VERTEX
8
OBJECT__22
10
0
20
0
30
0
70
128
71
17
72
19
73
18
0
VERTEX
8
OBJECT__22
10
0
20
0
30
0
70
128
71
14
72
16
73
13
0
VERTEX
8
OBJECT__22
10
0
20
0
30
0
70
128
71
12
72
15
73
11
0
VERTEX
8
OBJECT__22
10
0
20
0
30
0
70
128
71
8
72
70
73
9
0
VERTEX
8
OBJECT__22
10
0
20
0
30
0
70
128
71
7
72
70
73
8
0
VERTEX
8
OBJECT__22
10
0
20
0
30
0
70
128
71
5
72
6
73
4
0
VERTEX
8
OBJECT__22
10
0
20
0
30
0
70
128
71
3
72
39
73
1
0
SEQEND
8
OBJECT__22
0
POLYLINE
8
OBJECT__23
66
1
70
64
71
10
72
8
62
253
0
VERTEX
8
OBJECT__23
10
223.257996
20
-45.000000
30
198.072998
70
192
0
VERTEX
8
OBJECT__23
10
233.091995
20
-52.255001
30
199.807007
70
192
0
VERTEX
8
OBJECT__23
10
233.091995
20
-58.744999
30
199.807007
70
192
0
VERTEX
8
OBJECT__23
10
217.179993
20
-47.005001
30
197.001007
70
192
0
VERTEX
8
OBJECT__23
10
217.179993
20
-63.994999
30
197.001007
70
192
0
VERTEX
8
OBJECT__23
10
213.423004
20
-58.744999
30
196.337997
70
192
0
VERTEX
8
OBJECT__23
10
229.335999
20
-47.005001
30
199.143997
70
192
0
VERTEX
8
OBJECT__23
10
223.257996
20
-66.000000
30
198.072998
70
192
0
VERTEX
8
OBJECT__23
10
229.335999
20
-63.994999
30
199.143997
70
192
0
VERTEX
8
OBJECT__23
10
213.423004
20
-52.255001
30
196.337997
70
192
0
VERTEX
8
OBJECT__23
10
0
20
0
30
0
70
128
71
1
72
2
73
3
0
VERTEX
8
OBJECT__23
10
0
20
0
30
0
70
128
71
4
72
5
73
6
0
VERTEX
8
OBJECT__23
10
0
20
0
30
0
70
128
71
1
72
7
73
2
0
VERTEX
8
OBJECT__23
10
0
20
0
30
0
70
128
71
4
72
8
73
5
0
VERTEX
8
OBJECT__23
10
0
20
0
30
0
70
128
71
9
72
4
73
1
0
VERTEX
8
OBJECT__23
10
0
20
0
30
0
70
128
71
4
72
9
73
8
0
VERTEX
8
OBJECT__23
10
0
20
0
30
0
70
128
71
6
72
10
73
4
0
VERTEX
8
OBJECT__23
10
0
20
0
30
0
70
128
71
3
72
9
73
1
0
SEQEND
8
OBJECT__23
0
POLYLINE
8
OBJECT__24
66
1
70
64
71
26
72
26
62
253
0
VERTEX
8
OBJECT__24
10
222.259995
20
-44.000000
30
203.729996
70
192
0
VERTEX
8
OBJECT__24
10
228.917007
20
-46.195999
30
204.904007
70
192
0
VERTEX
8
OBJECT__24
10
229.335999
20
-47.005001
30
199.143997
70
192
0
VERTEX
8
OBJECT__24
10
233.091995
20
-52.255001
30
199.807007
70
192
0
VERTEX
8
OBJECT__24
10
230.675995
20
-48.653999
30
205.214005
70
192
0
VERTEX
8
OBJECT__24
10
233.031006
20
-51.945999
30
205.628998
70
192
0
VERTEX
8
OBJECT__24
10
233.031006
20
-58.058998
30
205.628998
70
192
0
VERTEX
8
OBJECT__24
10
233.091995
20
-58.744999
30
199.807007
70
192
0
VERTEX
8
OBJECT__24
10
233.031006
20
-59.054001
30
205.628998
70
192
0
VERTEX
8
OBJECT__24
10
228.917007
20
-64.804001
30
204.904007
70
192
0
VERTEX
8
OBJECT__24
10
229.335999
20
-63.994999
30
199.143997
70
192
0
VERTEX
8
OBJECT__24
10
223.257996
20
-66.000000
30
198.072998
70
192
0
VERTEX
8
OBJECT__24
10
227.035004
20
-65.425003
30
204.572006
70
192
0
VERTEX
8
OBJECT__24
10
222.259995
20
-67.000000
30
203.729996
70
192
0
VERTEX
8
OBJECT__24
10
217.485992
20
-65.425003
30
202.888000
70
192
0
VERTEX
8
OBJECT__24
10
217.179993
20
-63.994999
30
197.001007
70
192
0
VERTEX
8
OBJECT__24
10
215.602997
20
-64.804001
30
202.556000
70
192
0
VERTEX
8
OBJECT__24
10
211.488998
20
-59.054001
30
201.830994
70
192
0
VERTEX
8
OBJECT__24
10
213.423004
20
-58.744999
30
196.337997
70
192
0
VERTEX
8
OBJECT__24
10
213.423004
20
-52.255001
30
196.337997
70
192
0
VERTEX
8
OBJECT__24
10
211.488998
20
-58.058998
30
201.830994
70
192
0
VERTEX
8
OBJECT__24
10
211.488998
20
-51.945999
30
201.830994
70
192
0
VERTEX
8
OBJECT__24
10
213.845001
20
-48.653999
30
202.246002
70
192
0
VERTEX
8
OBJECT__24
10
217.179993
20
-47.005001
30
197.001007
70
192
0
VERTEX
8
OBJECT__24
10
215.602997
20
-46.195999
30
202.556000
70
192
0
VERTEX
8
OBJECT__24
10
223.257996
20
-45.000000
30
198.072998
70
192
0
VERTEX
8
OBJECT__24
10
0
20
0
30
0
70
128
71
1
72
2
73
3
0
VERTEX
8
OBJECT__24
10
0
20
0
30
0
70
128
71
4
72
3
73
5
0
VERTEX
8
OBJECT__24
10
0
20
0
30
0
70
128
71
3
72
2
73
5
0
VERTEX
8
OBJECT__24
10
0
20
0
30
0
70
128
71
4
72
6
73
7
0
VERTEX
8
OBJECT__24
10
0
20
0
30
0
70
128
71
7
72
8
73
4
0
VERTEX
8
OBJECT__24
10
0
20
0
30
0
70
128
71
9
72
10
73
11
0
VERTEX
8
OBJECT__24
10
0
20
0
30
0
70
128
71
12
72
11
73
13
0
VERTEX
8
OBJECT__24
10
0
20
0
30
0
70
128
71
11
72
10
73
13
0
VERTEX
8
OBJECT__24
10
0
20
0
30
0
70
128
71
12
72
14
73
15
0
VERTEX
8
OBJECT__24
10
0
20
0
30
0
70
128
71
15
72
16
73
12
0
VERTEX
8
OBJECT__24
10
0
20
0
30
0
70
128
71
17
72
18
73
19
0
VERTEX
8
OBJECT__24
10
0
20
0
30
0
70
128
71
20
72
19
73
21
0
VERTEX
8
OBJECT__24
10
0
20
0
30
0
70
128
71
19
72
18
73
21
0
VERTEX
8
OBJECT__24
10
0
20
0
30
0
70
128
71
20
72
22
73
23
0
VERTEX
8
OBJECT__24
10
0
20
0
30
0
70
128
71
23
72
24
73
20
0
VERTEX
8
OBJECT__24
10
0
20
0
30
0
70
128
71
25
72
1
73
26
0
VERTEX
8
OBJECT__24
10
0
20
0
30
0
70
128
71
26
72
24
73
25
0
VERTEX
8
OBJECT__24
10
0
20
0
30
0
70
128
71
23
72
25
73
24
0
VERTEX
8
OBJECT__24
10
0
20
0
30
0
70
128
71
21
72
22
73
20
0
VERTEX
8
OBJECT__24
10
0
20
0
30
0
70
128
71
19
72
16
73
17
0
VERTEX
8
OBJECT__24
10
0
20
0
30
0
70
128
71
15
72
17
73
16
0
VERTEX
8
OBJECT__24
10
0
20
0
30
0
70
128
71
13
72
14
73
12
0
VERTEX
8
OBJECT__24
10
0
20
0
30
0
70
128
71
11
72
8
73
9
0
VERTEX
8
OBJECT__24
10
0
20
0
30
0
70
128
71
7
72
9
73
8
0
VERTEX
8
OBJECT__24
10
0
20
0
30
0
70
128
71
5
72
6
73
4
0
VERTEX
8
OBJECT__24
10
0
20
0
30
0
70
128
71
3
72
26
73
1
0
SEQEND
8
OBJECT__24
0
POLYLINE
8
OBJECT__26
66
1
70
64
71
30
72
30
62
253
0
VERTEX
8
OBJECT__26
10
222.826004
20
-44.287998
30
215.259003
70
192
0
VERTEX
8
OBJECT__26
10
228.638000
20
-48.994999
30
216.283005
70
192
0
VERTEX
8
OBJECT__26
10
228.917007
20
-46.195999
30
204.904007
70
192
0
VERTEX
8
OBJECT__26
10
230.675995
20
-48.653999
30
205.214005
70
192
0
VERTEX
8
OBJECT__26
10
222.259995
20
-44.000000
30
203.729996
70
192
0
VERTEX
8
OBJECT__26
10
220.306000
20
-44.000000
30
214.813995
70
192
0
VERTEX
8
OBJECT__26
10
230.509995
20
-58.058998
30
216.613007
70
192
0
VERTEX
8
OBJECT__26
10
233.031006
20
-58.058998
30
205.628998
70
192
0
VERTEX
8
OBJECT__26
10
233.031006
20
-51.945999
30
205.628998
70
192
0
VERTEX
8
OBJECT__26
10
230.509995
20
-50.509998
30
216.613007
70
192
0
VERTEX
8
OBJECT__26
10
230.509995
20
-60.490002
30
216.613007
70
192
0
VERTEX
8
OBJECT__26
10
224.697006
20
-65.195999
30
215.589005
70
192
0
VERTEX
8
OBJECT__26
10
228.917007
20
-64.804001
30
204.904007
70
192
0
VERTEX
8
OBJECT__26
10
227.035004
20
-65.425003
30
204.572006
70
192
0
VERTEX
8
OBJECT__26
10
233.031006
20
-59.054001
30
205.628998
70
192
0
VERTEX
8
OBJECT__26
10
215.578003
20
-65.031998
30
213.981003
70
192
0
VERTEX
8
OBJECT__26
10
217.485992
20
-65.425003
30
202.888000
70
192
0
VERTEX
8
OBJECT__26
10
222.259995
20
-67.000000
30
203.729996
70
192
0
VERTEX
8
OBJECT__26
10
222.826004
20
-66.711998
30
215.259003
70
192
0
VERTEX
8
OBJECT__26
10
213.244995
20
-64.490997
30
213.569000
70
192
0
VERTEX
8
OBJECT__26
10
210.018997
20
-57.689999
30
213.000000
70
192
0
VERTEX
8
OBJECT__26
10
211.488998
20
-59.054001
30
201.830994
70
192
0
VERTEX
8
OBJECT__26
10
215.602997
20
-64.804001
30
202.556000
70
192
0
VERTEX
8
OBJECT__26
10
211.488998
20
-58.058998
30
201.830994
70
192
0
VERTEX
8
OBJECT__26
10
212.205994
20
-48.699001
30
213.386002
70
192
0
VERTEX
8
OBJECT__26
10
213.845001
20
-48.653999
30
202.246002
70
192
0
VERTEX
8
OBJECT__26
10
211.488998
20
-51.945999
30
201.830994
70
192
0
VERTEX
8
OBJECT__26
10
208.981003
20
-55.500000
30
212.817001
70
192
0
VERTEX
8
OBJECT__26
10
215.602997
20
-46.195999
30
202.556000
70
192
0
VERTEX
8
OBJECT__26
10
213.244995
20
-46.508999
30
213.569000
70
192
0
VERTEX
8
OBJECT__26
10
0
20
0
30
0
70
128
71
1
72
2
73
3
0
VERTEX
8
OBJECT__26
10
0
20
0
30
0
70
128
71
2
72
4
73
3
0
VERTEX
8
OBJECT__26
10
0
20
0
30
0
70
128
71
5
72
6
73
1
0
VERTEX
8
OBJECT__26
10
0
20
0
30
0
70
128
71
7
72
8
73
9
0
VERTEX
8
OBJECT__26
10
0
20
0
30
0
70
128
71
4
72
2
73
10
0
VERTEX
8
OBJECT__26
10
0
20
0
30
0
70
128
71
10
72
9
73
4
0
VERTEX
8
OBJECT__26
10
0
20
0
30
0
70
128
71
11
72
12
73
13
0
VERTEX
8
OBJECT__26
10
0
20
0
30
0
70
128
71
12
72
14
73
13
0
VERTEX
8
OBJECT__26
10
0
20
0
30
0
70
128
71
15
72
7
73
11
0
VERTEX
8
OBJECT__26
10
0
20
0
30
0
70
128
71
13
72
15
73
11
0
VERTEX
8
OBJECT__26
10
0
20
0
30
0
70
128
71
16
72
17
73
18
0
VERTEX
8
OBJECT__26
10
0
20
0
30
0
70
128
71
18
72
19
73
16
0
VERTEX
8
OBJECT__26
10
0
20
0
30
0
70
128
71
14
72
12
73
19
0
VERTEX
8
OBJECT__26
10
0
20
0
30
0
70
128
71
20
72
21
73
22
0
VERTEX
8
OBJECT__26
10
0
20
0
30
0
70
128
71
16
72
20
73
23
0
VERTEX
8
OBJECT__26
10
0
20
0
30
0
70
128
71
23
72
17
73
16
0
VERTEX
8
OBJECT__26
10
0
20
0
30
0
70
128
71
21
72
24
73
22
0
VERTEX
8
OBJECT__26
10
0
20
0
30
0
70
128
71
25
72
26
73
27
0
VERTEX
8
OBJECT__26
10
0
20
0
30
0
70
128
71
27
72
28
73
25
0
VERTEX
8
OBJECT__26
10
0
20
0
30
0
70
128
71
24
72
21
73
28
0
VERTEX
8
OBJECT__26
10
0
20
0
30
0
70
128
71
6
72
5
73
29
0
VERTEX
8
OBJECT__26
10
0
20
0
30
0
70
128
71
26
72
25
73
30
0
VERTEX
8
OBJECT__26
10
0
20
0
30
0
70
128
71
30
72
29
73
26
0
VERTEX
8
OBJECT__26
10
0
20
0
30
0
70
128
71
29
72
30
73
6
0
VERTEX
8
OBJECT__26
10
0
20
0
30
0
70
128
71
27
72
24
73
28
0
VERTEX
8
OBJECT__26
10
0
20
0
30
0
70
128
71
22
72
23
73
20
0
VERTEX
8
OBJECT__26
10
0
20
0
30
0
70
128
71
18
72
14
73
19
0
VERTEX
8
OBJECT__26
10
0
20
0
30
0
70
128
71
15
72
8
73
7
0
VERTEX
8
OBJECT__26
10
0
20
0
30
0
70
128
71
9
72
10
73
7
0
VERTEX
8
OBJECT__26
10
0
20
0
30
0
70
128
71
3
72
5
73
1
0
SEQEND
8
OBJECT__26
0
POLYLINE
8
OBJECT__27
66
1
70
64
71
28
72
28
62
253
0
VERTEX
8
OBJECT__27
10
208.880997
20
-55.500000
30
213.380005
70
192
0
VERTEX
8
OBJECT__27
10
208.981003
20
-55.500000
30
212.817001
70
192
0
VERTEX
8
OBJECT__27
10
210.018997
20
-57.689999
30
213.000000
70
192
0
VERTEX
8
OBJECT__27
10
213.244995
20
-64.490997
30
213.569000
70
192
0
VERTEX
8
OBJECT__27
10
213.845001
20
-63.601002
30
214.255997
70
192
0
VERTEX
8
OBJECT__27
10
210.003006
20
-60.490002
30
213.578003
70
192
0
VERTEX
8
OBJECT__27
10
222.826004
20
-66.711998
30
215.259003
70
192
0
VERTEX
8
OBJECT__27
10
222.477005
20
-65.600998
30
215.778000
70
192
0
VERTEX
8
OBJECT__27
10
217.686005
20
-66.711998
30
214.932999
70
192
0
VERTEX
8
OBJECT__27
10
215.578003
20
-65.031998
30
213.981003
70
192
0
VERTEX
8
OBJECT__27
10
230.509995
20
-60.490002
30
216.613007
70
192
0
VERTEX
8
OBJECT__27
10
229.399994
20
-59.995998
30
216.998001
70
192
0
VERTEX
8
OBJECT__27
10
227.268005
20
-64.490997
30
216.623001
70
192
0
VERTEX
8
OBJECT__27
10
224.697006
20
-65.195999
30
215.589005
70
192
0
VERTEX
8
OBJECT__27
10
230.509995
20
-50.509998
30
216.613007
70
192
0
VERTEX
8
OBJECT__27
10
229.399994
20
-51.004002
30
216.998001
70
192
0
VERTEX
8
OBJECT__27
10
231.531998
20
-55.500000
30
217.373993
70
192
0
VERTEX
8
OBJECT__27
10
230.509995
20
-58.058998
30
216.613007
70
192
0
VERTEX
8
OBJECT__27
10
222.826004
20
-44.287998
30
215.259003
70
192
0
VERTEX
8
OBJECT__27
10
222.477005
20
-45.398998
30
215.778000
70
192
0
VERTEX
8
OBJECT__27
10
227.268005
20
-46.508999
30
216.623001
70
192
0
VERTEX
8
OBJECT__27
10
228.638000
20
-48.994999
30
216.283005
70
192
0
VERTEX
8
OBJECT__27
10
220.306000
20
-44.000000
30
214.813995
70
192
0
VERTEX
8
OBJECT__27
10
213.244995
20
-46.508999
30
213.569000
70
192
0
VERTEX
8
OBJECT__27
10
213.845001
20
-47.398998
30
214.255997
70
192
0
VERTEX
8
OBJECT__27
10
217.686005
20
-44.287998
30
214.932999
70
192
0
VERTEX
8
OBJECT__27
10
212.205994
20
-48.699001
30
213.386002
70
192
0
VERTEX
8
OBJECT__27
10
210.003006
20
-50.509998
30
213.578003
70
192
0
VERTEX
8
OBJECT__27
10
0
20
0
30
0
70
128
71
1
72
2
73
3
0
VERTEX
8
OBJECT__27
10
0
20
0
30
0
70
128
71
4
72
5
73
6
0
VERTEX
8
OBJECT__27
10
0
20
0
30
0
70
128
71
6
72
3
73
4
0
VERTEX
8
OBJECT__27
10
0
20
0
30
0
70
128
71
7
72
8
73
9
0
VERTEX
8
OBJECT__27
10
0
20
0
30
0
70
128
71
9
72
10
73
7
0
VERTEX
8
OBJECT__27
10
0
20
0
30
0
70
128
71
5
72
4
73
10
0
VERTEX
8
OBJECT__27
10
0
20
0
30
0
70
128
71
11
72
12
73
13
0
VERTEX
8
OBJECT__27
10
0
20
0
30
0
70
128
71
13
72
14
73
11
0
VERTEX
8
OBJECT__27
10
0
20
0
30
0
70
128
71
8
72
7
73
14
0
VERTEX
8
OBJECT__27
10
0
20
0
30
0
70
128
71
15
72
16
73
17
0
VERTEX
8
OBJECT__27
10
0
20
0
30
0
70
128
71
17
72
18
73
15
0
VERTEX
8
OBJECT__27
10
0
20
0
30
0
70
128
71
12
72
11
73
18
0
VERTEX
8
OBJECT__27
10
0
20
0
30
0
70
128
71
19
72
20
73
21
0
VERTEX
8
OBJECT__27
10
0
20
0
30
0
70
128
71
21
72
22
73
19
0
VERTEX
8
OBJECT__27
10
0
20
0
30
0
70
128
71
16
72
15
73
22
0
VERTEX
8
OBJECT__27
10
0
20
0
30
0
70
128
71
20
72
19
73
23
0
VERTEX
8
OBJECT__27
10
0
20
0
30
0
70
128
71
24
72
25
73
26
0
VERTEX
8
OBJECT__27
10
0
20
0
30
0
70
128
71
26
72
23
73
24
0
VERTEX
8
OBJECT__27
10
0
20
0
30
0
70
128
71
25
72
24
73
27
0
VERTEX
8
OBJECT__27
10
0
20
0
30
0
70
128
71
2
72
1
73
28
0
VERTEX
8
OBJECT__27
10
0
20
0
30
0
70
128
71
28
72
27
73
2
0
VERTEX
8
OBJECT__27
10
0
20
0
30
0
70
128
71
27
72
28
73
25
0
VERTEX
8
OBJECT__27
10
0
20
0
30
0
70
128
71
23
72
26
73
20
0
VERTEX
8
OBJECT__27
10
0
20
0
30
0
70
128
71
21
72
16
73
22
0
VERTEX
8
OBJECT__27
10
0
20
0
30
0
70
128
71
17
72
12
73
18
0
VERTEX
8
OBJECT__27
10
0
20
0
30
0
70
128
71
13
72
8
73
14
0
VERTEX
8
OBJECT__27
10
0
20
0
30
0
70
128
71
9
72
5
73
10
0
VERTEX
8
OBJECT__27
10
0
20
0
30
0
70
128
71
3
72
6
73
1
0
SEQEND
8
OBJECT__27
0
POLYLINE
8
OBJECT__28
66
1
70
64
71
22
72
22
62
253
0
VERTEX
8
OBJECT__28
10
230.298996
20
-55.500000
30
218.606995
70
192
0
VERTEX
8
OBJECT__28
10
226.406006
20
-63.709000
30
217.921005
70
192
0
VERTEX
8
OBJECT__28
10
229.399994
20
-59.995998
30
216.998001
70
192
0
VERTEX
8
OBJECT__28
10
227.268005
20
-64.490997
30
216.623001
70
192
0
VERTEX
8
OBJECT__28
10
217.658005
20
-65.737000
30
216.378006
70
192
0
VERTEX
8
OBJECT__28
10
222.477005
20
-65.600998
30
215.778000
70
192
0
VERTEX
8
OBJECT__28
10
217.686005
20
-66.711998
30
214.932999
70
192
0
VERTEX
8
OBJECT__28
10
210.641998
20
-60.056000
30
215.141006
70
192
0
VERTEX
8
OBJECT__28
10
213.845001
20
-63.601002
30
214.255997
70
192
0
VERTEX
8
OBJECT__28
10
210.003006
20
-60.490002
30
213.578003
70
192
0
VERTEX
8
OBJECT__28
10
210.003006
20
-50.509998
30
213.578003
70
192
0
VERTEX
8
OBJECT__28
10
208.880997
20
-55.500000
30
213.380005
70
192
0
VERTEX
8
OBJECT__28
10
209.617996
20
-55.500000
30
214.960999
70
192
0
VERTEX
8
OBJECT__28
10
217.658005
20
-45.263000
30
216.378006
70
192
0
VERTEX
8
OBJECT__28
10
217.686005
20
-44.287998
30
214.932999
70
192
0
VERTEX
8
OBJECT__28
10
213.845001
20
-47.398998
30
214.255997
70
192
0
VERTEX
8
OBJECT__28
10
210.641998
20
-50.944000
30
215.141006
70
192
0
VERTEX
8
OBJECT__28
10
226.406006
20
-47.291000
30
217.921005
70
192
0
VERTEX
8
OBJECT__28
10
227.268005
20
-46.508999
30
216.623001
70
192
0
VERTEX
8
OBJECT__28
10
222.477005
20
-45.398998
30
215.778000
70
192
0
VERTEX
8
OBJECT__28
10
231.531998
20
-55.500000
30
217.373993
70
192
0
VERTEX
8
OBJECT__28
10
229.399994
20
-51.004002
30
216.998001
70
192
0
VERTEX
8
OBJECT__28
10
0
20
0
30
0
70
128
71
1
72
2
73
3
0
VERTEX
8
OBJECT__28
10
0
20
0
30
0
70
128
71
2
72
4
73
3
0
VERTEX
8
OBJECT__28
10
0
20
0
30
0
70
128
71
2
72
5
73
6
0
VERTEX
8
OBJECT__28
10
0
20
0
30
0
70
128
71
5
72
7
73
6
0
VERTEX
8
OBJECT__28
10
0
20
0
30
0
70
128
71
5
72
8
73
9
0
VERTEX
8
OBJECT__28
10
0
20
0
30
0
70
128
71
8
72
10
73
9
0
VERTEX
8
OBJECT__28
10
0
20
0
30
0
70
128
71
11
72
12
73
13
0
VERTEX
8
OBJECT__28
10
0
20
0
30
0
70
128
71
12
72
10
73
8
0
VERTEX
8
OBJECT__28
10
0
20
0
30
0
70
128
71
8
72
13
73
12
0
VERTEX
8
OBJECT__28
10
0
20
0
30
0
70
128
71
14
72
15
73
16
0
VERTEX
8
OBJECT__28
10
0
20
0
30
0
70
128
71
16
72
17
73
14
0
VERTEX
8
OBJECT__28
10
0
20
0
30
0
70
128
71
18
72
19
73
20
0
VERTEX
8
OBJECT__28
10
0
20
0
30
0
70
128
71
20
72
14
73
18
0
VERTEX
8
OBJECT__28
10
0
20
0
30
0
70
128
71
1
72
21
73
22
0
VERTEX
8
OBJECT__28
10
0
20
0
30
0
70
128
71
22
72
18
73
1
0
VERTEX
8
OBJECT__28
10
0
20
0
30
0
70
128
71
22
72
19
73
18
0
VERTEX
8
OBJECT__28
10
0
20
0
30
0
70
128
71
20
72
15
73
14
0
VERTEX
8
OBJECT__28
10
0
20
0
30
0
70
128
71
16
72
11
73
17
0
VERTEX
8
OBJECT__28
10
0
20
0
30
0
70
128
71
13
72
17
73
11
0
VERTEX
8
OBJECT__28
10
0
20
0
30
0
70
128
71
9
72
7
73
5
0
VERTEX
8
OBJECT__28
10
0
20
0
30
0
70
128
71
6
72
4
73
2
0
VERTEX
8
OBJECT__28
10
0
20
0
30
0
70
128
71
3
72
21
73
1
0
SEQEND
8
OBJECT__28
0
POLYLINE
8
OBJECT__29
66
1
70
64
71
16
72
16
62
253
0
VERTEX
8
OBJECT__29
10
230.298996
20
-55.500000
30
218.606995
70
192
0
VERTEX
8
OBJECT__29
10
226.406006
20
-47.291000
30
217.921005
70
192
0
VERTEX
8
OBJECT__29
10
226.451996
20
-48.905998
30
217.929001
70
192
0
VERTEX
8
OBJECT__29
10
217.658005
20
-45.263000
30
216.378006
70
192
0
VERTEX
8
OBJECT__29
10
219.959000
20
-46.174999
30
216.783997
70
192
0
VERTEX
8
OBJECT__29
10
210.641998
20
-50.944000
30
215.141006
70
192
0
VERTEX
8
OBJECT__29
10
213.464996
20
-48.905998
30
215.639008
70
192
0
VERTEX
8
OBJECT__29
10
210.774994
20
-55.500000
30
215.164993
70
192
0
VERTEX
8
OBJECT__29
10
209.617996
20
-55.500000
30
214.960999
70
192
0
VERTEX
8
OBJECT__29
10
210.641998
20
-60.056000
30
215.141006
70
192
0
VERTEX
8
OBJECT__29
10
217.658005
20
-65.737000
30
216.378006
70
192
0
VERTEX
8
OBJECT__29
10
219.959000
20
-64.824997
30
216.783997
70
192
0
VERTEX
8
OBJECT__29
10
213.464996
20
-62.094002
30
215.639008
70
192
0
VERTEX
8
OBJECT__29
10
226.406006
20
-63.709000
30
217.921005
70
192
0
VERTEX
8
OBJECT__29
10
226.451996
20
-62.094002
30
217.929001
70
192
0
VERTEX
8
OBJECT__29
10
229.141998
20
-55.500000
30
218.403000
70
192
0
VERTEX
8
OBJECT__29
10
0
20
0
30
0
70
128
71
1
72
2
73
3
0
VERTEX
8
OBJECT__29
10
0
20
0
30
0
70
128
71
2
72
4
73
5
0
VERTEX
8
OBJECT__29
10
0
20
0
30
0
70
128
71
4
72
6
73
7
0
VERTEX
8
OBJECT__29
10
0
20
0
30
0
70
128
71
8
72
7
73
6
0
VERTEX
8
OBJECT__29
10
0
20
0
30
0
70
128
71
8
72
9
73
10
0
VERTEX
8
OBJECT__29
10
0
20
0
30
0
70
128
71
11
72
12
73
13
0
VERTEX
8
OBJECT__29
10
0
20
0
30
0
70
128
71
14
72
15
73
12
0
VERTEX
8
OBJECT__29
10
0
20
0
30
0
70
128
71
1
72
16
73
15
0
VERTEX
8
OBJECT__29
10
0
20
0
30
0
70
128
71
5
72
3
73
2
0
VERTEX
8
OBJECT__29
10
0
20
0
30
0
70
128
71
6
72
9
73
8
0
VERTEX
8
OBJECT__29
10
0
20
0
30
0
70
128
71
13
72
10
73
11
0
VERTEX
8
OBJECT__29
10
0
20
0
30
0
70
128
71
15
72
14
73
1
0
VERTEX
8
OBJECT__29
10
0
20
0
30
0
70
128
71
7
72
5
73
4
0
VERTEX
8
OBJECT__29
10
0
20
0
30
0
70
128
71
12
72
11
73
14
0
VERTEX
8
OBJECT__29
10
0
20
0
30
0
70
128
71
10
72
13
73
8
0
VERTEX
8
OBJECT__29
10
0
20
0
30
0
70
128
71
3
72
16
73
1
0
SEQEND
8
OBJECT__29
0
POLYLINE
8
OBJECT__30
66
1
70
64
71
15
72
13
62
253
0
VERTEX
8
OBJECT__30
10
96.639000
20
0.006000
30
132.802002
70
192
0
VERTEX
8
OBJECT__30
10
89.641998
20
2.386000
30
128.397003
70
192
0
VERTEX
8
OBJECT__30
10
89.834999
20
3.576000
30
128.608994
70
192
0
VERTEX
8
OBJECT__30
10
89.603996
20
0.006000
30
128.356003
70
192
0
VERTEX
8
OBJECT__30
10
95.514000
20
6.730000
30
132.662003
70
192
0
VERTEX
8
OBJECT__30
10
95.828003
20
5.741000
30
132.701004
70
192
0
VERTEX
8
OBJECT__30
10
91.352997
20
8.241000
30
130.287003
70
192
0
VERTEX
8
OBJECT__30
10
93.211998
20
11.578000
30
132.375000
70
192
0
VERTEX
8
OBJECT__30
10
96.660004
20
-0.140000
30
132.804001
70
192
0
VERTEX
8
OBJECT__30
10
90.403999
20
-5.784000
30
129.235001
70
192
0
VERTEX
8
OBJECT__30
10
89.575996
20
-1.801000
30
128.324997
70
192
0
VERTEX
8
OBJECT__30
10
95.816002
20
-5.763000
30
132.699005
70
192
0
VERTEX
8
OBJECT__30
10
92.530998
20
-10.481000
30
131.606995
70
192
0
VERTEX
8
OBJECT__30
10
92.848999
20
-11.004000
30
131.964996
70
192
0
VERTEX
8
OBJECT__30
10
93.208000
20
-11.565000
30
132.371994
70
192
0
VERTEX
8
OBJECT__30
10
0
20
0
30
0
70
128
71
1
72
2
73
3
0
VERTEX
8
OBJECT__30
10
0
20
0
30
0
70
128
71
1
72
4
73
2
0
VERTEX
8
OBJECT__30
10
0
20
0
30
0
70
128
71
3
72
5
73
6
0
VERTEX
8
OBJECT__30
10
0
20
0
30
0
70
128
71
5
72
3
73
7
0
VERTEX
8
OBJECT__30
10
0
20
0
30
0
70
128
71
7
72
8
73
5
0
VERTEX
8
OBJECT__30
10
0
20
0
30
0
70
128
71
9
72
10
73
11
0
VERTEX
8
OBJECT__30
10
0
20
0
30
0
70
128
71
10
72
9
73
12
0
VERTEX
8
OBJECT__30
10
0
20
0
30
0
70
128
71
12
72
13
73
10
0
VERTEX
8
OBJECT__30
10
0
20
0
30
0
70
128
71
4
72
1
73
9
0
VERTEX
8
OBJECT__30
10
0
20
0
30
0
70
128
71
12
72
14
73
13
0
VERTEX
8
OBJECT__30
10
0
20
0
30
0
70
128
71
12
72
15
73
14
0
VERTEX
8
OBJECT__30
10
0
20
0
30
0
70
128
71
11
72
4
73
9
0
VERTEX
8
OBJECT__30
10
0
20
0
30
0
70
128
71
3
72
6
73
1
0
SEQEND
8
OBJECT__30
0
POLYLINE
8
OBJECT__31
66
1
70
64
71
22
72
20
62
253
0
VERTEX
8
OBJECT__31
10
90.429001
20
8.700000
30
130.240997
70
192
0
VERTEX
8
OBJECT__31
10
92.341003
20
12.130000
30
132.425003
70
192
0
VERTEX
8
OBJECT__31
10
93.211998
20
11.578000
30
132.375000
70
192
0
VERTEX
8
OBJECT__31
10
89.834999
20
3.576000
30
128.608994
70
192
0
VERTEX
8
OBJECT__31
10
88.856003
20
3.808000
30
128.447006
70
192
0
VERTEX
8
OBJECT__31
10
90.224998
20
8.066000
30
130.007996
70
192
0
VERTEX
8
OBJECT__31
10
91.352997
20
8.241000
30
130.287003
70
192
0
VERTEX
8
OBJECT__31
10
88.653999
20
2.544000
30
128.216995
70
192
0
VERTEX
8
OBJECT__31
10
88.615997
20
0.016000
30
128.171997
70
192
0
VERTEX
8
OBJECT__31
10
89.641998
20
2.386000
30
128.397003
70
192
0
VERTEX
8
OBJECT__31
10
89.603996
20
0.006000
30
128.356003
70
192
0
VERTEX
8
OBJECT__31
10
89.575996
20
-1.801000
30
128.324997
70
192
0
VERTEX
8
OBJECT__31
10
88.585999
20
-1.922000
30
128.138000
70
192
0
VERTEX
8
OBJECT__31
10
90.403999
20
-5.784000
30
129.235001
70
192
0
VERTEX
8
OBJECT__31
10
92.530998
20
-10.481000
30
131.606995
70
192
0
VERTEX
8
OBJECT__31
10
91.640999
20
-11.009000
30
131.626007
70
192
0
VERTEX
8
OBJECT__31
10
90.272003
20
-7.969000
30
130.063995
70
192
0
VERTEX
8
OBJECT__31
10
92.848999
20
-11.004000
30
131.964996
70
192
0
VERTEX
8
OBJECT__31
10
91.967003
20
-11.544000
30
131.998993
70
192
0
VERTEX
8
OBJECT__31
10
93.208000
20
-11.565000
30
132.371994
70
192
0
VERTEX
8
OBJECT__31
10
92.335999
20
-12.117000
30
132.421997
70
192
0
VERTEX
8
OBJECT__31
10
89.446999
20
-6.138000
30
129.121994
70
192
0
VERTEX
8
OBJECT__31
10
0
20
0
30
0
70
128
71
1
72
2
73
3
0
VERTEX
8
OBJECT__31
10
0
20
0
30
0
70
128
71
4
72
5
73
6
0
VERTEX
8
OBJECT__31
10
0
20
0
30
0
70
128
71
6
72
7
73
4
0
VERTEX
8
OBJECT__31
10
0
20
0
30
0
70
128
71
8
72
5
73
4
0
VERTEX
8
OBJECT__31
10
0
20
0
30
0
70
128
71
9
72
8
73
10
0
VERTEX
8
OBJECT__31
10
0
20
0
30
0
70
128
71
9
72
11
73
12
0
VERTEX
8
OBJECT__31
10
0
20
0
30
0
70
128
71
12
72
13
73
9
0
VERTEX
8
OBJECT__31
10
0
20
0
30
0
70
128
71
13
72
12
73
14
0
VERTEX
8
OBJECT__31
10
0
20
0
30
0
70
128
71
15
72
16
73
17
0
VERTEX
8
OBJECT__31
10
0
20
0
30
0
70
128
71
17
72
14
73
15
0
VERTEX
8
OBJECT__31
10
0
20
0
30
0
70
128
71
16
72
15
73
18
0
VERTEX
8
OBJECT__31
10
0
20
0
30
0
70
128
71
19
72
18
73
20
0
VERTEX
8
OBJECT__31
10
0
20
0
30
0
70
128
71
20
72
21
73
19
0
VERTEX
8
OBJECT__31
10
0
20
0
30
0
70
128
71
18
72
19
73
16
0
VERTEX
8
OBJECT__31
10
0
20
0
30
0
70
128
71
17
72
22
73
14
0
VERTEX
8
OBJECT__31
10
0
20
0
30
0
70
128
71
14
72
22
73
13
0
VERTEX
8
OBJECT__31
10
0
20
0
30
0
70
128
71
10
72
11
73
9
0
VERTEX
8
OBJECT__31
10
0
20
0
30
0
70
128
71
4
72
10
73
8
0
VERTEX
8
OBJECT__31
10
0
20
0
30
0
70
128
71
6
72
1
73
7
0
VERTEX
8
OBJECT__31
10
0
20
0
30
0
70
128
71
3
72
7
73
1
0
SEQEND
8
OBJECT__31
0
POLYLINE
8
OBJECT__33
66
1
70
64
71
22
72
24
62
253
0
VERTEX
8
OBJECT__33
10
93.641998
20
-11.958000
30
133.856003
70
192
0
VERTEX
8
OBJECT__33
10
93.208000
20
-11.565000
30
132.371994
70
192
0
VERTEX
8
OBJECT__33
10
95.816002
20
-5.763000
30
132.699005
70
192
0
VERTEX
8
OBJECT__33
10
96.385002
20
-5.997000
30
134.259995
70
192
0
VERTEX
8
OBJECT__33
10
93.654999
20
-11.969000
30
133.899002
70
192
0
VERTEX
8
OBJECT__33
10
95.204002
20
-5.690000
30
135.412003
70
192
0
VERTEX
8
OBJECT__33
10
92.623001
20
-11.425000
30
135.052994
70
192
0
VERTEX
8
OBJECT__33
10
97.278999
20
-0.147000
30
134.378998
70
192
0
VERTEX
8
OBJECT__33
10
96.038002
20
-0.139000
30
135.529007
70
192
0
VERTEX
8
OBJECT__33
10
96.398003
20
5.972000
30
134.263000
70
192
0
VERTEX
8
OBJECT__33
10
96.639000
20
0.006000
30
132.802002
70
192
0
VERTEX
8
OBJECT__33
10
96.660004
20
-0.140000
30
132.804001
70
192
0
VERTEX
8
OBJECT__33
10
95.216003
20
5.667000
30
135.414001
70
192
0
VERTEX
8
OBJECT__33
10
96.035004
20
-0.114000
30
135.528000
70
192
0
VERTEX
8
OBJECT__33
10
95.828003
20
5.741000
30
132.701004
70
192
0
VERTEX
8
OBJECT__33
10
95.514000
20
6.730000
30
132.662003
70
192
0
VERTEX
8
OBJECT__33
10
96.066002
20
6.997000
30
134.218994
70
192
0
VERTEX
8
OBJECT__33
10
94.904999
20
6.644000
30
135.371002
70
192
0
VERTEX
8
OBJECT__33
10
93.211998
20
11.578000
30
132.375000
70
192
0
VERTEX
8
OBJECT__33
10
93.646004
20
11.970000
30
133.860001
70
192
0
VERTEX
8
OBJECT__33
10
93.658997
20
11.981000
30
133.901993
70
192
0
VERTEX
8
OBJECT__33
10
92.625999
20
11.436000
30
135.056000
70
192
0
VERTEX
8
OBJECT__33
10
0
20
0
30
0
70
128
71
1
72
2
73
3
0
VERTEX
8
OBJECT__33
10
0
20
0
30
0
70
128
71
4
72
5
73
1
0
VERTEX
8
OBJECT__33
10
0
20
0
30
0
70
128
71
4
72
6
73
7
0
VERTEX
8
OBJECT__33
10
0
20
0
30
0
70
128
71
8
72
4
73
3
0
VERTEX
8
OBJECT__33
10
0
20
0
30
0
70
128
71
8
72
9
73
6
0
VERTEX
8
OBJECT__33
10
0
20
0
30
0
70
128
71
10
72
8
73
11
0
VERTEX
8
OBJECT__33
10
0
20
0
30
0
70
128
71
8
72
12
73
11
0
VERTEX
8
OBJECT__33
10
0
20
0
30
0
70
128
71
10
72
13
73
14
0
VERTEX
8
OBJECT__33
10
0
20
0
30
0
70
128
71
14
72
8
73
10
0
VERTEX
8
OBJECT__33
10
0
20
0
30
0
70
128
71
10
72
15
73
16
0
VERTEX
8
OBJECT__33
10
0
20
0
30
0
70
128
71
10
72
17
73
18
0
VERTEX
8
OBJECT__33
10
0
20
0
30
0
70
128
71
17
72
16
73
19
0
VERTEX
8
OBJECT__33
10
0
20
0
30
0
70
128
71
19
72
20
73
17
0
VERTEX
8
OBJECT__33
10
0
20
0
30
0
70
128
71
17
72
21
73
22
0
VERTEX
8
OBJECT__33
10
0
20
0
30
0
70
128
71
22
72
18
73
17
0
VERTEX
8
OBJECT__33
10
0
20
0
30
0
70
128
71
20
72
21
73
17
0
VERTEX
8
OBJECT__33
10
0
20
0
30
0
70
128
71
18
72
13
73
10
0
VERTEX
8
OBJECT__33
10
0
20
0
30
0
70
128
71
16
72
17
73
10
0
VERTEX
8
OBJECT__33
10
0
20
0
30
0
70
128
71
14
72
9
73
8
0
VERTEX
8
OBJECT__33
10
0
20
0
30
0
70
128
71
11
72
15
73
10
0
VERTEX
8
OBJECT__33
10
0
20
0
30
0
70
128
71
6
72
4
73
8
0
VERTEX
8
OBJECT__33
10
0
20
0
30
0
70
128
71
3
72
12
73
8
0
VERTEX
8
OBJECT__33
10
0
20
0
30
0
70
128
71
7
72
5
73
4
0
VERTEX
8
OBJECT__33
10
0
20
0
30
0
70
128
71
3
72
4
73
1
0
SEQEND
8
OBJECT__33
0
POLYLINE
8
OBJECT__34
66
1
70
64
71
7
72
5
62
253
0
VERTEX
8
OBJECT__34
10
92.570000
20
12.637000
30
133.955994
70
192
0
VERTEX
8
OBJECT__34
10
92.625999
20
11.436000
30
135.056000
70
192
0
VERTEX
8
OBJECT__34
10
93.658997
20
11.981000
30
133.901993
70
192
0
VERTEX
8
OBJECT__34
10
93.646004
20
11.970000
30
133.860001
70
192
0
VERTEX
8
OBJECT__34
10
92.556999
20
12.607000
30
133.867004
70
192
0
VERTEX
8
OBJECT__34
10
93.211998
20
11.578000
30
132.375000
70
192
0
VERTEX
8
OBJECT__34
10
92.341003
20
12.130000
30
132.425003
70
192
0
VERTEX
8
OBJECT__34
10
0
20
0
30
0
70
128
71
1
72
2
73
3
0
VERTEX
8
OBJECT__34
10
0
20
0
30
0
70
128
71
4
72
5
73
1
0
VERTEX
8
OBJECT__34
10
0
20
0
30
0
70
128
71
4
72
6
73
7
0
VERTEX
8
OBJECT__34
10
0
20
0
30
0
70
128
71
7
72
5
73
4
0
VERTEX
8
OBJECT__34
10
0
20
0
30
0
70
128
71
3
72
4
73
1
0
SEQEND
8
OBJECT__34
0
POLYLINE
8
OBJECT__35
66
1
70
64
71
26
72
28
62
253
0
VERTEX
8
OBJECT__35
10
92.570000
20
12.637000
30
133.955994
70
192
0
VERTEX
8
OBJECT__35
10
92.556999
20
12.607000
30
133.867004
70
192
0
VERTEX
8
OBJECT__35
10
73.672997
20
13.045000
30
134.126999
70
192
0
VERTEX
8
OBJECT__35
10
72.903000
20
13.718000
30
135.751007
70
192
0
VERTEX
8
OBJECT__35
10
92.341003
20
12.130000
30
132.425003
70
192
0
VERTEX
8
OBJECT__35
10
92.625999
20
11.436000
30
135.056000
70
192
0
VERTEX
8
OBJECT__35
10
72.781998
20
13.088000
30
134.207993
70
192
0
VERTEX
8
OBJECT__35
10
57.020000
20
14.049000
30
134.483002
70
192
0
VERTEX
8
OBJECT__35
10
55.811001
20
14.756000
30
136.035995
70
192
0
VERTEX
8
OBJECT__35
10
55.685001
20
13.597000
30
137.214005
70
192
0
VERTEX
8
OBJECT__35
10
64.806999
20
13.030000
30
137.059998
70
192
0
VERTEX
8
OBJECT__35
10
55.806000
20
14.123000
30
134.503998
70
192
0
VERTEX
8
OBJECT__35
10
50.535999
20
14.603000
30
134.276993
70
192
0
VERTEX
8
OBJECT__35
10
50.497002
20
15.215000
30
135.798996
70
192
0
VERTEX
8
OBJECT__35
10
42.042000
20
15.630000
30
133.326004
70
192
0
VERTEX
8
OBJECT__35
10
35.847000
20
16.857000
30
134.126007
70
192
0
VERTEX
8
OBJECT__35
10
40.151001
20
15.242000
30
135.759003
70
192
0
VERTEX
8
OBJECT__35
10
48.032001
20
14.335000
30
136.692993
70
192
0
VERTEX
8
OBJECT__35
10
35.515999
20
15.775000
30
135.210007
70
192
0
VERTEX
8
OBJECT__35
10
36.042999
20
16.355000
30
132.654999
70
192
0
VERTEX
8
OBJECT__35
10
28.191999
20
17.466999
30
131.050003
70
192
0
VERTEX
8
OBJECT__35
10
27.891001
20
17.893000
30
132.470001
70
192
0
VERTEX
8
OBJECT__35
10
30.913000
20
16.392000
30
134.223999
70
192
0
VERTEX
8
OBJECT__35
10
27.495001
20
16.849001
30
133.490997
70
192
0
VERTEX
8
OBJECT__35
10
50.314999
20
14.072000
30
136.962997
70
192
0
VERTEX
8
OBJECT__35
10
72.913002
20
12.527000
30
136.923004
70
192
0
VERTEX
8
OBJECT__35
10
0
20
0
30
0
70
128
71
1
72
2
73
3
0
VERTEX
8
OBJECT__35
10
0
20
0
30
0
70
128
71
3
72
4
73
1
0
VERTEX
8
OBJECT__35
10
0
20
0
30
0
70
128
71
2
72
5
73
3
0
VERTEX
8
OBJECT__35
10
0
20
0
30
0
70
128
71
6
72
1
73
4
0
VERTEX
8
OBJECT__35
10
0
20
0
30
0
70
128
71
4
72
7
73
8
0
VERTEX
8
OBJECT__35
10
0
20
0
30
0
70
128
71
8
72
9
73
4
0
VERTEX
8
OBJECT__35
10
0
20
0
30
0
70
128
71
9
72
10
73
11
0
VERTEX
8
OBJECT__35
10
0
20
0
30
0
70
128
71
11
72
4
73
9
0
VERTEX
8
OBJECT__35
10
0
20
0
30
0
70
128
71
9
72
12
73
13
0
VERTEX
8
OBJECT__35
10
0
20
0
30
0
70
128
71
10
72
9
73
14
0
VERTEX
8
OBJECT__35
10
0
20
0
30
0
70
128
71
14
72
13
73
15
0
VERTEX
8
OBJECT__35
10
0
20
0
30
0
70
128
71
15
72
16
73
14
0
VERTEX
8
OBJECT__35
10
0
20
0
30
0
70
128
71
14
72
16
73
17
0
VERTEX
8
OBJECT__35
10
0
20
0
30
0
70
128
71
17
72
18
73
14
0
VERTEX
8
OBJECT__35
10
0
20
0
30
0
70
128
71
16
72
19
73
17
0
VERTEX
8
OBJECT__35
10
0
20
0
30
0
70
128
71
16
72
20
73
21
0
VERTEX
8
OBJECT__35
10
0
20
0
30
0
70
128
71
21
72
22
73
16
0
VERTEX
8
OBJECT__35
10
0
20
0
30
0
70
128
71
16
72
22
73
23
0
VERTEX
8
OBJECT__35
10
0
20
0
30
0
70
128
71
22
72
24
73
23
0
VERTEX
8
OBJECT__35
10
0
20
0
30
0
70
128
71
23
72
19
73
16
0
VERTEX
8
OBJECT__35
10
0
20
0
30
0
70
128
71
18
72
25
73
14
0
VERTEX
8
OBJECT__35
10
0
20
0
30
0
70
128
71
15
72
20
73
16
0
VERTEX
8
OBJECT__35
10
0
20
0
30
0
70
128
71
14
72
25
73
10
0
VERTEX
8
OBJECT__35
10
0
20
0
30
0
70
128
71
13
72
14
73
9
0
VERTEX
8
OBJECT__35
10
0
20
0
30
0
70
128
71
11
72
26
73
4
0
VERTEX
8
OBJECT__35
10
0
20
0
30
0
70
128
71
8
72
12
73
9
0
VERTEX
8
OBJECT__35
10
0
20
0
30
0
70
128
71
4
72
26
73
6
0
VERTEX
8
OBJECT__35
10
0
20
0
30
0
70
128
71
3
72
7
73
4
0
SEQEND
8
OBJECT__35
0
POLYLINE
8
OBJECT__36
66
1
70
64
71
7
72
5
62
253
0
VERTEX
8
OBJECT__36
10
93.641998
20
-11.958000
30
133.856003
70
192
0
VERTEX
8
OBJECT__36
10
92.552002
20
-12.595000
30
133.863007
70
192
0
VERTEX
8
OBJECT__36
10
92.335999
20
-12.117000
30
132.421997
70
192
0
VERTEX
8
OBJECT__36
10
92.565002
20
-12.625000
30
133.953003
70
192
0
VERTEX
8
OBJECT__36
10
93.654999
20
-11.969000
30
133.899002
70
192
0
VERTEX
8
OBJECT__36
10
92.623001
20
-11.425000
30
135.052994
70
192
0
VERTEX
8
OBJECT__36
10
93.208000
20
-11.565000
30
132.371994
70
192
0
VERTEX
8
OBJECT__36
10
0
20
0
30
0
70
128
71
1
72
2
73
3
0
VERTEX
8
OBJECT__36
10
0
20
0
30
0
70
128
71
4
72
1
73
5
0
VERTEX
8
OBJECT__36
10
0
20
0
30
0
70
128
71
5
72
6
73
4
0
VERTEX
8
OBJECT__36
10
0
20
0
30
0
70
128
71
4
72
2
73
1
0
VERTEX
8
OBJECT__36
10
0
20
0
30
0
70
128
71
3
72
7
73
1
0
SEQEND
8
OBJECT__36
0
POLYLINE
8
OBJECT__37
66
1
70
64
71
50
72
57
62
253
0
VERTEX
8
OBJECT__37
10
57.180000
20
-9.317000
30
131.951996
70
192
0
VERTEX
8
OBJECT__37
10
57.307999
20
0.040000
30
129.878006
70
192
0
VERTEX
8
OBJECT__37
10
73.218002
20
0.030000
30
129.759995
70
192
0
VERTEX
8
OBJECT__37
10
42.938000
20
-9.177000
30
129.832001
70
192
0
VERTEX
8
OBJECT__37
10
43.429001
20
0.050000
30
127.824997
70
192
0
VERTEX
8
OBJECT__37
10
57.181000
20
9.398000
30
131.964996
70
192
0
VERTEX
8
OBJECT__37
10
73.436996
20
9.025000
30
131.860992
70
192
0
VERTEX
8
OBJECT__37
10
36.153000
20
-3.917000
30
126.044998
70
192
0
VERTEX
8
OBJECT__37
10
34.730000
20
-8.469000
30
127.071999
70
192
0
VERTEX
8
OBJECT__37
10
35.369999
20
-6.420000
30
126.609001
70
192
0
VERTEX
8
OBJECT__37
10
34.497002
20
-8.891000
30
127.232002
70
192
0
VERTEX
8
OBJECT__37
10
42.938000
20
9.279000
30
129.843002
70
192
0
VERTEX
8
OBJECT__37
10
35.897999
20
4.777000
30
126.133003
70
192
0
VERTEX
8
OBJECT__37
10
35.219002
20
6.639000
30
126.612999
70
192
0
VERTEX
8
OBJECT__37
10
36.512001
20
0.080000
30
125.750000
70
192
0
VERTEX
8
OBJECT__37
10
32.035999
20
12.967000
30
128.774002
70
192
0
VERTEX
8
OBJECT__37
10
31.365999
20
14.033000
30
129.220001
70
192
0
VERTEX
8
OBJECT__37
10
36.042999
20
16.355000
30
132.654999
70
192
0
VERTEX
8
OBJECT__37
10
42.042000
20
15.630000
30
133.326004
70
192
0
VERTEX
8
OBJECT__37
10
34.117001
20
9.659000
30
127.390999
70
192
0
VERTEX
8
OBJECT__37
10
34.359001
20
8.995000
30
127.220001
70
192
0
VERTEX
8
OBJECT__37
10
50.535999
20
14.603000
30
134.276993
70
192
0
VERTEX
8
OBJECT__37
10
55.806000
20
14.123000
30
134.503998
70
192
0
VERTEX
8
OBJECT__37
10
57.020000
20
14.049000
30
134.483002
70
192
0
VERTEX
8
OBJECT__37
10
72.781998
20
13.088000
30
134.207993
70
192
0
VERTEX
8
OBJECT__37
10
73.672997
20
13.045000
30
134.126999
70
192
0
VERTEX
8
OBJECT__37
10
90.429001
20
8.700000
30
130.240997
70
192
0
VERTEX
8
OBJECT__37
10
90.224998
20
8.066000
30
130.007996
70
192
0
VERTEX
8
OBJECT__37
10
92.341003
20
12.130000
30
132.425003
70
192
0
VERTEX
8
OBJECT__37
10
88.856003
20
3.808000
30
128.447006
70
192
0
VERTEX
8
OBJECT__37
10
88.653999
20
2.544000
30
128.216995
70
192
0
VERTEX
8
OBJECT__37
10
73.434998
20
-8.965000
30
131.847000
70
192
0
VERTEX
8
OBJECT__37
10
88.585999
20
-1.922000
30
128.138000
70
192
0
VERTEX
8
OBJECT__37
10
89.446999
20
-6.138000
30
129.121994
70
192
0
VERTEX
8
OBJECT__37
10
88.615997
20
0.016000
30
128.171997
70
192
0
VERTEX
8
OBJECT__37
10
73.671997
20
-13.015000
30
134.132996
70
192
0
VERTEX
8
OBJECT__37
10
91.640999
20
-11.009000
30
131.626007
70
192
0
VERTEX
8
OBJECT__37
10
91.967003
20
-11.544000
30
131.998993
70
192
0
VERTEX
8
OBJECT__37
10
90.272003
20
-7.969000
30
130.063995
70
192
0
VERTEX
8
OBJECT__37
10
72.945000
20
-13.050000
30
134.199997
70
192
0
VERTEX
8
OBJECT__37
10
55.928001
20
-14.064000
30
134.511993
70
192
0
VERTEX
8
OBJECT__37
10
50.694000
20
-14.532000
30
134.292007
70
192
0
VERTEX
8
OBJECT__37
10
57.018002
20
-13.999000
30
134.492004
70
192
0
VERTEX
8
OBJECT__37
10
42.035999
20
-15.561000
30
133.335999
70
192
0
VERTEX
8
OBJECT__37
10
32.433998
20
-12.622000
30
128.645996
70
192
0
VERTEX
8
OBJECT__37
10
32.284000
20
-12.795000
30
128.735992
70
192
0
VERTEX
8
OBJECT__37
10
36.186001
20
-16.257000
30
132.690002
70
192
0
VERTEX
8
OBJECT__37
10
28.341999
20
-17.353001
30
131.098999
70
192
0
VERTEX
8
OBJECT__37
10
92.335999
20
-12.117000
30
132.421997
70
192
0
VERTEX
8
OBJECT__37
10
28.191999
20
17.466999
30
131.050003
70
192
0
VERTEX
8
OBJECT__37
10
0
20
0
30
0
70
128
71
1
72
2
73
3
0
VERTEX
8
OBJECT__37
10
0
20
0
30
0
70
128
71
1
72
4
73
5
0
VERTEX
8
OBJECT__37
10
0
20
0
30
0
70
128
71
6
72
2
73
5
0
VERTEX
8
OBJECT__37
10
0
20
0
30
0
70
128
71
6
72
7
73
3
0
VERTEX
8
OBJECT__37
10
0
20
0
30
0
70
128
71
5
72
4
73
8
0
VERTEX
8
OBJECT__37
10
0
20
0
30
0
70
128
71
4
72
9
73
10
0
VERTEX
8
OBJECT__37
10
0
20
0
30
0
70
128
71
4
72
11
73
9
0
VERTEX
8
OBJECT__37
10
0
20
0
30
0
70
128
71
10
72
8
73
4
0
VERTEX
8
OBJECT__37
10
0
20
0
30
0
70
128
71
12
72
13
73
14
0
VERTEX
8
OBJECT__37
10
0
20
0
30
0
70
128
71
5
72
15
73
13
0
VERTEX
8
OBJECT__37
10
0
20
0
30
0
70
128
71
13
72
12
73
5
0
VERTEX
8
OBJECT__37
10
0
20
0
30
0
70
128
71
16
72
17
73
18
0
VERTEX
8
OBJECT__37
10
0
20
0
30
0
70
128
71
19
72
20
73
16
0
VERTEX
8
OBJECT__37
10
0
20
0
30
0
70
128
71
18
72
19
73
16
0
VERTEX
8
OBJECT__37
10
0
20
0
30
0
70
128
71
12
72
21
73
20
0
VERTEX
8
OBJECT__37
10
0
20
0
30
0
70
128
71
20
72
19
73
12
0
VERTEX
8
OBJECT__37
10
0
20
0
30
0
70
128
71
6
72
12
73
22
0
VERTEX
8
OBJECT__37
10
0
20
0
30
0
70
128
71
12
72
19
73
22
0
VERTEX
8
OBJECT__37
10
0
20
0
30
0
70
128
71
22
72
23
73
6
0
VERTEX
8
OBJECT__37
10
0
20
0
30
0
70
128
71
6
72
24
73
25
0
VERTEX
8
OBJECT__37
10
0
20
0
30
0
70
128
71
25
72
7
73
6
0
VERTEX
8
OBJECT__37
10
0
20
0
30
0
70
128
71
26
72
27
73
28
0
VERTEX
8
OBJECT__37
10
0
20
0
30
0
70
128
71
26
72
29
73
27
0
VERTEX
8
OBJECT__37
10
0
20
0
30
0
70
128
71
7
72
30
73
31
0
VERTEX
8
OBJECT__37
10
0
20
0
30
0
70
128
71
31
72
3
73
7
0
VERTEX
8
OBJECT__37
10
0
20
0
30
0
70
128
71
7
72
28
73
30
0
VERTEX
8
OBJECT__37
10
0
20
0
30
0
70
128
71
32
72
3
73
33
0
VERTEX
8
OBJECT__37
10
0
20
0
30
0
70
128
71
33
72
34
73
32
0
VERTEX
8
OBJECT__37
10
0
20
0
30
0
70
128
71
3
72
35
73
33
0
VERTEX
8
OBJECT__37
10
0
20
0
30
0
70
128
71
36
72
37
73
38
0
VERTEX
8
OBJECT__37
10
0
20
0
30
0
70
128
71
36
72
32
73
39
0
VERTEX
8
OBJECT__37
10
0
20
0
30
0
70
128
71
39
72
37
73
36
0
VERTEX
8
OBJECT__37
10
0
20
0
30
0
70
128
71
1
72
32
73
40
0
VERTEX
8
OBJECT__37
10
0
20
0
30
0
70
128
71
32
72
36
73
40
0
VERTEX
8
OBJECT__37
10
0
20
0
30
0
70
128
71
1
72
41
73
42
0
VERTEX
8
OBJECT__37
10
0
20
0
30
0
70
128
71
42
72
4
73
1
0
VERTEX
8
OBJECT__37
10
0
20
0
30
0
70
128
71
1
72
43
73
41
0
VERTEX
8
OBJECT__37
10
0
20
0
30
0
70
128
71
44
72
45
73
11
0
VERTEX
8
OBJECT__37
10
0
20
0
30
0
70
128
71
46
72
44
73
47
0
VERTEX
8
OBJECT__37
10
0
20
0
30
0
70
128
71
47
72
48
73
46
0
VERTEX
8
OBJECT__37
10
0
20
0
30
0
70
128
71
46
72
45
73
44
0
VERTEX
8
OBJECT__37
10
0
20
0
30
0
70
128
71
11
72
4
73
44
0
VERTEX
8
OBJECT__37
10
0
20
0
30
0
70
128
71
42
72
44
73
4
0
VERTEX
8
OBJECT__37
10
0
20
0
30
0
70
128
71
40
72
43
73
1
0
VERTEX
8
OBJECT__37
10
0
20
0
30
0
70
128
71
38
72
49
73
36
0
VERTEX
8
OBJECT__37
10
0
20
0
30
0
70
128
71
34
72
39
73
32
0
VERTEX
8
OBJECT__37
10
0
20
0
30
0
70
128
71
31
72
35
73
3
0
VERTEX
8
OBJECT__37
10
0
20
0
30
0
70
128
71
28
72
7
73
26
0
VERTEX
8
OBJECT__37
10
0
20
0
30
0
70
128
71
25
72
26
73
7
0
VERTEX
8
OBJECT__37
10
0
20
0
30
0
70
128
71
23
72
24
73
6
0
VERTEX
8
OBJECT__37
10
0
20
0
30
0
70
128
71
17
72
50
73
18
0
VERTEX
8
OBJECT__37
10
0
20
0
30
0
70
128
71
14
72
21
73
12
0
VERTEX
8
OBJECT__37
10
0
20
0
30
0
70
128
71
8
72
15
73
5
0
VERTEX
8
OBJECT__37
10
0
20
0
30
0
70
128
71
3
72
2
73
6
0
VERTEX
8
OBJECT__37
10
0
20
0
30
0
70
128
71
5
72
12
73
6
0
VERTEX
8
OBJECT__37
10
0
20
0
30
0
70
128
71
5
72
2
73
1
0
VERTEX
8
OBJECT__37
10
0
20
0
30
0
70
128
71
3
72
32
73
1
0
SEQEND
8
OBJECT__37
0
POLYLINE
8
OBJECT__38
66
1
70
64
71
15
72
15
62
253
0
VERTEX
8
OBJECT__38
10
20.430000
20
20.066999
30
130.182007
70
192
0
VERTEX
8
OBJECT__38
10
17.096001
20
21.625000
30
128.722000
70
192
0
VERTEX
8
OBJECT__38
10
16.989000
20
21.507999
30
128.792999
70
192
0
VERTEX
8
OBJECT__38
10
19.783001
20
19.253000
30
130.789001
70
192
0
VERTEX
8
OBJECT__38
10
20.924000
20
20.063000
30
129.084000
70
192
0
VERTEX
8
OBJECT__38
10
17.646000
20
21.768000
30
127.877998
70
192
0
VERTEX
8
OBJECT__38
10
23.465000
20
17.792999
30
132.270004
70
192
0
VERTEX
8
OBJECT__38
10
24.047001
20
18.729000
30
131.468002
70
192
0
VERTEX
8
OBJECT__38
10
24.441999
20
18.542000
30
130.177002
70
192
0
VERTEX
8
OBJECT__38
10
22.382000
20
19.431999
30
129.537003
70
192
0
VERTEX
8
OBJECT__38
10
27.495001
20
16.849001
30
133.490997
70
192
0
VERTEX
8
OBJECT__38
10
27.891001
20
17.893999
30
132.470001
70
192
0
VERTEX
8
OBJECT__38
10
28.191999
20
17.466999
30
131.050003
70
192
0
VERTEX
8
OBJECT__38
10
25.566999
20
18.219999
30
130.438995
70
192
0
VERTEX
8
OBJECT__38
10
16.469000
20
20.943001
30
129.141006
70
192
0
VERTEX
8
OBJECT__38
10
0
20
0
30
0
70
128
71
1
72
2
73
3
0
VERTEX
8
OBJECT__38
10
0
20
0
30
0
70
128
71
3
72
4
73
1
0
VERTEX
8
OBJECT__38
10
0
20
0
30
0
70
128
71
1
72
5
73
6
0
VERTEX
8
OBJECT__38
10
0
20
0
30
0
70
128
71
7
72
8
73
1
0
VERTEX
8
OBJECT__38
10
0
20
0
30
0
70
128
71
8
72
9
73
10
0
VERTEX
8
OBJECT__38
10
0
20
0
30
0
70
128
71
10
72
1
73
8
0
VERTEX
8
OBJECT__38
10
0
20
0
30
0
70
128
71
11
72
12
73
8
0
VERTEX
8
OBJECT__38
10
0
20
0
30
0
70
128
71
8
72
7
73
11
0
VERTEX
8
OBJECT__38
10
0
20
0
30
0
70
128
71
12
72
13
73
14
0
VERTEX
8
OBJECT__38
10
0
20
0
30
0
70
128
71
14
72
8
73
12
0
VERTEX
8
OBJECT__38
10
0
20
0
30
0
70
128
71
14
72
9
73
8
0
VERTEX
8
OBJECT__38
10
0
20
0
30
0
70
128
71
10
72
5
73
1
0
VERTEX
8
OBJECT__38
10
0
20
0
30
0
70
128
71
1
72
4
73
7
0
VERTEX
8
OBJECT__38
10
0
20
0
30
0
70
128
71
6
72
2
73
1
0
VERTEX
8
OBJECT__38
10
0
20
0
30
0
70
128
71
3
72
15
73
4
0
SEQEND
8
OBJECT__38
0
POLYLINE
8
OBJECT__39
66
1
70
64
71
26
72
28
62
253
0
VERTEX
8
OBJECT__39
10
92.623001
20
-11.425000
30
135.052994
70
192
0
VERTEX
8
OBJECT__39
10
73.079002
20
-12.488000
30
136.914001
70
192
0
VERTEX
8
OBJECT__39
10
73.066002
20
-13.679000
30
135.742004
70
192
0
VERTEX
8
OBJECT__39
10
92.552002
20
-12.595000
30
133.863007
70
192
0
VERTEX
8
OBJECT__39
10
73.671997
20
-13.015000
30
134.132996
70
192
0
VERTEX
8
OBJECT__39
10
92.335999
20
-12.117000
30
132.421997
70
192
0
VERTEX
8
OBJECT__39
10
72.945000
20
-13.050000
30
134.199997
70
192
0
VERTEX
8
OBJECT__39
10
55.933998
20
-14.697000
30
136.044006
70
192
0
VERTEX
8
OBJECT__39
10
64.819000
20
-12.990000
30
137.061005
70
192
0
VERTEX
8
OBJECT__39
10
57.018002
20
-13.999000
30
134.492004
70
192
0
VERTEX
8
OBJECT__39
10
55.928001
20
-14.064000
30
134.511993
70
192
0
VERTEX
8
OBJECT__39
10
55.810001
20
-13.537000
30
137.222000
70
192
0
VERTEX
8
OBJECT__39
10
50.477001
20
-14.000000
30
136.979996
70
192
0
VERTEX
8
OBJECT__39
10
50.655998
20
-15.144000
30
135.815994
70
192
0
VERTEX
8
OBJECT__39
10
50.694000
20
-14.532000
30
134.292007
70
192
0
VERTEX
8
OBJECT__39
10
48.054001
20
-14.274000
30
136.695999
70
192
0
VERTEX
8
OBJECT__39
10
38.477001
20
-15.359000
30
135.574997
70
192
0
VERTEX
8
OBJECT__39
10
35.991001
20
-16.760000
30
134.160995
70
192
0
VERTEX
8
OBJECT__39
10
42.035999
20
-15.561000
30
133.335999
70
192
0
VERTEX
8
OBJECT__39
10
36.186001
20
-16.257000
30
132.690002
70
192
0
VERTEX
8
OBJECT__39
10
35.664001
20
-15.677000
30
135.246002
70
192
0
VERTEX
8
OBJECT__39
10
30.950001
20
-16.299000
30
134.244003
70
192
0
VERTEX
8
OBJECT__39
10
28.042000
20
-17.780001
30
132.520004
70
192
0
VERTEX
8
OBJECT__39
10
28.341999
20
-17.353001
30
131.098999
70
192
0
VERTEX
8
OBJECT__39
10
27.649000
20
-16.733999
30
133.542999
70
192
0
VERTEX
8
OBJECT__39
10
92.565002
20
-12.625000
30
133.953003
70
192
0
VERTEX
8
OBJECT__39
10
0
20
0
30
0
70
128
71
1
72
2
73
3
0
VERTEX
8
OBJECT__39
10
0
20
0
30
0
70
128
71
4
72
3
73
5
0
VERTEX
8
OBJECT__39
10
0
20
0
30
0
70
128
71
5
72
6
73
4
0
VERTEX
8
OBJECT__39
10
0
20
0
30
0
70
128
71
3
72
7
73
5
0
VERTEX
8
OBJECT__39
10
0
20
0
30
0
70
128
71
8
72
3
73
9
0
VERTEX
8
OBJECT__39
10
0
20
0
30
0
70
128
71
3
72
2
73
9
0
VERTEX
8
OBJECT__39
10
0
20
0
30
0
70
128
71
3
72
8
73
10
0
VERTEX
8
OBJECT__39
10
0
20
0
30
0
70
128
71
8
72
11
73
10
0
VERTEX
8
OBJECT__39
10
0
20
0
30
0
70
128
71
12
72
13
73
14
0
VERTEX
8
OBJECT__39
10
0
20
0
30
0
70
128
71
8
72
14
73
15
0
VERTEX
8
OBJECT__39
10
0
20
0
30
0
70
128
71
14
72
16
73
17
0
VERTEX
8
OBJECT__39
10
0
20
0
30
0
70
128
71
14
72
13
73
16
0
VERTEX
8
OBJECT__39
10
0
20
0
30
0
70
128
71
17
72
18
73
14
0
VERTEX
8
OBJECT__39
10
0
20
0
30
0
70
128
71
14
72
18
73
19
0
VERTEX
8
OBJECT__39
10
0
20
0
30
0
70
128
71
18
72
20
73
19
0
VERTEX
8
OBJECT__39
10
0
20
0
30
0
70
128
71
18
72
21
73
22
0
VERTEX
8
OBJECT__39
10
0
20
0
30
0
70
128
71
22
72
23
73
18
0
VERTEX
8
OBJECT__39
10
0
20
0
30
0
70
128
71
23
72
20
73
18
0
VERTEX
8
OBJECT__39
10
0
20
0
30
0
70
128
71
23
72
24
73
20
0
VERTEX
8
OBJECT__39
10
0
20
0
30
0
70
128
71
22
72
25
73
23
0
VERTEX
8
OBJECT__39
10
0
20
0
30
0
70
128
71
19
72
15
73
14
0
VERTEX
8
OBJECT__39
10
0
20
0
30
0
70
128
71
17
72
21
73
18
0
VERTEX
8
OBJECT__39
10
0
20
0
30
0
70
128
71
15
72
11
73
8
0
VERTEX
8
OBJECT__39
10
0
20
0
30
0
70
128
71
14
72
8
73
12
0
VERTEX
8
OBJECT__39
10
0
20
0
30
0
70
128
71
10
72
7
73
3
0
VERTEX
8
OBJECT__39
10
0
20
0
30
0
70
128
71
9
72
12
73
8
0
VERTEX
8
OBJECT__39
10
0
20
0
30
0
70
128
71
4
72
26
73
3
0
VERTEX
8
OBJECT__39
10
0
20
0
30
0
70
128
71
3
72
26
73
1
0
SEQEND
8
OBJECT__39
0
POLYLINE
8
OBJECT__40
66
1
70
64
71
15
72
15
62
253
0
VERTEX
8
OBJECT__40
10
24.136999
20
-17.511999
30
132.507004
70
192
0
VERTEX
8
OBJECT__40
10
20.836000
20
-18.737000
30
131.244003
70
192
0
VERTEX
8
OBJECT__40
10
21.480000
20
-19.580999
30
130.591003
70
192
0
VERTEX
8
OBJECT__40
10
24.702999
20
-18.465000
30
131.675995
70
192
0
VERTEX
8
OBJECT__40
10
22.562000
20
-19.284000
30
129.617996
70
192
0
VERTEX
8
OBJECT__40
10
21.951000
20
-19.534000
30
129.438004
70
192
0
VERTEX
8
OBJECT__40
10
17.344999
20
-21.535000
30
128.718994
70
192
0
VERTEX
8
OBJECT__40
10
17.846001
20
-21.660999
30
127.949997
70
192
0
VERTEX
8
OBJECT__40
10
17.294001
20
-21.521999
30
128.796997
70
192
0
VERTEX
8
OBJECT__40
10
28.042000
20
-17.780001
30
132.520004
70
192
0
VERTEX
8
OBJECT__40
10
25.841000
20
-18.040001
30
130.533005
70
192
0
VERTEX
8
OBJECT__40
10
25.083000
20
-18.247999
30
130.360992
70
192
0
VERTEX
8
OBJECT__40
10
27.649000
20
-16.733999
30
133.542999
70
192
0
VERTEX
8
OBJECT__40
10
16.659000
20
-20.841999
30
129.216995
70
192
0
VERTEX
8
OBJECT__40
10
28.341999
20
-17.353001
30
131.098999
70
192
0
VERTEX
8
OBJECT__40
10
0
20
0
30
0
70
128
71
1
72
2
73
3
0
VERTEX
8
OBJECT__40
10
0
20
0
30
0
70
128
71
4
72
3
73
5
0
VERTEX
8
OBJECT__40
10
0
20
0
30
0
70
128
71
3
72
6
73
5
0
VERTEX
8
OBJECT__40
10
0
20
0
30
0
70
128
71
3
72
7
73
8
0
VERTEX
8
OBJECT__40
10
0
20
0
30
0
70
128
71
3
72
9
73
7
0
VERTEX
8
OBJECT__40
10
0
20
0
30
0
70
128
71
10
72
4
73
11
0
VERTEX
8
OBJECT__40
10
0
20
0
30
0
70
128
71
4
72
12
73
11
0
VERTEX
8
OBJECT__40
10
0
20
0
30
0
70
128
71
10
72
1
73
4
0
VERTEX
8
OBJECT__40
10
0
20
0
30
0
70
128
71
10
72
13
73
1
0
VERTEX
8
OBJECT__40
10
0
20
0
30
0
70
128
71
2
72
14
73
9
0
VERTEX
8
OBJECT__40
10
0
20
0
30
0
70
128
71
9
72
3
73
2
0
VERTEX
8
OBJECT__40
10
0
20
0
30
0
70
128
71
11
72
15
73
10
0
VERTEX
8
OBJECT__40
10
0
20
0
30
0
70
128
71
8
72
6
73
3
0
VERTEX
8
OBJECT__40
10
0
20
0
30
0
70
128
71
5
72
12
73
4
0
VERTEX
8
OBJECT__40
10
0
20
0
30
0
70
128
71
3
72
4
73
1
0
SEQEND
8
OBJECT__40
0
POLYLINE
8
OBJECT__41
66
1
70
64
71
79
72
91
62
253
0
VERTEX
8
OBJECT__41
10
31.013000
20
-14.944000
30
134.679993
70
192
0
VERTEX
8
OBJECT__41
10
31.386000
20
-0.094000
30
136.647995
70
192
0
VERTEX
8
OBJECT__41
10
14.568000
20
-0.083000
30
132.485001
70
192
0
VERTEX
8
OBJECT__41
10
-1.695000
20
-12.259000
30
123.274002
70
192
0
VERTEX
8
OBJECT__41
10
-1.432000
20
-0.070000
30
125.142998
70
192
0
VERTEX
8
OBJECT__41
10
-15.766000
20
-0.053000
30
113.661003
70
192
0
VERTEX
8
OBJECT__41
10
14.242000
20
-13.740000
30
130.574997
70
192
0
VERTEX
8
OBJECT__41
10
30.990000
20
14.755000
30
134.733994
70
192
0
VERTEX
8
OBJECT__41
10
14.202000
20
13.570000
30
130.623993
70
192
0
VERTEX
8
OBJECT__41
10
-1.757000
20
12.111000
30
123.318001
70
192
0
VERTEX
8
OBJECT__41
10
-16.035000
20
10.361000
30
111.839996
70
192
0
VERTEX
8
OBJECT__41
10
30.950001
20
-16.299000
30
134.244003
70
192
0
VERTEX
8
OBJECT__41
10
35.664001
20
-15.677000
30
135.246002
70
192
0
VERTEX
8
OBJECT__41
10
48.374001
20
-0.101000
30
138.440994
70
192
0
VERTEX
8
OBJECT__41
10
38.477001
20
-15.359000
30
135.574997
70
192
0
VERTEX
8
OBJECT__41
10
65.087997
20
-0.107000
30
138.518997
70
192
0
VERTEX
8
OBJECT__41
10
55.810001
20
-13.537000
30
137.222000
70
192
0
VERTEX
8
OBJECT__41
10
50.477001
20
-14.000000
30
136.979996
70
192
0
VERTEX
8
OBJECT__41
10
48.054001
20
-14.274000
30
136.695999
70
192
0
VERTEX
8
OBJECT__41
10
95.204002
20
-5.690000
30
135.412003
70
192
0
VERTEX
8
OBJECT__41
10
96.038002
20
-0.139000
30
135.529007
70
192
0
VERTEX
8
OBJECT__41
10
73.079002
20
-12.488000
30
136.914001
70
192
0
VERTEX
8
OBJECT__41
10
92.623001
20
-11.425000
30
135.052994
70
192
0
VERTEX
8
OBJECT__41
10
64.819000
20
-12.990000
30
137.061005
70
192
0
VERTEX
8
OBJECT__41
10
94.904999
20
6.644000
30
135.371002
70
192
0
VERTEX
8
OBJECT__41
10
92.625999
20
11.436000
30
135.056000
70
192
0
VERTEX
8
OBJECT__41
10
72.913002
20
12.527000
30
136.923004
70
192
0
VERTEX
8
OBJECT__41
10
96.035004
20
-0.114000
30
135.528000
70
192
0
VERTEX
8
OBJECT__41
10
95.216003
20
5.667000
30
135.414001
70
192
0
VERTEX
8
OBJECT__41
10
64.806999
20
13.030000
30
137.059998
70
192
0
VERTEX
8
OBJECT__41
10
55.685001
20
13.597000
30
137.214005
70
192
0
VERTEX
8
OBJECT__41
10
50.314999
20
14.072000
30
136.962997
70
192
0
VERTEX
8
OBJECT__41
10
48.032001
20
14.335000
30
136.692993
70
192
0
VERTEX
8
OBJECT__41
10
40.151001
20
15.242000
30
135.759003
70
192
0
VERTEX
8
OBJECT__41
10
35.515999
20
15.775000
30
135.210007
70
192
0
VERTEX
8
OBJECT__41
10
19.783001
20
19.253000
30
130.789001
70
192
0
VERTEX
8
OBJECT__41
10
16.469000
20
20.943001
30
129.141006
70
192
0
VERTEX
8
OBJECT__41
10
23.465000
20
17.792999
30
132.270004
70
192
0
VERTEX
8
OBJECT__41
10
30.913000
20
16.392000
30
134.223999
70
192
0
VERTEX
8
OBJECT__41
10
27.495001
20
16.849001
30
133.490997
70
192
0
VERTEX
8
OBJECT__41
10
6.980000
20
24.396999
30
123.837997
70
192
0
VERTEX
8
OBJECT__41
10
4.011000
20
24.802999
30
122.112999
70
192
0
VERTEX
8
OBJECT__41
10
13.694000
20
22.114000
30
127.600998
70
192
0
VERTEX
8
OBJECT__41
10
9.916000
20
23.709000
30
125.502998
70
192
0
VERTEX
8
OBJECT__41
10
-8.095000
20
23.524000
30
114.376999
70
192
0
VERTEX
8
OBJECT__41
10
-14.741000
20
20.594000
30
109.303001
70
192
0
VERTEX
8
OBJECT__41
10
-2.523000
20
24.589001
30
118.085999
70
192
0
VERTEX
8
OBJECT__41
10
-3.602000
20
24.554001
30
117.420998
70
192
0
VERTEX
8
OBJECT__41
10
-22.745001
20
13.333000
30
101.946999
70
192
0
VERTEX
8
OBJECT__41
10
-23.299000
20
12.514000
30
101.388000
70
192
0
VERTEX
8
OBJECT__41
10
-16.459000
20
19.368000
30
107.806000
70
192
0
VERTEX
8
OBJECT__41
10
-18.597000
20
17.844000
30
105.943001
70
192
0
VERTEX
8
OBJECT__41
10
-26.870001
20
1.128000
30
97.934998
70
192
0
VERTEX
8
OBJECT__41
10
-26.891001
20
0.021000
30
97.901001
70
192
0
VERTEX
8
OBJECT__41
10
-25.025000
20
8.905000
30
99.663002
70
192
0
VERTEX
8
OBJECT__41
10
-25.782000
20
7.323000
30
98.905998
70
192
0
VERTEX
8
OBJECT__41
10
-26.815001
20
2.061000
30
97.985001
70
192
0
VERTEX
8
OBJECT__41
10
-26.132000
20
-5.938000
30
98.433998
70
192
0
VERTEX
8
OBJECT__41
10
-24.902000
20
-9.014000
30
99.646004
70
192
0
VERTEX
8
OBJECT__41
10
-26.285999
20
-5.309000
30
98.300003
70
192
0
VERTEX
8
OBJECT__41
10
-26.884001
20
-0.034000
30
97.904999
70
192
0
VERTEX
8
OBJECT__41
10
-15.946000
20
-10.483000
30
111.801003
70
192
0
VERTEX
8
OBJECT__41
10
-24.041000
20
-11.168000
30
100.494003
70
192
0
VERTEX
8
OBJECT__41
10
-20.566000
20
-15.910000
30
103.995003
70
192
0
VERTEX
8
OBJECT__41
10
-19.294001
20
-17.171000
30
105.213997
70
192
0
VERTEX
8
OBJECT__41
10
-13.492000
20
-21.278000
30
110.264000
70
192
0
VERTEX
8
OBJECT__41
10
-9.487000
20
-23.059999
30
113.327003
70
192
0
VERTEX
8
OBJECT__41
10
-16.347000
20
-19.257000
30
107.778999
70
192
0
VERTEX
8
OBJECT__41
10
10.132000
20
-23.660000
30
125.584000
70
192
0
VERTEX
8
OBJECT__41
10
13.729000
20
-22.107000
30
127.585999
70
192
0
VERTEX
8
OBJECT__41
10
7.150000
20
-24.379999
30
123.891998
70
192
0
VERTEX
8
OBJECT__41
10
3.934000
20
-24.823999
30
122.022003
70
192
0
VERTEX
8
OBJECT__41
10
-2.532000
20
-24.676001
30
118.049004
70
192
0
VERTEX
8
OBJECT__41
10
-2.223000
20
-24.747000
30
118.259003
70
192
0
VERTEX
8
OBJECT__41
10
2.350000
20
-24.920000
30
121.080002
70
192
0
VERTEX
8
OBJECT__41
10
27.649000
20
-16.733999
30
133.542999
70
192
0
VERTEX
8
OBJECT__41
10
24.136999
20
-17.511999
30
132.507004
70
192
0
VERTEX
8
OBJECT__41
10
16.659000
20
-20.841999
30
129.216995
70
192
0
VERTEX
8
OBJECT__41
10
20.836000
20
-18.737000
30
131.244003
70
192
0
VERTEX
8
OBJECT__41
10
0
20
0
30
0
70
128
71
1
72
2
73
3
0
VERTEX
8
OBJECT__41
10
0
20
0
30
0
70
128
71
4
72
5
73
6
0
VERTEX
8
OBJECT__41
10
0
20
0
30
0
70
128
71
7
72
3
73
5
0
VERTEX
8
OBJECT__41
10
0
20
0
30
0
70
128
71
8
72
9
73
3
0
VERTEX
8
OBJECT__41
10
0
20
0
30
0
70
128
71
10
72
11
73
6
0
VERTEX
8
OBJECT__41
10
0
20
0
30
0
70
128
71
9
72
10
73
5
0
VERTEX
8
OBJECT__41
10
0
20
0
30
0
70
128
71
1
72
12
73
13
0
VERTEX
8
OBJECT__41
10
0
20
0
30
0
70
128
71
14
72
2
73
15
0
VERTEX
8
OBJECT__41
10
0
20
0
30
0
70
128
71
2
72
1
73
15
0
VERTEX
8
OBJECT__41
10
0
20
0
30
0
70
128
71
16
72
14
73
17
0
VERTEX
8
OBJECT__41
10
0
20
0
30
0
70
128
71
14
72
18
73
17
0
VERTEX
8
OBJECT__41
10
0
20
0
30
0
70
128
71
14
72
19
73
18
0
VERTEX
8
OBJECT__41
10
0
20
0
30
0
70
128
71
16
72
20
73
21
0
VERTEX
8
OBJECT__41
10
0
20
0
30
0
70
128
71
20
72
16
73
22
0
VERTEX
8
OBJECT__41
10
0
20
0
30
0
70
128
71
22
72
23
73
20
0
VERTEX
8
OBJECT__41
10
0
20
0
30
0
70
128
71
16
72
24
73
22
0
VERTEX
8
OBJECT__41
10
0
20
0
30
0
70
128
71
25
72
26
73
27
0
VERTEX
8
OBJECT__41
10
0
20
0
30
0
70
128
71
16
72
28
73
29
0
VERTEX
8
OBJECT__41
10
0
20
0
30
0
70
128
71
29
72
25
73
16
0
VERTEX
8
OBJECT__41
10
0
20
0
30
0
70
128
71
27
72
16
73
25
0
VERTEX
8
OBJECT__41
10
0
20
0
30
0
70
128
71
16
72
30
73
31
0
VERTEX
8
OBJECT__41
10
0
20
0
30
0
70
128
71
31
72
14
73
16
0
VERTEX
8
OBJECT__41
10
0
20
0
30
0
70
128
71
31
72
32
73
14
0
VERTEX
8
OBJECT__41
10
0
20
0
30
0
70
128
71
14
72
33
73
34
0
VERTEX
8
OBJECT__41
10
0
20
0
30
0
70
128
71
34
72
2
73
14
0
VERTEX
8
OBJECT__41
10
0
20
0
30
0
70
128
71
8
72
34
73
35
0
VERTEX
8
OBJECT__41
10
0
20
0
30
0
70
128
71
9
72
36
73
37
0
VERTEX
8
OBJECT__41
10
0
20
0
30
0
70
128
71
9
72
38
73
36
0
VERTEX
8
OBJECT__41
10
0
20
0
30
0
70
128
71
8
72
39
73
40
0
VERTEX
8
OBJECT__41
10
0
20
0
30
0
70
128
71
40
72
9
73
8
0
VERTEX
8
OBJECT__41
10
0
20
0
30
0
70
128
71
40
72
38
73
9
0
VERTEX
8
OBJECT__41
10
0
20
0
30
0
70
128
71
10
72
41
73
42
0
VERTEX
8
OBJECT__41
10
0
20
0
30
0
70
128
71
10
72
9
73
43
0
VERTEX
8
OBJECT__41
10
0
20
0
30
0
70
128
71
43
72
44
73
10
0
VERTEX
8
OBJECT__41
10
0
20
0
30
0
70
128
71
44
72
41
73
10
0
VERTEX
8
OBJECT__41
10
0
20
0
30
0
70
128
71
11
72
10
73
45
0
VERTEX
8
OBJECT__41
10
0
20
0
30
0
70
128
71
45
72
46
73
11
0
VERTEX
8
OBJECT__41
10
0
20
0
30
0
70
128
71
10
72
47
73
48
0
VERTEX
8
OBJECT__41
10
0
20
0
30
0
70
128
71
48
72
45
73
10
0
VERTEX
8
OBJECT__41
10
0
20
0
30
0
70
128
71
11
72
49
73
50
0
VERTEX
8
OBJECT__41
10
0
20
0
30
0
70
128
71
11
72
51
73
52
0
VERTEX
8
OBJECT__41
10
0
20
0
30
0
70
128
71
52
72
49
73
11
0
VERTEX
8
OBJECT__41
10
0
20
0
30
0
70
128
71
6
72
53
73
54
0
VERTEX
8
OBJECT__41
10
0
20
0
30
0
70
128
71
6
72
11
73
55
0
VERTEX
8
OBJECT__41
10
0
20
0
30
0
70
128
71
55
72
56
73
6
0
VERTEX
8
OBJECT__41
10
0
20
0
30
0
70
128
71
56
72
57
73
6
0
VERTEX
8
OBJECT__41
10
0
20
0
30
0
70
128
71
57
72
53
73
6
0
VERTEX
8
OBJECT__41
10
0
20
0
30
0
70
128
71
6
72
58
73
59
0
VERTEX
8
OBJECT__41
10
0
20
0
30
0
70
128
71
6
72
60
73
58
0
VERTEX
8
OBJECT__41
10
0
20
0
30
0
70
128
71
6
72
61
73
60
0
VERTEX
8
OBJECT__41
10
0
20
0
30
0
70
128
71
62
72
59
73
63
0
VERTEX
8
OBJECT__41
10
0
20
0
30
0
70
128
71
63
72
64
73
62
0
VERTEX
8
OBJECT__41
10
0
20
0
30
0
70
128
71
64
72
65
73
62
0
VERTEX
8
OBJECT__41
10
0
20
0
30
0
70
128
71
62
72
66
73
67
0
VERTEX
8
OBJECT__41
10
0
20
0
30
0
70
128
71
62
72
68
73
66
0
VERTEX
8
OBJECT__41
10
0
20
0
30
0
70
128
71
67
72
4
73
62
0
VERTEX
8
OBJECT__41
10
0
20
0
30
0
70
128
71
4
72
69
73
70
0
VERTEX
8
OBJECT__41
10
0
20
0
30
0
70
128
71
4
72
71
73
69
0
VERTEX
8
OBJECT__41
10
0
20
0
30
0
70
128
71
4
72
72
73
71
0
VERTEX
8
OBJECT__41
10
0
20
0
30
0
70
128
71
4
72
73
73
74
0
VERTEX
8
OBJECT__41
10
0
20
0
30
0
70
128
71
74
72
75
73
4
0
VERTEX
8
OBJECT__41
10
0
20
0
30
0
70
128
71
75
72
72
73
4
0
VERTEX
8
OBJECT__41
10
0
20
0
30
0
70
128
71
1
72
7
73
76
0
VERTEX
8
OBJECT__41
10
0
20
0
30
0
70
128
71
7
72
77
73
76
0
VERTEX
8
OBJECT__41
10
0
20
0
30
0
70
128
71
7
72
70
73
78
0
VERTEX
8
OBJECT__41
10
0
20
0
30
0
70
128
71
78
72
79
73
7
0
VERTEX
8
OBJECT__41
10
0
20
0
30
0
70
128
71
79
72
77
73
7
0
VERTEX
8
OBJECT__41
10
0
20
0
30
0
70
128
71
76
72
12
73
1
0
VERTEX
8
OBJECT__41
10
0
20
0
30
0
70
128
71
70
72
7
73
4
0
VERTEX
8
OBJECT__41
10
0
20
0
30
0
70
128
71
67
72
73
73
4
0
VERTEX
8
OBJECT__41
10
0
20
0
30
0
70
128
71
65
72
68
73
62
0
VERTEX
8
OBJECT__41
10
0
20
0
30
0
70
128
71
59
72
62
73
6
0
VERTEX
8
OBJECT__41
10
0
20
0
30
0
70
128
71
54
72
61
73
6
0
VERTEX
8
OBJECT__41
10
0
20
0
30
0
70
128
71
50
72
55
73
11
0
VERTEX
8
OBJECT__41
10
0
20
0
30
0
70
128
71
46
72
51
73
11
0
VERTEX
8
OBJECT__41
10
0
20
0
30
0
70
128
71
42
72
47
73
10
0
VERTEX
8
OBJECT__41
10
0
20
0
30
0
70
128
71
37
72
43
73
9
0
VERTEX
8
OBJECT__41
10
0
20
0
30
0
70
128
71
35
72
39
73
8
0
VERTEX
8
OBJECT__41
10
0
20
0
30
0
70
128
71
34
72
8
73
2
0
VERTEX
8
OBJECT__41
10
0
20
0
30
0
70
128
71
32
72
33
73
14
0
VERTEX
8
OBJECT__41
10
0
20
0
30
0
70
128
71
27
72
30
73
16
0
VERTEX
8
OBJECT__41
10
0
20
0
30
0
70
128
71
21
72
28
73
16
0
VERTEX
8
OBJECT__41
10
0
20
0
30
0
70
128
71
17
72
24
73
16
0
VERTEX
8
OBJECT__41
10
0
20
0
30
0
70
128
71
15
72
19
73
14
0
VERTEX
8
OBJECT__41
10
0
20
0
30
0
70
128
71
13
72
15
73
1
0
VERTEX
8
OBJECT__41
10
0
20
0
30
0
70
128
71
5
72
3
73
9
0
VERTEX
8
OBJECT__41
10
0
20
0
30
0
70
128
71
6
72
5
73
10
0
VERTEX
8
OBJECT__41
10
0
20
0
30
0
70
128
71
3
72
2
73
8
0
VERTEX
8
OBJECT__41
10
0
20
0
30
0
70
128
71
5
72
4
73
7
0
VERTEX
8
OBJECT__41
10
0
20
0
30
0
70
128
71
6
72
62
73
4
0
VERTEX
8
OBJECT__41
10
0
20
0
30
0
70
128
71
3
72
7
73
1
0
SEQEND
8
OBJECT__41
0
POLYLINE
8
OBJECT__42
66
1
70
64
71
29
72
27
62
253
0
VERTEX
8
OBJECT__42
10
-3.602000
20
24.554001
30
117.420998
70
192
0
VERTEX
8
OBJECT__42
10
-3.134000
20
25.455999
30
116.488998
70
192
0
VERTEX
8
OBJECT__42
10
-6.936000
20
24.566999
30
114.046997
70
192
0
VERTEX
8
OBJECT__42
10
-8.095000
20
23.524000
30
114.376999
70
192
0
VERTEX
8
OBJECT__42
10
-7.752000
20
24.375999
30
113.523003
70
192
0
VERTEX
8
OBJECT__42
10
-14.567000
20
21.325001
30
108.566002
70
192
0
VERTEX
8
OBJECT__42
10
-14.741000
20
20.594000
30
109.303001
70
192
0
VERTEX
8
OBJECT__42
10
-15.337000
20
20.768999
30
107.925003
70
192
0
VERTEX
8
OBJECT__42
10
-16.459000
20
19.368000
30
107.806000
70
192
0
VERTEX
8
OBJECT__42
10
-17.495001
20
19.209000
30
106.127998
70
192
0
VERTEX
8
OBJECT__42
10
-18.597000
20
17.844000
30
105.943001
70
192
0
VERTEX
8
OBJECT__42
10
-18.518999
20
18.468000
30
105.275002
70
192
0
VERTEX
8
OBJECT__42
10
-22.778000
20
13.783000
30
101.344002
70
192
0
VERTEX
8
OBJECT__42
10
-22.745001
20
13.333000
30
101.946999
70
192
0
VERTEX
8
OBJECT__42
10
-23.349001
20
12.932000
30
100.792999
70
192
0
VERTEX
8
OBJECT__42
10
-23.299000
20
12.514000
30
101.388000
70
192
0
VERTEX
8
OBJECT__42
10
-25.908001
20
7.545000
30
98.330002
70
192
0
VERTEX
8
OBJECT__42
10
-25.782000
20
7.323000
30
98.905998
70
192
0
VERTEX
8
OBJECT__42
10
-25.025000
20
8.905000
30
99.663002
70
192
0
VERTEX
8
OBJECT__42
10
-24.537001
20
10.431000
30
99.649002
70
192
0
VERTEX
8
OBJECT__42
10
-26.976000
20
2.111000
30
97.417999
70
192
0
VERTEX
8
OBJECT__42
10
-26.815001
20
2.061000
30
97.985001
70
192
0
VERTEX
8
OBJECT__42
10
-27.032000
20
1.158000
30
97.371002
70
192
0
VERTEX
8
OBJECT__42
10
-26.870001
20
1.128000
30
97.934998
70
192
0
VERTEX
8
OBJECT__42
10
4.718000
20
25.739000
30
121.054001
70
192
0
VERTEX
8
OBJECT__42
10
-2.523000
20
24.589001
30
118.085999
70
192
0
VERTEX
8
OBJECT__42
10
-27.052999
20
0.033000
30
97.341003
70
192
0
VERTEX
8
OBJECT__42
10
-26.891001
20
0.021000
30
97.901001
70
192
0
VERTEX
8
OBJECT__42
10
4.011000
20
24.802999
30
122.112999
70
192
0
VERTEX
8
OBJECT__42
10
0
20
0
30
0
70
128
71
1
72
2
73
3
0
VERTEX
8
OBJECT__42
10
0
20
0
30
0
70
128
71
3
72
4
73
1
0
VERTEX
8
OBJECT__42
10
0
20
0
30
0
70
128
71
5
72
6
73
7
0
VERTEX
8
OBJECT__42
10
0
20
0
30
0
70
128
71
7
72
6
73
8
0
VERTEX
8
OBJECT__42
10
0
20
0
30
0
70
128
71
9
72
8
73
10
0
VERTEX
8
OBJECT__42
10
0
20
0
30
0
70
128
71
10
72
11
73
9
0
VERTEX
8
OBJECT__42
10
0
20
0
30
0
70
128
71
10
72
12
73
11
0
VERTEX
8
OBJECT__42
10
0
20
0
30
0
70
128
71
12
72
13
73
14
0
VERTEX
8
OBJECT__42
10
0
20
0
30
0
70
128
71
13
72
15
73
16
0
VERTEX
8
OBJECT__42
10
0
20
0
30
0
70
128
71
17
72
18
73
19
0
VERTEX
8
OBJECT__42
10
0
20
0
30
0
70
128
71
16
72
15
73
20
0
VERTEX
8
OBJECT__42
10
0
20
0
30
0
70
128
71
20
72
19
73
16
0
VERTEX
8
OBJECT__42
10
0
20
0
30
0
70
128
71
21
72
22
73
18
0
VERTEX
8
OBJECT__42
10
0
20
0
30
0
70
128
71
23
72
24
73
22
0
VERTEX
8
OBJECT__42
10
0
20
0
30
0
70
128
71
25
72
2
73
26
0
VERTEX
8
OBJECT__42
10
0
20
0
30
0
70
128
71
2
72
1
73
26
0
VERTEX
8
OBJECT__42
10
0
20
0
30
0
70
128
71
27
72
28
73
24
0
VERTEX
8
OBJECT__42
10
0
20
0
30
0
70
128
71
24
72
23
73
27
0
VERTEX
8
OBJECT__42
10
0
20
0
30
0
70
128
71
26
72
29
73
25
0
VERTEX
8
OBJECT__42
10
0
20
0
30
0
70
128
71
22
72
21
73
23
0
VERTEX
8
OBJECT__42
10
0
20
0
30
0
70
128
71
18
72
17
73
21
0
VERTEX
8
OBJECT__42
10
0
20
0
30
0
70
128
71
19
72
20
73
17
0
VERTEX
8
OBJECT__42
10
0
20
0
30
0
70
128
71
16
72
14
73
13
0
VERTEX
8
OBJECT__42
10
0
20
0
30
0
70
128
71
14
72
11
73
12
0
VERTEX
8
OBJECT__42
10
0
20
0
30
0
70
128
71
8
72
9
73
7
0
VERTEX
8
OBJECT__42
10
0
20
0
30
0
70
128
71
7
72
4
73
5
0
VERTEX
8
OBJECT__42
10
0
20
0
30
0
70
128
71
3
72
5
73
4
0
SEQEND
8
OBJECT__42
0
POLYLINE
8
OBJECT__43
66
1
70
64
71
30
72
28
62
253
0
VERTEX
8
OBJECT__43
10
-26.427999
20
-5.449000
30
97.753998
70
192
0
VERTEX
8
OBJECT__43
10
-26.268000
20
-6.100000
30
97.888000
70
192
0
VERTEX
8
OBJECT__43
10
-26.132000
20
-5.938000
30
98.433998
70
192
0
VERTEX
8
OBJECT__43
10
-24.559999
20
-10.406000
30
99.504997
70
192
0
VERTEX
8
OBJECT__43
10
-24.902000
20
-9.014000
30
99.646004
70
192
0
VERTEX
8
OBJECT__43
10
-24.041000
20
-11.168000
30
100.494003
70
192
0
VERTEX
8
OBJECT__43
10
-24.114000
20
-11.529000
30
99.926003
70
192
0
VERTEX
8
OBJECT__43
10
-20.544001
20
-16.459999
30
103.367996
70
192
0
VERTEX
8
OBJECT__43
10
-20.566000
20
-15.910000
30
103.995003
70
192
0
VERTEX
8
OBJECT__43
10
-19.239000
20
-17.771000
30
104.564003
70
192
0
VERTEX
8
OBJECT__43
10
-19.294001
20
-17.171000
30
105.213997
70
192
0
VERTEX
8
OBJECT__43
10
-13.492000
20
-21.278000
30
110.264000
70
192
0
VERTEX
8
OBJECT__43
10
-16.347000
20
-19.257000
30
107.778999
70
192
0
VERTEX
8
OBJECT__43
10
-15.267000
20
-20.621000
30
107.862999
70
192
0
VERTEX
8
OBJECT__43
10
-17.422001
20
-19.075001
30
106.072998
70
192
0
VERTEX
8
OBJECT__43
10
-9.183000
20
-23.895000
30
112.496002
70
192
0
VERTEX
8
OBJECT__43
10
-9.487000
20
-23.059999
30
113.327003
70
192
0
VERTEX
8
OBJECT__43
10
-2.532000
20
-24.676001
30
118.049004
70
192
0
VERTEX
8
OBJECT__43
10
-6.969000
20
-24.419001
30
113.919998
70
192
0
VERTEX
8
OBJECT__43
10
-1.714000
20
-25.662001
30
117.303001
70
192
0
VERTEX
8
OBJECT__43
10
-2.223000
20
-24.747000
30
118.259003
70
192
0
VERTEX
8
OBJECT__43
10
3.004000
20
-25.854000
30
120.047997
70
192
0
VERTEX
8
OBJECT__43
10
2.350000
20
-24.920000
30
121.080002
70
192
0
VERTEX
8
OBJECT__43
10
-26.285999
20
-5.309000
30
98.300003
70
192
0
VERTEX
8
OBJECT__43
10
-26.884001
20
-0.034000
30
97.904999
70
192
0
VERTEX
8
OBJECT__43
10
-27.052999
20
0.033000
30
97.341003
70
192
0
VERTEX
8
OBJECT__43
10
3.934000
20
-24.823999
30
122.022003
70
192
0
VERTEX
8
OBJECT__43
10
4.640000
20
-25.760000
30
120.963997
70
192
0
VERTEX
8
OBJECT__43
10
-26.891001
20
0.021000
30
97.901001
70
192
0
VERTEX
8
OBJECT__43
10
-13.290000
20
-22.040001
30
109.504997
70
192
0
VERTEX
8
OBJECT__43
10
0
20
0
30
0
70
128
71
1
72
2
73
3
0
VERTEX
8
OBJECT__43
10
0
20
0
30
0
70
128
71
2
72
4
73
5
0
VERTEX
8
OBJECT__43
10
0
20
0
30
0
70
128
71
6
72
5
73
4
0
VERTEX
8
OBJECT__43
10
0
20
0
30
0
70
128
71
4
72
7
73
6
0
VERTEX
8
OBJECT__43
10
0
20
0
30
0
70
128
71
8
72
9
73
6
0
VERTEX
8
OBJECT__43
10
0
20
0
30
0
70
128
71
10
72
11
73
9
0
VERTEX
8
OBJECT__43
10
0
20
0
30
0
70
128
71
12
72
13
73
14
0
VERTEX
8
OBJECT__43
10
0
20
0
30
0
70
128
71
13
72
15
73
14
0
VERTEX
8
OBJECT__43
10
0
20
0
30
0
70
128
71
11
72
10
73
15
0
VERTEX
8
OBJECT__43
10
0
20
0
30
0
70
128
71
15
72
13
73
11
0
VERTEX
8
OBJECT__43
10
0
20
0
30
0
70
128
71
16
72
17
73
12
0
VERTEX
8
OBJECT__43
10
0
20
0
30
0
70
128
71
18
72
17
73
19
0
VERTEX
8
OBJECT__43
10
0
20
0
30
0
70
128
71
17
72
16
73
19
0
VERTEX
8
OBJECT__43
10
0
20
0
30
0
70
128
71
20
72
21
73
18
0
VERTEX
8
OBJECT__43
10
0
20
0
30
0
70
128
71
20
72
22
73
23
0
VERTEX
8
OBJECT__43
10
0
20
0
30
0
70
128
71
1
72
24
73
25
0
VERTEX
8
OBJECT__43
10
0
20
0
30
0
70
128
71
25
72
26
73
1
0
VERTEX
8
OBJECT__43
10
0
20
0
30
0
70
128
71
27
72
23
73
22
0
VERTEX
8
OBJECT__43
10
0
20
0
30
0
70
128
71
22
72
28
73
27
0
VERTEX
8
OBJECT__43
10
0
20
0
30
0
70
128
71
25
72
29
73
26
0
VERTEX
8
OBJECT__43
10
0
20
0
30
0
70
128
71
23
72
21
73
20
0
VERTEX
8
OBJECT__43
10
0
20
0
30
0
70
128
71
19
72
20
73
18
0
VERTEX
8
OBJECT__43
10
0
20
0
30
0
70
128
71
12
72
30
73
16
0
VERTEX
8
OBJECT__43
10
0
20
0
30
0
70
128
71
14
72
30
73
12
0
VERTEX
8
OBJECT__43
10
0
20
0
30
0
70
128
71
9
72
8
73
10
0
VERTEX
8
OBJECT__43
10
0
20
0
30
0
70
128
71
6
72
7
73
8
0
VERTEX
8
OBJECT__43
10
0
20
0
30
0
70
128
71
5
72
3
73
2
0
VERTEX
8
OBJECT__43
10
0
20
0
30
0
70
128
71
3
72
24
73
1
0
SEQEND
8
OBJECT__43
0
POLYLINE
8
OBJECT__44
66
1
70
64
71
12
72
10
62
253
0
VERTEX
8
OBJECT__44
10
7.788000
20
25.327000
30
122.731003
70
192
0
VERTEX
8
OBJECT__44
10
6.980000
20
24.396999
30
123.837997
70
192
0
VERTEX
8
OBJECT__44
10
9.916000
20
23.709000
30
125.502998
70
192
0
VERTEX
8
OBJECT__44
10
4.718000
20
25.739000
30
121.054001
70
192
0
VERTEX
8
OBJECT__44
10
4.011000
20
24.802999
30
122.112999
70
192
0
VERTEX
8
OBJECT__44
10
13.694000
20
22.114000
30
127.600998
70
192
0
VERTEX
8
OBJECT__44
10
16.469000
20
20.943001
30
129.141006
70
192
0
VERTEX
8
OBJECT__44
10
16.989000
20
21.507999
30
128.792999
70
192
0
VERTEX
8
OBJECT__44
10
15.106000
20
22.830999
30
126.564003
70
192
0
VERTEX
8
OBJECT__44
10
10.824000
20
24.622999
30
124.348999
70
192
0
VERTEX
8
OBJECT__44
10
17.646000
20
21.768000
30
127.877998
70
192
0
VERTEX
8
OBJECT__44
10
17.096001
20
21.625000
30
128.722000
70
192
0
VERTEX
8
OBJECT__44
10
0
20
0
30
0
70
128
71
1
72
2
73
3
0
VERTEX
8
OBJECT__44
10
0
20
0
30
0
70
128
71
4
72
5
73
2
0
VERTEX
8
OBJECT__44
10
0
20
0
30
0
70
128
71
6
72
7
73
8
0
VERTEX
8
OBJECT__44
10
0
20
0
30
0
70
128
71
8
72
9
73
6
0
VERTEX
8
OBJECT__44
10
0
20
0
30
0
70
128
71
10
72
3
73
6
0
VERTEX
8
OBJECT__44
10
0
20
0
30
0
70
128
71
6
72
9
73
10
0
VERTEX
8
OBJECT__44
10
0
20
0
30
0
70
128
71
8
72
11
73
9
0
VERTEX
8
OBJECT__44
10
0
20
0
30
0
70
128
71
11
72
8
73
12
0
VERTEX
8
OBJECT__44
10
0
20
0
30
0
70
128
71
2
72
1
73
4
0
VERTEX
8
OBJECT__44
10
0
20
0
30
0
70
128
71
3
72
10
73
1
0
SEQEND
8
OBJECT__44
0
POLYLINE
8
OBJECT__45
66
1
70
64
71
52
72
57
62
253
0
VERTEX
8
OBJECT__45
10
31.834000
20
0.078000
30
122.318001
70
192
0
VERTEX
8
OBJECT__45
10
36.512001
20
0.080000
30
125.750000
70
192
0
VERTEX
8
OBJECT__45
10
36.153000
20
-3.917000
30
126.044998
70
192
0
VERTEX
8
OBJECT__45
10
31.076000
20
-6.233000
30
123.153999
70
192
0
VERTEX
8
OBJECT__45
10
29.450001
20
-4.381000
30
117.366997
70
192
0
VERTEX
8
OBJECT__45
10
28.825001
20
-6.947000
30
118.208000
70
192
0
VERTEX
8
OBJECT__45
10
28.613001
20
-12.319000
30
125.488998
70
192
0
VERTEX
8
OBJECT__45
10
34.497002
20
-8.891000
30
127.232002
70
192
0
VERTEX
8
OBJECT__45
10
32.433998
20
-12.622000
30
128.645996
70
192
0
VERTEX
8
OBJECT__45
10
35.369999
20
-6.420000
30
126.609001
70
192
0
VERTEX
8
OBJECT__45
10
34.730000
20
-8.469000
30
127.071999
70
192
0
VERTEX
8
OBJECT__45
10
28.457001
20
12.526000
30
125.502998
70
192
0
VERTEX
8
OBJECT__45
10
32.035999
20
12.967000
30
128.774002
70
192
0
VERTEX
8
OBJECT__45
10
34.117001
20
9.659000
30
127.390999
70
192
0
VERTEX
8
OBJECT__45
10
30.955000
20
6.451000
30
123.150002
70
192
0
VERTEX
8
OBJECT__45
10
34.359001
20
8.995000
30
127.220001
70
192
0
VERTEX
8
OBJECT__45
10
35.897999
20
4.777000
30
126.133003
70
192
0
VERTEX
8
OBJECT__45
10
35.219002
20
6.639000
30
126.612999
70
192
0
VERTEX
8
OBJECT__45
10
27.687000
20
10.656000
30
119.558998
70
192
0
VERTEX
8
OBJECT__45
10
27.945000
20
9.810000
30
119.223999
70
192
0
VERTEX
8
OBJECT__45
10
28.749001
20
7.182000
30
118.182999
70
192
0
VERTEX
8
OBJECT__45
10
25.482000
20
14.793000
30
122.091003
70
192
0
VERTEX
8
OBJECT__45
10
22.934000
20
17.716000
30
124.373001
70
192
0
VERTEX
8
OBJECT__45
10
24.155001
20
17.900999
30
128.634003
70
192
0
VERTEX
8
OBJECT__45
10
26.235001
20
13.381000
30
121.226997
70
192
0
VERTEX
8
OBJECT__45
10
29.721001
20
1.262000
30
116.933998
70
192
0
VERTEX
8
OBJECT__45
10
29.087999
20
6.076000
30
117.745003
70
192
0
VERTEX
8
OBJECT__45
10
29.757999
20
-0.036000
30
116.900002
70
192
0
VERTEX
8
OBJECT__45
10
24.356001
20
-17.726999
30
128.647995
70
192
0
VERTEX
8
OBJECT__45
10
22.937000
20
-17.774000
30
124.535004
70
192
0
VERTEX
8
OBJECT__45
10
25.948000
20
-14.116000
30
121.714996
70
192
0
VERTEX
8
OBJECT__45
10
22.528999
20
-18.270000
30
124.917000
70
192
0
VERTEX
8
OBJECT__45
10
27.976000
20
-9.863000
30
119.305000
70
192
0
VERTEX
8
OBJECT__45
10
28.259001
20
-9.269000
30
118.969002
70
192
0
VERTEX
8
OBJECT__45
10
26.386999
20
-13.195000
30
121.193001
70
192
0
VERTEX
8
OBJECT__45
10
22.018000
20
18.767000
30
125.194000
70
192
0
VERTEX
8
OBJECT__45
10
20.924000
20
20.063000
30
129.084000
70
192
0
VERTEX
8
OBJECT__45
10
22.382000
20
19.431999
30
129.537003
70
192
0
VERTEX
8
OBJECT__45
10
17.646000
20
21.768000
30
127.877998
70
192
0
VERTEX
8
OBJECT__45
10
22.336000
20
18.403000
30
124.910004
70
192
0
VERTEX
8
OBJECT__45
10
24.441999
20
18.542000
30
130.177002
70
192
0
VERTEX
8
OBJECT__45
10
25.566999
20
18.219999
30
130.438995
70
192
0
VERTEX
8
OBJECT__45
10
28.191999
20
17.466999
30
131.050003
70
192
0
VERTEX
8
OBJECT__45
10
31.365999
20
14.033000
30
129.220001
70
192
0
VERTEX
8
OBJECT__45
10
32.284000
20
-12.795000
30
128.735992
70
192
0
VERTEX
8
OBJECT__45
10
28.341999
20
-17.353001
30
131.098999
70
192
0
VERTEX
8
OBJECT__45
10
25.841000
20
-18.040001
30
130.533005
70
192
0
VERTEX
8
OBJECT__45
10
25.083000
20
-18.247999
30
130.360992
70
192
0
VERTEX
8
OBJECT__45
10
22.391001
20
-18.438000
30
125.045998
70
192
0
VERTEX
8
OBJECT__45
10
22.562000
20
-19.284000
30
129.617996
70
192
0
VERTEX
8
OBJECT__45
10
21.951000
20
-19.534000
30
129.438004
70
192
0
VERTEX
8
OBJECT__45
10
17.846001
20
-21.660999
30
127.949997
70
192
0
VERTEX
8
OBJECT__45
10
0
20
0
30
0
70
128
71
1
72
2
73
3
0
VERTEX
8
OBJECT__45
10
0
20
0
30
0
70
128
71
3
72
4
73
1
0
VERTEX
8
OBJECT__45
10
0
20
0
30
0
70
128
71
1
72
4
73
5
0
VERTEX
8
OBJECT__45
10
0
20
0
30
0
70
128
71
4
72
6
73
5
0
VERTEX
8
OBJECT__45
10
0
20
0
30
0
70
128
71
7
72
4
73
8
0
VERTEX
8
OBJECT__45
10
0
20
0
30
0
70
128
71
8
72
9
73
7
0
VERTEX
8
OBJECT__45
10
0
20
0
30
0
70
128
71
4
72
10
73
11
0
VERTEX
8
OBJECT__45
10
0
20
0
30
0
70
128
71
11
72
8
73
4
0
VERTEX
8
OBJECT__45
10
0
20
0
30
0
70
128
71
12
72
13
73
14
0
VERTEX
8
OBJECT__45
10
0
20
0
30
0
70
128
71
14
72
15
73
12
0
VERTEX
8
OBJECT__45
10
0
20
0
30
0
70
128
71
14
72
16
73
15
0
VERTEX
8
OBJECT__45
10
0
20
0
30
0
70
128
71
1
72
15
73
17
0
VERTEX
8
OBJECT__45
10
0
20
0
30
0
70
128
71
15
72
18
73
17
0
VERTEX
8
OBJECT__45
10
0
20
0
30
0
70
128
71
12
72
15
73
19
0
VERTEX
8
OBJECT__45
10
0
20
0
30
0
70
128
71
15
72
20
73
19
0
VERTEX
8
OBJECT__45
10
0
20
0
30
0
70
128
71
15
72
21
73
20
0
VERTEX
8
OBJECT__45
10
0
20
0
30
0
70
128
71
12
72
22
73
23
0
VERTEX
8
OBJECT__45
10
0
20
0
30
0
70
128
71
23
72
24
73
12
0
VERTEX
8
OBJECT__45
10
0
20
0
30
0
70
128
71
12
72
25
73
22
0
VERTEX
8
OBJECT__45
10
0
20
0
30
0
70
128
71
1
72
26
73
27
0
VERTEX
8
OBJECT__45
10
0
20
0
30
0
70
128
71
27
72
15
73
1
0
VERTEX
8
OBJECT__45
10
0
20
0
30
0
70
128
71
1
72
28
73
26
0
VERTEX
8
OBJECT__45
10
0
20
0
30
0
70
128
71
7
72
29
73
30
0
VERTEX
8
OBJECT__45
10
0
20
0
30
0
70
128
71
30
72
31
73
7
0
VERTEX
8
OBJECT__45
10
0
20
0
30
0
70
128
71
29
72
32
73
30
0
VERTEX
8
OBJECT__45
10
0
20
0
30
0
70
128
71
4
72
33
73
34
0
VERTEX
8
OBJECT__45
10
0
20
0
30
0
70
128
71
7
72
35
73
33
0
VERTEX
8
OBJECT__45
10
0
20
0
30
0
70
128
71
33
72
4
73
7
0
VERTEX
8
OBJECT__45
10
0
20
0
30
0
70
128
71
36
72
37
73
38
0
VERTEX
8
OBJECT__45
10
0
20
0
30
0
70
128
71
36
72
39
73
37
0
VERTEX
8
OBJECT__45
10
0
20
0
30
0
70
128
71
24
72
40
73
36
0
VERTEX
8
OBJECT__45
10
0
20
0
30
0
70
128
71
24
72
38
73
41
0
VERTEX
8
OBJECT__45
10
0
20
0
30
0
70
128
71
12
72
42
73
43
0
VERTEX
8
OBJECT__45
10
0
20
0
30
0
70
128
71
12
72
24
73
42
0
VERTEX
8
OBJECT__45
10
0
20
0
30
0
70
128
71
43
72
44
73
12
0
VERTEX
8
OBJECT__45
10
0
20
0
30
0
70
128
71
7
72
45
73
46
0
VERTEX
8
OBJECT__45
10
0
20
0
30
0
70
128
71
46
72
47
73
7
0
VERTEX
8
OBJECT__45
10
0
20
0
30
0
70
128
71
29
72
47
73
48
0
VERTEX
8
OBJECT__45
10
0
20
0
30
0
70
128
71
49
72
29
73
50
0
VERTEX
8
OBJECT__45
10
0
20
0
30
0
70
128
71
50
72
51
73
49
0
VERTEX
8
OBJECT__45
10
0
20
0
30
0
70
128
71
51
72
52
73
49
0
VERTEX
8
OBJECT__45
10
0
20
0
30
0
70
128
71
49
72
32
73
29
0
VERTEX
8
OBJECT__45
10
0
20
0
30
0
70
128
71
48
72
50
73
29
0
VERTEX
8
OBJECT__45
10
0
20
0
30
0
70
128
71
47
72
29
73
7
0
VERTEX
8
OBJECT__45
10
0
20
0
30
0
70
128
71
44
72
13
73
12
0
VERTEX
8
OBJECT__45
10
0
20
0
30
0
70
128
71
41
72
42
73
24
0
VERTEX
8
OBJECT__45
10
0
20
0
30
0
70
128
71
38
72
24
73
36
0
VERTEX
8
OBJECT__45
10
0
20
0
30
0
70
128
71
34
72
6
73
4
0
VERTEX
8
OBJECT__45
10
0
20
0
30
0
70
128
71
31
72
35
73
7
0
VERTEX
8
OBJECT__45
10
0
20
0
30
0
70
128
71
27
72
21
73
15
0
VERTEX
8
OBJECT__45
10
0
20
0
30
0
70
128
71
23
72
40
73
24
0
VERTEX
8
OBJECT__45
10
0
20
0
30
0
70
128
71
19
72
25
73
12
0
VERTEX
8
OBJECT__45
10
0
20
0
30
0
70
128
71
17
72
2
73
1
0
VERTEX
8
OBJECT__45
10
0
20
0
30
0
70
128
71
16
72
18
73
15
0
VERTEX
8
OBJECT__45
10
0
20
0
30
0
70
128
71
9
72
45
73
7
0
VERTEX
8
OBJECT__45
10
0
20
0
30
0
70
128
71
5
72
28
73
1
0
VERTEX
8
OBJECT__45
10
0
20
0
30
0
70
128
71
3
72
10
73
4
0
SEQEND
8
OBJECT__45
0
POLYLINE
8
OBJECT__46
66
1
70
64
71
12
72
10
62
253
0
VERTEX
8
OBJECT__46
10
11.050000
20
-24.572001
30
124.427002
70
192
0
VERTEX
8
OBJECT__46
10
15.037000
20
-22.865000
30
126.494003
70
192
0
VERTEX
8
OBJECT__46
10
13.729000
20
-22.107000
30
127.585999
70
192
0
VERTEX
8
OBJECT__46
10
17.294001
20
-21.521999
30
128.796997
70
192
0
VERTEX
8
OBJECT__46
10
17.344999
20
-21.535000
30
128.718994
70
192
0
VERTEX
8
OBJECT__46
10
17.846001
20
-21.660999
30
127.949997
70
192
0
VERTEX
8
OBJECT__46
10
16.659000
20
-20.841999
30
129.216995
70
192
0
VERTEX
8
OBJECT__46
10
7.966000
20
-25.309000
30
122.781998
70
192
0
VERTEX
8
OBJECT__46
10
10.132000
20
-23.660000
30
125.584000
70
192
0
VERTEX
8
OBJECT__46
10
4.640000
20
-25.760000
30
120.963997
70
192
0
VERTEX
8
OBJECT__46
10
7.150000
20
-24.379999
30
123.891998
70
192
0
VERTEX
8
OBJECT__46
10
3.934000
20
-24.823999
30
122.022003
70
192
0
VERTEX
8
OBJECT__46
10
0
20
0
30
0
70
128
71
1
72
2
73
3
0
VERTEX
8
OBJECT__46
10
0
20
0
30
0
70
128
71
3
72
2
73
4
0
VERTEX
8
OBJECT__46
10
0
20
0
30
0
70
128
71
2
72
5
73
4
0
VERTEX
8
OBJECT__46
10
0
20
0
30
0
70
128
71
2
72
6
73
5
0
VERTEX
8
OBJECT__46
10
0
20
0
30
0
70
128
71
4
72
7
73
3
0
VERTEX
8
OBJECT__46
10
0
20
0
30
0
70
128
71
8
72
1
73
9
0
VERTEX
8
OBJECT__46
10
0
20
0
30
0
70
128
71
10
72
8
73
11
0
VERTEX
8
OBJECT__46
10
0
20
0
30
0
70
128
71
11
72
12
73
10
0
VERTEX
8
OBJECT__46
10
0
20
0
30
0
70
128
71
9
72
11
73
8
0
VERTEX
8
OBJECT__46
10
0
20
0
30
0
70
128
71
3
72
9
73
1
0
SEQEND
8
OBJECT__46
0
POLYLINE
8
OBJECT__47
66
1
70
64
71
32
72
31
62
253
0
VERTEX
8
OBJECT__47
10
2.937000
20
-26.476000
30
111.362000
70
192
0
VERTEX
8
OBJECT__47
10
5.754000
20
-26.634001
30
94.591003
70
192
0
VERTEX
8
OBJECT__47
10
8.982000
20
-25.725000
30
94.591003
70
192
0
VERTEX
8
OBJECT__47
10
1.452000
20
-27.100000
30
102.996002
70
192
0
VERTEX
8
OBJECT__47
10
-0.038000
20
-27.250000
30
94.591003
70
192
0
VERTEX
8
OBJECT__47
10
13.050000
20
-24.528000
30
111.364998
70
192
0
VERTEX
8
OBJECT__47
10
28.825001
20
-6.947000
30
118.208000
70
192
0
VERTEX
8
OBJECT__47
10
25.059999
20
-10.411000
30
94.591003
70
192
0
VERTEX
8
OBJECT__47
10
25.631001
20
-9.237000
30
94.591003
70
192
0
VERTEX
8
OBJECT__47
10
29.450001
20
-4.381000
30
117.366997
70
192
0
VERTEX
8
OBJECT__47
10
28.259001
20
-9.269000
30
118.969002
70
192
0
VERTEX
8
OBJECT__47
10
26.570999
20
-6.019000
30
94.591003
70
192
0
VERTEX
8
OBJECT__47
10
27.312000
20
-0.033000
30
95.060997
70
192
0
VERTEX
8
OBJECT__47
10
29.757999
20
-0.036000
30
116.900002
70
192
0
VERTEX
8
OBJECT__47
10
27.243999
20
-0.033000
30
94.591003
70
192
0
VERTEX
8
OBJECT__47
10
23.080999
20
-14.476000
30
94.591003
70
192
0
VERTEX
8
OBJECT__47
10
27.976000
20
-9.863000
30
119.305000
70
192
0
VERTEX
8
OBJECT__47
10
26.386999
20
-13.195000
30
121.193001
70
192
0
VERTEX
8
OBJECT__47
10
25.948000
20
-14.116000
30
121.714996
70
192
0
VERTEX
8
OBJECT__47
10
21.128000
20
-17.202000
30
94.591003
70
192
0
VERTEX
8
OBJECT__47
10
19.129999
20
-19.181000
30
94.591003
70
192
0
VERTEX
8
OBJECT__47
10
16.990000
20
-21.299999
30
94.591003
70
192
0
VERTEX
8
OBJECT__47
10
22.528999
20
-18.270000
30
124.917000
70
192
0
VERTEX
8
OBJECT__47
10
22.391001
20
-18.438000
30
125.045998
70
192
0
VERTEX
8
OBJECT__47
10
22.937000
20
-17.774000
30
124.535004
70
192
0
VERTEX
8
OBJECT__47
10
17.846001
20
-21.660999
30
127.949997
70
192
0
VERTEX
8
OBJECT__47
10
15.037000
20
-22.865000
30
126.494003
70
192
0
VERTEX
8
OBJECT__47
10
14.244000
20
-23.226999
30
94.591003
70
192
0
VERTEX
8
OBJECT__47
10
10.341000
20
-25.080000
30
94.591003
70
192
0
VERTEX
8
OBJECT__47
10
7.966000
20
-25.309000
30
122.781998
70
192
0
VERTEX
8
OBJECT__47
10
4.640000
20
-25.760000
30
120.963997
70
192
0
VERTEX
8
OBJECT__47
10
11.050000
20
-24.572001
30
124.427002
70
192
0
VERTEX
8
OBJECT__47
10
0
20
0
30
0
70
128
71
1
72
2
73
3
0
VERTEX
8
OBJECT__47
10
0
20
0
30
0
70
128
71
2
72
1
73
4
0
VERTEX
8
OBJECT__47
10
0
20
0
30
0
70
128
71
4
72
5
73
2
0
VERTEX
8
OBJECT__47
10
0
20
0
30
0
70
128
71
3
72
6
73
1
0
VERTEX
8
OBJECT__47
10
0
20
0
30
0
70
128
71
7
72
8
73
9
0
VERTEX
8
OBJECT__47
10
0
20
0
30
0
70
128
71
9
72
10
73
7
0
VERTEX
8
OBJECT__47
10
0
20
0
30
0
70
128
71
7
72
11
73
8
0
VERTEX
8
OBJECT__47
10
0
20
0
30
0
70
128
71
12
72
13
73
14
0
VERTEX
8
OBJECT__47
10
0
20
0
30
0
70
128
71
12
72
15
73
13
0
VERTEX
8
OBJECT__47
10
0
20
0
30
0
70
128
71
10
72
9
73
12
0
VERTEX
8
OBJECT__47
10
0
20
0
30
0
70
128
71
14
72
10
73
12
0
VERTEX
8
OBJECT__47
10
0
20
0
30
0
70
128
71
16
72
8
73
17
0
VERTEX
8
OBJECT__47
10
0
20
0
30
0
70
128
71
17
72
18
73
16
0
VERTEX
8
OBJECT__47
10
0
20
0
30
0
70
128
71
19
72
20
73
16
0
VERTEX
8
OBJECT__47
10
0
20
0
30
0
70
128
71
19
72
21
73
20
0
VERTEX
8
OBJECT__47
10
0
20
0
30
0
70
128
71
18
72
19
73
16
0
VERTEX
8
OBJECT__47
10
0
20
0
30
0
70
128
71
22
72
23
73
24
0
VERTEX
8
OBJECT__47
10
0
20
0
30
0
70
128
71
22
72
21
73
25
0
VERTEX
8
OBJECT__47
10
0
20
0
30
0
70
128
71
25
72
23
73
22
0
VERTEX
8
OBJECT__47
10
0
20
0
30
0
70
128
71
22
72
26
73
27
0
VERTEX
8
OBJECT__47
10
0
20
0
30
0
70
128
71
28
72
27
73
6
0
VERTEX
8
OBJECT__47
10
0
20
0
30
0
70
128
71
6
72
29
73
28
0
VERTEX
8
OBJECT__47
10
0
20
0
30
0
70
128
71
27
72
28
73
22
0
VERTEX
8
OBJECT__47
10
0
20
0
30
0
70
128
71
6
72
30
73
31
0
VERTEX
8
OBJECT__47
10
0
20
0
30
0
70
128
71
6
72
27
73
32
0
VERTEX
8
OBJECT__47
10
0
20
0
30
0
70
128
71
32
72
30
73
6
0
VERTEX
8
OBJECT__47
10
0
20
0
30
0
70
128
71
31
72
1
73
6
0
VERTEX
8
OBJECT__47
10
0
20
0
30
0
70
128
71
24
72
26
73
22
0
VERTEX
8
OBJECT__47
10
0
20
0
30
0
70
128
71
19
72
25
73
21
0
VERTEX
8
OBJECT__47
10
0
20
0
30
0
70
128
71
11
72
17
73
8
0
VERTEX
8
OBJECT__47
10
0
20
0
30
0
70
128
71
3
72
29
73
6
0
SEQEND
8
OBJECT__47
0
POLYLINE
8
OBJECT__48
66
1
70
64
71
33
72
32
62
253
0
VERTEX
8
OBJECT__48
10
5.818000
20
26.620001
30
94.591003
70
192
0
VERTEX
8
OBJECT__48
10
0.027000
20
27.250000
30
94.591003
70
192
0
VERTEX
8
OBJECT__48
10
1.534000
20
27.093000
30
103.085999
70
192
0
VERTEX
8
OBJECT__48
10
2.994000
20
26.472000
30
111.325996
70
192
0
VERTEX
8
OBJECT__48
10
13.103000
20
24.504000
30
111.329002
70
192
0
VERTEX
8
OBJECT__48
10
9.044000
20
25.702999
30
94.591003
70
192
0
VERTEX
8
OBJECT__48
10
10.401000
20
25.055000
30
94.591003
70
192
0
VERTEX
8
OBJECT__48
10
7.788000
20
25.327000
30
122.731003
70
192
0
VERTEX
8
OBJECT__48
10
10.824000
20
24.622999
30
124.348999
70
192
0
VERTEX
8
OBJECT__48
10
4.718000
20
25.739000
30
121.054001
70
192
0
VERTEX
8
OBJECT__48
10
14.300000
20
23.193001
30
94.591003
70
192
0
VERTEX
8
OBJECT__48
10
17.041000
20
21.259001
30
94.591003
70
192
0
VERTEX
8
OBJECT__48
10
15.106000
20
22.830999
30
126.564003
70
192
0
VERTEX
8
OBJECT__48
10
17.646000
20
21.768000
30
127.877998
70
192
0
VERTEX
8
OBJECT__48
10
22.336000
20
18.403000
30
124.910004
70
192
0
VERTEX
8
OBJECT__48
10
22.934000
20
17.716000
30
124.373001
70
192
0
VERTEX
8
OBJECT__48
10
22.018000
20
18.767000
30
125.194000
70
192
0
VERTEX
8
OBJECT__48
10
19.176001
20
19.135000
30
94.591003
70
192
0
VERTEX
8
OBJECT__48
10
23.115999
20
14.420000
30
94.591003
70
192
0
VERTEX
8
OBJECT__48
10
27.687000
20
10.656000
30
119.558998
70
192
0
VERTEX
8
OBJECT__48
10
27.945000
20
9.810000
30
119.223999
70
192
0
VERTEX
8
OBJECT__48
10
25.084999
20
10.350000
30
94.591003
70
192
0
VERTEX
8
OBJECT__48
10
21.170000
20
17.150999
30
94.591003
70
192
0
VERTEX
8
OBJECT__48
10
25.482000
20
14.793000
30
122.091003
70
192
0
VERTEX
8
OBJECT__48
10
26.235001
20
13.381000
30
121.226997
70
192
0
VERTEX
8
OBJECT__48
10
27.312000
20
-0.033000
30
95.060997
70
192
0
VERTEX
8
OBJECT__48
10
26.586000
20
5.955000
30
94.591003
70
192
0
VERTEX
8
OBJECT__48
10
29.721001
20
1.262000
30
116.933998
70
192
0
VERTEX
8
OBJECT__48
10
29.757999
20
-0.036000
30
116.900002
70
192
0
VERTEX
8
OBJECT__48
10
29.087999
20
6.076000
30
117.745003
70
192
0
VERTEX
8
OBJECT__48
10
25.653000
20
9.176000
30
94.591003
70
192
0
VERTEX
8
OBJECT__48
10
28.749001
20
7.182000
30
118.182999
70
192
0
VERTEX
8
OBJECT__48
10
27.243999
20
-0.033000
30
94.591003
70
192
0
VERTEX
8
OBJECT__48
10
0
20
0
30
0
70
128
71
1
72
2
73
3
0
VERTEX
8
OBJECT__48
10
0
20
0
30
0
70
128
71
4
72
5
73
6
0
VERTEX
8
OBJECT__48
10
0
20
0
30
0
70
128
71
6
72
1
73
4
0
VERTEX
8
OBJECT__48
10
0
20
0
30
0
70
128
71
5
72
7
73
6
0
VERTEX
8
OBJECT__48
10
0
20
0
30
0
70
128
71
5
72
8
73
9
0
VERTEX
8
OBJECT__48
10
0
20
0
30
0
70
128
71
5
72
4
73
10
0
VERTEX
8
OBJECT__48
10
0
20
0
30
0
70
128
71
10
72
8
73
5
0
VERTEX
8
OBJECT__48
10
0
20
0
30
0
70
128
71
11
72
7
73
5
0
VERTEX
8
OBJECT__48
10
0
20
0
30
0
70
128
71
12
72
11
73
13
0
VERTEX
8
OBJECT__48
10
0
20
0
30
0
70
128
71
13
72
14
73
12
0
VERTEX
8
OBJECT__48
10
0
20
0
30
0
70
128
71
12
72
15
73
16
0
VERTEX
8
OBJECT__48
10
0
20
0
30
0
70
128
71
12
72
14
73
17
0
VERTEX
8
OBJECT__48
10
0
20
0
30
0
70
128
71
17
72
15
73
12
0
VERTEX
8
OBJECT__48
10
0
20
0
30
0
70
128
71
16
72
18
73
12
0
VERTEX
8
OBJECT__48
10
0
20
0
30
0
70
128
71
19
72
20
73
21
0
VERTEX
8
OBJECT__48
10
0
20
0
30
0
70
128
71
21
72
22
73
19
0
VERTEX
8
OBJECT__48
10
0
20
0
30
0
70
128
71
19
72
23
73
20
0
VERTEX
8
OBJECT__48
10
0
20
0
30
0
70
128
71
18
72
24
73
25
0
VERTEX
8
OBJECT__48
10
0
20
0
30
0
70
128
71
18
72
16
73
24
0
VERTEX
8
OBJECT__48
10
0
20
0
30
0
70
128
71
25
72
20
73
18
0
VERTEX
8
OBJECT__48
10
0
20
0
30
0
70
128
71
26
72
27
73
28
0
VERTEX
8
OBJECT__48
10
0
20
0
30
0
70
128
71
28
72
29
73
26
0
VERTEX
8
OBJECT__48
10
0
20
0
30
0
70
128
71
30
72
28
73
27
0
VERTEX
8
OBJECT__48
10
0
20
0
30
0
70
128
71
27
72
31
73
30
0
VERTEX
8
OBJECT__48
10
0
20
0
30
0
70
128
71
31
72
22
73
30
0
VERTEX
8
OBJECT__48
10
0
20
0
30
0
70
128
71
22
72
21
73
32
0
VERTEX
8
OBJECT__48
10
0
20
0
30
0
70
128
71
32
72
30
73
22
0
VERTEX
8
OBJECT__48
10
0
20
0
30
0
70
128
71
26
72
33
73
27
0
VERTEX
8
OBJECT__48
10
0
20
0
30
0
70
128
71
23
72
18
73
20
0
VERTEX
8
OBJECT__48
10
0
20
0
30
0
70
128
71
5
72
13
73
11
0
VERTEX
8
OBJECT__48
10
0
20
0
30
0
70
128
71
9
72
13
73
5
0
VERTEX
8
OBJECT__48
10
0
20
0
30
0
70
128
71
3
72
4
73
1
0
SEQEND
8
OBJECT__48
0
POLYLINE
8
OBJECT__49
66
1
70
64
71
31
72
30
62
253
0
VERTEX
8
OBJECT__49
10
2.937000
20
-26.476000
30
111.362000
70
192
0
VERTEX
8
OBJECT__49
10
3.004000
20
-25.854000
30
120.047997
70
192
0
VERTEX
8
OBJECT__49
10
-1.714000
20
-25.662001
30
117.303001
70
192
0
VERTEX
8
OBJECT__49
10
4.640000
20
-25.760000
30
120.963997
70
192
0
VERTEX
8
OBJECT__49
10
-6.024000
20
-26.577000
30
94.591003
70
192
0
VERTEX
8
OBJECT__49
10
-0.038000
20
-27.250000
30
94.591003
70
192
0
VERTEX
8
OBJECT__49
10
1.452000
20
-27.100000
30
102.996002
70
192
0
VERTEX
8
OBJECT__49
10
-6.969000
20
-24.419001
30
113.919998
70
192
0
VERTEX
8
OBJECT__49
10
-8.207000
20
-24.972000
30
107.863998
70
192
0
VERTEX
8
OBJECT__49
10
-10.416000
20
-25.065001
30
94.591003
70
192
0
VERTEX
8
OBJECT__49
10
-9.242000
20
-25.636999
30
94.591003
70
192
0
VERTEX
8
OBJECT__49
10
-9.183000
20
-23.895000
30
112.496002
70
192
0
VERTEX
8
OBJECT__49
10
-13.290000
20
-22.040001
30
109.504997
70
192
0
VERTEX
8
OBJECT__49
10
-15.267000
20
-20.621000
30
107.862999
70
192
0
VERTEX
8
OBJECT__49
10
-14.481000
20
-23.087000
30
94.591003
70
192
0
VERTEX
8
OBJECT__49
10
-17.207001
20
-21.134001
30
94.591003
70
192
0
VERTEX
8
OBJECT__49
10
-17.422001
20
-19.075001
30
106.072998
70
192
0
VERTEX
8
OBJECT__49
10
-19.186001
20
-19.136000
30
94.591003
70
192
0
VERTEX
8
OBJECT__49
10
-23.233000
20
-14.249000
30
94.591003
70
192
0
VERTEX
8
OBJECT__49
10
-24.114000
20
-11.529000
30
99.926003
70
192
0
VERTEX
8
OBJECT__49
10
-24.559999
20
-10.406000
30
99.504997
70
192
0
VERTEX
8
OBJECT__49
10
-20.544001
20
-16.459999
30
103.367996
70
192
0
VERTEX
8
OBJECT__49
10
-21.306000
20
-16.996000
30
94.591003
70
192
0
VERTEX
8
OBJECT__49
10
-19.239000
20
-17.771000
30
104.564003
70
192
0
VERTEX
8
OBJECT__49
10
-26.639999
20
-5.760000
30
94.591003
70
192
0
VERTEX
8
OBJECT__49
10
-26.427999
20
-5.449000
30
97.753998
70
192
0
VERTEX
8
OBJECT__49
10
-27.052999
20
0.033000
30
97.341003
70
192
0
VERTEX
8
OBJECT__49
10
-26.268000
20
-6.100000
30
97.888000
70
192
0
VERTEX
8
OBJECT__49
10
-25.730000
20
-8.988000
30
94.591003
70
192
0
VERTEX
8
OBJECT__49
10
-25.086000
20
-10.346000
30
94.591003
70
192
0
VERTEX
8
OBJECT__49
10
-27.254999
20
0.033000
30
94.591003
70
192
0
VERTEX
8
OBJECT__49
10
0
20
0
30
0
70
128
71
1
72
2
73
3
0
VERTEX
8
OBJECT__49
10
0
20
0
30
0
70
128
71
1
72
4
73
2
0
VERTEX
8
OBJECT__49
10
0
20
0
30
0
70
128
71
5
72
6
73
7
0
VERTEX
8
OBJECT__49
10
0
20
0
30
0
70
128
71
7
72
8
73
5
0
VERTEX
8
OBJECT__49
10
0
20
0
30
0
70
128
71
9
72
10
73
11
0
VERTEX
8
OBJECT__49
10
0
20
0
30
0
70
128
71
5
72
8
73
9
0
VERTEX
8
OBJECT__49
10
0
20
0
30
0
70
128
71
11
72
5
73
9
0
VERTEX
8
OBJECT__49
10
0
20
0
30
0
70
128
71
7
72
1
73
8
0
VERTEX
8
OBJECT__49
10
0
20
0
30
0
70
128
71
9
72
8
73
12
0
VERTEX
8
OBJECT__49
10
0
20
0
30
0
70
128
71
12
72
13
73
9
0
VERTEX
8
OBJECT__49
10
0
20
0
30
0
70
128
71
14
72
15
73
10
0
VERTEX
8
OBJECT__49
10
0
20
0
30
0
70
128
71
16
72
14
73
17
0
VERTEX
8
OBJECT__49
10
0
20
0
30
0
70
128
71
17
72
18
73
16
0
VERTEX
8
OBJECT__49
10
0
20
0
30
0
70
128
71
16
72
15
73
14
0
VERTEX
8
OBJECT__49
10
0
20
0
30
0
70
128
71
19
72
20
73
21
0
VERTEX
8
OBJECT__49
10
0
20
0
30
0
70
128
71
22
72
20
73
19
0
VERTEX
8
OBJECT__49
10
0
20
0
30
0
70
128
71
19
72
23
73
22
0
VERTEX
8
OBJECT__49
10
0
20
0
30
0
70
128
71
18
72
17
73
24
0
VERTEX
8
OBJECT__49
10
0
20
0
30
0
70
128
71
24
72
22
73
18
0
VERTEX
8
OBJECT__49
10
0
20
0
30
0
70
128
71
23
72
18
73
22
0
VERTEX
8
OBJECT__49
10
0
20
0
30
0
70
128
71
25
72
26
73
27
0
VERTEX
8
OBJECT__49
10
0
20
0
30
0
70
128
71
25
72
28
73
26
0
VERTEX
8
OBJECT__49
10
0
20
0
30
0
70
128
71
29
72
21
73
28
0
VERTEX
8
OBJECT__49
10
0
20
0
30
0
70
128
71
28
72
25
73
29
0
VERTEX
8
OBJECT__49
10
0
20
0
30
0
70
128
71
29
72
30
73
21
0
VERTEX
8
OBJECT__49
10
0
20
0
30
0
70
128
71
27
72
31
73
25
0
VERTEX
8
OBJECT__49
10
0
20
0
30
0
70
128
71
21
72
30
73
19
0
VERTEX
8
OBJECT__49
10
0
20
0
30
0
70
128
71
10
72
9
73
14
0
VERTEX
8
OBJECT__49
10
0
20
0
30
0
70
128
71
13
72
14
73
9
0
VERTEX
8
OBJECT__49
10
0
20
0
30
0
70
128
71
3
72
8
73
1
0
SEQEND
8
OBJECT__49
0
POLYLINE
8
OBJECT__50
66
1
70
64
71
31
72
30
62
253
0
VERTEX
8
OBJECT__50
10
-25.024000
20
10.399000
30
94.591003
70
192
0
VERTEX
8
OBJECT__50
10
-26.162001
20
7.640000
30
94.591003
70
192
0
VERTEX
8
OBJECT__50
10
-25.908001
20
7.545000
30
98.330002
70
192
0
VERTEX
8
OBJECT__50
10
-26.903000
20
4.368000
30
94.591003
70
192
0
VERTEX
8
OBJECT__50
10
-27.254999
20
0.033000
30
94.591003
70
192
0
VERTEX
8
OBJECT__50
10
-27.032000
20
1.158000
30
97.371002
70
192
0
VERTEX
8
OBJECT__50
10
-26.976000
20
2.111000
30
97.417999
70
192
0
VERTEX
8
OBJECT__50
10
-27.052999
20
0.033000
30
97.341003
70
192
0
VERTEX
8
OBJECT__50
10
-18.518999
20
18.468000
30
105.275002
70
192
0
VERTEX
8
OBJECT__50
10
-19.167999
20
19.218000
30
94.591003
70
192
0
VERTEX
8
OBJECT__50
10
-22.158001
20
15.869000
30
94.591003
70
192
0
VERTEX
8
OBJECT__50
10
-22.778000
20
13.783000
30
101.344002
70
192
0
VERTEX
8
OBJECT__50
10
-23.349001
20
12.932000
30
100.792999
70
192
0
VERTEX
8
OBJECT__50
10
-23.941999
20
13.024000
30
94.591003
70
192
0
VERTEX
8
OBJECT__50
10
-24.537001
20
10.431000
30
99.649002
70
192
0
VERTEX
8
OBJECT__50
10
-15.658000
20
22.306000
30
94.591003
70
192
0
VERTEX
8
OBJECT__50
10
-18.280001
20
20.214001
30
94.591003
70
192
0
VERTEX
8
OBJECT__50
10
-17.495001
20
19.209000
30
106.127998
70
192
0
VERTEX
8
OBJECT__50
10
-15.337000
20
20.768999
30
107.925003
70
192
0
VERTEX
8
OBJECT__50
10
-8.152000
20
24.989000
30
107.914001
70
192
0
VERTEX
8
OBJECT__50
10
-10.559000
20
25.122999
30
94.591003
70
192
0
VERTEX
8
OBJECT__50
10
-10.399000
20
25.174000
30
94.591003
70
192
0
VERTEX
8
OBJECT__50
10
-14.567000
20
21.325001
30
108.566002
70
192
0
VERTEX
8
OBJECT__50
10
-7.752000
20
24.375999
30
113.523003
70
192
0
VERTEX
8
OBJECT__50
10
-5.778000
20
26.631001
30
94.591003
70
192
0
VERTEX
8
OBJECT__50
10
1.534000
20
27.093000
30
103.085999
70
192
0
VERTEX
8
OBJECT__50
10
0.027000
20
27.250000
30
94.591003
70
192
0
VERTEX
8
OBJECT__50
10
2.994000
20
26.472000
30
111.325996
70
192
0
VERTEX
8
OBJECT__50
10
-6.936000
20
24.566999
30
114.046997
70
192
0
VERTEX
8
OBJECT__50
10
-3.134000
20
25.455999
30
116.488998
70
192
0
VERTEX
8
OBJECT__50
10
4.718000
20
25.739000
30
121.054001
70
192
0
VERTEX
8
OBJECT__50
10
0
20
0
30
0
70
128
71
1
72
2
73
3
0
VERTEX
8
OBJECT__50
10
0
20
0
30
0
70
128
71
3
72
2
73
4
0
VERTEX
8
OBJECT__50
10
0
20
0
30
0
70
128
71
5
72
6
73
7
0
VERTEX
8
OBJECT__50
10
0
20
0
30
0
70
128
71
5
72
8
73
6
0
VERTEX
8
OBJECT__50
10
0
20
0
30
0
70
128
71
7
72
4
73
5
0
VERTEX
8
OBJECT__50
10
0
20
0
30
0
70
128
71
4
72
7
73
3
0
VERTEX
8
OBJECT__50
10
0
20
0
30
0
70
128
71
9
72
10
73
11
0
VERTEX
8
OBJECT__50
10
0
20
0
30
0
70
128
71
11
72
12
73
9
0
VERTEX
8
OBJECT__50
10
0
20
0
30
0
70
128
71
11
72
13
73
12
0
VERTEX
8
OBJECT__50
10
0
20
0
30
0
70
128
71
14
72
1
73
15
0
VERTEX
8
OBJECT__50
10
0
20
0
30
0
70
128
71
13
72
11
73
14
0
VERTEX
8
OBJECT__50
10
0
20
0
30
0
70
128
71
15
72
13
73
14
0
VERTEX
8
OBJECT__50
10
0
20
0
30
0
70
128
71
16
72
17
73
18
0
VERTEX
8
OBJECT__50
10
0
20
0
30
0
70
128
71
18
72
19
73
16
0
VERTEX
8
OBJECT__50
10
0
20
0
30
0
70
128
71
19
72
20
73
21
0
VERTEX
8
OBJECT__50
10
0
20
0
30
0
70
128
71
20
72
22
73
21
0
VERTEX
8
OBJECT__50
10
0
20
0
30
0
70
128
71
21
72
16
73
19
0
VERTEX
8
OBJECT__50
10
0
20
0
30
0
70
128
71
20
72
23
73
24
0
VERTEX
8
OBJECT__50
10
0
20
0
30
0
70
128
71
20
72
19
73
23
0
VERTEX
8
OBJECT__50
10
0
20
0
30
0
70
128
71
25
72
20
73
26
0
VERTEX
8
OBJECT__50
10
0
20
0
30
0
70
128
71
26
72
27
73
25
0
VERTEX
8
OBJECT__50
10
0
20
0
30
0
70
128
71
28
72
26
73
20
0
VERTEX
8
OBJECT__50
10
0
20
0
30
0
70
128
71
20
72
29
73
28
0
VERTEX
8
OBJECT__50
10
0
20
0
30
0
70
128
71
28
72
29
73
30
0
VERTEX
8
OBJECT__50
10
0
20
0
30
0
70
128
71
30
72
31
73
28
0
VERTEX
8
OBJECT__50
10
0
20
0
30
0
70
128
71
25
72
22
73
20
0
VERTEX
8
OBJECT__50
10
0
20
0
30
0
70
128
71
24
72
29
73
20
0
VERTEX
8
OBJECT__50
10
0
20
0
30
0
70
128
71
17
72
10
73
18
0
VERTEX
8
OBJECT__50
10
0
20
0
30
0
70
128
71
9
72
18
73
10
0
VERTEX
8
OBJECT__50
10
0
20
0
30
0
70
128
71
3
72
15
73
1
0
SEQEND
8
OBJECT__50
0
POLYLINE
8
OBJECT__51
66
1
70
64
71
48
72
46
62
253
0
VERTEX
8
OBJECT__51
10
26.570999
20
-6.019000
30
94.591003
70
192
0
VERTEX
8
OBJECT__51
10
25.653000
20
9.176000
30
94.591003
70
192
0
VERTEX
8
OBJECT__51
10
26.586000
20
5.955000
30
94.591003
70
192
0
VERTEX
8
OBJECT__51
10
-19.167999
20
19.218000
30
94.591003
70
192
0
VERTEX
8
OBJECT__51
10
5.754000
20
-26.634001
30
94.591003
70
192
0
VERTEX
8
OBJECT__51
10
-0.038000
20
-27.250000
30
94.591003
70
192
0
VERTEX
8
OBJECT__51
10
27.243999
20
-0.033000
30
94.591003
70
192
0
VERTEX
8
OBJECT__51
10
-26.903000
20
4.368000
30
94.591003
70
192
0
VERTEX
8
OBJECT__51
10
-25.730000
20
-8.988000
30
94.591003
70
192
0
VERTEX
8
OBJECT__51
10
-26.639999
20
-5.760000
30
94.591003
70
192
0
VERTEX
8
OBJECT__51
10
-6.024000
20
-26.577000
30
94.591003
70
192
0
VERTEX
8
OBJECT__51
10
25.631001
20
-9.237000
30
94.591003
70
192
0
VERTEX
8
OBJECT__51
10
25.084999
20
10.350000
30
94.591003
70
192
0
VERTEX
8
OBJECT__51
10
21.128000
20
-17.202000
30
94.591003
70
192
0
VERTEX
8
OBJECT__51
10
-5.778000
20
26.631001
30
94.591003
70
192
0
VERTEX
8
OBJECT__51
10
0.027000
20
27.250000
30
94.591003
70
192
0
VERTEX
8
OBJECT__51
10
-25.086000
20
-10.346000
30
94.591003
70
192
0
VERTEX
8
OBJECT__51
10
-26.162001
20
7.640000
30
94.591003
70
192
0
VERTEX
8
OBJECT__51
10
-25.024000
20
10.399000
30
94.591003
70
192
0
VERTEX
8
OBJECT__51
10
-21.306000
20
-16.996000
30
94.591003
70
192
0
VERTEX
8
OBJECT__51
10
-23.233000
20
-14.249000
30
94.591003
70
192
0
VERTEX
8
OBJECT__51
10
8.982000
20
-25.725000
30
94.591003
70
192
0
VERTEX
8
OBJECT__51
10
25.059999
20
-10.411000
30
94.591003
70
192
0
VERTEX
8
OBJECT__51
10
23.080999
20
-14.476000
30
94.591003
70
192
0
VERTEX
8
OBJECT__51
10
21.170000
20
17.150999
30
94.591003
70
192
0
VERTEX
8
OBJECT__51
10
23.115999
20
14.420000
30
94.591003
70
192
0
VERTEX
8
OBJECT__51
10
-10.399000
20
25.174000
30
94.591003
70
192
0
VERTEX
8
OBJECT__51
10
-15.658000
20
22.306000
30
94.591003
70
192
0
VERTEX
8
OBJECT__51
10
-10.559000
20
25.122999
30
94.591003
70
192
0
VERTEX
8
OBJECT__51
10
-19.186001
20
-19.136000
30
94.591003
70
192
0
VERTEX
8
OBJECT__51
10
-23.941999
20
13.024000
30
94.591003
70
192
0
VERTEX
8
OBJECT__51
10
-22.158001
20
15.869000
30
94.591003
70
192
0
VERTEX
8
OBJECT__51
10
-27.254999
20
0.033000
30
94.591003
70
192
0
VERTEX
8
OBJECT__51
10
-9.242000
20
-25.636999
30
94.591003
70
192
0
VERTEX
8
OBJECT__51
10
16.990000
20
-21.299999
30
94.591003
70
192
0
VERTEX
8
OBJECT__51
10
14.244000
20
-23.226999
30
94.591003
70
192
0
VERTEX
8
OBJECT__51
10
19.176001
20
19.135000
30
94.591003
70
192
0
VERTEX
8
OBJECT__51
10
10.401000
20
25.055000
30
94.591003
70
192
0
VERTEX
8
OBJECT__51
10
14.300000
20
23.193001
30
94.591003
70
192
0
VERTEX
8
OBJECT__51
10
5.818000
20
26.620001
30
94.591003
70
192
0
VERTEX
8
OBJECT__51
10
-18.280001
20
20.214001
30
94.591003
70
192
0
VERTEX
8
OBJECT__51
10
-10.416000
20
-25.065001
30
94.591003
70
192
0
VERTEX
8
OBJECT__51
10
-14.481000
20
-23.087000
30
94.591003
70
192
0
VERTEX
8
OBJECT__51
10
10.341000
20
-25.080000
30
94.591003
70
192
0
VERTEX
8
OBJECT__51
10
19.129999
20
-19.181000
30
94.591003
70
192
0
VERTEX
8
OBJECT__51
10
17.041000
20
21.259001
30
94.591003
70
192
0
VERTEX
8
OBJECT__51
10
9.044000
20
25.702999
30
94.591003
70
192
0
VERTEX
8
OBJECT__51
10
-17.207001
20
-21.134001
30
94.591003
70
192
0
VERTEX
8
OBJECT__51
10
0
20
0
30
0
70
128
71
1
72
2
73
3
0
VERTEX
8
OBJECT__51
10
0
20
0
30
0
70
128
71
4
72
5
73
6
0
VERTEX
8
OBJECT__51
10
0
20
0
30
0
70
128
71
3
72
7
73
1
0
VERTEX
8
OBJECT__51
10
0
20
0
30
0
70
128
71
8
72
9
73
10
0
VERTEX
8
OBJECT__51
10
0
20
0
30
0
70
128
71
6
72
11
73
4
0
VERTEX
8
OBJECT__51
10
0
20
0
30
0
70
128
71
12
72
13
73
2
0
VERTEX
8
OBJECT__51
10
0
20
0
30
0
70
128
71
14
72
15
73
16
0
VERTEX
8
OBJECT__51
10
0
20
0
30
0
70
128
71
17
72
8
73
18
0
VERTEX
8
OBJECT__51
10
0
20
0
30
0
70
128
71
8
72
17
73
9
0
VERTEX
8
OBJECT__51
10
0
20
0
30
0
70
128
71
19
72
20
73
21
0
VERTEX
8
OBJECT__51
10
0
20
0
30
0
70
128
71
4
72
22
73
5
0
VERTEX
8
OBJECT__51
10
0
20
0
30
0
70
128
71
13
72
23
73
24
0
VERTEX
8
OBJECT__51
10
0
20
0
30
0
70
128
71
1
72
12
73
2
0
VERTEX
8
OBJECT__51
10
0
20
0
30
0
70
128
71
14
72
25
73
26
0
VERTEX
8
OBJECT__51
10
0
20
0
30
0
70
128
71
14
72
27
73
15
0
VERTEX
8
OBJECT__51
10
0
20
0
30
0
70
128
71
14
72
28
73
29
0
VERTEX
8
OBJECT__51
10
0
20
0
30
0
70
128
71
30
72
31
73
32
0
VERTEX
8
OBJECT__51
10
0
20
0
30
0
70
128
71
10
72
33
73
8
0
VERTEX
8
OBJECT__51
10
0
20
0
30
0
70
128
71
19
72
30
73
20
0
VERTEX
8
OBJECT__51
10
0
20
0
30
0
70
128
71
11
72
34
73
4
0
VERTEX
8
OBJECT__51
10
0
20
0
30
0
70
128
71
4
72
35
73
36
0
VERTEX
8
OBJECT__51
10
0
20
0
30
0
70
128
71
12
72
23
73
13
0
VERTEX
8
OBJECT__51
10
0
20
0
30
0
70
128
71
14
72
37
73
25
0
VERTEX
8
OBJECT__51
10
0
20
0
30
0
70
128
71
14
72
38
73
39
0
VERTEX
8
OBJECT__51
10
0
20
0
30
0
70
128
71
16
72
40
73
14
0
VERTEX
8
OBJECT__51
10
0
20
0
30
0
70
128
71
14
72
41
73
28
0
VERTEX
8
OBJECT__51
10
0
20
0
30
0
70
128
71
30
72
19
73
31
0
VERTEX
8
OBJECT__51
10
0
20
0
30
0
70
128
71
21
72
17
73
19
0
VERTEX
8
OBJECT__51
10
0
20
0
30
0
70
128
71
4
72
42
73
43
0
VERTEX
8
OBJECT__51
10
0
20
0
30
0
70
128
71
4
72
44
73
22
0
VERTEX
8
OBJECT__51
10
0
20
0
30
0
70
128
71
4
72
45
73
35
0
VERTEX
8
OBJECT__51
10
0
20
0
30
0
70
128
71
26
72
13
73
14
0
VERTEX
8
OBJECT__51
10
0
20
0
30
0
70
128
71
39
72
46
73
14
0
VERTEX
8
OBJECT__51
10
0
20
0
30
0
70
128
71
40
72
47
73
14
0
VERTEX
8
OBJECT__51
10
0
20
0
30
0
70
128
71
14
72
4
73
41
0
VERTEX
8
OBJECT__51
10
0
20
0
30
0
70
128
71
18
72
19
73
17
0
VERTEX
8
OBJECT__51
10
0
20
0
30
0
70
128
71
43
72
48
73
4
0
VERTEX
8
OBJECT__51
10
0
20
0
30
0
70
128
71
36
72
44
73
4
0
VERTEX
8
OBJECT__51
10
0
20
0
30
0
70
128
71
46
72
37
73
14
0
VERTEX
8
OBJECT__51
10
0
20
0
30
0
70
128
71
29
72
27
73
14
0
VERTEX
8
OBJECT__51
10
0
20
0
30
0
70
128
71
48
72
30
73
4
0
VERTEX
8
OBJECT__51
10
0
20
0
30
0
70
128
71
4
72
14
73
45
0
VERTEX
8
OBJECT__51
10
0
20
0
30
0
70
128
71
47
72
38
73
14
0
VERTEX
8
OBJECT__51
10
0
20
0
30
0
70
128
71
34
72
42
73
4
0
VERTEX
8
OBJECT__51
10
0
20
0
30
0
70
128
71
32
72
4
73
30
0
VERTEX
8
OBJECT__51
10
0
20
0
30
0
70
128
71
24
72
14
73
13
0
SEQEND
8
OBJECT__51
0
POLYLINE
8
OBJECT__52
66
1
70
64
71
14
72
14
62
253
0
VERTEX
8
OBJECT__52
10
230.266006
20
-61.111000
30
198.850998
70
192
0
VERTEX
8
OBJECT__52
10
229.796997
20
-61.111000
30
201.509995
70
192
0
VERTEX
8
OBJECT__52
10
222.867004
20
-64.500000
30
200.287994
70
192
0
VERTEX
8
OBJECT__52
10
231.507996
20
-53.497002
30
201.811996
70
192
0
VERTEX
8
OBJECT__52
10
227.182007
20
-47.390999
30
198.307007
70
192
0
VERTEX
8
OBJECT__52
10
226.712997
20
-47.390999
30
200.966003
70
192
0
VERTEX
8
OBJECT__52
10
219.022003
20
-47.390999
30
199.610001
70
192
0
VERTEX
8
OBJECT__52
10
214.695007
20
-53.497002
30
196.106003
70
192
0
VERTEX
8
OBJECT__52
10
214.225998
20
-53.497002
30
198.764999
70
192
0
VERTEX
8
OBJECT__52
10
215.938004
20
-61.111000
30
199.065994
70
192
0
VERTEX
8
OBJECT__52
10
223.335999
20
-64.500000
30
197.628998
70
192
0
VERTEX
8
OBJECT__52
10
216.406006
20
-61.111000
30
196.406998
70
192
0
VERTEX
8
OBJECT__52
10
219.490005
20
-47.390999
30
196.951004
70
192
0
VERTEX
8
OBJECT__52
10
231.977005
20
-53.497002
30
199.153000
70
192
0
VERTEX
8
OBJECT__52
10
0
20
0
30
0
70
128
71
1
72
2
73
3
0
VERTEX
8
OBJECT__52
10
0
20
0
30
0
70
128
71
4
72
2
73
1
0
VERTEX
8
OBJECT__52
10
0
20
0
30
0
70
128
71
5
72
6
73
4
0
VERTEX
8
OBJECT__52
10
0
20
0
30
0
70
128
71
7
72
6
73
5
0
VERTEX
8
OBJECT__52
10
0
20
0
30
0
70
128
71
8
72
9
73
7
0
VERTEX
8
OBJECT__52
10
0
20
0
30
0
70
128
71
10
72
9
73
8
0
VERTEX
8
OBJECT__52
10
0
20
0
30
0
70
128
71
11
72
3
73
10
0
VERTEX
8
OBJECT__52
10
0
20
0
30
0
70
128
71
10
72
12
73
11
0
VERTEX
8
OBJECT__52
10
0
20
0
30
0
70
128
71
8
72
12
73
10
0
VERTEX
8
OBJECT__52
10
0
20
0
30
0
70
128
71
7
72
13
73
8
0
VERTEX
8
OBJECT__52
10
0
20
0
30
0
70
128
71
5
72
13
73
7
0
VERTEX
8
OBJECT__52
10
0
20
0
30
0
70
128
71
4
72
14
73
5
0
VERTEX
8
OBJECT__52
10
0
20
0
30
0
70
128
71
1
72
14
73
4
0
VERTEX
8
OBJECT__52
10
0
20
0
30
0
70
128
71
3
72
11
73
1
0
SEQEND
8
OBJECT__52
0
POLYLINE
8
OBJECT__53
66
1
70
64
71
7
72
5
62
253
0
VERTEX
8
OBJECT__53
10
230.266006
20
-61.111000
30
198.850998
70
192
0
VERTEX
8
OBJECT__53
10
219.490005
20
-47.390999
30
196.951004
70
192
0
VERTEX
8
OBJECT__53
10
227.182007
20
-47.390999
30
198.307007
70
192
0
VERTEX
8
OBJECT__53
10
214.695007
20
-53.497002
30
196.106003
70
192
0
VERTEX
8
OBJECT__53
10
223.335999
20
-64.500000
30
197.628998
70
192
0
VERTEX
8
OBJECT__53
10
231.977005
20
-53.497002
30
199.153000
70
192
0
VERTEX
8
OBJECT__53
10
216.406006
20
-61.111000
30
196.406998
70
192
0
VERTEX
8
OBJECT__53
10
0
20
0
30
0
70
128
71
1
72
2
73
3
0
VERTEX
8
OBJECT__53
10
0
20
0
30
0
70
128
71
4
72
1
73
5
0
VERTEX
8
OBJECT__53
10
0
20
0
30
0
70
128
71
1
72
4
73
2
0
VERTEX
8
OBJECT__53
10
0
20
0
30
0
70
128
71
3
72
6
73
1
0
VERTEX
8
OBJECT__53
10
0
20
0
30
0
70
128
71
5
72
7
73
4
0
SEQEND
8
OBJECT__53
0
ENDSEC
0
EOF
