999
Converted by 3D Exploration 
999
XDimension Software, LLC
999
http://www.xdsoft.com/explorer/
0
SECTION
2
HEADER
9
$ACADVER
1
AC1008
9
$UCSORG
10
0.0
20
0.0
30
0.0
9
$UCSXDIR
10
1.0
20
0.0
30
0.0
9
$TILEMODE
70
1
9
$UCSYDIR
10
0.0
20
1.0
30
0.0
9
$EXTMIN
10
66.000000
20
-85.500000
30
-85.500000
9
$EXTMAX
10
142.300003
20
85.500000
30
113.500000
0
ENDSEC
0
SECTION
2
TABLES
0
TABLE
2
LTYPE
70
1
0
LTYPE
2
CONTINUOUS
70
64
3
Solid line
72
65
73
0
40
0.0
0
ENDTAB
0
TABLE
2
LAYER
70
116
0
LAYER
2
OBJECT__0
70
0
62
253
6
CONTINUOUS
0
LAYER
2
OBJECT__1
70
0
62
253
6
CONTINUOUS
0
LAYER
2
OBJECT__3
70
0
62
253
6
CONTINUOUS
0
LAYER
2
OBJECT__4
70
0
62
253
6
CONTINUOUS
0
LAYER
2
OBJECT__5
70
0
62
253
6
CONTINUOUS
0
LAYER
2
OBJECT__7
70
0
62
253
6
CONTINUOUS
0
LAYER
2
OBJECT__8
70
0
62
253
6
CONTINUOUS
0
LAYER
2
OBJECT__9
70
0
62
253
6
CONTINUOUS
0
LAYER
2
OBJECT__10
70
0
62
253
6
CONTINUOUS
0
LAYER
2
OBJECT__11
70
0
62
253
6
CONTINUOUS
0
LAYER
2
OBJECT__12
70
0
62
253
6
CONTINUOUS
0
LAYER
2
OBJECT__13
70
0
62
253
6
CONTINUOUS
0
LAYER
2
OBJECT__14
70
0
62
253
6
CONTINUOUS
0
LAYER
2
OBJECT__15
70
0
62
253
6
CONTINUOUS
0
LAYER
2
OBJECT__16
70
0
62
253
6
CONTINUOUS
0
LAYER
2
OBJECT__17
70
0
62
253
6
CONTINUOUS
0
LAYER
2
OBJECT__18
70
0
62
253
6
CONTINUOUS
0
LAYER
2
OBJECT__19
70
0
62
253
6
CONTINUOUS
0
LAYER
2
OBJECT__21
70
0
62
253
6
CONTINUOUS
0
LAYER
2
OBJECT__22
70
0
62
253
6
CONTINUOUS
0
LAYER
2
OBJECT__24
70
0
62
253
6
CONTINUOUS
0
LAYER
2
OBJECT__25
70
0
62
253
6
CONTINUOUS
0
LAYER
2
OBJECT__27
70
0
62
253
6
CONTINUOUS
0
LAYER
2
OBJECT__28
70
0
62
253
6
CONTINUOUS
0
LAYER
2
OBJECT__29
70
0
62
253
6
CONTINUOUS
0
LAYER
2
OBJECT__30
70
0
62
253
6
CONTINUOUS
0
LAYER
2
OBJECT__31
70
0
62
253
6
CONTINUOUS
0
LAYER
2
OBJECT__32
70
0
62
253
6
CONTINUOUS
0
LAYER
2
OBJECT__34
70
0
62
253
6
CONTINUOUS
0
LAYER
2
OBJECT__35
70
0
62
253
6
CONTINUOUS
0
LAYER
2
OBJECT__36
70
0
62
253
6
CONTINUOUS
0
LAYER
2
OBJECT__38
70
0
62
253
6
CONTINUOUS
0
LAYER
2
OBJECT__39
70
0
62
253
6
CONTINUOUS
0
LAYER
2
OBJECT__40
70
0
62
253
6
CONTINUOUS
0
LAYER
2
OBJECT__41
70
0
62
253
6
CONTINUOUS
0
LAYER
2
OBJECT__42
70
0
62
253
6
CONTINUOUS
0
LAYER
2
OBJECT__43
70
0
62
253
6
CONTINUOUS
0
LAYER
2
OBJECT__44
70
0
62
253
6
CONTINUOUS
0
LAYER
2
OBJECT__45
70
0
62
253
6
CONTINUOUS
0
LAYER
2
OBJECT__46
70
0
62
253
6
CONTINUOUS
0
LAYER
2
OBJECT__47
70
0
62
253
6
CONTINUOUS
0
LAYER
2
OBJECT__48
70
0
62
253
6
CONTINUOUS
0
LAYER
2
OBJECT__49
70
0
62
253
6
CONTINUOUS
0
LAYER
2
OBJECT__50
70
0
62
253
6
CONTINUOUS
0
LAYER
2
OBJECT__51
70
0
62
253
6
CONTINUOUS
0
LAYER
2
OBJECT__52
70
0
62
253
6
CONTINUOUS
0
LAYER
2
OBJECT__53
70
0
62
253
6
CONTINUOUS
0
LAYER
2
OBJECT__54
70
0
62
253
6
CONTINUOUS
0
LAYER
2
OBJECT__55
70
0
62
253
6
CONTINUOUS
0
LAYER
2
OBJECT__56
70
0
62
253
6
CONTINUOUS
0
LAYER
2
OBJECT__57
70
0
62
253
6
CONTINUOUS
0
LAYER
2
OBJECT__58
70
0
62
253
6
CONTINUOUS
0
LAYER
2
OBJECT__59
70
0
62
253
6
CONTINUOUS
0
LAYER
2
OBJECT__60
70
0
62
253
6
CONTINUOUS
0
LAYER
2
OBJECT__61
70
0
62
253
6
CONTINUOUS
0
LAYER
2
OBJECT__62
70
0
62
253
6
CONTINUOUS
0
LAYER
2
OBJECT__63
70
0
62
253
6
CONTINUOUS
0
LAYER
2
OBJECT__64
70
0
62
253
6
CONTINUOUS
0
LAYER
2
OBJECT__65
70
0
62
253
6
CONTINUOUS
0
LAYER
2
OBJECT__66
70
0
62
253
6
CONTINUOUS
0
LAYER
2
OBJECT__67
70
0
62
253
6
CONTINUOUS
0
LAYER
2
OBJECT__69
70
0
62
253
6
CONTINUOUS
0
LAYER
2
OBJECT__70
70
0
62
253
6
CONTINUOUS
0
LAYER
2
OBJECT__71
70
0
62
253
6
CONTINUOUS
0
LAYER
2
OBJECT__72
70
0
62
253
6
CONTINUOUS
0
LAYER
2
OBJECT__73
70
0
62
253
6
CONTINUOUS
0
LAYER
2
OBJECT__74
70
0
62
253
6
CONTINUOUS
0
LAYER
2
OBJECT__75
70
0
62
253
6
CONTINUOUS
0
LAYER
2
OBJECT__76
70
0
62
253
6
CONTINUOUS
0
LAYER
2
OBJECT__77
70
0
62
253
6
CONTINUOUS
0
LAYER
2
OBJECT__78
70
0
62
253
6
CONTINUOUS
0
LAYER
2
OBJECT__79
70
0
62
253
6
CONTINUOUS
0
LAYER
2
OBJECT__80
70
0
62
253
6
CONTINUOUS
0
LAYER
2
OBJECT__81
70
0
62
253
6
CONTINUOUS
0
LAYER
2
OBJECT__82
70
0
62
253
6
CONTINUOUS
0
LAYER
2
OBJECT__83
70
0
62
253
6
CONTINUOUS
0
LAYER
2
OBJECT__84
70
0
62
253
6
CONTINUOUS
0
LAYER
2
OBJECT__85
70
0
62
253
6
CONTINUOUS
0
LAYER
2
OBJECT__86
70
0
62
253
6
CONTINUOUS
0
LAYER
2
OBJECT__87
70
0
62
253
6
CONTINUOUS
0
LAYER
2
OBJECT__88
70
0
62
253
6
CONTINUOUS
0
LAYER
2
OBJECT__89
70
0
62
253
6
CONTINUOUS
0
LAYER
2
OBJECT__90
70
0
62
253
6
CONTINUOUS
0
LAYER
2
OBJECT__91
70
0
62
253
6
CONTINUOUS
0
LAYER
2
OBJECT__92
70
0
62
253
6
CONTINUOUS
0
LAYER
2
OBJECT__93
70
0
62
253
6
CONTINUOUS
0
LAYER
2
OBJECT__94
70
0
62
253
6
CONTINUOUS
0
LAYER
2
OBJECT__95
70
0
62
253
6
CONTINUOUS
0
LAYER
2
OBJECT__96
70
0
62
253
6
CONTINUOUS
0
LAYER
2
OBJECT__97
70
0
62
253
6
CONTINUOUS
0
LAYER
2
OBJECT__98
70
0
62
253
6
CONTINUOUS
0
LAYER
2
OBJECT__100
70
0
62
253
6
CONTINUOUS
0
LAYER
2
OBJECT__101
70
0
62
253
6
CONTINUOUS
0
LAYER
2
OBJECT__102
70
0
62
253
6
CONTINUOUS
0
LAYER
2
OBJECT__103
70
0
62
253
6
CONTINUOUS
0
LAYER
2
OBJECT__104
70
0
62
253
6
CONTINUOUS
0
LAYER
2
OBJECT__105
70
0
62
253
6
CONTINUOUS
0
LAYER
2
OBJECT__106
70
0
62
253
6
CONTINUOUS
0
LAYER
2
OBJECT__107
70
0
62
253
6
CONTINUOUS
0
LAYER
2
OBJECT__108
70
0
62
253
6
CONTINUOUS
0
LAYER
2
OBJECT__109
70
0
62
253
6
CONTINUOUS
0
LAYER
2
OBJECT__110
70
0
62
253
6
CONTINUOUS
0
LAYER
2
OBJECT__111
70
0
62
253
6
CONTINUOUS
0
LAYER
2
OBJECT__112
70
0
62
253
6
CONTINUOUS
0
LAYER
2
OBJECT__114
70
0
62
253
6
CONTINUOUS
0
LAYER
2
OBJECT__115
70
0
62
253
6
CONTINUOUS
0
ENDTAB
0
TABLE
2
STYLE
70
1
0
STYLE
2
STANDARD
70
0
40
0.0
41
1.0
50
0.0
71
0
42
0.2
3
txt
4
1
0
ENDTAB
0
TABLE
2
UCS
70
0
0
ENDTAB
0
ENDSEC
0
SECTION
2
ENTITIES
0
POLYLINE
8
OBJECT__0
66
1
70
64
71
28
72
28
62
253
0
VERTEX
8
OBJECT__0
10
90.800003
20
-8.461000
30
-41.069000
70
192
0
VERTEX
8
OBJECT__0
10
90.800003
20
0.000000
30
-43.000000
70
192
0
VERTEX
8
OBJECT__0
10
94.300003
20
0.000000
30
-43.000000
70
192
0
VERTEX
8
OBJECT__0
10
94.300003
20
-15.246000
30
-35.658001
70
192
0
VERTEX
8
OBJECT__0
10
90.800003
20
-15.246000
30
-35.658001
70
192
0
VERTEX
8
OBJECT__0
10
94.300003
20
-19.011000
30
-27.839001
70
192
0
VERTEX
8
OBJECT__0
10
90.800003
20
-19.011000
30
-27.839001
70
192
0
VERTEX
8
OBJECT__0
10
94.300003
20
-19.011000
30
-19.160999
70
192
0
VERTEX
8
OBJECT__0
10
90.800003
20
-19.011000
30
-19.160999
70
192
0
VERTEX
8
OBJECT__0
10
94.300003
20
-15.246000
30
-11.342000
70
192
0
VERTEX
8
OBJECT__0
10
90.800003
20
-15.246000
30
-11.342000
70
192
0
VERTEX
8
OBJECT__0
10
94.300003
20
-8.461000
30
-5.931000
70
192
0
VERTEX
8
OBJECT__0
10
90.800003
20
-8.461000
30
-5.931000
70
192
0
VERTEX
8
OBJECT__0
10
94.300003
20
0.000000
30
-4.000000
70
192
0
VERTEX
8
OBJECT__0
10
94.300003
20
8.461000
30
-5.931000
70
192
0
VERTEX
8
OBJECT__0
10
90.800003
20
8.461000
30
-5.931000
70
192
0
VERTEX
8
OBJECT__0
10
90.800003
20
0.000000
30
-4.000000
70
192
0
VERTEX
8
OBJECT__0
10
94.300003
20
15.246000
30
-11.342000
70
192
0
VERTEX
8
OBJECT__0
10
90.800003
20
15.246000
30
-11.342000
70
192
0
VERTEX
8
OBJECT__0
10
94.300003
20
19.011000
30
-19.160999
70
192
0
VERTEX
8
OBJECT__0
10
90.800003
20
19.011000
30
-19.160999
70
192
0
VERTEX
8
OBJECT__0
10
94.300003
20
19.011000
30
-27.839001
70
192
0
VERTEX
8
OBJECT__0
10
90.800003
20
19.011000
30
-27.839001
70
192
0
VERTEX
8
OBJECT__0
10
94.300003
20
15.246000
30
-35.658001
70
192
0
VERTEX
8
OBJECT__0
10
90.800003
20
15.246000
30
-35.658001
70
192
0
VERTEX
8
OBJECT__0
10
94.300003
20
8.461000
30
-41.069000
70
192
0
VERTEX
8
OBJECT__0
10
90.800003
20
8.461000
30
-41.069000
70
192
0
VERTEX
8
OBJECT__0
10
94.300003
20
-8.461000
30
-41.069000
70
192
0
VERTEX
8
OBJECT__0
10
0
20
0
30
0
70
128
71
1
72
2
73
3
0
VERTEX
8
OBJECT__0
10
0
20
0
30
0
70
128
71
4
72
5
73
1
0
VERTEX
8
OBJECT__0
10
0
20
0
30
0
70
128
71
6
72
7
73
5
0
VERTEX
8
OBJECT__0
10
0
20
0
30
0
70
128
71
8
72
9
73
7
0
VERTEX
8
OBJECT__0
10
0
20
0
30
0
70
128
71
10
72
11
73
9
0
VERTEX
8
OBJECT__0
10
0
20
0
30
0
70
128
71
12
72
13
73
11
0
VERTEX
8
OBJECT__0
10
0
20
0
30
0
70
128
71
13
72
12
73
14
0
VERTEX
8
OBJECT__0
10
0
20
0
30
0
70
128
71
15
72
16
73
17
0
VERTEX
8
OBJECT__0
10
0
20
0
30
0
70
128
71
18
72
19
73
16
0
VERTEX
8
OBJECT__0
10
0
20
0
30
0
70
128
71
20
72
21
73
19
0
VERTEX
8
OBJECT__0
10
0
20
0
30
0
70
128
71
22
72
23
73
21
0
VERTEX
8
OBJECT__0
10
0
20
0
30
0
70
128
71
24
72
25
73
23
0
VERTEX
8
OBJECT__0
10
0
20
0
30
0
70
128
71
26
72
27
73
25
0
VERTEX
8
OBJECT__0
10
0
20
0
30
0
70
128
71
26
72
3
73
2
0
VERTEX
8
OBJECT__0
10
0
20
0
30
0
70
128
71
2
72
27
73
26
0
VERTEX
8
OBJECT__0
10
0
20
0
30
0
70
128
71
25
72
24
73
26
0
VERTEX
8
OBJECT__0
10
0
20
0
30
0
70
128
71
23
72
22
73
24
0
VERTEX
8
OBJECT__0
10
0
20
0
30
0
70
128
71
21
72
20
73
22
0
VERTEX
8
OBJECT__0
10
0
20
0
30
0
70
128
71
19
72
18
73
20
0
VERTEX
8
OBJECT__0
10
0
20
0
30
0
70
128
71
16
72
15
73
18
0
VERTEX
8
OBJECT__0
10
0
20
0
30
0
70
128
71
17
72
14
73
15
0
VERTEX
8
OBJECT__0
10
0
20
0
30
0
70
128
71
14
72
17
73
13
0
VERTEX
8
OBJECT__0
10
0
20
0
30
0
70
128
71
11
72
10
73
12
0
VERTEX
8
OBJECT__0
10
0
20
0
30
0
70
128
71
9
72
8
73
10
0
VERTEX
8
OBJECT__0
10
0
20
0
30
0
70
128
71
7
72
6
73
8
0
VERTEX
8
OBJECT__0
10
0
20
0
30
0
70
128
71
5
72
4
73
6
0
VERTEX
8
OBJECT__0
10
0
20
0
30
0
70
128
71
1
72
28
73
4
0
VERTEX
8
OBJECT__0
10
0
20
0
30
0
70
128
71
3
72
28
73
1
0
SEQEND
8
OBJECT__0
0
POLYLINE
8
OBJECT__1
66
1
70
64
71
30
72
30
62
253
0
VERTEX
8
OBJECT__1
10
90.800003
20
-9.184000
30
-1.327000
70
192
0
VERTEX
8
OBJECT__1
10
90.800003
20
-8.461000
30
-5.931000
70
192
0
VERTEX
8
OBJECT__1
10
90.800003
20
0.000000
30
-4.000000
70
192
0
VERTEX
8
OBJECT__1
10
90.800003
20
-16.971001
30
-6.529000
70
192
0
VERTEX
8
OBJECT__1
10
90.800003
20
-15.246000
30
-11.342000
70
192
0
VERTEX
8
OBJECT__1
10
90.800003
20
-24.000000
30
-23.500000
70
192
0
VERTEX
8
OBJECT__1
10
90.800003
20
-19.011000
30
-27.839001
70
192
0
VERTEX
8
OBJECT__1
10
90.800003
20
-19.011000
30
-19.160999
70
192
0
VERTEX
8
OBJECT__1
10
90.800003
20
-22.173000
30
-32.683998
70
192
0
VERTEX
8
OBJECT__1
10
90.800003
20
-16.971001
30
-40.471001
70
192
0
VERTEX
8
OBJECT__1
10
90.800003
20
-15.246000
30
-35.658001
70
192
0
VERTEX
8
OBJECT__1
10
90.800003
20
-9.184000
30
-45.673000
70
192
0
VERTEX
8
OBJECT__1
10
90.800003
20
-8.461000
30
-41.069000
70
192
0
VERTEX
8
OBJECT__1
10
90.800003
20
9.184000
30
-1.327000
70
192
0
VERTEX
8
OBJECT__1
10
90.800003
20
0.000000
30
0.500000
70
192
0
VERTEX
8
OBJECT__1
10
90.800003
20
-22.173000
30
-14.316000
70
192
0
VERTEX
8
OBJECT__1
10
90.800003
20
9.184000
30
-45.673000
70
192
0
VERTEX
8
OBJECT__1
10
90.800003
20
8.461000
30
-41.069000
70
192
0
VERTEX
8
OBJECT__1
10
90.800003
20
0.000000
30
-43.000000
70
192
0
VERTEX
8
OBJECT__1
10
90.800003
20
16.971001
30
-40.471001
70
192
0
VERTEX
8
OBJECT__1
10
90.800003
20
15.246000
30
-35.658001
70
192
0
VERTEX
8
OBJECT__1
10
90.800003
20
24.000000
30
-23.500000
70
192
0
VERTEX
8
OBJECT__1
10
90.800003
20
19.011000
30
-19.160999
70
192
0
VERTEX
8
OBJECT__1
10
90.800003
20
19.011000
30
-27.839001
70
192
0
VERTEX
8
OBJECT__1
10
90.800003
20
16.971001
30
-6.529000
70
192
0
VERTEX
8
OBJECT__1
10
90.800003
20
8.461000
30
-5.931000
70
192
0
VERTEX
8
OBJECT__1
10
90.800003
20
22.173000
30
-32.683998
70
192
0
VERTEX
8
OBJECT__1
10
90.800003
20
22.173000
30
-14.316000
70
192
0
VERTEX
8
OBJECT__1
10
90.800003
20
15.246000
30
-11.342000
70
192
0
VERTEX
8
OBJECT__1
10
90.800003
20
0.000000
30
-47.500000
70
192
0
VERTEX
8
OBJECT__1
10
0
20
0
30
0
70
128
71
1
72
2
73
3
0
VERTEX
8
OBJECT__1
10
0
20
0
30
0
70
128
71
4
72
5
73
2
0
VERTEX
8
OBJECT__1
10
0
20
0
30
0
70
128
71
6
72
7
73
8
0
VERTEX
8
OBJECT__1
10
0
20
0
30
0
70
128
71
9
72
10
73
11
0
VERTEX
8
OBJECT__1
10
0
20
0
30
0
70
128
71
10
72
12
73
13
0
VERTEX
8
OBJECT__1
10
0
20
0
30
0
70
128
71
14
72
15
73
3
0
VERTEX
8
OBJECT__1
10
0
20
0
30
0
70
128
71
2
72
1
73
4
0
VERTEX
8
OBJECT__1
10
0
20
0
30
0
70
128
71
8
72
16
73
6
0
VERTEX
8
OBJECT__1
10
0
20
0
30
0
70
128
71
13
72
11
73
10
0
VERTEX
8
OBJECT__1
10
0
20
0
30
0
70
128
71
17
72
18
73
19
0
VERTEX
8
OBJECT__1
10
0
20
0
30
0
70
128
71
20
72
21
73
18
0
VERTEX
8
OBJECT__1
10
0
20
0
30
0
70
128
71
22
72
23
73
24
0
VERTEX
8
OBJECT__1
10
0
20
0
30
0
70
128
71
25
72
14
73
26
0
VERTEX
8
OBJECT__1
10
0
20
0
30
0
70
128
71
3
72
15
73
1
0
VERTEX
8
OBJECT__1
10
0
20
0
30
0
70
128
71
16
72
8
73
5
0
VERTEX
8
OBJECT__1
10
0
20
0
30
0
70
128
71
11
72
7
73
9
0
VERTEX
8
OBJECT__1
10
0
20
0
30
0
70
128
71
18
72
17
73
20
0
VERTEX
8
OBJECT__1
10
0
20
0
30
0
70
128
71
27
72
24
73
21
0
VERTEX
8
OBJECT__1
10
0
20
0
30
0
70
128
71
24
72
27
73
22
0
VERTEX
8
OBJECT__1
10
0
20
0
30
0
70
128
71
28
72
25
73
29
0
VERTEX
8
OBJECT__1
10
0
20
0
30
0
70
128
71
3
72
26
73
14
0
VERTEX
8
OBJECT__1
10
0
20
0
30
0
70
128
71
6
72
9
73
7
0
VERTEX
8
OBJECT__1
10
0
20
0
30
0
70
128
71
21
72
20
73
27
0
VERTEX
8
OBJECT__1
10
0
20
0
30
0
70
128
71
29
72
23
73
28
0
VERTEX
8
OBJECT__1
10
0
20
0
30
0
70
128
71
5
72
4
73
16
0
VERTEX
8
OBJECT__1
10
0
20
0
30
0
70
128
71
12
72
30
73
19
0
VERTEX
8
OBJECT__1
10
0
20
0
30
0
70
128
71
22
72
28
73
23
0
VERTEX
8
OBJECT__1
10
0
20
0
30
0
70
128
71
19
72
13
73
12
0
VERTEX
8
OBJECT__1
10
0
20
0
30
0
70
128
71
26
72
29
73
25
0
VERTEX
8
OBJECT__1
10
0
20
0
30
0
70
128
71
19
72
30
73
17
0
SEQEND
8
OBJECT__1
0
POLYLINE
8
OBJECT__3
66
1
70
64
71
32
72
32
62
253
0
VERTEX
8
OBJECT__3
10
82.800003
20
-9.950000
30
-47.521000
70
192
0
VERTEX
8
OBJECT__3
10
82.800003
20
0.000000
30
-49.500000
70
192
0
VERTEX
8
OBJECT__3
10
90.800003
20
0.000000
30
-47.500000
70
192
0
VERTEX
8
OBJECT__3
10
82.800003
20
-18.385000
30
-41.884998
70
192
0
VERTEX
8
OBJECT__3
10
90.800003
20
-9.184000
30
-45.673000
70
192
0
VERTEX
8
OBJECT__3
10
82.800003
20
-24.021000
30
-33.450001
70
192
0
VERTEX
8
OBJECT__3
10
90.800003
20
-16.971001
30
-40.471001
70
192
0
VERTEX
8
OBJECT__3
10
90.800003
20
-22.173000
30
-32.683998
70
192
0
VERTEX
8
OBJECT__3
10
90.800003
20
-24.000000
30
-23.500000
70
192
0
VERTEX
8
OBJECT__3
10
82.800003
20
-26.000000
30
-23.500000
70
192
0
VERTEX
8
OBJECT__3
10
90.800003
20
-22.173000
30
-14.316000
70
192
0
VERTEX
8
OBJECT__3
10
82.800003
20
-18.385000
30
-5.115000
70
192
0
VERTEX
8
OBJECT__3
10
82.800003
20
-24.021000
30
-13.550000
70
192
0
VERTEX
8
OBJECT__3
10
82.800003
20
-9.950000
30
0.521000
70
192
0
VERTEX
8
OBJECT__3
10
90.800003
20
-16.971001
30
-6.529000
70
192
0
VERTEX
8
OBJECT__3
10
82.800003
20
0.000000
30
2.500000
70
192
0
VERTEX
8
OBJECT__3
10
90.800003
20
-9.184000
30
-1.327000
70
192
0
VERTEX
8
OBJECT__3
10
82.800003
20
9.950000
30
0.521000
70
192
0
VERTEX
8
OBJECT__3
10
90.800003
20
0.000000
30
0.500000
70
192
0
VERTEX
8
OBJECT__3
10
82.800003
20
18.385000
30
-5.115000
70
192
0
VERTEX
8
OBJECT__3
10
90.800003
20
9.184000
30
-1.327000
70
192
0
VERTEX
8
OBJECT__3
10
82.800003
20
24.021000
30
-13.550000
70
192
0
VERTEX
8
OBJECT__3
10
90.800003
20
16.971001
30
-6.529000
70
192
0
VERTEX
8
OBJECT__3
10
82.800003
20
26.000000
30
-23.500000
70
192
0
VERTEX
8
OBJECT__3
10
90.800003
20
22.173000
30
-14.316000
70
192
0
VERTEX
8
OBJECT__3
10
90.800003
20
24.000000
30
-23.500000
70
192
0
VERTEX
8
OBJECT__3
10
90.800003
20
22.173000
30
-32.683998
70
192
0
VERTEX
8
OBJECT__3
10
82.800003
20
18.385000
30
-41.884998
70
192
0
VERTEX
8
OBJECT__3
10
82.800003
20
24.021000
30
-33.450001
70
192
0
VERTEX
8
OBJECT__3
10
82.800003
20
9.950000
30
-47.521000
70
192
0
VERTEX
8
OBJECT__3
10
90.800003
20
16.971001
30
-40.471001
70
192
0
VERTEX
8
OBJECT__3
10
90.800003
20
9.184000
30
-45.673000
70
192
0
VERTEX
8
OBJECT__3
10
0
20
0
30
0
70
128
71
1
72
2
73
3
0
VERTEX
8
OBJECT__3
10
0
20
0
30
0
70
128
71
4
72
1
73
5
0
VERTEX
8
OBJECT__3
10
0
20
0
30
0
70
128
71
6
72
4
73
7
0
VERTEX
8
OBJECT__3
10
0
20
0
30
0
70
128
71
6
72
8
73
9
0
VERTEX
8
OBJECT__3
10
0
20
0
30
0
70
128
71
10
72
9
73
11
0
VERTEX
8
OBJECT__3
10
0
20
0
30
0
70
128
71
12
72
13
73
11
0
VERTEX
8
OBJECT__3
10
0
20
0
30
0
70
128
71
14
72
12
73
15
0
VERTEX
8
OBJECT__3
10
0
20
0
30
0
70
128
71
16
72
14
73
17
0
VERTEX
8
OBJECT__3
10
0
20
0
30
0
70
128
71
18
72
16
73
19
0
VERTEX
8
OBJECT__3
10
0
20
0
30
0
70
128
71
20
72
18
73
21
0
VERTEX
8
OBJECT__3
10
0
20
0
30
0
70
128
71
22
72
20
73
23
0
VERTEX
8
OBJECT__3
10
0
20
0
30
0
70
128
71
24
72
22
73
25
0
VERTEX
8
OBJECT__3
10
0
20
0
30
0
70
128
71
24
72
26
73
27
0
VERTEX
8
OBJECT__3
10
0
20
0
30
0
70
128
71
28
72
29
73
27
0
VERTEX
8
OBJECT__3
10
0
20
0
30
0
70
128
71
30
72
28
73
31
0
VERTEX
8
OBJECT__3
10
0
20
0
30
0
70
128
71
2
72
30
73
32
0
VERTEX
8
OBJECT__3
10
0
20
0
30
0
70
128
71
32
72
3
73
2
0
VERTEX
8
OBJECT__3
10
0
20
0
30
0
70
128
71
31
72
32
73
30
0
VERTEX
8
OBJECT__3
10
0
20
0
30
0
70
128
71
27
72
31
73
28
0
VERTEX
8
OBJECT__3
10
0
20
0
30
0
70
128
71
27
72
29
73
24
0
VERTEX
8
OBJECT__3
10
0
20
0
30
0
70
128
71
25
72
26
73
24
0
VERTEX
8
OBJECT__3
10
0
20
0
30
0
70
128
71
23
72
25
73
22
0
VERTEX
8
OBJECT__3
10
0
20
0
30
0
70
128
71
21
72
23
73
20
0
VERTEX
8
OBJECT__3
10
0
20
0
30
0
70
128
71
19
72
21
73
18
0
VERTEX
8
OBJECT__3
10
0
20
0
30
0
70
128
71
17
72
19
73
16
0
VERTEX
8
OBJECT__3
10
0
20
0
30
0
70
128
71
15
72
17
73
14
0
VERTEX
8
OBJECT__3
10
0
20
0
30
0
70
128
71
11
72
15
73
12
0
VERTEX
8
OBJECT__3
10
0
20
0
30
0
70
128
71
11
72
13
73
10
0
VERTEX
8
OBJECT__3
10
0
20
0
30
0
70
128
71
9
72
10
73
6
0
VERTEX
8
OBJECT__3
10
0
20
0
30
0
70
128
71
7
72
8
73
6
0
VERTEX
8
OBJECT__3
10
0
20
0
30
0
70
128
71
5
72
7
73
4
0
VERTEX
8
OBJECT__3
10
0
20
0
30
0
70
128
71
3
72
5
73
1
0
SEQEND
8
OBJECT__3
0
POLYLINE
8
OBJECT__4
66
1
70
64
71
4
72
2
62
253
0
VERTEX
8
OBJECT__4
10
138.100006
20
7.400000
30
87.674004
70
192
0
VERTEX
8
OBJECT__4
10
142.300003
20
7.400000
30
87.674004
70
192
0
VERTEX
8
OBJECT__4
10
142.300003
20
7.400000
30
73.046997
70
192
0
VERTEX
8
OBJECT__4
10
138.100006
20
7.400000
30
73.046997
70
192
0
VERTEX
8
OBJECT__4
10
0
20
0
30
0
70
128
71
1
72
2
73
3
0
VERTEX
8
OBJECT__4
10
0
20
0
30
0
70
128
71
3
72
4
73
1
0
SEQEND
8
OBJECT__4
0
POLYLINE
8
OBJECT__5
66
1
70
64
71
6
72
4
62
253
0
VERTEX
8
OBJECT__5
10
142.300003
20
9.088000
30
66.747002
70
192
0
VERTEX
8
OBJECT__5
10
142.300003
20
13.700000
30
62.134998
70
192
0
VERTEX
8
OBJECT__5
10
138.100006
20
13.700000
30
62.134998
70
192
0
VERTEX
8
OBJECT__5
10
142.300003
20
7.400000
30
73.046997
70
192
0
VERTEX
8
OBJECT__5
10
138.100006
20
9.088000
30
66.747002
70
192
0
VERTEX
8
OBJECT__5
10
138.100006
20
7.400000
30
73.046997
70
192
0
VERTEX
8
OBJECT__5
10
0
20
0
30
0
70
128
71
1
72
2
73
3
0
VERTEX
8
OBJECT__5
10
0
20
0
30
0
70
128
71
4
72
1
73
5
0
VERTEX
8
OBJECT__5
10
0
20
0
30
0
70
128
71
5
72
6
73
4
0
VERTEX
8
OBJECT__5
10
0
20
0
30
0
70
128
71
3
72
5
73
1
0
SEQEND
8
OBJECT__5
0
POLYLINE
8
OBJECT__7
66
1
70
64
71
4
72
2
62
253
0
VERTEX
8
OBJECT__7
10
138.100006
20
26.367001
30
54.821999
70
192
0
VERTEX
8
OBJECT__7
10
138.100006
20
13.700000
30
62.134998
70
192
0
VERTEX
8
OBJECT__7
10
142.300003
20
13.700000
30
62.134998
70
192
0
VERTEX
8
OBJECT__7
10
142.300003
20
26.367001
30
54.821999
70
192
0
VERTEX
8
OBJECT__7
10
0
20
0
30
0
70
128
71
1
72
2
73
3
0
VERTEX
8
OBJECT__7
10
0
20
0
30
0
70
128
71
3
72
4
73
1
0
SEQEND
8
OBJECT__7
0
POLYLINE
8
OBJECT__8
66
1
70
64
71
6
72
4
62
253
0
VERTEX
8
OBJECT__8
10
138.100006
20
23.556000
30
47.900002
70
192
0
VERTEX
8
OBJECT__8
10
142.300003
20
23.556000
30
47.900002
70
192
0
VERTEX
8
OBJECT__8
10
142.300003
20
18.966999
30
42.004002
70
192
0
VERTEX
8
OBJECT__8
10
138.100006
20
26.367001
30
54.821999
70
192
0
VERTEX
8
OBJECT__8
10
142.300003
20
26.367001
30
54.821999
70
192
0
VERTEX
8
OBJECT__8
10
138.100006
20
18.966999
30
42.004002
70
192
0
VERTEX
8
OBJECT__8
10
0
20
0
30
0
70
128
71
1
72
2
73
3
0
VERTEX
8
OBJECT__8
10
0
20
0
30
0
70
128
71
4
72
5
73
2
0
VERTEX
8
OBJECT__8
10
0
20
0
30
0
70
128
71
2
72
1
73
4
0
VERTEX
8
OBJECT__8
10
0
20
0
30
0
70
128
71
3
72
6
73
1
0
SEQEND
8
OBJECT__8
0
POLYLINE
8
OBJECT__9
66
1
70
64
71
4
72
2
62
253
0
VERTEX
8
OBJECT__9
10
142.300003
20
6.300000
30
49.318001
70
192
0
VERTEX
8
OBJECT__9
10
138.100006
20
6.300000
30
49.318001
70
192
0
VERTEX
8
OBJECT__9
10
138.100006
20
18.966999
30
42.004002
70
192
0
VERTEX
8
OBJECT__9
10
142.300003
20
18.966999
30
42.004002
70
192
0
VERTEX
8
OBJECT__9
10
0
20
0
30
0
70
128
71
1
72
2
73
3
0
VERTEX
8
OBJECT__9
10
0
20
0
30
0
70
128
71
3
72
4
73
1
0
SEQEND
8
OBJECT__9
0
POLYLINE
8
OBJECT__10
66
1
70
64
71
6
72
4
62
253
0
VERTEX
8
OBJECT__10
10
138.100006
20
0.000000
30
51.006001
70
192
0
VERTEX
8
OBJECT__10
10
142.300003
20
0.000000
30
51.006001
70
192
0
VERTEX
8
OBJECT__10
10
142.300003
20
-6.300000
30
49.318001
70
192
0
VERTEX
8
OBJECT__10
10
138.100006
20
6.300000
30
49.318001
70
192
0
VERTEX
8
OBJECT__10
10
142.300003
20
6.300000
30
49.318001
70
192
0
VERTEX
8
OBJECT__10
10
138.100006
20
-6.300000
30
49.318001
70
192
0
VERTEX
8
OBJECT__10
10
0
20
0
30
0
70
128
71
1
72
2
73
3
0
VERTEX
8
OBJECT__10
10
0
20
0
30
0
70
128
71
4
72
5
73
2
0
VERTEX
8
OBJECT__10
10
0
20
0
30
0
70
128
71
2
72
1
73
4
0
VERTEX
8
OBJECT__10
10
0
20
0
30
0
70
128
71
3
72
6
73
1
0
SEQEND
8
OBJECT__10
0
POLYLINE
8
OBJECT__11
66
1
70
64
71
4
72
2
62
253
0
VERTEX
8
OBJECT__11
10
138.100006
20
-6.300000
30
49.318001
70
192
0
VERTEX
8
OBJECT__11
10
142.300003
20
-6.300000
30
49.318001
70
192
0
VERTEX
8
OBJECT__11
10
142.300003
20
-18.966999
30
42.004002
70
192
0
VERTEX
8
OBJECT__11
10
138.100006
20
-18.966999
30
42.004002
70
192
0
VERTEX
8
OBJECT__11
10
0
20
0
30
0
70
128
71
1
72
2
73
3
0
VERTEX
8
OBJECT__11
10
0
20
0
30
0
70
128
71
3
72
4
73
1
0
SEQEND
8
OBJECT__11
0
POLYLINE
8
OBJECT__12
66
1
70
64
71
6
72
4
62
253
0
VERTEX
8
OBJECT__12
10
138.100006
20
-23.556000
30
47.900002
70
192
0
VERTEX
8
OBJECT__12
10
142.300003
20
-23.556000
30
47.900002
70
192
0
VERTEX
8
OBJECT__12
10
142.300003
20
-26.367001
30
54.821999
70
192
0
VERTEX
8
OBJECT__12
10
138.100006
20
-18.966999
30
42.004002
70
192
0
VERTEX
8
OBJECT__12
10
142.300003
20
-18.966999
30
42.004002
70
192
0
VERTEX
8
OBJECT__12
10
138.100006
20
-26.367001
30
54.821999
70
192
0
VERTEX
8
OBJECT__12
10
0
20
0
30
0
70
128
71
1
72
2
73
3
0
VERTEX
8
OBJECT__12
10
0
20
0
30
0
70
128
71
4
72
5
73
2
0
VERTEX
8
OBJECT__12
10
0
20
0
30
0
70
128
71
2
72
1
73
4
0
VERTEX
8
OBJECT__12
10
0
20
0
30
0
70
128
71
3
72
6
73
1
0
SEQEND
8
OBJECT__12
0
POLYLINE
8
OBJECT__13
66
1
70
64
71
4
72
2
62
253
0
VERTEX
8
OBJECT__13
10
142.300003
20
-26.367001
30
54.821999
70
192
0
VERTEX
8
OBJECT__13
10
142.300003
20
-13.700000
30
62.134998
70
192
0
VERTEX
8
OBJECT__13
10
138.100006
20
-13.700000
30
62.134998
70
192
0
VERTEX
8
OBJECT__13
10
138.100006
20
-26.367001
30
54.821999
70
192
0
VERTEX
8
OBJECT__13
10
0
20
0
30
0
70
128
71
1
72
2
73
3
0
VERTEX
8
OBJECT__13
10
0
20
0
30
0
70
128
71
3
72
4
73
1
0
SEQEND
8
OBJECT__13
0
POLYLINE
8
OBJECT__14
66
1
70
64
71
18
72
16
62
253
0
VERTEX
8
OBJECT__14
10
142.300003
20
-13.700000
30
62.134998
70
192
0
VERTEX
8
OBJECT__14
10
142.300003
20
-26.367001
30
54.821999
70
192
0
VERTEX
8
OBJECT__14
10
142.300003
20
-23.556000
30
47.900002
70
192
0
VERTEX
8
OBJECT__14
10
142.300003
20
-7.400000
30
73.046997
70
192
0
VERTEX
8
OBJECT__14
10
142.300003
20
7.400000
30
73.046997
70
192
0
VERTEX
8
OBJECT__14
10
142.300003
20
0.000000
30
88.699997
70
192
0
VERTEX
8
OBJECT__14
10
142.300003
20
23.556000
30
47.900002
70
192
0
VERTEX
8
OBJECT__14
10
142.300003
20
-9.088000
30
66.747002
70
192
0
VERTEX
8
OBJECT__14
10
142.300003
20
6.300000
30
49.318001
70
192
0
VERTEX
8
OBJECT__14
10
142.300003
20
-6.300000
30
49.318001
70
192
0
VERTEX
8
OBJECT__14
10
142.300003
20
9.088000
30
66.747002
70
192
0
VERTEX
8
OBJECT__14
10
142.300003
20
7.400000
30
87.674004
70
192
0
VERTEX
8
OBJECT__14
10
142.300003
20
26.367001
30
54.821999
70
192
0
VERTEX
8
OBJECT__14
10
142.300003
20
13.700000
30
62.134998
70
192
0
VERTEX
8
OBJECT__14
10
142.300003
20
0.000000
30
51.006001
70
192
0
VERTEX
8
OBJECT__14
10
142.300003
20
-7.400000
30
87.674004
70
192
0
VERTEX
8
OBJECT__14
10
142.300003
20
-18.966999
30
42.004002
70
192
0
VERTEX
8
OBJECT__14
10
142.300003
20
18.966999
30
42.004002
70
192
0
VERTEX
8
OBJECT__14
10
0
20
0
30
0
70
128
71
1
72
2
73
3
0
VERTEX
8
OBJECT__14
10
0
20
0
30
0
70
128
71
4
72
5
73
6
0
VERTEX
8
OBJECT__14
10
0
20
0
30
0
70
128
71
7
72
8
73
9
0
VERTEX
8
OBJECT__14
10
0
20
0
30
0
70
128
71
3
72
10
73
1
0
VERTEX
8
OBJECT__14
10
0
20
0
30
0
70
128
71
8
72
1
73
10
0
VERTEX
8
OBJECT__14
10
0
20
0
30
0
70
128
71
8
72
11
73
5
0
VERTEX
8
OBJECT__14
10
0
20
0
30
0
70
128
71
5
72
12
73
6
0
VERTEX
8
OBJECT__14
10
0
20
0
30
0
70
128
71
7
72
13
73
14
0
VERTEX
8
OBJECT__14
10
0
20
0
30
0
70
128
71
8
72
15
73
9
0
VERTEX
8
OBJECT__14
10
0
20
0
30
0
70
128
71
10
72
15
73
8
0
VERTEX
8
OBJECT__14
10
0
20
0
30
0
70
128
71
6
72
16
73
4
0
VERTEX
8
OBJECT__14
10
0
20
0
30
0
70
128
71
14
72
8
73
7
0
VERTEX
8
OBJECT__14
10
0
20
0
30
0
70
128
71
3
72
17
73
10
0
VERTEX
8
OBJECT__14
10
0
20
0
30
0
70
128
71
14
72
11
73
8
0
VERTEX
8
OBJECT__14
10
0
20
0
30
0
70
128
71
5
72
4
73
8
0
VERTEX
8
OBJECT__14
10
0
20
0
30
0
70
128
71
9
72
18
73
7
0
SEQEND
8
OBJECT__14
0
POLYLINE
8
OBJECT__15
66
1
70
64
71
6
72
4
62
253
0
VERTEX
8
OBJECT__15
10
142.300003
20
-9.088000
30
66.747002
70
192
0
VERTEX
8
OBJECT__15
10
142.300003
20
-7.400000
30
73.046997
70
192
0
VERTEX
8
OBJECT__15
10
138.100006
20
-7.400000
30
73.046997
70
192
0
VERTEX
8
OBJECT__15
10
142.300003
20
-13.700000
30
62.134998
70
192
0
VERTEX
8
OBJECT__15
10
138.100006
20
-9.088000
30
66.747002
70
192
0
VERTEX
8
OBJECT__15
10
138.100006
20
-13.700000
30
62.134998
70
192
0
VERTEX
8
OBJECT__15
10
0
20
0
30
0
70
128
71
1
72
2
73
3
0
VERTEX
8
OBJECT__15
10
0
20
0
30
0
70
128
71
4
72
1
73
5
0
VERTEX
8
OBJECT__15
10
0
20
0
30
0
70
128
71
5
72
6
73
4
0
VERTEX
8
OBJECT__15
10
0
20
0
30
0
70
128
71
3
72
5
73
1
0
SEQEND
8
OBJECT__15
0
POLYLINE
8
OBJECT__16
66
1
70
64
71
4
72
2
62
253
0
VERTEX
8
OBJECT__16
10
138.100006
20
-7.400000
30
87.674004
70
192
0
VERTEX
8
OBJECT__16
10
138.100006
20
-7.400000
30
73.046997
70
192
0
VERTEX
8
OBJECT__16
10
142.300003
20
-7.400000
30
73.046997
70
192
0
VERTEX
8
OBJECT__16
10
142.300003
20
-7.400000
30
87.674004
70
192
0
VERTEX
8
OBJECT__16
10
0
20
0
30
0
70
128
71
1
72
2
73
3
0
VERTEX
8
OBJECT__16
10
0
20
0
30
0
70
128
71
3
72
4
73
1
0
SEQEND
8
OBJECT__16
0
POLYLINE
8
OBJECT__17
66
1
70
64
71
6
72
4
62
253
0
VERTEX
8
OBJECT__17
10
138.100006
20
0.000000
30
88.699997
70
192
0
VERTEX
8
OBJECT__17
10
142.300003
20
0.000000
30
88.699997
70
192
0
VERTEX
8
OBJECT__17
10
142.300003
20
7.400000
30
87.674004
70
192
0
VERTEX
8
OBJECT__17
10
142.300003
20
-7.400000
30
87.674004
70
192
0
VERTEX
8
OBJECT__17
10
138.100006
20
-7.400000
30
87.674004
70
192
0
VERTEX
8
OBJECT__17
10
138.100006
20
7.400000
30
87.674004
70
192
0
VERTEX
8
OBJECT__17
10
0
20
0
30
0
70
128
71
1
72
2
73
3
0
VERTEX
8
OBJECT__17
10
0
20
0
30
0
70
128
71
4
72
2
73
1
0
VERTEX
8
OBJECT__17
10
0
20
0
30
0
70
128
71
1
72
5
73
4
0
VERTEX
8
OBJECT__17
10
0
20
0
30
0
70
128
71
3
72
6
73
1
0
SEQEND
8
OBJECT__17
0
POLYLINE
8
OBJECT__18
66
1
70
64
71
40
72
40
62
253
0
VERTEX
8
OBJECT__18
10
74.125999
20
0.000000
30
87.750000
70
192
0
VERTEX
8
OBJECT__18
10
80.849998
20
0.000000
30
87.750000
70
192
0
VERTEX
8
OBJECT__18
10
80.849998
20
9.483000
30
85.976997
70
192
0
VERTEX
8
OBJECT__18
10
74.125999
20
13.125000
30
84.233002
70
192
0
VERTEX
8
OBJECT__18
10
74.125999
20
22.733000
30
74.625000
70
192
0
VERTEX
8
OBJECT__18
10
80.849998
20
17.684999
30
80.899002
70
192
0
VERTEX
8
OBJECT__18
10
80.849998
20
12.896000
30
83.863998
70
192
0
VERTEX
8
OBJECT__18
10
80.849998
20
23.497999
30
73.200996
70
192
0
VERTEX
8
OBJECT__18
10
80.849998
20
26.138000
30
63.922001
70
192
0
VERTEX
8
OBJECT__18
10
74.125999
20
26.250000
30
61.500000
70
192
0
VERTEX
8
OBJECT__18
10
80.849998
20
22.535000
30
74.475998
70
192
0
VERTEX
8
OBJECT__18
10
80.849998
20
25.916000
30
61.530998
70
192
0
VERTEX
8
OBJECT__18
10
80.849998
20
25.247999
30
54.316002
70
192
0
VERTEX
8
OBJECT__18
10
74.125999
20
22.733000
30
48.375000
70
192
0
VERTEX
8
OBJECT__18
10
74.125999
20
13.125000
30
38.766998
70
192
0
VERTEX
8
OBJECT__18
10
80.849998
20
20.948000
30
45.681000
70
192
0
VERTEX
8
OBJECT__18
10
80.849998
20
13.819000
30
39.181999
70
192
0
VERTEX
8
OBJECT__18
10
80.849998
20
22.378000
30
48.551998
70
192
0
VERTEX
8
OBJECT__18
10
80.849998
20
13.076000
30
38.894001
70
192
0
VERTEX
8
OBJECT__18
10
80.849998
20
4.823000
30
35.696999
70
192
0
VERTEX
8
OBJECT__18
10
74.125999
20
0.000000
30
35.250000
70
192
0
VERTEX
8
OBJECT__18
10
74.125999
20
-13.125000
30
38.766998
70
192
0
VERTEX
8
OBJECT__18
10
80.849998
20
-4.823000
30
35.696999
70
192
0
VERTEX
8
OBJECT__18
10
80.849998
20
0.000000
30
35.696999
70
192
0
VERTEX
8
OBJECT__18
10
80.849998
20
-13.819000
30
39.181999
70
192
0
VERTEX
8
OBJECT__18
10
80.849998
20
-20.948000
30
45.681000
70
192
0
VERTEX
8
OBJECT__18
10
74.125999
20
-22.733000
30
48.375000
70
192
0
VERTEX
8
OBJECT__18
10
80.849998
20
-13.076000
30
38.894001
70
192
0
VERTEX
8
OBJECT__18
10
74.125999
20
-26.250000
30
61.500000
70
192
0
VERTEX
8
OBJECT__18
10
80.849998
20
-25.247999
30
54.316002
70
192
0
VERTEX
8
OBJECT__18
10
80.849998
20
-22.378000
30
48.551998
70
192
0
VERTEX
8
OBJECT__18
10
74.125999
20
-22.733000
30
74.625000
70
192
0
VERTEX
8
OBJECT__18
10
80.849998
20
-26.138000
30
63.922001
70
192
0
VERTEX
8
OBJECT__18
10
80.849998
20
-23.497999
30
73.200996
70
192
0
VERTEX
8
OBJECT__18
10
80.849998
20
-25.916000
30
61.530998
70
192
0
VERTEX
8
OBJECT__18
10
80.849998
20
-22.535000
30
74.475998
70
192
0
VERTEX
8
OBJECT__18
10
80.849998
20
-17.684999
30
80.899002
70
192
0
VERTEX
8
OBJECT__18
10
74.125999
20
-13.125000
30
84.233002
70
192
0
VERTEX
8
OBJECT__18
10
80.849998
20
-9.483000
30
85.976997
70
192
0
VERTEX
8
OBJECT__18
10
80.849998
20
-12.896000
30
83.863998
70
192
0
VERTEX
8
OBJECT__18
10
0
20
0
30
0
70
128
71
1
72
2
73
3
0
VERTEX
8
OBJECT__18
10
0
20
0
30
0
70
128
71
3
72
4
73
1
0
VERTEX
8
OBJECT__18
10
0
20
0
30
0
70
128
71
5
72
4
73
6
0
VERTEX
8
OBJECT__18
10
0
20
0
30
0
70
128
71
4
72
7
73
6
0
VERTEX
8
OBJECT__18
10
0
20
0
30
0
70
128
71
5
72
8
73
9
0
VERTEX
8
OBJECT__18
10
0
20
0
30
0
70
128
71
9
72
10
73
5
0
VERTEX
8
OBJECT__18
10
0
20
0
30
0
70
128
71
5
72
11
73
8
0
VERTEX
8
OBJECT__18
10
0
20
0
30
0
70
128
71
10
72
12
73
13
0
VERTEX
8
OBJECT__18
10
0
20
0
30
0
70
128
71
13
72
14
73
10
0
VERTEX
8
OBJECT__18
10
0
20
0
30
0
70
128
71
15
72
14
73
16
0
VERTEX
8
OBJECT__18
10
0
20
0
30
0
70
128
71
16
72
17
73
15
0
VERTEX
8
OBJECT__18
10
0
20
0
30
0
70
128
71
14
72
18
73
16
0
VERTEX
8
OBJECT__18
10
0
20
0
30
0
70
128
71
15
72
19
73
20
0
VERTEX
8
OBJECT__18
10
0
20
0
30
0
70
128
71
20
72
21
73
15
0
VERTEX
8
OBJECT__18
10
0
20
0
30
0
70
128
71
22
72
21
73
23
0
VERTEX
8
OBJECT__18
10
0
20
0
30
0
70
128
71
21
72
24
73
23
0
VERTEX
8
OBJECT__18
10
0
20
0
30
0
70
128
71
22
72
25
73
26
0
VERTEX
8
OBJECT__18
10
0
20
0
30
0
70
128
71
26
72
27
73
22
0
VERTEX
8
OBJECT__18
10
0
20
0
30
0
70
128
71
22
72
28
73
25
0
VERTEX
8
OBJECT__18
10
0
20
0
30
0
70
128
71
29
72
27
73
30
0
VERTEX
8
OBJECT__18
10
0
20
0
30
0
70
128
71
27
72
31
73
30
0
VERTEX
8
OBJECT__18
10
0
20
0
30
0
70
128
71
32
72
29
73
33
0
VERTEX
8
OBJECT__18
10
0
20
0
30
0
70
128
71
33
72
34
73
32
0
VERTEX
8
OBJECT__18
10
0
20
0
30
0
70
128
71
29
72
35
73
33
0
VERTEX
8
OBJECT__18
10
0
20
0
30
0
70
128
71
32
72
36
73
37
0
VERTEX
8
OBJECT__18
10
0
20
0
30
0
70
128
71
37
72
38
73
32
0
VERTEX
8
OBJECT__18
10
0
20
0
30
0
70
128
71
1
72
38
73
39
0
VERTEX
8
OBJECT__18
10
0
20
0
30
0
70
128
71
38
72
40
73
39
0
VERTEX
8
OBJECT__18
10
0
20
0
30
0
70
128
71
39
72
2
73
1
0
VERTEX
8
OBJECT__18
10
0
20
0
30
0
70
128
71
37
72
40
73
38
0
VERTEX
8
OBJECT__18
10
0
20
0
30
0
70
128
71
34
72
36
73
32
0
VERTEX
8
OBJECT__18
10
0
20
0
30
0
70
128
71
30
72
35
73
29
0
VERTEX
8
OBJECT__18
10
0
20
0
30
0
70
128
71
26
72
31
73
27
0
VERTEX
8
OBJECT__18
10
0
20
0
30
0
70
128
71
23
72
28
73
22
0
VERTEX
8
OBJECT__18
10
0
20
0
30
0
70
128
71
20
72
24
73
21
0
VERTEX
8
OBJECT__18
10
0
20
0
30
0
70
128
71
17
72
19
73
15
0
VERTEX
8
OBJECT__18
10
0
20
0
30
0
70
128
71
13
72
18
73
14
0
VERTEX
8
OBJECT__18
10
0
20
0
30
0
70
128
71
9
72
12
73
10
0
VERTEX
8
OBJECT__18
10
0
20
0
30
0
70
128
71
6
72
11
73
5
0
VERTEX
8
OBJECT__18
10
0
20
0
30
0
70
128
71
3
72
7
73
4
0
SEQEND
8
OBJECT__18
0
POLYLINE
8
OBJECT__19
66
1
70
64
71
62
72
79
62
253
0
VERTEX
8
OBJECT__19
10
82.264000
20
9.271000
30
85.431000
70
192
0
VERTEX
8
OBJECT__19
10
82.264000
20
0.000000
30
87.164001
70
192
0
VERTEX
8
OBJECT__19
10
82.849998
20
0.000000
30
85.750000
70
192
0
VERTEX
8
OBJECT__19
10
82.264000
20
17.290001
30
80.466003
70
192
0
VERTEX
8
OBJECT__19
10
82.849998
20
8.760000
30
84.112000
70
192
0
VERTEX
8
OBJECT__19
10
82.264000
20
22.974001
30
72.939003
70
192
0
VERTEX
8
OBJECT__19
10
82.849998
20
16.337000
30
79.420998
70
192
0
VERTEX
8
OBJECT__19
10
82.849998
20
21.708000
30
72.308998
70
192
0
VERTEX
8
OBJECT__19
10
82.849998
20
24.146999
30
63.737000
70
192
0
VERTEX
8
OBJECT__19
10
82.264000
20
25.555000
30
63.868000
70
192
0
VERTEX
8
OBJECT__19
10
82.849998
20
23.323999
30
54.863998
70
192
0
VERTEX
8
OBJECT__19
10
82.264000
20
24.684000
30
54.477001
70
192
0
VERTEX
8
OBJECT__19
10
82.849998
20
19.351999
30
46.886002
70
192
0
VERTEX
8
OBJECT__19
10
82.264000
20
20.480000
30
46.034000
70
192
0
VERTEX
8
OBJECT__19
10
82.849998
20
12.766000
30
40.882000
70
192
0
VERTEX
8
OBJECT__19
10
82.264000
20
4.716000
30
36.272999
70
192
0
VERTEX
8
OBJECT__19
10
82.264000
20
13.510000
30
39.680000
70
192
0
VERTEX
8
OBJECT__19
10
82.264000
20
-4.716000
30
36.272999
70
192
0
VERTEX
8
OBJECT__19
10
82.849998
20
4.456000
30
37.662998
70
192
0
VERTEX
8
OBJECT__19
10
82.264000
20
-13.510000
30
39.680000
70
192
0
VERTEX
8
OBJECT__19
10
82.849998
20
-4.456000
30
37.662998
70
192
0
VERTEX
8
OBJECT__19
10
82.264000
20
-20.480000
30
46.034000
70
192
0
VERTEX
8
OBJECT__19
10
82.849998
20
-12.766000
30
40.882000
70
192
0
VERTEX
8
OBJECT__19
10
82.264000
20
-24.684000
30
54.477001
70
192
0
VERTEX
8
OBJECT__19
10
82.849998
20
-19.351999
30
46.886002
70
192
0
VERTEX
8
OBJECT__19
10
82.264000
20
-25.555000
30
63.868000
70
192
0
VERTEX
8
OBJECT__19
10
82.849998
20
-23.323999
30
54.863998
70
192
0
VERTEX
8
OBJECT__19
10
82.264000
20
-22.974001
30
72.939003
70
192
0
VERTEX
8
OBJECT__19
10
82.849998
20
-24.146999
30
63.737000
70
192
0
VERTEX
8
OBJECT__19
10
82.849998
20
-21.708000
30
72.308998
70
192
0
VERTEX
8
OBJECT__19
10
82.849998
20
-16.337000
30
79.420998
70
192
0
VERTEX
8
OBJECT__19
10
82.264000
20
-17.290001
30
80.466003
70
192
0
VERTEX
8
OBJECT__19
10
82.849998
20
-8.760000
30
84.112000
70
192
0
VERTEX
8
OBJECT__19
10
82.264000
20
-9.271000
30
85.431000
70
192
0
VERTEX
8
OBJECT__19
10
80.849998
20
0.000000
30
87.750000
70
192
0
VERTEX
8
OBJECT__19
10
80.849998
20
17.684999
30
80.899002
70
192
0
VERTEX
8
OBJECT__19
10
80.849998
20
12.896000
30
83.863998
70
192
0
VERTEX
8
OBJECT__19
10
80.849998
20
22.535000
30
74.475998
70
192
0
VERTEX
8
OBJECT__19
10
80.849998
20
23.497999
30
73.200996
70
192
0
VERTEX
8
OBJECT__19
10
80.849998
20
26.138000
30
63.922001
70
192
0
VERTEX
8
OBJECT__19
10
80.849998
20
25.247999
30
54.316002
70
192
0
VERTEX
8
OBJECT__19
10
80.849998
20
25.916000
30
61.530998
70
192
0
VERTEX
8
OBJECT__19
10
80.849998
20
22.378000
30
48.551998
70
192
0
VERTEX
8
OBJECT__19
10
80.849998
20
20.948000
30
45.681000
70
192
0
VERTEX
8
OBJECT__19
10
80.849998
20
13.819000
30
39.181999
70
192
0
VERTEX
8
OBJECT__19
10
80.849998
20
4.823000
30
35.696999
70
192
0
VERTEX
8
OBJECT__19
10
80.849998
20
13.076000
30
38.894001
70
192
0
VERTEX
8
OBJECT__19
10
80.849998
20
-4.823000
30
35.696999
70
192
0
VERTEX
8
OBJECT__19
10
80.849998
20
0.000000
30
35.696999
70
192
0
VERTEX
8
OBJECT__19
10
80.849998
20
-13.076000
30
38.894001
70
192
0
VERTEX
8
OBJECT__19
10
80.849998
20
-13.819000
30
39.181999
70
192
0
VERTEX
8
OBJECT__19
10
80.849998
20
-20.948000
30
45.681000
70
192
0
VERTEX
8
OBJECT__19
10
80.849998
20
-25.247999
30
54.316002
70
192
0
VERTEX
8
OBJECT__19
10
80.849998
20
-22.378000
30
48.551998
70
192
0
VERTEX
8
OBJECT__19
10
80.849998
20
-25.916000
30
61.530998
70
192
0
VERTEX
8
OBJECT__19
10
80.849998
20
-26.138000
30
63.922001
70
192
0
VERTEX
8
OBJECT__19
10
80.849998
20
-17.684999
30
80.899002
70
192
0
VERTEX
8
OBJECT__19
10
80.849998
20
-22.535000
30
74.475998
70
192
0
VERTEX
8
OBJECT__19
10
80.849998
20
-12.896000
30
83.863998
70
192
0
VERTEX
8
OBJECT__19
10
80.849998
20
-9.483000
30
85.976997
70
192
0
VERTEX
8
OBJECT__19
10
80.849998
20
-23.497999
30
73.200996
70
192
0
VERTEX
8
OBJECT__19
10
80.849998
20
9.483000
30
85.976997
70
192
0
VERTEX
8
OBJECT__19
10
0
20
0
30
0
70
128
71
1
72
2
73
3
0
VERTEX
8
OBJECT__19
10
0
20
0
30
0
70
128
71
4
72
1
73
5
0
VERTEX
8
OBJECT__19
10
0
20
0
30
0
70
128
71
6
72
4
73
7
0
VERTEX
8
OBJECT__19
10
0
20
0
30
0
70
128
71
6
72
8
73
9
0
VERTEX
8
OBJECT__19
10
0
20
0
30
0
70
128
71
10
72
9
73
11
0
VERTEX
8
OBJECT__19
10
0
20
0
30
0
70
128
71
12
72
11
73
13
0
VERTEX
8
OBJECT__19
10
0
20
0
30
0
70
128
71
14
72
13
73
15
0
VERTEX
8
OBJECT__19
10
0
20
0
30
0
70
128
71
16
72
17
73
15
0
VERTEX
8
OBJECT__19
10
0
20
0
30
0
70
128
71
18
72
16
73
19
0
VERTEX
8
OBJECT__19
10
0
20
0
30
0
70
128
71
20
72
18
73
21
0
VERTEX
8
OBJECT__19
10
0
20
0
30
0
70
128
71
22
72
20
73
23
0
VERTEX
8
OBJECT__19
10
0
20
0
30
0
70
128
71
24
72
22
73
25
0
VERTEX
8
OBJECT__19
10
0
20
0
30
0
70
128
71
26
72
24
73
27
0
VERTEX
8
OBJECT__19
10
0
20
0
30
0
70
128
71
28
72
26
73
29
0
VERTEX
8
OBJECT__19
10
0
20
0
30
0
70
128
71
28
72
30
73
31
0
VERTEX
8
OBJECT__19
10
0
20
0
30
0
70
128
71
32
72
31
73
33
0
VERTEX
8
OBJECT__19
10
0
20
0
30
0
70
128
71
34
72
33
73
3
0
VERTEX
8
OBJECT__19
10
0
20
0
30
0
70
128
71
35
72
2
73
1
0
VERTEX
8
OBJECT__19
10
0
20
0
30
0
70
128
71
4
72
36
73
37
0
VERTEX
8
OBJECT__19
10
0
20
0
30
0
70
128
71
37
72
1
73
4
0
VERTEX
8
OBJECT__19
10
0
20
0
30
0
70
128
71
4
72
6
73
38
0
VERTEX
8
OBJECT__19
10
0
20
0
30
0
70
128
71
6
72
39
73
38
0
VERTEX
8
OBJECT__19
10
0
20
0
30
0
70
128
71
40
72
39
73
6
0
VERTEX
8
OBJECT__19
10
0
20
0
30
0
70
128
71
12
72
41
73
42
0
VERTEX
8
OBJECT__19
10
0
20
0
30
0
70
128
71
42
72
10
73
12
0
VERTEX
8
OBJECT__19
10
0
20
0
30
0
70
128
71
12
72
14
73
43
0
VERTEX
8
OBJECT__19
10
0
20
0
30
0
70
128
71
14
72
44
73
43
0
VERTEX
8
OBJECT__19
10
0
20
0
30
0
70
128
71
45
72
44
73
14
0
VERTEX
8
OBJECT__19
10
0
20
0
30
0
70
128
71
16
72
46
73
47
0
VERTEX
8
OBJECT__19
10
0
20
0
30
0
70
128
71
47
72
17
73
16
0
VERTEX
8
OBJECT__19
10
0
20
0
30
0
70
128
71
18
72
48
73
49
0
VERTEX
8
OBJECT__19
10
0
20
0
30
0
70
128
71
49
72
16
73
18
0
VERTEX
8
OBJECT__19
10
0
20
0
30
0
70
128
71
18
72
20
73
50
0
VERTEX
8
OBJECT__19
10
0
20
0
30
0
70
128
71
20
72
51
73
50
0
VERTEX
8
OBJECT__19
10
0
20
0
30
0
70
128
71
52
72
51
73
20
0
VERTEX
8
OBJECT__19
10
0
20
0
30
0
70
128
71
24
72
53
73
54
0
VERTEX
8
OBJECT__19
10
0
20
0
30
0
70
128
71
54
72
22
73
24
0
VERTEX
8
OBJECT__19
10
0
20
0
30
0
70
128
71
24
72
26
73
55
0
VERTEX
8
OBJECT__19
10
0
20
0
30
0
70
128
71
26
72
56
73
55
0
VERTEX
8
OBJECT__19
10
0
20
0
30
0
70
128
71
56
72
26
73
28
0
VERTEX
8
OBJECT__19
10
0
20
0
30
0
70
128
71
32
72
57
73
58
0
VERTEX
8
OBJECT__19
10
0
20
0
30
0
70
128
71
58
72
28
73
32
0
VERTEX
8
OBJECT__19
10
0
20
0
30
0
70
128
71
32
72
34
73
59
0
VERTEX
8
OBJECT__19
10
0
20
0
30
0
70
128
71
34
72
60
73
59
0
VERTEX
8
OBJECT__19
10
0
20
0
30
0
70
128
71
60
72
34
73
2
0
VERTEX
8
OBJECT__19
10
0
20
0
30
0
70
128
71
2
72
35
73
60
0
VERTEX
8
OBJECT__19
10
0
20
0
30
0
70
128
71
59
72
57
73
32
0
VERTEX
8
OBJECT__19
10
0
20
0
30
0
70
128
71
58
72
61
73
28
0
VERTEX
8
OBJECT__19
10
0
20
0
30
0
70
128
71
28
72
61
73
56
0
VERTEX
8
OBJECT__19
10
0
20
0
30
0
70
128
71
55
72
53
73
24
0
VERTEX
8
OBJECT__19
10
0
20
0
30
0
70
128
71
54
72
52
73
22
0
VERTEX
8
OBJECT__19
10
0
20
0
30
0
70
128
71
20
72
22
73
52
0
VERTEX
8
OBJECT__19
10
0
20
0
30
0
70
128
71
50
72
48
73
18
0
VERTEX
8
OBJECT__19
10
0
20
0
30
0
70
128
71
49
72
46
73
16
0
VERTEX
8
OBJECT__19
10
0
20
0
30
0
70
128
71
47
72
45
73
17
0
VERTEX
8
OBJECT__19
10
0
20
0
30
0
70
128
71
14
72
17
73
45
0
VERTEX
8
OBJECT__19
10
0
20
0
30
0
70
128
71
43
72
41
73
12
0
VERTEX
8
OBJECT__19
10
0
20
0
30
0
70
128
71
42
72
40
73
10
0
VERTEX
8
OBJECT__19
10
0
20
0
30
0
70
128
71
6
72
10
73
40
0
VERTEX
8
OBJECT__19
10
0
20
0
30
0
70
128
71
38
72
36
73
4
0
VERTEX
8
OBJECT__19
10
0
20
0
30
0
70
128
71
37
72
62
73
1
0
VERTEX
8
OBJECT__19
10
0
20
0
30
0
70
128
71
1
72
62
73
35
0
VERTEX
8
OBJECT__19
10
0
20
0
30
0
70
128
71
3
72
2
73
34
0
VERTEX
8
OBJECT__19
10
0
20
0
30
0
70
128
71
33
72
34
73
32
0
VERTEX
8
OBJECT__19
10
0
20
0
30
0
70
128
71
31
72
32
73
28
0
VERTEX
8
OBJECT__19
10
0
20
0
30
0
70
128
71
29
72
30
73
28
0
VERTEX
8
OBJECT__19
10
0
20
0
30
0
70
128
71
27
72
29
73
26
0
VERTEX
8
OBJECT__19
10
0
20
0
30
0
70
128
71
25
72
27
73
24
0
VERTEX
8
OBJECT__19
10
0
20
0
30
0
70
128
71
23
72
25
73
22
0
VERTEX
8
OBJECT__19
10
0
20
0
30
0
70
128
71
21
72
23
73
20
0
VERTEX
8
OBJECT__19
10
0
20
0
30
0
70
128
71
19
72
21
73
18
0
VERTEX
8
OBJECT__19
10
0
20
0
30
0
70
128
71
15
72
19
73
16
0
VERTEX
8
OBJECT__19
10
0
20
0
30
0
70
128
71
15
72
17
73
14
0
VERTEX
8
OBJECT__19
10
0
20
0
30
0
70
128
71
13
72
14
73
12
0
VERTEX
8
OBJECT__19
10
0
20
0
30
0
70
128
71
11
72
12
73
10
0
VERTEX
8
OBJECT__19
10
0
20
0
30
0
70
128
71
9
72
10
73
6
0
VERTEX
8
OBJECT__19
10
0
20
0
30
0
70
128
71
7
72
8
73
6
0
VERTEX
8
OBJECT__19
10
0
20
0
30
0
70
128
71
5
72
7
73
4
0
VERTEX
8
OBJECT__19
10
0
20
0
30
0
70
128
71
3
72
5
73
1
0
SEQEND
8
OBJECT__19
0
POLYLINE
8
OBJECT__21
66
1
70
64
71
40
72
40
62
253
0
VERTEX
8
OBJECT__21
10
74.075996
20
0.000000
30
-49.750000
70
192
0
VERTEX
8
OBJECT__21
10
80.800003
20
0.000000
30
-49.750000
70
192
0
VERTEX
8
OBJECT__21
10
80.800003
20
-9.483000
30
-47.977001
70
192
0
VERTEX
8
OBJECT__21
10
74.075996
20
-13.125000
30
-46.233002
70
192
0
VERTEX
8
OBJECT__21
10
74.075996
20
-22.733000
30
-36.625000
70
192
0
VERTEX
8
OBJECT__21
10
80.800003
20
-17.684999
30
-42.898998
70
192
0
VERTEX
8
OBJECT__21
10
80.800003
20
-12.896000
30
-45.863998
70
192
0
VERTEX
8
OBJECT__21
10
80.800003
20
-23.497999
30
-35.201000
70
192
0
VERTEX
8
OBJECT__21
10
80.800003
20
-26.138000
30
-25.922001
70
192
0
VERTEX
8
OBJECT__21
10
74.075996
20
-26.250000
30
-23.500000
70
192
0
VERTEX
8
OBJECT__21
10
80.800003
20
-22.535000
30
-36.476002
70
192
0
VERTEX
8
OBJECT__21
10
80.800003
20
-25.916000
30
-23.531000
70
192
0
VERTEX
8
OBJECT__21
10
80.800003
20
-25.247999
30
-16.316000
70
192
0
VERTEX
8
OBJECT__21
10
74.075996
20
-22.733000
30
-10.375000
70
192
0
VERTEX
8
OBJECT__21
10
74.075996
20
-13.125000
30
-0.767000
70
192
0
VERTEX
8
OBJECT__21
10
80.800003
20
-20.948000
30
-7.681000
70
192
0
VERTEX
8
OBJECT__21
10
80.800003
20
-13.819000
30
-1.182000
70
192
0
VERTEX
8
OBJECT__21
10
80.800003
20
-22.378000
30
-10.552000
70
192
0
VERTEX
8
OBJECT__21
10
80.800003
20
-13.076000
30
-0.894000
70
192
0
VERTEX
8
OBJECT__21
10
80.800003
20
-4.823000
30
2.303000
70
192
0
VERTEX
8
OBJECT__21
10
74.075996
20
0.000000
30
2.750000
70
192
0
VERTEX
8
OBJECT__21
10
74.075996
20
13.125000
30
-0.767000
70
192
0
VERTEX
8
OBJECT__21
10
80.800003
20
4.823000
30
2.303000
70
192
0
VERTEX
8
OBJECT__21
10
80.800003
20
0.000000
30
2.303000
70
192
0
VERTEX
8
OBJECT__21
10
80.800003
20
13.819000
30
-1.182000
70
192
0
VERTEX
8
OBJECT__21
10
80.800003
20
20.948000
30
-7.681000
70
192
0
VERTEX
8
OBJECT__21
10
74.075996
20
22.733000
30
-10.375000
70
192
0
VERTEX
8
OBJECT__21
10
80.800003
20
13.076000
30
-0.894000
70
192
0
VERTEX
8
OBJECT__21
10
74.075996
20
26.250000
30
-23.500000
70
192
0
VERTEX
8
OBJECT__21
10
80.800003
20
25.247999
30
-16.316000
70
192
0
VERTEX
8
OBJECT__21
10
80.800003
20
22.378000
30
-10.552000
70
192
0
VERTEX
8
OBJECT__21
10
74.075996
20
22.733000
30
-36.625000
70
192
0
VERTEX
8
OBJECT__21
10
80.800003
20
26.138000
30
-25.922001
70
192
0
VERTEX
8
OBJECT__21
10
80.800003
20
23.497999
30
-35.201000
70
192
0
VERTEX
8
OBJECT__21
10
80.800003
20
25.916000
30
-23.531000
70
192
0
VERTEX
8
OBJECT__21
10
80.800003
20
22.535000
30
-36.476002
70
192
0
VERTEX
8
OBJECT__21
10
80.800003
20
17.684999
30
-42.898998
70
192
0
VERTEX
8
OBJECT__21
10
74.075996
20
13.125000
30
-46.233002
70
192
0
VERTEX
8
OBJECT__21
10
80.800003
20
9.483000
30
-47.977001
70
192
0
VERTEX
8
OBJECT__21
10
80.800003
20
12.896000
30
-45.863998
70
192
0
VERTEX
8
OBJECT__21
10
0
20
0
30
0
70
128
71
1
72
2
73
3
0
VERTEX
8
OBJECT__21
10
0
20
0
30
0
70
128
71
3
72
4
73
1
0
VERTEX
8
OBJECT__21
10
0
20
0
30
0
70
128
71
5
72
4
73
6
0
VERTEX
8
OBJECT__21
10
0
20
0
30
0
70
128
71
4
72
7
73
6
0
VERTEX
8
OBJECT__21
10
0
20
0
30
0
70
128
71
5
72
8
73
9
0
VERTEX
8
OBJECT__21
10
0
20
0
30
0
70
128
71
9
72
10
73
5
0
VERTEX
8
OBJECT__21
10
0
20
0
30
0
70
128
71
5
72
11
73
8
0
VERTEX
8
OBJECT__21
10
0
20
0
30
0
70
128
71
10
72
12
73
13
0
VERTEX
8
OBJECT__21
10
0
20
0
30
0
70
128
71
13
72
14
73
10
0
VERTEX
8
OBJECT__21
10
0
20
0
30
0
70
128
71
15
72
14
73
16
0
VERTEX
8
OBJECT__21
10
0
20
0
30
0
70
128
71
16
72
17
73
15
0
VERTEX
8
OBJECT__21
10
0
20
0
30
0
70
128
71
14
72
18
73
16
0
VERTEX
8
OBJECT__21
10
0
20
0
30
0
70
128
71
15
72
19
73
20
0
VERTEX
8
OBJECT__21
10
0
20
0
30
0
70
128
71
20
72
21
73
15
0
VERTEX
8
OBJECT__21
10
0
20
0
30
0
70
128
71
22
72
21
73
23
0
VERTEX
8
OBJECT__21
10
0
20
0
30
0
70
128
71
21
72
24
73
23
0
VERTEX
8
OBJECT__21
10
0
20
0
30
0
70
128
71
22
72
25
73
26
0
VERTEX
8
OBJECT__21
10
0
20
0
30
0
70
128
71
26
72
27
73
22
0
VERTEX
8
OBJECT__21
10
0
20
0
30
0
70
128
71
22
72
28
73
25
0
VERTEX
8
OBJECT__21
10
0
20
0
30
0
70
128
71
29
72
27
73
30
0
VERTEX
8
OBJECT__21
10
0
20
0
30
0
70
128
71
27
72
31
73
30
0
VERTEX
8
OBJECT__21
10
0
20
0
30
0
70
128
71
32
72
29
73
33
0
VERTEX
8
OBJECT__21
10
0
20
0
30
0
70
128
71
33
72
34
73
32
0
VERTEX
8
OBJECT__21
10
0
20
0
30
0
70
128
71
29
72
35
73
33
0
VERTEX
8
OBJECT__21
10
0
20
0
30
0
70
128
71
32
72
36
73
37
0
VERTEX
8
OBJECT__21
10
0
20
0
30
0
70
128
71
37
72
38
73
32
0
VERTEX
8
OBJECT__21
10
0
20
0
30
0
70
128
71
1
72
38
73
39
0
VERTEX
8
OBJECT__21
10
0
20
0
30
0
70
128
71
38
72
40
73
39
0
VERTEX
8
OBJECT__21
10
0
20
0
30
0
70
128
71
39
72
2
73
1
0
VERTEX
8
OBJECT__21
10
0
20
0
30
0
70
128
71
37
72
40
73
38
0
VERTEX
8
OBJECT__21
10
0
20
0
30
0
70
128
71
34
72
36
73
32
0
VERTEX
8
OBJECT__21
10
0
20
0
30
0
70
128
71
30
72
35
73
29
0
VERTEX
8
OBJECT__21
10
0
20
0
30
0
70
128
71
26
72
31
73
27
0
VERTEX
8
OBJECT__21
10
0
20
0
30
0
70
128
71
23
72
28
73
22
0
VERTEX
8
OBJECT__21
10
0
20
0
30
0
70
128
71
20
72
24
73
21
0
VERTEX
8
OBJECT__21
10
0
20
0
30
0
70
128
71
17
72
19
73
15
0
VERTEX
8
OBJECT__21
10
0
20
0
30
0
70
128
71
13
72
18
73
14
0
VERTEX
8
OBJECT__21
10
0
20
0
30
0
70
128
71
9
72
12
73
10
0
VERTEX
8
OBJECT__21
10
0
20
0
30
0
70
128
71
6
72
11
73
5
0
VERTEX
8
OBJECT__21
10
0
20
0
30
0
70
128
71
3
72
7
73
4
0
SEQEND
8
OBJECT__21
0
POLYLINE
8
OBJECT__22
66
1
70
64
71
62
72
79
62
253
0
VERTEX
8
OBJECT__22
10
82.213997
20
-9.271000
30
-47.431000
70
192
0
VERTEX
8
OBJECT__22
10
82.213997
20
0.000000
30
-49.164001
70
192
0
VERTEX
8
OBJECT__22
10
82.800003
20
0.000000
30
-47.750000
70
192
0
VERTEX
8
OBJECT__22
10
82.213997
20
-17.290001
30
-42.466000
70
192
0
VERTEX
8
OBJECT__22
10
82.800003
20
-8.760000
30
-46.112000
70
192
0
VERTEX
8
OBJECT__22
10
82.800003
20
-16.337000
30
-41.421001
70
192
0
VERTEX
8
OBJECT__22
10
82.800003
20
-21.708000
30
-34.308998
70
192
0
VERTEX
8
OBJECT__22
10
82.213997
20
-22.974001
30
-34.939999
70
192
0
VERTEX
8
OBJECT__22
10
82.800003
20
-24.146999
30
-25.738001
70
192
0
VERTEX
8
OBJECT__22
10
82.213997
20
-24.684000
30
-16.476999
70
192
0
VERTEX
8
OBJECT__22
10
82.213997
20
-25.555000
30
-25.868000
70
192
0
VERTEX
8
OBJECT__22
10
82.213997
20
-20.480000
30
-8.034000
70
192
0
VERTEX
8
OBJECT__22
10
82.800003
20
-23.323999
30
-16.864000
70
192
0
VERTEX
8
OBJECT__22
10
82.800003
20
-19.351999
30
-8.886000
70
192
0
VERTEX
8
OBJECT__22
10
82.800003
20
-12.766000
30
-2.882000
70
192
0
VERTEX
8
OBJECT__22
10
82.213997
20
-13.510000
30
-1.680000
70
192
0
VERTEX
8
OBJECT__22
10
82.800003
20
-4.456000
30
0.337000
70
192
0
VERTEX
8
OBJECT__22
10
82.213997
20
-4.716000
30
1.727000
70
192
0
VERTEX
8
OBJECT__22
10
82.800003
20
4.456000
30
0.337000
70
192
0
VERTEX
8
OBJECT__22
10
82.213997
20
13.510000
30
-1.680000
70
192
0
VERTEX
8
OBJECT__22
10
82.213997
20
4.716000
30
1.727000
70
192
0
VERTEX
8
OBJECT__22
10
82.213997
20
20.480000
30
-8.034000
70
192
0
VERTEX
8
OBJECT__22
10
82.800003
20
12.766000
30
-2.882000
70
192
0
VERTEX
8
OBJECT__22
10
82.213997
20
24.684000
30
-16.476999
70
192
0
VERTEX
8
OBJECT__22
10
82.800003
20
19.351999
30
-8.886000
70
192
0
VERTEX
8
OBJECT__22
10
82.213997
20
25.555000
30
-25.868000
70
192
0
VERTEX
8
OBJECT__22
10
82.800003
20
23.323999
30
-16.864000
70
192
0
VERTEX
8
OBJECT__22
10
82.213997
20
22.974001
30
-34.939999
70
192
0
VERTEX
8
OBJECT__22
10
82.800003
20
24.146999
30
-25.738001
70
192
0
VERTEX
8
OBJECT__22
10
82.213997
20
17.290001
30
-42.466000
70
192
0
VERTEX
8
OBJECT__22
10
82.800003
20
21.708000
30
-34.308998
70
192
0
VERTEX
8
OBJECT__22
10
82.213997
20
9.271000
30
-47.431000
70
192
0
VERTEX
8
OBJECT__22
10
82.800003
20
16.337000
30
-41.421001
70
192
0
VERTEX
8
OBJECT__22
10
82.800003
20
8.760000
30
-46.112000
70
192
0
VERTEX
8
OBJECT__22
10
80.800003
20
0.000000
30
-49.750000
70
192
0
VERTEX
8
OBJECT__22
10
80.800003
20
-17.684999
30
-42.898998
70
192
0
VERTEX
8
OBJECT__22
10
80.800003
20
-12.896000
30
-45.863998
70
192
0
VERTEX
8
OBJECT__22
10
80.800003
20
-22.535000
30
-36.476002
70
192
0
VERTEX
8
OBJECT__22
10
80.800003
20
-23.497999
30
-35.201000
70
192
0
VERTEX
8
OBJECT__22
10
80.800003
20
-26.138000
30
-25.922001
70
192
0
VERTEX
8
OBJECT__22
10
80.800003
20
-25.247999
30
-16.316000
70
192
0
VERTEX
8
OBJECT__22
10
80.800003
20
-25.916000
30
-23.531000
70
192
0
VERTEX
8
OBJECT__22
10
80.800003
20
-22.378000
30
-10.552000
70
192
0
VERTEX
8
OBJECT__22
10
80.800003
20
-20.948000
30
-7.681000
70
192
0
VERTEX
8
OBJECT__22
10
80.800003
20
-13.819000
30
-1.182000
70
192
0
VERTEX
8
OBJECT__22
10
80.800003
20
-4.823000
30
2.303000
70
192
0
VERTEX
8
OBJECT__22
10
80.800003
20
-13.076000
30
-0.894000
70
192
0
VERTEX
8
OBJECT__22
10
80.800003
20
4.823000
30
2.303000
70
192
0
VERTEX
8
OBJECT__22
10
80.800003
20
0.000000
30
2.303000
70
192
0
VERTEX
8
OBJECT__22
10
80.800003
20
13.076000
30
-0.894000
70
192
0
VERTEX
8
OBJECT__22
10
80.800003
20
13.819000
30
-1.182000
70
192
0
VERTEX
8
OBJECT__22
10
80.800003
20
20.948000
30
-7.681000
70
192
0
VERTEX
8
OBJECT__22
10
80.800003
20
25.247999
30
-16.316000
70
192
0
VERTEX
8
OBJECT__22
10
80.800003
20
22.378000
30
-10.552000
70
192
0
VERTEX
8
OBJECT__22
10
80.800003
20
25.916000
30
-23.531000
70
192
0
VERTEX
8
OBJECT__22
10
80.800003
20
26.138000
30
-25.922001
70
192
0
VERTEX
8
OBJECT__22
10
80.800003
20
23.497999
30
-35.201000
70
192
0
VERTEX
8
OBJECT__22
10
80.800003
20
17.684999
30
-42.898998
70
192
0
VERTEX
8
OBJECT__22
10
80.800003
20
22.535000
30
-36.476002
70
192
0
VERTEX
8
OBJECT__22
10
80.800003
20
12.896000
30
-45.863998
70
192
0
VERTEX
8
OBJECT__22
10
80.800003
20
9.483000
30
-47.977001
70
192
0
VERTEX
8
OBJECT__22
10
80.800003
20
-9.483000
30
-47.977001
70
192
0
VERTEX
8
OBJECT__22
10
0
20
0
30
0
70
128
71
1
72
2
73
3
0
VERTEX
8
OBJECT__22
10
0
20
0
30
0
70
128
71
4
72
1
73
5
0
VERTEX
8
OBJECT__22
10
0
20
0
30
0
70
128
71
4
72
6
73
7
0
VERTEX
8
OBJECT__22
10
0
20
0
30
0
70
128
71
8
72
7
73
9
0
VERTEX
8
OBJECT__22
10
0
20
0
30
0
70
128
71
10
72
11
73
9
0
VERTEX
8
OBJECT__22
10
0
20
0
30
0
70
128
71
12
72
10
73
13
0
VERTEX
8
OBJECT__22
10
0
20
0
30
0
70
128
71
12
72
14
73
15
0
VERTEX
8
OBJECT__22
10
0
20
0
30
0
70
128
71
16
72
15
73
17
0
VERTEX
8
OBJECT__22
10
0
20
0
30
0
70
128
71
18
72
17
73
19
0
VERTEX
8
OBJECT__22
10
0
20
0
30
0
70
128
71
20
72
21
73
19
0
VERTEX
8
OBJECT__22
10
0
20
0
30
0
70
128
71
22
72
20
73
23
0
VERTEX
8
OBJECT__22
10
0
20
0
30
0
70
128
71
24
72
22
73
25
0
VERTEX
8
OBJECT__22
10
0
20
0
30
0
70
128
71
26
72
24
73
27
0
VERTEX
8
OBJECT__22
10
0
20
0
30
0
70
128
71
28
72
26
73
29
0
VERTEX
8
OBJECT__22
10
0
20
0
30
0
70
128
71
30
72
28
73
31
0
VERTEX
8
OBJECT__22
10
0
20
0
30
0
70
128
71
32
72
30
73
33
0
VERTEX
8
OBJECT__22
10
0
20
0
30
0
70
128
71
32
72
34
73
3
0
VERTEX
8
OBJECT__22
10
0
20
0
30
0
70
128
71
35
72
2
73
1
0
VERTEX
8
OBJECT__22
10
0
20
0
30
0
70
128
71
4
72
36
73
37
0
VERTEX
8
OBJECT__22
10
0
20
0
30
0
70
128
71
37
72
1
73
4
0
VERTEX
8
OBJECT__22
10
0
20
0
30
0
70
128
71
4
72
8
73
38
0
VERTEX
8
OBJECT__22
10
0
20
0
30
0
70
128
71
8
72
39
73
38
0
VERTEX
8
OBJECT__22
10
0
20
0
30
0
70
128
71
40
72
39
73
8
0
VERTEX
8
OBJECT__22
10
0
20
0
30
0
70
128
71
10
72
41
73
42
0
VERTEX
8
OBJECT__22
10
0
20
0
30
0
70
128
71
42
72
11
73
10
0
VERTEX
8
OBJECT__22
10
0
20
0
30
0
70
128
71
10
72
12
73
43
0
VERTEX
8
OBJECT__22
10
0
20
0
30
0
70
128
71
12
72
44
73
43
0
VERTEX
8
OBJECT__22
10
0
20
0
30
0
70
128
71
45
72
44
73
12
0
VERTEX
8
OBJECT__22
10
0
20
0
30
0
70
128
71
18
72
46
73
47
0
VERTEX
8
OBJECT__22
10
0
20
0
30
0
70
128
71
47
72
16
73
18
0
VERTEX
8
OBJECT__22
10
0
20
0
30
0
70
128
71
21
72
48
73
49
0
VERTEX
8
OBJECT__22
10
0
20
0
30
0
70
128
71
49
72
18
73
21
0
VERTEX
8
OBJECT__22
10
0
20
0
30
0
70
128
71
21
72
20
73
50
0
VERTEX
8
OBJECT__22
10
0
20
0
30
0
70
128
71
20
72
51
73
50
0
VERTEX
8
OBJECT__22
10
0
20
0
30
0
70
128
71
52
72
51
73
20
0
VERTEX
8
OBJECT__22
10
0
20
0
30
0
70
128
71
24
72
53
73
54
0
VERTEX
8
OBJECT__22
10
0
20
0
30
0
70
128
71
54
72
22
73
24
0
VERTEX
8
OBJECT__22
10
0
20
0
30
0
70
128
71
24
72
26
73
55
0
VERTEX
8
OBJECT__22
10
0
20
0
30
0
70
128
71
26
72
56
73
55
0
VERTEX
8
OBJECT__22
10
0
20
0
30
0
70
128
71
57
72
56
73
26
0
VERTEX
8
OBJECT__22
10
0
20
0
30
0
70
128
71
30
72
58
73
59
0
VERTEX
8
OBJECT__22
10
0
20
0
30
0
70
128
71
59
72
28
73
30
0
VERTEX
8
OBJECT__22
10
0
20
0
30
0
70
128
71
30
72
32
73
60
0
VERTEX
8
OBJECT__22
10
0
20
0
30
0
70
128
71
32
72
61
73
60
0
VERTEX
8
OBJECT__22
10
0
20
0
30
0
70
128
71
61
72
32
73
2
0
VERTEX
8
OBJECT__22
10
0
20
0
30
0
70
128
71
2
72
35
73
61
0
VERTEX
8
OBJECT__22
10
0
20
0
30
0
70
128
71
60
72
58
73
30
0
VERTEX
8
OBJECT__22
10
0
20
0
30
0
70
128
71
59
72
57
73
28
0
VERTEX
8
OBJECT__22
10
0
20
0
30
0
70
128
71
26
72
28
73
57
0
VERTEX
8
OBJECT__22
10
0
20
0
30
0
70
128
71
55
72
53
73
24
0
VERTEX
8
OBJECT__22
10
0
20
0
30
0
70
128
71
54
72
52
73
22
0
VERTEX
8
OBJECT__22
10
0
20
0
30
0
70
128
71
20
72
22
73
52
0
VERTEX
8
OBJECT__22
10
0
20
0
30
0
70
128
71
50
72
48
73
21
0
VERTEX
8
OBJECT__22
10
0
20
0
30
0
70
128
71
49
72
46
73
18
0
VERTEX
8
OBJECT__22
10
0
20
0
30
0
70
128
71
47
72
45
73
16
0
VERTEX
8
OBJECT__22
10
0
20
0
30
0
70
128
71
12
72
16
73
45
0
VERTEX
8
OBJECT__22
10
0
20
0
30
0
70
128
71
43
72
41
73
10
0
VERTEX
8
OBJECT__22
10
0
20
0
30
0
70
128
71
42
72
40
73
11
0
VERTEX
8
OBJECT__22
10
0
20
0
30
0
70
128
71
8
72
11
73
40
0
VERTEX
8
OBJECT__22
10
0
20
0
30
0
70
128
71
38
72
36
73
4
0
VERTEX
8
OBJECT__22
10
0
20
0
30
0
70
128
71
37
72
62
73
1
0
VERTEX
8
OBJECT__22
10
0
20
0
30
0
70
128
71
1
72
62
73
35
0
VERTEX
8
OBJECT__22
10
0
20
0
30
0
70
128
71
3
72
2
73
32
0
VERTEX
8
OBJECT__22
10
0
20
0
30
0
70
128
71
33
72
34
73
32
0
VERTEX
8
OBJECT__22
10
0
20
0
30
0
70
128
71
31
72
33
73
30
0
VERTEX
8
OBJECT__22
10
0
20
0
30
0
70
128
71
29
72
31
73
28
0
VERTEX
8
OBJECT__22
10
0
20
0
30
0
70
128
71
27
72
29
73
26
0
VERTEX
8
OBJECT__22
10
0
20
0
30
0
70
128
71
25
72
27
73
24
0
VERTEX
8
OBJECT__22
10
0
20
0
30
0
70
128
71
23
72
25
73
22
0
VERTEX
8
OBJECT__22
10
0
20
0
30
0
70
128
71
19
72
23
73
20
0
VERTEX
8
OBJECT__22
10
0
20
0
30
0
70
128
71
19
72
21
73
18
0
VERTEX
8
OBJECT__22
10
0
20
0
30
0
70
128
71
17
72
18
73
16
0
VERTEX
8
OBJECT__22
10
0
20
0
30
0
70
128
71
15
72
16
73
12
0
VERTEX
8
OBJECT__22
10
0
20
0
30
0
70
128
71
13
72
14
73
12
0
VERTEX
8
OBJECT__22
10
0
20
0
30
0
70
128
71
9
72
13
73
10
0
VERTEX
8
OBJECT__22
10
0
20
0
30
0
70
128
71
9
72
11
73
8
0
VERTEX
8
OBJECT__22
10
0
20
0
30
0
70
128
71
7
72
8
73
4
0
VERTEX
8
OBJECT__22
10
0
20
0
30
0
70
128
71
5
72
6
73
4
0
VERTEX
8
OBJECT__22
10
0
20
0
30
0
70
128
71
3
72
5
73
1
0
SEQEND
8
OBJECT__22
0
POLYLINE
8
OBJECT__24
66
1
70
64
71
4
72
2
62
253
0
VERTEX
8
OBJECT__24
10
66.000000
20
85.500000
30
113.500000
70
192
0
VERTEX
8
OBJECT__24
10
66.000000
20
-85.500000
30
113.500000
70
192
0
VERTEX
8
OBJECT__24
10
79.300003
20
-85.500000
30
113.500000
70
192
0
VERTEX
8
OBJECT__24
10
79.300003
20
85.500000
30
113.500000
70
192
0
VERTEX
8
OBJECT__24
10
0
20
0
30
0
70
128
71
1
72
2
73
3
0
VERTEX
8
OBJECT__24
10
0
20
0
30
0
70
128
71
3
72
4
73
1
0
SEQEND
8
OBJECT__24
0
POLYLINE
8
OBJECT__25
66
1
70
64
71
4
72
2
62
253
0
VERTEX
8
OBJECT__25
10
66.000000
20
85.500000
30
113.500000
70
192
0
VERTEX
8
OBJECT__25
10
79.300003
20
85.500000
30
113.500000
70
192
0
VERTEX
8
OBJECT__25
10
79.300003
20
85.500000
30
-83.000000
70
192
0
VERTEX
8
OBJECT__25
10
66.000000
20
85.500000
30
-83.000000
70
192
0
VERTEX
8
OBJECT__25
10
0
20
0
30
0
70
128
71
1
72
2
73
3
0
VERTEX
8
OBJECT__25
10
0
20
0
30
0
70
128
71
3
72
4
73
1
0
SEQEND
8
OBJECT__25
0
POLYLINE
8
OBJECT__27
66
1
70
64
71
4
72
2
62
253
0
VERTEX
8
OBJECT__27
10
66.000000
20
85.500000
30
-83.000000
70
192
0
VERTEX
8
OBJECT__27
10
79.300003
20
85.500000
30
-83.000000
70
192
0
VERTEX
8
OBJECT__27
10
79.300003
20
-85.500000
30
-83.000000
70
192
0
VERTEX
8
OBJECT__27
10
66.000000
20
-85.500000
30
-83.000000
70
192
0
VERTEX
8
OBJECT__27
10
0
20
0
30
0
70
128
71
1
72
2
73
3
0
VERTEX
8
OBJECT__27
10
0
20
0
30
0
70
128
71
3
72
4
73
1
0
SEQEND
8
OBJECT__27
0
POLYLINE
8
OBJECT__28
66
1
70
64
71
4
72
2
62
253
0
VERTEX
8
OBJECT__28
10
66.000000
20
-85.500000
30
113.500000
70
192
0
VERTEX
8
OBJECT__28
10
66.000000
20
-85.500000
30
-83.000000
70
192
0
VERTEX
8
OBJECT__28
10
79.300003
20
-85.500000
30
-83.000000
70
192
0
VERTEX
8
OBJECT__28
10
79.300003
20
-85.500000
30
113.500000
70
192
0
VERTEX
8
OBJECT__28
10
0
20
0
30
0
70
128
71
1
72
2
73
3
0
VERTEX
8
OBJECT__28
10
0
20
0
30
0
70
128
71
3
72
4
73
1
0
SEQEND
8
OBJECT__28
0
POLYLINE
8
OBJECT__29
66
1
70
64
71
4
72
2
62
253
0
VERTEX
8
OBJECT__29
10
66.000000
20
85.500000
30
-83.000000
70
192
0
VERTEX
8
OBJECT__29
10
66.000000
20
-85.500000
30
-83.000000
70
192
0
VERTEX
8
OBJECT__29
10
66.000000
20
-85.500000
30
113.500000
70
192
0
VERTEX
8
OBJECT__29
10
66.000000
20
85.500000
30
113.500000
70
192
0
VERTEX
8
OBJECT__29
10
0
20
0
30
0
70
128
71
1
72
2
73
3
0
VERTEX
8
OBJECT__29
10
0
20
0
30
0
70
128
71
3
72
4
73
1
0
SEQEND
8
OBJECT__29
0
POLYLINE
8
OBJECT__30
66
1
70
64
71
34
72
36
62
253
0
VERTEX
8
OBJECT__30
10
79.300003
20
85.500000
30
113.500000
70
192
0
VERTEX
8
OBJECT__30
10
79.300003
20
26.165001
30
67.061996
70
192
0
VERTEX
8
OBJECT__30
10
79.300003
20
26.165001
30
55.938000
70
192
0
VERTEX
8
OBJECT__30
10
79.300003
20
-17.899000
30
41.620998
70
192
0
VERTEX
8
OBJECT__30
10
79.300003
20
-85.500000
30
-83.000000
70
192
0
VERTEX
8
OBJECT__30
10
79.300003
20
-24.437000
30
-12.620000
70
192
0
VERTEX
8
OBJECT__30
10
79.300003
20
85.500000
30
-83.000000
70
192
0
VERTEX
8
OBJECT__30
10
79.300003
20
-26.750000
30
-23.500000
70
192
0
VERTEX
8
OBJECT__30
10
79.300003
20
21.641001
30
77.223000
70
192
0
VERTEX
8
OBJECT__30
10
79.300003
20
2.796000
30
88.102997
70
192
0
VERTEX
8
OBJECT__30
10
79.300003
20
13.375000
30
84.666000
70
192
0
VERTEX
8
OBJECT__30
10
79.300003
20
-24.437000
30
50.619999
70
192
0
VERTEX
8
OBJECT__30
10
79.300003
20
-26.750000
30
61.500000
70
192
0
VERTEX
8
OBJECT__30
10
79.300003
20
-8.266000
30
36.058998
70
192
0
VERTEX
8
OBJECT__30
10
79.300003
20
2.796000
30
34.896999
70
192
0
VERTEX
8
OBJECT__30
10
79.300003
20
13.375000
30
-0.334000
70
192
0
VERTEX
8
OBJECT__30
10
79.300003
20
21.641001
30
-7.777000
70
192
0
VERTEX
8
OBJECT__30
10
79.300003
20
-8.266000
30
1.941000
70
192
0
VERTEX
8
OBJECT__30
10
79.300003
20
2.796000
30
3.103000
70
192
0
VERTEX
8
OBJECT__30
10
79.300003
20
-17.899000
30
-3.621000
70
192
0
VERTEX
8
OBJECT__30
10
79.300003
20
-85.500000
30
113.500000
70
192
0
VERTEX
8
OBJECT__30
10
79.300003
20
-8.266000
30
86.941002
70
192
0
VERTEX
8
OBJECT__30
10
79.300003
20
-17.899000
30
-43.379002
70
192
0
VERTEX
8
OBJECT__30
10
79.300003
20
-24.437000
30
-34.380001
70
192
0
VERTEX
8
OBJECT__30
10
79.300003
20
21.641001
30
45.777000
70
192
0
VERTEX
8
OBJECT__30
10
79.300003
20
13.375000
30
38.334000
70
192
0
VERTEX
8
OBJECT__30
10
79.300003
20
-24.437000
30
72.379997
70
192
0
VERTEX
8
OBJECT__30
10
79.300003
20
-17.899000
30
81.378998
70
192
0
VERTEX
8
OBJECT__30
10
79.300003
20
2.796000
30
-50.103001
70
192
0
VERTEX
8
OBJECT__30
10
79.300003
20
21.641001
30
-39.223000
70
192
0
VERTEX
8
OBJECT__30
10
79.300003
20
13.375000
30
-46.666000
70
192
0
VERTEX
8
OBJECT__30
10
79.300003
20
-8.266000
30
-48.941002
70
192
0
VERTEX
8
OBJECT__30
10
79.300003
20
26.165001
30
-29.062000
70
192
0
VERTEX
8
OBJECT__30
10
79.300003
20
26.165001
30
-17.938000
70
192
0
VERTEX
8
OBJECT__30
10
0
20
0
30
0
70
128
71
1
72
2
73
3
0
VERTEX
8
OBJECT__30
10
0
20
0
30
0
70
128
71
4
72
5
73
6
0
VERTEX
8
OBJECT__30
10
0
20
0
30
0
70
128
71
3
72
7
73
1
0
VERTEX
8
OBJECT__30
10
0
20
0
30
0
70
128
71
5
72
8
73
6
0
VERTEX
8
OBJECT__30
10
0
20
0
30
0
70
128
71
1
72
9
73
2
0
VERTEX
8
OBJECT__30
10
0
20
0
30
0
70
128
71
1
72
10
73
11
0
VERTEX
8
OBJECT__30
10
0
20
0
30
0
70
128
71
5
72
12
73
13
0
VERTEX
8
OBJECT__30
10
0
20
0
30
0
70
128
71
6
72
14
73
4
0
VERTEX
8
OBJECT__30
10
0
20
0
30
0
70
128
71
15
72
16
73
17
0
VERTEX
8
OBJECT__30
10
0
20
0
30
0
70
128
71
14
72
18
73
19
0
VERTEX
8
OBJECT__30
10
0
20
0
30
0
70
128
71
14
72
6
73
20
0
VERTEX
8
OBJECT__30
10
0
20
0
30
0
70
128
71
11
72
9
73
1
0
VERTEX
8
OBJECT__30
10
0
20
0
30
0
70
128
71
21
72
22
73
10
0
VERTEX
8
OBJECT__30
10
0
20
0
30
0
70
128
71
4
72
12
73
5
0
VERTEX
8
OBJECT__30
10
0
20
0
30
0
70
128
71
5
72
23
73
24
0
VERTEX
8
OBJECT__30
10
0
20
0
30
0
70
128
71
15
72
19
73
16
0
VERTEX
8
OBJECT__30
10
0
20
0
30
0
70
128
71
20
72
18
73
14
0
VERTEX
8
OBJECT__30
10
0
20
0
30
0
70
128
71
7
72
25
73
26
0
VERTEX
8
OBJECT__30
10
0
20
0
30
0
70
128
71
10
72
1
73
21
0
VERTEX
8
OBJECT__30
10
0
20
0
30
0
70
128
71
21
72
27
73
28
0
VERTEX
8
OBJECT__30
10
0
20
0
30
0
70
128
71
24
72
8
73
5
0
VERTEX
8
OBJECT__30
10
0
20
0
30
0
70
128
71
19
72
15
73
14
0
VERTEX
8
OBJECT__30
10
0
20
0
30
0
70
128
71
5
72
7
73
29
0
VERTEX
8
OBJECT__30
10
0
20
0
30
0
70
128
71
7
72
30
73
31
0
VERTEX
8
OBJECT__30
10
0
20
0
30
0
70
128
71
3
72
25
73
7
0
VERTEX
8
OBJECT__30
10
0
20
0
30
0
70
128
71
21
72
13
73
27
0
VERTEX
8
OBJECT__30
10
0
20
0
30
0
70
128
71
17
72
7
73
15
0
VERTEX
8
OBJECT__30
10
0
20
0
30
0
70
128
71
29
72
32
73
5
0
VERTEX
8
OBJECT__30
10
0
20
0
30
0
70
128
71
7
72
33
73
30
0
VERTEX
8
OBJECT__30
10
0
20
0
30
0
70
128
71
28
72
22
73
21
0
VERTEX
8
OBJECT__30
10
0
20
0
30
0
70
128
71
32
72
23
73
5
0
VERTEX
8
OBJECT__30
10
0
20
0
30
0
70
128
71
7
72
34
73
33
0
VERTEX
8
OBJECT__30
10
0
20
0
30
0
70
128
71
13
72
21
73
5
0
VERTEX
8
OBJECT__30
10
0
20
0
30
0
70
128
71
7
72
17
73
34
0
VERTEX
8
OBJECT__30
10
0
20
0
30
0
70
128
71
31
72
29
73
7
0
VERTEX
8
OBJECT__30
10
0
20
0
30
0
70
128
71
26
72
15
73
7
0
SEQEND
8
OBJECT__30
0
POLYLINE
8
OBJECT__31
66
1
70
64
71
23
72
23
62
253
0
VERTEX
8
OBJECT__31
10
90.849998
20
-10.542000
30
45.096001
70
192
0
VERTEX
8
OBJECT__31
10
90.849998
20
0.000000
30
42.000000
70
192
0
VERTEX
8
OBJECT__31
10
94.349998
20
0.000000
30
42.000000
70
192
0
VERTEX
8
OBJECT__31
10
94.349998
20
-17.738001
30
53.398998
70
192
0
VERTEX
8
OBJECT__31
10
90.849998
20
-17.738001
30
53.398998
70
192
0
VERTEX
8
OBJECT__31
10
94.349998
20
-19.302000
30
64.275002
70
192
0
VERTEX
8
OBJECT__31
10
90.849998
20
-19.302000
30
64.275002
70
192
0
VERTEX
8
OBJECT__31
10
94.349998
20
-14.737000
30
74.269997
70
192
0
VERTEX
8
OBJECT__31
10
90.849998
20
-14.737000
30
74.269997
70
192
0
VERTEX
8
OBJECT__31
10
94.349998
20
-5.494000
30
80.209999
70
192
0
VERTEX
8
OBJECT__31
10
90.849998
20
-5.494000
30
80.209999
70
192
0
VERTEX
8
OBJECT__31
10
94.349998
20
5.494000
30
80.209999
70
192
0
VERTEX
8
OBJECT__31
10
90.849998
20
0.000000
30
81.000000
70
192
0
VERTEX
8
OBJECT__31
10
90.849998
20
5.494000
30
80.209999
70
192
0
VERTEX
8
OBJECT__31
10
94.349998
20
14.737000
30
74.269997
70
192
0
VERTEX
8
OBJECT__31
10
90.849998
20
14.737000
30
74.269997
70
192
0
VERTEX
8
OBJECT__31
10
94.349998
20
19.302000
30
64.275002
70
192
0
VERTEX
8
OBJECT__31
10
90.849998
20
19.302000
30
64.275002
70
192
0
VERTEX
8
OBJECT__31
10
94.349998
20
17.738001
30
53.398998
70
192
0
VERTEX
8
OBJECT__31
10
90.849998
20
17.738001
30
53.398998
70
192
0
VERTEX
8
OBJECT__31
10
94.349998
20
10.542000
30
45.096001
70
192
0
VERTEX
8
OBJECT__31
10
90.849998
20
10.542000
30
45.096001
70
192
0
VERTEX
8
OBJECT__31
10
94.349998
20
-10.542000
30
45.096001
70
192
0
VERTEX
8
OBJECT__31
10
0
20
0
30
0
70
128
71
1
72
2
73
3
0
VERTEX
8
OBJECT__31
10
0
20
0
30
0
70
128
71
4
72
5
73
1
0
VERTEX
8
OBJECT__31
10
0
20
0
30
0
70
128
71
6
72
7
73
5
0
VERTEX
8
OBJECT__31
10
0
20
0
30
0
70
128
71
8
72
9
73
7
0
VERTEX
8
OBJECT__31
10
0
20
0
30
0
70
128
71
10
72
11
73
9
0
VERTEX
8
OBJECT__31
10
0
20
0
30
0
70
128
71
10
72
12
73
13
0
VERTEX
8
OBJECT__31
10
0
20
0
30
0
70
128
71
12
72
14
73
13
0
VERTEX
8
OBJECT__31
10
0
20
0
30
0
70
128
71
15
72
16
73
14
0
VERTEX
8
OBJECT__31
10
0
20
0
30
0
70
128
71
17
72
18
73
16
0
VERTEX
8
OBJECT__31
10
0
20
0
30
0
70
128
71
19
72
20
73
18
0
VERTEX
8
OBJECT__31
10
0
20
0
30
0
70
128
71
21
72
22
73
20
0
VERTEX
8
OBJECT__31
10
0
20
0
30
0
70
128
71
21
72
3
73
2
0
VERTEX
8
OBJECT__31
10
0
20
0
30
0
70
128
71
2
72
22
73
21
0
VERTEX
8
OBJECT__31
10
0
20
0
30
0
70
128
71
20
72
19
73
21
0
VERTEX
8
OBJECT__31
10
0
20
0
30
0
70
128
71
18
72
17
73
19
0
VERTEX
8
OBJECT__31
10
0
20
0
30
0
70
128
71
16
72
15
73
17
0
VERTEX
8
OBJECT__31
10
0
20
0
30
0
70
128
71
14
72
12
73
15
0
VERTEX
8
OBJECT__31
10
0
20
0
30
0
70
128
71
13
72
11
73
10
0
VERTEX
8
OBJECT__31
10
0
20
0
30
0
70
128
71
9
72
8
73
10
0
VERTEX
8
OBJECT__31
10
0
20
0
30
0
70
128
71
7
72
6
73
8
0
VERTEX
8
OBJECT__31
10
0
20
0
30
0
70
128
71
5
72
4
73
6
0
VERTEX
8
OBJECT__31
10
0
20
0
30
0
70
128
71
1
72
23
73
4
0
VERTEX
8
OBJECT__31
10
0
20
0
30
0
70
128
71
3
72
23
73
1
0
SEQEND
8
OBJECT__31
0
POLYLINE
8
OBJECT__32
66
1
70
64
71
24
72
24
62
253
0
VERTEX
8
OBJECT__32
10
90.849998
20
0.000000
30
85.500000
70
192
0
VERTEX
8
OBJECT__32
10
90.849998
20
0.000000
30
81.000000
70
192
0
VERTEX
8
OBJECT__32
10
90.849998
20
5.494000
30
80.209999
70
192
0
VERTEX
8
OBJECT__32
10
90.849998
20
-12.000000
30
82.285004
70
192
0
VERTEX
8
OBJECT__32
10
90.849998
20
-5.494000
30
80.209999
70
192
0
VERTEX
8
OBJECT__32
10
90.849998
20
12.000000
30
82.285004
70
192
0
VERTEX
8
OBJECT__32
10
90.849998
20
14.737000
30
74.269997
70
192
0
VERTEX
8
OBJECT__32
10
90.849998
20
-20.785000
30
73.500000
70
192
0
VERTEX
8
OBJECT__32
10
90.849998
20
-14.737000
30
74.269997
70
192
0
VERTEX
8
OBJECT__32
10
90.849998
20
-24.000000
30
61.500000
70
192
0
VERTEX
8
OBJECT__32
10
90.849998
20
-19.302000
30
64.275002
70
192
0
VERTEX
8
OBJECT__32
10
90.849998
20
-20.785000
30
49.500000
70
192
0
VERTEX
8
OBJECT__32
10
90.849998
20
-17.738001
30
53.398998
70
192
0
VERTEX
8
OBJECT__32
10
90.849998
20
-12.000000
30
40.715000
70
192
0
VERTEX
8
OBJECT__32
10
90.849998
20
-10.542000
30
45.096001
70
192
0
VERTEX
8
OBJECT__32
10
90.849998
20
0.000000
30
37.500000
70
192
0
VERTEX
8
OBJECT__32
10
90.849998
20
0.000000
30
42.000000
70
192
0
VERTEX
8
OBJECT__32
10
90.849998
20
20.785000
30
73.500000
70
192
0
VERTEX
8
OBJECT__32
10
90.849998
20
19.302000
30
64.275002
70
192
0
VERTEX
8
OBJECT__32
10
90.849998
20
12.000000
30
40.715000
70
192
0
VERTEX
8
OBJECT__32
10
90.849998
20
10.542000
30
45.096001
70
192
0
VERTEX
8
OBJECT__32
10
90.849998
20
20.785000
30
49.500000
70
192
0
VERTEX
8
OBJECT__32
10
90.849998
20
17.738001
30
53.398998
70
192
0
VERTEX
8
OBJECT__32
10
90.849998
20
24.000000
30
61.500000
70
192
0
VERTEX
8
OBJECT__32
10
0
20
0
30
0
70
128
71
1
72
2
73
3
0
VERTEX
8
OBJECT__32
10
0
20
0
30
0
70
128
71
1
72
4
73
5
0
VERTEX
8
OBJECT__32
10
0
20
0
30
0
70
128
71
6
72
3
73
7
0
VERTEX
8
OBJECT__32
10
0
20
0
30
0
70
128
71
5
72
2
73
1
0
VERTEX
8
OBJECT__32
10
0
20
0
30
0
70
128
71
3
72
6
73
1
0
VERTEX
8
OBJECT__32
10
0
20
0
30
0
70
128
71
4
72
8
73
9
0
VERTEX
8
OBJECT__32
10
0
20
0
30
0
70
128
71
9
72
5
73
4
0
VERTEX
8
OBJECT__32
10
0
20
0
30
0
70
128
71
8
72
10
73
11
0
VERTEX
8
OBJECT__32
10
0
20
0
30
0
70
128
71
11
72
9
73
8
0
VERTEX
8
OBJECT__32
10
0
20
0
30
0
70
128
71
10
72
12
73
13
0
VERTEX
8
OBJECT__32
10
0
20
0
30
0
70
128
71
12
72
14
73
15
0
VERTEX
8
OBJECT__32
10
0
20
0
30
0
70
128
71
14
72
16
73
17
0
VERTEX
8
OBJECT__32
10
0
20
0
30
0
70
128
71
18
72
7
73
19
0
VERTEX
8
OBJECT__32
10
0
20
0
30
0
70
128
71
13
72
11
73
10
0
VERTEX
8
OBJECT__32
10
0
20
0
30
0
70
128
71
17
72
15
73
14
0
VERTEX
8
OBJECT__32
10
0
20
0
30
0
70
128
71
20
72
21
73
17
0
VERTEX
8
OBJECT__32
10
0
20
0
30
0
70
128
71
7
72
18
73
6
0
VERTEX
8
OBJECT__32
10
0
20
0
30
0
70
128
71
17
72
16
73
20
0
VERTEX
8
OBJECT__32
10
0
20
0
30
0
70
128
71
22
72
23
73
21
0
VERTEX
8
OBJECT__32
10
0
20
0
30
0
70
128
71
24
72
19
73
23
0
VERTEX
8
OBJECT__32
10
0
20
0
30
0
70
128
71
15
72
13
73
12
0
VERTEX
8
OBJECT__32
10
0
20
0
30
0
70
128
71
23
72
22
73
24
0
VERTEX
8
OBJECT__32
10
0
20
0
30
0
70
128
71
21
72
20
73
22
0
VERTEX
8
OBJECT__32
10
0
20
0
30
0
70
128
71
19
72
24
73
18
0
SEQEND
8
OBJECT__32
0
POLYLINE
8
OBJECT__34
66
1
70
64
71
24
72
24
62
253
0
VERTEX
8
OBJECT__34
10
82.849998
20
-12.900000
30
39.157001
70
192
0
VERTEX
8
OBJECT__34
10
82.849998
20
0.000000
30
35.700001
70
192
0
VERTEX
8
OBJECT__34
10
90.849998
20
0.000000
30
37.500000
70
192
0
VERTEX
8
OBJECT__34
10
90.849998
20
-12.000000
30
40.715000
70
192
0
VERTEX
8
OBJECT__34
10
90.849998
20
-20.785000
30
49.500000
70
192
0
VERTEX
8
OBJECT__34
10
82.849998
20
-22.343000
30
48.599998
70
192
0
VERTEX
8
OBJECT__34
10
90.849998
20
-24.000000
30
61.500000
70
192
0
VERTEX
8
OBJECT__34
10
82.849998
20
-22.343000
30
74.400002
70
192
0
VERTEX
8
OBJECT__34
10
82.849998
20
-25.799999
30
61.500000
70
192
0
VERTEX
8
OBJECT__34
10
90.849998
20
-20.785000
30
73.500000
70
192
0
VERTEX
8
OBJECT__34
10
90.849998
20
-12.000000
30
82.285004
70
192
0
VERTEX
8
OBJECT__34
10
82.849998
20
0.000000
30
87.300003
70
192
0
VERTEX
8
OBJECT__34
10
82.849998
20
-12.900000
30
83.843002
70
192
0
VERTEX
8
OBJECT__34
10
90.849998
20
0.000000
30
85.500000
70
192
0
VERTEX
8
OBJECT__34
10
90.849998
20
12.000000
30
82.285004
70
192
0
VERTEX
8
OBJECT__34
10
82.849998
20
12.900000
30
83.843002
70
192
0
VERTEX
8
OBJECT__34
10
90.849998
20
20.785000
30
73.500000
70
192
0
VERTEX
8
OBJECT__34
10
82.849998
20
22.343000
30
74.400002
70
192
0
VERTEX
8
OBJECT__34
10
90.849998
20
24.000000
30
61.500000
70
192
0
VERTEX
8
OBJECT__34
10
82.849998
20
22.343000
30
48.599998
70
192
0
VERTEX
8
OBJECT__34
10
82.849998
20
25.799999
30
61.500000
70
192
0
VERTEX
8
OBJECT__34
10
82.849998
20
12.900000
30
39.157001
70
192
0
VERTEX
8
OBJECT__34
10
90.849998
20
20.785000
30
49.500000
70
192
0
VERTEX
8
OBJECT__34
10
90.849998
20
12.000000
30
40.715000
70
192
0
VERTEX
8
OBJECT__34
10
0
20
0
30
0
70
128
71
1
72
2
73
3
0
VERTEX
8
OBJECT__34
10
0
20
0
30
0
70
128
71
1
72
4
73
5
0
VERTEX
8
OBJECT__34
10
0
20
0
30
0
70
128
71
6
72
5
73
7
0
VERTEX
8
OBJECT__34
10
0
20
0
30
0
70
128
71
8
72
9
73
7
0
VERTEX
8
OBJECT__34
10
0
20
0
30
0
70
128
71
8
72
10
73
11
0
VERTEX
8
OBJECT__34
10
0
20
0
30
0
70
128
71
12
72
13
73
11
0
VERTEX
8
OBJECT__34
10
0
20
0
30
0
70
128
71
12
72
14
73
15
0
VERTEX
8
OBJECT__34
10
0
20
0
30
0
70
128
71
16
72
15
73
17
0
VERTEX
8
OBJECT__34
10
0
20
0
30
0
70
128
71
18
72
17
73
19
0
VERTEX
8
OBJECT__34
10
0
20
0
30
0
70
128
71
20
72
21
73
19
0
VERTEX
8
OBJECT__34
10
0
20
0
30
0
70
128
71
22
72
20
73
23
0
VERTEX
8
OBJECT__34
10
0
20
0
30
0
70
128
71
2
72
22
73
24
0
VERTEX
8
OBJECT__34
10
0
20
0
30
0
70
128
71
24
72
3
73
2
0
VERTEX
8
OBJECT__34
10
0
20
0
30
0
70
128
71
23
72
24
73
22
0
VERTEX
8
OBJECT__34
10
0
20
0
30
0
70
128
71
19
72
23
73
20
0
VERTEX
8
OBJECT__34
10
0
20
0
30
0
70
128
71
19
72
21
73
18
0
VERTEX
8
OBJECT__34
10
0
20
0
30
0
70
128
71
17
72
18
73
16
0
VERTEX
8
OBJECT__34
10
0
20
0
30
0
70
128
71
15
72
16
73
12
0
VERTEX
8
OBJECT__34
10
0
20
0
30
0
70
128
71
11
72
14
73
12
0
VERTEX
8
OBJECT__34
10
0
20
0
30
0
70
128
71
11
72
13
73
8
0
VERTEX
8
OBJECT__34
10
0
20
0
30
0
70
128
71
7
72
10
73
8
0
VERTEX
8
OBJECT__34
10
0
20
0
30
0
70
128
71
7
72
9
73
6
0
VERTEX
8
OBJECT__34
10
0
20
0
30
0
70
128
71
5
72
6
73
1
0
VERTEX
8
OBJECT__34
10
0
20
0
30
0
70
128
71
3
72
4
73
1
0
SEQEND
8
OBJECT__34
0
POLYLINE
8
OBJECT__35
66
1
70
64
71
18
72
16
62
253
0
VERTEX
8
OBJECT__35
10
139.106995
20
7.806000
30
40.500000
70
192
0
VERTEX
8
OBJECT__35
10
139.106995
20
14.500000
30
44.407001
70
192
0
VERTEX
8
OBJECT__35
10
139.227005
20
6.220000
30
49.180000
70
192
0
VERTEX
8
OBJECT__35
10
139.106995
20
0.000000
30
39.084999
70
192
0
VERTEX
8
OBJECT__35
10
139.250000
20
2.893000
30
50.505001
70
192
0
VERTEX
8
OBJECT__35
10
139.251999
20
2.334000
30
50.625000
70
192
0
VERTEX
8
OBJECT__35
10
139.106995
20
7.751000
30
40.467999
70
192
0
VERTEX
8
OBJECT__35
10
139.240005
20
4.411000
30
49.901001
70
192
0
VERTEX
8
OBJECT__35
10
139.253998
20
-1.845000
30
50.708000
70
192
0
VERTEX
8
OBJECT__35
10
139.240005
20
-4.369000
30
49.945999
70
192
0
VERTEX
8
OBJECT__35
10
139.106995
20
-7.806000
30
40.500000
70
192
0
VERTEX
8
OBJECT__35
10
139.106995
20
-7.751000
30
40.467999
70
192
0
VERTEX
8
OBJECT__35
10
139.253998
20
0.006000
30
50.728001
70
192
0
VERTEX
8
OBJECT__35
10
139.255005
20
-1.244000
30
50.783001
70
192
0
VERTEX
8
OBJECT__35
10
139.235992
20
-5.274000
30
49.673000
70
192
0
VERTEX
8
OBJECT__35
10
139.231003
20
-5.817000
30
49.403000
70
192
0
VERTEX
8
OBJECT__35
10
139.227005
20
-6.220000
30
49.180000
70
192
0
VERTEX
8
OBJECT__35
10
139.106995
20
-14.500000
30
44.407001
70
192
0
VERTEX
8
OBJECT__35
10
0
20
0
30
0
70
128
71
1
72
2
73
3
0
VERTEX
8
OBJECT__35
10
0
20
0
30
0
70
128
71
4
72
5
73
6
0
VERTEX
8
OBJECT__35
10
0
20
0
30
0
70
128
71
4
72
7
73
8
0
VERTEX
8
OBJECT__35
10
0
20
0
30
0
70
128
71
8
72
5
73
4
0
VERTEX
8
OBJECT__35
10
0
20
0
30
0
70
128
71
7
72
1
73
8
0
VERTEX
8
OBJECT__35
10
0
20
0
30
0
70
128
71
4
72
9
73
10
0
VERTEX
8
OBJECT__35
10
0
20
0
30
0
70
128
71
10
72
11
73
12
0
VERTEX
8
OBJECT__35
10
0
20
0
30
0
70
128
71
4
72
13
73
14
0
VERTEX
8
OBJECT__35
10
0
20
0
30
0
70
128
71
14
72
9
73
4
0
VERTEX
8
OBJECT__35
10
0
20
0
30
0
70
128
71
11
72
10
73
15
0
VERTEX
8
OBJECT__35
10
0
20
0
30
0
70
128
71
15
72
16
73
11
0
VERTEX
8
OBJECT__35
10
0
20
0
30
0
70
128
71
16
72
17
73
11
0
VERTEX
8
OBJECT__35
10
0
20
0
30
0
70
128
71
17
72
18
73
11
0
VERTEX
8
OBJECT__35
10
0
20
0
30
0
70
128
71
10
72
12
73
4
0
VERTEX
8
OBJECT__35
10
0
20
0
30
0
70
128
71
6
72
13
73
4
0
VERTEX
8
OBJECT__35
10
0
20
0
30
0
70
128
71
3
72
8
73
1
0
SEQEND
8
OBJECT__35
0
POLYLINE
8
OBJECT__36
66
1
70
64
71
17
72
15
62
253
0
VERTEX
8
OBJECT__36
10
139.106995
20
0.000000
30
39.084999
70
192
0
VERTEX
8
OBJECT__36
10
138.119995
20
0.000000
30
38.102001
70
192
0
VERTEX
8
OBJECT__36
10
138.119995
20
5.577000
30
39.097000
70
192
0
VERTEX
8
OBJECT__36
10
139.106995
20
7.751000
30
40.467999
70
192
0
VERTEX
8
OBJECT__36
10
139.106995
20
-7.751000
30
40.467999
70
192
0
VERTEX
8
OBJECT__36
10
138.119995
20
-5.581000
30
39.098000
70
192
0
VERTEX
8
OBJECT__36
10
138.119995
20
-8.090000
30
39.546001
70
192
0
VERTEX
8
OBJECT__36
10
139.098007
20
-14.607000
30
44.346001
70
192
0
VERTEX
8
OBJECT__36
10
139.091003
20
-14.650000
30
44.320999
70
192
0
VERTEX
8
OBJECT__36
10
139.106995
20
-7.806000
30
40.500000
70
192
0
VERTEX
8
OBJECT__36
10
139.106995
20
-14.500000
30
44.407001
70
192
0
VERTEX
8
OBJECT__36
10
138.119995
20
8.090000
30
39.546001
70
192
0
VERTEX
8
OBJECT__36
10
139.091003
20
14.650000
30
44.320999
70
192
0
VERTEX
8
OBJECT__36
10
139.106995
20
14.500000
30
44.407001
70
192
0
VERTEX
8
OBJECT__36
10
138.119995
20
15.183000
30
43.696999
70
192
0
VERTEX
8
OBJECT__36
10
139.106995
20
7.806000
30
40.500000
70
192
0
VERTEX
8
OBJECT__36
10
138.119995
20
-15.183000
30
43.696999
70
192
0
VERTEX
8
OBJECT__36
10
0
20
0
30
0
70
128
71
1
72
2
73
3
0
VERTEX
8
OBJECT__36
10
0
20
0
30
0
70
128
71
3
72
4
73
1
0
VERTEX
8
OBJECT__36
10
0
20
0
30
0
70
128
71
1
72
5
73
6
0
VERTEX
8
OBJECT__36
10
0
20
0
30
0
70
128
71
5
72
7
73
6
0
VERTEX
8
OBJECT__36
10
0
20
0
30
0
70
128
71
7
72
8
73
9
0
VERTEX
8
OBJECT__36
10
0
20
0
30
0
70
128
71
7
72
10
73
11
0
VERTEX
8
OBJECT__36
10
0
20
0
30
0
70
128
71
11
72
8
73
7
0
VERTEX
8
OBJECT__36
10
0
20
0
30
0
70
128
71
7
72
5
73
10
0
VERTEX
8
OBJECT__36
10
0
20
0
30
0
70
128
71
12
72
13
73
14
0
VERTEX
8
OBJECT__36
10
0
20
0
30
0
70
128
71
12
72
15
73
13
0
VERTEX
8
OBJECT__36
10
0
20
0
30
0
70
128
71
14
72
16
73
12
0
VERTEX
8
OBJECT__36
10
0
20
0
30
0
70
128
71
16
72
4
73
12
0
VERTEX
8
OBJECT__36
10
0
20
0
30
0
70
128
71
9
72
17
73
7
0
VERTEX
8
OBJECT__36
10
0
20
0
30
0
70
128
71
6
72
2
73
1
0
VERTEX
8
OBJECT__36
10
0
20
0
30
0
70
128
71
3
72
12
73
4
0
SEQEND
8
OBJECT__36
0
POLYLINE
8
OBJECT__38
66
1
70
64
71
15
72
13
62
253
0
VERTEX
8
OBJECT__38
10
138.100006
20
15.686000
30
43.783001
70
192
0
VERTEX
8
OBJECT__38
10
137.865997
20
15.586000
30
43.841000
70
192
0
VERTEX
8
OBJECT__38
10
138.097000
20
15.746000
30
43.756001
70
192
0
VERTEX
8
OBJECT__38
10
138.100006
20
15.749000
30
43.754002
70
192
0
VERTEX
8
OBJECT__38
10
137.710007
20
15.417000
30
43.893002
70
192
0
VERTEX
8
OBJECT__38
10
138.257004
20
15.592000
30
43.827999
70
192
0
VERTEX
8
OBJECT__38
10
138.524994
20
15.430000
30
43.904999
70
192
0
VERTEX
8
OBJECT__38
10
137.660004
20
15.445000
30
43.916000
70
192
0
VERTEX
8
OBJECT__38
10
138.544006
20
15.404000
30
43.918999
70
192
0
VERTEX
8
OBJECT__38
10
138.871994
20
14.951000
30
44.160999
70
192
0
VERTEX
8
OBJECT__38
10
137.966003
20
15.270000
30
43.770000
70
192
0
VERTEX
8
OBJECT__38
10
138.115005
20
15.185000
30
43.700001
70
192
0
VERTEX
8
OBJECT__38
10
138.093994
20
15.197000
30
43.709000
70
192
0
VERTEX
8
OBJECT__38
10
138.119995
20
15.183000
30
43.696999
70
192
0
VERTEX
8
OBJECT__38
10
139.091003
20
14.650000
30
44.320999
70
192
0
VERTEX
8
OBJECT__38
10
0
20
0
30
0
70
128
71
1
72
2
73
3
0
VERTEX
8
OBJECT__38
10
0
20
0
30
0
70
128
71
3
72
4
73
1
0
VERTEX
8
OBJECT__38
10
0
20
0
30
0
70
128
71
5
72
2
73
6
0
VERTEX
8
OBJECT__38
10
0
20
0
30
0
70
128
71
6
72
7
73
5
0
VERTEX
8
OBJECT__38
10
0
20
0
30
0
70
128
71
5
72
8
73
2
0
VERTEX
8
OBJECT__38
10
0
20
0
30
0
70
128
71
9
72
10
73
11
0
VERTEX
8
OBJECT__38
10
0
20
0
30
0
70
128
71
10
72
12
73
13
0
VERTEX
8
OBJECT__38
10
0
20
0
30
0
70
128
71
14
72
12
73
10
0
VERTEX
8
OBJECT__38
10
0
20
0
30
0
70
128
71
10
72
15
73
14
0
VERTEX
8
OBJECT__38
10
0
20
0
30
0
70
128
71
13
72
11
73
10
0
VERTEX
8
OBJECT__38
10
0
20
0
30
0
70
128
71
11
72
5
73
9
0
VERTEX
8
OBJECT__38
10
0
20
0
30
0
70
128
71
7
72
9
73
5
0
VERTEX
8
OBJECT__38
10
0
20
0
30
0
70
128
71
1
72
6
73
2
0
SEQEND
8
OBJECT__38
0
POLYLINE
8
OBJECT__39
66
1
70
64
71
20
72
18
62
253
0
VERTEX
8
OBJECT__39
10
138.119995
20
8.090000
30
39.546001
70
192
0
VERTEX
8
OBJECT__39
10
138.093994
20
15.197000
30
43.709000
70
192
0
VERTEX
8
OBJECT__39
10
138.115005
20
15.185000
30
43.700001
70
192
0
VERTEX
8
OBJECT__39
10
137.710007
20
15.417000
30
43.893002
70
192
0
VERTEX
8
OBJECT__39
10
137.966003
20
15.270000
30
43.770000
70
192
0
VERTEX
8
OBJECT__39
10
92.099998
20
5.776000
30
38.205002
70
192
0
VERTEX
8
OBJECT__39
10
92.099998
20
15.519000
30
43.193001
70
192
0
VERTEX
8
OBJECT__39
10
137.660004
20
15.445000
30
43.916000
70
192
0
VERTEX
8
OBJECT__39
10
138.119995
20
5.577000
30
39.097000
70
192
0
VERTEX
8
OBJECT__39
10
92.099998
20
-5.780000
30
38.206001
70
192
0
VERTEX
8
OBJECT__39
10
138.119995
20
0.000000
30
38.102001
70
192
0
VERTEX
8
OBJECT__39
10
138.100006
20
-15.444000
30
43.923000
70
192
0
VERTEX
8
OBJECT__39
10
122.703003
20
-15.470000
30
43.678001
70
192
0
VERTEX
8
OBJECT__39
10
138.119995
20
-15.183000
30
43.696999
70
192
0
VERTEX
8
OBJECT__39
10
138.125000
20
-15.185000
30
43.700001
70
192
0
VERTEX
8
OBJECT__39
10
138.119995
20
-8.090000
30
39.546001
70
192
0
VERTEX
8
OBJECT__39
10
138.119995
20
-5.581000
30
39.098000
70
192
0
VERTEX
8
OBJECT__39
10
92.099998
20
-15.519000
30
43.193001
70
192
0
VERTEX
8
OBJECT__39
10
138.537994
20
-15.420000
30
43.910000
70
192
0
VERTEX
8
OBJECT__39
10
138.119995
20
15.183000
30
43.696999
70
192
0
VERTEX
8
OBJECT__39
10
0
20
0
30
0
70
128
71
1
72
2
73
3
0
VERTEX
8
OBJECT__39
10
0
20
0
30
0
70
128
71
1
72
4
73
5
0
VERTEX
8
OBJECT__39
10
0
20
0
30
0
70
128
71
6
72
7
73
8
0
VERTEX
8
OBJECT__39
10
0
20
0
30
0
70
128
71
8
72
1
73
6
0
VERTEX
8
OBJECT__39
10
0
20
0
30
0
70
128
71
8
72
4
73
1
0
VERTEX
8
OBJECT__39
10
0
20
0
30
0
70
128
71
5
72
2
73
1
0
VERTEX
8
OBJECT__39
10
0
20
0
30
0
70
128
71
1
72
9
73
6
0
VERTEX
8
OBJECT__39
10
0
20
0
30
0
70
128
71
10
72
6
73
11
0
VERTEX
8
OBJECT__39
10
0
20
0
30
0
70
128
71
6
72
9
73
11
0
VERTEX
8
OBJECT__39
10
0
20
0
30
0
70
128
71
12
72
13
73
14
0
VERTEX
8
OBJECT__39
10
0
20
0
30
0
70
128
71
14
72
15
73
12
0
VERTEX
8
OBJECT__39
10
0
20
0
30
0
70
128
71
10
72
16
73
13
0
VERTEX
8
OBJECT__39
10
0
20
0
30
0
70
128
71
16
72
14
73
13
0
VERTEX
8
OBJECT__39
10
0
20
0
30
0
70
128
71
10
72
17
73
16
0
VERTEX
8
OBJECT__39
10
0
20
0
30
0
70
128
71
13
72
18
73
10
0
VERTEX
8
OBJECT__39
10
0
20
0
30
0
70
128
71
15
72
19
73
12
0
VERTEX
8
OBJECT__39
10
0
20
0
30
0
70
128
71
11
72
17
73
10
0
VERTEX
8
OBJECT__39
10
0
20
0
30
0
70
128
71
3
72
20
73
1
0
SEQEND
8
OBJECT__39
0
POLYLINE
8
OBJECT__40
66
1
70
64
71
7
72
5
62
253
0
VERTEX
8
OBJECT__40
10
92.099998
20
19.316000
30
41.088001
70
192
0
VERTEX
8
OBJECT__40
10
138.100006
20
19.219000
30
41.831001
70
192
0
VERTEX
8
OBJECT__40
10
137.660004
20
15.445000
30
43.916000
70
192
0
VERTEX
8
OBJECT__40
10
137.865997
20
15.586000
30
43.841000
70
192
0
VERTEX
8
OBJECT__40
10
138.100006
20
15.749000
30
43.754002
70
192
0
VERTEX
8
OBJECT__40
10
138.097000
20
15.746000
30
43.756001
70
192
0
VERTEX
8
OBJECT__40
10
92.099998
20
15.519000
30
43.193001
70
192
0
VERTEX
8
OBJECT__40
10
0
20
0
30
0
70
128
71
1
72
2
73
3
0
VERTEX
8
OBJECT__40
10
0
20
0
30
0
70
128
71
2
72
4
73
3
0
VERTEX
8
OBJECT__40
10
0
20
0
30
0
70
128
71
2
72
5
73
6
0
VERTEX
8
OBJECT__40
10
0
20
0
30
0
70
128
71
6
72
4
73
2
0
VERTEX
8
OBJECT__40
10
0
20
0
30
0
70
128
71
3
72
7
73
1
0
SEQEND
8
OBJECT__40
0
POLYLINE
8
OBJECT__41
66
1
70
64
71
6
72
4
62
253
0
VERTEX
8
OBJECT__41
10
92.099998
20
24.337000
30
47.449001
70
192
0
VERTEX
8
OBJECT__41
10
138.100006
20
23.816000
30
47.750000
70
192
0
VERTEX
8
OBJECT__41
10
138.100006
20
19.219000
30
41.831001
70
192
0
VERTEX
8
OBJECT__41
10
92.099998
20
27.334999
30
54.978001
70
192
0
VERTEX
8
OBJECT__41
10
138.100006
20
26.643999
30
54.691002
70
192
0
VERTEX
8
OBJECT__41
10
92.099998
20
19.316000
30
41.088001
70
192
0
VERTEX
8
OBJECT__41
10
0
20
0
30
0
70
128
71
1
72
2
73
3
0
VERTEX
8
OBJECT__41
10
0
20
0
30
0
70
128
71
1
72
4
73
5
0
VERTEX
8
OBJECT__41
10
0
20
0
30
0
70
128
71
5
72
2
73
1
0
VERTEX
8
OBJECT__41
10
0
20
0
30
0
70
128
71
3
72
6
73
1
0
SEQEND
8
OBJECT__41
0
POLYLINE
8
OBJECT__42
66
1
70
64
71
5
72
3
62
253
0
VERTEX
8
OBJECT__42
10
92.099998
20
27.334999
30
54.978001
70
192
0
VERTEX
8
OBJECT__42
10
92.099998
20
23.614000
30
57.213001
70
192
0
VERTEX
8
OBJECT__42
10
122.703003
20
23.169001
30
57.013000
70
192
0
VERTEX
8
OBJECT__42
10
138.100006
20
26.643999
30
54.691002
70
192
0
VERTEX
8
OBJECT__42
10
138.100006
20
22.944000
30
56.914001
70
192
0
VERTEX
8
OBJECT__42
10
0
20
0
30
0
70
128
71
1
72
2
73
3
0
VERTEX
8
OBJECT__42
10
0
20
0
30
0
70
128
71
3
72
4
73
1
0
VERTEX
8
OBJECT__42
10
0
20
0
30
0
70
128
71
3
72
5
73
4
0
SEQEND
8
OBJECT__42
0
POLYLINE
8
OBJECT__43
66
1
70
64
71
5
72
3
62
253
0
VERTEX
8
OBJECT__43
10
92.099998
20
-19.316000
30
41.088001
70
192
0
VERTEX
8
OBJECT__43
10
92.099998
20
-15.519000
30
43.193001
70
192
0
VERTEX
8
OBJECT__43
10
122.703003
20
-15.470000
30
43.678001
70
192
0
VERTEX
8
OBJECT__43
10
138.100006
20
-19.219000
30
41.831001
70
192
0
VERTEX
8
OBJECT__43
10
138.100006
20
-15.444000
30
43.923000
70
192
0
VERTEX
8
OBJECT__43
10
0
20
0
30
0
70
128
71
1
72
2
73
3
0
VERTEX
8
OBJECT__43
10
0
20
0
30
0
70
128
71
3
72
4
73
1
0
VERTEX
8
OBJECT__43
10
0
20
0
30
0
70
128
71
3
72
5
73
4
0
SEQEND
8
OBJECT__43
0
POLYLINE
8
OBJECT__44
66
1
70
64
71
6
72
4
62
253
0
VERTEX
8
OBJECT__44
10
92.099998
20
-24.337000
30
47.449001
70
192
0
VERTEX
8
OBJECT__44
10
138.100006
20
-23.816000
30
47.750000
70
192
0
VERTEX
8
OBJECT__44
10
138.100006
20
-26.643999
30
54.691002
70
192
0
VERTEX
8
OBJECT__44
10
92.099998
20
-19.316000
30
41.088001
70
192
0
VERTEX
8
OBJECT__44
10
138.100006
20
-19.219000
30
41.831001
70
192
0
VERTEX
8
OBJECT__44
10
92.099998
20
-27.334999
30
54.978001
70
192
0
VERTEX
8
OBJECT__44
10
0
20
0
30
0
70
128
71
1
72
2
73
3
0
VERTEX
8
OBJECT__44
10
0
20
0
30
0
70
128
71
1
72
4
73
5
0
VERTEX
8
OBJECT__44
10
0
20
0
30
0
70
128
71
5
72
2
73
1
0
VERTEX
8
OBJECT__44
10
0
20
0
30
0
70
128
71
3
72
6
73
1
0
SEQEND
8
OBJECT__44
0
POLYLINE
8
OBJECT__45
66
1
70
64
71
7
72
5
62
253
0
VERTEX
8
OBJECT__45
10
92.099998
20
-27.334999
30
54.978001
70
192
0
VERTEX
8
OBJECT__45
10
138.100006
20
-26.643999
30
54.691002
70
192
0
VERTEX
8
OBJECT__45
10
137.660004
20
-22.950001
30
56.916000
70
192
0
VERTEX
8
OBJECT__45
10
137.865997
20
-23.086000
30
56.831001
70
192
0
VERTEX
8
OBJECT__45
10
138.100006
20
-23.243000
30
56.734001
70
192
0
VERTEX
8
OBJECT__45
10
138.097000
20
-23.240000
30
56.736000
70
192
0
VERTEX
8
OBJECT__45
10
92.099998
20
-23.614000
30
57.213001
70
192
0
VERTEX
8
OBJECT__45
10
0
20
0
30
0
70
128
71
1
72
2
73
3
0
VERTEX
8
OBJECT__45
10
0
20
0
30
0
70
128
71
2
72
4
73
3
0
VERTEX
8
OBJECT__45
10
0
20
0
30
0
70
128
71
2
72
5
73
6
0
VERTEX
8
OBJECT__45
10
0
20
0
30
0
70
128
71
6
72
4
73
2
0
VERTEX
8
OBJECT__45
10
0
20
0
30
0
70
128
71
3
72
7
73
1
0
SEQEND
8
OBJECT__45
0
POLYLINE
8
OBJECT__46
66
1
70
64
71
15
72
13
62
253
0
VERTEX
8
OBJECT__46
10
138.100006
20
-23.186001
30
56.773998
70
192
0
VERTEX
8
OBJECT__46
10
137.865997
20
-23.086000
30
56.831001
70
192
0
VERTEX
8
OBJECT__46
10
138.097000
20
-23.240000
30
56.736000
70
192
0
VERTEX
8
OBJECT__46
10
138.100006
20
-23.243000
30
56.734001
70
192
0
VERTEX
8
OBJECT__46
10
137.710007
20
-22.957001
30
56.952999
70
192
0
VERTEX
8
OBJECT__46
10
138.257004
20
-23.100000
30
56.833000
70
192
0
VERTEX
8
OBJECT__46
10
138.524994
20
-22.952999
30
56.933998
70
192
0
VERTEX
8
OBJECT__46
10
137.660004
20
-22.950001
30
56.916000
70
192
0
VERTEX
8
OBJECT__46
10
138.544006
20
-22.927000
30
56.950001
70
192
0
VERTEX
8
OBJECT__46
10
138.871994
20
-22.492001
30
57.221001
70
192
0
VERTEX
8
OBJECT__46
10
137.966003
20
-22.990000
30
57.140999
70
192
0
VERTEX
8
OBJECT__46
10
138.115005
20
-23.007999
30
57.249001
70
192
0
VERTEX
8
OBJECT__46
10
138.093994
20
-23.006001
30
57.235001
70
192
0
VERTEX
8
OBJECT__46
10
138.119995
20
-23.009001
30
57.252998
70
192
0
VERTEX
8
OBJECT__46
10
139.091003
20
-22.202000
30
57.402000
70
192
0
VERTEX
8
OBJECT__46
10
0
20
0
30
0
70
128
71
1
72
2
73
3
0
VERTEX
8
OBJECT__46
10
0
20
0
30
0
70
128
71
3
72
4
73
1
0
VERTEX
8
OBJECT__46
10
0
20
0
30
0
70
128
71
5
72
2
73
6
0
VERTEX
8
OBJECT__46
10
0
20
0
30
0
70
128
71
6
72
7
73
5
0
VERTEX
8
OBJECT__46
10
0
20
0
30
0
70
128
71
5
72
8
73
2
0
VERTEX
8
OBJECT__46
10
0
20
0
30
0
70
128
71
9
72
10
73
11
0
VERTEX
8
OBJECT__46
10
0
20
0
30
0
70
128
71
10
72
12
73
13
0
VERTEX
8
OBJECT__46
10
0
20
0
30
0
70
128
71
14
72
12
73
10
0
VERTEX
8
OBJECT__46
10
0
20
0
30
0
70
128
71
10
72
15
73
14
0
VERTEX
8
OBJECT__46
10
0
20
0
30
0
70
128
71
13
72
11
73
10
0
VERTEX
8
OBJECT__46
10
0
20
0
30
0
70
128
71
11
72
5
73
9
0
VERTEX
8
OBJECT__46
10
0
20
0
30
0
70
128
71
7
72
9
73
5
0
VERTEX
8
OBJECT__46
10
0
20
0
30
0
70
128
71
1
72
6
73
2
0
SEQEND
8
OBJECT__46
0
POLYLINE
8
OBJECT__47
66
1
70
64
71
21
72
19
62
253
0
VERTEX
8
OBJECT__47
10
138.119995
20
-23.058001
30
65.471001
70
192
0
VERTEX
8
OBJECT__47
10
138.093994
20
-23.006001
30
57.235001
70
192
0
VERTEX
8
OBJECT__47
10
138.115005
20
-23.007999
30
57.249001
70
192
0
VERTEX
8
OBJECT__47
10
137.710007
20
-22.957001
30
56.952999
70
192
0
VERTEX
8
OBJECT__47
10
137.966003
20
-22.990000
30
57.140999
70
192
0
VERTEX
8
OBJECT__47
10
92.099998
20
-23.062000
30
68.144997
70
192
0
VERTEX
8
OBJECT__47
10
92.099998
20
-23.614000
30
57.213001
70
192
0
VERTEX
8
OBJECT__47
10
137.660004
20
-22.950001
30
56.916000
70
192
0
VERTEX
8
OBJECT__47
10
138.119995
20
-22.190001
30
67.872002
70
192
0
VERTEX
8
OBJECT__47
10
92.099998
20
-17.283001
30
78.153000
70
192
0
VERTEX
8
OBJECT__47
10
138.119995
20
-20.263000
30
73.198997
70
192
0
VERTEX
8
OBJECT__47
10
138.100006
20
-7.500000
30
83.663002
70
192
0
VERTEX
8
OBJECT__47
10
122.703003
20
-7.699000
30
83.807999
70
192
0
VERTEX
8
OBJECT__47
10
138.119995
20
-7.826000
30
83.550003
70
192
0
VERTEX
8
OBJECT__47
10
138.125000
20
-7.823000
30
83.551003
70
192
0
VERTEX
8
OBJECT__47
10
138.371994
20
-7.644000
30
83.610001
70
192
0
VERTEX
8
OBJECT__47
10
138.119995
20
-14.968000
30
79.484001
70
192
0
VERTEX
8
OBJECT__47
10
138.119995
20
-16.610001
30
77.533997
70
192
0
VERTEX
8
OBJECT__47
10
92.099998
20
-8.095000
30
84.094002
70
192
0
VERTEX
8
OBJECT__47
10
138.537994
20
-7.523000
30
83.649002
70
192
0
VERTEX
8
OBJECT__47
10
138.119995
20
-23.009001
30
57.252998
70
192
0
VERTEX
8
OBJECT__47
10
0
20
0
30
0
70
128
71
1
72
2
73
3
0
VERTEX
8
OBJECT__47
10
0
20
0
30
0
70
128
71
1
72
4
73
5
0
VERTEX
8
OBJECT__47
10
0
20
0
30
0
70
128
71
6
72
7
73
8
0
VERTEX
8
OBJECT__47
10
0
20
0
30
0
70
128
71
8
72
1
73
6
0
VERTEX
8
OBJECT__47
10
0
20
0
30
0
70
128
71
8
72
4
73
1
0
VERTEX
8
OBJECT__47
10
0
20
0
30
0
70
128
71
5
72
2
73
1
0
VERTEX
8
OBJECT__47
10
0
20
0
30
0
70
128
71
1
72
9
73
6
0
VERTEX
8
OBJECT__47
10
0
20
0
30
0
70
128
71
10
72
6
73
11
0
VERTEX
8
OBJECT__47
10
0
20
0
30
0
70
128
71
6
72
9
73
11
0
VERTEX
8
OBJECT__47
10
0
20
0
30
0
70
128
71
12
72
13
73
14
0
VERTEX
8
OBJECT__47
10
0
20
0
30
0
70
128
71
14
72
15
73
12
0
VERTEX
8
OBJECT__47
10
0
20
0
30
0
70
128
71
15
72
16
73
12
0
VERTEX
8
OBJECT__47
10
0
20
0
30
0
70
128
71
10
72
17
73
13
0
VERTEX
8
OBJECT__47
10
0
20
0
30
0
70
128
71
17
72
14
73
13
0
VERTEX
8
OBJECT__47
10
0
20
0
30
0
70
128
71
10
72
18
73
17
0
VERTEX
8
OBJECT__47
10
0
20
0
30
0
70
128
71
13
72
19
73
10
0
VERTEX
8
OBJECT__47
10
0
20
0
30
0
70
128
71
16
72
20
73
12
0
VERTEX
8
OBJECT__47
10
0
20
0
30
0
70
128
71
11
72
18
73
10
0
VERTEX
8
OBJECT__47
10
0
20
0
30
0
70
128
71
3
72
21
73
1
0
SEQEND
8
OBJECT__47
0
POLYLINE
8
OBJECT__48
66
1
70
64
71
7
72
5
62
253
0
VERTEX
8
OBJECT__48
10
138.125000
20
-7.823000
30
83.551003
70
192
0
VERTEX
8
OBJECT__48
10
138.938995
20
-7.544000
30
83.189003
70
192
0
VERTEX
8
OBJECT__48
10
138.748993
20
-7.534000
30
83.406998
70
192
0
VERTEX
8
OBJECT__48
10
139.091003
20
-7.552000
30
82.777000
70
192
0
VERTEX
8
OBJECT__48
10
138.371994
20
-7.644000
30
83.610001
70
192
0
VERTEX
8
OBJECT__48
10
138.119995
20
-7.826000
30
83.550003
70
192
0
VERTEX
8
OBJECT__48
10
138.537994
20
-7.523000
30
83.649002
70
192
0
VERTEX
8
OBJECT__48
10
0
20
0
30
0
70
128
71
1
72
2
73
3
0
VERTEX
8
OBJECT__48
10
0
20
0
30
0
70
128
71
1
72
4
73
2
0
VERTEX
8
OBJECT__48
10
0
20
0
30
0
70
128
71
3
72
5
73
1
0
VERTEX
8
OBJECT__48
10
0
20
0
30
0
70
128
71
1
72
6
73
4
0
VERTEX
8
OBJECT__48
10
0
20
0
30
0
70
128
71
5
72
3
73
7
0
SEQEND
8
OBJECT__48
0
POLYLINE
8
OBJECT__49
66
1
70
64
71
17
72
15
62
253
0
VERTEX
8
OBJECT__49
10
139.106995
20
-19.412001
30
72.707001
70
192
0
VERTEX
8
OBJECT__49
10
138.119995
20
-20.263000
30
73.198997
70
192
0
VERTEX
8
OBJECT__49
10
138.119995
20
-22.190001
30
67.872002
70
192
0
VERTEX
8
OBJECT__49
10
139.106995
20
-22.090000
30
65.304001
70
192
0
VERTEX
8
OBJECT__49
10
139.106995
20
-14.339000
30
78.727997
70
192
0
VERTEX
8
OBJECT__49
10
138.119995
20
-16.610001
30
77.533997
70
192
0
VERTEX
8
OBJECT__49
10
138.119995
20
-14.968000
30
79.484001
70
192
0
VERTEX
8
OBJECT__49
10
139.098007
20
-7.552000
30
82.726997
70
192
0
VERTEX
8
OBJECT__49
10
139.091003
20
-7.552000
30
82.777000
70
192
0
VERTEX
8
OBJECT__49
10
139.106995
20
-14.283000
30
78.760002
70
192
0
VERTEX
8
OBJECT__49
10
139.106995
20
-7.553000
30
82.603996
70
192
0
VERTEX
8
OBJECT__49
10
138.119995
20
-23.058001
30
65.471001
70
192
0
VERTEX
8
OBJECT__49
10
139.091003
20
-22.202000
30
57.402000
70
192
0
VERTEX
8
OBJECT__49
10
139.106995
20
-22.052999
30
57.488998
70
192
0
VERTEX
8
OBJECT__49
10
138.119995
20
-23.009001
30
57.252998
70
192
0
VERTEX
8
OBJECT__49
10
139.106995
20
-22.089001
30
65.239998
70
192
0
VERTEX
8
OBJECT__49
10
138.119995
20
-7.826000
30
83.550003
70
192
0
VERTEX
8
OBJECT__49
10
0
20
0
30
0
70
128
71
1
72
2
73
3
0
VERTEX
8
OBJECT__49
10
0
20
0
30
0
70
128
71
3
72
4
73
1
0
VERTEX
8
OBJECT__49
10
0
20
0
30
0
70
128
71
1
72
5
73
6
0
VERTEX
8
OBJECT__49
10
0
20
0
30
0
70
128
71
5
72
7
73
6
0
VERTEX
8
OBJECT__49
10
0
20
0
30
0
70
128
71
7
72
8
73
9
0
VERTEX
8
OBJECT__49
10
0
20
0
30
0
70
128
71
7
72
10
73
11
0
VERTEX
8
OBJECT__49
10
0
20
0
30
0
70
128
71
11
72
8
73
7
0
VERTEX
8
OBJECT__49
10
0
20
0
30
0
70
128
71
7
72
5
73
10
0
VERTEX
8
OBJECT__49
10
0
20
0
30
0
70
128
71
12
72
13
73
14
0
VERTEX
8
OBJECT__49
10
0
20
0
30
0
70
128
71
12
72
15
73
13
0
VERTEX
8
OBJECT__49
10
0
20
0
30
0
70
128
71
14
72
16
73
12
0
VERTEX
8
OBJECT__49
10
0
20
0
30
0
70
128
71
16
72
4
73
12
0
VERTEX
8
OBJECT__49
10
0
20
0
30
0
70
128
71
9
72
17
73
7
0
VERTEX
8
OBJECT__49
10
0
20
0
30
0
70
128
71
6
72
2
73
1
0
VERTEX
8
OBJECT__49
10
0
20
0
30
0
70
128
71
3
72
12
73
4
0
SEQEND
8
OBJECT__49
0
POLYLINE
8
OBJECT__50
66
1
70
64
71
9
72
7
62
253
0
VERTEX
8
OBJECT__50
10
138.748993
20
-7.534000
30
83.406998
70
192
0
VERTEX
8
OBJECT__50
10
138.938995
20
-7.544000
30
83.189003
70
192
0
VERTEX
8
OBJECT__50
10
139.091003
20
-7.552000
30
82.777000
70
192
0
VERTEX
8
OBJECT__50
10
138.100006
20
-7.500000
30
73.046997
70
192
0
VERTEX
8
OBJECT__50
10
139.106995
20
-7.553000
30
82.603996
70
192
0
VERTEX
8
OBJECT__50
10
139.098007
20
-7.552000
30
82.726997
70
192
0
VERTEX
8
OBJECT__50
10
138.100006
20
-7.500000
30
83.663002
70
192
0
VERTEX
8
OBJECT__50
10
138.537994
20
-7.523000
30
83.649002
70
192
0
VERTEX
8
OBJECT__50
10
139.227005
20
-7.559000
30
73.046997
70
192
0
VERTEX
8
OBJECT__50
10
0
20
0
30
0
70
128
71
1
72
2
73
3
0
VERTEX
8
OBJECT__50
10
0
20
0
30
0
70
128
71
4
72
1
73
5
0
VERTEX
8
OBJECT__50
10
0
20
0
30
0
70
128
71
3
72
6
73
1
0
VERTEX
8
OBJECT__50
10
0
20
0
30
0
70
128
71
6
72
5
73
1
0
VERTEX
8
OBJECT__50
10
0
20
0
30
0
70
128
71
7
72
8
73
1
0
VERTEX
8
OBJECT__50
10
0
20
0
30
0
70
128
71
1
72
4
73
7
0
VERTEX
8
OBJECT__50
10
0
20
0
30
0
70
128
71
5
72
9
73
4
0
SEQEND
8
OBJECT__50
0
POLYLINE
8
OBJECT__51
66
1
70
64
71
15
72
13
62
253
0
VERTEX
8
OBJECT__51
10
138.100006
20
-9.175000
30
66.796997
70
192
0
VERTEX
8
OBJECT__51
10
138.100006
20
-7.500000
30
73.046997
70
192
0
VERTEX
8
OBJECT__51
10
139.240005
20
-7.818000
30
71.051003
70
192
0
VERTEX
8
OBJECT__51
10
139.235992
20
-7.611000
30
71.912003
70
192
0
VERTEX
8
OBJECT__51
10
139.227005
20
-7.559000
30
73.046997
70
192
0
VERTEX
8
OBJECT__51
10
139.231003
20
-7.571000
30
72.516998
70
192
0
VERTEX
8
OBJECT__51
10
139.253998
20
-8.449000
30
68.430000
70
192
0
VERTEX
8
OBJECT__51
10
139.255005
20
-8.688000
30
67.873001
70
192
0
VERTEX
8
OBJECT__51
10
138.100006
20
-13.750000
30
62.222000
70
192
0
VERTEX
8
OBJECT__51
10
139.250000
20
-10.969000
30
64.491997
70
192
0
VERTEX
8
OBJECT__51
10
139.240005
20
-12.251000
30
63.480000
70
192
0
VERTEX
8
OBJECT__51
10
139.251999
20
-10.630000
30
64.863998
70
192
0
VERTEX
8
OBJECT__51
10
139.253998
20
-9.323000
30
66.889000
70
192
0
VERTEX
8
OBJECT__51
10
139.253998
20
-9.330000
30
66.878998
70
192
0
VERTEX
8
OBJECT__51
10
139.227005
20
-13.779000
30
62.272999
70
192
0
VERTEX
8
OBJECT__51
10
0
20
0
30
0
70
128
71
1
72
2
73
3
0
VERTEX
8
OBJECT__51
10
0
20
0
30
0
70
128
71
2
72
4
73
3
0
VERTEX
8
OBJECT__51
10
0
20
0
30
0
70
128
71
2
72
5
73
6
0
VERTEX
8
OBJECT__51
10
0
20
0
30
0
70
128
71
6
72
4
73
2
0
VERTEX
8
OBJECT__51
10
0
20
0
30
0
70
128
71
3
72
7
73
1
0
VERTEX
8
OBJECT__51
10
0
20
0
30
0
70
128
71
7
72
8
73
1
0
VERTEX
8
OBJECT__51
10
0
20
0
30
0
70
128
71
9
72
1
73
10
0
VERTEX
8
OBJECT__51
10
0
20
0
30
0
70
128
71
10
72
11
73
9
0
VERTEX
8
OBJECT__51
10
0
20
0
30
0
70
128
71
1
72
12
73
10
0
VERTEX
8
OBJECT__51
10
0
20
0
30
0
70
128
71
1
72
13
73
14
0
VERTEX
8
OBJECT__51
10
0
20
0
30
0
70
128
71
14
72
12
73
1
0
VERTEX
8
OBJECT__51
10
0
20
0
30
0
70
128
71
11
72
15
73
9
0
VERTEX
8
OBJECT__51
10
0
20
0
30
0
70
128
71
8
72
13
73
1
0
SEQEND
8
OBJECT__51
0
POLYLINE
8
OBJECT__52
66
1
70
64
71
20
72
19
62
253
0
VERTEX
8
OBJECT__52
10
139.106995
20
-22.089001
30
65.239998
70
192
0
VERTEX
8
OBJECT__52
10
139.106995
20
-22.052999
30
57.488998
70
192
0
VERTEX
8
OBJECT__52
10
139.227005
20
-13.779000
30
62.272999
70
192
0
VERTEX
8
OBJECT__52
10
139.106995
20
-19.412001
30
72.707001
70
192
0
VERTEX
8
OBJECT__52
10
139.250000
20
-10.969000
30
64.491997
70
192
0
VERTEX
8
OBJECT__52
10
139.251999
20
-10.630000
30
64.863998
70
192
0
VERTEX
8
OBJECT__52
10
139.106995
20
-22.090000
30
65.304001
70
192
0
VERTEX
8
OBJECT__52
10
139.240005
20
-12.251000
30
63.480000
70
192
0
VERTEX
8
OBJECT__52
10
139.255005
20
-8.688000
30
67.873001
70
192
0
VERTEX
8
OBJECT__52
10
139.253998
20
-8.449000
30
68.430000
70
192
0
VERTEX
8
OBJECT__52
10
139.255005
20
-8.919000
30
67.675003
70
192
0
VERTEX
8
OBJECT__52
10
139.240005
20
-7.818000
30
71.051003
70
192
0
VERTEX
8
OBJECT__52
10
139.106995
20
-14.283000
30
78.760002
70
192
0
VERTEX
8
OBJECT__52
10
139.106995
20
-14.339000
30
78.727997
70
192
0
VERTEX
8
OBJECT__52
10
139.253998
20
-9.330000
30
66.878998
70
192
0
VERTEX
8
OBJECT__52
10
139.253998
20
-9.323000
30
66.889000
70
192
0
VERTEX
8
OBJECT__52
10
139.235992
20
-7.611000
30
71.912003
70
192
0
VERTEX
8
OBJECT__52
10
139.231003
20
-7.571000
30
72.516998
70
192
0
VERTEX
8
OBJECT__52
10
139.227005
20
-7.559000
30
73.046997
70
192
0
VERTEX
8
OBJECT__52
10
139.106995
20
-7.553000
30
82.603996
70
192
0
VERTEX
8
OBJECT__52
10
0
20
0
30
0
70
128
71
1
72
2
73
3
0
VERTEX
8
OBJECT__52
10
0
20
0
30
0
70
128
71
4
72
5
73
6
0
VERTEX
8
OBJECT__52
10
0
20
0
30
0
70
128
71
4
72
7
73
8
0
VERTEX
8
OBJECT__52
10
0
20
0
30
0
70
128
71
8
72
5
73
4
0
VERTEX
8
OBJECT__52
10
0
20
0
30
0
70
128
71
7
72
1
73
8
0
VERTEX
8
OBJECT__52
10
0
20
0
30
0
70
128
71
9
72
10
73
11
0
VERTEX
8
OBJECT__52
10
0
20
0
30
0
70
128
71
4
72
10
73
12
0
VERTEX
8
OBJECT__52
10
0
20
0
30
0
70
128
71
12
72
13
73
14
0
VERTEX
8
OBJECT__52
10
0
20
0
30
0
70
128
71
4
72
11
73
10
0
VERTEX
8
OBJECT__52
10
0
20
0
30
0
70
128
71
4
72
15
73
16
0
VERTEX
8
OBJECT__52
10
0
20
0
30
0
70
128
71
16
72
11
73
4
0
VERTEX
8
OBJECT__52
10
0
20
0
30
0
70
128
71
12
72
14
73
4
0
VERTEX
8
OBJECT__52
10
0
20
0
30
0
70
128
71
11
72
16
73
9
0
VERTEX
8
OBJECT__52
10
0
20
0
30
0
70
128
71
13
72
12
73
17
0
VERTEX
8
OBJECT__52
10
0
20
0
30
0
70
128
71
17
72
18
73
13
0
VERTEX
8
OBJECT__52
10
0
20
0
30
0
70
128
71
18
72
19
73
13
0
VERTEX
8
OBJECT__52
10
0
20
0
30
0
70
128
71
19
72
20
73
13
0
VERTEX
8
OBJECT__52
10
0
20
0
30
0
70
128
71
6
72
15
73
4
0
VERTEX
8
OBJECT__52
10
0
20
0
30
0
70
128
71
3
72
8
73
1
0
SEQEND
8
OBJECT__52
0
POLYLINE
8
OBJECT__53
66
1
70
64
71
5
72
3
62
253
0
VERTEX
8
OBJECT__53
10
92.099998
20
-8.019000
30
88.433998
70
192
0
VERTEX
8
OBJECT__53
10
92.099998
20
-8.095000
30
84.094002
70
192
0
VERTEX
8
OBJECT__53
10
122.703003
20
-7.699000
30
83.807999
70
192
0
VERTEX
8
OBJECT__53
10
138.100006
20
-7.425000
30
87.978996
70
192
0
VERTEX
8
OBJECT__53
10
138.100006
20
-7.500000
30
83.663002
70
192
0
VERTEX
8
OBJECT__53
10
0
20
0
30
0
70
128
71
1
72
2
73
3
0
VERTEX
8
OBJECT__53
10
0
20
0
30
0
70
128
71
3
72
4
73
1
0
VERTEX
8
OBJECT__53
10
0
20
0
30
0
70
128
71
3
72
5
73
4
0
SEQEND
8
OBJECT__53
0
POLYLINE
8
OBJECT__54
66
1
70
64
71
20
72
18
62
253
0
VERTEX
8
OBJECT__54
10
138.119995
20
14.968000
30
79.484001
70
192
0
VERTEX
8
OBJECT__54
10
138.093994
20
7.809000
30
83.556000
70
192
0
VERTEX
8
OBJECT__54
10
138.115005
20
7.823000
30
83.551003
70
192
0
VERTEX
8
OBJECT__54
10
137.710007
20
7.540000
30
83.654999
70
192
0
VERTEX
8
OBJECT__54
10
137.966003
20
7.720000
30
83.588997
70
192
0
VERTEX
8
OBJECT__54
10
92.099998
20
17.285000
30
78.150002
70
192
0
VERTEX
8
OBJECT__54
10
92.099998
20
8.095000
30
84.094002
70
192
0
VERTEX
8
OBJECT__54
10
137.660004
20
7.506000
30
83.667000
70
192
0
VERTEX
8
OBJECT__54
10
138.119995
20
16.613001
30
77.530998
70
192
0
VERTEX
8
OBJECT__54
10
92.099998
20
23.063000
30
68.140999
70
192
0
VERTEX
8
OBJECT__54
10
138.119995
20
20.263000
30
73.198997
70
192
0
VERTEX
8
OBJECT__54
10
138.100006
20
22.944000
30
56.914001
70
192
0
VERTEX
8
OBJECT__54
10
122.703003
20
23.169001
30
57.013000
70
192
0
VERTEX
8
OBJECT__54
10
138.119995
20
23.009001
30
57.252998
70
192
0
VERTEX
8
OBJECT__54
10
138.125000
20
23.007999
30
57.249001
70
192
0
VERTEX
8
OBJECT__54
10
138.119995
20
23.058001
30
65.471001
70
192
0
VERTEX
8
OBJECT__54
10
138.119995
20
22.191000
30
67.867996
70
192
0
VERTEX
8
OBJECT__54
10
92.099998
20
23.614000
30
57.213001
70
192
0
VERTEX
8
OBJECT__54
10
138.537994
20
22.943001
30
56.939999
70
192
0
VERTEX
8
OBJECT__54
10
138.119995
20
7.826000
30
83.550003
70
192
0
VERTEX
8
OBJECT__54
10
0
20
0
30
0
70
128
71
1
72
2
73
3
0
VERTEX
8
OBJECT__54
10
0
20
0
30
0
70
128
71
1
72
4
73
5
0
VERTEX
8
OBJECT__54
10
0
20
0
30
0
70
128
71
6
72
7
73
8
0
VERTEX
8
OBJECT__54
10
0
20
0
30
0
70
128
71
8
72
1
73
6
0
VERTEX
8
OBJECT__54
10
0
20
0
30
0
70
128
71
8
72
4
73
1
0
VERTEX
8
OBJECT__54
10
0
20
0
30
0
70
128
71
5
72
2
73
1
0
VERTEX
8
OBJECT__54
10
0
20
0
30
0
70
128
71
1
72
9
73
6
0
VERTEX
8
OBJECT__54
10
0
20
0
30
0
70
128
71
10
72
6
73
11
0
VERTEX
8
OBJECT__54
10
0
20
0
30
0
70
128
71
6
72
9
73
11
0
VERTEX
8
OBJECT__54
10
0
20
0
30
0
70
128
71
12
72
13
73
14
0
VERTEX
8
OBJECT__54
10
0
20
0
30
0
70
128
71
14
72
15
73
12
0
VERTEX
8
OBJECT__54
10
0
20
0
30
0
70
128
71
10
72
16
73
13
0
VERTEX
8
OBJECT__54
10
0
20
0
30
0
70
128
71
16
72
14
73
13
0
VERTEX
8
OBJECT__54
10
0
20
0
30
0
70
128
71
10
72
17
73
16
0
VERTEX
8
OBJECT__54
10
0
20
0
30
0
70
128
71
13
72
18
73
10
0
VERTEX
8
OBJECT__54
10
0
20
0
30
0
70
128
71
15
72
19
73
12
0
VERTEX
8
OBJECT__54
10
0
20
0
30
0
70
128
71
11
72
17
73
10
0
VERTEX
8
OBJECT__54
10
0
20
0
30
0
70
128
71
3
72
20
73
1
0
SEQEND
8
OBJECT__54
0
POLYLINE
8
OBJECT__55
66
1
70
64
71
7
72
5
62
253
0
VERTEX
8
OBJECT__55
10
92.099998
20
8.019000
30
88.433998
70
192
0
VERTEX
8
OBJECT__55
10
138.100006
20
7.425000
30
87.978996
70
192
0
VERTEX
8
OBJECT__55
10
137.660004
20
7.506000
30
83.667000
70
192
0
VERTEX
8
OBJECT__55
10
137.865997
20
7.500000
30
83.828003
70
192
0
VERTEX
8
OBJECT__55
10
138.100006
20
7.494000
30
84.012001
70
192
0
VERTEX
8
OBJECT__55
10
138.097000
20
7.494000
30
84.009003
70
192
0
VERTEX
8
OBJECT__55
10
92.099998
20
8.095000
30
84.094002
70
192
0
VERTEX
8
OBJECT__55
10
0
20
0
30
0
70
128
71
1
72
2
73
3
0
VERTEX
8
OBJECT__55
10
0
20
0
30
0
70
128
71
2
72
4
73
3
0
VERTEX
8
OBJECT__55
10
0
20
0
30
0
70
128
71
2
72
5
73
6
0
VERTEX
8
OBJECT__55
10
0
20
0
30
0
70
128
71
6
72
4
73
2
0
VERTEX
8
OBJECT__55
10
0
20
0
30
0
70
128
71
3
72
7
73
1
0
SEQEND
8
OBJECT__55
0
POLYLINE
8
OBJECT__56
66
1
70
64
71
15
72
13
62
253
0
VERTEX
8
OBJECT__56
10
138.100006
20
7.500000
30
83.943001
70
192
0
VERTEX
8
OBJECT__56
10
137.865997
20
7.500000
30
83.828003
70
192
0
VERTEX
8
OBJECT__56
10
138.097000
20
7.494000
30
84.009003
70
192
0
VERTEX
8
OBJECT__56
10
138.100006
20
7.494000
30
84.012001
70
192
0
VERTEX
8
OBJECT__56
10
137.710007
20
7.540000
30
83.654999
70
192
0
VERTEX
8
OBJECT__56
10
138.257004
20
7.508000
30
83.837997
70
192
0
VERTEX
8
OBJECT__56
10
138.524994
20
7.522000
30
83.660004
70
192
0
VERTEX
8
OBJECT__56
10
137.660004
20
7.506000
30
83.667000
70
192
0
VERTEX
8
OBJECT__56
10
138.544006
20
7.523000
30
83.630997
70
192
0
VERTEX
8
OBJECT__56
10
138.871994
20
7.540000
30
83.117996
70
192
0
VERTEX
8
OBJECT__56
10
137.966003
20
7.720000
30
83.588997
70
192
0
VERTEX
8
OBJECT__56
10
138.115005
20
7.823000
30
83.551003
70
192
0
VERTEX
8
OBJECT__56
10
138.093994
20
7.809000
30
83.556000
70
192
0
VERTEX
8
OBJECT__56
10
138.119995
20
7.826000
30
83.550003
70
192
0
VERTEX
8
OBJECT__56
10
139.091003
20
7.552000
30
82.777000
70
192
0
VERTEX
8
OBJECT__56
10
0
20
0
30
0
70
128
71
1
72
2
73
3
0
VERTEX
8
OBJECT__56
10
0
20
0
30
0
70
128
71
3
72
4
73
1
0
VERTEX
8
OBJECT__56
10
0
20
0
30
0
70
128
71
5
72
2
73
6
0
VERTEX
8
OBJECT__56
10
0
20
0
30
0
70
128
71
6
72
7
73
5
0
VERTEX
8
OBJECT__56
10
0
20
0
30
0
70
128
71
5
72
8
73
2
0
VERTEX
8
OBJECT__56
10
0
20
0
30
0
70
128
71
9
72
10
73
11
0
VERTEX
8
OBJECT__56
10
0
20
0
30
0
70
128
71
10
72
12
73
13
0
VERTEX
8
OBJECT__56
10
0
20
0
30
0
70
128
71
14
72
12
73
10
0
VERTEX
8
OBJECT__56
10
0
20
0
30
0
70
128
71
10
72
15
73
14
0
VERTEX
8
OBJECT__56
10
0
20
0
30
0
70
128
71
13
72
11
73
10
0
VERTEX
8
OBJECT__56
10
0
20
0
30
0
70
128
71
11
72
5
73
9
0
VERTEX
8
OBJECT__56
10
0
20
0
30
0
70
128
71
7
72
9
73
5
0
VERTEX
8
OBJECT__56
10
0
20
0
30
0
70
128
71
1
72
6
73
2
0
SEQEND
8
OBJECT__56
0
POLYLINE
8
OBJECT__57
66
1
70
64
71
27
72
25
62
253
0
VERTEX
8
OBJECT__57
10
138.100006
20
0.000000
30
89.000000
70
192
0
VERTEX
8
OBJECT__57
10
138.100006
20
0.000000
30
50.905998
70
192
0
VERTEX
8
OBJECT__57
10
138.100006
20
7.500000
30
73.046997
70
192
0
VERTEX
8
OBJECT__57
10
138.100006
20
15.749000
30
43.754002
70
192
0
VERTEX
8
OBJECT__57
10
138.100006
20
19.219000
30
41.831001
70
192
0
VERTEX
8
OBJECT__57
10
138.100006
20
23.816000
30
47.750000
70
192
0
VERTEX
8
OBJECT__57
10
138.100006
20
6.250000
30
49.230999
70
192
0
VERTEX
8
OBJECT__57
10
138.100006
20
15.686000
30
43.783001
70
192
0
VERTEX
8
OBJECT__57
10
138.100006
20
22.944000
30
56.914001
70
192
0
VERTEX
8
OBJECT__57
10
138.100006
20
-23.243000
30
56.734001
70
192
0
VERTEX
8
OBJECT__57
10
138.100006
20
-26.643999
30
54.691002
70
192
0
VERTEX
8
OBJECT__57
10
138.100006
20
-23.816000
30
47.750000
70
192
0
VERTEX
8
OBJECT__57
10
138.100006
20
-13.750000
30
62.222000
70
192
0
VERTEX
8
OBJECT__57
10
138.100006
20
-23.186001
30
56.773998
70
192
0
VERTEX
8
OBJECT__57
10
138.100006
20
-15.444000
30
43.923000
70
192
0
VERTEX
8
OBJECT__57
10
138.100006
20
7.500000
30
83.943001
70
192
0
VERTEX
8
OBJECT__57
10
138.100006
20
13.750000
30
62.222000
70
192
0
VERTEX
8
OBJECT__57
10
138.100006
20
-6.250000
30
49.230999
70
192
0
VERTEX
8
OBJECT__57
10
138.100006
20
-7.500000
30
83.663002
70
192
0
VERTEX
8
OBJECT__57
10
138.100006
20
-7.500000
30
73.046997
70
192
0
VERTEX
8
OBJECT__57
10
138.100006
20
7.494000
30
84.012001
70
192
0
VERTEX
8
OBJECT__57
10
138.100006
20
-9.175000
30
66.796997
70
192
0
VERTEX
8
OBJECT__57
10
138.100006
20
-7.425000
30
87.978996
70
192
0
VERTEX
8
OBJECT__57
10
138.100006
20
9.175000
30
66.796997
70
192
0
VERTEX
8
OBJECT__57
10
138.100006
20
26.643999
30
54.691002
70
192
0
VERTEX
8
OBJECT__57
10
138.100006
20
-19.219000
30
41.831001
70
192
0
VERTEX
8
OBJECT__57
10
138.100006
20
7.425000
30
87.978996
70
192
0
VERTEX
8
OBJECT__57
10
0
20
0
30
0
70
128
71
1
72
2
73
3
0
VERTEX
8
OBJECT__57
10
0
20
0
30
0
70
128
71
4
72
5
73
6
0
VERTEX
8
OBJECT__57
10
0
20
0
30
0
70
128
71
7
72
8
73
9
0
VERTEX
8
OBJECT__57
10
0
20
0
30
0
70
128
71
10
72
11
73
12
0
VERTEX
8
OBJECT__57
10
0
20
0
30
0
70
128
71
13
72
14
73
15
0
VERTEX
8
OBJECT__57
10
0
20
0
30
0
70
128
71
3
72
16
73
1
0
VERTEX
8
OBJECT__57
10
0
20
0
30
0
70
128
71
6
72
9
73
4
0
VERTEX
8
OBJECT__57
10
0
20
0
30
0
70
128
71
9
72
17
73
7
0
VERTEX
8
OBJECT__57
10
0
20
0
30
0
70
128
71
12
72
15
73
10
0
VERTEX
8
OBJECT__57
10
0
20
0
30
0
70
128
71
15
72
18
73
13
0
VERTEX
8
OBJECT__57
10
0
20
0
30
0
70
128
71
1
72
19
73
20
0
VERTEX
8
OBJECT__57
10
0
20
0
30
0
70
128
71
16
72
21
73
1
0
VERTEX
8
OBJECT__57
10
0
20
0
30
0
70
128
71
2
72
7
73
17
0
VERTEX
8
OBJECT__57
10
0
20
0
30
0
70
128
71
8
72
4
73
9
0
VERTEX
8
OBJECT__57
10
0
20
0
30
0
70
128
71
14
72
10
73
15
0
VERTEX
8
OBJECT__57
10
0
20
0
30
0
70
128
71
2
72
22
73
13
0
VERTEX
8
OBJECT__57
10
0
20
0
30
0
70
128
71
1
72
23
73
19
0
VERTEX
8
OBJECT__57
10
0
20
0
30
0
70
128
71
2
72
24
73
3
0
VERTEX
8
OBJECT__57
10
0
20
0
30
0
70
128
71
6
72
25
73
9
0
VERTEX
8
OBJECT__57
10
0
20
0
30
0
70
128
71
13
72
18
73
2
0
VERTEX
8
OBJECT__57
10
0
20
0
30
0
70
128
71
20
72
2
73
1
0
VERTEX
8
OBJECT__57
10
0
20
0
30
0
70
128
71
17
72
24
73
2
0
VERTEX
8
OBJECT__57
10
0
20
0
30
0
70
128
71
20
72
22
73
2
0
VERTEX
8
OBJECT__57
10
0
20
0
30
0
70
128
71
12
72
26
73
15
0
VERTEX
8
OBJECT__57
10
0
20
0
30
0
70
128
71
21
72
27
73
1
0
SEQEND
8
OBJECT__57
0
POLYLINE
8
OBJECT__58
66
1
70
64
71
9
72
7
62
253
0
VERTEX
8
OBJECT__58
10
138.100006
20
7.500000
30
73.046997
70
192
0
VERTEX
8
OBJECT__58
10
139.227005
20
7.559000
30
73.046997
70
192
0
VERTEX
8
OBJECT__58
10
139.106995
20
7.553000
30
82.603996
70
192
0
VERTEX
8
OBJECT__58
10
138.544006
20
7.523000
30
83.630997
70
192
0
VERTEX
8
OBJECT__58
10
138.524994
20
7.522000
30
83.660004
70
192
0
VERTEX
8
OBJECT__58
10
138.871994
20
7.540000
30
83.117996
70
192
0
VERTEX
8
OBJECT__58
10
138.257004
20
7.508000
30
83.837997
70
192
0
VERTEX
8
OBJECT__58
10
139.091003
20
7.552000
30
82.777000
70
192
0
VERTEX
8
OBJECT__58
10
138.100006
20
7.500000
30
83.943001
70
192
0
VERTEX
8
OBJECT__58
10
0
20
0
30
0
70
128
71
1
72
2
73
3
0
VERTEX
8
OBJECT__58
10
0
20
0
30
0
70
128
71
1
72
4
73
5
0
VERTEX
8
OBJECT__58
10
0
20
0
30
0
70
128
71
3
72
6
73
1
0
VERTEX
8
OBJECT__58
10
0
20
0
30
0
70
128
71
5
72
7
73
1
0
VERTEX
8
OBJECT__58
10
0
20
0
30
0
70
128
71
3
72
8
73
6
0
VERTEX
8
OBJECT__58
10
0
20
0
30
0
70
128
71
6
72
4
73
1
0
VERTEX
8
OBJECT__58
10
0
20
0
30
0
70
128
71
7
72
9
73
1
0
SEQEND
8
OBJECT__58
0
POLYLINE
8
OBJECT__59
66
1
70
64
71
17
72
15
62
253
0
VERTEX
8
OBJECT__59
10
139.106995
20
19.412001
30
72.707001
70
192
0
VERTEX
8
OBJECT__59
10
138.119995
20
20.263000
30
73.198997
70
192
0
VERTEX
8
OBJECT__59
10
138.119995
20
16.613001
30
77.530998
70
192
0
VERTEX
8
OBJECT__59
10
139.106995
20
14.339000
30
78.727997
70
192
0
VERTEX
8
OBJECT__59
10
139.106995
20
22.090000
30
65.304001
70
192
0
VERTEX
8
OBJECT__59
10
138.119995
20
22.191000
30
67.867996
70
192
0
VERTEX
8
OBJECT__59
10
138.119995
20
23.058001
30
65.471001
70
192
0
VERTEX
8
OBJECT__59
10
139.098007
20
22.159000
30
57.426998
70
192
0
VERTEX
8
OBJECT__59
10
139.091003
20
22.202000
30
57.402000
70
192
0
VERTEX
8
OBJECT__59
10
139.106995
20
22.089001
30
65.239998
70
192
0
VERTEX
8
OBJECT__59
10
139.106995
20
22.052999
30
57.488998
70
192
0
VERTEX
8
OBJECT__59
10
138.119995
20
14.968000
30
79.484001
70
192
0
VERTEX
8
OBJECT__59
10
139.091003
20
7.552000
30
82.777000
70
192
0
VERTEX
8
OBJECT__59
10
139.106995
20
7.553000
30
82.603996
70
192
0
VERTEX
8
OBJECT__59
10
138.119995
20
7.826000
30
83.550003
70
192
0
VERTEX
8
OBJECT__59
10
139.106995
20
14.283000
30
78.760002
70
192
0
VERTEX
8
OBJECT__59
10
138.119995
20
23.009001
30
57.252998
70
192
0
VERTEX
8
OBJECT__59
10
0
20
0
30
0
70
128
71
1
72
2
73
3
0
VERTEX
8
OBJECT__59
10
0
20
0
30
0
70
128
71
3
72
4
73
1
0
VERTEX
8
OBJECT__59
10
0
20
0
30
0
70
128
71
1
72
5
73
6
0
VERTEX
8
OBJECT__59
10
0
20
0
30
0
70
128
71
5
72
7
73
6
0
VERTEX
8
OBJECT__59
10
0
20
0
30
0
70
128
71
7
72
8
73
9
0
VERTEX
8
OBJECT__59
10
0
20
0
30
0
70
128
71
7
72
10
73
11
0
VERTEX
8
OBJECT__59
10
0
20
0
30
0
70
128
71
11
72
8
73
7
0
VERTEX
8
OBJECT__59
10
0
20
0
30
0
70
128
71
7
72
5
73
10
0
VERTEX
8
OBJECT__59
10
0
20
0
30
0
70
128
71
12
72
13
73
14
0
VERTEX
8
OBJECT__59
10
0
20
0
30
0
70
128
71
12
72
15
73
13
0
VERTEX
8
OBJECT__59
10
0
20
0
30
0
70
128
71
14
72
16
73
12
0
VERTEX
8
OBJECT__59
10
0
20
0
30
0
70
128
71
16
72
4
73
12
0
VERTEX
8
OBJECT__59
10
0
20
0
30
0
70
128
71
9
72
17
73
7
0
VERTEX
8
OBJECT__59
10
0
20
0
30
0
70
128
71
6
72
2
73
1
0
VERTEX
8
OBJECT__59
10
0
20
0
30
0
70
128
71
3
72
12
73
4
0
SEQEND
8
OBJECT__59
0
POLYLINE
8
OBJECT__60
66
1
70
64
71
15
72
13
62
253
0
VERTEX
8
OBJECT__60
10
138.100006
20
9.175000
30
66.796997
70
192
0
VERTEX
8
OBJECT__60
10
138.100006
20
13.750000
30
62.222000
70
192
0
VERTEX
8
OBJECT__60
10
139.240005
20
12.194000
30
63.493000
70
192
0
VERTEX
8
OBJECT__60
10
139.235001
20
12.907000
30
62.826000
70
192
0
VERTEX
8
OBJECT__60
10
139.227005
20
13.779000
30
62.272999
70
192
0
VERTEX
8
OBJECT__60
10
139.229996
20
13.413000
30
62.493000
70
192
0
VERTEX
8
OBJECT__60
10
139.253998
20
10.290000
30
65.271004
70
192
0
VERTEX
8
OBJECT__60
10
139.255005
20
9.923000
30
65.753998
70
192
0
VERTEX
8
OBJECT__60
10
138.100006
20
7.500000
30
73.046997
70
192
0
VERTEX
8
OBJECT__60
10
139.250000
20
8.076000
30
69.502998
70
192
0
VERTEX
8
OBJECT__60
10
139.240005
20
7.840000
30
71.119003
70
192
0
VERTEX
8
OBJECT__60
10
139.253006
20
8.263000
30
68.927002
70
192
0
VERTEX
8
OBJECT__60
10
139.253998
20
9.332000
30
66.882004
70
192
0
VERTEX
8
OBJECT__60
10
139.253998
20
9.327000
30
66.891998
70
192
0
VERTEX
8
OBJECT__60
10
139.227005
20
7.559000
30
73.046997
70
192
0
VERTEX
8
OBJECT__60
10
0
20
0
30
0
70
128
71
1
72
2
73
3
0
VERTEX
8
OBJECT__60
10
0
20
0
30
0
70
128
71
2
72
4
73
3
0
VERTEX
8
OBJECT__60
10
0
20
0
30
0
70
128
71
2
72
5
73
6
0
VERTEX
8
OBJECT__60
10
0
20
0
30
0
70
128
71
6
72
4
73
2
0
VERTEX
8
OBJECT__60
10
0
20
0
30
0
70
128
71
3
72
7
73
1
0
VERTEX
8
OBJECT__60
10
0
20
0
30
0
70
128
71
7
72
8
73
1
0
VERTEX
8
OBJECT__60
10
0
20
0
30
0
70
128
71
9
72
1
73
10
0
VERTEX
8
OBJECT__60
10
0
20
0
30
0
70
128
71
10
72
11
73
9
0
VERTEX
8
OBJECT__60
10
0
20
0
30
0
70
128
71
1
72
12
73
10
0
VERTEX
8
OBJECT__60
10
0
20
0
30
0
70
128
71
1
72
13
73
14
0
VERTEX
8
OBJECT__60
10
0
20
0
30
0
70
128
71
14
72
12
73
1
0
VERTEX
8
OBJECT__60
10
0
20
0
30
0
70
128
71
11
72
15
73
9
0
VERTEX
8
OBJECT__60
10
0
20
0
30
0
70
128
71
8
72
13
73
1
0
SEQEND
8
OBJECT__60
0
POLYLINE
8
OBJECT__61
66
1
70
64
71
20
72
19
62
253
0
VERTEX
8
OBJECT__61
10
139.106995
20
14.283000
30
78.760002
70
192
0
VERTEX
8
OBJECT__61
10
139.106995
20
7.553000
30
82.603996
70
192
0
VERTEX
8
OBJECT__61
10
139.227005
20
7.559000
30
73.046997
70
192
0
VERTEX
8
OBJECT__61
10
139.106995
20
19.412001
30
72.707001
70
192
0
VERTEX
8
OBJECT__61
10
139.250000
20
8.076000
30
69.502998
70
192
0
VERTEX
8
OBJECT__61
10
139.253006
20
8.263000
30
68.927002
70
192
0
VERTEX
8
OBJECT__61
10
139.106995
20
14.339000
30
78.727997
70
192
0
VERTEX
8
OBJECT__61
10
139.240005
20
7.840000
30
71.119003
70
192
0
VERTEX
8
OBJECT__61
10
139.255005
20
9.923000
30
65.753998
70
192
0
VERTEX
8
OBJECT__61
10
139.253998
20
10.290000
30
65.271004
70
192
0
VERTEX
8
OBJECT__61
10
139.255005
20
9.844000
30
66.100998
70
192
0
VERTEX
8
OBJECT__61
10
139.240005
20
12.194000
30
63.493000
70
192
0
VERTEX
8
OBJECT__61
10
139.106995
20
22.089001
30
65.239998
70
192
0
VERTEX
8
OBJECT__61
10
139.106995
20
22.090000
30
65.304001
70
192
0
VERTEX
8
OBJECT__61
10
139.253998
20
9.327000
30
66.891998
70
192
0
VERTEX
8
OBJECT__61
10
139.253998
20
9.332000
30
66.882004
70
192
0
VERTEX
8
OBJECT__61
10
139.235001
20
12.907000
30
62.826000
70
192
0
VERTEX
8
OBJECT__61
10
139.229996
20
13.413000
30
62.493000
70
192
0
VERTEX
8
OBJECT__61
10
139.227005
20
13.779000
30
62.272999
70
192
0
VERTEX
8
OBJECT__61
10
139.106995
20
22.052999
30
57.488998
70
192
0
VERTEX
8
OBJECT__61
10
0
20
0
30
0
70
128
71
1
72
2
73
3
0
VERTEX
8
OBJECT__61
10
0
20
0
30
0
70
128
71
4
72
5
73
6
0
VERTEX
8
OBJECT__61
10
0
20
0
30
0
70
128
71
4
72
7
73
8
0
VERTEX
8
OBJECT__61
10
0
20
0
30
0
70
128
71
8
72
5
73
4
0
VERTEX
8
OBJECT__61
10
0
20
0
30
0
70
128
71
7
72
1
73
8
0
VERTEX
8
OBJECT__61
10
0
20
0
30
0
70
128
71
9
72
10
73
11
0
VERTEX
8
OBJECT__61
10
0
20
0
30
0
70
128
71
4
72
10
73
12
0
VERTEX
8
OBJECT__61
10
0
20
0
30
0
70
128
71
12
72
13
73
14
0
VERTEX
8
OBJECT__61
10
0
20
0
30
0
70
128
71
4
72
11
73
10
0
VERTEX
8
OBJECT__61
10
0
20
0
30
0
70
128
71
4
72
15
73
16
0
VERTEX
8
OBJECT__61
10
0
20
0
30
0
70
128
71
16
72
11
73
4
0
VERTEX
8
OBJECT__61
10
0
20
0
30
0
70
128
71
12
72
14
73
4
0
VERTEX
8
OBJECT__61
10
0
20
0
30
0
70
128
71
11
72
16
73
9
0
VERTEX
8
OBJECT__61
10
0
20
0
30
0
70
128
71
13
72
12
73
17
0
VERTEX
8
OBJECT__61
10
0
20
0
30
0
70
128
71
17
72
18
73
13
0
VERTEX
8
OBJECT__61
10
0
20
0
30
0
70
128
71
18
72
19
73
13
0
VERTEX
8
OBJECT__61
10
0
20
0
30
0
70
128
71
19
72
20
73
13
0
VERTEX
8
OBJECT__61
10
0
20
0
30
0
70
128
71
6
72
15
73
4
0
VERTEX
8
OBJECT__61
10
0
20
0
30
0
70
128
71
3
72
8
73
1
0
SEQEND
8
OBJECT__61
0
POLYLINE
8
OBJECT__62
66
1
70
64
71
12
72
10
62
253
0
VERTEX
8
OBJECT__62
10
92.099998
20
-8.019000
30
88.433998
70
192
0
VERTEX
8
OBJECT__62
10
138.100006
20
-7.425000
30
87.978996
70
192
0
VERTEX
8
OBJECT__62
10
96.744003
20
-1.749000
30
89.487000
70
192
0
VERTEX
8
OBJECT__62
10
138.100006
20
0.000000
30
89.000000
70
192
0
VERTEX
8
OBJECT__62
10
96.786003
20
-1.260000
30
89.513000
70
192
0
VERTEX
8
OBJECT__62
10
96.786003
20
0.000000
30
89.513000
70
192
0
VERTEX
8
OBJECT__62
10
138.100006
20
7.425000
30
87.978996
70
192
0
VERTEX
8
OBJECT__62
10
96.744003
20
1.749000
30
89.487000
70
192
0
VERTEX
8
OBJECT__62
10
96.786003
20
1.260000
30
89.513000
70
192
0
VERTEX
8
OBJECT__62
10
92.099998
20
8.019000
30
88.433998
70
192
0
VERTEX
8
OBJECT__62
10
92.099998
20
1.750000
30
89.547997
70
192
0
VERTEX
8
OBJECT__62
10
92.099998
20
-1.750000
30
89.547997
70
192
0
VERTEX
8
OBJECT__62
10
0
20
0
30
0
70
128
71
1
72
2
73
3
0
VERTEX
8
OBJECT__62
10
0
20
0
30
0
70
128
71
2
72
4
73
5
0
VERTEX
8
OBJECT__62
10
0
20
0
30
0
70
128
71
4
72
6
73
5
0
VERTEX
8
OBJECT__62
10
0
20
0
30
0
70
128
71
5
72
3
73
2
0
VERTEX
8
OBJECT__62
10
0
20
0
30
0
70
128
71
7
72
8
73
9
0
VERTEX
8
OBJECT__62
10
0
20
0
30
0
70
128
71
9
72
4
73
7
0
VERTEX
8
OBJECT__62
10
0
20
0
30
0
70
128
71
10
72
11
73
8
0
VERTEX
8
OBJECT__62
10
0
20
0
30
0
70
128
71
8
72
7
73
10
0
VERTEX
8
OBJECT__62
10
0
20
0
30
0
70
128
71
9
72
6
73
4
0
VERTEX
8
OBJECT__62
10
0
20
0
30
0
70
128
71
3
72
12
73
1
0
SEQEND
8
OBJECT__62
0
POLYLINE
8
OBJECT__63
66
1
70
64
71
7
72
5
62
253
0
VERTEX
8
OBJECT__63
10
92.099998
20
1.726000
30
88.200996
70
192
0
VERTEX
8
OBJECT__63
10
96.786003
20
0.000000
30
89.513000
70
192
0
VERTEX
8
OBJECT__63
10
96.786003
20
1.260000
30
89.513000
70
192
0
VERTEX
8
OBJECT__63
10
92.099998
20
-1.726000
30
88.200996
70
192
0
VERTEX
8
OBJECT__63
10
96.786003
20
-1.260000
30
89.513000
70
192
0
VERTEX
8
OBJECT__63
10
96.744003
20
-1.749000
30
89.487000
70
192
0
VERTEX
8
OBJECT__63
10
96.744003
20
1.749000
30
89.487000
70
192
0
VERTEX
8
OBJECT__63
10
0
20
0
30
0
70
128
71
1
72
2
73
3
0
VERTEX
8
OBJECT__63
10
0
20
0
30
0
70
128
71
4
72
5
73
2
0
VERTEX
8
OBJECT__63
10
0
20
0
30
0
70
128
71
4
72
6
73
5
0
VERTEX
8
OBJECT__63
10
0
20
0
30
0
70
128
71
2
72
1
73
4
0
VERTEX
8
OBJECT__63
10
0
20
0
30
0
70
128
71
3
72
7
73
1
0
SEQEND
8
OBJECT__63
0
POLYLINE
8
OBJECT__64
66
1
70
64
71
3
72
1
62
253
0
VERTEX
8
OBJECT__64
10
92.099998
20
-1.726000
30
88.200996
70
192
0
VERTEX
8
OBJECT__64
10
92.099998
20
-1.750000
30
89.547997
70
192
0
VERTEX
8
OBJECT__64
10
96.744003
20
-1.749000
30
89.487000
70
192
0
VERTEX
8
OBJECT__64
10
0
20
0
30
0
70
128
71
1
72
2
73
3
0
SEQEND
8
OBJECT__64
0
POLYLINE
8
OBJECT__65
66
1
70
64
71
3
72
1
62
253
0
VERTEX
8
OBJECT__65
10
92.099998
20
1.750000
30
89.547997
70
192
0
VERTEX
8
OBJECT__65
10
92.099998
20
1.726000
30
88.200996
70
192
0
VERTEX
8
OBJECT__65
10
96.744003
20
1.749000
30
89.487000
70
192
0
VERTEX
8
OBJECT__65
10
0
20
0
30
0
70
128
71
1
72
2
73
3
0
SEQEND
8
OBJECT__65
0
POLYLINE
8
OBJECT__66
66
1
70
64
71
15
72
13
62
253
0
VERTEX
8
OBJECT__66
10
138.707001
20
0.000000
30
-45.916000
70
192
0
VERTEX
8
OBJECT__66
10
137.720001
20
0.000000
30
-46.898998
70
192
0
VERTEX
8
OBJECT__66
10
137.720001
20
5.571000
30
-45.870998
70
192
0
VERTEX
8
OBJECT__66
10
138.707001
20
7.806000
30
-44.476002
70
192
0
VERTEX
8
OBJECT__66
10
137.720001
20
8.346000
30
-45.359001
70
192
0
VERTEX
8
OBJECT__66
10
138.707001
20
7.996000
30
-44.441002
70
192
0
VERTEX
8
OBJECT__66
10
138.707001
20
-7.806000
30
-44.476002
70
192
0
VERTEX
8
OBJECT__66
10
137.720001
20
-5.571000
30
-45.870998
70
192
0
VERTEX
8
OBJECT__66
10
137.720001
20
-8.346000
30
-45.359001
70
192
0
VERTEX
8
OBJECT__66
10
137.720001
20
15.443000
30
-41.077999
70
192
0
VERTEX
8
OBJECT__66
10
138.707001
20
14.500000
30
-40.594002
70
192
0
VERTEX
8
OBJECT__66
10
138.707001
20
-7.996000
30
-44.441002
70
192
0
VERTEX
8
OBJECT__66
10
138.707001
20
-14.500000
30
-40.594002
70
192
0
VERTEX
8
OBJECT__66
10
138.677002
20
-14.708000
30
-40.712002
70
192
0
VERTEX
8
OBJECT__66
10
137.720001
20
-15.443000
30
-41.077999
70
192
0
VERTEX
8
OBJECT__66
10
0
20
0
30
0
70
128
71
1
72
2
73
3
0
VERTEX
8
OBJECT__66
10
0
20
0
30
0
70
128
71
3
72
4
73
1
0
VERTEX
8
OBJECT__66
10
0
20
0
30
0
70
128
71
5
72
6
73
4
0
VERTEX
8
OBJECT__66
10
0
20
0
30
0
70
128
71
1
72
7
73
8
0
VERTEX
8
OBJECT__66
10
0
20
0
30
0
70
128
71
7
72
9
73
8
0
VERTEX
8
OBJECT__66
10
0
20
0
30
0
70
128
71
8
72
2
73
1
0
VERTEX
8
OBJECT__66
10
0
20
0
30
0
70
128
71
5
72
10
73
11
0
VERTEX
8
OBJECT__66
10
0
20
0
30
0
70
128
71
9
72
12
73
13
0
VERTEX
8
OBJECT__66
10
0
20
0
30
0
70
128
71
13
72
14
73
9
0
VERTEX
8
OBJECT__66
10
0
20
0
30
0
70
128
71
14
72
15
73
9
0
VERTEX
8
OBJECT__66
10
0
20
0
30
0
70
128
71
11
72
6
73
5
0
VERTEX
8
OBJECT__66
10
0
20
0
30
0
70
128
71
7
72
12
73
9
0
VERTEX
8
OBJECT__66
10
0
20
0
30
0
70
128
71
3
72
5
73
4
0
SEQEND
8
OBJECT__66
0
POLYLINE
8
OBJECT__67
66
1
70
64
71
20
72
19
62
253
0
VERTEX
8
OBJECT__67
10
138.826996
20
6.220000
30
-35.820999
70
192
0
VERTEX
8
OBJECT__67
10
138.707001
20
7.806000
30
-44.476002
70
192
0
VERTEX
8
OBJECT__67
10
138.707001
20
7.996000
30
-44.441002
70
192
0
VERTEX
8
OBJECT__67
10
138.707001
20
14.500000
30
-40.594002
70
192
0
VERTEX
8
OBJECT__67
10
138.707001
20
0.000000
30
-45.916000
70
192
0
VERTEX
8
OBJECT__67
10
138.850006
20
2.893000
30
-34.495998
70
192
0
VERTEX
8
OBJECT__67
10
138.852005
20
2.334000
30
-34.375999
70
192
0
VERTEX
8
OBJECT__67
10
138.839996
20
4.411000
30
-35.099998
70
192
0
VERTEX
8
OBJECT__67
10
138.854996
20
-1.244000
30
-34.217999
70
192
0
VERTEX
8
OBJECT__67
10
138.854004
20
-1.845000
30
-34.292999
70
192
0
VERTEX
8
OBJECT__67
10
138.854996
20
-0.921000
30
-34.321999
70
192
0
VERTEX
8
OBJECT__67
10
138.839996
20
-4.369000
30
-35.054001
70
192
0
VERTEX
8
OBJECT__67
10
138.854004
20
0.006000
30
-34.272999
70
192
0
VERTEX
8
OBJECT__67
10
138.854004
20
-0.005000
30
-34.272999
70
192
0
VERTEX
8
OBJECT__67
10
138.707001
20
-7.806000
30
-44.476002
70
192
0
VERTEX
8
OBJECT__67
10
138.826996
20
-6.220000
30
-35.820999
70
192
0
VERTEX
8
OBJECT__67
10
138.707001
20
-14.500000
30
-40.594002
70
192
0
VERTEX
8
OBJECT__67
10
138.707001
20
-7.996000
30
-44.441002
70
192
0
VERTEX
8
OBJECT__67
10
138.835999
20
-5.274000
30
-35.327999
70
192
0
VERTEX
8
OBJECT__67
10
138.830994
20
-5.817000
30
-35.598000
70
192
0
VERTEX
8
OBJECT__67
10
0
20
0
30
0
70
128
71
1
72
2
73
3
0
VERTEX
8
OBJECT__67
10
0
20
0
30
0
70
128
71
3
72
4
73
1
0
VERTEX
8
OBJECT__67
10
0
20
0
30
0
70
128
71
5
72
6
73
7
0
VERTEX
8
OBJECT__67
10
0
20
0
30
0
70
128
71
5
72
2
73
8
0
VERTEX
8
OBJECT__67
10
0
20
0
30
0
70
128
71
8
72
6
73
5
0
VERTEX
8
OBJECT__67
10
0
20
0
30
0
70
128
71
9
72
10
73
11
0
VERTEX
8
OBJECT__67
10
0
20
0
30
0
70
128
71
5
72
10
73
12
0
VERTEX
8
OBJECT__67
10
0
20
0
30
0
70
128
71
5
72
11
73
10
0
VERTEX
8
OBJECT__67
10
0
20
0
30
0
70
128
71
5
72
13
73
14
0
VERTEX
8
OBJECT__67
10
0
20
0
30
0
70
128
71
14
72
11
73
5
0
VERTEX
8
OBJECT__67
10
0
20
0
30
0
70
128
71
12
72
15
73
5
0
VERTEX
8
OBJECT__67
10
0
20
0
30
0
70
128
71
11
72
14
73
9
0
VERTEX
8
OBJECT__67
10
0
20
0
30
0
70
128
71
16
72
17
73
18
0
VERTEX
8
OBJECT__67
10
0
20
0
30
0
70
128
71
15
72
12
73
19
0
VERTEX
8
OBJECT__67
10
0
20
0
30
0
70
128
71
19
72
20
73
15
0
VERTEX
8
OBJECT__67
10
0
20
0
30
0
70
128
71
20
72
16
73
15
0
VERTEX
8
OBJECT__67
10
0
20
0
30
0
70
128
71
18
72
15
73
16
0
VERTEX
8
OBJECT__67
10
0
20
0
30
0
70
128
71
7
72
13
73
5
0
VERTEX
8
OBJECT__67
10
0
20
0
30
0
70
128
71
1
72
8
73
2
0
SEQEND
8
OBJECT__67
0
POLYLINE
8
OBJECT__69
66
1
70
64
71
15
72
13
62
253
0
VERTEX
8
OBJECT__69
10
137.699997
20
0.000000
30
-34.095001
70
192
0
VERTEX
8
OBJECT__69
10
137.699997
20
-6.250000
30
-35.770000
70
192
0
VERTEX
8
OBJECT__69
10
138.839996
20
-4.369000
30
-35.054001
70
192
0
VERTEX
8
OBJECT__69
10
138.835999
20
-5.274000
30
-35.327999
70
192
0
VERTEX
8
OBJECT__69
10
138.826996
20
-6.220000
30
-35.820999
70
192
0
VERTEX
8
OBJECT__69
10
138.830994
20
-5.817000
30
-35.598000
70
192
0
VERTEX
8
OBJECT__69
10
138.854004
20
-1.845000
30
-34.292999
70
192
0
VERTEX
8
OBJECT__69
10
138.854996
20
-1.244000
30
-34.217999
70
192
0
VERTEX
8
OBJECT__69
10
137.699997
20
6.250000
30
-35.770000
70
192
0
VERTEX
8
OBJECT__69
10
138.850006
20
2.893000
30
-34.495998
70
192
0
VERTEX
8
OBJECT__69
10
138.839996
20
4.411000
30
-35.099998
70
192
0
VERTEX
8
OBJECT__69
10
138.852005
20
2.334000
30
-34.375999
70
192
0
VERTEX
8
OBJECT__69
10
138.854004
20
-0.005000
30
-34.272999
70
192
0
VERTEX
8
OBJECT__69
10
138.854004
20
0.006000
30
-34.272999
70
192
0
VERTEX
8
OBJECT__69
10
138.826996
20
6.220000
30
-35.820999
70
192
0
VERTEX
8
OBJECT__69
10
0
20
0
30
0
70
128
71
1
72
2
73
3
0
VERTEX
8
OBJECT__69
10
0
20
0
30
0
70
128
71
2
72
4
73
3
0
VERTEX
8
OBJECT__69
10
0
20
0
30
0
70
128
71
2
72
5
73
6
0
VERTEX
8
OBJECT__69
10
0
20
0
30
0
70
128
71
6
72
4
73
2
0
VERTEX
8
OBJECT__69
10
0
20
0
30
0
70
128
71
3
72
7
73
1
0
VERTEX
8
OBJECT__69
10
0
20
0
30
0
70
128
71
7
72
8
73
1
0
VERTEX
8
OBJECT__69
10
0
20
0
30
0
70
128
71
9
72
1
73
10
0
VERTEX
8
OBJECT__69
10
0
20
0
30
0
70
128
71
10
72
11
73
9
0
VERTEX
8
OBJECT__69
10
0
20
0
30
0
70
128
71
1
72
12
73
10
0
VERTEX
8
OBJECT__69
10
0
20
0
30
0
70
128
71
1
72
13
73
14
0
VERTEX
8
OBJECT__69
10
0
20
0
30
0
70
128
71
14
72
12
73
1
0
VERTEX
8
OBJECT__69
10
0
20
0
30
0
70
128
71
11
72
15
73
9
0
VERTEX
8
OBJECT__69
10
0
20
0
30
0
70
128
71
8
72
13
73
1
0
SEQEND
8
OBJECT__69
0
POLYLINE
8
OBJECT__70
66
1
70
64
71
13
72
11
62
253
0
VERTEX
8
OBJECT__70
10
91.699997
20
-5.779000
30
-46.794998
70
192
0
VERTEX
8
OBJECT__70
10
91.699997
20
5.779000
30
-46.794998
70
192
0
VERTEX
8
OBJECT__70
10
137.720001
20
0.000000
30
-46.898998
70
192
0
VERTEX
8
OBJECT__70
10
137.720001
20
5.571000
30
-45.870998
70
192
0
VERTEX
8
OBJECT__70
10
91.699997
20
-15.519000
30
-41.807999
70
192
0
VERTEX
8
OBJECT__70
10
137.720001
20
-8.346000
30
-45.359001
70
192
0
VERTEX
8
OBJECT__70
10
137.720001
20
-15.443000
30
-41.077999
70
192
0
VERTEX
8
OBJECT__70
10
137.699997
20
-15.444000
30
-41.077999
70
192
0
VERTEX
8
OBJECT__70
10
137.720001
20
-5.571000
30
-45.870998
70
192
0
VERTEX
8
OBJECT__70
10
91.699997
20
15.519000
30
-41.807999
70
192
0
VERTEX
8
OBJECT__70
10
137.699997
20
15.444000
30
-41.077999
70
192
0
VERTEX
8
OBJECT__70
10
137.720001
20
8.346000
30
-45.359001
70
192
0
VERTEX
8
OBJECT__70
10
137.720001
20
15.443000
30
-41.077999
70
192
0
VERTEX
8
OBJECT__70
10
0
20
0
30
0
70
128
71
1
72
2
73
3
0
VERTEX
8
OBJECT__70
10
0
20
0
30
0
70
128
71
2
72
4
73
3
0
VERTEX
8
OBJECT__70
10
0
20
0
30
0
70
128
71
5
72
1
73
6
0
VERTEX
8
OBJECT__70
10
0
20
0
30
0
70
128
71
6
72
7
73
8
0
VERTEX
8
OBJECT__70
10
0
20
0
30
0
70
128
71
1
72
9
73
6
0
VERTEX
8
OBJECT__70
10
0
20
0
30
0
70
128
71
10
72
11
73
12
0
VERTEX
8
OBJECT__70
10
0
20
0
30
0
70
128
71
12
72
2
73
10
0
VERTEX
8
OBJECT__70
10
0
20
0
30
0
70
128
71
11
72
13
73
12
0
VERTEX
8
OBJECT__70
10
0
20
0
30
0
70
128
71
12
72
4
73
2
0
VERTEX
8
OBJECT__70
10
0
20
0
30
0
70
128
71
6
72
8
73
5
0
VERTEX
8
OBJECT__70
10
0
20
0
30
0
70
128
71
3
72
9
73
1
0
SEQEND
8
OBJECT__70
0
POLYLINE
8
OBJECT__71
66
1
70
64
71
4
72
2
62
253
0
VERTEX
8
OBJECT__71
10
91.699997
20
15.519000
30
-41.807999
70
192
0
VERTEX
8
OBJECT__71
10
91.699997
20
19.316000
30
-43.911999
70
192
0
VERTEX
8
OBJECT__71
10
137.699997
20
19.219000
30
-43.169998
70
192
0
VERTEX
8
OBJECT__71
10
137.699997
20
15.444000
30
-41.077999
70
192
0
VERTEX
8
OBJECT__71
10
0
20
0
30
0
70
128
71
1
72
2
73
3
0
VERTEX
8
OBJECT__71
10
0
20
0
30
0
70
128
71
3
72
4
73
1
0
SEQEND
8
OBJECT__71
0
POLYLINE
8
OBJECT__72
66
1
70
64
71
6
72
4
62
253
0
VERTEX
8
OBJECT__72
10
91.699997
20
24.337000
30
-37.551998
70
192
0
VERTEX
8
OBJECT__72
10
137.699997
20
23.816000
30
-37.250999
70
192
0
VERTEX
8
OBJECT__72
10
137.699997
20
19.219000
30
-43.169998
70
192
0
VERTEX
8
OBJECT__72
10
91.699997
20
27.334999
30
-30.023001
70
192
0
VERTEX
8
OBJECT__72
10
137.699997
20
26.643999
30
-30.309999
70
192
0
VERTEX
8
OBJECT__72
10
91.699997
20
19.316000
30
-43.911999
70
192
0
VERTEX
8
OBJECT__72
10
0
20
0
30
0
70
128
71
1
72
2
73
3
0
VERTEX
8
OBJECT__72
10
0
20
0
30
0
70
128
71
1
72
4
73
5
0
VERTEX
8
OBJECT__72
10
0
20
0
30
0
70
128
71
5
72
2
73
1
0
VERTEX
8
OBJECT__72
10
0
20
0
30
0
70
128
71
3
72
6
73
1
0
SEQEND
8
OBJECT__72
0
POLYLINE
8
OBJECT__73
66
1
70
64
71
4
72
2
62
253
0
VERTEX
8
OBJECT__73
10
91.699997
20
23.614000
30
-27.788000
70
192
0
VERTEX
8
OBJECT__73
10
137.699997
20
22.944000
30
-28.087000
70
192
0
VERTEX
8
OBJECT__73
10
137.699997
20
26.643999
30
-30.309999
70
192
0
VERTEX
8
OBJECT__73
10
91.699997
20
27.334999
30
-30.023001
70
192
0
VERTEX
8
OBJECT__73
10
0
20
0
30
0
70
128
71
1
72
2
73
3
0
VERTEX
8
OBJECT__73
10
0
20
0
30
0
70
128
71
3
72
4
73
1
0
SEQEND
8
OBJECT__73
0
POLYLINE
8
OBJECT__74
66
1
70
64
71
4
72
2
62
253
0
VERTEX
8
OBJECT__74
10
91.699997
20
-15.519000
30
-41.807999
70
192
0
VERTEX
8
OBJECT__74
10
137.699997
20
-15.444000
30
-41.077999
70
192
0
VERTEX
8
OBJECT__74
10
137.699997
20
-19.219000
30
-43.169998
70
192
0
VERTEX
8
OBJECT__74
10
91.699997
20
-19.316000
30
-43.911999
70
192
0
VERTEX
8
OBJECT__74
10
0
20
0
30
0
70
128
71
1
72
2
73
3
0
VERTEX
8
OBJECT__74
10
0
20
0
30
0
70
128
71
3
72
4
73
1
0
SEQEND
8
OBJECT__74
0
POLYLINE
8
OBJECT__75
66
1
70
64
71
6
72
4
62
253
0
VERTEX
8
OBJECT__75
10
91.699997
20
-24.337000
30
-37.551998
70
192
0
VERTEX
8
OBJECT__75
10
137.699997
20
-23.816000
30
-37.250999
70
192
0
VERTEX
8
OBJECT__75
10
137.699997
20
-26.643999
30
-30.309999
70
192
0
VERTEX
8
OBJECT__75
10
91.699997
20
-19.316000
30
-43.911999
70
192
0
VERTEX
8
OBJECT__75
10
137.699997
20
-19.219000
30
-43.169998
70
192
0
VERTEX
8
OBJECT__75
10
91.699997
20
-27.334999
30
-30.023001
70
192
0
VERTEX
8
OBJECT__75
10
0
20
0
30
0
70
128
71
1
72
2
73
3
0
VERTEX
8
OBJECT__75
10
0
20
0
30
0
70
128
71
1
72
4
73
5
0
VERTEX
8
OBJECT__75
10
0
20
0
30
0
70
128
71
5
72
2
73
1
0
VERTEX
8
OBJECT__75
10
0
20
0
30
0
70
128
71
3
72
6
73
1
0
SEQEND
8
OBJECT__75
0
POLYLINE
8
OBJECT__76
66
1
70
64
71
4
72
2
62
253
0
VERTEX
8
OBJECT__76
10
91.699997
20
-23.614000
30
-27.788000
70
192
0
VERTEX
8
OBJECT__76
10
91.699997
20
-27.334999
30
-30.023001
70
192
0
VERTEX
8
OBJECT__76
10
137.699997
20
-26.643999
30
-30.309999
70
192
0
VERTEX
8
OBJECT__76
10
137.699997
20
-22.944000
30
-28.087000
70
192
0
VERTEX
8
OBJECT__76
10
0
20
0
30
0
70
128
71
1
72
2
73
3
0
VERTEX
8
OBJECT__76
10
0
20
0
30
0
70
128
71
3
72
4
73
1
0
SEQEND
8
OBJECT__76
0
POLYLINE
8
OBJECT__77
66
1
70
64
71
13
72
11
62
253
0
VERTEX
8
OBJECT__77
10
91.699997
20
17.284000
30
-6.849000
70
192
0
VERTEX
8
OBJECT__77
10
137.720001
20
16.587000
30
-7.491000
70
192
0
VERTEX
8
OBJECT__77
10
137.720001
20
20.263000
30
-11.802000
70
192
0
VERTEX
8
OBJECT__77
10
91.699997
20
23.063000
30
-16.858999
70
192
0
VERTEX
8
OBJECT__77
10
91.699997
20
23.614000
30
-27.788000
70
192
0
VERTEX
8
OBJECT__77
10
137.720001
20
23.103001
30
-19.799999
70
192
0
VERTEX
8
OBJECT__77
10
137.720001
20
22.944000
30
-28.086000
70
192
0
VERTEX
8
OBJECT__77
10
137.699997
20
22.944000
30
-28.087000
70
192
0
VERTEX
8
OBJECT__77
10
137.720001
20
22.159000
30
-17.141001
70
192
0
VERTEX
8
OBJECT__77
10
91.699997
20
8.095000
30
-0.907000
70
192
0
VERTEX
8
OBJECT__77
10
137.699997
20
7.500000
30
-1.338000
70
192
0
VERTEX
8
OBJECT__77
10
137.720001
20
14.757000
30
-5.344000
70
192
0
VERTEX
8
OBJECT__77
10
137.720001
20
7.501000
30
-1.338000
70
192
0
VERTEX
8
OBJECT__77
10
0
20
0
30
0
70
128
71
1
72
2
73
3
0
VERTEX
8
OBJECT__77
10
0
20
0
30
0
70
128
71
3
72
4
73
1
0
VERTEX
8
OBJECT__77
10
0
20
0
30
0
70
128
71
5
72
4
73
6
0
VERTEX
8
OBJECT__77
10
0
20
0
30
0
70
128
71
6
72
7
73
8
0
VERTEX
8
OBJECT__77
10
0
20
0
30
0
70
128
71
4
72
9
73
6
0
VERTEX
8
OBJECT__77
10
0
20
0
30
0
70
128
71
10
72
11
73
12
0
VERTEX
8
OBJECT__77
10
0
20
0
30
0
70
128
71
12
72
1
73
10
0
VERTEX
8
OBJECT__77
10
0
20
0
30
0
70
128
71
11
72
13
73
12
0
VERTEX
8
OBJECT__77
10
0
20
0
30
0
70
128
71
12
72
2
73
1
0
VERTEX
8
OBJECT__77
10
0
20
0
30
0
70
128
71
6
72
8
73
5
0
VERTEX
8
OBJECT__77
10
0
20
0
30
0
70
128
71
3
72
9
73
4
0
SEQEND
8
OBJECT__77
0
POLYLINE
8
OBJECT__78
66
1
70
64
71
16
72
14
62
253
0
VERTEX
8
OBJECT__78
10
138.707001
20
19.412001
30
-12.293000
70
192
0
VERTEX
8
OBJECT__78
10
137.720001
20
20.263000
30
-11.802000
70
192
0
VERTEX
8
OBJECT__78
10
137.720001
20
16.587000
30
-7.491000
70
192
0
VERTEX
8
OBJECT__78
10
138.707001
20
14.262000
30
-6.253000
70
192
0
VERTEX
8
OBJECT__78
10
137.720001
20
14.757000
30
-5.344000
70
192
0
VERTEX
8
OBJECT__78
10
138.707001
20
14.137000
30
-6.106000
70
192
0
VERTEX
8
OBJECT__78
10
138.707001
20
22.068001
30
-19.773001
70
192
0
VERTEX
8
OBJECT__78
10
137.720001
20
22.159000
30
-17.141001
70
192
0
VERTEX
8
OBJECT__78
10
137.720001
20
23.103001
30
-19.799999
70
192
0
VERTEX
8
OBJECT__78
10
137.839996
20
7.507000
30
-1.350000
70
192
0
VERTEX
8
OBJECT__78
10
138.707001
20
7.553000
30
-2.397000
70
192
0
VERTEX
8
OBJECT__78
10
137.720001
20
7.501000
30
-1.338000
70
192
0
VERTEX
8
OBJECT__78
10
138.707001
20
22.132999
30
-19.955000
70
192
0
VERTEX
8
OBJECT__78
10
138.707001
20
22.052999
30
-27.511999
70
192
0
VERTEX
8
OBJECT__78
10
138.677002
20
22.259001
30
-27.632999
70
192
0
VERTEX
8
OBJECT__78
10
137.720001
20
22.944000
30
-28.086000
70
192
0
VERTEX
8
OBJECT__78
10
0
20
0
30
0
70
128
71
1
72
2
73
3
0
VERTEX
8
OBJECT__78
10
0
20
0
30
0
70
128
71
3
72
4
73
1
0
VERTEX
8
OBJECT__78
10
0
20
0
30
0
70
128
71
5
72
6
73
4
0
VERTEX
8
OBJECT__78
10
0
20
0
30
0
70
128
71
1
72
7
73
8
0
VERTEX
8
OBJECT__78
10
0
20
0
30
0
70
128
71
7
72
9
73
8
0
VERTEX
8
OBJECT__78
10
0
20
0
30
0
70
128
71
8
72
2
73
1
0
VERTEX
8
OBJECT__78
10
0
20
0
30
0
70
128
71
5
72
10
73
11
0
VERTEX
8
OBJECT__78
10
0
20
0
30
0
70
128
71
5
72
12
73
10
0
VERTEX
8
OBJECT__78
10
0
20
0
30
0
70
128
71
9
72
13
73
14
0
VERTEX
8
OBJECT__78
10
0
20
0
30
0
70
128
71
14
72
15
73
9
0
VERTEX
8
OBJECT__78
10
0
20
0
30
0
70
128
71
15
72
16
73
9
0
VERTEX
8
OBJECT__78
10
0
20
0
30
0
70
128
71
11
72
6
73
5
0
VERTEX
8
OBJECT__78
10
0
20
0
30
0
70
128
71
7
72
13
73
9
0
VERTEX
8
OBJECT__78
10
0
20
0
30
0
70
128
71
3
72
5
73
4
0
SEQEND
8
OBJECT__78
0
POLYLINE
8
OBJECT__79
66
1
70
64
71
6
72
4
62
253
0
VERTEX
8
OBJECT__79
10
137.699997
20
7.500000
30
-11.954000
70
192
0
VERTEX
8
OBJECT__79
10
138.707001
20
7.553000
30
-2.397000
70
192
0
VERTEX
8
OBJECT__79
10
137.839996
20
7.507000
30
-1.350000
70
192
0
VERTEX
8
OBJECT__79
10
138.826996
20
7.559000
30
-11.954000
70
192
0
VERTEX
8
OBJECT__79
10
137.720001
20
7.501000
30
-1.338000
70
192
0
VERTEX
8
OBJECT__79
10
137.699997
20
7.500000
30
-1.338000
70
192
0
VERTEX
8
OBJECT__79
10
0
20
0
30
0
70
128
71
1
72
2
73
3
0
VERTEX
8
OBJECT__79
10
0
20
0
30
0
70
128
71
1
72
4
73
2
0
VERTEX
8
OBJECT__79
10
0
20
0
30
0
70
128
71
3
72
5
73
1
0
VERTEX
8
OBJECT__79
10
0
20
0
30
0
70
128
71
5
72
6
73
1
0
SEQEND
8
OBJECT__79
0
POLYLINE
8
OBJECT__80
66
1
70
64
71
15
72
13
62
253
0
VERTEX
8
OBJECT__80
10
137.699997
20
9.175000
30
-18.204000
70
192
0
VERTEX
8
OBJECT__80
10
137.699997
20
13.750000
30
-22.778999
70
192
0
VERTEX
8
OBJECT__80
10
138.839996
20
12.194000
30
-21.507999
70
192
0
VERTEX
8
OBJECT__80
10
138.835007
20
12.907000
30
-22.174999
70
192
0
VERTEX
8
OBJECT__80
10
138.826996
20
13.779000
30
-22.728001
70
192
0
VERTEX
8
OBJECT__80
10
138.830002
20
13.413000
30
-22.507999
70
192
0
VERTEX
8
OBJECT__80
10
138.854004
20
10.290000
30
-19.730000
70
192
0
VERTEX
8
OBJECT__80
10
138.854996
20
9.923000
30
-19.247000
70
192
0
VERTEX
8
OBJECT__80
10
137.699997
20
7.500000
30
-11.954000
70
192
0
VERTEX
8
OBJECT__80
10
138.850006
20
8.076000
30
-15.498000
70
192
0
VERTEX
8
OBJECT__80
10
138.839996
20
7.840000
30
-13.881000
70
192
0
VERTEX
8
OBJECT__80
10
138.852997
20
8.263000
30
-16.073999
70
192
0
VERTEX
8
OBJECT__80
10
138.854004
20
9.332000
30
-18.118999
70
192
0
VERTEX
8
OBJECT__80
10
138.854004
20
9.327000
30
-18.108999
70
192
0
VERTEX
8
OBJECT__80
10
138.826996
20
7.559000
30
-11.954000
70
192
0
VERTEX
8
OBJECT__80
10
0
20
0
30
0
70
128
71
1
72
2
73
3
0
VERTEX
8
OBJECT__80
10
0
20
0
30
0
70
128
71
2
72
4
73
3
0
VERTEX
8
OBJECT__80
10
0
20
0
30
0
70
128
71
2
72
5
73
6
0
VERTEX
8
OBJECT__80
10
0
20
0
30
0
70
128
71
6
72
4
73
2
0
VERTEX
8
OBJECT__80
10
0
20
0
30
0
70
128
71
3
72
7
73
1
0
VERTEX
8
OBJECT__80
10
0
20
0
30
0
70
128
71
7
72
8
73
1
0
VERTEX
8
OBJECT__80
10
0
20
0
30
0
70
128
71
9
72
1
73
10
0
VERTEX
8
OBJECT__80
10
0
20
0
30
0
70
128
71
10
72
11
73
9
0
VERTEX
8
OBJECT__80
10
0
20
0
30
0
70
128
71
1
72
12
73
10
0
VERTEX
8
OBJECT__80
10
0
20
0
30
0
70
128
71
1
72
13
73
14
0
VERTEX
8
OBJECT__80
10
0
20
0
30
0
70
128
71
14
72
12
73
1
0
VERTEX
8
OBJECT__80
10
0
20
0
30
0
70
128
71
11
72
15
73
9
0
VERTEX
8
OBJECT__80
10
0
20
0
30
0
70
128
71
8
72
13
73
1
0
SEQEND
8
OBJECT__80
0
POLYLINE
8
OBJECT__81
66
1
70
64
71
20
72
19
62
253
0
VERTEX
8
OBJECT__81
10
138.826996
20
7.559000
30
-11.954000
70
192
0
VERTEX
8
OBJECT__81
10
138.707001
20
14.262000
30
-6.253000
70
192
0
VERTEX
8
OBJECT__81
10
138.707001
20
14.137000
30
-6.106000
70
192
0
VERTEX
8
OBJECT__81
10
138.707001
20
7.553000
30
-2.397000
70
192
0
VERTEX
8
OBJECT__81
10
138.707001
20
19.412001
30
-12.293000
70
192
0
VERTEX
8
OBJECT__81
10
138.850006
20
8.076000
30
-15.498000
70
192
0
VERTEX
8
OBJECT__81
10
138.852997
20
8.263000
30
-16.073999
70
192
0
VERTEX
8
OBJECT__81
10
138.839996
20
7.840000
30
-13.881000
70
192
0
VERTEX
8
OBJECT__81
10
138.854996
20
9.923000
30
-19.247000
70
192
0
VERTEX
8
OBJECT__81
10
138.854004
20
10.290000
30
-19.730000
70
192
0
VERTEX
8
OBJECT__81
10
138.854996
20
9.844000
30
-18.900000
70
192
0
VERTEX
8
OBJECT__81
10
138.839996
20
12.194000
30
-21.507999
70
192
0
VERTEX
8
OBJECT__81
10
138.854004
20
9.327000
30
-18.108999
70
192
0
VERTEX
8
OBJECT__81
10
138.854004
20
9.332000
30
-18.118999
70
192
0
VERTEX
8
OBJECT__81
10
138.707001
20
22.068001
30
-19.773001
70
192
0
VERTEX
8
OBJECT__81
10
138.826996
20
13.779000
30
-22.728001
70
192
0
VERTEX
8
OBJECT__81
10
138.707001
20
22.052999
30
-27.511999
70
192
0
VERTEX
8
OBJECT__81
10
138.707001
20
22.132999
30
-19.955000
70
192
0
VERTEX
8
OBJECT__81
10
138.835007
20
12.907000
30
-22.174999
70
192
0
VERTEX
8
OBJECT__81
10
138.830002
20
13.413000
30
-22.507999
70
192
0
VERTEX
8
OBJECT__81
10
0
20
0
30
0
70
128
71
1
72
2
73
3
0
VERTEX
8
OBJECT__81
10
0
20
0
30
0
70
128
71
3
72
4
73
1
0
VERTEX
8
OBJECT__81
10
0
20
0
30
0
70
128
71
5
72
6
73
7
0
VERTEX
8
OBJECT__81
10
0
20
0
30
0
70
128
71
5
72
2
73
8
0
VERTEX
8
OBJECT__81
10
0
20
0
30
0
70
128
71
8
72
6
73
5
0
VERTEX
8
OBJECT__81
10
0
20
0
30
0
70
128
71
9
72
10
73
11
0
VERTEX
8
OBJECT__81
10
0
20
0
30
0
70
128
71
5
72
10
73
12
0
VERTEX
8
OBJECT__81
10
0
20
0
30
0
70
128
71
5
72
11
73
10
0
VERTEX
8
OBJECT__81
10
0
20
0
30
0
70
128
71
5
72
13
73
14
0
VERTEX
8
OBJECT__81
10
0
20
0
30
0
70
128
71
14
72
11
73
5
0
VERTEX
8
OBJECT__81
10
0
20
0
30
0
70
128
71
12
72
15
73
5
0
VERTEX
8
OBJECT__81
10
0
20
0
30
0
70
128
71
11
72
14
73
9
0
VERTEX
8
OBJECT__81
10
0
20
0
30
0
70
128
71
16
72
17
73
18
0
VERTEX
8
OBJECT__81
10
0
20
0
30
0
70
128
71
15
72
12
73
19
0
VERTEX
8
OBJECT__81
10
0
20
0
30
0
70
128
71
19
72
20
73
15
0
VERTEX
8
OBJECT__81
10
0
20
0
30
0
70
128
71
20
72
16
73
15
0
VERTEX
8
OBJECT__81
10
0
20
0
30
0
70
128
71
18
72
15
73
16
0
VERTEX
8
OBJECT__81
10
0
20
0
30
0
70
128
71
7
72
13
73
5
0
VERTEX
8
OBJECT__81
10
0
20
0
30
0
70
128
71
1
72
8
73
2
0
SEQEND
8
OBJECT__81
0
POLYLINE
8
OBJECT__82
66
1
70
64
71
4
72
2
62
253
0
VERTEX
8
OBJECT__82
10
91.699997
20
8.095000
30
-0.907000
70
192
0
VERTEX
8
OBJECT__82
10
91.699997
20
8.019000
30
3.433000
70
192
0
VERTEX
8
OBJECT__82
10
137.699997
20
7.425000
30
2.978000
70
192
0
VERTEX
8
OBJECT__82
10
137.699997
20
7.500000
30
-1.338000
70
192
0
VERTEX
8
OBJECT__82
10
0
20
0
30
0
70
128
71
1
72
2
73
3
0
VERTEX
8
OBJECT__82
10
0
20
0
30
0
70
128
71
3
72
4
73
1
0
SEQEND
8
OBJECT__82
0
POLYLINE
8
OBJECT__83
66
1
70
64
71
24
72
22
62
253
0
VERTEX
8
OBJECT__83
10
137.699997
20
15.444000
30
-41.077999
70
192
0
VERTEX
8
OBJECT__83
10
137.699997
20
19.219000
30
-43.169998
70
192
0
VERTEX
8
OBJECT__83
10
137.699997
20
23.816000
30
-37.250999
70
192
0
VERTEX
8
OBJECT__83
10
137.699997
20
-22.944000
30
-28.087000
70
192
0
VERTEX
8
OBJECT__83
10
137.699997
20
-26.643999
30
-30.309999
70
192
0
VERTEX
8
OBJECT__83
10
137.699997
20
-23.816000
30
-37.250999
70
192
0
VERTEX
8
OBJECT__83
10
137.699997
20
0.000000
30
3.999000
70
192
0
VERTEX
8
OBJECT__83
10
137.699997
20
0.000000
30
-34.095001
70
192
0
VERTEX
8
OBJECT__83
10
137.699997
20
7.500000
30
-11.954000
70
192
0
VERTEX
8
OBJECT__83
10
137.699997
20
22.944000
30
-28.087000
70
192
0
VERTEX
8
OBJECT__83
10
137.699997
20
13.750000
30
-22.778999
70
192
0
VERTEX
8
OBJECT__83
10
137.699997
20
6.250000
30
-35.770000
70
192
0
VERTEX
8
OBJECT__83
10
137.699997
20
-15.444000
30
-41.077999
70
192
0
VERTEX
8
OBJECT__83
10
137.699997
20
-6.250000
30
-35.770000
70
192
0
VERTEX
8
OBJECT__83
10
137.699997
20
-13.750000
30
-22.778999
70
192
0
VERTEX
8
OBJECT__83
10
137.699997
20
-7.500000
30
-1.338000
70
192
0
VERTEX
8
OBJECT__83
10
137.699997
20
-7.500000
30
-11.954000
70
192
0
VERTEX
8
OBJECT__83
10
137.699997
20
7.500000
30
-1.338000
70
192
0
VERTEX
8
OBJECT__83
10
137.699997
20
26.643999
30
-30.309999
70
192
0
VERTEX
8
OBJECT__83
10
137.699997
20
-9.175000
30
-18.204000
70
192
0
VERTEX
8
OBJECT__83
10
137.699997
20
-7.425000
30
2.978000
70
192
0
VERTEX
8
OBJECT__83
10
137.699997
20
9.175000
30
-18.204000
70
192
0
VERTEX
8
OBJECT__83
10
137.699997
20
-19.219000
30
-43.169998
70
192
0
VERTEX
8
OBJECT__83
10
137.699997
20
7.425000
30
2.978000
70
192
0
VERTEX
8
OBJECT__83
10
0
20
0
30
0
70
128
71
1
72
2
73
3
0
VERTEX
8
OBJECT__83
10
0
20
0
30
0
70
128
71
4
72
5
73
6
0
VERTEX
8
OBJECT__83
10
0
20
0
30
0
70
128
71
7
72
8
73
9
0
VERTEX
8
OBJECT__83
10
0
20
0
30
0
70
128
71
10
72
11
73
12
0
VERTEX
8
OBJECT__83
10
0
20
0
30
0
70
128
71
3
72
10
73
1
0
VERTEX
8
OBJECT__83
10
0
20
0
30
0
70
128
71
6
72
13
73
4
0
VERTEX
8
OBJECT__83
10
0
20
0
30
0
70
128
71
14
72
15
73
4
0
VERTEX
8
OBJECT__83
10
0
20
0
30
0
70
128
71
7
72
16
73
17
0
VERTEX
8
OBJECT__83
10
0
20
0
30
0
70
128
71
9
72
18
73
7
0
VERTEX
8
OBJECT__83
10
0
20
0
30
0
70
128
71
8
72
12
73
11
0
VERTEX
8
OBJECT__83
10
0
20
0
30
0
70
128
71
3
72
19
73
10
0
VERTEX
8
OBJECT__83
10
0
20
0
30
0
70
128
71
8
72
20
73
15
0
VERTEX
8
OBJECT__83
10
0
20
0
30
0
70
128
71
4
72
13
73
14
0
VERTEX
8
OBJECT__83
10
0
20
0
30
0
70
128
71
7
72
21
73
16
0
VERTEX
8
OBJECT__83
10
0
20
0
30
0
70
128
71
8
72
22
73
9
0
VERTEX
8
OBJECT__83
10
0
20
0
30
0
70
128
71
12
72
1
73
10
0
VERTEX
8
OBJECT__83
10
0
20
0
30
0
70
128
71
6
72
23
73
13
0
VERTEX
8
OBJECT__83
10
0
20
0
30
0
70
128
71
17
72
8
73
7
0
VERTEX
8
OBJECT__83
10
0
20
0
30
0
70
128
71
11
72
22
73
8
0
VERTEX
8
OBJECT__83
10
0
20
0
30
0
70
128
71
17
72
20
73
8
0
VERTEX
8
OBJECT__83
10
0
20
0
30
0
70
128
71
15
72
14
73
8
0
VERTEX
8
OBJECT__83
10
0
20
0
30
0
70
128
71
18
72
24
73
7
0
SEQEND
8
OBJECT__83
0
POLYLINE
8
OBJECT__84
66
1
70
64
71
4
72
2
62
253
0
VERTEX
8
OBJECT__84
10
91.699997
20
-8.095000
30
-0.907000
70
192
0
VERTEX
8
OBJECT__84
10
137.699997
20
-7.500000
30
-1.338000
70
192
0
VERTEX
8
OBJECT__84
10
137.699997
20
-7.425000
30
2.978000
70
192
0
VERTEX
8
OBJECT__84
10
91.699997
20
-8.019000
30
3.433000
70
192
0
VERTEX
8
OBJECT__84
10
0
20
0
30
0
70
128
71
1
72
2
73
3
0
VERTEX
8
OBJECT__84
10
0
20
0
30
0
70
128
71
3
72
4
73
1
0
SEQEND
8
OBJECT__84
0
POLYLINE
8
OBJECT__85
66
1
70
64
71
13
72
11
62
253
0
VERTEX
8
OBJECT__85
10
91.699997
20
-17.284000
30
-6.849000
70
192
0
VERTEX
8
OBJECT__85
10
91.699997
20
-23.063000
30
-16.858999
70
192
0
VERTEX
8
OBJECT__85
10
137.720001
20
-20.263000
30
-11.802000
70
192
0
VERTEX
8
OBJECT__85
10
137.720001
20
-22.159000
30
-17.141001
70
192
0
VERTEX
8
OBJECT__85
10
91.699997
20
-8.095000
30
-0.907000
70
192
0
VERTEX
8
OBJECT__85
10
137.720001
20
-14.757000
30
-5.344000
70
192
0
VERTEX
8
OBJECT__85
10
137.720001
20
-7.501000
30
-1.338000
70
192
0
VERTEX
8
OBJECT__85
10
137.699997
20
-7.500000
30
-1.338000
70
192
0
VERTEX
8
OBJECT__85
10
137.720001
20
-16.587000
30
-7.491000
70
192
0
VERTEX
8
OBJECT__85
10
91.699997
20
-23.614000
30
-27.788000
70
192
0
VERTEX
8
OBJECT__85
10
137.699997
20
-22.944000
30
-28.087000
70
192
0
VERTEX
8
OBJECT__85
10
137.720001
20
-23.103001
30
-19.799999
70
192
0
VERTEX
8
OBJECT__85
10
137.720001
20
-22.944000
30
-28.086000
70
192
0
VERTEX
8
OBJECT__85
10
0
20
0
30
0
70
128
71
1
72
2
73
3
0
VERTEX
8
OBJECT__85
10
0
20
0
30
0
70
128
71
2
72
4
73
3
0
VERTEX
8
OBJECT__85
10
0
20
0
30
0
70
128
71
5
72
1
73
6
0
VERTEX
8
OBJECT__85
10
0
20
0
30
0
70
128
71
6
72
7
73
8
0
VERTEX
8
OBJECT__85
10
0
20
0
30
0
70
128
71
1
72
9
73
6
0
VERTEX
8
OBJECT__85
10
0
20
0
30
0
70
128
71
10
72
11
73
12
0
VERTEX
8
OBJECT__85
10
0
20
0
30
0
70
128
71
12
72
2
73
10
0
VERTEX
8
OBJECT__85
10
0
20
0
30
0
70
128
71
11
72
13
73
12
0
VERTEX
8
OBJECT__85
10
0
20
0
30
0
70
128
71
12
72
4
73
2
0
VERTEX
8
OBJECT__85
10
0
20
0
30
0
70
128
71
6
72
8
73
5
0
VERTEX
8
OBJECT__85
10
0
20
0
30
0
70
128
71
3
72
9
73
1
0
SEQEND
8
OBJECT__85
0
POLYLINE
8
OBJECT__86
66
1
70
64
71
6
72
4
62
253
0
VERTEX
8
OBJECT__86
10
137.699997
20
-7.500000
30
-11.954000
70
192
0
VERTEX
8
OBJECT__86
10
137.699997
20
-7.500000
30
-1.338000
70
192
0
VERTEX
8
OBJECT__86
10
138.707001
20
-7.553000
30
-2.397000
70
192
0
VERTEX
8
OBJECT__86
10
137.720001
20
-7.501000
30
-1.338000
70
192
0
VERTEX
8
OBJECT__86
10
138.677002
20
-7.551000
30
-2.158000
70
192
0
VERTEX
8
OBJECT__86
10
138.826996
20
-7.559000
30
-11.954000
70
192
0
VERTEX
8
OBJECT__86
10
0
20
0
30
0
70
128
71
1
72
2
73
3
0
VERTEX
8
OBJECT__86
10
0
20
0
30
0
70
128
71
3
72
2
73
4
0
VERTEX
8
OBJECT__86
10
0
20
0
30
0
70
128
71
4
72
5
73
3
0
VERTEX
8
OBJECT__86
10
0
20
0
30
0
70
128
71
3
72
6
73
1
0
SEQEND
8
OBJECT__86
0
POLYLINE
8
OBJECT__87
66
1
70
64
71
16
72
14
62
253
0
VERTEX
8
OBJECT__87
10
137.720001
20
-23.103001
30
-19.799999
70
192
0
VERTEX
8
OBJECT__87
10
138.707001
20
-22.132999
30
-19.955000
70
192
0
VERTEX
8
OBJECT__87
10
138.707001
20
-22.068001
30
-19.773001
70
192
0
VERTEX
8
OBJECT__87
10
138.707001
20
-19.412001
30
-12.293000
70
192
0
VERTEX
8
OBJECT__87
10
137.720001
20
-20.263000
30
-11.802000
70
192
0
VERTEX
8
OBJECT__87
10
137.720001
20
-22.159000
30
-17.141001
70
192
0
VERTEX
8
OBJECT__87
10
138.707001
20
-14.262000
30
-6.253000
70
192
0
VERTEX
8
OBJECT__87
10
137.720001
20
-16.587000
30
-7.491000
70
192
0
VERTEX
8
OBJECT__87
10
137.720001
20
-14.757000
30
-5.344000
70
192
0
VERTEX
8
OBJECT__87
10
137.839996
20
-22.937000
30
-28.075001
70
192
0
VERTEX
8
OBJECT__87
10
138.707001
20
-22.052999
30
-27.511999
70
192
0
VERTEX
8
OBJECT__87
10
137.720001
20
-22.944000
30
-28.086000
70
192
0
VERTEX
8
OBJECT__87
10
138.707001
20
-14.137000
30
-6.106000
70
192
0
VERTEX
8
OBJECT__87
10
138.707001
20
-7.553000
30
-2.397000
70
192
0
VERTEX
8
OBJECT__87
10
138.677002
20
-7.551000
30
-2.158000
70
192
0
VERTEX
8
OBJECT__87
10
137.720001
20
-7.501000
30
-1.338000
70
192
0
VERTEX
8
OBJECT__87
10
0
20
0
30
0
70
128
71
1
72
2
73
3
0
VERTEX
8
OBJECT__87
10
0
20
0
30
0
70
128
71
4
72
5
73
6
0
VERTEX
8
OBJECT__87
10
0
20
0
30
0
70
128
71
6
72
3
73
4
0
VERTEX
8
OBJECT__87
10
0
20
0
30
0
70
128
71
4
72
7
73
8
0
VERTEX
8
OBJECT__87
10
0
20
0
30
0
70
128
71
7
72
9
73
8
0
VERTEX
8
OBJECT__87
10
0
20
0
30
0
70
128
71
8
72
5
73
4
0
VERTEX
8
OBJECT__87
10
0
20
0
30
0
70
128
71
1
72
10
73
11
0
VERTEX
8
OBJECT__87
10
0
20
0
30
0
70
128
71
1
72
12
73
10
0
VERTEX
8
OBJECT__87
10
0
20
0
30
0
70
128
71
9
72
13
73
14
0
VERTEX
8
OBJECT__87
10
0
20
0
30
0
70
128
71
14
72
15
73
9
0
VERTEX
8
OBJECT__87
10
0
20
0
30
0
70
128
71
15
72
16
73
9
0
VERTEX
8
OBJECT__87
10
0
20
0
30
0
70
128
71
11
72
2
73
1
0
VERTEX
8
OBJECT__87
10
0
20
0
30
0
70
128
71
7
72
13
73
9
0
VERTEX
8
OBJECT__87
10
0
20
0
30
0
70
128
71
3
72
6
73
1
0
SEQEND
8
OBJECT__87
0
POLYLINE
8
OBJECT__88
66
1
70
64
71
15
72
13
62
253
0
VERTEX
8
OBJECT__88
10
137.699997
20
-9.175000
30
-18.204000
70
192
0
VERTEX
8
OBJECT__88
10
137.699997
20
-7.500000
30
-11.954000
70
192
0
VERTEX
8
OBJECT__88
10
138.839996
20
-7.818000
30
-13.950000
70
192
0
VERTEX
8
OBJECT__88
10
138.835999
20
-7.611000
30
-13.089000
70
192
0
VERTEX
8
OBJECT__88
10
138.826996
20
-7.559000
30
-11.954000
70
192
0
VERTEX
8
OBJECT__88
10
138.830994
20
-7.571000
30
-12.484000
70
192
0
VERTEX
8
OBJECT__88
10
138.854004
20
-8.449000
30
-16.570999
70
192
0
VERTEX
8
OBJECT__88
10
138.854996
20
-8.688000
30
-17.128000
70
192
0
VERTEX
8
OBJECT__88
10
137.699997
20
-13.750000
30
-22.778999
70
192
0
VERTEX
8
OBJECT__88
10
138.850006
20
-10.969000
30
-20.509001
70
192
0
VERTEX
8
OBJECT__88
10
138.839996
20
-12.251000
30
-21.521000
70
192
0
VERTEX
8
OBJECT__88
10
138.852005
20
-10.630000
30
-20.136999
70
192
0
VERTEX
8
OBJECT__88
10
138.854004
20
-9.323000
30
-18.112000
70
192
0
VERTEX
8
OBJECT__88
10
138.854004
20
-9.330000
30
-18.122000
70
192
0
VERTEX
8
OBJECT__88
10
138.826996
20
-13.779000
30
-22.728001
70
192
0
VERTEX
8
OBJECT__88
10
0
20
0
30
0
70
128
71
1
72
2
73
3
0
VERTEX
8
OBJECT__88
10
0
20
0
30
0
70
128
71
2
72
4
73
3
0
VERTEX
8
OBJECT__88
10
0
20
0
30
0
70
128
71
2
72
5
73
6
0
VERTEX
8
OBJECT__88
10
0
20
0
30
0
70
128
71
6
72
4
73
2
0
VERTEX
8
OBJECT__88
10
0
20
0
30
0
70
128
71
3
72
7
73
1
0
VERTEX
8
OBJECT__88
10
0
20
0
30
0
70
128
71
7
72
8
73
1
0
VERTEX
8
OBJECT__88
10
0
20
0
30
0
70
128
71
9
72
1
73
10
0
VERTEX
8
OBJECT__88
10
0
20
0
30
0
70
128
71
10
72
11
73
9
0
VERTEX
8
OBJECT__88
10
0
20
0
30
0
70
128
71
1
72
12
73
10
0
VERTEX
8
OBJECT__88
10
0
20
0
30
0
70
128
71
1
72
13
73
14
0
VERTEX
8
OBJECT__88
10
0
20
0
30
0
70
128
71
14
72
12
73
1
0
VERTEX
8
OBJECT__88
10
0
20
0
30
0
70
128
71
11
72
15
73
9
0
VERTEX
8
OBJECT__88
10
0
20
0
30
0
70
128
71
8
72
13
73
1
0
SEQEND
8
OBJECT__88
0
POLYLINE
8
OBJECT__89
66
1
70
64
71
20
72
19
62
253
0
VERTEX
8
OBJECT__89
10
138.826996
20
-13.779000
30
-22.728001
70
192
0
VERTEX
8
OBJECT__89
10
138.707001
20
-22.068001
30
-19.773001
70
192
0
VERTEX
8
OBJECT__89
10
138.707001
20
-22.132999
30
-19.955000
70
192
0
VERTEX
8
OBJECT__89
10
138.707001
20
-22.052999
30
-27.511999
70
192
0
VERTEX
8
OBJECT__89
10
138.707001
20
-19.412001
30
-12.293000
70
192
0
VERTEX
8
OBJECT__89
10
138.850006
20
-10.969000
30
-20.509001
70
192
0
VERTEX
8
OBJECT__89
10
138.852005
20
-10.630000
30
-20.136999
70
192
0
VERTEX
8
OBJECT__89
10
138.839996
20
-12.251000
30
-21.521000
70
192
0
VERTEX
8
OBJECT__89
10
138.854996
20
-8.688000
30
-17.128000
70
192
0
VERTEX
8
OBJECT__89
10
138.854004
20
-8.449000
30
-16.570999
70
192
0
VERTEX
8
OBJECT__89
10
138.854996
20
-8.919000
30
-17.326000
70
192
0
VERTEX
8
OBJECT__89
10
138.839996
20
-7.818000
30
-13.950000
70
192
0
VERTEX
8
OBJECT__89
10
138.854004
20
-9.330000
30
-18.122000
70
192
0
VERTEX
8
OBJECT__89
10
138.854004
20
-9.323000
30
-18.112000
70
192
0
VERTEX
8
OBJECT__89
10
138.707001
20
-14.262000
30
-6.253000
70
192
0
VERTEX
8
OBJECT__89
10
138.826996
20
-7.559000
30
-11.954000
70
192
0
VERTEX
8
OBJECT__89
10
138.707001
20
-7.553000
30
-2.397000
70
192
0
VERTEX
8
OBJECT__89
10
138.707001
20
-14.137000
30
-6.106000
70
192
0
VERTEX
8
OBJECT__89
10
138.835999
20
-7.611000
30
-13.089000
70
192
0
VERTEX
8
OBJECT__89
10
138.830994
20
-7.571000
30
-12.484000
70
192
0
VERTEX
8
OBJECT__89
10
0
20
0
30
0
70
128
71
1
72
2
73
3
0
VERTEX
8
OBJECT__89
10
0
20
0
30
0
70
128
71
3
72
4
73
1
0
VERTEX
8
OBJECT__89
10
0
20
0
30
0
70
128
71
5
72
6
73
7
0
VERTEX
8
OBJECT__89
10
0
20
0
30
0
70
128
71
5
72
2
73
8
0
VERTEX
8
OBJECT__89
10
0
20
0
30
0
70
128
71
8
72
6
73
5
0
VERTEX
8
OBJECT__89
10
0
20
0
30
0
70
128
71
9
72
10
73
11
0
VERTEX
8
OBJECT__89
10
0
20
0
30
0
70
128
71
5
72
10
73
12
0
VERTEX
8
OBJECT__89
10
0
20
0
30
0
70
128
71
5
72
11
73
10
0
VERTEX
8
OBJECT__89
10
0
20
0
30
0
70
128
71
5
72
13
73
14
0
VERTEX
8
OBJECT__89
10
0
20
0
30
0
70
128
71
14
72
11
73
5
0
VERTEX
8
OBJECT__89
10
0
20
0
30
0
70
128
71
12
72
15
73
5
0
VERTEX
8
OBJECT__89
10
0
20
0
30
0
70
128
71
11
72
14
73
9
0
VERTEX
8
OBJECT__89
10
0
20
0
30
0
70
128
71
16
72
17
73
18
0
VERTEX
8
OBJECT__89
10
0
20
0
30
0
70
128
71
15
72
12
73
19
0
VERTEX
8
OBJECT__89
10
0
20
0
30
0
70
128
71
19
72
20
73
15
0
VERTEX
8
OBJECT__89
10
0
20
0
30
0
70
128
71
20
72
16
73
15
0
VERTEX
8
OBJECT__89
10
0
20
0
30
0
70
128
71
18
72
15
73
16
0
VERTEX
8
OBJECT__89
10
0
20
0
30
0
70
128
71
7
72
13
73
5
0
VERTEX
8
OBJECT__89
10
0
20
0
30
0
70
128
71
1
72
8
73
2
0
SEQEND
8
OBJECT__89
0
POLYLINE
8
OBJECT__90
66
1
70
64
71
18
72
18
62
253
0
VERTEX
8
OBJECT__90
10
91.699997
20
-8.019000
30
3.433000
70
192
0
VERTEX
8
OBJECT__90
10
97.389000
20
-5.216000
30
4.037000
70
192
0
VERTEX
8
OBJECT__90
10
96.344002
20
-1.749000
30
4.486000
70
192
0
VERTEX
8
OBJECT__90
10
97.389000
20
0.000000
30
4.037000
70
192
0
VERTEX
8
OBJECT__90
10
96.386002
20
-1.260000
30
4.512000
70
192
0
VERTEX
8
OBJECT__90
10
96.386002
20
0.000000
30
4.512000
70
192
0
VERTEX
8
OBJECT__90
10
137.699997
20
-7.425000
30
2.978000
70
192
0
VERTEX
8
OBJECT__90
10
130.356995
20
-5.212000
30
3.599000
70
192
0
VERTEX
8
OBJECT__90
10
137.699997
20
0.000000
30
3.999000
70
192
0
VERTEX
8
OBJECT__90
10
130.356995
20
0.000000
30
3.599000
70
192
0
VERTEX
8
OBJECT__90
10
137.699997
20
7.425000
30
2.978000
70
192
0
VERTEX
8
OBJECT__90
10
130.356995
20
5.212000
30
3.599000
70
192
0
VERTEX
8
OBJECT__90
10
91.699997
20
8.019000
30
3.433000
70
192
0
VERTEX
8
OBJECT__90
10
97.389000
20
5.216000
30
4.037000
70
192
0
VERTEX
8
OBJECT__90
10
96.344002
20
1.749000
30
4.486000
70
192
0
VERTEX
8
OBJECT__90
10
96.386002
20
1.260000
30
4.512000
70
192
0
VERTEX
8
OBJECT__90
10
91.699997
20
1.750000
30
4.547000
70
192
0
VERTEX
8
OBJECT__90
10
91.699997
20
-1.750000
30
4.547000
70
192
0
VERTEX
8
OBJECT__90
10
0
20
0
30
0
70
128
71
1
72
2
73
3
0
VERTEX
8
OBJECT__90
10
0
20
0
30
0
70
128
71
4
72
5
73
3
0
VERTEX
8
OBJECT__90
10
0
20
0
30
0
70
128
71
4
72
6
73
5
0
VERTEX
8
OBJECT__90
10
0
20
0
30
0
70
128
71
3
72
2
73
4
0
VERTEX
8
OBJECT__90
10
0
20
0
30
0
70
128
71
1
72
7
73
8
0
VERTEX
8
OBJECT__90
10
0
20
0
30
0
70
128
71
9
72
10
73
8
0
VERTEX
8
OBJECT__90
10
0
20
0
30
0
70
128
71
8
72
7
73
9
0
VERTEX
8
OBJECT__90
10
0
20
0
30
0
70
128
71
8
72
2
73
1
0
VERTEX
8
OBJECT__90
10
0
20
0
30
0
70
128
71
9
72
11
73
12
0
VERTEX
8
OBJECT__90
10
0
20
0
30
0
70
128
71
13
72
14
73
12
0
VERTEX
8
OBJECT__90
10
0
20
0
30
0
70
128
71
12
72
11
73
13
0
VERTEX
8
OBJECT__90
10
0
20
0
30
0
70
128
71
4
72
14
73
15
0
VERTEX
8
OBJECT__90
10
0
20
0
30
0
70
128
71
15
72
16
73
4
0
VERTEX
8
OBJECT__90
10
0
20
0
30
0
70
128
71
13
72
17
73
15
0
VERTEX
8
OBJECT__90
10
0
20
0
30
0
70
128
71
15
72
14
73
13
0
VERTEX
8
OBJECT__90
10
0
20
0
30
0
70
128
71
16
72
6
73
4
0
VERTEX
8
OBJECT__90
10
0
20
0
30
0
70
128
71
12
72
10
73
9
0
VERTEX
8
OBJECT__90
10
0
20
0
30
0
70
128
71
3
72
18
73
1
0
SEQEND
8
OBJECT__90
0
POLYLINE
8
OBJECT__91
66
1
70
64
71
5
72
3
62
253
0
VERTEX
8
OBJECT__91
10
130.259995
20
-5.115000
30
-7.501000
70
192
0
VERTEX
8
OBJECT__91
10
130.356995
20
-5.212000
30
3.599000
70
192
0
VERTEX
8
OBJECT__91
10
130.356995
20
0.000000
30
3.599000
70
192
0
VERTEX
8
OBJECT__91
10
130.259995
20
5.115000
30
-7.501000
70
192
0
VERTEX
8
OBJECT__91
10
130.356995
20
5.212000
30
3.599000
70
192
0
VERTEX
8
OBJECT__91
10
0
20
0
30
0
70
128
71
1
72
2
73
3
0
VERTEX
8
OBJECT__91
10
0
20
0
30
0
70
128
71
3
72
4
73
1
0
VERTEX
8
OBJECT__91
10
0
20
0
30
0
70
128
71
3
72
5
73
4
0
SEQEND
8
OBJECT__91
0
POLYLINE
8
OBJECT__92
66
1
70
64
71
7
72
5
62
253
0
VERTEX
8
OBJECT__92
10
91.699997
20
1.726000
30
3.200000
70
192
0
VERTEX
8
OBJECT__92
10
96.386002
20
0.000000
30
4.512000
70
192
0
VERTEX
8
OBJECT__92
10
96.386002
20
1.260000
30
4.512000
70
192
0
VERTEX
8
OBJECT__92
10
91.699997
20
-1.726000
30
3.200000
70
192
0
VERTEX
8
OBJECT__92
10
96.386002
20
-1.260000
30
4.512000
70
192
0
VERTEX
8
OBJECT__92
10
96.344002
20
-1.749000
30
4.486000
70
192
0
VERTEX
8
OBJECT__92
10
96.344002
20
1.749000
30
4.486000
70
192
0
VERTEX
8
OBJECT__92
10
0
20
0
30
0
70
128
71
1
72
2
73
3
0
VERTEX
8
OBJECT__92
10
0
20
0
30
0
70
128
71
4
72
5
73
2
0
VERTEX
8
OBJECT__92
10
0
20
0
30
0
70
128
71
4
72
6
73
5
0
VERTEX
8
OBJECT__92
10
0
20
0
30
0
70
128
71
2
72
1
73
4
0
VERTEX
8
OBJECT__92
10
0
20
0
30
0
70
128
71
3
72
7
73
1
0
SEQEND
8
OBJECT__92
0
POLYLINE
8
OBJECT__93
66
1
70
64
71
4
72
2
62
253
0
VERTEX
8
OBJECT__93
10
130.356995
20
-5.212000
30
3.599000
70
192
0
VERTEX
8
OBJECT__93
10
130.259995
20
-5.115000
30
-7.501000
70
192
0
VERTEX
8
OBJECT__93
10
97.489998
20
-5.115000
30
-7.501000
70
192
0
VERTEX
8
OBJECT__93
10
97.389000
20
-5.216000
30
4.037000
70
192
0
VERTEX
8
OBJECT__93
10
0
20
0
30
0
70
128
71
1
72
2
73
3
0
VERTEX
8
OBJECT__93
10
0
20
0
30
0
70
128
71
3
72
4
73
1
0
SEQEND
8
OBJECT__93
0
POLYLINE
8
OBJECT__94
66
1
70
64
71
4
72
2
62
253
0
VERTEX
8
OBJECT__94
10
130.356995
20
5.212000
30
3.599000
70
192
0
VERTEX
8
OBJECT__94
10
97.389000
20
5.216000
30
4.037000
70
192
0
VERTEX
8
OBJECT__94
10
97.489998
20
5.115000
30
-7.501000
70
192
0
VERTEX
8
OBJECT__94
10
130.259995
20
5.115000
30
-7.501000
70
192
0
VERTEX
8
OBJECT__94
10
0
20
0
30
0
70
128
71
1
72
2
73
3
0
VERTEX
8
OBJECT__94
10
0
20
0
30
0
70
128
71
3
72
4
73
1
0
SEQEND
8
OBJECT__94
0
POLYLINE
8
OBJECT__95
66
1
70
64
71
3
72
1
62
253
0
VERTEX
8
OBJECT__95
10
91.699997
20
-1.726000
30
3.200000
70
192
0
VERTEX
8
OBJECT__95
10
91.699997
20
-1.750000
30
4.547000
70
192
0
VERTEX
8
OBJECT__95
10
96.344002
20
-1.749000
30
4.486000
70
192
0
VERTEX
8
OBJECT__95
10
0
20
0
30
0
70
128
71
1
72
2
73
3
0
SEQEND
8
OBJECT__95
0
POLYLINE
8
OBJECT__96
66
1
70
64
71
3
72
1
62
253
0
VERTEX
8
OBJECT__96
10
91.699997
20
1.750000
30
4.547000
70
192
0
VERTEX
8
OBJECT__96
10
91.699997
20
1.726000
30
3.200000
70
192
0
VERTEX
8
OBJECT__96
10
96.344002
20
1.749000
30
4.486000
70
192
0
VERTEX
8
OBJECT__96
10
0
20
0
30
0
70
128
71
1
72
2
73
3
0
SEQEND
8
OBJECT__96
0
POLYLINE
8
OBJECT__97
66
1
70
64
71
4
72
2
62
253
0
VERTEX
8
OBJECT__97
10
137.699997
20
7.400000
30
2.673000
70
192
0
VERTEX
8
OBJECT__97
10
141.899994
20
7.400000
30
2.673000
70
192
0
VERTEX
8
OBJECT__97
10
141.899994
20
7.400000
30
-11.954000
70
192
0
VERTEX
8
OBJECT__97
10
137.699997
20
7.400000
30
-11.954000
70
192
0
VERTEX
8
OBJECT__97
10
0
20
0
30
0
70
128
71
1
72
2
73
3
0
VERTEX
8
OBJECT__97
10
0
20
0
30
0
70
128
71
3
72
4
73
1
0
SEQEND
8
OBJECT__97
0
POLYLINE
8
OBJECT__98
66
1
70
64
71
6
72
4
62
253
0
VERTEX
8
OBJECT__98
10
141.899994
20
9.088000
30
-18.254000
70
192
0
VERTEX
8
OBJECT__98
10
141.899994
20
13.700000
30
-22.865999
70
192
0
VERTEX
8
OBJECT__98
10
137.699997
20
13.700000
30
-22.865999
70
192
0
VERTEX
8
OBJECT__98
10
141.899994
20
7.400000
30
-11.954000
70
192
0
VERTEX
8
OBJECT__98
10
137.699997
20
9.088000
30
-18.254000
70
192
0
VERTEX
8
OBJECT__98
10
137.699997
20
7.400000
30
-11.954000
70
192
0
VERTEX
8
OBJECT__98
10
0
20
0
30
0
70
128
71
1
72
2
73
3
0
VERTEX
8
OBJECT__98
10
0
20
0
30
0
70
128
71
4
72
1
73
5
0
VERTEX
8
OBJECT__98
10
0
20
0
30
0
70
128
71
5
72
6
73
4
0
VERTEX
8
OBJECT__98
10
0
20
0
30
0
70
128
71
3
72
5
73
1
0
SEQEND
8
OBJECT__98
0
POLYLINE
8
OBJECT__100
66
1
70
64
71
4
72
2
62
253
0
VERTEX
8
OBJECT__100
10
137.699997
20
26.367001
30
-30.179001
70
192
0
VERTEX
8
OBJECT__100
10
137.699997
20
13.700000
30
-22.865999
70
192
0
VERTEX
8
OBJECT__100
10
141.899994
20
13.700000
30
-22.865999
70
192
0
VERTEX
8
OBJECT__100
10
141.899994
20
26.367001
30
-30.179001
70
192
0
VERTEX
8
OBJECT__100
10
0
20
0
30
0
70
128
71
1
72
2
73
3
0
VERTEX
8
OBJECT__100
10
0
20
0
30
0
70
128
71
3
72
4
73
1
0
SEQEND
8
OBJECT__100
0
POLYLINE
8
OBJECT__101
66
1
70
64
71
6
72
4
62
253
0
VERTEX
8
OBJECT__101
10
141.899994
20
23.556000
30
-37.101002
70
192
0
VERTEX
8
OBJECT__101
10
141.899994
20
18.966999
30
-42.997002
70
192
0
VERTEX
8
OBJECT__101
10
137.699997
20
18.966999
30
-42.997002
70
192
0
VERTEX
8
OBJECT__101
10
137.699997
20
26.367001
30
-30.179001
70
192
0
VERTEX
8
OBJECT__101
10
141.899994
20
26.367001
30
-30.179001
70
192
0
VERTEX
8
OBJECT__101
10
137.699997
20
23.556000
30
-37.101002
70
192
0
VERTEX
8
OBJECT__101
10
0
20
0
30
0
70
128
71
1
72
2
73
3
0
VERTEX
8
OBJECT__101
10
0
20
0
30
0
70
128
71
4
72
5
73
1
0
VERTEX
8
OBJECT__101
10
0
20
0
30
0
70
128
71
1
72
6
73
4
0
VERTEX
8
OBJECT__101
10
0
20
0
30
0
70
128
71
3
72
6
73
1
0
SEQEND
8
OBJECT__101
0
POLYLINE
8
OBJECT__102
66
1
70
64
71
4
72
2
62
253
0
VERTEX
8
OBJECT__102
10
141.899994
20
6.300000
30
-35.682999
70
192
0
VERTEX
8
OBJECT__102
10
137.699997
20
6.300000
30
-35.682999
70
192
0
VERTEX
8
OBJECT__102
10
137.699997
20
18.966999
30
-42.997002
70
192
0
VERTEX
8
OBJECT__102
10
141.899994
20
18.966999
30
-42.997002
70
192
0
VERTEX
8
OBJECT__102
10
0
20
0
30
0
70
128
71
1
72
2
73
3
0
VERTEX
8
OBJECT__102
10
0
20
0
30
0
70
128
71
3
72
4
73
1
0
SEQEND
8
OBJECT__102
0
POLYLINE
8
OBJECT__103
66
1
70
64
71
6
72
4
62
253
0
VERTEX
8
OBJECT__103
10
137.699997
20
0.000000
30
-33.994999
70
192
0
VERTEX
8
OBJECT__103
10
141.899994
20
0.000000
30
-33.994999
70
192
0
VERTEX
8
OBJECT__103
10
141.899994
20
-6.300000
30
-35.682999
70
192
0
VERTEX
8
OBJECT__103
10
137.699997
20
6.300000
30
-35.682999
70
192
0
VERTEX
8
OBJECT__103
10
141.899994
20
6.300000
30
-35.682999
70
192
0
VERTEX
8
OBJECT__103
10
137.699997
20
-6.300000
30
-35.682999
70
192
0
VERTEX
8
OBJECT__103
10
0
20
0
30
0
70
128
71
1
72
2
73
3
0
VERTEX
8
OBJECT__103
10
0
20
0
30
0
70
128
71
4
72
5
73
2
0
VERTEX
8
OBJECT__103
10
0
20
0
30
0
70
128
71
2
72
1
73
4
0
VERTEX
8
OBJECT__103
10
0
20
0
30
0
70
128
71
3
72
6
73
1
0
SEQEND
8
OBJECT__103
0
POLYLINE
8
OBJECT__104
66
1
70
64
71
4
72
2
62
253
0
VERTEX
8
OBJECT__104
10
137.699997
20
-6.300000
30
-35.682999
70
192
0
VERTEX
8
OBJECT__104
10
141.899994
20
-6.300000
30
-35.682999
70
192
0
VERTEX
8
OBJECT__104
10
141.899994
20
-18.966999
30
-42.997002
70
192
0
VERTEX
8
OBJECT__104
10
137.699997
20
-18.966999
30
-42.997002
70
192
0
VERTEX
8
OBJECT__104
10
0
20
0
30
0
70
128
71
1
72
2
73
3
0
VERTEX
8
OBJECT__104
10
0
20
0
30
0
70
128
71
3
72
4
73
1
0
SEQEND
8
OBJECT__104
0
POLYLINE
8
OBJECT__105
66
1
70
64
71
6
72
4
62
253
0
VERTEX
8
OBJECT__105
10
137.699997
20
-23.556000
30
-37.101002
70
192
0
VERTEX
8
OBJECT__105
10
141.899994
20
-23.556000
30
-37.101002
70
192
0
VERTEX
8
OBJECT__105
10
141.899994
20
-26.367001
30
-30.179001
70
192
0
VERTEX
8
OBJECT__105
10
137.699997
20
-18.966999
30
-42.997002
70
192
0
VERTEX
8
OBJECT__105
10
141.899994
20
-18.966999
30
-42.997002
70
192
0
VERTEX
8
OBJECT__105
10
137.699997
20
-26.367001
30
-30.179001
70
192
0
VERTEX
8
OBJECT__105
10
0
20
0
30
0
70
128
71
1
72
2
73
3
0
VERTEX
8
OBJECT__105
10
0
20
0
30
0
70
128
71
4
72
5
73
2
0
VERTEX
8
OBJECT__105
10
0
20
0
30
0
70
128
71
2
72
1
73
4
0
VERTEX
8
OBJECT__105
10
0
20
0
30
0
70
128
71
3
72
6
73
1
0
SEQEND
8
OBJECT__105
0
POLYLINE
8
OBJECT__106
66
1
70
64
71
4
72
2
62
253
0
VERTEX
8
OBJECT__106
10
137.699997
20
-13.700000
30
-22.865999
70
192
0
VERTEX
8
OBJECT__106
10
137.699997
20
-26.367001
30
-30.179001
70
192
0
VERTEX
8
OBJECT__106
10
141.899994
20
-26.367001
30
-30.179001
70
192
0
VERTEX
8
OBJECT__106
10
141.899994
20
-13.700000
30
-22.865999
70
192
0
VERTEX
8
OBJECT__106
10
0
20
0
30
0
70
128
71
1
72
2
73
3
0
VERTEX
8
OBJECT__106
10
0
20
0
30
0
70
128
71
3
72
4
73
1
0
SEQEND
8
OBJECT__106
0
POLYLINE
8
OBJECT__107
66
1
70
64
71
18
72
16
62
253
0
VERTEX
8
OBJECT__107
10
141.899994
20
-7.400000
30
-11.954000
70
192
0
VERTEX
8
OBJECT__107
10
141.899994
20
7.400000
30
-11.954000
70
192
0
VERTEX
8
OBJECT__107
10
141.899994
20
0.000000
30
3.699000
70
192
0
VERTEX
8
OBJECT__107
10
141.899994
20
6.300000
30
-35.682999
70
192
0
VERTEX
8
OBJECT__107
10
141.899994
20
18.966999
30
-42.997002
70
192
0
VERTEX
8
OBJECT__107
10
141.899994
20
23.556000
30
-37.101002
70
192
0
VERTEX
8
OBJECT__107
10
141.899994
20
-23.556000
30
-37.101002
70
192
0
VERTEX
8
OBJECT__107
10
141.899994
20
9.088000
30
-18.254000
70
192
0
VERTEX
8
OBJECT__107
10
141.899994
20
-13.700000
30
-22.865999
70
192
0
VERTEX
8
OBJECT__107
10
141.899994
20
-9.088000
30
-18.254000
70
192
0
VERTEX
8
OBJECT__107
10
141.899994
20
7.400000
30
2.673000
70
192
0
VERTEX
8
OBJECT__107
10
141.899994
20
0.000000
30
-33.994999
70
192
0
VERTEX
8
OBJECT__107
10
141.899994
20
13.700000
30
-22.865999
70
192
0
VERTEX
8
OBJECT__107
10
141.899994
20
-18.966999
30
-42.997002
70
192
0
VERTEX
8
OBJECT__107
10
141.899994
20
-6.300000
30
-35.682999
70
192
0
VERTEX
8
OBJECT__107
10
141.899994
20
-7.400000
30
2.673000
70
192
0
VERTEX
8
OBJECT__107
10
141.899994
20
26.367001
30
-30.179001
70
192
0
VERTEX
8
OBJECT__107
10
141.899994
20
-26.367001
30
-30.179001
70
192
0
VERTEX
8
OBJECT__107
10
0
20
0
30
0
70
128
71
1
72
2
73
3
0
VERTEX
8
OBJECT__107
10
0
20
0
30
0
70
128
71
4
72
5
73
6
0
VERTEX
8
OBJECT__107
10
0
20
0
30
0
70
128
71
7
72
8
73
9
0
VERTEX
8
OBJECT__107
10
0
20
0
30
0
70
128
71
10
72
8
73
2
0
VERTEX
8
OBJECT__107
10
0
20
0
30
0
70
128
71
2
72
11
73
3
0
VERTEX
8
OBJECT__107
10
0
20
0
30
0
70
128
71
8
72
12
73
4
0
VERTEX
8
OBJECT__107
10
0
20
0
30
0
70
128
71
6
72
13
73
4
0
VERTEX
8
OBJECT__107
10
0
20
0
30
0
70
128
71
7
72
14
73
15
0
VERTEX
8
OBJECT__107
10
0
20
0
30
0
70
128
71
8
72
10
73
9
0
VERTEX
8
OBJECT__107
10
0
20
0
30
0
70
128
71
3
72
16
73
1
0
VERTEX
8
OBJECT__107
10
0
20
0
30
0
70
128
71
6
72
17
73
13
0
VERTEX
8
OBJECT__107
10
0
20
0
30
0
70
128
71
15
72
8
73
7
0
VERTEX
8
OBJECT__107
10
0
20
0
30
0
70
128
71
2
72
1
73
10
0
VERTEX
8
OBJECT__107
10
0
20
0
30
0
70
128
71
15
72
12
73
8
0
VERTEX
8
OBJECT__107
10
0
20
0
30
0
70
128
71
4
72
13
73
8
0
VERTEX
8
OBJECT__107
10
0
20
0
30
0
70
128
71
9
72
18
73
7
0
SEQEND
8
OBJECT__107
0
POLYLINE
8
OBJECT__108
66
1
70
64
71
6
72
4
62
253
0
VERTEX
8
OBJECT__108
10
141.899994
20
-9.088000
30
-18.254000
70
192
0
VERTEX
8
OBJECT__108
10
141.899994
20
-7.400000
30
-11.954000
70
192
0
VERTEX
8
OBJECT__108
10
137.699997
20
-7.400000
30
-11.954000
70
192
0
VERTEX
8
OBJECT__108
10
141.899994
20
-13.700000
30
-22.865999
70
192
0
VERTEX
8
OBJECT__108
10
137.699997
20
-9.088000
30
-18.254000
70
192
0
VERTEX
8
OBJECT__108
10
137.699997
20
-13.700000
30
-22.865999
70
192
0
VERTEX
8
OBJECT__108
10
0
20
0
30
0
70
128
71
1
72
2
73
3
0
VERTEX
8
OBJECT__108
10
0
20
0
30
0
70
128
71
4
72
1
73
5
0
VERTEX
8
OBJECT__108
10
0
20
0
30
0
70
128
71
5
72
6
73
4
0
VERTEX
8
OBJECT__108
10
0
20
0
30
0
70
128
71
3
72
5
73
1
0
SEQEND
8
OBJECT__108
0
POLYLINE
8
OBJECT__109
66
1
70
64
71
4
72
2
62
253
0
VERTEX
8
OBJECT__109
10
141.899994
20
-7.400000
30
-11.954000
70
192
0
VERTEX
8
OBJECT__109
10
141.899994
20
-7.400000
30
2.673000
70
192
0
VERTEX
8
OBJECT__109
10
137.699997
20
-7.400000
30
2.673000
70
192
0
VERTEX
8
OBJECT__109
10
137.699997
20
-7.400000
30
-11.954000
70
192
0
VERTEX
8
OBJECT__109
10
0
20
0
30
0
70
128
71
1
72
2
73
3
0
VERTEX
8
OBJECT__109
10
0
20
0
30
0
70
128
71
3
72
4
73
1
0
SEQEND
8
OBJECT__109
0
POLYLINE
8
OBJECT__110
66
1
70
64
71
6
72
4
62
253
0
VERTEX
8
OBJECT__110
10
141.899994
20
0.000000
30
3.699000
70
192
0
VERTEX
8
OBJECT__110
10
141.899994
20
7.400000
30
2.673000
70
192
0
VERTEX
8
OBJECT__110
10
137.699997
20
7.400000
30
2.673000
70
192
0
VERTEX
8
OBJECT__110
10
141.899994
20
-7.400000
30
2.673000
70
192
0
VERTEX
8
OBJECT__110
10
137.699997
20
0.000000
30
3.699000
70
192
0
VERTEX
8
OBJECT__110
10
137.699997
20
-7.400000
30
2.673000
70
192
0
VERTEX
8
OBJECT__110
10
0
20
0
30
0
70
128
71
1
72
2
73
3
0
VERTEX
8
OBJECT__110
10
0
20
0
30
0
70
128
71
4
72
1
73
5
0
VERTEX
8
OBJECT__110
10
0
20
0
30
0
70
128
71
5
72
6
73
4
0
VERTEX
8
OBJECT__110
10
0
20
0
30
0
70
128
71
3
72
5
73
1
0
SEQEND
8
OBJECT__110
0
POLYLINE
8
OBJECT__111
66
1
70
64
71
11
72
9
62
253
0
VERTEX
8
OBJECT__111
10
117.080002
20
5.000000
30
6.648000
70
192
0
VERTEX
8
OBJECT__111
10
128.412003
20
5.000000
30
8.874000
70
192
0
VERTEX
8
OBJECT__111
10
128.753998
20
5.000000
30
7.664000
70
192
0
VERTEX
8
OBJECT__111
10
97.653000
20
5.000000
30
-8.459000
70
192
0
VERTEX
8
OBJECT__111
10
105.627998
20
5.000000
30
5.443000
70
192
0
VERTEX
8
OBJECT__111
10
113.209000
20
5.000000
30
6.241000
70
192
0
VERTEX
8
OBJECT__111
10
129.373993
20
5.000000
30
3.060000
70
192
0
VERTEX
8
OBJECT__111
10
129.246002
20
5.000000
30
-8.834000
70
192
0
VERTEX
8
OBJECT__111
10
97.815002
20
5.000000
30
5.210000
70
192
0
VERTEX
8
OBJECT__111
10
101.717003
20
5.000000
30
5.267000
70
192
0
VERTEX
8
OBJECT__111
10
129.378006
20
5.000000
30
2.314000
70
192
0
VERTEX
8
OBJECT__111
10
0
20
0
30
0
70
128
71
1
72
2
73
3
0
VERTEX
8
OBJECT__111
10
0
20
0
30
0
70
128
71
4
72
5
73
6
0
VERTEX
8
OBJECT__111
10
0
20
0
30
0
70
128
71
3
72
7
73
1
0
VERTEX
8
OBJECT__111
10
0
20
0
30
0
70
128
71
6
72
8
73
4
0
VERTEX
8
OBJECT__111
10
0
20
0
30
0
70
128
71
4
72
9
73
10
0
VERTEX
8
OBJECT__111
10
0
20
0
30
0
70
128
71
7
72
11
73
1
0
VERTEX
8
OBJECT__111
10
0
20
0
30
0
70
128
71
10
72
5
73
4
0
VERTEX
8
OBJECT__111
10
0
20
0
30
0
70
128
71
6
72
1
73
8
0
VERTEX
8
OBJECT__111
10
0
20
0
30
0
70
128
71
11
72
8
73
1
0
SEQEND
8
OBJECT__111
0
POLYLINE
8
OBJECT__112
66
1
70
64
71
10
72
8
62
253
0
VERTEX
8
OBJECT__112
10
129.384003
20
0.000000
30
2.788000
70
192
0
VERTEX
8
OBJECT__112
10
129.373993
20
5.000000
30
3.060000
70
192
0
VERTEX
8
OBJECT__112
10
128.753998
20
5.000000
30
7.664000
70
192
0
VERTEX
8
OBJECT__112
10
129.378006
20
5.000000
30
2.314000
70
192
0
VERTEX
8
OBJECT__112
10
128.417007
20
0.000000
30
9.254000
70
192
0
VERTEX
8
OBJECT__112
10
128.755997
20
-5.000000
30
7.656000
70
192
0
VERTEX
8
OBJECT__112
10
129.373993
20
-5.000000
30
3.060000
70
192
0
VERTEX
8
OBJECT__112
10
128.412003
20
-5.000000
30
8.874000
70
192
0
VERTEX
8
OBJECT__112
10
129.378006
20
-5.000000
30
2.314000
70
192
0
VERTEX
8
OBJECT__112
10
128.412003
20
5.000000
30
8.874000
70
192
0
VERTEX
8
OBJECT__112
10
0
20
0
30
0
70
128
71
1
72
2
73
3
0
VERTEX
8
OBJECT__112
10
0
20
0
30
0
70
128
71
1
72
4
73
2
0
VERTEX
8
OBJECT__112
10
0
20
0
30
0
70
128
71
3
72
5
73
1
0
VERTEX
8
OBJECT__112
10
0
20
0
30
0
70
128
71
1
72
5
73
6
0
VERTEX
8
OBJECT__112
10
0
20
0
30
0
70
128
71
6
72
7
73
1
0
VERTEX
8
OBJECT__112
10
0
20
0
30
0
70
128
71
5
72
8
73
6
0
VERTEX
8
OBJECT__112
10
0
20
0
30
0
70
128
71
7
72
9
73
1
0
VERTEX
8
OBJECT__112
10
0
20
0
30
0
70
128
71
3
72
10
73
5
0
SEQEND
8
OBJECT__112
0
POLYLINE
8
OBJECT__114
66
1
70
64
71
15
72
14
62
253
0
VERTEX
8
OBJECT__114
10
128.417007
20
0.000000
30
9.254000
70
192
0
VERTEX
8
OBJECT__114
10
128.412003
20
5.000000
30
8.874000
70
192
0
VERTEX
8
OBJECT__114
10
117.080002
20
5.000000
30
6.648000
70
192
0
VERTEX
8
OBJECT__114
10
113.224998
20
0.000000
30
6.543000
70
192
0
VERTEX
8
OBJECT__114
10
97.820000
20
0.000000
30
5.643000
70
192
0
VERTEX
8
OBJECT__114
10
105.627998
20
5.000000
30
5.443000
70
192
0
VERTEX
8
OBJECT__114
10
113.209000
20
5.000000
30
6.241000
70
192
0
VERTEX
8
OBJECT__114
10
101.717003
20
5.000000
30
5.267000
70
192
0
VERTEX
8
OBJECT__114
10
101.717003
20
-5.000000
30
5.267000
70
192
0
VERTEX
8
OBJECT__114
10
97.815002
20
-5.000000
30
5.210000
70
192
0
VERTEX
8
OBJECT__114
10
113.279999
20
-5.000000
30
6.134000
70
192
0
VERTEX
8
OBJECT__114
10
124.677002
20
-5.000000
30
8.024000
70
192
0
VERTEX
8
OBJECT__114
10
113.220001
20
-5.000000
30
6.129000
70
192
0
VERTEX
8
OBJECT__114
10
128.412003
20
-5.000000
30
8.874000
70
192
0
VERTEX
8
OBJECT__114
10
97.815002
20
5.000000
30
5.210000
70
192
0
VERTEX
8
OBJECT__114
10
0
20
0
30
0
70
128
71
1
72
2
73
3
0
VERTEX
8
OBJECT__114
10
0
20
0
30
0
70
128
71
3
72
4
73
1
0
VERTEX
8
OBJECT__114
10
0
20
0
30
0
70
128
71
5
72
4
73
6
0
VERTEX
8
OBJECT__114
10
0
20
0
30
0
70
128
71
4
72
7
73
6
0
VERTEX
8
OBJECT__114
10
0
20
0
30
0
70
128
71
6
72
8
73
5
0
VERTEX
8
OBJECT__114
10
0
20
0
30
0
70
128
71
4
72
5
73
9
0
VERTEX
8
OBJECT__114
10
0
20
0
30
0
70
128
71
5
72
10
73
9
0
VERTEX
8
OBJECT__114
10
0
20
0
30
0
70
128
71
4
72
11
73
12
0
VERTEX
8
OBJECT__114
10
0
20
0
30
0
70
128
71
4
72
13
73
11
0
VERTEX
8
OBJECT__114
10
0
20
0
30
0
70
128
71
12
72
1
73
4
0
VERTEX
8
OBJECT__114
10
0
20
0
30
0
70
128
71
12
72
14
73
1
0
VERTEX
8
OBJECT__114
10
0
20
0
30
0
70
128
71
9
72
13
73
4
0
VERTEX
8
OBJECT__114
10
0
20
0
30
0
70
128
71
8
72
15
73
5
0
VERTEX
8
OBJECT__114
10
0
20
0
30
0
70
128
71
3
72
7
73
4
0
SEQEND
8
OBJECT__114
0
POLYLINE
8
OBJECT__115
66
1
70
64
71
11
72
9
62
253
0
VERTEX
8
OBJECT__115
10
124.677002
20
-5.000000
30
8.024000
70
192
0
VERTEX
8
OBJECT__115
10
129.373993
20
-5.000000
30
3.060000
70
192
0
VERTEX
8
OBJECT__115
10
128.755997
20
-5.000000
30
7.656000
70
192
0
VERTEX
8
OBJECT__115
10
129.246002
20
-5.000000
30
-8.834000
70
192
0
VERTEX
8
OBJECT__115
10
113.279999
20
-5.000000
30
6.134000
70
192
0
VERTEX
8
OBJECT__115
10
113.220001
20
-5.000000
30
6.129000
70
192
0
VERTEX
8
OBJECT__115
10
129.378006
20
-5.000000
30
2.314000
70
192
0
VERTEX
8
OBJECT__115
10
97.653000
20
-5.000000
30
-8.459000
70
192
0
VERTEX
8
OBJECT__115
10
101.717003
20
-5.000000
30
5.267000
70
192
0
VERTEX
8
OBJECT__115
10
128.412003
20
-5.000000
30
8.874000
70
192
0
VERTEX
8
OBJECT__115
10
97.815002
20
-5.000000
30
5.210000
70
192
0
VERTEX
8
OBJECT__115
10
0
20
0
30
0
70
128
71
1
72
2
73
3
0
VERTEX
8
OBJECT__115
10
0
20
0
30
0
70
128
71
4
72
5
73
6
0
VERTEX
8
OBJECT__115
10
0
20
0
30
0
70
128
71
1
72
7
73
2
0
VERTEX
8
OBJECT__115
10
0
20
0
30
0
70
128
71
6
72
8
73
4
0
VERTEX
8
OBJECT__115
10
0
20
0
30
0
70
128
71
6
72
9
73
8
0
VERTEX
8
OBJECT__115
10
0
20
0
30
0
70
128
71
1
72
4
73
7
0
VERTEX
8
OBJECT__115
10
0
20
0
30
0
70
128
71
3
72
10
73
1
0
VERTEX
8
OBJECT__115
10
0
20
0
30
0
70
128
71
1
72
5
73
4
0
VERTEX
8
OBJECT__115
10
0
20
0
30
0
70
128
71
9
72
11
73
8
0
SEQEND
8
OBJECT__115
0
ENDSEC
0
EOF
