999
Converted by 3D Exploration 
999
XDimension Software, LLC
999
http://www.xdsoft.com/explorer/
0
SECTION
2
HEADER
9
$ACADVER
1
AC1008
9
$UCSORG
10
0.0
20
0.0
30
0.0
9
$UCSXDIR
10
1.0
20
0.0
30
0.0
9
$TILEMODE
70
1
9
$UCSYDIR
10
0.0
20
1.0
30
0.0
9
$EXTMIN
10
0.000000
20
-98.500000
30
-98.500000
9
$EXTMAX
10
11.800000
20
98.500000
30
78.000000
0
ENDSEC
0
SECTION
2
TABLES
0
TABLE
2
LTYPE
70
1
0
LTYPE
2
CONTINUOUS
70
64
3
Solid line
72
65
73
0
40
0.0
0
ENDTAB
0
TABLE
2
LAYER
70
23
0
LAYER
2
OBJECT__0
70
0
62
253
6
CONTINUOUS
0
LAYER
2
OBJECT__1
70
0
62
253
6
CONTINUOUS
0
LAYER
2
OBJECT__3
70
0
62
253
6
CONTINUOUS
0
LAYER
2
OBJECT__4
70
0
62
253
6
CONTINUOUS
0
LAYER
2
OBJECT__5
70
0
62
253
6
CONTINUOUS
0
LAYER
2
OBJECT__6
70
0
62
253
6
CONTINUOUS
0
LAYER
2
OBJECT__7
70
0
62
253
6
CONTINUOUS
0
LAYER
2
OBJECT__8
70
0
62
253
6
CONTINUOUS
0
LAYER
2
OBJECT__9
70
0
62
253
6
CONTINUOUS
0
LAYER
2
OBJECT__10
70
0
62
253
6
CONTINUOUS
0
LAYER
2
OBJECT__11
70
0
62
253
6
CONTINUOUS
0
LAYER
2
OBJECT__12
70
0
62
253
6
CONTINUOUS
0
LAYER
2
OBJECT__14
70
0
62
253
6
CONTINUOUS
0
LAYER
2
OBJECT__15
70
0
62
253
6
CONTINUOUS
0
LAYER
2
OBJECT__16
70
0
62
253
6
CONTINUOUS
0
LAYER
2
OBJECT__17
70
0
62
253
6
CONTINUOUS
0
LAYER
2
OBJECT__18
70
0
62
253
6
CONTINUOUS
0
LAYER
2
OBJECT__20
70
0
62
253
6
CONTINUOUS
0
LAYER
2
OBJECT__21
70
0
62
253
6
CONTINUOUS
0
LAYER
2
OBJECT__22
70
0
62
253
6
CONTINUOUS
0
ENDTAB
0
TABLE
2
STYLE
70
1
0
STYLE
2
STANDARD
70
0
40
0.0
41
1.0
50
0.0
71
0
42
0.2
3
txt
4
1
0
ENDTAB
0
TABLE
2
UCS
70
0
0
ENDTAB
0
ENDSEC
0
SECTION
2
ENTITIES
0
POLYLINE
8
OBJECT__0
66
1
70
64
71
4
72
2
62
253
0
VERTEX
8
OBJECT__0
10
10.400000
20
-92.500000
30
78.000000
70
192
0
VERTEX
8
OBJECT__0
10
10.400000
20
92.500000
30
78.000000
70
192
0
VERTEX
8
OBJECT__0
10
0.000000
20
92.500000
30
78.000000
70
192
0
VERTEX
8
OBJECT__0
10
0.000000
20
-92.500000
30
78.000000
70
192
0
VERTEX
8
OBJECT__0
10
0
20
0
30
0
70
128
71
1
72
2
73
3
0
VERTEX
8
OBJECT__0
10
0
20
0
30
0
70
128
71
3
72
4
73
1
0
SEQEND
8
OBJECT__0
0
POLYLINE
8
OBJECT__1
66
1
70
64
71
6
72
4
62
253
0
VERTEX
8
OBJECT__1
10
10.400000
20
96.742996
30
76.242996
70
192
0
VERTEX
8
OBJECT__1
10
0.000000
20
96.742996
30
76.242996
70
192
0
VERTEX
8
OBJECT__1
10
0.000000
20
92.500000
30
78.000000
70
192
0
VERTEX
8
OBJECT__1
10
10.400000
20
98.500000
30
72.000000
70
192
0
VERTEX
8
OBJECT__1
10
0.000000
20
98.500000
30
72.000000
70
192
0
VERTEX
8
OBJECT__1
10
10.400000
20
92.500000
30
78.000000
70
192
0
VERTEX
8
OBJECT__1
10
0
20
0
30
0
70
128
71
1
72
2
73
3
0
VERTEX
8
OBJECT__1
10
0
20
0
30
0
70
128
71
4
72
5
73
2
0
VERTEX
8
OBJECT__1
10
0
20
0
30
0
70
128
71
2
72
1
73
4
0
VERTEX
8
OBJECT__1
10
0
20
0
30
0
70
128
71
3
72
6
73
1
0
SEQEND
8
OBJECT__1
0
POLYLINE
8
OBJECT__3
66
1
70
64
71
4
72
2
62
253
0
VERTEX
8
OBJECT__3
10
0.000000
20
98.500000
30
-72.000000
70
192
0
VERTEX
8
OBJECT__3
10
0.000000
20
98.500000
30
72.000000
70
192
0
VERTEX
8
OBJECT__3
10
10.400000
20
98.500000
30
72.000000
70
192
0
VERTEX
8
OBJECT__3
10
10.400000
20
98.500000
30
-72.000000
70
192
0
VERTEX
8
OBJECT__3
10
0
20
0
30
0
70
128
71
1
72
2
73
3
0
VERTEX
8
OBJECT__3
10
0
20
0
30
0
70
128
71
3
72
4
73
1
0
SEQEND
8
OBJECT__3
0
POLYLINE
8
OBJECT__4
66
1
70
64
71
6
72
4
62
253
0
VERTEX
8
OBJECT__4
10
10.400000
20
-96.742996
30
76.242996
70
192
0
VERTEX
8
OBJECT__4
10
0.000000
20
-96.742996
30
76.242996
70
192
0
VERTEX
8
OBJECT__4
10
0.000000
20
-98.500000
30
72.000000
70
192
0
VERTEX
8
OBJECT__4
10
10.400000
20
-92.500000
30
78.000000
70
192
0
VERTEX
8
OBJECT__4
10
0.000000
20
-92.500000
30
78.000000
70
192
0
VERTEX
8
OBJECT__4
10
10.400000
20
-98.500000
30
72.000000
70
192
0
VERTEX
8
OBJECT__4
10
0
20
0
30
0
70
128
71
1
72
2
73
3
0
VERTEX
8
OBJECT__4
10
0
20
0
30
0
70
128
71
4
72
5
73
2
0
VERTEX
8
OBJECT__4
10
0
20
0
30
0
70
128
71
2
72
1
73
4
0
VERTEX
8
OBJECT__4
10
0
20
0
30
0
70
128
71
3
72
6
73
1
0
SEQEND
8
OBJECT__4
0
POLYLINE
8
OBJECT__5
66
1
70
64
71
4
72
2
62
253
0
VERTEX
8
OBJECT__5
10
0.000000
20
-98.500000
30
-72.000000
70
192
0
VERTEX
8
OBJECT__5
10
10.400000
20
-98.500000
30
-72.000000
70
192
0
VERTEX
8
OBJECT__5
10
10.400000
20
-98.500000
30
72.000000
70
192
0
VERTEX
8
OBJECT__5
10
0.000000
20
-98.500000
30
72.000000
70
192
0
VERTEX
8
OBJECT__5
10
0
20
0
30
0
70
128
71
1
72
2
73
3
0
VERTEX
8
OBJECT__5
10
0
20
0
30
0
70
128
71
3
72
4
73
1
0
SEQEND
8
OBJECT__5
0
POLYLINE
8
OBJECT__6
66
1
70
64
71
12
72
10
62
253
0
VERTEX
8
OBJECT__6
10
10.400000
20
92.500000
30
78.000000
70
192
0
VERTEX
8
OBJECT__6
10
10.400000
20
92.500000
30
-78.000000
70
192
0
VERTEX
8
OBJECT__6
10
10.400000
20
98.500000
30
-72.000000
70
192
0
VERTEX
8
OBJECT__6
10
10.400000
20
98.500000
30
72.000000
70
192
0
VERTEX
8
OBJECT__6
10
10.400000
20
-92.500000
30
-78.000000
70
192
0
VERTEX
8
OBJECT__6
10
10.400000
20
-92.500000
30
78.000000
70
192
0
VERTEX
8
OBJECT__6
10
10.400000
20
-98.500000
30
72.000000
70
192
0
VERTEX
8
OBJECT__6
10
10.400000
20
96.742996
30
-76.242996
70
192
0
VERTEX
8
OBJECT__6
10
10.400000
20
-96.742996
30
76.242996
70
192
0
VERTEX
8
OBJECT__6
10
10.400000
20
-98.500000
30
-72.000000
70
192
0
VERTEX
8
OBJECT__6
10
10.400000
20
-96.742996
30
-76.242996
70
192
0
VERTEX
8
OBJECT__6
10
10.400000
20
96.742996
30
76.242996
70
192
0
VERTEX
8
OBJECT__6
10
0
20
0
30
0
70
128
71
1
72
2
73
3
0
VERTEX
8
OBJECT__6
10
0
20
0
30
0
70
128
71
3
72
4
73
1
0
VERTEX
8
OBJECT__6
10
0
20
0
30
0
70
128
71
5
72
6
73
7
0
VERTEX
8
OBJECT__6
10
0
20
0
30
0
70
128
71
2
72
8
73
3
0
VERTEX
8
OBJECT__6
10
0
20
0
30
0
70
128
71
5
72
2
73
1
0
VERTEX
8
OBJECT__6
10
0
20
0
30
0
70
128
71
6
72
9
73
7
0
VERTEX
8
OBJECT__6
10
0
20
0
30
0
70
128
71
1
72
6
73
5
0
VERTEX
8
OBJECT__6
10
0
20
0
30
0
70
128
71
7
72
10
73
5
0
VERTEX
8
OBJECT__6
10
0
20
0
30
0
70
128
71
10
72
11
73
5
0
VERTEX
8
OBJECT__6
10
0
20
0
30
0
70
128
71
4
72
12
73
1
0
SEQEND
8
OBJECT__6
0
POLYLINE
8
OBJECT__7
66
1
70
64
71
12
72
10
62
253
0
VERTEX
8
OBJECT__7
10
0.000000
20
92.500000
30
-78.000000
70
192
0
VERTEX
8
OBJECT__7
10
0.000000
20
92.500000
30
78.000000
70
192
0
VERTEX
8
OBJECT__7
10
0.000000
20
98.500000
30
72.000000
70
192
0
VERTEX
8
OBJECT__7
10
0.000000
20
-92.500000
30
78.000000
70
192
0
VERTEX
8
OBJECT__7
10
0.000000
20
-92.500000
30
-78.000000
70
192
0
VERTEX
8
OBJECT__7
10
0.000000
20
-98.500000
30
-72.000000
70
192
0
VERTEX
8
OBJECT__7
10
0.000000
20
96.742996
30
76.242996
70
192
0
VERTEX
8
OBJECT__7
10
0.000000
20
-98.500000
30
72.000000
70
192
0
VERTEX
8
OBJECT__7
10
0.000000
20
98.500000
30
-72.000000
70
192
0
VERTEX
8
OBJECT__7
10
0.000000
20
-96.742996
30
-76.242996
70
192
0
VERTEX
8
OBJECT__7
10
0.000000
20
96.742996
30
-76.242996
70
192
0
VERTEX
8
OBJECT__7
10
0.000000
20
-96.742996
30
76.242996
70
192
0
VERTEX
8
OBJECT__7
10
0
20
0
30
0
70
128
71
1
72
2
73
3
0
VERTEX
8
OBJECT__7
10
0
20
0
30
0
70
128
71
4
72
5
73
6
0
VERTEX
8
OBJECT__7
10
0
20
0
30
0
70
128
71
2
72
7
73
3
0
VERTEX
8
OBJECT__7
10
0
20
0
30
0
70
128
71
6
72
8
73
4
0
VERTEX
8
OBJECT__7
10
0
20
0
30
0
70
128
71
4
72
2
73
1
0
VERTEX
8
OBJECT__7
10
0
20
0
30
0
70
128
71
3
72
9
73
1
0
VERTEX
8
OBJECT__7
10
0
20
0
30
0
70
128
71
5
72
10
73
6
0
VERTEX
8
OBJECT__7
10
0
20
0
30
0
70
128
71
9
72
11
73
1
0
VERTEX
8
OBJECT__7
10
0
20
0
30
0
70
128
71
1
72
5
73
4
0
VERTEX
8
OBJECT__7
10
0
20
0
30
0
70
128
71
8
72
12
73
4
0
SEQEND
8
OBJECT__7
0
POLYLINE
8
OBJECT__8
66
1
70
64
71
4
72
2
62
253
0
VERTEX
8
OBJECT__8
10
10.400000
20
92.500000
30
-78.000000
70
192
0
VERTEX
8
OBJECT__8
10
10.400000
20
-92.500000
30
-78.000000
70
192
0
VERTEX
8
OBJECT__8
10
0.000000
20
-92.500000
30
-78.000000
70
192
0
VERTEX
8
OBJECT__8
10
0.000000
20
92.500000
30
-78.000000
70
192
0
VERTEX
8
OBJECT__8
10
0
20
0
30
0
70
128
71
1
72
2
73
3
0
VERTEX
8
OBJECT__8
10
0
20
0
30
0
70
128
71
3
72
4
73
1
0
SEQEND
8
OBJECT__8
0
POLYLINE
8
OBJECT__9
66
1
70
64
71
6
72
4
62
253
0
VERTEX
8
OBJECT__9
10
10.400000
20
-96.742996
30
-76.242996
70
192
0
VERTEX
8
OBJECT__9
10
0.000000
20
-96.742996
30
-76.242996
70
192
0
VERTEX
8
OBJECT__9
10
0.000000
20
-92.500000
30
-78.000000
70
192
0
VERTEX
8
OBJECT__9
10
10.400000
20
-98.500000
30
-72.000000
70
192
0
VERTEX
8
OBJECT__9
10
0.000000
20
-98.500000
30
-72.000000
70
192
0
VERTEX
8
OBJECT__9
10
10.400000
20
-92.500000
30
-78.000000
70
192
0
VERTEX
8
OBJECT__9
10
0
20
0
30
0
70
128
71
1
72
2
73
3
0
VERTEX
8
OBJECT__9
10
0
20
0
30
0
70
128
71
4
72
5
73
2
0
VERTEX
8
OBJECT__9
10
0
20
0
30
0
70
128
71
2
72
1
73
4
0
VERTEX
8
OBJECT__9
10
0
20
0
30
0
70
128
71
3
72
6
73
1
0
SEQEND
8
OBJECT__9
0
POLYLINE
8
OBJECT__10
66
1
70
64
71
6
72
4
62
253
0
VERTEX
8
OBJECT__10
10
10.400000
20
96.742996
30
-76.242996
70
192
0
VERTEX
8
OBJECT__10
10
0.000000
20
96.742996
30
-76.242996
70
192
0
VERTEX
8
OBJECT__10
10
0.000000
20
98.500000
30
-72.000000
70
192
0
VERTEX
8
OBJECT__10
10
10.400000
20
92.500000
30
-78.000000
70
192
0
VERTEX
8
OBJECT__10
10
0.000000
20
92.500000
30
-78.000000
70
192
0
VERTEX
8
OBJECT__10
10
10.400000
20
98.500000
30
-72.000000
70
192
0
VERTEX
8
OBJECT__10
10
0
20
0
30
0
70
128
71
1
72
2
73
3
0
VERTEX
8
OBJECT__10
10
0
20
0
30
0
70
128
71
4
72
5
73
2
0
VERTEX
8
OBJECT__10
10
0
20
0
30
0
70
128
71
2
72
1
73
4
0
VERTEX
8
OBJECT__10
10
0
20
0
30
0
70
128
71
3
72
6
73
1
0
SEQEND
8
OBJECT__10
0
POLYLINE
8
OBJECT__11
66
1
70
64
71
4
72
2
62
253
0
VERTEX
8
OBJECT__11
10
11.800000
20
-49.799999
30
-34.799999
70
192
0
VERTEX
8
OBJECT__11
10
11.800000
20
-49.799999
30
34.799999
70
192
0
VERTEX
8
OBJECT__11
10
4.800000
20
-49.799999
30
34.799999
70
192
0
VERTEX
8
OBJECT__11
10
4.800000
20
-49.799999
30
-34.799999
70
192
0
VERTEX
8
OBJECT__11
10
0
20
0
30
0
70
128
71
1
72
2
73
3
0
VERTEX
8
OBJECT__11
10
0
20
0
30
0
70
128
71
3
72
4
73
1
0
SEQEND
8
OBJECT__11
0
POLYLINE
8
OBJECT__12
66
1
70
64
71
4
72
2
62
253
0
VERTEX
8
OBJECT__12
10
11.800000
20
-49.799999
30
-34.799999
70
192
0
VERTEX
8
OBJECT__12
10
11.800000
20
19.799999
30
-34.799999
70
192
0
VERTEX
8
OBJECT__12
10
11.800000
20
19.799999
30
34.799999
70
192
0
VERTEX
8
OBJECT__12
10
11.800000
20
-49.799999
30
34.799999
70
192
0
VERTEX
8
OBJECT__12
10
0
20
0
30
0
70
128
71
1
72
2
73
3
0
VERTEX
8
OBJECT__12
10
0
20
0
30
0
70
128
71
3
72
4
73
1
0
SEQEND
8
OBJECT__12
0
POLYLINE
8
OBJECT__14
66
1
70
64
71
4
72
2
62
253
0
VERTEX
8
OBJECT__14
10
4.800000
20
19.799999
30
-34.799999
70
192
0
VERTEX
8
OBJECT__14
10
11.800000
20
19.799999
30
-34.799999
70
192
0
VERTEX
8
OBJECT__14
10
11.800000
20
-49.799999
30
-34.799999
70
192
0
VERTEX
8
OBJECT__14
10
4.800000
20
-49.799999
30
-34.799999
70
192
0
VERTEX
8
OBJECT__14
10
0
20
0
30
0
70
128
71
1
72
2
73
3
0
VERTEX
8
OBJECT__14
10
0
20
0
30
0
70
128
71
3
72
4
73
1
0
SEQEND
8
OBJECT__14
0
POLYLINE
8
OBJECT__15
66
1
70
64
71
4
72
2
62
253
0
VERTEX
8
OBJECT__15
10
11.800000
20
19.799999
30
34.799999
70
192
0
VERTEX
8
OBJECT__15
10
11.800000
20
19.799999
30
-34.799999
70
192
0
VERTEX
8
OBJECT__15
10
4.800000
20
19.799999
30
-34.799999
70
192
0
VERTEX
8
OBJECT__15
10
4.800000
20
19.799999
30
34.799999
70
192
0
VERTEX
8
OBJECT__15
10
0
20
0
30
0
70
128
71
1
72
2
73
3
0
VERTEX
8
OBJECT__15
10
0
20
0
30
0
70
128
71
3
72
4
73
1
0
SEQEND
8
OBJECT__15
0
POLYLINE
8
OBJECT__16
66
1
70
64
71
4
72
2
62
253
0
VERTEX
8
OBJECT__16
10
11.800000
20
-49.799999
30
34.799999
70
192
0
VERTEX
8
OBJECT__16
10
11.800000
20
19.799999
30
34.799999
70
192
0
VERTEX
8
OBJECT__16
10
4.800000
20
19.799999
30
34.799999
70
192
0
VERTEX
8
OBJECT__16
10
4.800000
20
-49.799999
30
34.799999
70
192
0
VERTEX
8
OBJECT__16
10
0
20
0
30
0
70
128
71
1
72
2
73
3
0
VERTEX
8
OBJECT__16
10
0
20
0
30
0
70
128
71
3
72
4
73
1
0
SEQEND
8
OBJECT__16
0
POLYLINE
8
OBJECT__17
66
1
70
64
71
4
72
2
62
253
0
VERTEX
8
OBJECT__17
10
11.800000
20
20.450001
30
34.799999
70
192
0
VERTEX
8
OBJECT__17
10
11.800000
20
49.750000
30
34.799999
70
192
0
VERTEX
8
OBJECT__17
10
4.800000
20
49.750000
30
34.799999
70
192
0
VERTEX
8
OBJECT__17
10
4.800000
20
20.450001
30
34.799999
70
192
0
VERTEX
8
OBJECT__17
10
0
20
0
30
0
70
128
71
1
72
2
73
3
0
VERTEX
8
OBJECT__17
10
0
20
0
30
0
70
128
71
3
72
4
73
1
0
SEQEND
8
OBJECT__17
0
POLYLINE
8
OBJECT__18
66
1
70
64
71
4
72
2
62
253
0
VERTEX
8
OBJECT__18
10
11.800000
20
20.450001
30
34.799999
70
192
0
VERTEX
8
OBJECT__18
10
11.800000
20
20.450001
30
-34.799999
70
192
0
VERTEX
8
OBJECT__18
10
11.800000
20
49.750000
30
-34.799999
70
192
0
VERTEX
8
OBJECT__18
10
11.800000
20
49.750000
30
34.799999
70
192
0
VERTEX
8
OBJECT__18
10
0
20
0
30
0
70
128
71
1
72
2
73
3
0
VERTEX
8
OBJECT__18
10
0
20
0
30
0
70
128
71
3
72
4
73
1
0
SEQEND
8
OBJECT__18
0
POLYLINE
8
OBJECT__20
66
1
70
64
71
4
72
2
62
253
0
VERTEX
8
OBJECT__20
10
11.800000
20
20.450001
30
-34.799999
70
192
0
VERTEX
8
OBJECT__20
10
11.800000
20
20.450001
30
34.799999
70
192
0
VERTEX
8
OBJECT__20
10
4.800000
20
20.450001
30
34.799999
70
192
0
VERTEX
8
OBJECT__20
10
4.800000
20
20.450001
30
-34.799999
70
192
0
VERTEX
8
OBJECT__20
10
0
20
0
30
0
70
128
71
1
72
2
73
3
0
VERTEX
8
OBJECT__20
10
0
20
0
30
0
70
128
71
3
72
4
73
1
0
SEQEND
8
OBJECT__20
0
POLYLINE
8
OBJECT__21
66
1
70
64
71
4
72
2
62
253
0
VERTEX
8
OBJECT__21
10
11.800000
20
20.450001
30
-34.799999
70
192
0
VERTEX
8
OBJECT__21
10
4.800000
20
20.450001
30
-34.799999
70
192
0
VERTEX
8
OBJECT__21
10
4.800000
20
49.750000
30
-34.799999
70
192
0
VERTEX
8
OBJECT__21
10
11.800000
20
49.750000
30
-34.799999
70
192
0
VERTEX
8
OBJECT__21
10
0
20
0
30
0
70
128
71
1
72
2
73
3
0
VERTEX
8
OBJECT__21
10
0
20
0
30
0
70
128
71
3
72
4
73
1
0
SEQEND
8
OBJECT__21
0
POLYLINE
8
OBJECT__22
66
1
70
64
71
4
72
2
62
253
0
VERTEX
8
OBJECT__22
10
11.800000
20
49.750000
30
-34.799999
70
192
0
VERTEX
8
OBJECT__22
10
4.800000
20
49.750000
30
-34.799999
70
192
0
VERTEX
8
OBJECT__22
10
4.800000
20
49.750000
30
34.799999
70
192
0
VERTEX
8
OBJECT__22
10
11.800000
20
49.750000
30
34.799999
70
192
0
VERTEX
8
OBJECT__22
10
0
20
0
30
0
70
128
71
1
72
2
73
3
0
VERTEX
8
OBJECT__22
10
0
20
0
30
0
70
128
71
3
72
4
73
1
0
SEQEND
8
OBJECT__22
0
ENDSEC
0
EOF
