999
Converted by 3D Exploration 
999
XDimension Software, LLC
999
http://www.xdsoft.com/explorer/
0
SECTION
2
HEADER
9
$ACADVER
1
AC1008
9
$UCSORG
10
0.0
20
0.0
30
0.0
9
$UCSXDIR
10
1.0
20
0.0
30
0.0
9
$TILEMODE
70
1
9
$UCSYDIR
10
0.0
20
1.0
30
0.0
9
$EXTMIN
10
21.000000
20
-98.521004
30
-98.521004
9
$EXTMAX
10
37.266998
20
98.521004
30
87.521004
0
ENDSEC
0
SECTION
2
TABLES
0
TABLE
2
LTYPE
70
1
0
LTYPE
2
CONTINUOUS
70
64
3
Solid line
72
65
73
0
40
0.0
0
ENDTAB
0
TABLE
2
LAYER
70
21
0
LAYER
2
OBJECT__0
70
0
62
253
6
CONTINUOUS
0
LAYER
2
OBJECT__1
70
0
62
253
6
CONTINUOUS
0
LAYER
2
OBJECT__3
70
0
62
253
6
CONTINUOUS
0
LAYER
2
OBJECT__4
70
0
62
253
6
CONTINUOUS
0
LAYER
2
OBJECT__5
70
0
62
253
6
CONTINUOUS
0
LAYER
2
OBJECT__6
70
0
62
253
6
CONTINUOUS
0
LAYER
2
OBJECT__7
70
0
62
253
6
CONTINUOUS
0
LAYER
2
OBJECT__8
70
0
62
253
6
CONTINUOUS
0
LAYER
2
OBJECT__9
70
0
62
253
6
CONTINUOUS
0
LAYER
2
OBJECT__10
70
0
62
253
6
CONTINUOUS
0
LAYER
2
OBJECT__11
70
0
62
253
6
CONTINUOUS
0
LAYER
2
OBJECT__12
70
0
62
253
6
CONTINUOUS
0
LAYER
2
OBJECT__13
70
0
62
253
6
CONTINUOUS
0
LAYER
2
OBJECT__14
70
0
62
253
6
CONTINUOUS
0
LAYER
2
OBJECT__16
70
0
62
253
6
CONTINUOUS
0
LAYER
2
OBJECT__17
70
0
62
253
6
CONTINUOUS
0
LAYER
2
OBJECT__18
70
0
62
253
6
CONTINUOUS
0
LAYER
2
OBJECT__20
70
0
62
253
6
CONTINUOUS
0
ENDTAB
0
TABLE
2
STYLE
70
1
0
STYLE
2
STANDARD
70
0
40
0.0
41
1.0
50
0.0
71
0
42
0.2
3
txt
4
1
0
ENDTAB
0
TABLE
2
UCS
70
0
0
ENDTAB
0
ENDSEC
0
SECTION
2
ENTITIES
0
POLYLINE
8
OBJECT__0
66
1
70
64
71
106
72
125
62
253
0
VERTEX
8
OBJECT__0
10
29.334000
20
-11.913000
30
-12.742000
70
192
0
VERTEX
8
OBJECT__0
10
29.333000
20
-14.125000
30
-24.566999
70
192
0
VERTEX
8
OBJECT__0
10
29.333000
20
-9.467000
30
-26.268000
70
192
0
VERTEX
8
OBJECT__0
10
29.334000
20
-2.667000
30
-15.798000
70
192
0
VERTEX
8
OBJECT__0
10
29.333000
20
-17.587999
30
-22.905001
70
192
0
VERTEX
8
OBJECT__0
10
29.333000
20
-15.822000
30
-23.947001
70
192
0
VERTEX
8
OBJECT__0
10
29.333000
20
-7.189000
30
-26.653999
70
192
0
VERTEX
8
OBJECT__0
10
29.334000
20
2.673000
30
34.794998
70
192
0
VERTEX
8
OBJECT__0
10
29.334000
20
7.436000
30
33.755001
70
192
0
VERTEX
8
OBJECT__0
10
29.333000
20
7.241000
30
45.715000
70
192
0
VERTEX
8
OBJECT__0
10
29.333000
20
10.954000
30
44.681999
70
192
0
VERTEX
8
OBJECT__0
10
29.333000
20
8.103000
30
45.602001
70
192
0
VERTEX
8
OBJECT__0
10
29.334000
20
-25.297001
30
12.157000
70
192
0
VERTEX
8
OBJECT__0
10
29.334000
20
-36.176998
30
16.688999
70
192
0
VERTEX
8
OBJECT__0
10
29.334000
20
-36.585999
30
15.019000
70
192
0
VERTEX
8
OBJECT__0
10
29.334000
20
-22.239000
30
21.407000
70
192
0
VERTEX
8
OBJECT__0
10
29.333000
20
-34.988998
30
21.531000
70
192
0
VERTEX
8
OBJECT__0
10
29.333000
20
-34.067001
30
23.579000
70
192
0
VERTEX
8
OBJECT__0
10
29.334000
20
-32.469002
30
27.131001
70
192
0
VERTEX
8
OBJECT__0
10
29.334000
20
-19.469999
30
-6.269000
70
192
0
VERTEX
8
OBJECT__0
10
29.334000
20
-22.264999
30
-2.098000
70
192
0
VERTEX
8
OBJECT__0
10
29.333000
20
-30.733999
30
-11.052000
70
192
0
VERTEX
8
OBJECT__0
10
29.333000
20
-32.612999
30
-7.651000
70
192
0
VERTEX
8
OBJECT__0
10
29.333000
20
-30.930000
30
-10.805000
70
192
0
VERTEX
8
OBJECT__0
10
29.333000
20
-26.124001
30
-16.613001
70
192
0
VERTEX
8
OBJECT__0
10
29.333000
20
-21.627001
30
-20.521000
70
192
0
VERTEX
8
OBJECT__0
10
29.333000
20
-20.493999
30
-21.190001
70
192
0
VERTEX
8
OBJECT__0
10
29.333000
20
-28.627001
30
-13.698000
70
192
0
VERTEX
8
OBJECT__0
10
29.333000
20
-26.714001
30
-16.100000
70
192
0
VERTEX
8
OBJECT__0
10
29.334000
20
-24.232000
30
2.471000
70
192
0
VERTEX
8
OBJECT__0
10
29.333000
20
-36.231998
30
2.286000
70
192
0
VERTEX
8
OBJECT__0
10
29.333000
20
-36.144001
30
1.586000
70
192
0
VERTEX
8
OBJECT__0
10
29.334000
20
-25.274000
30
7.282000
70
192
0
VERTEX
8
OBJECT__0
10
29.333000
20
-36.713001
30
6.123000
70
192
0
VERTEX
8
OBJECT__0
10
29.333000
20
-34.160999
30
-4.661000
70
192
0
VERTEX
8
OBJECT__0
10
29.333000
20
-34.091999
30
-4.879000
70
192
0
VERTEX
8
OBJECT__0
10
29.333000
20
-35.331001
30
-0.973000
70
192
0
VERTEX
8
OBJECT__0
10
29.333000
20
-36.907001
30
9.475000
70
192
0
VERTEX
8
OBJECT__0
10
29.333000
20
-36.979000
30
8.243000
70
192
0
VERTEX
8
OBJECT__0
10
29.334000
20
-36.681999
30
13.361000
70
192
0
VERTEX
8
OBJECT__0
10
29.334000
20
-7.022000
30
33.729000
70
192
0
VERTEX
8
OBJECT__0
10
29.333000
20
-14.110000
30
43.549999
70
192
0
VERTEX
8
OBJECT__0
10
29.333000
20
-18.039000
30
41.805000
70
192
0
VERTEX
8
OBJECT__0
10
29.334000
20
-15.764000
30
28.965000
70
192
0
VERTEX
8
OBJECT__0
10
29.333000
20
-20.489000
30
40.127998
70
192
0
VERTEX
8
OBJECT__0
10
29.333000
20
-10.497000
30
44.873001
70
192
0
VERTEX
8
OBJECT__0
10
29.333000
20
-11.876000
30
44.542000
70
192
0
VERTEX
8
OBJECT__0
10
29.333000
20
-30.649000
30
29.964001
70
192
0
VERTEX
8
OBJECT__0
10
29.334000
20
-32.203999
30
27.718000
70
192
0
VERTEX
8
OBJECT__0
10
29.333000
20
-28.384001
30
33.235001
70
192
0
VERTEX
8
OBJECT__0
10
29.333000
20
-26.066999
30
35.540001
70
192
0
VERTEX
8
OBJECT__0
10
29.333000
20
-23.278000
30
38.219002
70
192
0
VERTEX
8
OBJECT__0
10
29.333000
20
-23.583000
30
38.011002
70
192
0
VERTEX
8
OBJECT__0
10
29.334000
20
0.005000
30
46.398998
70
192
0
VERTEX
8
OBJECT__0
10
29.333000
20
-5.295000
30
46.118999
70
192
0
VERTEX
8
OBJECT__0
10
29.333000
20
-7.220000
30
45.658001
70
192
0
VERTEX
8
OBJECT__0
10
29.334000
20
3.869000
30
46.153999
70
192
0
VERTEX
8
OBJECT__0
10
29.334000
20
1.416000
30
46.473000
70
192
0
VERTEX
8
OBJECT__0
10
29.334000
20
22.236000
30
-2.421000
70
192
0
VERTEX
8
OBJECT__0
10
29.333000
20
34.040001
30
-4.610000
70
192
0
VERTEX
8
OBJECT__0
10
29.333000
20
35.410999
30
-1.227000
70
192
0
VERTEX
8
OBJECT__0
10
29.333000
20
25.296000
30
6.829000
70
192
0
VERTEX
8
OBJECT__0
10
29.333000
20
32.452000
30
-8.136000
70
192
0
VERTEX
8
OBJECT__0
10
29.333000
20
32.887001
30
-7.454000
70
192
0
VERTEX
8
OBJECT__0
10
29.333000
20
36.137001
30
2.310000
70
192
0
VERTEX
8
OBJECT__0
10
29.334000
20
19.482000
30
25.250999
70
192
0
VERTEX
8
OBJECT__0
10
29.333000
20
30.695000
30
30.004000
70
192
0
VERTEX
8
OBJECT__0
10
29.333000
20
30.121000
30
30.988001
70
192
0
VERTEX
8
OBJECT__0
10
29.334000
20
24.236000
30
16.510000
70
192
0
VERTEX
8
OBJECT__0
10
29.333000
20
33.537998
30
25.127001
70
192
0
VERTEX
8
OBJECT__0
10
29.333000
20
34.088001
30
23.598000
70
192
0
VERTEX
8
OBJECT__0
10
29.333000
20
35.398998
30
19.954000
70
192
0
VERTEX
8
OBJECT__0
10
29.334000
20
11.930000
30
31.730000
70
192
0
VERTEX
8
OBJECT__0
10
29.333000
20
20.566999
30
40.243000
70
192
0
VERTEX
8
OBJECT__0
10
29.333000
20
20.462999
30
40.327000
70
192
0
VERTEX
8
OBJECT__0
10
29.333000
20
25.740999
30
36.077999
70
192
0
VERTEX
8
OBJECT__0
10
29.333000
20
26.138000
30
35.617001
70
192
0
VERTEX
8
OBJECT__0
10
29.333000
20
28.677000
30
32.666000
70
192
0
VERTEX
8
OBJECT__0
10
29.333000
20
14.157000
30
43.646999
70
192
0
VERTEX
8
OBJECT__0
10
29.333000
20
17.628000
30
41.856998
70
192
0
VERTEX
8
OBJECT__0
10
29.333000
20
14.543000
30
43.521999
70
192
0
VERTEX
8
OBJECT__0
10
29.333000
20
36.155998
30
16.695000
70
192
0
VERTEX
8
OBJECT__0
10
29.333000
20
35.807999
30
18.816999
70
192
0
VERTEX
8
OBJECT__0
10
29.333000
20
36.907001
30
12.119000
70
192
0
VERTEX
8
OBJECT__0
10
29.333000
20
36.855000
30
9.483000
70
192
0
VERTEX
8
OBJECT__0
10
29.333000
20
36.773998
30
5.416000
70
192
0
VERTEX
8
OBJECT__0
10
29.334000
20
7.013000
30
-14.736000
70
192
0
VERTEX
8
OBJECT__0
10
29.333000
20
14.130000
30
-24.606001
70
192
0
VERTEX
8
OBJECT__0
10
29.333000
20
19.240000
30
-22.105000
70
192
0
VERTEX
8
OBJECT__0
10
29.334000
20
15.755000
30
-9.979000
70
192
0
VERTEX
8
OBJECT__0
10
29.333000
20
20.479000
30
-21.186001
70
192
0
VERTEX
8
OBJECT__0
10
29.333000
20
10.445000
30
-25.840000
70
192
0
VERTEX
8
OBJECT__0
10
29.333000
20
13.166000
30
-25.077999
70
192
0
VERTEX
8
OBJECT__0
10
29.334000
20
19.357000
30
-6.484000
70
192
0
VERTEX
8
OBJECT__0
10
29.333000
20
30.632999
30
-10.990000
70
192
0
VERTEX
8
OBJECT__0
10
29.333000
20
28.365000
30
-14.109000
70
192
0
VERTEX
8
OBJECT__0
10
29.333000
20
29.250000
30
-13.159000
70
192
0
VERTEX
8
OBJECT__0
10
29.333000
20
26.070000
30
-16.570999
70
192
0
VERTEX
8
OBJECT__0
10
29.333000
20
23.190001
30
-19.174999
70
192
0
VERTEX
8
OBJECT__0
10
29.333000
20
24.658001
30
-18.086000
70
192
0
VERTEX
8
OBJECT__0
10
29.333000
20
0.000000
30
-27.500000
70
192
0
VERTEX
8
OBJECT__0
10
29.333000
20
6.692000
30
-26.889999
70
192
0
VERTEX
8
OBJECT__0
10
29.333000
20
-3.867000
30
-27.216999
70
192
0
VERTEX
8
OBJECT__0
10
29.333000
20
-2.844000
30
-27.391001
70
192
0
VERTEX
8
OBJECT__0
10
29.333000
20
7.200000
30
-26.747999
70
192
0
VERTEX
8
OBJECT__0
10
29.334000
20
0.000000
30
9.498000
70
192
0
VERTEX
8
OBJECT__0
10
0
20
0
30
0
70
128
71
1
72
2
73
3
0
VERTEX
8
OBJECT__0
10
0
20
0
30
0
70
128
71
3
72
4
73
1
0
VERTEX
8
OBJECT__0
10
0
20
0
30
0
70
128
71
1
72
5
73
6
0
VERTEX
8
OBJECT__0
10
0
20
0
30
0
70
128
71
6
72
2
73
1
0
VERTEX
8
OBJECT__0
10
0
20
0
30
0
70
128
71
3
72
7
73
4
0
VERTEX
8
OBJECT__0
10
0
20
0
30
0
70
128
71
8
72
9
73
10
0
VERTEX
8
OBJECT__0
10
0
20
0
30
0
70
128
71
9
72
11
73
12
0
VERTEX
8
OBJECT__0
10
0
20
0
30
0
70
128
71
12
72
10
73
9
0
VERTEX
8
OBJECT__0
10
0
20
0
30
0
70
128
71
13
72
14
73
15
0
VERTEX
8
OBJECT__0
10
0
20
0
30
0
70
128
71
13
72
16
73
17
0
VERTEX
8
OBJECT__0
10
0
20
0
30
0
70
128
71
16
72
18
73
17
0
VERTEX
8
OBJECT__0
10
0
20
0
30
0
70
128
71
16
72
19
73
18
0
VERTEX
8
OBJECT__0
10
0
20
0
30
0
70
128
71
17
72
14
73
13
0
VERTEX
8
OBJECT__0
10
0
20
0
30
0
70
128
71
20
72
21
73
22
0
VERTEX
8
OBJECT__0
10
0
20
0
30
0
70
128
71
21
72
23
73
24
0
VERTEX
8
OBJECT__0
10
0
20
0
30
0
70
128
71
24
72
22
73
21
0
VERTEX
8
OBJECT__0
10
0
20
0
30
0
70
128
71
20
72
25
73
26
0
VERTEX
8
OBJECT__0
10
0
20
0
30
0
70
128
71
26
72
1
73
20
0
VERTEX
8
OBJECT__0
10
0
20
0
30
0
70
128
71
26
72
27
73
1
0
VERTEX
8
OBJECT__0
10
0
20
0
30
0
70
128
71
20
72
28
73
29
0
VERTEX
8
OBJECT__0
10
0
20
0
30
0
70
128
71
29
72
25
73
20
0
VERTEX
8
OBJECT__0
10
0
20
0
30
0
70
128
71
30
72
31
73
32
0
VERTEX
8
OBJECT__0
10
0
20
0
30
0
70
128
71
31
72
30
73
33
0
VERTEX
8
OBJECT__0
10
0
20
0
30
0
70
128
71
33
72
34
73
31
0
VERTEX
8
OBJECT__0
10
0
20
0
30
0
70
128
71
21
72
35
73
36
0
VERTEX
8
OBJECT__0
10
0
20
0
30
0
70
128
71
35
72
21
73
30
0
VERTEX
8
OBJECT__0
10
0
20
0
30
0
70
128
71
30
72
37
73
35
0
VERTEX
8
OBJECT__0
10
0
20
0
30
0
70
128
71
33
72
38
73
39
0
VERTEX
8
OBJECT__0
10
0
20
0
30
0
70
128
71
13
72
40
73
38
0
VERTEX
8
OBJECT__0
10
0
20
0
30
0
70
128
71
38
72
33
73
13
0
VERTEX
8
OBJECT__0
10
0
20
0
30
0
70
128
71
41
72
42
73
43
0
VERTEX
8
OBJECT__0
10
0
20
0
30
0
70
128
71
43
72
44
73
41
0
VERTEX
8
OBJECT__0
10
0
20
0
30
0
70
128
71
43
72
45
73
44
0
VERTEX
8
OBJECT__0
10
0
20
0
30
0
70
128
71
41
72
46
73
47
0
VERTEX
8
OBJECT__0
10
0
20
0
30
0
70
128
71
47
72
42
73
41
0
VERTEX
8
OBJECT__0
10
0
20
0
30
0
70
128
71
16
72
48
73
49
0
VERTEX
8
OBJECT__0
10
0
20
0
30
0
70
128
71
16
72
44
73
50
0
VERTEX
8
OBJECT__0
10
0
20
0
30
0
70
128
71
44
72
51
73
50
0
VERTEX
8
OBJECT__0
10
0
20
0
30
0
70
128
71
44
72
52
73
53
0
VERTEX
8
OBJECT__0
10
0
20
0
30
0
70
128
71
53
72
51
73
44
0
VERTEX
8
OBJECT__0
10
0
20
0
30
0
70
128
71
50
72
48
73
16
0
VERTEX
8
OBJECT__0
10
0
20
0
30
0
70
128
71
8
72
54
73
55
0
VERTEX
8
OBJECT__0
10
0
20
0
30
0
70
128
71
55
72
41
73
8
0
VERTEX
8
OBJECT__0
10
0
20
0
30
0
70
128
71
55
72
56
73
41
0
VERTEX
8
OBJECT__0
10
0
20
0
30
0
70
128
71
8
72
57
73
58
0
VERTEX
8
OBJECT__0
10
0
20
0
30
0
70
128
71
58
72
54
73
8
0
VERTEX
8
OBJECT__0
10
0
20
0
30
0
70
128
71
59
72
60
73
61
0
VERTEX
8
OBJECT__0
10
0
20
0
30
0
70
128
71
61
72
62
73
59
0
VERTEX
8
OBJECT__0
10
0
20
0
30
0
70
128
71
59
72
63
73
64
0
VERTEX
8
OBJECT__0
10
0
20
0
30
0
70
128
71
64
72
60
73
59
0
VERTEX
8
OBJECT__0
10
0
20
0
30
0
70
128
71
61
72
65
73
62
0
VERTEX
8
OBJECT__0
10
0
20
0
30
0
70
128
71
66
72
67
73
68
0
VERTEX
8
OBJECT__0
10
0
20
0
30
0
70
128
71
66
72
69
73
70
0
VERTEX
8
OBJECT__0
10
0
20
0
30
0
70
128
71
69
72
71
73
70
0
VERTEX
8
OBJECT__0
10
0
20
0
30
0
70
128
71
70
72
67
73
66
0
VERTEX
8
OBJECT__0
10
0
20
0
30
0
70
128
71
69
72
72
73
71
0
VERTEX
8
OBJECT__0
10
0
20
0
30
0
70
128
71
73
72
74
73
75
0
VERTEX
8
OBJECT__0
10
0
20
0
30
0
70
128
71
73
72
66
73
76
0
VERTEX
8
OBJECT__0
10
0
20
0
30
0
70
128
71
66
72
77
73
76
0
VERTEX
8
OBJECT__0
10
0
20
0
30
0
70
128
71
76
72
74
73
73
0
VERTEX
8
OBJECT__0
10
0
20
0
30
0
70
128
71
66
72
78
73
77
0
VERTEX
8
OBJECT__0
10
0
20
0
30
0
70
128
71
9
72
73
73
79
0
VERTEX
8
OBJECT__0
10
0
20
0
30
0
70
128
71
73
72
80
73
81
0
VERTEX
8
OBJECT__0
10
0
20
0
30
0
70
128
71
81
72
79
73
73
0
VERTEX
8
OBJECT__0
10
0
20
0
30
0
70
128
71
69
72
82
73
83
0
VERTEX
8
OBJECT__0
10
0
20
0
30
0
70
128
71
69
72
62
73
84
0
VERTEX
8
OBJECT__0
10
0
20
0
30
0
70
128
71
62
72
85
73
84
0
VERTEX
8
OBJECT__0
10
0
20
0
30
0
70
128
71
62
72
86
73
85
0
VERTEX
8
OBJECT__0
10
0
20
0
30
0
70
128
71
84
72
82
73
69
0
VERTEX
8
OBJECT__0
10
0
20
0
30
0
70
128
71
87
72
88
73
89
0
VERTEX
8
OBJECT__0
10
0
20
0
30
0
70
128
71
89
72
90
73
87
0
VERTEX
8
OBJECT__0
10
0
20
0
30
0
70
128
71
89
72
91
73
90
0
VERTEX
8
OBJECT__0
10
0
20
0
30
0
70
128
71
87
72
92
73
93
0
VERTEX
8
OBJECT__0
10
0
20
0
30
0
70
128
71
93
72
88
73
87
0
VERTEX
8
OBJECT__0
10
0
20
0
30
0
70
128
71
59
72
94
73
95
0
VERTEX
8
OBJECT__0
10
0
20
0
30
0
70
128
71
94
72
96
73
97
0
VERTEX
8
OBJECT__0
10
0
20
0
30
0
70
128
71
97
72
95
73
94
0
VERTEX
8
OBJECT__0
10
0
20
0
30
0
70
128
71
94
72
90
73
98
0
VERTEX
8
OBJECT__0
10
0
20
0
30
0
70
128
71
90
72
99
73
100
0
VERTEX
8
OBJECT__0
10
0
20
0
30
0
70
128
71
100
72
98
73
90
0
VERTEX
8
OBJECT__0
10
0
20
0
30
0
70
128
71
87
72
4
73
101
0
VERTEX
8
OBJECT__0
10
0
20
0
30
0
70
128
71
101
72
102
73
87
0
VERTEX
8
OBJECT__0
10
0
20
0
30
0
70
128
71
4
72
103
73
104
0
VERTEX
8
OBJECT__0
10
0
20
0
30
0
70
128
71
104
72
101
73
4
0
VERTEX
8
OBJECT__0
10
0
20
0
30
0
70
128
71
102
72
105
73
87
0
VERTEX
8
OBJECT__0
10
0
20
0
30
0
70
128
71
106
72
90
73
94
0
VERTEX
8
OBJECT__0
10
0
20
0
30
0
70
128
71
106
72
30
73
21
0
VERTEX
8
OBJECT__0
10
0
20
0
30
0
70
128
71
106
72
8
73
41
0
VERTEX
8
OBJECT__0
10
0
20
0
30
0
70
128
71
106
72
44
73
16
0
VERTEX
8
OBJECT__0
10
0
20
0
30
0
70
128
71
41
72
44
73
106
0
VERTEX
8
OBJECT__0
10
0
20
0
30
0
70
128
71
106
72
13
73
33
0
VERTEX
8
OBJECT__0
10
0
20
0
30
0
70
128
71
33
72
30
73
106
0
VERTEX
8
OBJECT__0
10
0
20
0
30
0
70
128
71
106
72
20
73
1
0
VERTEX
8
OBJECT__0
10
0
20
0
30
0
70
128
71
21
72
20
73
106
0
VERTEX
8
OBJECT__0
10
0
20
0
30
0
70
128
71
16
72
13
73
106
0
VERTEX
8
OBJECT__0
10
0
20
0
30
0
70
128
71
106
72
4
73
87
0
VERTEX
8
OBJECT__0
10
0
20
0
30
0
70
128
71
94
72
59
73
106
0
VERTEX
8
OBJECT__0
10
0
20
0
30
0
70
128
71
87
72
90
73
106
0
VERTEX
8
OBJECT__0
10
0
20
0
30
0
70
128
71
106
72
62
73
69
0
VERTEX
8
OBJECT__0
10
0
20
0
30
0
70
128
71
106
72
73
73
9
0
VERTEX
8
OBJECT__0
10
0
20
0
30
0
70
128
71
106
72
66
73
73
0
VERTEX
8
OBJECT__0
10
0
20
0
30
0
70
128
71
69
72
66
73
106
0
VERTEX
8
OBJECT__0
10
0
20
0
30
0
70
128
71
59
72
62
73
106
0
VERTEX
8
OBJECT__0
10
0
20
0
30
0
70
128
71
105
72
92
73
87
0
VERTEX
8
OBJECT__0
10
0
20
0
30
0
70
128
71
98
72
96
73
94
0
VERTEX
8
OBJECT__0
10
0
20
0
30
0
70
128
71
95
72
63
73
59
0
VERTEX
8
OBJECT__0
10
0
20
0
30
0
70
128
71
91
72
99
73
90
0
VERTEX
8
OBJECT__0
10
0
20
0
30
0
70
128
71
83
72
72
73
69
0
VERTEX
8
OBJECT__0
10
0
20
0
30
0
70
128
71
79
72
11
73
9
0
VERTEX
8
OBJECT__0
10
0
20
0
30
0
70
128
71
75
72
80
73
73
0
VERTEX
8
OBJECT__0
10
0
20
0
30
0
70
128
71
68
72
78
73
66
0
VERTEX
8
OBJECT__0
10
0
20
0
30
0
70
128
71
65
72
86
73
62
0
VERTEX
8
OBJECT__0
10
0
20
0
30
0
70
128
71
56
72
46
73
41
0
VERTEX
8
OBJECT__0
10
0
20
0
30
0
70
128
71
49
72
19
73
16
0
VERTEX
8
OBJECT__0
10
0
20
0
30
0
70
128
71
45
72
52
73
44
0
VERTEX
8
OBJECT__0
10
0
20
0
30
0
70
128
71
39
72
34
73
33
0
VERTEX
8
OBJECT__0
10
0
20
0
30
0
70
128
71
36
72
23
73
21
0
VERTEX
8
OBJECT__0
10
0
20
0
30
0
70
128
71
32
72
37
73
30
0
VERTEX
8
OBJECT__0
10
0
20
0
30
0
70
128
71
27
72
5
73
1
0
VERTEX
8
OBJECT__0
10
0
20
0
30
0
70
128
71
22
72
28
73
20
0
VERTEX
8
OBJECT__0
10
0
20
0
30
0
70
128
71
15
72
40
73
13
0
VERTEX
8
OBJECT__0
10
0
20
0
30
0
70
128
71
9
72
8
73
106
0
VERTEX
8
OBJECT__0
10
0
20
0
30
0
70
128
71
1
72
4
73
106
0
VERTEX
8
OBJECT__0
10
0
20
0
30
0
70
128
71
10
72
57
73
8
0
VERTEX
8
OBJECT__0
10
0
20
0
30
0
70
128
71
7
72
103
73
4
0
SEQEND
8
OBJECT__0
0
POLYLINE
8
OBJECT__1
66
1
70
64
71
157
72
157
62
253
0
VERTEX
8
OBJECT__1
10
29.333000
20
-7.189000
30
-26.653999
70
192
0
VERTEX
8
OBJECT__1
10
32.804001
20
-8.001000
30
-30.780001
70
192
0
VERTEX
8
OBJECT__1
10
32.804001
20
-7.082000
30
-31.025000
70
192
0
VERTEX
8
OBJECT__1
10
32.804001
20
-0.519000
30
-31.594000
70
192
0
VERTEX
8
OBJECT__1
10
29.333000
20
-2.844000
30
-27.391001
70
192
0
VERTEX
8
OBJECT__1
10
29.333000
20
-3.867000
30
-27.216999
70
192
0
VERTEX
8
OBJECT__1
10
29.333000
20
0.000000
30
-27.500000
70
192
0
VERTEX
8
OBJECT__1
10
32.804001
20
0.000000
30
-31.639000
70
192
0
VERTEX
8
OBJECT__1
10
32.804001
20
-13.978000
30
-29.191999
70
192
0
VERTEX
8
OBJECT__1
10
29.333000
20
-9.467000
30
-26.268000
70
192
0
VERTEX
8
OBJECT__1
10
29.333000
20
-14.125000
30
-24.566999
70
192
0
VERTEX
8
OBJECT__1
10
32.804001
20
-15.701000
30
-28.396000
70
192
0
VERTEX
8
OBJECT__1
10
29.333000
20
-20.493999
30
-21.190001
70
192
0
VERTEX
8
OBJECT__1
10
32.804001
20
-22.757000
30
-24.593000
70
192
0
VERTEX
8
OBJECT__1
10
32.804001
20
-20.407000
30
-26.221001
70
192
0
VERTEX
8
OBJECT__1
10
29.333000
20
-15.822000
30
-23.947001
70
192
0
VERTEX
8
OBJECT__1
10
29.333000
20
-17.587999
30
-22.905001
70
192
0
VERTEX
8
OBJECT__1
10
29.333000
20
-26.124001
30
-16.613001
70
192
0
VERTEX
8
OBJECT__1
10
32.804001
20
-28.985001
30
-19.478001
70
192
0
VERTEX
8
OBJECT__1
10
32.804001
20
-26.275000
30
-22.157000
70
192
0
VERTEX
8
OBJECT__1
10
29.333000
20
-21.627001
30
-20.521000
70
192
0
VERTEX
8
OBJECT__1
10
32.804001
20
-34.090000
30
-13.294000
70
192
0
VERTEX
8
OBJECT__1
10
32.804001
20
-31.354000
30
-17.138000
70
192
0
VERTEX
8
OBJECT__1
10
29.333000
20
-28.627001
30
-13.698000
70
192
0
VERTEX
8
OBJECT__1
10
29.333000
20
-26.714001
30
-16.100000
70
192
0
VERTEX
8
OBJECT__1
10
32.804001
20
-37.917000
30
-6.210000
70
192
0
VERTEX
8
OBJECT__1
10
32.804001
20
-35.456001
30
-11.375000
70
192
0
VERTEX
8
OBJECT__1
10
29.333000
20
-32.612999
30
-7.651000
70
192
0
VERTEX
8
OBJECT__1
10
29.333000
20
-30.930000
30
-10.805000
70
192
0
VERTEX
8
OBJECT__1
10
29.333000
20
-30.733999
30
-11.052000
70
192
0
VERTEX
8
OBJECT__1
10
29.333000
20
-34.091999
30
-4.879000
70
192
0
VERTEX
8
OBJECT__1
10
32.804001
20
-40.319000
30
1.479000
70
192
0
VERTEX
8
OBJECT__1
10
32.804001
20
-38.521000
30
-4.944000
70
192
0
VERTEX
8
OBJECT__1
10
29.333000
20
-35.331001
30
-0.973000
70
192
0
VERTEX
8
OBJECT__1
10
29.333000
20
-34.160999
30
-4.661000
70
192
0
VERTEX
8
OBJECT__1
10
29.333000
20
-36.144001
30
1.586000
70
192
0
VERTEX
8
OBJECT__1
10
29.333000
20
-36.907001
30
9.475000
70
192
0
VERTEX
8
OBJECT__1
10
32.804001
20
-41.098999
30
9.475000
70
192
0
VERTEX
8
OBJECT__1
10
32.804001
20
-41.136002
30
8.977000
70
192
0
VERTEX
8
OBJECT__1
10
32.804001
20
-40.438000
30
1.901000
70
192
0
VERTEX
8
OBJECT__1
10
29.333000
20
-36.231998
30
2.286000
70
192
0
VERTEX
8
OBJECT__1
10
29.333000
20
-36.713001
30
6.123000
70
192
0
VERTEX
8
OBJECT__1
10
29.333000
20
-36.979000
30
8.243000
70
192
0
VERTEX
8
OBJECT__1
10
29.334000
20
-36.585999
30
15.019000
70
192
0
VERTEX
8
OBJECT__1
10
29.334000
20
-36.176998
30
16.688999
70
192
0
VERTEX
8
OBJECT__1
10
32.804001
20
-40.252998
30
17.500000
70
192
0
VERTEX
8
OBJECT__1
10
32.804001
20
-41.097000
30
9.500000
70
192
0
VERTEX
8
OBJECT__1
10
29.334000
20
-36.681999
30
13.361000
70
192
0
VERTEX
8
OBJECT__1
10
32.804001
20
-40.605999
30
16.101999
70
192
0
VERTEX
8
OBJECT__1
10
32.804001
20
-37.891998
30
25.160999
70
192
0
VERTEX
8
OBJECT__1
10
32.804001
20
-38.875000
30
22.959000
70
192
0
VERTEX
8
OBJECT__1
10
29.333000
20
-34.988998
30
21.531000
70
192
0
VERTEX
8
OBJECT__1
10
32.804001
20
-34.084999
30
32.261002
70
192
0
VERTEX
8
OBJECT__1
10
32.804001
20
-35.964001
30
29.478001
70
192
0
VERTEX
8
OBJECT__1
10
29.334000
20
-32.203999
30
27.718000
70
192
0
VERTEX
8
OBJECT__1
10
29.333000
20
-34.067001
30
23.579000
70
192
0
VERTEX
8
OBJECT__1
10
29.334000
20
-32.469002
30
27.131001
70
192
0
VERTEX
8
OBJECT__1
10
32.804001
20
-28.999001
30
38.473000
70
192
0
VERTEX
8
OBJECT__1
10
32.804001
20
-31.983000
30
35.375000
70
192
0
VERTEX
8
OBJECT__1
10
29.333000
20
-28.384001
30
33.235001
70
192
0
VERTEX
8
OBJECT__1
10
29.333000
20
-30.649000
30
29.964001
70
192
0
VERTEX
8
OBJECT__1
10
32.804001
20
-22.806000
30
43.596001
70
192
0
VERTEX
8
OBJECT__1
10
32.804001
20
-27.056999
30
40.488998
70
192
0
VERTEX
8
OBJECT__1
10
29.333000
20
-23.278000
30
38.219002
70
192
0
VERTEX
8
OBJECT__1
10
29.333000
20
-23.583000
30
38.011002
70
192
0
VERTEX
8
OBJECT__1
10
29.333000
20
-26.066999
30
35.540001
70
192
0
VERTEX
8
OBJECT__1
10
32.804001
20
-15.722000
30
47.441002
70
192
0
VERTEX
8
OBJECT__1
10
32.804001
20
-21.302000
30
44.695000
70
192
0
VERTEX
8
OBJECT__1
10
29.333000
20
-18.039000
30
41.805000
70
192
0
VERTEX
8
OBJECT__1
10
29.333000
20
-20.489000
30
40.127998
70
192
0
VERTEX
8
OBJECT__1
10
29.333000
20
-7.220000
30
45.658001
70
192
0
VERTEX
8
OBJECT__1
10
32.804001
20
-8.061000
30
49.846001
70
192
0
VERTEX
8
OBJECT__1
10
32.804001
20
-8.090000
30
49.842999
70
192
0
VERTEX
8
OBJECT__1
10
32.804001
20
-14.900000
30
47.846001
70
192
0
VERTEX
8
OBJECT__1
10
29.333000
20
-11.876000
30
44.542000
70
192
0
VERTEX
8
OBJECT__1
10
29.333000
20
-10.497000
30
44.873001
70
192
0
VERTEX
8
OBJECT__1
10
29.333000
20
-14.110000
30
43.549999
70
192
0
VERTEX
8
OBJECT__1
10
32.804001
20
-1.034000
30
50.625999
70
192
0
VERTEX
8
OBJECT__1
10
29.333000
20
-5.295000
30
46.118999
70
192
0
VERTEX
8
OBJECT__1
10
29.334000
20
0.005000
30
46.398998
70
192
0
VERTEX
8
OBJECT__1
10
32.804001
20
-0.519000
30
50.595001
70
192
0
VERTEX
8
OBJECT__1
10
32.804001
20
-0.005000
30
50.563999
70
192
0
VERTEX
8
OBJECT__1
10
29.333000
20
7.241000
30
45.715000
70
192
0
VERTEX
8
OBJECT__1
10
32.804001
20
8.033000
30
49.726002
70
192
0
VERTEX
8
OBJECT__1
10
32.804001
20
6.084000
30
50.193001
70
192
0
VERTEX
8
OBJECT__1
10
29.334000
20
1.416000
30
46.473000
70
192
0
VERTEX
8
OBJECT__1
10
29.334000
20
3.869000
30
46.153999
70
192
0
VERTEX
8
OBJECT__1
10
29.333000
20
14.157000
30
43.646999
70
192
0
VERTEX
8
OBJECT__1
10
32.804001
20
15.694000
30
47.367001
70
192
0
VERTEX
8
OBJECT__1
10
32.804001
20
12.983000
30
48.539001
70
192
0
VERTEX
8
OBJECT__1
10
29.333000
20
8.103000
30
45.602001
70
192
0
VERTEX
8
OBJECT__1
10
29.333000
20
10.954000
30
44.681999
70
192
0
VERTEX
8
OBJECT__1
10
32.804001
20
19.525000
30
45.712002
70
192
0
VERTEX
8
OBJECT__1
10
29.333000
20
17.628000
30
41.856998
70
192
0
VERTEX
8
OBJECT__1
10
29.333000
20
20.462999
30
40.327000
70
192
0
VERTEX
8
OBJECT__1
10
29.333000
20
14.543000
30
43.521999
70
192
0
VERTEX
8
OBJECT__1
10
32.804001
20
22.792000
30
43.564999
70
192
0
VERTEX
8
OBJECT__1
10
29.333000
20
25.740999
30
36.077999
70
192
0
VERTEX
8
OBJECT__1
10
32.804001
20
29.014000
30
38.478001
70
192
0
VERTEX
8
OBJECT__1
10
32.804001
20
25.475000
30
41.801998
70
192
0
VERTEX
8
OBJECT__1
10
29.333000
20
20.566999
30
40.243000
70
192
0
VERTEX
8
OBJECT__1
10
32.804001
20
34.138000
30
32.291000
70
192
0
VERTEX
8
OBJECT__1
10
32.804001
20
30.649000
30
36.942001
70
192
0
VERTEX
8
OBJECT__1
10
29.333000
20
28.677000
30
32.666000
70
192
0
VERTEX
8
OBJECT__1
10
29.333000
20
26.138000
30
35.617001
70
192
0
VERTEX
8
OBJECT__1
10
29.333000
20
30.121000
30
30.988001
70
192
0
VERTEX
8
OBJECT__1
10
32.804001
20
34.922001
30
31.247000
70
192
0
VERTEX
8
OBJECT__1
10
29.333000
20
30.695000
30
30.004000
70
192
0
VERTEX
8
OBJECT__1
10
29.333000
20
33.537998
30
25.127001
70
192
0
VERTEX
8
OBJECT__1
10
32.804001
20
37.992001
30
25.204000
70
192
0
VERTEX
8
OBJECT__1
10
29.333000
20
36.155998
30
16.695000
70
192
0
VERTEX
8
OBJECT__1
10
32.804001
20
40.299999
30
17.518000
70
192
0
VERTEX
8
OBJECT__1
10
32.804001
20
40.223000
30
18.131001
70
192
0
VERTEX
8
OBJECT__1
10
32.804001
20
38.153999
30
24.885000
70
192
0
VERTEX
8
OBJECT__1
10
29.333000
20
34.088001
30
23.598000
70
192
0
VERTEX
8
OBJECT__1
10
29.333000
20
35.398998
30
19.954000
70
192
0
VERTEX
8
OBJECT__1
10
29.333000
20
35.807999
30
18.816999
70
192
0
VERTEX
8
OBJECT__1
10
29.333000
20
36.855000
30
9.483000
70
192
0
VERTEX
8
OBJECT__1
10
32.804001
20
41.035999
30
9.483000
70
192
0
VERTEX
8
OBJECT__1
10
32.804001
20
41.036999
30
9.500000
70
192
0
VERTEX
8
OBJECT__1
10
29.333000
20
36.907001
30
12.119000
70
192
0
VERTEX
8
OBJECT__1
10
32.804001
20
41.111000
30
11.025000
70
192
0
VERTEX
8
OBJECT__1
10
29.333000
20
36.137001
30
2.310000
70
192
0
VERTEX
8
OBJECT__1
10
32.804001
20
40.216000
30
1.501000
70
192
0
VERTEX
8
OBJECT__1
10
32.804001
20
40.764999
30
3.925000
70
192
0
VERTEX
8
OBJECT__1
10
29.333000
20
36.773998
30
5.416000
70
192
0
VERTEX
8
OBJECT__1
10
29.333000
20
34.040001
30
-4.610000
70
192
0
VERTEX
8
OBJECT__1
10
32.804001
20
37.863998
30
-6.193000
70
192
0
VERTEX
8
OBJECT__1
10
32.804001
20
39.202000
30
-2.984000
70
192
0
VERTEX
8
OBJECT__1
10
29.333000
20
35.410999
30
-1.227000
70
192
0
VERTEX
8
OBJECT__1
10
32.804001
20
34.078999
30
-13.294000
70
192
0
VERTEX
8
OBJECT__1
10
32.804001
20
36.456001
30
-9.570000
70
192
0
VERTEX
8
OBJECT__1
10
29.333000
20
32.452000
30
-8.136000
70
192
0
VERTEX
8
OBJECT__1
10
29.333000
20
32.887001
30
-7.454000
70
192
0
VERTEX
8
OBJECT__1
10
32.804001
20
29.009001
30
-19.511000
70
192
0
VERTEX
8
OBJECT__1
10
32.804001
20
32.637001
30
-15.553000
70
192
0
VERTEX
8
OBJECT__1
10
29.333000
20
28.365000
30
-14.109000
70
192
0
VERTEX
8
OBJECT__1
10
29.333000
20
29.250000
30
-13.159000
70
192
0
VERTEX
8
OBJECT__1
10
29.333000
20
30.632999
30
-10.990000
70
192
0
VERTEX
8
OBJECT__1
10
32.804001
20
22.802999
30
-24.666000
70
192
0
VERTEX
8
OBJECT__1
10
32.804001
20
27.820000
30
-20.808001
70
192
0
VERTEX
8
OBJECT__1
10
29.333000
20
23.190001
30
-19.174999
70
192
0
VERTEX
8
OBJECT__1
10
29.333000
20
24.658001
30
-18.086000
70
192
0
VERTEX
8
OBJECT__1
10
29.333000
20
26.070000
30
-16.570999
70
192
0
VERTEX
8
OBJECT__1
10
32.804001
20
15.908000
30
-28.438999
70
192
0
VERTEX
8
OBJECT__1
10
32.804001
20
22.162001
30
-25.159000
70
192
0
VERTEX
8
OBJECT__1
10
29.333000
20
19.240000
30
-22.105000
70
192
0
VERTEX
8
OBJECT__1
10
29.333000
20
14.130000
30
-24.606001
70
192
0
VERTEX
8
OBJECT__1
10
32.804001
20
15.747000
30
-28.490000
70
192
0
VERTEX
8
OBJECT__1
10
29.333000
20
20.479000
30
-21.186001
70
192
0
VERTEX
8
OBJECT__1
10
29.333000
20
7.200000
30
-26.747999
70
192
0
VERTEX
8
OBJECT__1
10
32.804001
20
8.008000
30
-30.771000
70
192
0
VERTEX
8
OBJECT__1
10
32.804001
20
9.090000
30
-30.622999
70
192
0
VERTEX
8
OBJECT__1
10
29.333000
20
13.166000
30
-25.077999
70
192
0
VERTEX
8
OBJECT__1
10
29.333000
20
10.445000
30
-25.840000
70
192
0
VERTEX
8
OBJECT__1
10
29.333000
20
6.692000
30
-26.889999
70
192
0
VERTEX
8
OBJECT__1
10
32.804001
20
2.066000
30
-31.587000
70
192
0
VERTEX
8
OBJECT__1
10
0
20
0
30
0
70
128
71
1
72
2
73
3
0
VERTEX
8
OBJECT__1
10
0
20
0
30
0
70
128
71
3
72
4
73
5
0
VERTEX
8
OBJECT__1
10
0
20
0
30
0
70
128
71
5
72
6
73
3
0
VERTEX
8
OBJECT__1
10
0
20
0
30
0
70
128
71
7
72
5
73
4
0
VERTEX
8
OBJECT__1
10
0
20
0
30
0
70
128
71
4
72
8
73
7
0
VERTEX
8
OBJECT__1
10
0
20
0
30
0
70
128
71
9
72
2
73
10
0
VERTEX
8
OBJECT__1
10
0
20
0
30
0
70
128
71
11
72
12
73
9
0
VERTEX
8
OBJECT__1
10
0
20
0
30
0
70
128
71
2
72
1
73
10
0
VERTEX
8
OBJECT__1
10
0
20
0
30
0
70
128
71
13
72
14
73
15
0
VERTEX
8
OBJECT__1
10
0
20
0
30
0
70
128
71
15
72
12
73
16
0
VERTEX
8
OBJECT__1
10
0
20
0
30
0
70
128
71
16
72
17
73
15
0
VERTEX
8
OBJECT__1
10
0
20
0
30
0
70
128
71
12
72
11
73
16
0
VERTEX
8
OBJECT__1
10
0
20
0
30
0
70
128
71
18
72
19
73
20
0
VERTEX
8
OBJECT__1
10
0
20
0
30
0
70
128
71
20
72
21
73
18
0
VERTEX
8
OBJECT__1
10
0
20
0
30
0
70
128
71
14
72
13
73
21
0
VERTEX
8
OBJECT__1
10
0
20
0
30
0
70
128
71
22
72
23
73
24
0
VERTEX
8
OBJECT__1
10
0
20
0
30
0
70
128
71
23
72
19
73
25
0
VERTEX
8
OBJECT__1
10
0
20
0
30
0
70
128
71
25
72
24
73
23
0
VERTEX
8
OBJECT__1
10
0
20
0
30
0
70
128
71
19
72
18
73
25
0
VERTEX
8
OBJECT__1
10
0
20
0
30
0
70
128
71
26
72
27
73
28
0
VERTEX
8
OBJECT__1
10
0
20
0
30
0
70
128
71
29
72
28
73
27
0
VERTEX
8
OBJECT__1
10
0
20
0
30
0
70
128
71
27
72
22
73
29
0
VERTEX
8
OBJECT__1
10
0
20
0
30
0
70
128
71
22
72
30
73
29
0
VERTEX
8
OBJECT__1
10
0
20
0
30
0
70
128
71
28
72
31
73
26
0
VERTEX
8
OBJECT__1
10
0
20
0
30
0
70
128
71
32
72
33
73
34
0
VERTEX
8
OBJECT__1
10
0
20
0
30
0
70
128
71
35
72
34
73
33
0
VERTEX
8
OBJECT__1
10
0
20
0
30
0
70
128
71
33
72
26
73
35
0
VERTEX
8
OBJECT__1
10
0
20
0
30
0
70
128
71
34
72
36
73
32
0
VERTEX
8
OBJECT__1
10
0
20
0
30
0
70
128
71
37
72
38
73
39
0
VERTEX
8
OBJECT__1
10
0
20
0
30
0
70
128
71
40
72
41
73
42
0
VERTEX
8
OBJECT__1
10
0
20
0
30
0
70
128
71
42
72
39
73
40
0
VERTEX
8
OBJECT__1
10
0
20
0
30
0
70
128
71
40
72
32
73
41
0
VERTEX
8
OBJECT__1
10
0
20
0
30
0
70
128
71
42
72
43
73
39
0
VERTEX
8
OBJECT__1
10
0
20
0
30
0
70
128
71
44
72
45
73
46
0
VERTEX
8
OBJECT__1
10
0
20
0
30
0
70
128
71
47
72
37
73
48
0
VERTEX
8
OBJECT__1
10
0
20
0
30
0
70
128
71
48
72
49
73
47
0
VERTEX
8
OBJECT__1
10
0
20
0
30
0
70
128
71
47
72
38
73
37
0
VERTEX
8
OBJECT__1
10
0
20
0
30
0
70
128
71
48
72
44
73
49
0
VERTEX
8
OBJECT__1
10
0
20
0
30
0
70
128
71
50
72
51
73
52
0
VERTEX
8
OBJECT__1
10
0
20
0
30
0
70
128
71
46
72
45
73
52
0
VERTEX
8
OBJECT__1
10
0
20
0
30
0
70
128
71
52
72
51
73
46
0
VERTEX
8
OBJECT__1
10
0
20
0
30
0
70
128
71
53
72
54
73
55
0
VERTEX
8
OBJECT__1
10
0
20
0
30
0
70
128
71
50
72
56
73
57
0
VERTEX
8
OBJECT__1
10
0
20
0
30
0
70
128
71
57
72
54
73
50
0
VERTEX
8
OBJECT__1
10
0
20
0
30
0
70
128
71
57
72
55
73
54
0
VERTEX
8
OBJECT__1
10
0
20
0
30
0
70
128
71
58
72
59
73
60
0
VERTEX
8
OBJECT__1
10
0
20
0
30
0
70
128
71
61
72
60
73
59
0
VERTEX
8
OBJECT__1
10
0
20
0
30
0
70
128
71
59
72
53
73
61
0
VERTEX
8
OBJECT__1
10
0
20
0
30
0
70
128
71
62
72
63
73
64
0
VERTEX
8
OBJECT__1
10
0
20
0
30
0
70
128
71
63
72
65
73
64
0
VERTEX
8
OBJECT__1
10
0
20
0
30
0
70
128
71
66
72
65
73
63
0
VERTEX
8
OBJECT__1
10
0
20
0
30
0
70
128
71
63
72
58
73
66
0
VERTEX
8
OBJECT__1
10
0
20
0
30
0
70
128
71
67
72
68
73
69
0
VERTEX
8
OBJECT__1
10
0
20
0
30
0
70
128
71
70
72
69
73
68
0
VERTEX
8
OBJECT__1
10
0
20
0
30
0
70
128
71
68
72
62
73
70
0
VERTEX
8
OBJECT__1
10
0
20
0
30
0
70
128
71
71
72
72
73
73
0
VERTEX
8
OBJECT__1
10
0
20
0
30
0
70
128
71
74
72
75
73
76
0
VERTEX
8
OBJECT__1
10
0
20
0
30
0
70
128
71
76
72
73
73
74
0
VERTEX
8
OBJECT__1
10
0
20
0
30
0
70
128
71
77
72
75
73
74
0
VERTEX
8
OBJECT__1
10
0
20
0
30
0
70
128
71
74
72
67
73
77
0
VERTEX
8
OBJECT__1
10
0
20
0
30
0
70
128
71
78
72
72
73
79
0
VERTEX
8
OBJECT__1
10
0
20
0
30
0
70
128
71
80
72
81
73
78
0
VERTEX
8
OBJECT__1
10
0
20
0
30
0
70
128
71
80
72
82
73
81
0
VERTEX
8
OBJECT__1
10
0
20
0
30
0
70
128
71
72
72
71
73
79
0
VERTEX
8
OBJECT__1
10
0
20
0
30
0
70
128
71
83
72
84
73
85
0
VERTEX
8
OBJECT__1
10
0
20
0
30
0
70
128
71
85
72
82
73
86
0
VERTEX
8
OBJECT__1
10
0
20
0
30
0
70
128
71
86
72
87
73
85
0
VERTEX
8
OBJECT__1
10
0
20
0
30
0
70
128
71
82
72
80
73
86
0
VERTEX
8
OBJECT__1
10
0
20
0
30
0
70
128
71
88
72
89
73
90
0
VERTEX
8
OBJECT__1
10
0
20
0
30
0
70
128
71
90
72
84
73
91
0
VERTEX
8
OBJECT__1
10
0
20
0
30
0
70
128
71
91
72
92
73
90
0
VERTEX
8
OBJECT__1
10
0
20
0
30
0
70
128
71
84
72
83
73
91
0
VERTEX
8
OBJECT__1
10
0
20
0
30
0
70
128
71
93
72
94
73
95
0
VERTEX
8
OBJECT__1
10
0
20
0
30
0
70
128
71
93
72
89
73
96
0
VERTEX
8
OBJECT__1
10
0
20
0
30
0
70
128
71
96
72
94
73
93
0
VERTEX
8
OBJECT__1
10
0
20
0
30
0
70
128
71
89
72
88
73
96
0
VERTEX
8
OBJECT__1
10
0
20
0
30
0
70
128
71
95
72
97
73
93
0
VERTEX
8
OBJECT__1
10
0
20
0
30
0
70
128
71
98
72
99
73
100
0
VERTEX
8
OBJECT__1
10
0
20
0
30
0
70
128
71
100
72
101
73
98
0
VERTEX
8
OBJECT__1
10
0
20
0
30
0
70
128
71
100
72
97
73
101
0
VERTEX
8
OBJECT__1
10
0
20
0
30
0
70
128
71
102
72
103
73
104
0
VERTEX
8
OBJECT__1
10
0
20
0
30
0
70
128
71
105
72
104
73
103
0
VERTEX
8
OBJECT__1
10
0
20
0
30
0
70
128
71
103
72
99
73
105
0
VERTEX
8
OBJECT__1
10
0
20
0
30
0
70
128
71
104
72
106
73
102
0
VERTEX
8
OBJECT__1
10
0
20
0
30
0
70
128
71
107
72
108
73
109
0
VERTEX
8
OBJECT__1
10
0
20
0
30
0
70
128
71
109
72
110
73
107
0
VERTEX
8
OBJECT__1
10
0
20
0
30
0
70
128
71
107
72
102
73
108
0
VERTEX
8
OBJECT__1
10
0
20
0
30
0
70
128
71
111
72
112
73
113
0
VERTEX
8
OBJECT__1
10
0
20
0
30
0
70
128
71
114
72
115
73
116
0
VERTEX
8
OBJECT__1
10
0
20
0
30
0
70
128
71
116
72
113
73
114
0
VERTEX
8
OBJECT__1
10
0
20
0
30
0
70
128
71
114
72
110
73
115
0
VERTEX
8
OBJECT__1
10
0
20
0
30
0
70
128
71
116
72
117
73
113
0
VERTEX
8
OBJECT__1
10
0
20
0
30
0
70
128
71
118
72
119
73
120
0
VERTEX
8
OBJECT__1
10
0
20
0
30
0
70
128
71
120
72
121
73
118
0
VERTEX
8
OBJECT__1
10
0
20
0
30
0
70
128
71
120
72
122
73
121
0
VERTEX
8
OBJECT__1
10
0
20
0
30
0
70
128
71
112
72
111
73
121
0
VERTEX
8
OBJECT__1
10
0
20
0
30
0
70
128
71
121
72
122
73
112
0
VERTEX
8
OBJECT__1
10
0
20
0
30
0
70
128
71
123
72
124
73
125
0
VERTEX
8
OBJECT__1
10
0
20
0
30
0
70
128
71
119
72
118
73
126
0
VERTEX
8
OBJECT__1
10
0
20
0
30
0
70
128
71
126
72
125
73
119
0
VERTEX
8
OBJECT__1
10
0
20
0
30
0
70
128
71
127
72
128
73
129
0
VERTEX
8
OBJECT__1
10
0
20
0
30
0
70
128
71
124
72
123
73
130
0
VERTEX
8
OBJECT__1
10
0
20
0
30
0
70
128
71
130
72
129
73
124
0
VERTEX
8
OBJECT__1
10
0
20
0
30
0
70
128
71
131
72
132
73
133
0
VERTEX
8
OBJECT__1
10
0
20
0
30
0
70
128
71
132
72
134
73
133
0
VERTEX
8
OBJECT__1
10
0
20
0
30
0
70
128
71
128
72
127
73
134
0
VERTEX
8
OBJECT__1
10
0
20
0
30
0
70
128
71
134
72
132
73
128
0
VERTEX
8
OBJECT__1
10
0
20
0
30
0
70
128
71
135
72
136
73
137
0
VERTEX
8
OBJECT__1
10
0
20
0
30
0
70
128
71
136
72
138
73
137
0
VERTEX
8
OBJECT__1
10
0
20
0
30
0
70
128
71
131
72
139
73
138
0
VERTEX
8
OBJECT__1
10
0
20
0
30
0
70
128
71
138
72
136
73
131
0
VERTEX
8
OBJECT__1
10
0
20
0
30
0
70
128
71
140
72
141
73
142
0
VERTEX
8
OBJECT__1
10
0
20
0
30
0
70
128
71
141
72
143
73
142
0
VERTEX
8
OBJECT__1
10
0
20
0
30
0
70
128
71
143
72
141
73
135
0
VERTEX
8
OBJECT__1
10
0
20
0
30
0
70
128
71
135
72
144
73
143
0
VERTEX
8
OBJECT__1
10
0
20
0
30
0
70
128
71
145
72
146
73
147
0
VERTEX
8
OBJECT__1
10
0
20
0
30
0
70
128
71
148
72
149
73
145
0
VERTEX
8
OBJECT__1
10
0
20
0
30
0
70
128
71
150
72
147
73
146
0
VERTEX
8
OBJECT__1
10
0
20
0
30
0
70
128
71
146
72
140
73
150
0
VERTEX
8
OBJECT__1
10
0
20
0
30
0
70
128
71
151
72
152
73
153
0
VERTEX
8
OBJECT__1
10
0
20
0
30
0
70
128
71
149
72
154
73
155
0
VERTEX
8
OBJECT__1
10
0
20
0
30
0
70
128
71
155
72
153
73
149
0
VERTEX
8
OBJECT__1
10
0
20
0
30
0
70
128
71
149
72
148
73
154
0
VERTEX
8
OBJECT__1
10
0
20
0
30
0
70
128
71
156
72
7
73
157
0
VERTEX
8
OBJECT__1
10
0
20
0
30
0
70
128
71
7
72
8
73
157
0
VERTEX
8
OBJECT__1
10
0
20
0
30
0
70
128
71
152
72
151
73
156
0
VERTEX
8
OBJECT__1
10
0
20
0
30
0
70
128
71
157
72
152
73
156
0
VERTEX
8
OBJECT__1
10
0
20
0
30
0
70
128
71
153
72
155
73
151
0
VERTEX
8
OBJECT__1
10
0
20
0
30
0
70
128
71
147
72
148
73
145
0
VERTEX
8
OBJECT__1
10
0
20
0
30
0
70
128
71
142
72
150
73
140
0
VERTEX
8
OBJECT__1
10
0
20
0
30
0
70
128
71
137
72
144
73
135
0
VERTEX
8
OBJECT__1
10
0
20
0
30
0
70
128
71
133
72
139
73
131
0
VERTEX
8
OBJECT__1
10
0
20
0
30
0
70
128
71
129
72
130
73
127
0
VERTEX
8
OBJECT__1
10
0
20
0
30
0
70
128
71
125
72
126
73
123
0
VERTEX
8
OBJECT__1
10
0
20
0
30
0
70
128
71
113
72
117
73
111
0
VERTEX
8
OBJECT__1
10
0
20
0
30
0
70
128
71
109
72
115
73
110
0
VERTEX
8
OBJECT__1
10
0
20
0
30
0
70
128
71
106
72
108
73
102
0
VERTEX
8
OBJECT__1
10
0
20
0
30
0
70
128
71
98
72
105
73
99
0
VERTEX
8
OBJECT__1
10
0
20
0
30
0
70
128
71
95
72
101
73
97
0
VERTEX
8
OBJECT__1
10
0
20
0
30
0
70
128
71
90
72
92
73
88
0
VERTEX
8
OBJECT__1
10
0
20
0
30
0
70
128
71
85
72
87
73
83
0
VERTEX
8
OBJECT__1
10
0
20
0
30
0
70
128
71
79
72
80
73
78
0
VERTEX
8
OBJECT__1
10
0
20
0
30
0
70
128
71
73
72
76
73
71
0
VERTEX
8
OBJECT__1
10
0
20
0
30
0
70
128
71
69
72
77
73
67
0
VERTEX
8
OBJECT__1
10
0
20
0
30
0
70
128
71
64
72
70
73
62
0
VERTEX
8
OBJECT__1
10
0
20
0
30
0
70
128
71
60
72
66
73
58
0
VERTEX
8
OBJECT__1
10
0
20
0
30
0
70
128
71
55
72
61
73
53
0
VERTEX
8
OBJECT__1
10
0
20
0
30
0
70
128
71
52
72
56
73
50
0
VERTEX
8
OBJECT__1
10
0
20
0
30
0
70
128
71
46
72
49
73
44
0
VERTEX
8
OBJECT__1
10
0
20
0
30
0
70
128
71
39
72
43
73
37
0
VERTEX
8
OBJECT__1
10
0
20
0
30
0
70
128
71
36
72
41
73
32
0
VERTEX
8
OBJECT__1
10
0
20
0
30
0
70
128
71
31
72
35
73
26
0
VERTEX
8
OBJECT__1
10
0
20
0
30
0
70
128
71
24
72
30
73
22
0
VERTEX
8
OBJECT__1
10
0
20
0
30
0
70
128
71
20
72
14
73
21
0
VERTEX
8
OBJECT__1
10
0
20
0
30
0
70
128
71
15
72
17
73
13
0
VERTEX
8
OBJECT__1
10
0
20
0
30
0
70
128
71
10
72
11
73
9
0
VERTEX
8
OBJECT__1
10
0
20
0
30
0
70
128
71
3
72
6
73
1
0
SEQEND
8
OBJECT__1
0
POLYLINE
8
OBJECT__3
66
1
70
64
71
103
72
103
62
253
0
VERTEX
8
OBJECT__3
10
32.312000
20
-0.528000
30
-68.323997
70
192
0
VERTEX
8
OBJECT__3
10
32.241001
20
39.001999
30
-68.324997
70
192
0
VERTEX
8
OBJECT__3
10
32.804001
20
9.090000
30
-30.622999
70
192
0
VERTEX
8
OBJECT__3
10
32.804001
20
8.008000
30
-30.771000
70
192
0
VERTEX
8
OBJECT__3
10
32.804001
20
2.066000
30
-31.587000
70
192
0
VERTEX
8
OBJECT__3
10
32.804001
20
0.000000
30
-31.639000
70
192
0
VERTEX
8
OBJECT__3
10
32.804001
20
15.908000
30
-28.438999
70
192
0
VERTEX
8
OBJECT__3
10
32.804001
20
15.747000
30
-28.490000
70
192
0
VERTEX
8
OBJECT__3
10
32.804001
20
27.820000
30
-20.808001
70
192
0
VERTEX
8
OBJECT__3
10
32.804001
20
22.802999
30
-24.666000
70
192
0
VERTEX
8
OBJECT__3
10
31.535000
20
94.337997
30
-68.336998
70
192
0
VERTEX
8
OBJECT__3
10
32.804001
20
22.162001
30
-25.159000
70
192
0
VERTEX
8
OBJECT__3
10
32.804001
20
32.637001
30
-15.553000
70
192
0
VERTEX
8
OBJECT__3
10
31.507000
20
96.999001
30
-66.863998
70
192
0
VERTEX
8
OBJECT__3
10
31.500000
20
97.728996
30
-66.459000
70
192
0
VERTEX
8
OBJECT__3
10
32.804001
20
29.009001
30
-19.511000
70
192
0
VERTEX
8
OBJECT__3
10
31.507999
20
98.238998
30
-65.219002
70
192
0
VERTEX
8
OBJECT__3
10
31.518999
20
98.336998
30
-64.337997
70
192
0
VERTEX
8
OBJECT__3
10
32.804001
20
34.078999
30
-13.294000
70
192
0
VERTEX
8
OBJECT__3
10
31.896000
20
98.331001
30
-29.336000
70
192
0
VERTEX
8
OBJECT__3
10
32.804001
20
36.456001
30
-9.570000
70
192
0
VERTEX
8
OBJECT__3
10
32.804001
20
39.202000
30
-2.984000
70
192
0
VERTEX
8
OBJECT__3
10
32.804001
20
37.863998
30
-6.193000
70
192
0
VERTEX
8
OBJECT__3
10
32.040001
20
98.328003
30
9.500000
70
192
0
VERTEX
8
OBJECT__3
10
32.804001
20
40.764999
30
3.925000
70
192
0
VERTEX
8
OBJECT__3
10
32.804001
20
40.216000
30
1.501000
70
192
0
VERTEX
8
OBJECT__3
10
32.804001
20
41.036999
30
9.500000
70
192
0
VERTEX
8
OBJECT__3
10
32.804001
20
41.035999
30
9.483000
70
192
0
VERTEX
8
OBJECT__3
10
32.041000
20
98.328003
30
9.668000
70
192
0
VERTEX
8
OBJECT__3
10
32.804001
20
41.111000
30
11.025000
70
192
0
VERTEX
8
OBJECT__3
10
32.804001
20
40.223000
30
18.131001
70
192
0
VERTEX
8
OBJECT__3
10
32.804001
20
40.299999
30
17.518000
70
192
0
VERTEX
8
OBJECT__3
10
31.518999
20
98.336998
30
83.337997
70
192
0
VERTEX
8
OBJECT__3
10
32.804001
20
38.153999
30
24.885000
70
192
0
VERTEX
8
OBJECT__3
10
32.804001
20
34.922001
30
31.247000
70
192
0
VERTEX
8
OBJECT__3
10
32.804001
20
37.992001
30
25.204000
70
192
0
VERTEX
8
OBJECT__3
10
32.804001
20
30.649000
30
36.942001
70
192
0
VERTEX
8
OBJECT__3
10
31.507999
20
96.863998
30
85.999001
70
192
0
VERTEX
8
OBJECT__3
10
31.504999
20
96.459999
30
86.727997
70
192
0
VERTEX
8
OBJECT__3
10
31.520000
20
95.219002
30
87.238998
70
192
0
VERTEX
8
OBJECT__3
10
32.804001
20
34.138000
30
32.291000
70
192
0
VERTEX
8
OBJECT__3
10
31.535000
20
94.337997
30
87.336998
70
192
0
VERTEX
8
OBJECT__3
10
32.804001
20
25.475000
30
41.801998
70
192
0
VERTEX
8
OBJECT__3
10
32.804001
20
29.014000
30
38.478001
70
192
0
VERTEX
8
OBJECT__3
10
32.347000
20
20.333000
30
87.322998
70
192
0
VERTEX
8
OBJECT__3
10
32.804001
20
19.525000
30
45.712002
70
192
0
VERTEX
8
OBJECT__3
10
32.804001
20
22.792000
30
43.564999
70
192
0
VERTEX
8
OBJECT__3
10
32.804001
20
12.983000
30
48.539001
70
192
0
VERTEX
8
OBJECT__3
10
32.804001
20
15.694000
30
47.367001
70
192
0
VERTEX
8
OBJECT__3
10
32.804001
20
6.084000
30
50.193001
70
192
0
VERTEX
8
OBJECT__3
10
32.804001
20
8.033000
30
49.726002
70
192
0
VERTEX
8
OBJECT__3
10
32.310001
20
-0.527000
30
87.323997
70
192
0
VERTEX
8
OBJECT__3
10
32.804001
20
-0.005000
30
50.563999
70
192
0
VERTEX
8
OBJECT__3
10
32.804001
20
-0.519000
30
50.595001
70
192
0
VERTEX
8
OBJECT__3
10
32.804001
20
-8.090000
30
49.842999
70
192
0
VERTEX
8
OBJECT__3
10
32.804001
20
-8.061000
30
49.846001
70
192
0
VERTEX
8
OBJECT__3
10
32.804001
20
-1.034000
30
50.625999
70
192
0
VERTEX
8
OBJECT__3
10
32.241001
20
-39.001999
30
87.324997
70
192
0
VERTEX
8
OBJECT__3
10
32.804001
20
-14.900000
30
47.846001
70
192
0
VERTEX
8
OBJECT__3
10
32.804001
20
-21.302000
30
44.695000
70
192
0
VERTEX
8
OBJECT__3
10
32.804001
20
-15.722000
30
47.441002
70
192
0
VERTEX
8
OBJECT__3
10
32.804001
20
-27.056999
30
40.488998
70
192
0
VERTEX
8
OBJECT__3
10
32.804001
20
-22.806000
30
43.596001
70
192
0
VERTEX
8
OBJECT__3
10
31.535000
20
-94.337997
30
87.336998
70
192
0
VERTEX
8
OBJECT__3
10
32.804001
20
-31.983000
30
35.375000
70
192
0
VERTEX
8
OBJECT__3
10
32.804001
20
-28.999001
30
38.473000
70
192
0
VERTEX
8
OBJECT__3
10
32.804001
20
-35.964001
30
29.478001
70
192
0
VERTEX
8
OBJECT__3
10
31.507999
20
-96.999001
30
85.863998
70
192
0
VERTEX
8
OBJECT__3
10
31.500000
20
-97.728996
30
85.459000
70
192
0
VERTEX
8
OBJECT__3
10
31.509001
20
-98.238998
30
84.219002
70
192
0
VERTEX
8
OBJECT__3
10
32.804001
20
-34.084999
30
32.261002
70
192
0
VERTEX
8
OBJECT__3
10
31.518999
20
-98.336998
30
83.337997
70
192
0
VERTEX
8
OBJECT__3
10
32.804001
20
-38.875000
30
22.959000
70
192
0
VERTEX
8
OBJECT__3
10
32.804001
20
-37.891998
30
25.160999
70
192
0
VERTEX
8
OBJECT__3
10
31.764000
20
-98.333000
30
9.499000
70
192
0
VERTEX
8
OBJECT__3
10
32.804001
20
-40.252998
30
17.500000
70
192
0
VERTEX
8
OBJECT__3
10
32.804001
20
-40.605999
30
16.101999
70
192
0
VERTEX
8
OBJECT__3
10
32.804001
20
-41.097000
30
9.500000
70
192
0
VERTEX
8
OBJECT__3
10
32.804001
20
-41.136002
30
8.977000
70
192
0
VERTEX
8
OBJECT__3
10
32.804001
20
-41.098999
30
9.475000
70
192
0
VERTEX
8
OBJECT__3
10
31.893999
20
-98.331001
30
-29.673000
70
192
0
VERTEX
8
OBJECT__3
10
32.804001
20
-40.438000
30
1.901000
70
192
0
VERTEX
8
OBJECT__3
10
32.804001
20
-38.521000
30
-4.944000
70
192
0
VERTEX
8
OBJECT__3
10
32.804001
20
-40.319000
30
1.479000
70
192
0
VERTEX
8
OBJECT__3
10
32.804001
20
-35.456001
30
-11.375000
70
192
0
VERTEX
8
OBJECT__3
10
32.804001
20
-37.917000
30
-6.210000
70
192
0
VERTEX
8
OBJECT__3
10
31.518999
20
-98.336998
30
-64.337997
70
192
0
VERTEX
8
OBJECT__3
10
32.804001
20
-31.354000
30
-17.138000
70
192
0
VERTEX
8
OBJECT__3
10
31.507999
20
-96.863998
30
-66.999001
70
192
0
VERTEX
8
OBJECT__3
10
31.504999
20
-96.459999
30
-67.727997
70
192
0
VERTEX
8
OBJECT__3
10
31.520000
20
-95.219002
30
-68.238998
70
192
0
VERTEX
8
OBJECT__3
10
32.804001
20
-34.090000
30
-13.294000
70
192
0
VERTEX
8
OBJECT__3
10
31.535000
20
-94.337997
30
-68.336998
70
192
0
VERTEX
8
OBJECT__3
10
32.804001
20
-26.275000
30
-22.157000
70
192
0
VERTEX
8
OBJECT__3
10
32.804001
20
-28.985001
30
-19.478001
70
192
0
VERTEX
8
OBJECT__3
10
32.347000
20
-20.333000
30
-68.322998
70
192
0
VERTEX
8
OBJECT__3
10
32.804001
20
-20.407000
30
-26.221001
70
192
0
VERTEX
8
OBJECT__3
10
32.804001
20
-22.757000
30
-24.593000
70
192
0
VERTEX
8
OBJECT__3
10
32.804001
20
-13.978000
30
-29.191999
70
192
0
VERTEX
8
OBJECT__3
10
32.804001
20
-15.701000
30
-28.396000
70
192
0
VERTEX
8
OBJECT__3
10
32.804001
20
-7.082000
30
-31.025000
70
192
0
VERTEX
8
OBJECT__3
10
32.804001
20
-8.001000
30
-30.780001
70
192
0
VERTEX
8
OBJECT__3
10
32.804001
20
-0.519000
30
-31.594000
70
192
0
VERTEX
8
OBJECT__3
10
0
20
0
30
0
70
128
71
1
72
2
73
3
0
VERTEX
8
OBJECT__3
10
0
20
0
30
0
70
128
71
3
72
4
73
1
0
VERTEX
8
OBJECT__3
10
0
20
0
30
0
70
128
71
4
72
5
73
1
0
VERTEX
8
OBJECT__3
10
0
20
0
30
0
70
128
71
5
72
6
73
1
0
VERTEX
8
OBJECT__3
10
0
20
0
30
0
70
128
71
2
72
7
73
8
0
VERTEX
8
OBJECT__3
10
0
20
0
30
0
70
128
71
9
72
10
73
2
0
VERTEX
8
OBJECT__3
10
0
20
0
30
0
70
128
71
2
72
11
73
9
0
VERTEX
8
OBJECT__3
10
0
20
0
30
0
70
128
71
10
72
12
73
2
0
VERTEX
8
OBJECT__3
10
0
20
0
30
0
70
128
71
12
72
7
73
2
0
VERTEX
8
OBJECT__3
10
0
20
0
30
0
70
128
71
13
72
14
73
15
0
VERTEX
8
OBJECT__3
10
0
20
0
30
0
70
128
71
13
72
16
73
11
0
VERTEX
8
OBJECT__3
10
0
20
0
30
0
70
128
71
11
72
14
73
13
0
VERTEX
8
OBJECT__3
10
0
20
0
30
0
70
128
71
16
72
9
73
11
0
VERTEX
8
OBJECT__3
10
0
20
0
30
0
70
128
71
15
72
17
73
13
0
VERTEX
8
OBJECT__3
10
0
20
0
30
0
70
128
71
8
72
3
73
2
0
VERTEX
8
OBJECT__3
10
0
20
0
30
0
70
128
71
13
72
17
73
18
0
VERTEX
8
OBJECT__3
10
0
20
0
30
0
70
128
71
19
72
18
73
20
0
VERTEX
8
OBJECT__3
10
0
20
0
30
0
70
128
71
20
72
21
73
19
0
VERTEX
8
OBJECT__3
10
0
20
0
30
0
70
128
71
20
72
22
73
23
0
VERTEX
8
OBJECT__3
10
0
20
0
30
0
70
128
71
20
72
24
73
25
0
VERTEX
8
OBJECT__3
10
0
20
0
30
0
70
128
71
25
72
26
73
20
0
VERTEX
8
OBJECT__3
10
0
20
0
30
0
70
128
71
26
72
22
73
20
0
VERTEX
8
OBJECT__3
10
0
20
0
30
0
70
128
71
23
72
21
73
20
0
VERTEX
8
OBJECT__3
10
0
20
0
30
0
70
128
71
24
72
27
73
28
0
VERTEX
8
OBJECT__3
10
0
20
0
30
0
70
128
71
28
72
25
73
24
0
VERTEX
8
OBJECT__3
10
0
20
0
30
0
70
128
71
18
72
19
73
13
0
VERTEX
8
OBJECT__3
10
0
20
0
30
0
70
128
71
24
72
29
73
30
0
VERTEX
8
OBJECT__3
10
0
20
0
30
0
70
128
71
29
72
31
73
32
0
VERTEX
8
OBJECT__3
10
0
20
0
30
0
70
128
71
29
72
33
73
34
0
VERTEX
8
OBJECT__3
10
0
20
0
30
0
70
128
71
33
72
35
73
36
0
VERTEX
8
OBJECT__3
10
0
20
0
30
0
70
128
71
36
72
34
73
33
0
VERTEX
8
OBJECT__3
10
0
20
0
30
0
70
128
71
34
72
31
73
29
0
VERTEX
8
OBJECT__3
10
0
20
0
30
0
70
128
71
32
72
30
73
29
0
VERTEX
8
OBJECT__3
10
0
20
0
30
0
70
128
71
37
72
38
73
39
0
VERTEX
8
OBJECT__3
10
0
20
0
30
0
70
128
71
39
72
40
73
37
0
VERTEX
8
OBJECT__3
10
0
20
0
30
0
70
128
71
37
72
41
73
33
0
VERTEX
8
OBJECT__3
10
0
20
0
30
0
70
128
71
33
72
38
73
37
0
VERTEX
8
OBJECT__3
10
0
20
0
30
0
70
128
71
41
72
35
73
33
0
VERTEX
8
OBJECT__3
10
0
20
0
30
0
70
128
71
42
72
43
73
44
0
VERTEX
8
OBJECT__3
10
0
20
0
30
0
70
128
71
42
72
45
73
46
0
VERTEX
8
OBJECT__3
10
0
20
0
30
0
70
128
71
46
72
47
73
42
0
VERTEX
8
OBJECT__3
10
0
20
0
30
0
70
128
71
47
72
43
73
42
0
VERTEX
8
OBJECT__3
10
0
20
0
30
0
70
128
71
44
72
37
73
42
0
VERTEX
8
OBJECT__3
10
0
20
0
30
0
70
128
71
45
72
48
73
49
0
VERTEX
8
OBJECT__3
10
0
20
0
30
0
70
128
71
45
72
50
73
51
0
VERTEX
8
OBJECT__3
10
0
20
0
30
0
70
128
71
51
72
48
73
45
0
VERTEX
8
OBJECT__3
10
0
20
0
30
0
70
128
71
49
72
46
73
45
0
VERTEX
8
OBJECT__3
10
0
20
0
30
0
70
128
71
40
72
42
73
37
0
VERTEX
8
OBJECT__3
10
0
20
0
30
0
70
128
71
52
72
53
73
50
0
VERTEX
8
OBJECT__3
10
0
20
0
30
0
70
128
71
52
72
54
73
53
0
VERTEX
8
OBJECT__3
10
0
20
0
30
0
70
128
71
50
72
45
73
52
0
VERTEX
8
OBJECT__3
10
0
20
0
30
0
70
128
71
52
72
55
73
56
0
VERTEX
8
OBJECT__3
10
0
20
0
30
0
70
128
71
56
72
57
73
52
0
VERTEX
8
OBJECT__3
10
0
20
0
30
0
70
128
71
58
72
59
73
55
0
VERTEX
8
OBJECT__3
10
0
20
0
30
0
70
128
71
58
72
60
73
61
0
VERTEX
8
OBJECT__3
10
0
20
0
30
0
70
128
71
61
72
59
73
58
0
VERTEX
8
OBJECT__3
10
0
20
0
30
0
70
128
71
62
72
63
73
58
0
VERTEX
8
OBJECT__3
10
0
20
0
30
0
70
128
71
58
72
64
73
62
0
VERTEX
8
OBJECT__3
10
0
20
0
30
0
70
128
71
64
72
65
73
66
0
VERTEX
8
OBJECT__3
10
0
20
0
30
0
70
128
71
67
72
68
73
69
0
VERTEX
8
OBJECT__3
10
0
20
0
30
0
70
128
71
69
72
70
73
67
0
VERTEX
8
OBJECT__3
10
0
20
0
30
0
70
128
71
71
72
65
73
64
0
VERTEX
8
OBJECT__3
10
0
20
0
30
0
70
128
71
68
72
67
73
71
0
VERTEX
8
OBJECT__3
10
0
20
0
30
0
70
128
71
64
72
68
73
71
0
VERTEX
8
OBJECT__3
10
0
20
0
30
0
70
128
71
70
72
72
73
67
0
VERTEX
8
OBJECT__3
10
0
20
0
30
0
70
128
71
66
72
62
73
64
0
VERTEX
8
OBJECT__3
10
0
20
0
30
0
70
128
71
63
72
60
73
58
0
VERTEX
8
OBJECT__3
10
0
20
0
30
0
70
128
71
72
72
73
73
74
0
VERTEX
8
OBJECT__3
10
0
20
0
30
0
70
128
71
75
72
76
73
73
0
VERTEX
8
OBJECT__3
10
0
20
0
30
0
70
128
71
75
72
77
73
76
0
VERTEX
8
OBJECT__3
10
0
20
0
30
0
70
128
71
73
72
72
73
75
0
VERTEX
8
OBJECT__3
10
0
20
0
30
0
70
128
71
75
72
78
73
77
0
VERTEX
8
OBJECT__3
10
0
20
0
30
0
70
128
71
74
72
67
73
72
0
VERTEX
8
OBJECT__3
10
0
20
0
30
0
70
128
71
55
72
52
73
58
0
VERTEX
8
OBJECT__3
10
0
20
0
30
0
70
128
71
75
72
79
73
80
0
VERTEX
8
OBJECT__3
10
0
20
0
30
0
70
128
71
75
72
81
73
82
0
VERTEX
8
OBJECT__3
10
0
20
0
30
0
70
128
71
82
72
79
73
75
0
VERTEX
8
OBJECT__3
10
0
20
0
30
0
70
128
71
81
72
83
73
84
0
VERTEX
8
OBJECT__3
10
0
20
0
30
0
70
128
71
85
72
86
73
81
0
VERTEX
8
OBJECT__3
10
0
20
0
30
0
70
128
71
81
72
87
73
85
0
VERTEX
8
OBJECT__3
10
0
20
0
30
0
70
128
71
86
72
83
73
81
0
VERTEX
8
OBJECT__3
10
0
20
0
30
0
70
128
71
88
72
89
73
90
0
VERTEX
8
OBJECT__3
10
0
20
0
30
0
70
128
71
90
72
91
73
88
0
VERTEX
8
OBJECT__3
10
0
20
0
30
0
70
128
71
88
72
92
73
87
0
VERTEX
8
OBJECT__3
10
0
20
0
30
0
70
128
71
87
72
89
73
88
0
VERTEX
8
OBJECT__3
10
0
20
0
30
0
70
128
71
91
72
93
73
88
0
VERTEX
8
OBJECT__3
10
0
20
0
30
0
70
128
71
93
72
94
73
95
0
VERTEX
8
OBJECT__3
10
0
20
0
30
0
70
128
71
95
72
88
73
93
0
VERTEX
8
OBJECT__3
10
0
20
0
30
0
70
128
71
93
72
96
73
97
0
VERTEX
8
OBJECT__3
10
0
20
0
30
0
70
128
71
97
72
98
73
93
0
VERTEX
8
OBJECT__3
10
0
20
0
30
0
70
128
71
96
72
99
73
100
0
VERTEX
8
OBJECT__3
10
0
20
0
30
0
70
128
71
100
72
97
73
96
0
VERTEX
8
OBJECT__3
10
0
20
0
30
0
70
128
71
96
72
101
73
102
0
VERTEX
8
OBJECT__3
10
0
20
0
30
0
70
128
71
1
72
103
73
101
0
VERTEX
8
OBJECT__3
10
0
20
0
30
0
70
128
71
101
72
96
73
1
0
VERTEX
8
OBJECT__3
10
0
20
0
30
0
70
128
71
102
72
99
73
96
0
VERTEX
8
OBJECT__3
10
0
20
0
30
0
70
128
71
98
72
94
73
93
0
VERTEX
8
OBJECT__3
10
0
20
0
30
0
70
128
71
92
72
85
73
87
0
VERTEX
8
OBJECT__3
10
0
20
0
30
0
70
128
71
84
72
82
73
81
0
VERTEX
8
OBJECT__3
10
0
20
0
30
0
70
128
71
80
72
78
73
75
0
VERTEX
8
OBJECT__3
10
0
20
0
30
0
70
128
71
57
72
54
73
52
0
VERTEX
8
OBJECT__3
10
0
20
0
30
0
70
128
71
30
72
27
73
24
0
VERTEX
8
OBJECT__3
10
0
20
0
30
0
70
128
71
6
72
103
73
1
0
SEQEND
8
OBJECT__3
0
POLYLINE
8
OBJECT__4
66
1
70
64
71
7
72
5
62
253
0
VERTEX
8
OBJECT__4
10
21.000000
20
-94.522003
30
87.521004
70
192
0
VERTEX
8
OBJECT__4
10
32.241001
20
-39.001999
30
87.324997
70
192
0
VERTEX
8
OBJECT__4
10
32.310001
20
-0.527000
30
87.323997
70
192
0
VERTEX
8
OBJECT__4
10
21.000000
20
94.522003
30
87.521004
70
192
0
VERTEX
8
OBJECT__4
10
32.347000
20
20.333000
30
87.322998
70
192
0
VERTEX
8
OBJECT__4
10
31.535000
20
-94.337997
30
87.336998
70
192
0
VERTEX
8
OBJECT__4
10
31.535000
20
94.337997
30
87.336998
70
192
0
VERTEX
8
OBJECT__4
10
0
20
0
30
0
70
128
71
1
72
2
73
3
0
VERTEX
8
OBJECT__4
10
0
20
0
30
0
70
128
71
4
72
3
73
5
0
VERTEX
8
OBJECT__4
10
0
20
0
30
0
70
128
71
1
72
6
73
2
0
VERTEX
8
OBJECT__4
10
0
20
0
30
0
70
128
71
3
72
4
73
1
0
VERTEX
8
OBJECT__4
10
0
20
0
30
0
70
128
71
5
72
7
73
4
0
SEQEND
8
OBJECT__4
0
POLYLINE
8
OBJECT__5
66
1
70
64
71
16
72
14
62
253
0
VERTEX
8
OBJECT__5
10
21.000000
20
-96.846001
30
86.011002
70
192
0
VERTEX
8
OBJECT__5
10
21.000000
20
94.522003
30
-68.521004
70
192
0
VERTEX
8
OBJECT__5
10
21.000000
20
-94.522003
30
-68.521004
70
192
0
VERTEX
8
OBJECT__5
10
21.000000
20
96.846001
30
-67.011002
70
192
0
VERTEX
8
OBJECT__5
10
21.000000
20
96.027000
30
-68.226997
70
192
0
VERTEX
8
OBJECT__5
10
21.000000
20
98.521004
30
-64.522003
70
192
0
VERTEX
8
OBJECT__5
10
21.000000
20
-94.522003
30
87.521004
70
192
0
VERTEX
8
OBJECT__5
10
21.000000
20
94.522003
30
87.521004
70
192
0
VERTEX
8
OBJECT__5
10
21.000000
20
-96.027000
30
87.226997
70
192
0
VERTEX
8
OBJECT__5
10
21.000000
20
-97.011002
30
-66.846001
70
192
0
VERTEX
8
OBJECT__5
10
21.000000
20
-98.521004
30
-64.522003
70
192
0
VERTEX
8
OBJECT__5
10
21.000000
20
97.011002
30
85.846001
70
192
0
VERTEX
8
OBJECT__5
10
21.000000
20
98.226997
30
85.027000
70
192
0
VERTEX
8
OBJECT__5
10
21.000000
20
98.521004
30
83.522003
70
192
0
VERTEX
8
OBJECT__5
10
21.000000
20
-98.226997
30
-66.027000
70
192
0
VERTEX
8
OBJECT__5
10
21.000000
20
-98.521004
30
83.522003
70
192
0
VERTEX
8
OBJECT__5
10
0
20
0
30
0
70
128
71
1
72
2
73
3
0
VERTEX
8
OBJECT__5
10
0
20
0
30
0
70
128
71
1
72
4
73
5
0
VERTEX
8
OBJECT__5
10
0
20
0
30
0
70
128
71
6
72
7
73
8
0
VERTEX
8
OBJECT__5
10
0
20
0
30
0
70
128
71
6
72
1
73
9
0
VERTEX
8
OBJECT__5
10
0
20
0
30
0
70
128
71
1
72
10
73
11
0
VERTEX
8
OBJECT__5
10
0
20
0
30
0
70
128
71
5
72
2
73
1
0
VERTEX
8
OBJECT__5
10
0
20
0
30
0
70
128
71
12
72
13
73
14
0
VERTEX
8
OBJECT__5
10
0
20
0
30
0
70
128
71
9
72
7
73
6
0
VERTEX
8
OBJECT__5
10
0
20
0
30
0
70
128
71
10
72
15
73
11
0
VERTEX
8
OBJECT__5
10
0
20
0
30
0
70
128
71
1
72
6
73
4
0
VERTEX
8
OBJECT__5
10
0
20
0
30
0
70
128
71
8
72
12
73
6
0
VERTEX
8
OBJECT__5
10
0
20
0
30
0
70
128
71
3
72
10
73
1
0
VERTEX
8
OBJECT__5
10
0
20
0
30
0
70
128
71
11
72
16
73
1
0
VERTEX
8
OBJECT__5
10
0
20
0
30
0
70
128
71
14
72
6
73
12
0
SEQEND
8
OBJECT__5
0
POLYLINE
8
OBJECT__6
66
1
70
64
71
7
72
5
62
253
0
VERTEX
8
OBJECT__6
10
21.000000
20
94.522003
30
-68.521004
70
192
0
VERTEX
8
OBJECT__6
10
32.241001
20
39.001999
30
-68.324997
70
192
0
VERTEX
8
OBJECT__6
10
32.312000
20
-0.528000
30
-68.323997
70
192
0
VERTEX
8
OBJECT__6
10
21.000000
20
-94.522003
30
-68.521004
70
192
0
VERTEX
8
OBJECT__6
10
32.347000
20
-20.333000
30
-68.322998
70
192
0
VERTEX
8
OBJECT__6
10
31.535000
20
94.337997
30
-68.336998
70
192
0
VERTEX
8
OBJECT__6
10
31.535000
20
-94.337997
30
-68.336998
70
192
0
VERTEX
8
OBJECT__6
10
0
20
0
30
0
70
128
71
1
72
2
73
3
0
VERTEX
8
OBJECT__6
10
0
20
0
30
0
70
128
71
4
72
3
73
5
0
VERTEX
8
OBJECT__6
10
0
20
0
30
0
70
128
71
1
72
6
73
2
0
VERTEX
8
OBJECT__6
10
0
20
0
30
0
70
128
71
3
72
4
73
1
0
VERTEX
8
OBJECT__6
10
0
20
0
30
0
70
128
71
5
72
7
73
4
0
SEQEND
8
OBJECT__6
0
POLYLINE
8
OBJECT__7
66
1
70
64
71
7
72
5
62
253
0
VERTEX
8
OBJECT__7
10
21.000000
20
98.521004
30
-64.522003
70
192
0
VERTEX
8
OBJECT__7
10
21.000000
20
98.521004
30
83.522003
70
192
0
VERTEX
8
OBJECT__7
10
32.040001
20
98.328003
30
9.500000
70
192
0
VERTEX
8
OBJECT__7
10
31.896000
20
98.331001
30
-29.336000
70
192
0
VERTEX
8
OBJECT__7
10
31.518999
20
98.336998
30
83.337997
70
192
0
VERTEX
8
OBJECT__7
10
32.041000
20
98.328003
30
9.668000
70
192
0
VERTEX
8
OBJECT__7
10
31.518999
20
98.336998
30
-64.337997
70
192
0
VERTEX
8
OBJECT__7
10
0
20
0
30
0
70
128
71
1
72
2
73
3
0
VERTEX
8
OBJECT__7
10
0
20
0
30
0
70
128
71
3
72
4
73
1
0
VERTEX
8
OBJECT__7
10
0
20
0
30
0
70
128
71
2
72
5
73
6
0
VERTEX
8
OBJECT__7
10
0
20
0
30
0
70
128
71
6
72
3
73
2
0
VERTEX
8
OBJECT__7
10
0
20
0
30
0
70
128
71
4
72
7
73
1
0
SEQEND
8
OBJECT__7
0
POLYLINE
8
OBJECT__8
66
1
70
64
71
6
72
4
62
253
0
VERTEX
8
OBJECT__8
10
21.000000
20
-98.521004
30
83.522003
70
192
0
VERTEX
8
OBJECT__8
10
21.000000
20
-98.521004
30
-64.522003
70
192
0
VERTEX
8
OBJECT__8
10
31.764000
20
-98.333000
30
9.499000
70
192
0
VERTEX
8
OBJECT__8
10
31.518999
20
-98.336998
30
-64.337997
70
192
0
VERTEX
8
OBJECT__8
10
31.893999
20
-98.331001
30
-29.673000
70
192
0
VERTEX
8
OBJECT__8
10
31.518999
20
-98.336998
30
83.337997
70
192
0
VERTEX
8
OBJECT__8
10
0
20
0
30
0
70
128
71
1
72
2
73
3
0
VERTEX
8
OBJECT__8
10
0
20
0
30
0
70
128
71
2
72
4
73
5
0
VERTEX
8
OBJECT__8
10
0
20
0
30
0
70
128
71
5
72
3
73
2
0
VERTEX
8
OBJECT__8
10
0
20
0
30
0
70
128
71
3
72
6
73
1
0
SEQEND
8
OBJECT__8
0
POLYLINE
8
OBJECT__9
66
1
70
64
71
9
72
7
62
253
0
VERTEX
8
OBJECT__9
10
31.518999
20
98.336998
30
83.337997
70
192
0
VERTEX
8
OBJECT__9
10
21.000000
20
98.521004
30
83.522003
70
192
0
VERTEX
8
OBJECT__9
10
21.000000
20
98.226997
30
85.027000
70
192
0
VERTEX
8
OBJECT__9
10
31.507999
20
96.863998
30
85.999001
70
192
0
VERTEX
8
OBJECT__9
10
21.000000
20
94.522003
30
87.521004
70
192
0
VERTEX
8
OBJECT__9
10
31.520000
20
95.219002
30
87.238998
70
192
0
VERTEX
8
OBJECT__9
10
31.504999
20
96.459999
30
86.727997
70
192
0
VERTEX
8
OBJECT__9
10
31.535000
20
94.337997
30
87.336998
70
192
0
VERTEX
8
OBJECT__9
10
21.000000
20
97.011002
30
85.846001
70
192
0
VERTEX
8
OBJECT__9
10
0
20
0
30
0
70
128
71
1
72
2
73
3
0
VERTEX
8
OBJECT__9
10
0
20
0
30
0
70
128
71
3
72
4
73
1
0
VERTEX
8
OBJECT__9
10
0
20
0
30
0
70
128
71
5
72
6
73
7
0
VERTEX
8
OBJECT__9
10
0
20
0
30
0
70
128
71
5
72
8
73
6
0
VERTEX
8
OBJECT__9
10
0
20
0
30
0
70
128
71
7
72
9
73
5
0
VERTEX
8
OBJECT__9
10
0
20
0
30
0
70
128
71
7
72
4
73
9
0
VERTEX
8
OBJECT__9
10
0
20
0
30
0
70
128
71
3
72
9
73
4
0
SEQEND
8
OBJECT__9
0
POLYLINE
8
OBJECT__10
66
1
70
64
71
9
72
7
62
253
0
VERTEX
8
OBJECT__10
10
31.535000
20
-94.337997
30
87.336998
70
192
0
VERTEX
8
OBJECT__10
10
21.000000
20
-94.522003
30
87.521004
70
192
0
VERTEX
8
OBJECT__10
10
21.000000
20
-96.027000
30
87.226997
70
192
0
VERTEX
8
OBJECT__10
10
31.507999
20
-96.999001
30
85.863998
70
192
0
VERTEX
8
OBJECT__10
10
21.000000
20
-98.521004
30
83.522003
70
192
0
VERTEX
8
OBJECT__10
10
31.509001
20
-98.238998
30
84.219002
70
192
0
VERTEX
8
OBJECT__10
10
31.500000
20
-97.728996
30
85.459000
70
192
0
VERTEX
8
OBJECT__10
10
31.518999
20
-98.336998
30
83.337997
70
192
0
VERTEX
8
OBJECT__10
10
21.000000
20
-96.846001
30
86.011002
70
192
0
VERTEX
8
OBJECT__10
10
0
20
0
30
0
70
128
71
1
72
2
73
3
0
VERTEX
8
OBJECT__10
10
0
20
0
30
0
70
128
71
3
72
4
73
1
0
VERTEX
8
OBJECT__10
10
0
20
0
30
0
70
128
71
5
72
6
73
7
0
VERTEX
8
OBJECT__10
10
0
20
0
30
0
70
128
71
5
72
8
73
6
0
VERTEX
8
OBJECT__10
10
0
20
0
30
0
70
128
71
7
72
9
73
5
0
VERTEX
8
OBJECT__10
10
0
20
0
30
0
70
128
71
7
72
4
73
9
0
VERTEX
8
OBJECT__10
10
0
20
0
30
0
70
128
71
3
72
9
73
4
0
SEQEND
8
OBJECT__10
0
POLYLINE
8
OBJECT__11
66
1
70
64
71
9
72
7
62
253
0
VERTEX
8
OBJECT__11
10
31.518999
20
-98.336998
30
-64.337997
70
192
0
VERTEX
8
OBJECT__11
10
21.000000
20
-98.521004
30
-64.522003
70
192
0
VERTEX
8
OBJECT__11
10
21.000000
20
-98.226997
30
-66.027000
70
192
0
VERTEX
8
OBJECT__11
10
31.507999
20
-96.863998
30
-66.999001
70
192
0
VERTEX
8
OBJECT__11
10
21.000000
20
-94.522003
30
-68.521004
70
192
0
VERTEX
8
OBJECT__11
10
31.520000
20
-95.219002
30
-68.238998
70
192
0
VERTEX
8
OBJECT__11
10
31.504999
20
-96.459999
30
-67.727997
70
192
0
VERTEX
8
OBJECT__11
10
31.535000
20
-94.337997
30
-68.336998
70
192
0
VERTEX
8
OBJECT__11
10
21.000000
20
-97.011002
30
-66.846001
70
192
0
VERTEX
8
OBJECT__11
10
0
20
0
30
0
70
128
71
1
72
2
73
3
0
VERTEX
8
OBJECT__11
10
0
20
0
30
0
70
128
71
3
72
4
73
1
0
VERTEX
8
OBJECT__11
10
0
20
0
30
0
70
128
71
5
72
6
73
7
0
VERTEX
8
OBJECT__11
10
0
20
0
30
0
70
128
71
5
72
8
73
6
0
VERTEX
8
OBJECT__11
10
0
20
0
30
0
70
128
71
7
72
9
73
5
0
VERTEX
8
OBJECT__11
10
0
20
0
30
0
70
128
71
7
72
4
73
9
0
VERTEX
8
OBJECT__11
10
0
20
0
30
0
70
128
71
3
72
9
73
4
0
SEQEND
8
OBJECT__11
0
POLYLINE
8
OBJECT__12
66
1
70
64
71
9
72
7
62
253
0
VERTEX
8
OBJECT__12
10
31.535000
20
94.337997
30
-68.336998
70
192
0
VERTEX
8
OBJECT__12
10
21.000000
20
94.522003
30
-68.521004
70
192
0
VERTEX
8
OBJECT__12
10
21.000000
20
96.027000
30
-68.226997
70
192
0
VERTEX
8
OBJECT__12
10
31.507000
20
96.999001
30
-66.863998
70
192
0
VERTEX
8
OBJECT__12
10
21.000000
20
98.521004
30
-64.522003
70
192
0
VERTEX
8
OBJECT__12
10
31.507999
20
98.238998
30
-65.219002
70
192
0
VERTEX
8
OBJECT__12
10
31.500000
20
97.728996
30
-66.459000
70
192
0
VERTEX
8
OBJECT__12
10
31.518999
20
98.336998
30
-64.337997
70
192
0
VERTEX
8
OBJECT__12
10
21.000000
20
96.846001
30
-67.011002
70
192
0
VERTEX
8
OBJECT__12
10
0
20
0
30
0
70
128
71
1
72
2
73
3
0
VERTEX
8
OBJECT__12
10
0
20
0
30
0
70
128
71
3
72
4
73
1
0
VERTEX
8
OBJECT__12
10
0
20
0
30
0
70
128
71
5
72
6
73
7
0
VERTEX
8
OBJECT__12
10
0
20
0
30
0
70
128
71
5
72
8
73
6
0
VERTEX
8
OBJECT__12
10
0
20
0
30
0
70
128
71
7
72
9
73
5
0
VERTEX
8
OBJECT__12
10
0
20
0
30
0
70
128
71
7
72
4
73
9
0
VERTEX
8
OBJECT__12
10
0
20
0
30
0
70
128
71
3
72
9
73
4
0
SEQEND
8
OBJECT__12
0
POLYLINE
8
OBJECT__13
66
1
70
64
71
20
72
18
62
253
0
VERTEX
8
OBJECT__13
10
27.400000
20
-33.278000
30
24.000000
70
192
0
VERTEX
8
OBJECT__13
10
33.879002
20
-33.278000
30
24.000000
70
192
0
VERTEX
8
OBJECT__13
10
33.879002
20
-27.986000
30
32.618999
70
192
0
VERTEX
8
OBJECT__13
10
27.400000
20
-25.354000
30
35.478001
70
192
0
VERTEX
8
OBJECT__13
10
27.400000
20
-13.688000
30
43.120998
70
192
0
VERTEX
8
OBJECT__13
10
33.879002
20
-20.101999
30
39.726002
70
192
0
VERTEX
8
OBJECT__13
10
33.879002
20
-25.112000
30
35.209000
70
192
0
VERTEX
8
OBJECT__13
10
27.400000
20
0.000000
30
45.799999
70
192
0
VERTEX
8
OBJECT__13
10
33.879002
20
-10.500000
30
44.248001
70
192
0
VERTEX
8
OBJECT__13
10
33.879002
20
-13.543000
30
42.814999
70
192
0
VERTEX
8
OBJECT__13
10
33.879002
20
0.000000
30
45.799999
70
192
0
VERTEX
8
OBJECT__13
10
33.879002
20
10.500000
30
44.248001
70
192
0
VERTEX
8
OBJECT__13
10
27.400000
20
13.688000
30
43.120998
70
192
0
VERTEX
8
OBJECT__13
10
33.879002
20
13.543000
30
42.814999
70
192
0
VERTEX
8
OBJECT__13
10
33.879002
20
20.101999
30
39.726002
70
192
0
VERTEX
8
OBJECT__13
10
27.400000
20
25.354000
30
35.478001
70
192
0
VERTEX
8
OBJECT__13
10
27.400000
20
33.278000
30
24.000000
70
192
0
VERTEX
8
OBJECT__13
10
33.879002
20
27.986000
30
32.618999
70
192
0
VERTEX
8
OBJECT__13
10
33.879002
20
25.112000
30
35.209000
70
192
0
VERTEX
8
OBJECT__13
10
33.879002
20
33.278000
30
24.000000
70
192
0
VERTEX
8
OBJECT__13
10
0
20
0
30
0
70
128
71
1
72
2
73
3
0
VERTEX
8
OBJECT__13
10
0
20
0
30
0
70
128
71
3
72
4
73
1
0
VERTEX
8
OBJECT__13
10
0
20
0
30
0
70
128
71
5
72
4
73
6
0
VERTEX
8
OBJECT__13
10
0
20
0
30
0
70
128
71
4
72
7
73
6
0
VERTEX
8
OBJECT__13
10
0
20
0
30
0
70
128
71
8
72
5
73
9
0
VERTEX
8
OBJECT__13
10
0
20
0
30
0
70
128
71
5
72
10
73
9
0
VERTEX
8
OBJECT__13
10
0
20
0
30
0
70
128
71
8
72
11
73
12
0
VERTEX
8
OBJECT__13
10
0
20
0
30
0
70
128
71
12
72
13
73
8
0
VERTEX
8
OBJECT__13
10
0
20
0
30
0
70
128
71
13
72
14
73
15
0
VERTEX
8
OBJECT__13
10
0
20
0
30
0
70
128
71
15
72
16
73
13
0
VERTEX
8
OBJECT__13
10
0
20
0
30
0
70
128
71
17
72
16
73
18
0
VERTEX
8
OBJECT__13
10
0
20
0
30
0
70
128
71
16
72
19
73
18
0
VERTEX
8
OBJECT__13
10
0
20
0
30
0
70
128
71
18
72
20
73
17
0
VERTEX
8
OBJECT__13
10
0
20
0
30
0
70
128
71
15
72
19
73
16
0
VERTEX
8
OBJECT__13
10
0
20
0
30
0
70
128
71
12
72
14
73
13
0
VERTEX
8
OBJECT__13
10
0
20
0
30
0
70
128
71
9
72
11
73
8
0
VERTEX
8
OBJECT__13
10
0
20
0
30
0
70
128
71
6
72
10
73
5
0
VERTEX
8
OBJECT__13
10
0
20
0
30
0
70
128
71
3
72
7
73
4
0
SEQEND
8
OBJECT__13
0
POLYLINE
8
OBJECT__14
66
1
70
64
71
15
72
13
62
253
0
VERTEX
8
OBJECT__14
10
27.400000
20
-33.278000
30
24.000000
70
192
0
VERTEX
8
OBJECT__14
10
27.400000
20
33.278000
30
24.000000
70
192
0
VERTEX
8
OBJECT__14
10
36.597000
20
4.685000
30
24.000000
70
192
0
VERTEX
8
OBJECT__14
10
36.730999
20
0.000000
30
24.000000
70
192
0
VERTEX
8
OBJECT__14
10
35.796001
20
-18.347000
30
24.000000
70
192
0
VERTEX
8
OBJECT__14
10
35.462002
20
-22.246000
30
24.000000
70
192
0
VERTEX
8
OBJECT__14
10
36.448002
20
-9.908000
30
24.000000
70
192
0
VERTEX
8
OBJECT__14
10
36.412998
20
-11.141000
30
24.000000
70
192
0
VERTEX
8
OBJECT__14
10
36.597000
20
-4.685000
30
24.000000
70
192
0
VERTEX
8
OBJECT__14
10
36.448002
20
9.908000
30
24.000000
70
192
0
VERTEX
8
OBJECT__14
10
35.796001
20
18.347000
30
24.000000
70
192
0
VERTEX
8
OBJECT__14
10
36.412998
20
11.141000
30
24.000000
70
192
0
VERTEX
8
OBJECT__14
10
33.879002
20
33.278000
30
24.000000
70
192
0
VERTEX
8
OBJECT__14
10
35.462002
20
22.246000
30
24.000000
70
192
0
VERTEX
8
OBJECT__14
10
33.879002
20
-33.278000
30
24.000000
70
192
0
VERTEX
8
OBJECT__14
10
0
20
0
30
0
70
128
71
1
72
2
73
3
0
VERTEX
8
OBJECT__14
10
0
20
0
30
0
70
128
71
3
72
4
73
1
0
VERTEX
8
OBJECT__14
10
0
20
0
30
0
70
128
71
1
72
5
73
6
0
VERTEX
8
OBJECT__14
10
0
20
0
30
0
70
128
71
1
72
7
73
8
0
VERTEX
8
OBJECT__14
10
0
20
0
30
0
70
128
71
4
72
9
73
1
0
VERTEX
8
OBJECT__14
10
0
20
0
30
0
70
128
71
8
72
5
73
1
0
VERTEX
8
OBJECT__14
10
0
20
0
30
0
70
128
71
2
72
10
73
3
0
VERTEX
8
OBJECT__14
10
0
20
0
30
0
70
128
71
2
72
11
73
12
0
VERTEX
8
OBJECT__14
10
0
20
0
30
0
70
128
71
2
72
13
73
14
0
VERTEX
8
OBJECT__14
10
0
20
0
30
0
70
128
71
9
72
7
73
1
0
VERTEX
8
OBJECT__14
10
0
20
0
30
0
70
128
71
14
72
11
73
2
0
VERTEX
8
OBJECT__14
10
0
20
0
30
0
70
128
71
12
72
10
73
2
0
VERTEX
8
OBJECT__14
10
0
20
0
30
0
70
128
71
6
72
15
73
1
0
SEQEND
8
OBJECT__14
0
POLYLINE
8
OBJECT__16
66
1
70
64
71
24
72
22
62
253
0
VERTEX
8
OBJECT__16
10
33.879002
20
-27.986000
30
32.618999
70
192
0
VERTEX
8
OBJECT__16
10
33.879002
20
-33.278000
30
24.000000
70
192
0
VERTEX
8
OBJECT__16
10
35.462002
20
-22.246000
30
24.000000
70
192
0
VERTEX
8
OBJECT__16
10
33.879002
20
-25.112000
30
35.209000
70
192
0
VERTEX
8
OBJECT__16
10
35.796001
20
-18.347000
30
24.000000
70
192
0
VERTEX
8
OBJECT__16
10
33.879002
20
-20.101999
30
39.726002
70
192
0
VERTEX
8
OBJECT__16
10
36.412998
20
-11.141000
30
24.000000
70
192
0
VERTEX
8
OBJECT__16
10
36.448002
20
-9.908000
30
24.000000
70
192
0
VERTEX
8
OBJECT__16
10
33.879002
20
-13.543000
30
42.814999
70
192
0
VERTEX
8
OBJECT__16
10
36.597000
20
-4.685000
30
24.000000
70
192
0
VERTEX
8
OBJECT__16
10
33.879002
20
-10.500000
30
44.248001
70
192
0
VERTEX
8
OBJECT__16
10
33.879002
20
0.000000
30
45.799999
70
192
0
VERTEX
8
OBJECT__16
10
36.730999
20
0.000000
30
24.000000
70
192
0
VERTEX
8
OBJECT__16
10
36.597000
20
4.685000
30
24.000000
70
192
0
VERTEX
8
OBJECT__16
10
33.879002
20
13.543000
30
42.814999
70
192
0
VERTEX
8
OBJECT__16
10
36.448002
20
9.908000
30
24.000000
70
192
0
VERTEX
8
OBJECT__16
10
33.879002
20
20.101999
30
39.726002
70
192
0
VERTEX
8
OBJECT__16
10
36.412998
20
11.141000
30
24.000000
70
192
0
VERTEX
8
OBJECT__16
10
33.879002
20
25.112000
30
35.209000
70
192
0
VERTEX
8
OBJECT__16
10
35.796001
20
18.347000
30
24.000000
70
192
0
VERTEX
8
OBJECT__16
10
33.879002
20
27.986000
30
32.618999
70
192
0
VERTEX
8
OBJECT__16
10
35.462002
20
22.246000
30
24.000000
70
192
0
VERTEX
8
OBJECT__16
10
33.879002
20
33.278000
30
24.000000
70
192
0
VERTEX
8
OBJECT__16
10
33.879002
20
10.500000
30
44.248001
70
192
0
VERTEX
8
OBJECT__16
10
0
20
0
30
0
70
128
71
1
72
2
73
3
0
VERTEX
8
OBJECT__16
10
0
20
0
30
0
70
128
71
4
72
1
73
5
0
VERTEX
8
OBJECT__16
10
0
20
0
30
0
70
128
71
6
72
4
73
7
0
VERTEX
8
OBJECT__16
10
0
20
0
30
0
70
128
71
7
72
8
73
6
0
VERTEX
8
OBJECT__16
10
0
20
0
30
0
70
128
71
9
72
6
73
8
0
VERTEX
8
OBJECT__16
10
0
20
0
30
0
70
128
71
10
72
11
73
9
0
VERTEX
8
OBJECT__16
10
0
20
0
30
0
70
128
71
12
72
11
73
10
0
VERTEX
8
OBJECT__16
10
0
20
0
30
0
70
128
71
12
72
13
73
14
0
VERTEX
8
OBJECT__16
10
0
20
0
30
0
70
128
71
15
72
14
73
16
0
VERTEX
8
OBJECT__16
10
0
20
0
30
0
70
128
71
16
72
17
73
15
0
VERTEX
8
OBJECT__16
10
0
20
0
30
0
70
128
71
17
72
16
73
18
0
VERTEX
8
OBJECT__16
10
0
20
0
30
0
70
128
71
19
72
18
73
20
0
VERTEX
8
OBJECT__16
10
0
20
0
30
0
70
128
71
20
72
21
73
19
0
VERTEX
8
OBJECT__16
10
0
20
0
30
0
70
128
71
21
72
20
73
22
0
VERTEX
8
OBJECT__16
10
0
20
0
30
0
70
128
71
22
72
23
73
21
0
VERTEX
8
OBJECT__16
10
0
20
0
30
0
70
128
71
18
72
19
73
17
0
VERTEX
8
OBJECT__16
10
0
20
0
30
0
70
128
71
15
72
24
73
14
0
VERTEX
8
OBJECT__16
10
0
20
0
30
0
70
128
71
14
72
24
73
12
0
VERTEX
8
OBJECT__16
10
0
20
0
30
0
70
128
71
10
72
13
73
12
0
VERTEX
8
OBJECT__16
10
0
20
0
30
0
70
128
71
8
72
10
73
9
0
VERTEX
8
OBJECT__16
10
0
20
0
30
0
70
128
71
5
72
7
73
4
0
VERTEX
8
OBJECT__16
10
0
20
0
30
0
70
128
71
3
72
5
73
1
0
SEQEND
8
OBJECT__16
0
POLYLINE
8
OBJECT__17
66
1
70
64
71
21
72
19
62
253
0
VERTEX
8
OBJECT__17
10
27.400000
20
-33.533001
30
23.400000
70
192
0
VERTEX
8
OBJECT__17
10
36.715000
20
-4.145000
30
23.400000
70
192
0
VERTEX
8
OBJECT__17
10
36.773998
20
0.000000
30
23.400000
70
192
0
VERTEX
8
OBJECT__17
10
27.400000
20
33.533001
30
23.400000
70
192
0
VERTEX
8
OBJECT__17
10
36.715000
20
4.145000
30
23.400000
70
192
0
VERTEX
8
OBJECT__17
10
36.694000
20
5.616000
30
23.400000
70
192
0
VERTEX
8
OBJECT__17
10
36.543999
20
9.091000
30
23.400000
70
192
0
VERTEX
8
OBJECT__17
10
36.452000
20
11.227000
30
23.400000
70
192
0
VERTEX
8
OBJECT__17
10
36.470001
20
-9.500000
30
23.400000
70
192
0
VERTEX
8
OBJECT__17
10
36.694000
20
-5.616000
30
23.400000
70
192
0
VERTEX
8
OBJECT__17
10
36.415001
20
11.654000
30
23.400000
70
192
0
VERTEX
8
OBJECT__17
10
35.144001
20
-25.204000
30
23.400000
70
192
0
VERTEX
8
OBJECT__17
10
36.049000
20
-16.829000
30
23.400000
70
192
0
VERTEX
8
OBJECT__17
10
35.962002
20
16.896999
30
23.400000
70
192
0
VERTEX
8
OBJECT__17
10
35.486000
20
22.417000
30
23.400000
70
192
0
VERTEX
8
OBJECT__17
10
36.409000
20
-10.574000
30
23.400000
70
192
0
VERTEX
8
OBJECT__17
10
34.289001
20
-30.837999
30
23.400000
70
192
0
VERTEX
8
OBJECT__17
10
36.082001
20
-16.250000
30
23.400000
70
192
0
VERTEX
8
OBJECT__17
10
33.879002
20
-33.533001
30
23.400000
70
192
0
VERTEX
8
OBJECT__17
10
34.238998
20
31.047001
30
23.400000
70
192
0
VERTEX
8
OBJECT__17
10
33.879002
20
33.533001
30
23.400000
70
192
0
VERTEX
8
OBJECT__17
10
0
20
0
30
0
70
128
71
1
72
2
73
3
0
VERTEX
8
OBJECT__17
10
0
20
0
30
0
70
128
71
4
72
5
73
6
0
VERTEX
8
OBJECT__17
10
0
20
0
30
0
70
128
71
3
72
4
73
1
0
VERTEX
8
OBJECT__17
10
0
20
0
30
0
70
128
71
4
72
7
73
8
0
VERTEX
8
OBJECT__17
10
0
20
0
30
0
70
128
71
3
72
5
73
4
0
VERTEX
8
OBJECT__17
10
0
20
0
30
0
70
128
71
1
72
9
73
10
0
VERTEX
8
OBJECT__17
10
0
20
0
30
0
70
128
71
8
72
11
73
4
0
VERTEX
8
OBJECT__17
10
0
20
0
30
0
70
128
71
10
72
2
73
1
0
VERTEX
8
OBJECT__17
10
0
20
0
30
0
70
128
71
6
72
7
73
4
0
VERTEX
8
OBJECT__17
10
0
20
0
30
0
70
128
71
1
72
12
73
13
0
VERTEX
8
OBJECT__17
10
0
20
0
30
0
70
128
71
4
72
14
73
15
0
VERTEX
8
OBJECT__17
10
0
20
0
30
0
70
128
71
1
72
16
73
9
0
VERTEX
8
OBJECT__17
10
0
20
0
30
0
70
128
71
1
72
17
73
12
0
VERTEX
8
OBJECT__17
10
0
20
0
30
0
70
128
71
11
72
14
73
4
0
VERTEX
8
OBJECT__17
10
0
20
0
30
0
70
128
71
13
72
18
73
1
0
VERTEX
8
OBJECT__17
10
0
20
0
30
0
70
128
71
18
72
16
73
1
0
VERTEX
8
OBJECT__17
10
0
20
0
30
0
70
128
71
1
72
19
73
17
0
VERTEX
8
OBJECT__17
10
0
20
0
30
0
70
128
71
15
72
20
73
4
0
VERTEX
8
OBJECT__17
10
0
20
0
30
0
70
128
71
20
72
21
73
4
0
SEQEND
8
OBJECT__17
0
POLYLINE
8
OBJECT__18
66
1
70
64
71
34
72
32
62
253
0
VERTEX
8
OBJECT__18
10
27.400000
20
33.533001
30
23.400000
70
192
0
VERTEX
8
OBJECT__18
10
33.879002
20
33.533001
30
23.400000
70
192
0
VERTEX
8
OBJECT__18
10
33.879002
20
35.931000
30
14.666000
70
192
0
VERTEX
8
OBJECT__18
10
27.400000
20
36.299999
30
9.507000
70
192
0
VERTEX
8
OBJECT__18
10
27.400000
20
33.539001
30
-4.386000
70
192
0
VERTEX
8
OBJECT__18
10
33.879002
20
35.931000
30
4.334000
70
192
0
VERTEX
8
OBJECT__18
10
33.879002
20
35.931000
30
9.507000
70
192
0
VERTEX
8
OBJECT__18
10
33.879002
20
33.020000
30
-5.580000
70
192
0
VERTEX
8
OBJECT__18
10
33.879002
20
27.434000
30
-14.271000
70
192
0
VERTEX
8
OBJECT__18
10
33.879002
20
33.382999
30
-4.341000
70
192
0
VERTEX
8
OBJECT__18
10
27.400000
20
25.671000
30
-16.165001
70
192
0
VERTEX
8
OBJECT__18
10
33.879002
20
25.489000
30
-15.956000
70
192
0
VERTEX
8
OBJECT__18
10
33.879002
20
19.625000
30
-21.038000
70
192
0
VERTEX
8
OBJECT__18
10
27.400000
20
13.893000
30
-24.035999
70
192
0
VERTEX
8
OBJECT__18
10
27.400000
20
0.000000
30
-26.799999
70
192
0
VERTEX
8
OBJECT__18
10
33.879002
20
10.227000
30
-25.330000
70
192
0
VERTEX
8
OBJECT__18
10
33.879002
20
13.749000
30
-23.721001
70
192
0
VERTEX
8
OBJECT__18
10
33.879002
20
0.000000
30
-26.799999
70
192
0
VERTEX
8
OBJECT__18
10
33.879002
20
-10.227000
30
-25.330000
70
192
0
VERTEX
8
OBJECT__18
10
27.400000
20
-13.893000
30
-24.035999
70
192
0
VERTEX
8
OBJECT__18
10
27.400000
20
-25.671000
30
-16.165001
70
192
0
VERTEX
8
OBJECT__18
10
33.879002
20
-19.625000
30
-21.038000
70
192
0
VERTEX
8
OBJECT__18
10
33.879002
20
-13.749000
30
-23.721001
70
192
0
VERTEX
8
OBJECT__18
10
27.400000
20
-33.539001
30
-4.386000
70
192
0
VERTEX
8
OBJECT__18
10
33.879002
20
-27.434000
30
-14.271000
70
192
0
VERTEX
8
OBJECT__18
10
33.879002
20
-33.020000
30
-5.580000
70
192
0
VERTEX
8
OBJECT__18
10
33.879002
20
-25.489000
30
-15.956000
70
192
0
VERTEX
8
OBJECT__18
10
33.879002
20
-33.382999
30
-4.341000
70
192
0
VERTEX
8
OBJECT__18
10
33.879002
20
-35.931000
30
4.334000
70
192
0
VERTEX
8
OBJECT__18
10
27.400000
20
-36.299999
30
9.507000
70
192
0
VERTEX
8
OBJECT__18
10
27.400000
20
-33.533001
30
23.400000
70
192
0
VERTEX
8
OBJECT__18
10
33.879002
20
-35.931000
30
14.666000
70
192
0
VERTEX
8
OBJECT__18
10
33.879002
20
-35.931000
30
9.507000
70
192
0
VERTEX
8
OBJECT__18
10
33.879002
20
-33.533001
30
23.400000
70
192
0
VERTEX
8
OBJECT__18
10
0
20
0
30
0
70
128
71
1
72
2
73
3
0
VERTEX
8
OBJECT__18
10
0
20
0
30
0
70
128
71
3
72
4
73
1
0
VERTEX
8
OBJECT__18
10
0
20
0
30
0
70
128
71
5
72
4
73
6
0
VERTEX
8
OBJECT__18
10
0
20
0
30
0
70
128
71
4
72
7
73
6
0
VERTEX
8
OBJECT__18
10
0
20
0
30
0
70
128
71
5
72
8
73
9
0
VERTEX
8
OBJECT__18
10
0
20
0
30
0
70
128
71
5
72
10
73
8
0
VERTEX
8
OBJECT__18
10
0
20
0
30
0
70
128
71
9
72
11
73
5
0
VERTEX
8
OBJECT__18
10
0
20
0
30
0
70
128
71
11
72
12
73
13
0
VERTEX
8
OBJECT__18
10
0
20
0
30
0
70
128
71
13
72
14
73
11
0
VERTEX
8
OBJECT__18
10
0
20
0
30
0
70
128
71
15
72
14
73
16
0
VERTEX
8
OBJECT__18
10
0
20
0
30
0
70
128
71
14
72
17
73
16
0
VERTEX
8
OBJECT__18
10
0
20
0
30
0
70
128
71
15
72
18
73
19
0
VERTEX
8
OBJECT__18
10
0
20
0
30
0
70
128
71
19
72
20
73
15
0
VERTEX
8
OBJECT__18
10
0
20
0
30
0
70
128
71
21
72
20
73
22
0
VERTEX
8
OBJECT__18
10
0
20
0
30
0
70
128
71
20
72
23
73
22
0
VERTEX
8
OBJECT__18
10
0
20
0
30
0
70
128
71
24
72
21
73
25
0
VERTEX
8
OBJECT__18
10
0
20
0
30
0
70
128
71
25
72
26
73
24
0
VERTEX
8
OBJECT__18
10
0
20
0
30
0
70
128
71
21
72
27
73
25
0
VERTEX
8
OBJECT__18
10
0
20
0
30
0
70
128
71
24
72
28
73
29
0
VERTEX
8
OBJECT__18
10
0
20
0
30
0
70
128
71
29
72
30
73
24
0
VERTEX
8
OBJECT__18
10
0
20
0
30
0
70
128
71
31
72
30
73
32
0
VERTEX
8
OBJECT__18
10
0
20
0
30
0
70
128
71
30
72
33
73
32
0
VERTEX
8
OBJECT__18
10
0
20
0
30
0
70
128
71
32
72
34
73
31
0
VERTEX
8
OBJECT__18
10
0
20
0
30
0
70
128
71
29
72
33
73
30
0
VERTEX
8
OBJECT__18
10
0
20
0
30
0
70
128
71
26
72
28
73
24
0
VERTEX
8
OBJECT__18
10
0
20
0
30
0
70
128
71
22
72
27
73
21
0
VERTEX
8
OBJECT__18
10
0
20
0
30
0
70
128
71
19
72
23
73
20
0
VERTEX
8
OBJECT__18
10
0
20
0
30
0
70
128
71
16
72
18
73
15
0
VERTEX
8
OBJECT__18
10
0
20
0
30
0
70
128
71
13
72
17
73
14
0
VERTEX
8
OBJECT__18
10
0
20
0
30
0
70
128
71
9
72
12
73
11
0
VERTEX
8
OBJECT__18
10
0
20
0
30
0
70
128
71
6
72
10
73
5
0
VERTEX
8
OBJECT__18
10
0
20
0
30
0
70
128
71
3
72
7
73
4
0
SEQEND
8
OBJECT__18
0
POLYLINE
8
OBJECT__20
66
1
70
64
71
58
72
74
62
253
0
VERTEX
8
OBJECT__20
10
33.879002
20
-10.227000
30
-25.330000
70
192
0
VERTEX
8
OBJECT__20
10
33.879002
20
0.000000
30
-26.799999
70
192
0
VERTEX
8
OBJECT__20
10
36.418999
20
0.000000
30
-8.729000
70
192
0
VERTEX
8
OBJECT__20
10
33.879002
20
-13.749000
30
-23.721001
70
192
0
VERTEX
8
OBJECT__20
10
36.418999
20
-5.136000
30
-7.990000
70
192
0
VERTEX
8
OBJECT__20
10
36.418999
20
-9.855000
30
-5.835000
70
192
0
VERTEX
8
OBJECT__20
10
33.879002
20
-19.625000
30
-21.038000
70
192
0
VERTEX
8
OBJECT__20
10
33.879002
20
-25.489000
30
-15.956000
70
192
0
VERTEX
8
OBJECT__20
10
36.418999
20
-13.776000
30
-2.437000
70
192
0
VERTEX
8
OBJECT__20
10
33.879002
20
-27.434000
30
-14.271000
70
192
0
VERTEX
8
OBJECT__20
10
33.879002
20
-33.020000
30
-5.580000
70
192
0
VERTEX
8
OBJECT__20
10
33.879002
20
-33.382999
30
-4.341000
70
192
0
VERTEX
8
OBJECT__20
10
36.418999
20
-16.582001
30
1.927000
70
192
0
VERTEX
8
OBJECT__20
10
36.418999
20
-18.042999
30
6.906000
70
192
0
VERTEX
8
OBJECT__20
10
33.879002
20
-35.931000
30
4.334000
70
192
0
VERTEX
8
OBJECT__20
10
36.418999
20
-18.042999
30
12.094000
70
192
0
VERTEX
8
OBJECT__20
10
33.879002
20
-35.931000
30
9.507000
70
192
0
VERTEX
8
OBJECT__20
10
33.879002
20
-35.931000
30
14.666000
70
192
0
VERTEX
8
OBJECT__20
10
36.418999
20
18.042999
30
6.906000
70
192
0
VERTEX
8
OBJECT__20
10
33.879002
20
35.931000
30
4.334000
70
192
0
VERTEX
8
OBJECT__20
10
33.879002
20
35.931000
30
9.507000
70
192
0
VERTEX
8
OBJECT__20
10
36.418999
20
18.042999
30
12.094000
70
192
0
VERTEX
8
OBJECT__20
10
33.879002
20
33.382999
30
-4.341000
70
192
0
VERTEX
8
OBJECT__20
10
36.418999
20
16.582001
30
1.927000
70
192
0
VERTEX
8
OBJECT__20
10
33.879002
20
33.020000
30
-5.580000
70
192
0
VERTEX
8
OBJECT__20
10
33.879002
20
27.434000
30
-14.271000
70
192
0
VERTEX
8
OBJECT__20
10
33.879002
20
25.489000
30
-15.956000
70
192
0
VERTEX
8
OBJECT__20
10
36.418999
20
13.776000
30
-2.437000
70
192
0
VERTEX
8
OBJECT__20
10
36.418999
20
9.855000
30
-5.835000
70
192
0
VERTEX
8
OBJECT__20
10
33.879002
20
19.625000
30
-21.038000
70
192
0
VERTEX
8
OBJECT__20
10
33.879002
20
13.749000
30
-23.721001
70
192
0
VERTEX
8
OBJECT__20
10
36.418999
20
5.136000
30
-7.990000
70
192
0
VERTEX
8
OBJECT__20
10
33.879002
20
10.227000
30
-25.330000
70
192
0
VERTEX
8
OBJECT__20
10
34.238998
20
31.047001
30
23.400000
70
192
0
VERTEX
8
OBJECT__20
10
36.418999
20
16.582001
30
17.073000
70
192
0
VERTEX
8
OBJECT__20
10
33.879002
20
35.931000
30
14.666000
70
192
0
VERTEX
8
OBJECT__20
10
33.879002
20
33.533001
30
23.400000
70
192
0
VERTEX
8
OBJECT__20
10
35.486000
20
22.417000
30
23.400000
70
192
0
VERTEX
8
OBJECT__20
10
35.962002
20
16.896999
30
23.400000
70
192
0
VERTEX
8
OBJECT__20
10
37.266998
20
0.000000
30
9.500000
70
192
0
VERTEX
8
OBJECT__20
10
36.418999
20
13.776000
30
21.437000
70
192
0
VERTEX
8
OBJECT__20
10
36.415001
20
11.654000
30
23.400000
70
192
0
VERTEX
8
OBJECT__20
10
36.452000
20
11.227000
30
23.400000
70
192
0
VERTEX
8
OBJECT__20
10
36.543999
20
9.091000
30
23.400000
70
192
0
VERTEX
8
OBJECT__20
10
36.694000
20
5.616000
30
23.400000
70
192
0
VERTEX
8
OBJECT__20
10
36.715000
20
-4.145000
30
23.400000
70
192
0
VERTEX
8
OBJECT__20
10
36.694000
20
-5.616000
30
23.400000
70
192
0
VERTEX
8
OBJECT__20
10
36.470001
20
-9.500000
30
23.400000
70
192
0
VERTEX
8
OBJECT__20
10
36.409000
20
-10.574000
30
23.400000
70
192
0
VERTEX
8
OBJECT__20
10
36.418999
20
-16.582001
30
17.073000
70
192
0
VERTEX
8
OBJECT__20
10
36.049000
20
-16.829000
30
23.400000
70
192
0
VERTEX
8
OBJECT__20
10
35.144001
20
-25.204000
30
23.400000
70
192
0
VERTEX
8
OBJECT__20
10
36.418999
20
-13.776000
30
21.437000
70
192
0
VERTEX
8
OBJECT__20
10
36.082001
20
-16.250000
30
23.400000
70
192
0
VERTEX
8
OBJECT__20
10
34.289001
20
-30.837999
30
23.400000
70
192
0
VERTEX
8
OBJECT__20
10
33.879002
20
-33.533001
30
23.400000
70
192
0
VERTEX
8
OBJECT__20
10
36.773998
20
0.000000
30
23.400000
70
192
0
VERTEX
8
OBJECT__20
10
36.715000
20
4.145000
30
23.400000
70
192
0
VERTEX
8
OBJECT__20
10
0
20
0
30
0
70
128
71
1
72
2
73
3
0
VERTEX
8
OBJECT__20
10
0
20
0
30
0
70
128
71
4
72
5
73
6
0
VERTEX
8
OBJECT__20
10
0
20
0
30
0
70
128
71
6
72
7
73
4
0
VERTEX
8
OBJECT__20
10
0
20
0
30
0
70
128
71
8
72
7
73
6
0
VERTEX
8
OBJECT__20
10
0
20
0
30
0
70
128
71
9
72
10
73
8
0
VERTEX
8
OBJECT__20
10
0
20
0
30
0
70
128
71
11
72
10
73
9
0
VERTEX
8
OBJECT__20
10
0
20
0
30
0
70
128
71
12
72
13
73
14
0
VERTEX
8
OBJECT__20
10
0
20
0
30
0
70
128
71
14
72
15
73
12
0
VERTEX
8
OBJECT__20
10
0
20
0
30
0
70
128
71
14
72
16
73
17
0
VERTEX
8
OBJECT__20
10
0
20
0
30
0
70
128
71
16
72
18
73
17
0
VERTEX
8
OBJECT__20
10
0
20
0
30
0
70
128
71
19
72
20
73
21
0
VERTEX
8
OBJECT__20
10
0
20
0
30
0
70
128
71
21
72
22
73
19
0
VERTEX
8
OBJECT__20
10
0
20
0
30
0
70
128
71
23
72
20
73
19
0
VERTEX
8
OBJECT__20
10
0
20
0
30
0
70
128
71
24
72
25
73
23
0
VERTEX
8
OBJECT__20
10
0
20
0
30
0
70
128
71
26
72
25
73
24
0
VERTEX
8
OBJECT__20
10
0
20
0
30
0
70
128
71
27
72
28
73
29
0
VERTEX
8
OBJECT__20
10
0
20
0
30
0
70
128
71
29
72
30
73
27
0
VERTEX
8
OBJECT__20
10
0
20
0
30
0
70
128
71
31
72
30
73
29
0
VERTEX
8
OBJECT__20
10
0
20
0
30
0
70
128
71
32
72
33
73
31
0
VERTEX
8
OBJECT__20
10
0
20
0
30
0
70
128
71
33
72
32
73
3
0
VERTEX
8
OBJECT__20
10
0
20
0
30
0
70
128
71
34
72
35
73
22
0
VERTEX
8
OBJECT__20
10
0
20
0
30
0
70
128
71
36
72
37
73
34
0
VERTEX
8
OBJECT__20
10
0
20
0
30
0
70
128
71
35
72
38
73
39
0
VERTEX
8
OBJECT__20
10
0
20
0
30
0
70
128
71
35
72
34
73
38
0
VERTEX
8
OBJECT__20
10
0
20
0
30
0
70
128
71
40
72
41
73
42
0
VERTEX
8
OBJECT__20
10
0
20
0
30
0
70
128
71
42
72
43
73
40
0
VERTEX
8
OBJECT__20
10
0
20
0
30
0
70
128
71
40
72
44
73
45
0
VERTEX
8
OBJECT__20
10
0
20
0
30
0
70
128
71
40
72
46
73
47
0
VERTEX
8
OBJECT__20
10
0
20
0
30
0
70
128
71
40
72
48
73
49
0
VERTEX
8
OBJECT__20
10
0
20
0
30
0
70
128
71
50
72
51
73
52
0
VERTEX
8
OBJECT__20
10
0
20
0
30
0
70
128
71
50
72
53
73
54
0
VERTEX
8
OBJECT__20
10
0
20
0
30
0
70
128
71
54
72
51
73
50
0
VERTEX
8
OBJECT__20
10
0
20
0
30
0
70
128
71
55
72
18
73
16
0
VERTEX
8
OBJECT__20
10
0
20
0
30
0
70
128
71
16
72
50
73
55
0
VERTEX
8
OBJECT__20
10
0
20
0
30
0
70
128
71
55
72
56
73
18
0
VERTEX
8
OBJECT__20
10
0
20
0
30
0
70
128
71
52
72
55
73
50
0
VERTEX
8
OBJECT__20
10
0
20
0
30
0
70
128
71
54
72
53
73
49
0
VERTEX
8
OBJECT__20
10
0
20
0
30
0
70
128
71
49
72
53
73
40
0
VERTEX
8
OBJECT__20
10
0
20
0
30
0
70
128
71
47
72
48
73
40
0
VERTEX
8
OBJECT__20
10
0
20
0
30
0
70
128
71
46
72
40
73
57
0
VERTEX
8
OBJECT__20
10
0
20
0
30
0
70
128
71
57
72
40
73
58
0
VERTEX
8
OBJECT__20
10
0
20
0
30
0
70
128
71
45
72
58
73
40
0
VERTEX
8
OBJECT__20
10
0
20
0
30
0
70
128
71
43
72
44
73
40
0
VERTEX
8
OBJECT__20
10
0
20
0
30
0
70
128
71
42
72
41
73
39
0
VERTEX
8
OBJECT__20
10
0
20
0
30
0
70
128
71
39
72
41
73
35
0
VERTEX
8
OBJECT__20
10
0
20
0
30
0
70
128
71
22
72
36
73
34
0
VERTEX
8
OBJECT__20
10
0
20
0
30
0
70
128
71
3
72
2
73
33
0
VERTEX
8
OBJECT__20
10
0
20
0
30
0
70
128
71
29
72
32
73
31
0
VERTEX
8
OBJECT__20
10
0
20
0
30
0
70
128
71
27
72
26
73
28
0
VERTEX
8
OBJECT__20
10
0
20
0
30
0
70
128
71
24
72
28
73
26
0
VERTEX
8
OBJECT__20
10
0
20
0
30
0
70
128
71
19
72
24
73
23
0
VERTEX
8
OBJECT__20
10
0
20
0
30
0
70
128
71
21
72
36
73
22
0
VERTEX
8
OBJECT__20
10
0
20
0
30
0
70
128
71
17
72
15
73
14
0
VERTEX
8
OBJECT__20
10
0
20
0
30
0
70
128
71
12
72
11
73
13
0
VERTEX
8
OBJECT__20
10
0
20
0
30
0
70
128
71
9
72
13
73
11
0
VERTEX
8
OBJECT__20
10
0
20
0
30
0
70
128
71
6
72
9
73
8
0
VERTEX
8
OBJECT__20
10
0
20
0
30
0
70
128
71
4
72
1
73
5
0
VERTEX
8
OBJECT__20
10
0
20
0
30
0
70
128
71
3
72
5
73
1
0
VERTEX
8
OBJECT__20
10
0
20
0
30
0
70
128
71
3
72
32
73
40
0
VERTEX
8
OBJECT__20
10
0
20
0
30
0
70
128
71
32
72
29
73
40
0
VERTEX
8
OBJECT__20
10
0
20
0
30
0
70
128
71
29
72
28
73
40
0
VERTEX
8
OBJECT__20
10
0
20
0
30
0
70
128
71
28
72
24
73
40
0
VERTEX
8
OBJECT__20
10
0
20
0
30
0
70
128
71
24
72
19
73
40
0
VERTEX
8
OBJECT__20
10
0
20
0
30
0
70
128
71
19
72
22
73
40
0
VERTEX
8
OBJECT__20
10
0
20
0
30
0
70
128
71
22
72
35
73
40
0
VERTEX
8
OBJECT__20
10
0
20
0
30
0
70
128
71
35
72
41
73
40
0
VERTEX
8
OBJECT__20
10
0
20
0
30
0
70
128
71
53
72
50
73
40
0
VERTEX
8
OBJECT__20
10
0
20
0
30
0
70
128
71
50
72
16
73
40
0
VERTEX
8
OBJECT__20
10
0
20
0
30
0
70
128
71
16
72
14
73
40
0
VERTEX
8
OBJECT__20
10
0
20
0
30
0
70
128
71
14
72
13
73
40
0
VERTEX
8
OBJECT__20
10
0
20
0
30
0
70
128
71
13
72
9
73
40
0
VERTEX
8
OBJECT__20
10
0
20
0
30
0
70
128
71
9
72
6
73
40
0
VERTEX
8
OBJECT__20
10
0
20
0
30
0
70
128
71
6
72
5
73
40
0
VERTEX
8
OBJECT__20
10
0
20
0
30
0
70
128
71
5
72
3
73
40
0
SEQEND
8
OBJECT__20
0
ENDSEC
0
EOF
