999
Converted by 3D Exploration 
999
XDimension Software, LLC
999
http://www.xdsoft.com/explorer/
0
SECTION
2
HEADER
9
$ACADVER
1
AC1008
9
$UCSORG
10
0.0
20
0.0
30
0.0
9
$UCSXDIR
10
1.0
20
0.0
30
0.0
9
$TILEMODE
70
1
9
$UCSYDIR
10
0.0
20
1.0
30
0.0
9
$EXTMIN
10
-30.174000
20
-27.250000
30
-27.250000
9
$EXTMAX
10
120.920998
20
27.250000
30
124.920998
0
ENDSEC
0
SECTION
2
TABLES
0
TABLE
2
LTYPE
70
1
0
LTYPE
2
CONTINUOUS
70
64
3
Solid line
72
65
73
0
40
0.0
0
ENDTAB
0
TABLE
2
LAYER
70
46
0
LAYER
2
OBJECT__0
70
0
62
253
6
CONTINUOUS
0
LAYER
2
OBJECT__1
70
0
62
253
6
CONTINUOUS
0
LAYER
2
OBJECT__3
70
0
62
253
6
CONTINUOUS
0
LAYER
2
OBJECT__4
70
0
62
253
6
CONTINUOUS
0
LAYER
2
OBJECT__5
70
0
62
253
6
CONTINUOUS
0
LAYER
2
OBJECT__6
70
0
62
253
6
CONTINUOUS
0
LAYER
2
OBJECT__7
70
0
62
253
6
CONTINUOUS
0
LAYER
2
OBJECT__8
70
0
62
253
6
CONTINUOUS
0
LAYER
2
OBJECT__9
70
0
62
253
6
CONTINUOUS
0
LAYER
2
OBJECT__10
70
0
62
253
6
CONTINUOUS
0
LAYER
2
OBJECT__11
70
0
62
253
6
CONTINUOUS
0
LAYER
2
OBJECT__13
70
0
62
253
6
CONTINUOUS
0
LAYER
2
OBJECT__14
70
0
62
253
6
CONTINUOUS
0
LAYER
2
OBJECT__15
70
0
62
253
6
CONTINUOUS
0
LAYER
2
OBJECT__16
70
0
62
253
6
CONTINUOUS
0
LAYER
2
OBJECT__17
70
0
62
253
6
CONTINUOUS
0
LAYER
2
OBJECT__18
70
0
62
253
6
CONTINUOUS
0
LAYER
2
OBJECT__19
70
0
62
253
6
CONTINUOUS
0
LAYER
2
OBJECT__20
70
0
62
253
6
CONTINUOUS
0
LAYER
2
OBJECT__21
70
0
62
253
6
CONTINUOUS
0
LAYER
2
OBJECT__22
70
0
62
253
6
CONTINUOUS
0
LAYER
2
OBJECT__23
70
0
62
253
6
CONTINUOUS
0
LAYER
2
OBJECT__24
70
0
62
253
6
CONTINUOUS
0
LAYER
2
OBJECT__25
70
0
62
253
6
CONTINUOUS
0
LAYER
2
OBJECT__26
70
0
62
253
6
CONTINUOUS
0
LAYER
2
OBJECT__28
70
0
62
253
6
CONTINUOUS
0
LAYER
2
OBJECT__29
70
0
62
253
6
CONTINUOUS
0
LAYER
2
OBJECT__30
70
0
62
253
6
CONTINUOUS
0
LAYER
2
OBJECT__31
70
0
62
253
6
CONTINUOUS
0
LAYER
2
OBJECT__32
70
0
62
253
6
CONTINUOUS
0
LAYER
2
OBJECT__33
70
0
62
253
6
CONTINUOUS
0
LAYER
2
OBJECT__34
70
0
62
253
6
CONTINUOUS
0
LAYER
2
OBJECT__36
70
0
62
253
6
CONTINUOUS
0
LAYER
2
OBJECT__37
70
0
62
253
6
CONTINUOUS
0
LAYER
2
OBJECT__38
70
0
62
253
6
CONTINUOUS
0
LAYER
2
OBJECT__40
70
0
62
253
6
CONTINUOUS
0
LAYER
2
OBJECT__41
70
0
62
253
6
CONTINUOUS
0
LAYER
2
OBJECT__42
70
0
62
253
6
CONTINUOUS
0
LAYER
2
OBJECT__43
70
0
62
253
6
CONTINUOUS
0
LAYER
2
OBJECT__44
70
0
62
253
6
CONTINUOUS
0
LAYER
2
OBJECT__45
70
0
62
253
6
CONTINUOUS
0
ENDTAB
0
TABLE
2
STYLE
70
1
0
STYLE
2
STANDARD
70
0
40
0.0
41
1.0
50
0.0
71
0
42
0.2
3
txt
4
1
0
ENDTAB
0
TABLE
2
UCS
70
0
0
ENDTAB
0
ENDSEC
0
SECTION
2
ENTITIES
0
POLYLINE
8
OBJECT__0
66
1
70
64
71
36
72
36
62
253
0
VERTEX
8
OBJECT__0
10
111.778999
20
9.003000
30
108.455002
70
192
0
VERTEX
8
OBJECT__0
10
118.936996
20
8.830000
30
111.487000
70
192
0
VERTEX
8
OBJECT__0
10
119.505997
20
7.532000
30
111.466003
70
192
0
VERTEX
8
OBJECT__0
10
113.667999
20
11.982000
30
109.966003
70
192
0
VERTEX
8
OBJECT__0
10
114.847000
20
13.333000
30
110.922997
70
192
0
VERTEX
8
OBJECT__0
10
118.532997
20
9.753000
30
111.501999
70
192
0
VERTEX
8
OBJECT__0
10
112.517998
20
10.393000
30
109.042999
70
192
0
VERTEX
8
OBJECT__0
10
119.579002
20
7.251000
30
111.462997
70
192
0
VERTEX
8
OBJECT__0
10
110.847000
20
7.250000
30
107.713997
70
192
0
VERTEX
8
OBJECT__0
10
120.713997
20
2.900000
30
111.420998
70
192
0
VERTEX
8
OBJECT__0
10
110.440002
20
6.484000
30
107.390999
70
192
0
VERTEX
8
OBJECT__0
10
109.916000
20
4.543000
30
106.977997
70
192
0
VERTEX
8
OBJECT__0
10
109.207001
20
1.329000
30
106.418999
70
192
0
VERTEX
8
OBJECT__0
10
109.316002
20
2.318000
30
106.504997
70
192
0
VERTEX
8
OBJECT__0
10
109.296997
20
1.172000
30
106.447998
70
192
0
VERTEX
8
OBJECT__0
10
120.910004
20
0.005000
30
111.414001
70
192
0
VERTEX
8
OBJECT__0
10
109.252998
20
0.006000
30
106.456001
70
192
0
VERTEX
8
OBJECT__0
10
109.252998
20
0.025000
30
106.455002
70
192
0
VERTEX
8
OBJECT__0
10
120.920998
20
-0.169000
30
111.413002
70
192
0
VERTEX
8
OBJECT__0
10
120.319000
20
-4.912000
30
111.433998
70
192
0
VERTEX
8
OBJECT__0
10
120.648003
20
-2.478000
30
111.361000
70
192
0
VERTEX
8
OBJECT__0
10
120.913002
20
-0.042000
30
111.414001
70
192
0
VERTEX
8
OBJECT__0
10
109.470001
20
-3.223000
30
106.625999
70
192
0
VERTEX
8
OBJECT__0
10
109.341003
20
-2.478000
30
106.524002
70
192
0
VERTEX
8
OBJECT__0
10
109.874001
20
-4.510000
30
106.944000
70
192
0
VERTEX
8
OBJECT__0
10
119.632004
20
-7.173000
30
111.459000
70
192
0
VERTEX
8
OBJECT__0
10
119.598000
20
-7.241000
30
111.459999
70
192
0
VERTEX
8
OBJECT__0
10
110.802002
20
-7.240000
30
107.678001
70
192
0
VERTEX
8
OBJECT__0
10
110.639000
20
-6.952000
30
107.547997
70
192
0
VERTEX
8
OBJECT__0
10
112.848000
20
-10.868000
30
109.306999
70
192
0
VERTEX
8
OBJECT__0
10
118.782997
20
-8.908000
30
111.490997
70
192
0
VERTEX
8
OBJECT__0
10
114.843002
20
-13.275000
30
110.922997
70
192
0
VERTEX
8
OBJECT__0
10
117.285004
20
-11.969000
30
111.545998
70
192
0
VERTEX
8
OBJECT__0
10
115.686996
20
-14.292000
30
111.606003
70
192
0
VERTEX
8
OBJECT__0
10
111.768997
20
-8.956000
30
108.447998
70
192
0
VERTEX
8
OBJECT__0
10
115.694000
20
14.304000
30
111.609001
70
192
0
VERTEX
8
OBJECT__0
10
0
20
0
30
0
70
128
71
1
72
2
73
3
0
VERTEX
8
OBJECT__0
10
0
20
0
30
0
70
128
71
4
72
5
73
6
0
VERTEX
8
OBJECT__0
10
0
20
0
30
0
70
128
71
2
72
1
73
7
0
VERTEX
8
OBJECT__0
10
0
20
0
30
0
70
128
71
7
72
4
73
2
0
VERTEX
8
OBJECT__0
10
0
20
0
30
0
70
128
71
6
72
2
73
4
0
VERTEX
8
OBJECT__0
10
0
20
0
30
0
70
128
71
8
72
9
73
1
0
VERTEX
8
OBJECT__0
10
0
20
0
30
0
70
128
71
3
72
8
73
1
0
VERTEX
8
OBJECT__0
10
0
20
0
30
0
70
128
71
10
72
11
73
9
0
VERTEX
8
OBJECT__0
10
0
20
0
30
0
70
128
71
10
72
12
73
11
0
VERTEX
8
OBJECT__0
10
0
20
0
30
0
70
128
71
9
72
8
73
10
0
VERTEX
8
OBJECT__0
10
0
20
0
30
0
70
128
71
13
72
14
73
15
0
VERTEX
8
OBJECT__0
10
0
20
0
30
0
70
128
71
16
72
15
73
14
0
VERTEX
8
OBJECT__0
10
0
20
0
30
0
70
128
71
16
72
17
73
18
0
VERTEX
8
OBJECT__0
10
0
20
0
30
0
70
128
71
18
72
15
73
16
0
VERTEX
8
OBJECT__0
10
0
20
0
30
0
70
128
71
14
72
12
73
16
0
VERTEX
8
OBJECT__0
10
0
20
0
30
0
70
128
71
15
72
18
73
13
0
VERTEX
8
OBJECT__0
10
0
20
0
30
0
70
128
71
19
72
20
73
21
0
VERTEX
8
OBJECT__0
10
0
20
0
30
0
70
128
71
21
72
22
73
19
0
VERTEX
8
OBJECT__0
10
0
20
0
30
0
70
128
71
16
72
23
73
24
0
VERTEX
8
OBJECT__0
10
0
20
0
30
0
70
128
71
16
72
25
73
23
0
VERTEX
8
OBJECT__0
10
0
20
0
30
0
70
128
71
26
72
27
73
28
0
VERTEX
8
OBJECT__0
10
0
20
0
30
0
70
128
71
28
72
29
73
26
0
VERTEX
8
OBJECT__0
10
0
20
0
30
0
70
128
71
25
72
21
73
20
0
VERTEX
8
OBJECT__0
10
0
20
0
30
0
70
128
71
20
72
26
73
25
0
VERTEX
8
OBJECT__0
10
0
20
0
30
0
70
128
71
25
72
16
73
22
0
VERTEX
8
OBJECT__0
10
0
20
0
30
0
70
128
71
22
72
21
73
25
0
VERTEX
8
OBJECT__0
10
0
20
0
30
0
70
128
71
29
72
25
73
26
0
VERTEX
8
OBJECT__0
10
0
20
0
30
0
70
128
71
24
72
17
73
16
0
VERTEX
8
OBJECT__0
10
0
20
0
30
0
70
128
71
30
72
27
73
31
0
VERTEX
8
OBJECT__0
10
0
20
0
30
0
70
128
71
31
72
32
73
30
0
VERTEX
8
OBJECT__0
10
0
20
0
30
0
70
128
71
32
72
31
73
33
0
VERTEX
8
OBJECT__0
10
0
20
0
30
0
70
128
71
33
72
34
73
32
0
VERTEX
8
OBJECT__0
10
0
20
0
30
0
70
128
71
30
72
35
73
27
0
VERTEX
8
OBJECT__0
10
0
20
0
30
0
70
128
71
35
72
28
73
27
0
VERTEX
8
OBJECT__0
10
0
20
0
30
0
70
128
71
10
72
16
73
12
0
VERTEX
8
OBJECT__0
10
0
20
0
30
0
70
128
71
5
72
36
73
6
0
SEQEND
8
OBJECT__0
0
POLYLINE
8
OBJECT__1
66
1
70
64
71
89
72
108
62
253
0
VERTEX
8
OBJECT__1
10
78.002998
20
-5.233000
30
114.471001
70
192
0
VERTEX
8
OBJECT__1
10
77.931000
20
0.042000
30
113.817001
70
192
0
VERTEX
8
OBJECT__1
10
94.405998
20
0.031000
30
110.777000
70
192
0
VERTEX
8
OBJECT__1
10
96.083000
20
-15.144000
30
116.547997
70
192
0
VERTEX
8
OBJECT__1
10
78.581001
20
-15.783000
30
119.727997
70
192
0
VERTEX
8
OBJECT__1
10
78.219002
20
-10.508000
30
116.442001
70
192
0
VERTEX
8
OBJECT__1
10
95.150002
20
-10.086000
30
113.338997
70
192
0
VERTEX
8
OBJECT__1
10
63.193001
20
-5.135000
30
114.752998
70
192
0
VERTEX
8
OBJECT__1
10
63.243999
20
0.052000
30
114.100998
70
192
0
VERTEX
8
OBJECT__1
10
62.779999
20
-15.509000
30
119.990997
70
192
0
VERTEX
8
OBJECT__1
10
63.037998
20
-10.322000
30
116.716003
70
192
0
VERTEX
8
OBJECT__1
10
62.782001
20
15.617000
30
120.012001
70
192
0
VERTEX
8
OBJECT__1
10
78.585999
20
15.869000
30
119.750999
70
192
0
VERTEX
8
OBJECT__1
10
78.223000
20
10.593000
30
116.457001
70
192
0
VERTEX
8
OBJECT__1
10
63.039001
20
10.429000
30
116.730003
70
192
0
VERTEX
8
OBJECT__1
10
78.003998
20
5.317000
30
114.478996
70
192
0
VERTEX
8
OBJECT__1
10
95.155998
20
10.147000
30
113.355003
70
192
0
VERTEX
8
OBJECT__1
10
94.594002
20
5.089000
30
111.422997
70
192
0
VERTEX
8
OBJECT__1
10
96.091003
20
15.206000
30
116.571999
70
192
0
VERTEX
8
OBJECT__1
10
54.529999
20
-10.796000
30
115.936996
70
192
0
VERTEX
8
OBJECT__1
10
51.931999
20
-14.901000
30
118.335999
70
192
0
VERTEX
8
OBJECT__1
10
52.852001
20
-13.447000
30
117.486000
70
192
0
VERTEX
8
OBJECT__1
10
56.200001
20
-6.417000
30
114.257004
70
192
0
VERTEX
8
OBJECT__1
10
54.832001
20
-10.005000
30
115.634003
70
192
0
VERTEX
8
OBJECT__1
10
56.035999
20
-6.846000
30
114.421997
70
192
0
VERTEX
8
OBJECT__1
10
56.450001
20
-4.991000
30
113.992996
70
192
0
VERTEX
8
OBJECT__1
10
57.001999
20
-1.849000
30
113.410004
70
192
0
VERTEX
8
OBJECT__1
10
56.939999
20
0.122000
30
113.444000
70
192
0
VERTEX
8
OBJECT__1
10
56.855999
20
2.820000
30
113.490997
70
192
0
VERTEX
8
OBJECT__1
10
56.943001
20
0.054000
30
113.443001
70
192
0
VERTEX
8
OBJECT__1
10
63.193001
20
5.240000
30
114.760002
70
192
0
VERTEX
8
OBJECT__1
10
56.346001
20
5.095000
30
113.994003
70
192
0
VERTEX
8
OBJECT__1
10
55.896999
20
7.102000
30
114.439003
70
192
0
VERTEX
8
OBJECT__1
10
55.842999
20
7.339000
30
114.490997
70
192
0
VERTEX
8
OBJECT__1
10
54.231998
20
11.269000
30
116.100998
70
192
0
VERTEX
8
OBJECT__1
10
52.688000
20
13.700000
30
117.518997
70
192
0
VERTEX
8
OBJECT__1
10
54.706001
20
10.113000
30
115.627998
70
192
0
VERTEX
8
OBJECT__1
10
51.667000
20
15.309000
30
118.457001
70
192
0
VERTEX
8
OBJECT__1
10
48.085999
20
19.051001
30
121.225998
70
192
0
VERTEX
8
OBJECT__1
10
54.647999
20
18.806000
30
121.897003
70
192
0
VERTEX
8
OBJECT__1
10
58.929001
20
18.368000
30
122.061996
70
192
0
VERTEX
8
OBJECT__1
10
51.837002
20
15.040000
30
118.301003
70
192
0
VERTEX
8
OBJECT__1
10
62.610001
20
18.040001
30
121.856003
70
192
0
VERTEX
8
OBJECT__1
10
73.109001
20
17.132000
30
121.155998
70
192
0
VERTEX
8
OBJECT__1
10
72.416000
20
17.184999
30
121.230003
70
192
0
VERTEX
8
OBJECT__1
10
70.870003
20
17.304001
30
121.394997
70
192
0
VERTEX
8
OBJECT__1
10
89.418999
20
16.099001
30
118.403000
70
192
0
VERTEX
8
OBJECT__1
10
80.728996
20
16.639999
30
119.973999
70
192
0
VERTEX
8
OBJECT__1
10
86.442001
20
16.270000
30
119.088997
70
192
0
VERTEX
8
OBJECT__1
10
78.634003
20
16.775000
30
120.299004
70
192
0
VERTEX
8
OBJECT__1
10
96.177002
20
15.710000
30
116.846001
70
192
0
VERTEX
8
OBJECT__1
10
102.598000
20
15.340000
30
115.365997
70
192
0
VERTEX
8
OBJECT__1
10
114.847000
20
13.333000
30
110.922997
70
192
0
VERTEX
8
OBJECT__1
10
112.517998
20
10.393000
30
109.042999
70
192
0
VERTEX
8
OBJECT__1
10
111.778999
20
9.003000
30
108.455002
70
192
0
VERTEX
8
OBJECT__1
10
113.667999
20
11.982000
30
109.966003
70
192
0
VERTEX
8
OBJECT__1
10
110.440002
20
6.484000
30
107.390999
70
192
0
VERTEX
8
OBJECT__1
10
109.916000
20
4.543000
30
106.977997
70
192
0
VERTEX
8
OBJECT__1
10
110.847000
20
7.250000
30
107.713997
70
192
0
VERTEX
8
OBJECT__1
10
109.316002
20
2.318000
30
106.504997
70
192
0
VERTEX
8
OBJECT__1
10
109.207001
20
1.329000
30
106.418999
70
192
0
VERTEX
8
OBJECT__1
10
94.591003
20
-5.028000
30
111.415001
70
192
0
VERTEX
8
OBJECT__1
10
109.341003
20
-2.478000
30
106.524002
70
192
0
VERTEX
8
OBJECT__1
10
109.470001
20
-3.223000
30
106.625999
70
192
0
VERTEX
8
OBJECT__1
10
109.252998
20
0.025000
30
106.455002
70
192
0
VERTEX
8
OBJECT__1
10
109.252998
20
0.006000
30
106.456001
70
192
0
VERTEX
8
OBJECT__1
10
110.639000
20
-6.952000
30
107.547997
70
192
0
VERTEX
8
OBJECT__1
10
110.802002
20
-7.240000
30
107.678001
70
192
0
VERTEX
8
OBJECT__1
10
109.874001
20
-4.510000
30
106.944000
70
192
0
VERTEX
8
OBJECT__1
10
111.768997
20
-8.956000
30
108.447998
70
192
0
VERTEX
8
OBJECT__1
10
112.848000
20
-10.868000
30
109.306999
70
192
0
VERTEX
8
OBJECT__1
10
114.843002
20
-13.275000
30
110.922997
70
192
0
VERTEX
8
OBJECT__1
10
102.836998
20
-15.301000
30
115.301003
70
192
0
VERTEX
8
OBJECT__1
10
115.686996
20
-14.292000
30
111.606003
70
192
0
VERTEX
8
OBJECT__1
10
89.431000
20
-16.061001
30
118.407997
70
192
0
VERTEX
8
OBJECT__1
10
86.663002
20
-16.218000
30
119.049004
70
192
0
VERTEX
8
OBJECT__1
10
96.175003
20
-15.678000
30
116.845001
70
192
0
VERTEX
8
OBJECT__1
10
79.584999
20
-16.664000
30
120.156998
70
192
0
VERTEX
8
OBJECT__1
10
72.438004
20
-17.125999
30
121.234001
70
192
0
VERTEX
8
OBJECT__1
10
71.084999
20
-17.228001
30
121.379997
70
192
0
VERTEX
8
OBJECT__1
10
78.630997
20
-16.725000
30
120.306000
70
192
0
VERTEX
8
OBJECT__1
10
73.297997
20
-17.061001
30
121.140999
70
192
0
VERTEX
8
OBJECT__1
10
59.127998
20
-18.271000
30
122.070999
70
192
0
VERTEX
8
OBJECT__1
10
51.511002
20
-15.568000
30
118.725998
70
192
0
VERTEX
8
OBJECT__1
10
62.605000
20
-17.968000
30
121.870003
70
192
0
VERTEX
8
OBJECT__1
10
54.686001
20
-18.716999
30
121.907997
70
192
0
VERTEX
8
OBJECT__1
10
47.675999
20
-19.421000
30
121.650002
70
192
0
VERTEX
8
OBJECT__1
10
115.694000
20
14.304000
30
111.609001
70
192
0
VERTEX
8
OBJECT__1
10
47.490002
20
19.539000
30
121.620003
70
192
0
VERTEX
8
OBJECT__1
10
0
20
0
30
0
70
128
71
1
72
2
73
3
0
VERTEX
8
OBJECT__1
10
0
20
0
30
0
70
128
71
4
72
5
73
6
0
VERTEX
8
OBJECT__1
10
0
20
0
30
0
70
128
71
7
72
6
73
1
0
VERTEX
8
OBJECT__1
10
0
20
0
30
0
70
128
71
8
72
9
73
2
0
VERTEX
8
OBJECT__1
10
0
20
0
30
0
70
128
71
10
72
11
73
6
0
VERTEX
8
OBJECT__1
10
0
20
0
30
0
70
128
71
11
72
8
73
1
0
VERTEX
8
OBJECT__1
10
0
20
0
30
0
70
128
71
12
72
13
73
14
0
VERTEX
8
OBJECT__1
10
0
20
0
30
0
70
128
71
15
72
14
73
16
0
VERTEX
8
OBJECT__1
10
0
20
0
30
0
70
128
71
16
72
2
73
9
0
VERTEX
8
OBJECT__1
10
0
20
0
30
0
70
128
71
17
72
18
73
16
0
VERTEX
8
OBJECT__1
10
0
20
0
30
0
70
128
71
19
72
17
73
14
0
VERTEX
8
OBJECT__1
10
0
20
0
30
0
70
128
71
16
72
18
73
3
0
VERTEX
8
OBJECT__1
10
0
20
0
30
0
70
128
71
11
72
10
73
20
0
VERTEX
8
OBJECT__1
10
0
20
0
30
0
70
128
71
10
72
21
73
22
0
VERTEX
8
OBJECT__1
10
0
20
0
30
0
70
128
71
22
72
20
73
10
0
VERTEX
8
OBJECT__1
10
0
20
0
30
0
70
128
71
8
72
11
73
23
0
VERTEX
8
OBJECT__1
10
0
20
0
30
0
70
128
71
11
72
24
73
25
0
VERTEX
8
OBJECT__1
10
0
20
0
30
0
70
128
71
25
72
23
73
11
0
VERTEX
8
OBJECT__1
10
0
20
0
30
0
70
128
71
8
72
26
73
27
0
VERTEX
8
OBJECT__1
10
0
20
0
30
0
70
128
71
27
72
9
73
8
0
VERTEX
8
OBJECT__1
10
0
20
0
30
0
70
128
71
9
72
28
73
29
0
VERTEX
8
OBJECT__1
10
0
20
0
30
0
70
128
71
9
72
30
73
28
0
VERTEX
8
OBJECT__1
10
0
20
0
30
0
70
128
71
29
72
31
73
9
0
VERTEX
8
OBJECT__1
10
0
20
0
30
0
70
128
71
31
72
32
73
33
0
VERTEX
8
OBJECT__1
10
0
20
0
30
0
70
128
71
33
72
15
73
31
0
VERTEX
8
OBJECT__1
10
0
20
0
30
0
70
128
71
33
72
34
73
15
0
VERTEX
8
OBJECT__1
10
0
20
0
30
0
70
128
71
12
72
35
73
36
0
VERTEX
8
OBJECT__1
10
0
20
0
30
0
70
128
71
12
72
15
73
37
0
VERTEX
8
OBJECT__1
10
0
20
0
30
0
70
128
71
37
72
35
73
12
0
VERTEX
8
OBJECT__1
10
0
20
0
30
0
70
128
71
38
72
39
73
40
0
VERTEX
8
OBJECT__1
10
0
20
0
30
0
70
128
71
40
72
41
73
38
0
VERTEX
8
OBJECT__1
10
0
20
0
30
0
70
128
71
41
72
12
73
42
0
VERTEX
8
OBJECT__1
10
0
20
0
30
0
70
128
71
42
72
38
73
41
0
VERTEX
8
OBJECT__1
10
0
20
0
30
0
70
128
71
41
72
43
73
12
0
VERTEX
8
OBJECT__1
10
0
20
0
30
0
70
128
71
13
72
12
73
44
0
VERTEX
8
OBJECT__1
10
0
20
0
30
0
70
128
71
12
72
45
73
44
0
VERTEX
8
OBJECT__1
10
0
20
0
30
0
70
128
71
12
72
43
73
46
0
VERTEX
8
OBJECT__1
10
0
20
0
30
0
70
128
71
46
72
45
73
12
0
VERTEX
8
OBJECT__1
10
0
20
0
30
0
70
128
71
19
72
13
73
47
0
VERTEX
8
OBJECT__1
10
0
20
0
30
0
70
128
71
13
72
48
73
49
0
VERTEX
8
OBJECT__1
10
0
20
0
30
0
70
128
71
13
72
50
73
48
0
VERTEX
8
OBJECT__1
10
0
20
0
30
0
70
128
71
49
72
47
73
13
0
VERTEX
8
OBJECT__1
10
0
20
0
30
0
70
128
71
19
72
51
73
52
0
VERTEX
8
OBJECT__1
10
0
20
0
30
0
70
128
71
52
72
53
73
19
0
VERTEX
8
OBJECT__1
10
0
20
0
30
0
70
128
71
19
72
54
73
55
0
VERTEX
8
OBJECT__1
10
0
20
0
30
0
70
128
71
19
72
53
73
56
0
VERTEX
8
OBJECT__1
10
0
20
0
30
0
70
128
71
56
72
54
73
19
0
VERTEX
8
OBJECT__1
10
0
20
0
30
0
70
128
71
17
72
57
73
58
0
VERTEX
8
OBJECT__1
10
0
20
0
30
0
70
128
71
17
72
55
73
59
0
VERTEX
8
OBJECT__1
10
0
20
0
30
0
70
128
71
59
72
57
73
17
0
VERTEX
8
OBJECT__1
10
0
20
0
30
0
70
128
71
18
72
60
73
61
0
VERTEX
8
OBJECT__1
10
0
20
0
30
0
70
128
71
61
72
3
73
18
0
VERTEX
8
OBJECT__1
10
0
20
0
30
0
70
128
71
18
72
58
73
60
0
VERTEX
8
OBJECT__1
10
0
20
0
30
0
70
128
71
62
72
63
73
64
0
VERTEX
8
OBJECT__1
10
0
20
0
30
0
70
128
71
3
72
65
73
66
0
VERTEX
8
OBJECT__1
10
0
20
0
30
0
70
128
71
66
72
62
73
3
0
VERTEX
8
OBJECT__1
10
0
20
0
30
0
70
128
71
66
72
63
73
62
0
VERTEX
8
OBJECT__1
10
0
20
0
30
0
70
128
71
7
72
67
73
68
0
VERTEX
8
OBJECT__1
10
0
20
0
30
0
70
128
71
7
72
62
73
69
0
VERTEX
8
OBJECT__1
10
0
20
0
30
0
70
128
71
69
72
67
73
7
0
VERTEX
8
OBJECT__1
10
0
20
0
30
0
70
128
71
4
72
7
73
70
0
VERTEX
8
OBJECT__1
10
0
20
0
30
0
70
128
71
70
72
71
73
4
0
VERTEX
8
OBJECT__1
10
0
20
0
30
0
70
128
71
4
72
72
73
73
0
VERTEX
8
OBJECT__1
10
0
20
0
30
0
70
128
71
72
72
74
73
73
0
VERTEX
8
OBJECT__1
10
0
20
0
30
0
70
128
71
5
72
75
73
76
0
VERTEX
8
OBJECT__1
10
0
20
0
30
0
70
128
71
4
72
77
73
75
0
VERTEX
8
OBJECT__1
10
0
20
0
30
0
70
128
71
75
72
5
73
4
0
VERTEX
8
OBJECT__1
10
0
20
0
30
0
70
128
71
76
72
78
73
5
0
VERTEX
8
OBJECT__1
10
0
20
0
30
0
70
128
71
10
72
79
73
80
0
VERTEX
8
OBJECT__1
10
0
20
0
30
0
70
128
71
5
72
81
73
82
0
VERTEX
8
OBJECT__1
10
0
20
0
30
0
70
128
71
82
72
10
73
5
0
VERTEX
8
OBJECT__1
10
0
20
0
30
0
70
128
71
82
72
79
73
10
0
VERTEX
8
OBJECT__1
10
0
20
0
30
0
70
128
71
83
72
84
73
21
0
VERTEX
8
OBJECT__1
10
0
20
0
30
0
70
128
71
10
72
85
73
83
0
VERTEX
8
OBJECT__1
10
0
20
0
30
0
70
128
71
84
72
83
73
86
0
VERTEX
8
OBJECT__1
10
0
20
0
30
0
70
128
71
86
72
87
73
84
0
VERTEX
8
OBJECT__1
10
0
20
0
30
0
70
128
71
21
72
10
73
83
0
VERTEX
8
OBJECT__1
10
0
20
0
30
0
70
128
71
80
72
85
73
10
0
VERTEX
8
OBJECT__1
10
0
20
0
30
0
70
128
71
78
72
81
73
5
0
VERTEX
8
OBJECT__1
10
0
20
0
30
0
70
128
71
73
72
77
73
4
0
VERTEX
8
OBJECT__1
10
0
20
0
30
0
70
128
71
71
72
72
73
4
0
VERTEX
8
OBJECT__1
10
0
20
0
30
0
70
128
71
68
72
70
73
7
0
VERTEX
8
OBJECT__1
10
0
20
0
30
0
70
128
71
64
72
69
73
62
0
VERTEX
8
OBJECT__1
10
0
20
0
30
0
70
128
71
61
72
65
73
3
0
VERTEX
8
OBJECT__1
10
0
20
0
30
0
70
128
71
58
72
18
73
17
0
VERTEX
8
OBJECT__1
10
0
20
0
30
0
70
128
71
55
72
17
73
19
0
VERTEX
8
OBJECT__1
10
0
20
0
30
0
70
128
71
52
72
88
73
53
0
VERTEX
8
OBJECT__1
10
0
20
0
30
0
70
128
71
47
72
51
73
19
0
VERTEX
8
OBJECT__1
10
0
20
0
30
0
70
128
71
44
72
50
73
13
0
VERTEX
8
OBJECT__1
10
0
20
0
30
0
70
128
71
39
72
89
73
40
0
VERTEX
8
OBJECT__1
10
0
20
0
30
0
70
128
71
36
72
42
73
12
0
VERTEX
8
OBJECT__1
10
0
20
0
30
0
70
128
71
34
72
37
73
15
0
VERTEX
8
OBJECT__1
10
0
20
0
30
0
70
128
71
29
72
32
73
31
0
VERTEX
8
OBJECT__1
10
0
20
0
30
0
70
128
71
27
72
30
73
9
0
VERTEX
8
OBJECT__1
10
0
20
0
30
0
70
128
71
23
72
26
73
8
0
VERTEX
8
OBJECT__1
10
0
20
0
30
0
70
128
71
20
72
24
73
11
0
VERTEX
8
OBJECT__1
10
0
20
0
30
0
70
128
71
3
72
2
73
16
0
VERTEX
8
OBJECT__1
10
0
20
0
30
0
70
128
71
14
72
13
73
19
0
VERTEX
8
OBJECT__1
10
0
20
0
30
0
70
128
71
16
72
14
73
17
0
VERTEX
8
OBJECT__1
10
0
20
0
30
0
70
128
71
9
72
31
73
16
0
VERTEX
8
OBJECT__1
10
0
20
0
30
0
70
128
71
16
72
31
73
15
0
VERTEX
8
OBJECT__1
10
0
20
0
30
0
70
128
71
14
72
15
73
12
0
VERTEX
8
OBJECT__1
10
0
20
0
30
0
70
128
71
1
72
6
73
11
0
VERTEX
8
OBJECT__1
10
0
20
0
30
0
70
128
71
6
72
5
73
10
0
VERTEX
8
OBJECT__1
10
0
20
0
30
0
70
128
71
2
72
1
73
8
0
VERTEX
8
OBJECT__1
10
0
20
0
30
0
70
128
71
1
72
62
73
7
0
VERTEX
8
OBJECT__1
10
0
20
0
30
0
70
128
71
6
72
7
73
4
0
VERTEX
8
OBJECT__1
10
0
20
0
30
0
70
128
71
3
72
62
73
1
0
SEQEND
8
OBJECT__1
0
POLYLINE
8
OBJECT__3
66
1
70
64
71
59
72
64
62
253
0
VERTEX
8
OBJECT__3
10
51.173000
20
-6.614000
30
111.833000
70
192
0
VERTEX
8
OBJECT__3
10
56.450001
20
-4.991000
30
113.992996
70
192
0
VERTEX
8
OBJECT__3
10
56.200001
20
-6.417000
30
114.257004
70
192
0
VERTEX
8
OBJECT__3
10
51.855000
20
0.083000
30
110.760002
70
192
0
VERTEX
8
OBJECT__3
10
57.001999
20
-1.849000
30
113.410004
70
192
0
VERTEX
8
OBJECT__3
10
56.943001
20
0.054000
30
113.443001
70
192
0
VERTEX
8
OBJECT__3
10
56.939999
20
0.122000
30
113.444000
70
192
0
VERTEX
8
OBJECT__3
10
48.144001
20
-7.399000
30
107.317001
70
192
0
VERTEX
8
OBJECT__3
10
48.738998
20
-3.441000
30
106.102997
70
192
0
VERTEX
8
OBJECT__3
10
48.869999
20
-0.036000
30
105.783997
70
192
0
VERTEX
8
OBJECT__3
10
48.880001
20
-13.027000
30
114.873001
70
192
0
VERTEX
8
OBJECT__3
10
54.529999
20
-10.796000
30
115.936996
70
192
0
VERTEX
8
OBJECT__3
10
54.832001
20
-10.005000
30
115.634003
70
192
0
VERTEX
8
OBJECT__3
10
56.035999
20
-6.846000
30
114.421997
70
192
0
VERTEX
8
OBJECT__3
10
51.048000
20
6.844000
30
111.856003
70
192
0
VERTEX
8
OBJECT__3
10
54.706001
20
10.113000
30
115.627998
70
192
0
VERTEX
8
OBJECT__3
10
55.842999
20
7.339000
30
114.490997
70
192
0
VERTEX
8
OBJECT__3
10
48.719002
20
13.240000
30
114.920998
70
192
0
VERTEX
8
OBJECT__3
10
52.688000
20
13.700000
30
117.518997
70
192
0
VERTEX
8
OBJECT__3
10
54.231998
20
11.269000
30
116.100998
70
192
0
VERTEX
8
OBJECT__3
10
56.346001
20
5.095000
30
113.994003
70
192
0
VERTEX
8
OBJECT__3
10
56.855999
20
2.820000
30
113.490997
70
192
0
VERTEX
8
OBJECT__3
10
55.896999
20
7.102000
30
114.439003
70
192
0
VERTEX
8
OBJECT__3
10
47.459000
20
9.789000
30
108.418999
70
192
0
VERTEX
8
OBJECT__3
10
46.773998
20
12.141000
30
109.681999
70
192
0
VERTEX
8
OBJECT__3
10
48.026001
20
7.846000
30
107.375999
70
192
0
VERTEX
8
OBJECT__3
10
44.500000
20
16.532000
30
113.139999
70
192
0
VERTEX
8
OBJECT__3
10
43.448002
20
17.709999
30
114.302002
70
192
0
VERTEX
8
OBJECT__3
10
44.479000
20
18.794001
30
119.054001
70
192
0
VERTEX
8
OBJECT__3
10
45.792000
20
14.038000
30
111.176003
70
192
0
VERTEX
8
OBJECT__3
10
48.720001
20
3.140000
30
106.036003
70
192
0
VERTEX
8
OBJECT__3
10
48.865002
20
0.066000
30
105.792000
70
192
0
VERTEX
8
OBJECT__3
10
44.701000
20
-18.620001
30
119.037003
70
192
0
VERTEX
8
OBJECT__3
10
43.466000
20
-17.757999
30
114.458000
70
192
0
VERTEX
8
OBJECT__3
10
44.534000
20
-16.537001
30
113.248001
70
192
0
VERTEX
8
OBJECT__3
10
42.345001
20
-19.039000
30
115.728996
70
192
0
VERTEX
8
OBJECT__3
10
47.502998
20
-9.850000
30
108.509003
70
192
0
VERTEX
8
OBJECT__3
10
48.041000
20
-8.085000
30
107.528000
70
192
0
VERTEX
8
OBJECT__3
10
46.738998
20
-12.359000
30
109.903999
70
192
0
VERTEX
8
OBJECT__3
10
45.950001
20
-13.854000
30
111.100998
70
192
0
VERTEX
8
OBJECT__3
10
41.500999
20
19.889000
30
116.450996
70
192
0
VERTEX
8
OBJECT__3
10
37.717999
20
22.368000
30
119.605003
70
192
0
VERTEX
8
OBJECT__3
10
42.091000
20
20.778000
30
120.742996
70
192
0
VERTEX
8
OBJECT__3
10
42.139999
20
19.173000
30
115.745003
70
192
0
VERTEX
8
OBJECT__3
10
42.688000
20
20.559999
30
120.899002
70
192
0
VERTEX
8
OBJECT__3
10
48.085999
20
19.051001
30
121.225998
70
192
0
VERTEX
8
OBJECT__3
10
51.667000
20
15.309000
30
118.457001
70
192
0
VERTEX
8
OBJECT__3
10
47.285000
20
19.582001
30
121.588997
70
192
0
VERTEX
8
OBJECT__3
10
47.490002
20
19.539000
30
121.620003
70
192
0
VERTEX
8
OBJECT__3
10
51.837002
20
15.040000
30
118.301003
70
192
0
VERTEX
8
OBJECT__3
10
51.511002
20
-15.568000
30
118.725998
70
192
0
VERTEX
8
OBJECT__3
10
47.675999
20
-19.421000
30
121.650002
70
192
0
VERTEX
8
OBJECT__3
10
47.645000
20
-19.427999
30
121.646004
70
192
0
VERTEX
8
OBJECT__3
10
51.931999
20
-14.901000
30
118.335999
70
192
0
VERTEX
8
OBJECT__3
10
52.852001
20
-13.447000
30
117.486000
70
192
0
VERTEX
8
OBJECT__3
10
42.959000
20
-20.417000
30
120.954002
70
192
0
VERTEX
8
OBJECT__3
10
41.831001
20
-19.625999
30
116.310997
70
192
0
VERTEX
8
OBJECT__3
10
42.299999
20
-20.660000
30
120.782997
70
192
0
VERTEX
8
OBJECT__3
10
37.945000
20
-22.268999
30
119.651001
70
192
0
VERTEX
8
OBJECT__3
10
0
20
0
30
0
70
128
71
1
72
2
73
3
0
VERTEX
8
OBJECT__3
10
0
20
0
30
0
70
128
71
4
72
5
73
2
0
VERTEX
8
OBJECT__3
10
0
20
0
30
0
70
128
71
4
72
6
73
5
0
VERTEX
8
OBJECT__3
10
0
20
0
30
0
70
128
71
4
72
7
73
6
0
VERTEX
8
OBJECT__3
10
0
20
0
30
0
70
128
71
2
72
1
73
4
0
VERTEX
8
OBJECT__3
10
0
20
0
30
0
70
128
71
1
72
8
73
9
0
VERTEX
8
OBJECT__3
10
0
20
0
30
0
70
128
71
9
72
4
73
1
0
VERTEX
8
OBJECT__3
10
0
20
0
30
0
70
128
71
9
72
10
73
4
0
VERTEX
8
OBJECT__3
10
0
20
0
30
0
70
128
71
11
72
1
73
12
0
VERTEX
8
OBJECT__3
10
0
20
0
30
0
70
128
71
1
72
13
73
12
0
VERTEX
8
OBJECT__3
10
0
20
0
30
0
70
128
71
1
72
14
73
13
0
VERTEX
8
OBJECT__3
10
0
20
0
30
0
70
128
71
15
72
16
73
17
0
VERTEX
8
OBJECT__3
10
0
20
0
30
0
70
128
71
18
72
19
73
20
0
VERTEX
8
OBJECT__3
10
0
20
0
30
0
70
128
71
20
72
15
73
18
0
VERTEX
8
OBJECT__3
10
0
20
0
30
0
70
128
71
20
72
16
73
15
0
VERTEX
8
OBJECT__3
10
0
20
0
30
0
70
128
71
4
72
15
73
21
0
VERTEX
8
OBJECT__3
10
0
20
0
30
0
70
128
71
21
72
22
73
4
0
VERTEX
8
OBJECT__3
10
0
20
0
30
0
70
128
71
15
72
23
73
21
0
VERTEX
8
OBJECT__3
10
0
20
0
30
0
70
128
71
15
72
24
73
25
0
VERTEX
8
OBJECT__3
10
0
20
0
30
0
70
128
71
25
72
18
73
15
0
VERTEX
8
OBJECT__3
10
0
20
0
30
0
70
128
71
15
72
26
73
24
0
VERTEX
8
OBJECT__3
10
0
20
0
30
0
70
128
71
18
72
27
73
28
0
VERTEX
8
OBJECT__3
10
0
20
0
30
0
70
128
71
28
72
29
73
18
0
VERTEX
8
OBJECT__3
10
0
20
0
30
0
70
128
71
18
72
30
73
27
0
VERTEX
8
OBJECT__3
10
0
20
0
30
0
70
128
71
15
72
4
73
31
0
VERTEX
8
OBJECT__3
10
0
20
0
30
0
70
128
71
4
72
32
73
31
0
VERTEX
8
OBJECT__3
10
0
20
0
30
0
70
128
71
33
72
34
73
35
0
VERTEX
8
OBJECT__3
10
0
20
0
30
0
70
128
71
33
72
36
73
34
0
VERTEX
8
OBJECT__3
10
0
20
0
30
0
70
128
71
35
72
11
73
33
0
VERTEX
8
OBJECT__3
10
0
20
0
30
0
70
128
71
1
72
37
73
38
0
VERTEX
8
OBJECT__3
10
0
20
0
30
0
70
128
71
1
72
11
73
39
0
VERTEX
8
OBJECT__3
10
0
20
0
30
0
70
128
71
11
72
40
73
39
0
VERTEX
8
OBJECT__3
10
0
20
0
30
0
70
128
71
39
72
37
73
1
0
VERTEX
8
OBJECT__3
10
0
20
0
30
0
70
128
71
41
72
42
73
43
0
VERTEX
8
OBJECT__3
10
0
20
0
30
0
70
128
71
29
72
44
73
41
0
VERTEX
8
OBJECT__3
10
0
20
0
30
0
70
128
71
29
72
43
73
45
0
VERTEX
8
OBJECT__3
10
0
20
0
30
0
70
128
71
18
72
29
73
46
0
VERTEX
8
OBJECT__3
10
0
20
0
30
0
70
128
71
46
72
47
73
18
0
VERTEX
8
OBJECT__3
10
0
20
0
30
0
70
128
71
46
72
29
73
48
0
VERTEX
8
OBJECT__3
10
0
20
0
30
0
70
128
71
48
72
49
73
46
0
VERTEX
8
OBJECT__3
10
0
20
0
30
0
70
128
71
47
72
50
73
18
0
VERTEX
8
OBJECT__3
10
0
20
0
30
0
70
128
71
11
72
51
73
52
0
VERTEX
8
OBJECT__3
10
0
20
0
30
0
70
128
71
52
72
53
73
11
0
VERTEX
8
OBJECT__3
10
0
20
0
30
0
70
128
71
11
72
54
73
51
0
VERTEX
8
OBJECT__3
10
0
20
0
30
0
70
128
71
11
72
55
73
54
0
VERTEX
8
OBJECT__3
10
0
20
0
30
0
70
128
71
33
72
53
73
56
0
VERTEX
8
OBJECT__3
10
0
20
0
30
0
70
128
71
57
72
33
73
58
0
VERTEX
8
OBJECT__3
10
0
20
0
30
0
70
128
71
58
72
59
73
57
0
VERTEX
8
OBJECT__3
10
0
20
0
30
0
70
128
71
57
72
36
73
33
0
VERTEX
8
OBJECT__3
10
0
20
0
30
0
70
128
71
56
72
58
73
33
0
VERTEX
8
OBJECT__3
10
0
20
0
30
0
70
128
71
53
72
33
73
11
0
VERTEX
8
OBJECT__3
10
0
20
0
30
0
70
128
71
50
72
19
73
18
0
VERTEX
8
OBJECT__3
10
0
20
0
30
0
70
128
71
45
72
48
73
29
0
VERTEX
8
OBJECT__3
10
0
20
0
30
0
70
128
71
43
72
29
73
41
0
VERTEX
8
OBJECT__3
10
0
20
0
30
0
70
128
71
38
72
8
73
1
0
VERTEX
8
OBJECT__3
10
0
20
0
30
0
70
128
71
35
72
40
73
11
0
VERTEX
8
OBJECT__3
10
0
20
0
30
0
70
128
71
31
72
26
73
15
0
VERTEX
8
OBJECT__3
10
0
20
0
30
0
70
128
71
28
72
44
73
29
0
VERTEX
8
OBJECT__3
10
0
20
0
30
0
70
128
71
25
72
30
73
18
0
VERTEX
8
OBJECT__3
10
0
20
0
30
0
70
128
71
22
72
7
73
4
0
VERTEX
8
OBJECT__3
10
0
20
0
30
0
70
128
71
17
72
23
73
15
0
VERTEX
8
OBJECT__3
10
0
20
0
30
0
70
128
71
12
72
55
73
11
0
VERTEX
8
OBJECT__3
10
0
20
0
30
0
70
128
71
10
72
32
73
4
0
VERTEX
8
OBJECT__3
10
0
20
0
30
0
70
128
71
3
72
14
73
1
0
SEQEND
8
OBJECT__3
0
POLYLINE
8
OBJECT__4
66
1
70
64
71
129
72
156
62
253
0
VERTEX
8
OBJECT__4
10
55.612999
20
-7.662000
30
124.426003
70
192
0
VERTEX
8
OBJECT__4
10
55.792999
20
-0.033000
30
124.920998
70
192
0
VERTEX
8
OBJECT__4
10
37.974998
20
-0.028000
30
123.969002
70
192
0
VERTEX
8
OBJECT__4
10
19.764000
20
-12.627000
30
117.740997
70
192
0
VERTEX
8
OBJECT__4
10
20.379000
20
-0.021000
30
119.620003
70
192
0
VERTEX
8
OBJECT__4
10
11.882000
20
-0.017000
30
115.807999
70
192
0
VERTEX
8
OBJECT__4
10
37.285999
20
-14.167000
30
122.057999
70
192
0
VERTEX
8
OBJECT__4
10
37.813999
20
-7.012000
30
123.487999
70
192
0
VERTEX
8
OBJECT__4
10
55.046001
20
-15.408000
30
122.956001
70
192
0
VERTEX
8
OBJECT__4
10
3.199000
20
-10.767000
30
108.803001
70
192
0
VERTEX
8
OBJECT__4
10
3.726000
20
-0.012000
30
110.684998
70
192
0
VERTEX
8
OBJECT__4
10
-3.969000
20
-0.007000
30
104.070999
70
192
0
VERTEX
8
OBJECT__4
10
11.309000
20
-11.738000
30
113.932999
70
192
0
VERTEX
8
OBJECT__4
10
37.245998
20
14.113000
30
122.084000
70
192
0
VERTEX
8
OBJECT__4
10
55.594002
20
7.596000
30
124.440002
70
192
0
VERTEX
8
OBJECT__4
10
19.701000
20
12.584000
30
117.766998
70
192
0
VERTEX
8
OBJECT__4
10
11.234000
20
11.702000
30
113.959000
70
192
0
VERTEX
8
OBJECT__4
10
3.110000
20
10.737000
30
108.828003
70
192
0
VERTEX
8
OBJECT__4
10
-4.549000
20
9.688000
30
102.191002
70
192
0
VERTEX
8
OBJECT__4
10
72.503998
20
16.299999
30
121.454002
70
192
0
VERTEX
8
OBJECT__4
10
55.021999
20
15.344000
30
122.982002
70
192
0
VERTEX
8
OBJECT__4
10
89.974998
20
8.459000
30
119.820999
70
192
0
VERTEX
8
OBJECT__4
10
73.102997
20
8.093000
30
122.956001
70
192
0
VERTEX
8
OBJECT__4
10
73.306999
20
-0.036000
30
123.452003
70
192
0
VERTEX
8
OBJECT__4
10
89.977997
20
-8.537000
30
119.806999
70
192
0
VERTEX
8
OBJECT__4
10
90.182999
20
-0.039000
30
120.331001
70
192
0
VERTEX
8
OBJECT__4
10
73.112000
20
-8.166000
30
122.942001
70
192
0
VERTEX
8
OBJECT__4
10
72.513000
20
-16.371000
30
121.426003
70
192
0
VERTEX
8
OBJECT__4
10
62.605000
20
-17.968000
30
121.870003
70
192
0
VERTEX
8
OBJECT__4
10
59.127998
20
-18.271000
30
122.070999
70
192
0
VERTEX
8
OBJECT__4
10
71.084999
20
-17.228001
30
121.379997
70
192
0
VERTEX
8
OBJECT__4
10
54.686001
20
-18.716999
30
121.907997
70
192
0
VERTEX
8
OBJECT__4
10
73.297997
20
-17.061001
30
121.140999
70
192
0
VERTEX
8
OBJECT__4
10
78.630997
20
-16.725000
30
120.306000
70
192
0
VERTEX
8
OBJECT__4
10
72.438004
20
-17.125999
30
121.234001
70
192
0
VERTEX
8
OBJECT__4
10
79.584999
20
-16.664000
30
120.156998
70
192
0
VERTEX
8
OBJECT__4
10
86.663002
20
-16.218000
30
119.049004
70
192
0
VERTEX
8
OBJECT__4
10
117.285004
20
-11.969000
30
111.545998
70
192
0
VERTEX
8
OBJECT__4
10
102.836998
20
-15.301000
30
115.301003
70
192
0
VERTEX
8
OBJECT__4
10
115.686996
20
-14.292000
30
111.606003
70
192
0
VERTEX
8
OBJECT__4
10
96.175003
20
-15.678000
30
116.845001
70
192
0
VERTEX
8
OBJECT__4
10
89.431000
20
-16.061001
30
118.407997
70
192
0
VERTEX
8
OBJECT__4
10
120.319000
20
-4.912000
30
111.433998
70
192
0
VERTEX
8
OBJECT__4
10
120.920998
20
-0.169000
30
111.413002
70
192
0
VERTEX
8
OBJECT__4
10
119.632004
20
-7.173000
30
111.459000
70
192
0
VERTEX
8
OBJECT__4
10
119.598000
20
-7.241000
30
111.459999
70
192
0
VERTEX
8
OBJECT__4
10
118.782997
20
-8.908000
30
111.490997
70
192
0
VERTEX
8
OBJECT__4
10
119.505997
20
7.532000
30
111.466003
70
192
0
VERTEX
8
OBJECT__4
10
118.936996
20
8.830000
30
111.487000
70
192
0
VERTEX
8
OBJECT__4
10
119.579002
20
7.251000
30
111.462997
70
192
0
VERTEX
8
OBJECT__4
10
120.913002
20
-0.042000
30
111.414001
70
192
0
VERTEX
8
OBJECT__4
10
120.910004
20
0.005000
30
111.414001
70
192
0
VERTEX
8
OBJECT__4
10
120.713997
20
2.900000
30
111.420998
70
192
0
VERTEX
8
OBJECT__4
10
118.532997
20
9.753000
30
111.501999
70
192
0
VERTEX
8
OBJECT__4
10
115.694000
20
14.304000
30
111.609001
70
192
0
VERTEX
8
OBJECT__4
10
102.598000
20
15.340000
30
115.365997
70
192
0
VERTEX
8
OBJECT__4
10
96.177002
20
15.710000
30
116.846001
70
192
0
VERTEX
8
OBJECT__4
10
86.442001
20
16.270000
30
119.088997
70
192
0
VERTEX
8
OBJECT__4
10
80.728996
20
16.639999
30
119.973999
70
192
0
VERTEX
8
OBJECT__4
10
89.418999
20
16.099001
30
118.403000
70
192
0
VERTEX
8
OBJECT__4
10
78.634003
20
16.775000
30
120.299004
70
192
0
VERTEX
8
OBJECT__4
10
73.109001
20
17.132000
30
121.155998
70
192
0
VERTEX
8
OBJECT__4
10
70.870003
20
17.304001
30
121.394997
70
192
0
VERTEX
8
OBJECT__4
10
62.610001
20
18.040001
30
121.856003
70
192
0
VERTEX
8
OBJECT__4
10
72.416000
20
17.184999
30
121.230003
70
192
0
VERTEX
8
OBJECT__4
10
58.929001
20
18.368000
30
122.061996
70
192
0
VERTEX
8
OBJECT__4
10
36.646000
20
22.843000
30
119.247002
70
192
0
VERTEX
8
OBJECT__4
10
36.359001
20
22.969999
30
119.151001
70
192
0
VERTEX
8
OBJECT__4
10
37.717999
20
22.368000
30
119.605003
70
192
0
VERTEX
8
OBJECT__4
10
42.688000
20
20.559999
30
120.899002
70
192
0
VERTEX
8
OBJECT__4
10
42.091000
20
20.778000
30
120.742996
70
192
0
VERTEX
8
OBJECT__4
10
47.490002
20
19.539000
30
121.620003
70
192
0
VERTEX
8
OBJECT__4
10
47.285000
20
19.582001
30
121.588997
70
192
0
VERTEX
8
OBJECT__4
10
54.647999
20
18.806000
30
121.897003
70
192
0
VERTEX
8
OBJECT__4
10
31.481001
20
24.577000
30
117.512001
70
192
0
VERTEX
8
OBJECT__4
10
25.346001
20
25.600000
30
115.359001
70
192
0
VERTEX
8
OBJECT__4
10
18.823999
20
25.590000
30
112.889999
70
192
0
VERTEX
8
OBJECT__4
10
36.132999
20
23.044001
30
119.075996
70
192
0
VERTEX
8
OBJECT__4
10
12.593000
20
24.475000
30
110.236000
70
192
0
VERTEX
8
OBJECT__4
10
11.750000
20
24.325001
30
109.876999
70
192
0
VERTEX
8
OBJECT__4
10
17.941999
20
25.431999
30
112.514999
70
192
0
VERTEX
8
OBJECT__4
10
5.807000
20
22.162001
30
106.946999
70
192
0
VERTEX
8
OBJECT__4
10
3.024000
20
20.583000
30
105.361000
70
192
0
VERTEX
8
OBJECT__4
10
9.650000
20
23.561001
30
108.842003
70
192
0
VERTEX
8
OBJECT__4
10
-4.243000
20
15.120000
30
100.848999
70
192
0
VERTEX
8
OBJECT__4
10
-5.067000
20
14.146000
30
100.278000
70
192
0
VERTEX
8
OBJECT__4
10
-0.330000
20
18.562000
30
103.410004
70
192
0
VERTEX
8
OBJECT__4
10
0.475000
20
19.136000
30
103.906998
70
192
0
VERTEX
8
OBJECT__4
10
0.657000
20
19.240000
30
104.011002
70
192
0
VERTEX
8
OBJECT__4
10
1.941000
20
19.968000
30
104.742996
70
192
0
VERTEX
8
OBJECT__4
10
-7.602000
20
10.469000
30
98.511002
70
192
0
VERTEX
8
OBJECT__4
10
-8.352000
20
9.249000
30
97.987000
70
192
0
VERTEX
8
OBJECT__4
10
-6.082000
20
12.946000
30
99.574997
70
192
0
VERTEX
8
OBJECT__4
10
-10.366000
20
1.262000
30
96.707001
70
192
0
VERTEX
8
OBJECT__4
10
-10.397000
20
0.033000
30
96.674004
70
192
0
VERTEX
8
OBJECT__4
10
-8.419000
20
9.093000
30
97.941002
70
192
0
VERTEX
8
OBJECT__4
10
-9.065000
20
7.598000
30
97.502998
70
192
0
VERTEX
8
OBJECT__4
10
-10.149000
20
3.447000
30
96.831001
70
192
0
VERTEX
8
OBJECT__4
10
-9.517000
20
-6.117000
30
97.088997
70
192
0
VERTEX
8
OBJECT__4
10
-8.256000
20
-9.147000
30
97.934998
70
192
0
VERTEX
8
OBJECT__4
10
-9.968000
20
-4.312000
30
96.830002
70
192
0
VERTEX
8
OBJECT__4
10
-10.394000
20
-0.001000
30
96.675003
70
192
0
VERTEX
8
OBJECT__4
10
-4.446000
20
-9.712000
30
102.166000
70
192
0
VERTEX
8
OBJECT__4
10
-7.654000
20
-10.441000
30
98.348000
70
192
0
VERTEX
8
OBJECT__4
10
-6.993000
20
-11.556000
30
98.817001
70
192
0
VERTEX
8
OBJECT__4
10
-7.868000
20
-10.080000
30
98.195999
70
192
0
VERTEX
8
OBJECT__4
10
-4.961000
20
-14.076000
30
100.247002
70
192
0
VERTEX
8
OBJECT__4
10
-3.801000
20
-15.515000
30
101.063004
70
192
0
VERTEX
8
OBJECT__4
10
-1.241000
20
-17.820999
30
102.766998
70
192
0
VERTEX
8
OBJECT__4
10
0.723000
20
-19.113001
30
103.948997
70
192
0
VERTEX
8
OBJECT__4
10
3.901000
20
-21.202000
30
105.860001
70
192
0
VERTEX
8
OBJECT__4
10
2.987000
20
-20.601000
30
105.309998
70
192
0
VERTEX
8
OBJECT__4
10
1.991000
20
-19.947001
30
104.710999
70
192
0
VERTEX
8
OBJECT__4
10
12.531000
20
-24.413000
30
110.142998
70
192
0
VERTEX
8
OBJECT__4
10
16.461000
20
-25.327999
30
111.886002
70
192
0
VERTEX
8
OBJECT__4
10
9.629000
20
-23.628000
30
108.815002
70
192
0
VERTEX
8
OBJECT__4
10
10.201000
20
-23.870001
30
109.109001
70
192
0
VERTEX
8
OBJECT__4
10
31.393999
20
-24.612000
30
117.444000
70
192
0
VERTEX
8
OBJECT__4
10
36.160000
20
-23.049000
30
119.053001
70
192
0
VERTEX
8
OBJECT__4
10
25.254000
20
-25.622000
30
115.282997
70
192
0
VERTEX
8
OBJECT__4
10
17.955999
20
-25.410000
30
112.471001
70
192
0
VERTEX
8
OBJECT__4
10
23.622999
20
-25.719999
30
114.685997
70
192
0
VERTEX
8
OBJECT__4
10
47.675999
20
-19.421000
30
121.650002
70
192
0
VERTEX
8
OBJECT__4
10
42.959000
20
-20.417000
30
120.954002
70
192
0
VERTEX
8
OBJECT__4
10
47.645000
20
-19.427999
30
121.646004
70
192
0
VERTEX
8
OBJECT__4
10
37.945000
20
-22.268999
30
119.651001
70
192
0
VERTEX
8
OBJECT__4
10
42.299999
20
-20.660000
30
120.782997
70
192
0
VERTEX
8
OBJECT__4
10
36.313999
20
-22.997999
30
119.105003
70
192
0
VERTEX
8
OBJECT__4
10
36.570999
20
-22.882999
30
119.191002
70
192
0
VERTEX
8
OBJECT__4
10
0
20
0
30
0
70
128
71
1
72
2
73
3
0
VERTEX
8
OBJECT__4
10
0
20
0
30
0
70
128
71
4
72
5
73
6
0
VERTEX
8
OBJECT__4
10
0
20
0
30
0
70
128
71
4
72
7
73
8
0
VERTEX
8
OBJECT__4
10
0
20
0
30
0
70
128
71
8
72
5
73
4
0
VERTEX
8
OBJECT__4
10
0
20
0
30
0
70
128
71
9
72
1
73
8
0
VERTEX
8
OBJECT__4
10
0
20
0
30
0
70
128
71
10
72
11
73
12
0
VERTEX
8
OBJECT__4
10
0
20
0
30
0
70
128
71
13
72
6
73
11
0
VERTEX
8
OBJECT__4
10
0
20
0
30
0
70
128
71
14
72
3
73
15
0
VERTEX
8
OBJECT__4
10
0
20
0
30
0
70
128
71
3
72
2
73
15
0
VERTEX
8
OBJECT__4
10
0
20
0
30
0
70
128
71
16
72
17
73
6
0
VERTEX
8
OBJECT__4
10
0
20
0
30
0
70
128
71
14
72
16
73
5
0
VERTEX
8
OBJECT__4
10
0
20
0
30
0
70
128
71
18
72
19
73
12
0
VERTEX
8
OBJECT__4
10
0
20
0
30
0
70
128
71
17
72
18
73
11
0
VERTEX
8
OBJECT__4
10
0
20
0
30
0
70
128
71
20
72
21
73
15
0
VERTEX
8
OBJECT__4
10
0
20
0
30
0
70
128
71
22
72
23
73
24
0
VERTEX
8
OBJECT__4
10
0
20
0
30
0
70
128
71
23
72
15
73
2
0
VERTEX
8
OBJECT__4
10
0
20
0
30
0
70
128
71
25
72
26
73
24
0
VERTEX
8
OBJECT__4
10
0
20
0
30
0
70
128
71
27
72
24
73
2
0
VERTEX
8
OBJECT__4
10
0
20
0
30
0
70
128
71
28
72
27
73
1
0
VERTEX
8
OBJECT__4
10
0
20
0
30
0
70
128
71
28
72
9
73
29
0
VERTEX
8
OBJECT__4
10
0
20
0
30
0
70
128
71
9
72
30
73
29
0
VERTEX
8
OBJECT__4
10
0
20
0
30
0
70
128
71
29
72
31
73
28
0
VERTEX
8
OBJECT__4
10
0
20
0
30
0
70
128
71
9
72
32
73
30
0
VERTEX
8
OBJECT__4
10
0
20
0
30
0
70
128
71
28
72
33
73
34
0
VERTEX
8
OBJECT__4
10
0
20
0
30
0
70
128
71
28
72
35
73
33
0
VERTEX
8
OBJECT__4
10
0
20
0
30
0
70
128
71
25
72
27
73
36
0
VERTEX
8
OBJECT__4
10
0
20
0
30
0
70
128
71
27
72
28
73
36
0
VERTEX
8
OBJECT__4
10
0
20
0
30
0
70
128
71
36
72
37
73
25
0
VERTEX
8
OBJECT__4
10
0
20
0
30
0
70
128
71
38
72
25
73
39
0
VERTEX
8
OBJECT__4
10
0
20
0
30
0
70
128
71
39
72
40
73
38
0
VERTEX
8
OBJECT__4
10
0
20
0
30
0
70
128
71
25
72
41
73
39
0
VERTEX
8
OBJECT__4
10
0
20
0
30
0
70
128
71
25
72
42
73
41
0
VERTEX
8
OBJECT__4
10
0
20
0
30
0
70
128
71
26
72
43
73
44
0
VERTEX
8
OBJECT__4
10
0
20
0
30
0
70
128
71
26
72
45
73
43
0
VERTEX
8
OBJECT__4
10
0
20
0
30
0
70
128
71
26
72
46
73
45
0
VERTEX
8
OBJECT__4
10
0
20
0
30
0
70
128
71
26
72
25
73
47
0
VERTEX
8
OBJECT__4
10
0
20
0
30
0
70
128
71
47
72
46
73
26
0
VERTEX
8
OBJECT__4
10
0
20
0
30
0
70
128
71
26
72
48
73
49
0
VERTEX
8
OBJECT__4
10
0
20
0
30
0
70
128
71
26
72
50
73
48
0
VERTEX
8
OBJECT__4
10
0
20
0
30
0
70
128
71
26
72
51
73
52
0
VERTEX
8
OBJECT__4
10
0
20
0
30
0
70
128
71
52
72
50
73
26
0
VERTEX
8
OBJECT__4
10
0
20
0
30
0
70
128
71
52
72
53
73
50
0
VERTEX
8
OBJECT__4
10
0
20
0
30
0
70
128
71
54
72
55
73
56
0
VERTEX
8
OBJECT__4
10
0
20
0
30
0
70
128
71
22
72
49
73
54
0
VERTEX
8
OBJECT__4
10
0
20
0
30
0
70
128
71
56
72
22
73
54
0
VERTEX
8
OBJECT__4
10
0
20
0
30
0
70
128
71
56
72
57
73
22
0
VERTEX
8
OBJECT__4
10
0
20
0
30
0
70
128
71
22
72
58
73
59
0
VERTEX
8
OBJECT__4
10
0
20
0
30
0
70
128
71
59
72
23
73
22
0
VERTEX
8
OBJECT__4
10
0
20
0
30
0
70
128
71
22
72
60
73
58
0
VERTEX
8
OBJECT__4
10
0
20
0
30
0
70
128
71
20
72
59
73
61
0
VERTEX
8
OBJECT__4
10
0
20
0
30
0
70
128
71
61
72
62
73
20
0
VERTEX
8
OBJECT__4
10
0
20
0
30
0
70
128
71
20
72
63
73
64
0
VERTEX
8
OBJECT__4
10
0
20
0
30
0
70
128
71
64
72
21
73
20
0
VERTEX
8
OBJECT__4
10
0
20
0
30
0
70
128
71
20
72
65
73
63
0
VERTEX
8
OBJECT__4
10
0
20
0
30
0
70
128
71
64
72
66
73
21
0
VERTEX
8
OBJECT__4
10
0
20
0
30
0
70
128
71
14
72
67
73
68
0
VERTEX
8
OBJECT__4
10
0
20
0
30
0
70
128
71
14
72
69
73
67
0
VERTEX
8
OBJECT__4
10
0
20
0
30
0
70
128
71
14
72
70
73
71
0
VERTEX
8
OBJECT__4
10
0
20
0
30
0
70
128
71
71
72
69
73
14
0
VERTEX
8
OBJECT__4
10
0
20
0
30
0
70
128
71
14
72
72
73
73
0
VERTEX
8
OBJECT__4
10
0
20
0
30
0
70
128
71
21
72
74
73
72
0
VERTEX
8
OBJECT__4
10
0
20
0
30
0
70
128
71
72
72
14
73
21
0
VERTEX
8
OBJECT__4
10
0
20
0
30
0
70
128
71
73
72
70
73
14
0
VERTEX
8
OBJECT__4
10
0
20
0
30
0
70
128
71
16
72
75
73
76
0
VERTEX
8
OBJECT__4
10
0
20
0
30
0
70
128
71
76
72
77
73
16
0
VERTEX
8
OBJECT__4
10
0
20
0
30
0
70
128
71
16
72
14
73
78
0
VERTEX
8
OBJECT__4
10
0
20
0
30
0
70
128
71
78
72
75
73
16
0
VERTEX
8
OBJECT__4
10
0
20
0
30
0
70
128
71
17
72
79
73
80
0
VERTEX
8
OBJECT__4
10
0
20
0
30
0
70
128
71
16
72
81
73
79
0
VERTEX
8
OBJECT__4
10
0
20
0
30
0
70
128
71
79
72
17
73
16
0
VERTEX
8
OBJECT__4
10
0
20
0
30
0
70
128
71
17
72
82
73
83
0
VERTEX
8
OBJECT__4
10
0
20
0
30
0
70
128
71
17
72
84
73
82
0
VERTEX
8
OBJECT__4
10
0
20
0
30
0
70
128
71
83
72
18
73
17
0
VERTEX
8
OBJECT__4
10
0
20
0
30
0
70
128
71
18
72
85
73
86
0
VERTEX
8
OBJECT__4
10
0
20
0
30
0
70
128
71
18
72
87
73
85
0
VERTEX
8
OBJECT__4
10
0
20
0
30
0
70
128
71
18
72
88
73
87
0
VERTEX
8
OBJECT__4
10
0
20
0
30
0
70
128
71
18
72
89
73
88
0
VERTEX
8
OBJECT__4
10
0
20
0
30
0
70
128
71
18
72
90
73
89
0
VERTEX
8
OBJECT__4
10
0
20
0
30
0
70
128
71
19
72
91
73
92
0
VERTEX
8
OBJECT__4
10
0
20
0
30
0
70
128
71
19
72
86
73
93
0
VERTEX
8
OBJECT__4
10
0
20
0
30
0
70
128
71
93
72
91
73
19
0
VERTEX
8
OBJECT__4
10
0
20
0
30
0
70
128
71
12
72
94
73
95
0
VERTEX
8
OBJECT__4
10
0
20
0
30
0
70
128
71
12
72
19
73
96
0
VERTEX
8
OBJECT__4
10
0
20
0
30
0
70
128
71
96
72
97
73
12
0
VERTEX
8
OBJECT__4
10
0
20
0
30
0
70
128
71
97
72
98
73
12
0
VERTEX
8
OBJECT__4
10
0
20
0
30
0
70
128
71
98
72
94
73
12
0
VERTEX
8
OBJECT__4
10
0
20
0
30
0
70
128
71
12
72
99
73
100
0
VERTEX
8
OBJECT__4
10
0
20
0
30
0
70
128
71
12
72
101
73
99
0
VERTEX
8
OBJECT__4
10
0
20
0
30
0
70
128
71
12
72
102
73
101
0
VERTEX
8
OBJECT__4
10
0
20
0
30
0
70
128
71
103
72
104
73
105
0
VERTEX
8
OBJECT__4
10
0
20
0
30
0
70
128
71
103
72
100
73
106
0
VERTEX
8
OBJECT__4
10
0
20
0
30
0
70
128
71
106
72
104
73
103
0
VERTEX
8
OBJECT__4
10
0
20
0
30
0
70
128
71
10
72
103
73
107
0
VERTEX
8
OBJECT__4
10
0
20
0
30
0
70
128
71
107
72
108
73
10
0
VERTEX
8
OBJECT__4
10
0
20
0
30
0
70
128
71
108
72
109
73
10
0
VERTEX
8
OBJECT__4
10
0
20
0
30
0
70
128
71
109
72
110
73
10
0
VERTEX
8
OBJECT__4
10
0
20
0
30
0
70
128
71
13
72
10
73
111
0
VERTEX
8
OBJECT__4
10
0
20
0
30
0
70
128
71
10
72
112
73
111
0
VERTEX
8
OBJECT__4
10
0
20
0
30
0
70
128
71
10
72
113
73
112
0
VERTEX
8
OBJECT__4
10
0
20
0
30
0
70
128
71
13
72
114
73
115
0
VERTEX
8
OBJECT__4
10
0
20
0
30
0
70
128
71
115
72
4
73
13
0
VERTEX
8
OBJECT__4
10
0
20
0
30
0
70
128
71
13
72
116
73
117
0
VERTEX
8
OBJECT__4
10
0
20
0
30
0
70
128
71
117
72
114
73
13
0
VERTEX
8
OBJECT__4
10
0
20
0
30
0
70
128
71
4
72
118
73
119
0
VERTEX
8
OBJECT__4
10
0
20
0
30
0
70
128
71
4
72
120
73
118
0
VERTEX
8
OBJECT__4
10
0
20
0
30
0
70
128
71
4
72
121
73
122
0
VERTEX
8
OBJECT__4
10
0
20
0
30
0
70
128
71
122
72
120
73
4
0
VERTEX
8
OBJECT__4
10
0
20
0
30
0
70
128
71
9
72
7
73
123
0
VERTEX
8
OBJECT__4
10
0
20
0
30
0
70
128
71
7
72
124
73
125
0
VERTEX
8
OBJECT__4
10
0
20
0
30
0
70
128
71
125
72
123
73
7
0
VERTEX
8
OBJECT__4
10
0
20
0
30
0
70
128
71
7
72
126
73
127
0
VERTEX
8
OBJECT__4
10
0
20
0
30
0
70
128
71
7
72
119
73
128
0
VERTEX
8
OBJECT__4
10
0
20
0
30
0
70
128
71
128
72
129
73
7
0
VERTEX
8
OBJECT__4
10
0
20
0
30
0
70
128
71
129
72
126
73
7
0
VERTEX
8
OBJECT__4
10
0
20
0
30
0
70
128
71
127
72
124
73
7
0
VERTEX
8
OBJECT__4
10
0
20
0
30
0
70
128
71
123
72
32
73
9
0
VERTEX
8
OBJECT__4
10
0
20
0
30
0
70
128
71
119
72
7
73
4
0
VERTEX
8
OBJECT__4
10
0
20
0
30
0
70
128
71
115
72
121
73
4
0
VERTEX
8
OBJECT__4
10
0
20
0
30
0
70
128
71
111
72
116
73
13
0
VERTEX
8
OBJECT__4
10
0
20
0
30
0
70
128
71
110
72
113
73
10
0
VERTEX
8
OBJECT__4
10
0
20
0
30
0
70
128
71
105
72
107
73
103
0
VERTEX
8
OBJECT__4
10
0
20
0
30
0
70
128
71
100
72
103
73
12
0
VERTEX
8
OBJECT__4
10
0
20
0
30
0
70
128
71
95
72
102
73
12
0
VERTEX
8
OBJECT__4
10
0
20
0
30
0
70
128
71
92
72
96
73
19
0
VERTEX
8
OBJECT__4
10
0
20
0
30
0
70
128
71
86
72
19
73
18
0
VERTEX
8
OBJECT__4
10
0
20
0
30
0
70
128
71
83
72
90
73
18
0
VERTEX
8
OBJECT__4
10
0
20
0
30
0
70
128
71
80
72
84
73
17
0
VERTEX
8
OBJECT__4
10
0
20
0
30
0
70
128
71
77
72
81
73
16
0
VERTEX
8
OBJECT__4
10
0
20
0
30
0
70
128
71
68
72
78
73
14
0
VERTEX
8
OBJECT__4
10
0
20
0
30
0
70
128
71
66
72
74
73
21
0
VERTEX
8
OBJECT__4
10
0
20
0
30
0
70
128
71
62
72
65
73
20
0
VERTEX
8
OBJECT__4
10
0
20
0
30
0
70
128
71
59
72
20
73
23
0
VERTEX
8
OBJECT__4
10
0
20
0
30
0
70
128
71
57
72
60
73
22
0
VERTEX
8
OBJECT__4
10
0
20
0
30
0
70
128
71
49
72
22
73
26
0
VERTEX
8
OBJECT__4
10
0
20
0
30
0
70
128
71
44
72
51
73
26
0
VERTEX
8
OBJECT__4
10
0
20
0
30
0
70
128
71
38
72
47
73
25
0
VERTEX
8
OBJECT__4
10
0
20
0
30
0
70
128
71
37
72
42
73
25
0
VERTEX
8
OBJECT__4
10
0
20
0
30
0
70
128
71
34
72
36
73
28
0
VERTEX
8
OBJECT__4
10
0
20
0
30
0
70
128
71
31
72
35
73
28
0
VERTEX
8
OBJECT__4
10
0
20
0
30
0
70
128
71
1
72
9
73
28
0
VERTEX
8
OBJECT__4
10
0
20
0
30
0
70
128
71
2
72
1
73
27
0
VERTEX
8
OBJECT__4
10
0
20
0
30
0
70
128
71
24
72
27
73
25
0
VERTEX
8
OBJECT__4
10
0
20
0
30
0
70
128
71
2
72
24
73
23
0
VERTEX
8
OBJECT__4
10
0
20
0
30
0
70
128
71
24
72
26
73
22
0
VERTEX
8
OBJECT__4
10
0
20
0
30
0
70
128
71
15
72
23
73
20
0
VERTEX
8
OBJECT__4
10
0
20
0
30
0
70
128
71
11
72
6
73
17
0
VERTEX
8
OBJECT__4
10
0
20
0
30
0
70
128
71
12
72
11
73
18
0
VERTEX
8
OBJECT__4
10
0
20
0
30
0
70
128
71
5
72
3
73
14
0
VERTEX
8
OBJECT__4
10
0
20
0
30
0
70
128
71
6
72
5
73
16
0
VERTEX
8
OBJECT__4
10
0
20
0
30
0
70
128
71
15
72
21
73
14
0
VERTEX
8
OBJECT__4
10
0
20
0
30
0
70
128
71
11
72
10
73
13
0
VERTEX
8
OBJECT__4
10
0
20
0
30
0
70
128
71
12
72
103
73
10
0
VERTEX
8
OBJECT__4
10
0
20
0
30
0
70
128
71
8
72
7
73
9
0
VERTEX
8
OBJECT__4
10
0
20
0
30
0
70
128
71
8
72
3
73
5
0
VERTEX
8
OBJECT__4
10
0
20
0
30
0
70
128
71
6
72
13
73
4
0
VERTEX
8
OBJECT__4
10
0
20
0
30
0
70
128
71
3
72
8
73
1
0
SEQEND
8
OBJECT__4
0
POLYLINE
8
OBJECT__5
66
1
70
64
71
36
72
37
62
253
0
VERTEX
8
OBJECT__5
10
31.612000
20
24.480000
30
103.526001
70
192
0
VERTEX
8
OBJECT__5
10
40.009998
20
18.709000
30
102.049004
70
192
0
VERTEX
8
OBJECT__5
10
33.396000
20
20.472000
30
85.860001
70
192
0
VERTEX
8
OBJECT__5
10
28.737000
20
23.809999
30
86.681999
70
192
0
VERTEX
8
OBJECT__5
10
34.588001
20
19.156000
30
85.650002
70
192
0
VERTEX
8
OBJECT__5
10
17.886999
20
27.158001
30
88.595001
70
192
0
VERTEX
8
OBJECT__5
10
15.717000
20
27.250000
30
88.976997
70
192
0
VERTEX
8
OBJECT__5
10
19.441999
20
27.002001
30
99.181999
70
192
0
VERTEX
8
OBJECT__5
10
23.488001
20
26.072001
30
87.607002
70
192
0
VERTEX
8
OBJECT__5
10
20.558001
20
26.737000
30
102.239998
70
192
0
VERTEX
8
OBJECT__5
10
25.924999
20
25.021999
30
87.177002
70
192
0
VERTEX
8
OBJECT__5
10
45.566002
20
10.095000
30
101.074997
70
192
0
VERTEX
8
OBJECT__5
10
40.140999
20
11.217000
30
84.670998
70
192
0
VERTEX
8
OBJECT__5
10
37.256001
20
16.209999
30
85.179001
70
192
0
VERTEX
8
OBJECT__5
10
40.415001
20
10.373000
30
84.622002
70
192
0
VERTEX
8
OBJECT__5
10
36.132999
20
23.044001
30
119.075996
70
192
0
VERTEX
8
OBJECT__5
10
36.359001
20
22.969999
30
119.151001
70
192
0
VERTEX
8
OBJECT__5
10
21.667000
20
26.473000
30
105.277000
70
192
0
VERTEX
8
OBJECT__5
10
25.346001
20
25.600000
30
115.359001
70
192
0
VERTEX
8
OBJECT__5
10
31.481001
20
24.577000
30
117.512001
70
192
0
VERTEX
8
OBJECT__5
10
42.139999
20
19.173000
30
115.745003
70
192
0
VERTEX
8
OBJECT__5
10
43.448002
20
17.709999
30
114.302002
70
192
0
VERTEX
8
OBJECT__5
10
36.646000
20
22.843000
30
119.247002
70
192
0
VERTEX
8
OBJECT__5
10
37.717999
20
22.368000
30
119.605003
70
192
0
VERTEX
8
OBJECT__5
10
41.500999
20
19.889000
30
116.450996
70
192
0
VERTEX
8
OBJECT__5
10
46.773998
20
12.141000
30
109.681999
70
192
0
VERTEX
8
OBJECT__5
10
47.459000
20
9.789000
30
108.418999
70
192
0
VERTEX
8
OBJECT__5
10
44.500000
20
16.532000
30
113.139999
70
192
0
VERTEX
8
OBJECT__5
10
45.792000
20
14.038000
30
111.176003
70
192
0
VERTEX
8
OBJECT__5
10
48.865002
20
0.066000
30
105.792000
70
192
0
VERTEX
8
OBJECT__5
10
48.869999
20
-0.036000
30
105.783997
70
192
0
VERTEX
8
OBJECT__5
10
43.056999
20
-0.033000
30
85.889000
70
192
0
VERTEX
8
OBJECT__5
10
41.923000
20
5.718000
30
84.356003
70
192
0
VERTEX
8
OBJECT__5
10
48.720001
20
3.140000
30
106.036003
70
192
0
VERTEX
8
OBJECT__5
10
42.521000
20
-0.033000
30
84.250999
70
192
0
VERTEX
8
OBJECT__5
10
48.026001
20
7.846000
30
107.375999
70
192
0
VERTEX
8
OBJECT__5
10
0
20
0
30
0
70
128
71
1
72
2
73
3
0
VERTEX
8
OBJECT__5
10
0
20
0
30
0
70
128
71
3
72
4
73
1
0
VERTEX
8
OBJECT__5
10
0
20
0
30
0
70
128
71
2
72
5
73
3
0
VERTEX
8
OBJECT__5
10
0
20
0
30
0
70
128
71
6
72
7
73
8
0
VERTEX
8
OBJECT__5
10
0
20
0
30
0
70
128
71
9
72
6
73
10
0
VERTEX
8
OBJECT__5
10
0
20
0
30
0
70
128
71
1
72
11
73
9
0
VERTEX
8
OBJECT__5
10
0
20
0
30
0
70
128
71
10
72
1
73
9
0
VERTEX
8
OBJECT__5
10
0
20
0
30
0
70
128
71
8
72
10
73
6
0
VERTEX
8
OBJECT__5
10
0
20
0
30
0
70
128
71
12
72
13
73
14
0
VERTEX
8
OBJECT__5
10
0
20
0
30
0
70
128
71
14
72
2
73
12
0
VERTEX
8
OBJECT__5
10
0
20
0
30
0
70
128
71
12
72
15
73
13
0
VERTEX
8
OBJECT__5
10
0
20
0
30
0
70
128
71
1
72
16
73
17
0
VERTEX
8
OBJECT__5
10
0
20
0
30
0
70
128
71
1
72
18
73
19
0
VERTEX
8
OBJECT__5
10
0
20
0
30
0
70
128
71
19
72
20
73
1
0
VERTEX
8
OBJECT__5
10
0
20
0
30
0
70
128
71
20
72
16
73
1
0
VERTEX
8
OBJECT__5
10
0
20
0
30
0
70
128
71
1
72
21
73
22
0
VERTEX
8
OBJECT__5
10
0
20
0
30
0
70
128
71
1
72
23
73
24
0
VERTEX
8
OBJECT__5
10
0
20
0
30
0
70
128
71
24
72
25
73
1
0
VERTEX
8
OBJECT__5
10
0
20
0
30
0
70
128
71
25
72
21
73
1
0
VERTEX
8
OBJECT__5
10
0
20
0
30
0
70
128
71
2
72
26
73
27
0
VERTEX
8
OBJECT__5
10
0
20
0
30
0
70
128
71
2
72
22
73
28
0
VERTEX
8
OBJECT__5
10
0
20
0
30
0
70
128
71
28
72
29
73
2
0
VERTEX
8
OBJECT__5
10
0
20
0
30
0
70
128
71
29
72
26
73
2
0
VERTEX
8
OBJECT__5
10
0
20
0
30
0
70
128
71
30
72
31
73
32
0
VERTEX
8
OBJECT__5
10
0
20
0
30
0
70
128
71
33
72
34
73
30
0
VERTEX
8
OBJECT__5
10
0
20
0
30
0
70
128
71
30
72
35
73
33
0
VERTEX
8
OBJECT__5
10
0
20
0
30
0
70
128
71
33
72
15
73
12
0
VERTEX
8
OBJECT__5
10
0
20
0
30
0
70
128
71
12
72
34
73
33
0
VERTEX
8
OBJECT__5
10
0
20
0
30
0
70
128
71
12
72
36
73
34
0
VERTEX
8
OBJECT__5
10
0
20
0
30
0
70
128
71
12
72
27
73
36
0
VERTEX
8
OBJECT__5
10
0
20
0
30
0
70
128
71
32
72
35
73
30
0
VERTEX
8
OBJECT__5
10
0
20
0
30
0
70
128
71
27
72
12
73
2
0
VERTEX
8
OBJECT__5
10
0
20
0
30
0
70
128
71
22
72
2
73
1
0
VERTEX
8
OBJECT__5
10
0
20
0
30
0
70
128
71
17
72
23
73
1
0
VERTEX
8
OBJECT__5
10
0
20
0
30
0
70
128
71
14
72
5
73
2
0
VERTEX
8
OBJECT__5
10
0
20
0
30
0
70
128
71
10
72
18
73
1
0
VERTEX
8
OBJECT__5
10
0
20
0
30
0
70
128
71
4
72
11
73
1
0
SEQEND
8
OBJECT__5
0
POLYLINE
8
OBJECT__6
66
1
70
64
71
36
72
37
62
253
0
VERTEX
8
OBJECT__6
10
39.986000
20
-18.750999
30
102.095001
70
192
0
VERTEX
8
OBJECT__6
10
31.568001
20
-24.503000
30
103.577003
70
192
0
VERTEX
8
OBJECT__6
10
31.649000
20
-21.903999
30
86.167999
70
192
0
VERTEX
8
OBJECT__6
10
26.731001
20
-24.834000
30
87.035004
70
192
0
VERTEX
8
OBJECT__6
10
25.900000
20
-25.112000
30
87.181999
70
192
0
VERTEX
8
OBJECT__6
10
20.479000
20
-26.743999
30
102.208000
70
192
0
VERTEX
8
OBJECT__6
10
21.315001
20
-26.643000
30
87.989998
70
192
0
VERTEX
8
OBJECT__6
10
19.347000
20
-27.010000
30
99.108002
70
192
0
VERTEX
8
OBJECT__6
10
15.652000
20
-27.250000
30
88.988998
70
192
0
VERTEX
8
OBJECT__6
10
21.618999
20
-26.476999
30
105.329002
70
192
0
VERTEX
8
OBJECT__6
10
35.846001
20
-17.985001
30
85.428001
70
192
0
VERTEX
8
OBJECT__6
10
39.132000
20
-13.253000
30
84.848999
70
192
0
VERTEX
8
OBJECT__6
10
45.591000
20
-10.157000
30
101.111000
70
192
0
VERTEX
8
OBJECT__6
10
34.549999
20
-19.195000
30
85.656998
70
192
0
VERTEX
8
OBJECT__6
10
48.144001
20
-7.399000
30
107.317001
70
192
0
VERTEX
8
OBJECT__6
10
48.041000
20
-8.085000
30
107.528000
70
192
0
VERTEX
8
OBJECT__6
10
40.326000
20
-10.398000
30
84.638000
70
192
0
VERTEX
8
OBJECT__6
10
41.361000
20
-7.924000
30
84.456001
70
192
0
VERTEX
8
OBJECT__6
10
48.738998
20
-3.441000
30
106.102997
70
192
0
VERTEX
8
OBJECT__6
10
42.430000
20
-2.236000
30
84.266998
70
192
0
VERTEX
8
OBJECT__6
10
43.056999
20
-0.033000
30
85.889000
70
192
0
VERTEX
8
OBJECT__6
10
42.521000
20
-0.033000
30
84.250999
70
192
0
VERTEX
8
OBJECT__6
10
48.869999
20
-0.036000
30
105.783997
70
192
0
VERTEX
8
OBJECT__6
10
45.950001
20
-13.854000
30
111.100998
70
192
0
VERTEX
8
OBJECT__6
10
44.534000
20
-16.537001
30
113.248001
70
192
0
VERTEX
8
OBJECT__6
10
46.738998
20
-12.359000
30
109.903999
70
192
0
VERTEX
8
OBJECT__6
10
47.502998
20
-9.850000
30
108.509003
70
192
0
VERTEX
8
OBJECT__6
10
41.831001
20
-19.625999
30
116.310997
70
192
0
VERTEX
8
OBJECT__6
10
37.945000
20
-22.268999
30
119.651001
70
192
0
VERTEX
8
OBJECT__6
10
42.345001
20
-19.039000
30
115.728996
70
192
0
VERTEX
8
OBJECT__6
10
43.466000
20
-17.757999
30
114.458000
70
192
0
VERTEX
8
OBJECT__6
10
31.393999
20
-24.612000
30
117.444000
70
192
0
VERTEX
8
OBJECT__6
10
25.254000
20
-25.622000
30
115.282997
70
192
0
VERTEX
8
OBJECT__6
10
36.160000
20
-23.049000
30
119.053001
70
192
0
VERTEX
8
OBJECT__6
10
36.570999
20
-22.882999
30
119.191002
70
192
0
VERTEX
8
OBJECT__6
10
36.313999
20
-22.997999
30
119.105003
70
192
0
VERTEX
8
OBJECT__6
10
0
20
0
30
0
70
128
71
1
72
2
73
3
0
VERTEX
8
OBJECT__6
10
0
20
0
30
0
70
128
71
2
72
4
73
3
0
VERTEX
8
OBJECT__6
10
0
20
0
30
0
70
128
71
2
72
5
73
4
0
VERTEX
8
OBJECT__6
10
0
20
0
30
0
70
128
71
2
72
6
73
7
0
VERTEX
8
OBJECT__6
10
0
20
0
30
0
70
128
71
7
72
6
73
8
0
VERTEX
8
OBJECT__6
10
0
20
0
30
0
70
128
71
8
72
9
73
7
0
VERTEX
8
OBJECT__6
10
0
20
0
30
0
70
128
71
2
72
10
73
6
0
VERTEX
8
OBJECT__6
10
0
20
0
30
0
70
128
71
1
72
11
73
12
0
VERTEX
8
OBJECT__6
10
0
20
0
30
0
70
128
71
12
72
13
73
1
0
VERTEX
8
OBJECT__6
10
0
20
0
30
0
70
128
71
1
72
14
73
11
0
VERTEX
8
OBJECT__6
10
0
20
0
30
0
70
128
71
15
72
16
73
13
0
VERTEX
8
OBJECT__6
10
0
20
0
30
0
70
128
71
15
72
17
73
18
0
VERTEX
8
OBJECT__6
10
0
20
0
30
0
70
128
71
18
72
19
73
15
0
VERTEX
8
OBJECT__6
10
0
20
0
30
0
70
128
71
13
72
17
73
15
0
VERTEX
8
OBJECT__6
10
0
20
0
30
0
70
128
71
19
72
20
73
21
0
VERTEX
8
OBJECT__6
10
0
20
0
30
0
70
128
71
20
72
22
73
21
0
VERTEX
8
OBJECT__6
10
0
20
0
30
0
70
128
71
19
72
18
73
20
0
VERTEX
8
OBJECT__6
10
0
20
0
30
0
70
128
71
21
72
23
73
19
0
VERTEX
8
OBJECT__6
10
0
20
0
30
0
70
128
71
1
72
24
73
25
0
VERTEX
8
OBJECT__6
10
0
20
0
30
0
70
128
71
1
72
26
73
24
0
VERTEX
8
OBJECT__6
10
0
20
0
30
0
70
128
71
1
72
13
73
27
0
VERTEX
8
OBJECT__6
10
0
20
0
30
0
70
128
71
27
72
26
73
1
0
VERTEX
8
OBJECT__6
10
0
20
0
30
0
70
128
71
2
72
28
73
29
0
VERTEX
8
OBJECT__6
10
0
20
0
30
0
70
128
71
2
72
30
73
28
0
VERTEX
8
OBJECT__6
10
0
20
0
30
0
70
128
71
2
72
1
73
31
0
VERTEX
8
OBJECT__6
10
0
20
0
30
0
70
128
71
31
72
30
73
2
0
VERTEX
8
OBJECT__6
10
0
20
0
30
0
70
128
71
2
72
32
73
33
0
VERTEX
8
OBJECT__6
10
0
20
0
30
0
70
128
71
2
72
34
73
32
0
VERTEX
8
OBJECT__6
10
0
20
0
30
0
70
128
71
2
72
35
73
36
0
VERTEX
8
OBJECT__6
10
0
20
0
30
0
70
128
71
36
72
34
73
2
0
VERTEX
8
OBJECT__6
10
0
20
0
30
0
70
128
71
33
72
10
73
2
0
VERTEX
8
OBJECT__6
10
0
20
0
30
0
70
128
71
29
72
35
73
2
0
VERTEX
8
OBJECT__6
10
0
20
0
30
0
70
128
71
25
72
31
73
1
0
VERTEX
8
OBJECT__6
10
0
20
0
30
0
70
128
71
16
72
27
73
13
0
VERTEX
8
OBJECT__6
10
0
20
0
30
0
70
128
71
12
72
17
73
13
0
VERTEX
8
OBJECT__6
10
0
20
0
30
0
70
128
71
7
72
5
73
2
0
VERTEX
8
OBJECT__6
10
0
20
0
30
0
70
128
71
3
72
14
73
1
0
SEQEND
8
OBJECT__6
0
POLYLINE
8
OBJECT__7
66
1
70
64
71
44
72
42
62
253
0
VERTEX
8
OBJECT__7
10
5.410000
20
-25.087000
30
90.794998
70
192
0
VERTEX
8
OBJECT__7
10
25.900000
20
-25.112000
30
87.181999
70
192
0
VERTEX
8
OBJECT__7
10
21.315001
20
-26.643000
30
87.989998
70
192
0
VERTEX
8
OBJECT__7
10
34.549999
20
-19.195000
30
85.656998
70
192
0
VERTEX
8
OBJECT__7
10
31.649000
20
-21.903999
30
86.167999
70
192
0
VERTEX
8
OBJECT__7
10
-8.957000
20
10.398000
30
93.328003
70
192
0
VERTEX
8
OBJECT__7
10
42.430000
20
-2.236000
30
84.266998
70
192
0
VERTEX
8
OBJECT__7
10
41.361000
20
-7.924000
30
84.456001
70
192
0
VERTEX
8
OBJECT__7
10
40.326000
20
-10.398000
30
84.638000
70
192
0
VERTEX
8
OBJECT__7
10
-11.061000
20
2.236000
30
93.698997
70
192
0
VERTEX
8
OBJECT__7
10
-9.992000
20
7.924000
30
93.510002
70
192
0
VERTEX
8
OBJECT__7
10
-8.982000
20
-10.338000
30
93.332001
70
192
0
VERTEX
8
OBJECT__7
10
-10.011000
20
-7.861000
30
93.514000
70
192
0
VERTEX
8
OBJECT__7
10
15.652000
20
-27.250000
30
88.988998
70
192
0
VERTEX
8
OBJECT__7
10
26.731001
20
-24.834000
30
87.035004
70
192
0
VERTEX
8
OBJECT__7
10
39.132000
20
-13.253000
30
84.848999
70
192
0
VERTEX
8
OBJECT__7
10
42.521000
20
-0.033000
30
84.250999
70
192
0
VERTEX
8
OBJECT__7
10
40.415001
20
10.373000
30
84.622002
70
192
0
VERTEX
8
OBJECT__7
10
41.923000
20
5.718000
30
84.356003
70
192
0
VERTEX
8
OBJECT__7
10
34.588001
20
19.156000
30
85.650002
70
192
0
VERTEX
8
OBJECT__7
10
37.256001
20
16.209999
30
85.179001
70
192
0
VERTEX
8
OBJECT__7
10
25.924999
20
25.021999
30
87.177002
70
192
0
VERTEX
8
OBJECT__7
10
15.717000
20
27.250000
30
88.976997
70
192
0
VERTEX
8
OBJECT__7
10
17.886999
20
27.158001
30
88.595001
70
192
0
VERTEX
8
OBJECT__7
10
5.469000
20
25.112000
30
90.783997
70
192
0
VERTEX
8
OBJECT__7
10
10.054000
20
26.643000
30
89.975998
70
192
0
VERTEX
8
OBJECT__7
10
-3.181000
20
19.195000
30
92.308998
70
192
0
VERTEX
8
OBJECT__7
10
-0.279000
20
21.903999
30
91.797997
70
192
0
VERTEX
8
OBJECT__7
10
-11.151000
20
0.033000
30
93.714996
70
192
0
VERTEX
8
OBJECT__7
10
-11.066000
20
-2.172000
30
93.699997
70
192
0
VERTEX
8
OBJECT__7
10
-3.226000
20
-19.149000
30
92.318001
70
192
0
VERTEX
8
OBJECT__7
10
-4.521000
20
-17.934000
30
92.545998
70
192
0
VERTEX
8
OBJECT__7
10
4.577000
20
-24.806000
30
90.942001
70
192
0
VERTEX
8
OBJECT__7
10
35.846001
20
-17.985001
30
85.428001
70
192
0
VERTEX
8
OBJECT__7
10
40.140999
20
11.217000
30
84.670998
70
192
0
VERTEX
8
OBJECT__7
10
28.737000
20
23.809999
30
86.681999
70
192
0
VERTEX
8
OBJECT__7
10
4.638000
20
24.834000
30
90.931000
70
192
0
VERTEX
8
OBJECT__7
10
-7.763000
20
13.253000
30
93.117996
70
192
0
VERTEX
8
OBJECT__7
10
-7.796000
20
-13.195000
30
93.123001
70
192
0
VERTEX
8
OBJECT__7
10
-0.334000
20
-21.863001
30
91.807999
70
192
0
VERTEX
8
OBJECT__7
10
33.396000
20
20.472000
30
85.860001
70
192
0
VERTEX
8
OBJECT__7
10
-4.476000
20
17.985001
30
92.538002
70
192
0
VERTEX
8
OBJECT__7
10
9.990000
20
-26.629000
30
89.987000
70
192
0
VERTEX
8
OBJECT__7
10
23.488001
20
26.072001
30
87.607002
70
192
0
VERTEX
8
OBJECT__7
10
0
20
0
30
0
70
128
71
1
72
2
73
3
0
VERTEX
8
OBJECT__7
10
0
20
0
30
0
70
128
71
1
72
4
73
5
0
VERTEX
8
OBJECT__7
10
0
20
0
30
0
70
128
71
6
72
7
73
8
0
VERTEX
8
OBJECT__7
10
0
20
0
30
0
70
128
71
9
72
10
73
11
0
VERTEX
8
OBJECT__7
10
0
20
0
30
0
70
128
71
9
72
12
73
13
0
VERTEX
8
OBJECT__7
10
0
20
0
30
0
70
128
71
3
72
14
73
1
0
VERTEX
8
OBJECT__7
10
0
20
0
30
0
70
128
71
5
72
15
73
1
0
VERTEX
8
OBJECT__7
10
0
20
0
30
0
70
128
71
1
72
9
73
16
0
VERTEX
8
OBJECT__7
10
0
20
0
30
0
70
128
71
6
72
17
73
7
0
VERTEX
8
OBJECT__7
10
0
20
0
30
0
70
128
71
6
72
18
73
19
0
VERTEX
8
OBJECT__7
10
0
20
0
30
0
70
128
71
6
72
20
73
21
0
VERTEX
8
OBJECT__7
10
0
20
0
30
0
70
128
71
22
72
23
73
24
0
VERTEX
8
OBJECT__7
10
0
20
0
30
0
70
128
71
22
72
25
73
26
0
VERTEX
8
OBJECT__7
10
0
20
0
30
0
70
128
71
22
72
27
73
28
0
VERTEX
8
OBJECT__7
10
0
20
0
30
0
70
128
71
9
72
29
73
10
0
VERTEX
8
OBJECT__7
10
0
20
0
30
0
70
128
71
13
72
30
73
9
0
VERTEX
8
OBJECT__7
10
0
20
0
30
0
70
128
71
9
72
31
73
32
0
VERTEX
8
OBJECT__7
10
0
20
0
30
0
70
128
71
9
72
1
73
33
0
VERTEX
8
OBJECT__7
10
0
20
0
30
0
70
128
71
15
72
2
73
1
0
VERTEX
8
OBJECT__7
10
0
20
0
30
0
70
128
71
16
72
34
73
1
0
VERTEX
8
OBJECT__7
10
0
20
0
30
0
70
128
71
19
72
17
73
6
0
VERTEX
8
OBJECT__7
10
0
20
0
30
0
70
128
71
21
72
35
73
6
0
VERTEX
8
OBJECT__7
10
0
20
0
30
0
70
128
71
6
72
22
73
36
0
VERTEX
8
OBJECT__7
10
0
20
0
30
0
70
128
71
26
72
23
73
22
0
VERTEX
8
OBJECT__7
10
0
20
0
30
0
70
128
71
28
72
37
73
22
0
VERTEX
8
OBJECT__7
10
0
20
0
30
0
70
128
71
22
72
6
73
38
0
VERTEX
8
OBJECT__7
10
0
20
0
30
0
70
128
71
30
72
29
73
9
0
VERTEX
8
OBJECT__7
10
0
20
0
30
0
70
128
71
32
72
39
73
9
0
VERTEX
8
OBJECT__7
10
0
20
0
30
0
70
128
71
33
72
40
73
9
0
VERTEX
8
OBJECT__7
10
0
20
0
30
0
70
128
71
34
72
4
73
1
0
VERTEX
8
OBJECT__7
10
0
20
0
30
0
70
128
71
35
72
18
73
6
0
VERTEX
8
OBJECT__7
10
0
20
0
30
0
70
128
71
36
72
41
73
6
0
VERTEX
8
OBJECT__7
10
0
20
0
30
0
70
128
71
37
72
25
73
22
0
VERTEX
8
OBJECT__7
10
0
20
0
30
0
70
128
71
38
72
42
73
22
0
VERTEX
8
OBJECT__7
10
0
20
0
30
0
70
128
71
39
72
12
73
9
0
VERTEX
8
OBJECT__7
10
0
20
0
30
0
70
128
71
14
72
43
73
1
0
VERTEX
8
OBJECT__7
10
0
20
0
30
0
70
128
71
41
72
20
73
6
0
VERTEX
8
OBJECT__7
10
0
20
0
30
0
70
128
71
42
72
27
73
22
0
VERTEX
8
OBJECT__7
10
0
20
0
30
0
70
128
71
40
72
31
73
9
0
VERTEX
8
OBJECT__7
10
0
20
0
30
0
70
128
71
24
72
44
73
22
0
VERTEX
8
OBJECT__7
10
0
20
0
30
0
70
128
71
8
72
9
73
6
0
VERTEX
8
OBJECT__7
10
0
20
0
30
0
70
128
71
11
72
6
73
9
0
SEQEND
8
OBJECT__7
0
POLYLINE
8
OBJECT__8
66
1
70
64
71
38
72
37
62
253
0
VERTEX
8
OBJECT__8
10
19.441999
20
27.002001
30
99.181999
70
192
0
VERTEX
8
OBJECT__8
10
15.717000
20
27.250000
30
88.976997
70
192
0
VERTEX
8
OBJECT__8
10
10.054000
20
26.643000
30
89.975998
70
192
0
VERTEX
8
OBJECT__8
10
10.191000
20
24.959999
30
104.087997
70
192
0
VERTEX
8
OBJECT__8
10
20.558001
20
26.737000
30
102.239998
70
192
0
VERTEX
8
OBJECT__8
10
-8.957000
20
10.398000
30
93.328003
70
192
0
VERTEX
8
OBJECT__8
10
-9.992000
20
7.924000
30
93.510002
70
192
0
VERTEX
8
OBJECT__8
10
-9.065000
20
7.598000
30
97.502998
70
192
0
VERTEX
8
OBJECT__8
10
-8.419000
20
9.093000
30
97.941002
70
192
0
VERTEX
8
OBJECT__8
10
-8.352000
20
9.249000
30
97.987000
70
192
0
VERTEX
8
OBJECT__8
10
-11.061000
20
2.236000
30
93.698997
70
192
0
VERTEX
8
OBJECT__8
10
-10.149000
20
3.447000
30
96.831001
70
192
0
VERTEX
8
OBJECT__8
10
-11.151000
20
0.033000
30
93.714996
70
192
0
VERTEX
8
OBJECT__8
10
-10.397000
20
0.033000
30
96.674004
70
192
0
VERTEX
8
OBJECT__8
10
-10.366000
20
1.262000
30
96.707001
70
192
0
VERTEX
8
OBJECT__8
10
-3.181000
20
19.195000
30
92.308998
70
192
0
VERTEX
8
OBJECT__8
10
-0.330000
20
18.562000
30
103.410004
70
192
0
VERTEX
8
OBJECT__8
10
0.475000
20
19.136000
30
103.906998
70
192
0
VERTEX
8
OBJECT__8
10
-4.243000
20
15.120000
30
100.848999
70
192
0
VERTEX
8
OBJECT__8
10
-4.476000
20
17.985001
30
92.538002
70
192
0
VERTEX
8
OBJECT__8
10
-6.082000
20
12.946000
30
99.574997
70
192
0
VERTEX
8
OBJECT__8
10
-5.067000
20
14.146000
30
100.278000
70
192
0
VERTEX
8
OBJECT__8
10
-7.763000
20
13.253000
30
93.117996
70
192
0
VERTEX
8
OBJECT__8
10
-7.602000
20
10.469000
30
98.511002
70
192
0
VERTEX
8
OBJECT__8
10
5.469000
20
25.112000
30
90.783997
70
192
0
VERTEX
8
OBJECT__8
10
1.941000
20
19.968000
30
104.742996
70
192
0
VERTEX
8
OBJECT__8
10
3.024000
20
20.583000
30
105.361000
70
192
0
VERTEX
8
OBJECT__8
10
-0.279000
20
21.903999
30
91.797997
70
192
0
VERTEX
8
OBJECT__8
10
0.657000
20
19.240000
30
104.011002
70
192
0
VERTEX
8
OBJECT__8
10
4.638000
20
24.834000
30
90.931000
70
192
0
VERTEX
8
OBJECT__8
10
5.807000
20
22.162001
30
106.946999
70
192
0
VERTEX
8
OBJECT__8
10
9.650000
20
23.561001
30
108.842003
70
192
0
VERTEX
8
OBJECT__8
10
11.750000
20
24.325001
30
109.876999
70
192
0
VERTEX
8
OBJECT__8
10
12.593000
20
24.475000
30
110.236000
70
192
0
VERTEX
8
OBJECT__8
10
21.667000
20
26.473000
30
105.277000
70
192
0
VERTEX
8
OBJECT__8
10
17.941999
20
25.431999
30
112.514999
70
192
0
VERTEX
8
OBJECT__8
10
18.823999
20
25.590000
30
112.889999
70
192
0
VERTEX
8
OBJECT__8
10
25.346001
20
25.600000
30
115.359001
70
192
0
VERTEX
8
OBJECT__8
10
0
20
0
30
0
70
128
71
1
72
2
73
3
0
VERTEX
8
OBJECT__8
10
0
20
0
30
0
70
128
71
3
72
4
73
1
0
VERTEX
8
OBJECT__8
10
0
20
0
30
0
70
128
71
4
72
5
73
1
0
VERTEX
8
OBJECT__8
10
0
20
0
30
0
70
128
71
6
72
7
73
8
0
VERTEX
8
OBJECT__8
10
0
20
0
30
0
70
128
71
8
72
9
73
6
0
VERTEX
8
OBJECT__8
10
0
20
0
30
0
70
128
71
9
72
10
73
6
0
VERTEX
8
OBJECT__8
10
0
20
0
30
0
70
128
71
7
72
11
73
12
0
VERTEX
8
OBJECT__8
10
0
20
0
30
0
70
128
71
13
72
14
73
15
0
VERTEX
8
OBJECT__8
10
0
20
0
30
0
70
128
71
15
72
11
73
13
0
VERTEX
8
OBJECT__8
10
0
20
0
30
0
70
128
71
15
72
12
73
11
0
VERTEX
8
OBJECT__8
10
0
20
0
30
0
70
128
71
12
72
8
73
7
0
VERTEX
8
OBJECT__8
10
0
20
0
30
0
70
128
71
16
72
17
73
18
0
VERTEX
8
OBJECT__8
10
0
20
0
30
0
70
128
71
16
72
19
73
17
0
VERTEX
8
OBJECT__8
10
0
20
0
30
0
70
128
71
19
72
16
73
20
0
VERTEX
8
OBJECT__8
10
0
20
0
30
0
70
128
71
20
72
21
73
22
0
VERTEX
8
OBJECT__8
10
0
20
0
30
0
70
128
71
20
72
22
73
19
0
VERTEX
8
OBJECT__8
10
0
20
0
30
0
70
128
71
23
72
6
73
24
0
VERTEX
8
OBJECT__8
10
0
20
0
30
0
70
128
71
21
72
20
73
23
0
VERTEX
8
OBJECT__8
10
0
20
0
30
0
70
128
71
24
72
21
73
23
0
VERTEX
8
OBJECT__8
10
0
20
0
30
0
70
128
71
25
72
26
73
27
0
VERTEX
8
OBJECT__8
10
0
20
0
30
0
70
128
71
28
72
16
73
29
0
VERTEX
8
OBJECT__8
10
0
20
0
30
0
70
128
71
26
72
25
73
30
0
VERTEX
8
OBJECT__8
10
0
20
0
30
0
70
128
71
30
72
28
73
26
0
VERTEX
8
OBJECT__8
10
0
20
0
30
0
70
128
71
29
72
26
73
28
0
VERTEX
8
OBJECT__8
10
0
20
0
30
0
70
128
71
4
72
31
73
32
0
VERTEX
8
OBJECT__8
10
0
20
0
30
0
70
128
71
4
72
27
73
31
0
VERTEX
8
OBJECT__8
10
0
20
0
30
0
70
128
71
32
72
33
73
4
0
VERTEX
8
OBJECT__8
10
0
20
0
30
0
70
128
71
4
72
34
73
35
0
VERTEX
8
OBJECT__8
10
0
20
0
30
0
70
128
71
35
72
36
73
37
0
VERTEX
8
OBJECT__8
10
0
20
0
30
0
70
128
71
35
72
34
73
36
0
VERTEX
8
OBJECT__8
10
0
20
0
30
0
70
128
71
37
72
38
73
35
0
VERTEX
8
OBJECT__8
10
0
20
0
30
0
70
128
71
35
72
5
73
4
0
VERTEX
8
OBJECT__8
10
0
20
0
30
0
70
128
71
33
72
34
73
4
0
VERTEX
8
OBJECT__8
10
0
20
0
30
0
70
128
71
27
72
4
73
25
0
VERTEX
8
OBJECT__8
10
0
20
0
30
0
70
128
71
18
72
29
73
16
0
VERTEX
8
OBJECT__8
10
0
20
0
30
0
70
128
71
10
72
24
73
6
0
VERTEX
8
OBJECT__8
10
0
20
0
30
0
70
128
71
3
72
25
73
4
0
SEQEND
8
OBJECT__8
0
POLYLINE
8
OBJECT__9
66
1
70
64
71
38
72
37
62
253
0
VERTEX
8
OBJECT__9
10
19.347000
20
-27.010000
30
99.108002
70
192
0
VERTEX
8
OBJECT__9
10
10.128000
20
-24.944000
30
104.049004
70
192
0
VERTEX
8
OBJECT__9
10
9.990000
20
-26.629000
30
89.987000
70
192
0
VERTEX
8
OBJECT__9
10
5.410000
20
-25.087000
30
90.794998
70
192
0
VERTEX
8
OBJECT__9
10
15.652000
20
-27.250000
30
88.988998
70
192
0
VERTEX
8
OBJECT__9
10
21.618999
20
-26.476999
30
105.329002
70
192
0
VERTEX
8
OBJECT__9
10
17.955999
20
-25.410000
30
112.471001
70
192
0
VERTEX
8
OBJECT__9
10
16.461000
20
-25.327999
30
111.886002
70
192
0
VERTEX
8
OBJECT__9
10
25.254000
20
-25.622000
30
115.282997
70
192
0
VERTEX
8
OBJECT__9
10
23.622999
20
-25.719999
30
114.685997
70
192
0
VERTEX
8
OBJECT__9
10
12.531000
20
-24.413000
30
110.142998
70
192
0
VERTEX
8
OBJECT__9
10
20.479000
20
-26.743999
30
102.208000
70
192
0
VERTEX
8
OBJECT__9
10
10.201000
20
-23.870001
30
109.109001
70
192
0
VERTEX
8
OBJECT__9
10
9.629000
20
-23.628000
30
108.815002
70
192
0
VERTEX
8
OBJECT__9
10
3.901000
20
-21.202000
30
105.860001
70
192
0
VERTEX
8
OBJECT__9
10
1.991000
20
-19.947001
30
104.710999
70
192
0
VERTEX
8
OBJECT__9
10
-0.334000
20
-21.863001
30
91.807999
70
192
0
VERTEX
8
OBJECT__9
10
4.577000
20
-24.806000
30
90.942001
70
192
0
VERTEX
8
OBJECT__9
10
0.723000
20
-19.113001
30
103.948997
70
192
0
VERTEX
8
OBJECT__9
10
-3.226000
20
-19.149000
30
92.318001
70
192
0
VERTEX
8
OBJECT__9
10
2.987000
20
-20.601000
30
105.309998
70
192
0
VERTEX
8
OBJECT__9
10
-7.796000
20
-13.195000
30
93.123001
70
192
0
VERTEX
8
OBJECT__9
10
-6.993000
20
-11.556000
30
98.817001
70
192
0
VERTEX
8
OBJECT__9
10
-7.654000
20
-10.441000
30
98.348000
70
192
0
VERTEX
8
OBJECT__9
10
-4.521000
20
-17.934000
30
92.545998
70
192
0
VERTEX
8
OBJECT__9
10
-4.961000
20
-14.076000
30
100.247002
70
192
0
VERTEX
8
OBJECT__9
10
-3.801000
20
-15.515000
30
101.063004
70
192
0
VERTEX
8
OBJECT__9
10
-1.241000
20
-17.820999
30
102.766998
70
192
0
VERTEX
8
OBJECT__9
10
-10.394000
20
-0.001000
30
96.675003
70
192
0
VERTEX
8
OBJECT__9
10
-11.151000
20
0.033000
30
93.714996
70
192
0
VERTEX
8
OBJECT__9
10
-11.066000
20
-2.172000
30
93.699997
70
192
0
VERTEX
8
OBJECT__9
10
-9.968000
20
-4.312000
30
96.830002
70
192
0
VERTEX
8
OBJECT__9
10
-10.011000
20
-7.861000
30
93.514000
70
192
0
VERTEX
8
OBJECT__9
10
-9.517000
20
-6.117000
30
97.088997
70
192
0
VERTEX
8
OBJECT__9
10
-8.256000
20
-9.147000
30
97.934998
70
192
0
VERTEX
8
OBJECT__9
10
-8.982000
20
-10.338000
30
93.332001
70
192
0
VERTEX
8
OBJECT__9
10
-7.868000
20
-10.080000
30
98.195999
70
192
0
VERTEX
8
OBJECT__9
10
-10.397000
20
0.033000
30
96.674004
70
192
0
VERTEX
8
OBJECT__9
10
0
20
0
30
0
70
128
71
1
72
2
73
3
0
VERTEX
8
OBJECT__9
10
0
20
0
30
0
70
128
71
2
72
4
73
3
0
VERTEX
8
OBJECT__9
10
0
20
0
30
0
70
128
71
3
72
5
73
1
0
VERTEX
8
OBJECT__9
10
0
20
0
30
0
70
128
71
6
72
7
73
8
0
VERTEX
8
OBJECT__9
10
0
20
0
30
0
70
128
71
6
72
9
73
10
0
VERTEX
8
OBJECT__9
10
0
20
0
30
0
70
128
71
10
72
7
73
6
0
VERTEX
8
OBJECT__9
10
0
20
0
30
0
70
128
71
11
72
2
73
12
0
VERTEX
8
OBJECT__9
10
0
20
0
30
0
70
128
71
12
72
6
73
11
0
VERTEX
8
OBJECT__9
10
0
20
0
30
0
70
128
71
2
72
13
73
14
0
VERTEX
8
OBJECT__9
10
0
20
0
30
0
70
128
71
2
72
11
73
13
0
VERTEX
8
OBJECT__9
10
0
20
0
30
0
70
128
71
14
72
15
73
2
0
VERTEX
8
OBJECT__9
10
0
20
0
30
0
70
128
71
16
72
17
73
18
0
VERTEX
8
OBJECT__9
10
0
20
0
30
0
70
128
71
17
72
16
73
19
0
VERTEX
8
OBJECT__9
10
0
20
0
30
0
70
128
71
19
72
20
73
17
0
VERTEX
8
OBJECT__9
10
0
20
0
30
0
70
128
71
4
72
2
73
21
0
VERTEX
8
OBJECT__9
10
0
20
0
30
0
70
128
71
21
72
16
73
4
0
VERTEX
8
OBJECT__9
10
0
20
0
30
0
70
128
71
22
72
23
73
24
0
VERTEX
8
OBJECT__9
10
0
20
0
30
0
70
128
71
25
72
26
73
23
0
VERTEX
8
OBJECT__9
10
0
20
0
30
0
70
128
71
27
72
26
73
25
0
VERTEX
8
OBJECT__9
10
0
20
0
30
0
70
128
71
25
72
20
73
27
0
VERTEX
8
OBJECT__9
10
0
20
0
30
0
70
128
71
20
72
19
73
28
0
VERTEX
8
OBJECT__9
10
0
20
0
30
0
70
128
71
28
72
27
73
20
0
VERTEX
8
OBJECT__9
10
0
20
0
30
0
70
128
71
23
72
22
73
25
0
VERTEX
8
OBJECT__9
10
0
20
0
30
0
70
128
71
29
72
30
73
31
0
VERTEX
8
OBJECT__9
10
0
20
0
30
0
70
128
71
31
72
32
73
29
0
VERTEX
8
OBJECT__9
10
0
20
0
30
0
70
128
71
33
72
34
73
32
0
VERTEX
8
OBJECT__9
10
0
20
0
30
0
70
128
71
32
72
31
73
33
0
VERTEX
8
OBJECT__9
10
0
20
0
30
0
70
128
71
35
72
34
73
33
0
VERTEX
8
OBJECT__9
10
0
20
0
30
0
70
128
71
36
72
37
73
35
0
VERTEX
8
OBJECT__9
10
0
20
0
30
0
70
128
71
36
72
24
73
37
0
VERTEX
8
OBJECT__9
10
0
20
0
30
0
70
128
71
33
72
36
73
35
0
VERTEX
8
OBJECT__9
10
0
20
0
30
0
70
128
71
29
72
38
73
30
0
VERTEX
8
OBJECT__9
10
0
20
0
30
0
70
128
71
24
72
36
73
22
0
VERTEX
8
OBJECT__9
10
0
20
0
30
0
70
128
71
18
72
4
73
16
0
VERTEX
8
OBJECT__9
10
0
20
0
30
0
70
128
71
15
72
21
73
2
0
VERTEX
8
OBJECT__9
10
0
20
0
30
0
70
128
71
8
72
11
73
6
0
VERTEX
8
OBJECT__9
10
0
20
0
30
0
70
128
71
1
72
12
73
2
0
SEQEND
8
OBJECT__9
0
POLYLINE
8
OBJECT__10
66
1
70
64
71
111
72
111
62
253
0
VERTEX
8
OBJECT__10
10
5.041000
20
21.931999
30
91.477997
70
192
0
VERTEX
8
OBJECT__10
10
8.606000
20
23.966999
30
89.761002
70
192
0
VERTEX
8
OBJECT__10
10
6.929000
20
23.395000
30
90.055000
70
192
0
VERTEX
8
OBJECT__10
10
8.823000
20
24.014999
30
89.723000
70
192
0
VERTEX
8
OBJECT__10
10
13.569000
20
24.395000
30
89.973999
70
192
0
VERTEX
8
OBJECT__10
10
12.044000
20
24.736000
30
89.155998
70
192
0
VERTEX
8
OBJECT__10
10
13.342000
20
24.833000
30
88.926003
70
192
0
VERTEX
8
OBJECT__10
10
-2.035000
20
16.506001
30
92.725998
70
192
0
VERTEX
8
OBJECT__10
10
0.757000
20
19.938000
30
91.146004
70
192
0
VERTEX
8
OBJECT__10
10
-0.214000
20
19.153000
30
91.316002
70
192
0
VERTEX
8
OBJECT__10
10
1.748000
20
20.591000
30
90.971001
70
192
0
VERTEX
8
OBJECT__10
10
4.657000
20
22.330999
30
90.457001
70
192
0
VERTEX
8
OBJECT__10
10
3.717000
20
21.889999
30
90.623001
70
192
0
VERTEX
8
OBJECT__10
10
-6.703000
20
8.850000
30
93.549004
70
192
0
VERTEX
8
OBJECT__10
10
-5.567000
20
12.751000
30
92.261002
70
192
0
VERTEX
8
OBJECT__10
10
-7.150000
20
9.536000
30
92.537003
70
192
0
VERTEX
8
OBJECT__10
10
-4.906000
20
13.819000
30
92.144997
70
192
0
VERTEX
8
OBJECT__10
10
-3.920000
20
15.117000
30
91.970001
70
192
0
VERTEX
8
OBJECT__10
10
-2.574000
20
16.830000
30
91.731003
70
192
0
VERTEX
8
OBJECT__10
10
-2.753000
20
16.653999
30
91.763000
70
192
0
VERTEX
8
OBJECT__10
10
-8.332000
20
0.000000
30
93.835999
70
192
0
VERTEX
8
OBJECT__10
10
-8.528000
20
4.919000
30
92.783997
70
192
0
VERTEX
8
OBJECT__10
10
-8.975000
20
1.355000
30
92.860001
70
192
0
VERTEX
8
OBJECT__10
10
-7.614000
20
8.112000
30
92.620003
70
192
0
VERTEX
8
OBJECT__10
10
-8.254000
20
6.148000
30
92.735001
70
192
0
VERTEX
8
OBJECT__10
10
-8.959000
20
0.379000
30
92.857002
70
192
0
VERTEX
8
OBJECT__10
10
-7.318000
20
9.021000
30
92.567001
70
192
0
VERTEX
8
OBJECT__10
10
-6.703000
20
-8.850000
30
93.549004
70
192
0
VERTEX
8
OBJECT__10
10
-8.773000
20
-3.462000
30
92.825996
70
192
0
VERTEX
8
OBJECT__10
10
-8.033000
20
-6.973000
30
92.695000
70
192
0
VERTEX
8
OBJECT__10
10
-8.949000
20
-0.196000
30
92.856003
70
192
0
VERTEX
8
OBJECT__10
10
-8.915000
20
-2.208000
30
92.849998
70
192
0
VERTEX
8
OBJECT__10
10
-7.654000
20
-8.016000
30
92.627998
70
192
0
VERTEX
8
OBJECT__10
10
-8.952000
20
0.001000
30
92.856003
70
192
0
VERTEX
8
OBJECT__10
10
-6.274000
20
-11.455000
30
92.384003
70
192
0
VERTEX
8
OBJECT__10
10
-4.430000
20
-14.522000
30
92.060997
70
192
0
VERTEX
8
OBJECT__10
10
-2.035000
20
-16.506001
30
92.725998
70
192
0
VERTEX
8
OBJECT__10
10
-7.293000
20
-9.010000
30
92.563004
70
192
0
VERTEX
8
OBJECT__10
10
-6.818000
20
-10.316000
30
92.478996
70
192
0
VERTEX
8
OBJECT__10
10
-4.005000
20
-15.044000
30
91.985001
70
192
0
VERTEX
8
OBJECT__10
10
5.041000
20
-21.931999
30
91.477997
70
192
0
VERTEX
8
OBJECT__10
10
0.863000
20
-19.966000
30
91.126999
70
192
0
VERTEX
8
OBJECT__10
10
1.434000
20
-20.438999
30
91.027000
70
192
0
VERTEX
8
OBJECT__10
10
4.449000
20
-22.284000
30
90.492996
70
192
0
VERTEX
8
OBJECT__10
10
-1.311000
20
-18.160999
30
91.508003
70
192
0
VERTEX
8
OBJECT__10
10
-2.559000
20
-16.820999
30
91.727997
70
192
0
VERTEX
8
OBJECT__10
10
-2.194000
20
-17.268999
30
91.664001
70
192
0
VERTEX
8
OBJECT__10
10
7.842000
20
-23.664000
30
89.894997
70
192
0
VERTEX
8
OBJECT__10
10
8.897000
20
-24.052000
30
89.709999
70
192
0
VERTEX
8
OBJECT__10
10
13.569000
20
-24.395000
30
89.973999
70
192
0
VERTEX
8
OBJECT__10
10
12.352000
20
-24.780001
30
89.100998
70
192
0
VERTEX
8
OBJECT__10
10
4.637000
20
-22.375000
30
90.459999
70
192
0
VERTEX
8
OBJECT__10
10
5.569000
20
-22.827999
30
90.294998
70
192
0
VERTEX
8
OBJECT__10
10
22.399000
20
-23.565001
30
88.417999
70
192
0
VERTEX
8
OBJECT__10
10
20.622000
20
-24.476000
30
87.643997
70
192
0
VERTEX
8
OBJECT__10
10
21.833000
20
-24.188000
30
87.430000
70
192
0
VERTEX
8
OBJECT__10
10
17.127001
20
-24.952999
30
88.258003
70
192
0
VERTEX
8
OBJECT__10
10
15.671000
20
-24.938000
30
88.514000
70
192
0
VERTEX
8
OBJECT__10
10
15.567000
20
-24.937000
30
88.532997
70
192
0
VERTEX
8
OBJECT__10
10
13.338000
20
-24.888000
30
88.926003
70
192
0
VERTEX
8
OBJECT__10
10
13.590000
20
-24.916000
30
88.882004
70
192
0
VERTEX
8
OBJECT__10
10
30.336000
20
-19.551001
30
87.017998
70
192
0
VERTEX
8
OBJECT__10
10
25.183001
20
-23.033001
30
86.835999
70
192
0
VERTEX
8
OBJECT__10
10
23.423000
20
-23.639999
30
87.148003
70
192
0
VERTEX
8
OBJECT__10
10
28.316999
20
-21.412001
30
86.287003
70
192
0
VERTEX
8
OBJECT__10
10
29.362000
20
-20.735001
30
86.102997
70
192
0
VERTEX
8
OBJECT__10
10
30.379000
20
-19.926001
30
85.921997
70
192
0
VERTEX
8
OBJECT__10
10
22.337000
20
-24.014000
30
87.339996
70
192
0
VERTEX
8
OBJECT__10
10
36.310001
20
-12.898000
30
85.964996
70
192
0
VERTEX
8
OBJECT__10
10
35.325001
20
-14.971000
30
85.051003
70
192
0
VERTEX
8
OBJECT__10
10
35.341000
20
-14.951000
30
85.047997
70
192
0
VERTEX
8
OBJECT__10
10
32.147999
20
-18.520000
30
85.609001
70
192
0
VERTEX
8
OBJECT__10
10
34.573002
20
-15.944000
30
85.181999
70
192
0
VERTEX
8
OBJECT__10
10
30.410000
20
-19.902000
30
85.917000
70
192
0
VERTEX
8
OBJECT__10
10
39.513000
20
-4.502000
30
85.400002
70
192
0
VERTEX
8
OBJECT__10
10
38.972000
20
-7.866000
30
84.405998
70
192
0
VERTEX
8
OBJECT__10
10
39.099998
20
-7.485000
30
84.384003
70
192
0
VERTEX
8
OBJECT__10
10
37.247002
20
-11.926000
30
84.710999
70
192
0
VERTEX
8
OBJECT__10
10
38.698002
20
-8.681000
30
84.453003
70
192
0
VERTEX
8
OBJECT__10
10
36.491001
20
-13.127000
30
84.845001
70
192
0
VERTEX
8
OBJECT__10
10
39.513000
20
4.502000
30
85.400002
70
192
0
VERTEX
8
OBJECT__10
10
40.216999
20
0.827000
30
84.185997
70
192
0
VERTEX
8
OBJECT__10
10
39.844002
20
4.406000
30
84.253998
70
192
0
VERTEX
8
OBJECT__10
10
40.223000
20
0.043000
30
84.183998
70
192
0
VERTEX
8
OBJECT__10
10
39.775002
20
-4.585000
30
84.265999
70
192
0
VERTEX
8
OBJECT__10
10
39.914001
20
-3.988000
30
84.241997
70
192
0
VERTEX
8
OBJECT__10
10
40.226002
20
-0.438000
30
84.183998
70
192
0
VERTEX
8
OBJECT__10
10
36.310001
20
12.898000
30
85.964996
70
192
0
VERTEX
8
OBJECT__10
10
38.557999
20
9.056000
30
84.477997
70
192
0
VERTEX
8
OBJECT__10
10
37.041000
20
12.304000
30
84.748001
70
192
0
VERTEX
8
OBJECT__10
10
38.978001
20
7.870000
30
84.404999
70
192
0
VERTEX
8
OBJECT__10
10
38.979000
20
7.866000
30
84.404999
70
192
0
VERTEX
8
OBJECT__10
10
39.798000
20
4.590000
30
84.262001
70
192
0
VERTEX
8
OBJECT__10
10
30.336000
20
19.551001
30
87.017998
70
192
0
VERTEX
8
OBJECT__10
10
34.303001
20
16.268999
30
85.228996
70
192
0
VERTEX
8
OBJECT__10
10
31.815001
20
18.820999
30
85.667999
70
192
0
VERTEX
8
OBJECT__10
10
35.089001
20
15.288000
30
85.092003
70
192
0
VERTEX
8
OBJECT__10
10
35.328999
20
14.922000
30
85.050003
70
192
0
VERTEX
8
OBJECT__10
10
36.500000
20
13.132000
30
84.843002
70
192
0
VERTEX
8
OBJECT__10
10
22.399000
20
23.565001
30
88.417999
70
192
0
VERTEX
8
OBJECT__10
10
27.938999
20
21.639000
30
86.352997
70
192
0
VERTEX
8
OBJECT__10
10
24.757000
20
23.211000
30
86.911003
70
192
0
VERTEX
8
OBJECT__10
10
29.000000
20
20.978001
30
86.166000
70
192
0
VERTEX
8
OBJECT__10
10
30.223000
20
20.041000
30
85.949997
70
192
0
VERTEX
8
OBJECT__10
10
23.280001
20
23.690001
30
87.172997
70
192
0
VERTEX
8
OBJECT__10
10
30.408001
20
19.899000
30
85.917000
70
192
0
VERTEX
8
OBJECT__10
10
16.697001
20
24.976000
30
88.333000
70
192
0
VERTEX
8
OBJECT__10
10
15.581000
20
25.000999
30
88.529999
70
192
0
VERTEX
8
OBJECT__10
10
20.194000
20
24.562000
30
87.719002
70
192
0
VERTEX
8
OBJECT__10
10
22.332001
20
23.997000
30
87.341003
70
192
0
VERTEX
8
OBJECT__10
10
21.407000
20
24.296000
30
87.504997
70
192
0
VERTEX
8
OBJECT__10
10
0
20
0
30
0
70
128
71
1
72
2
73
3
0
VERTEX
8
OBJECT__10
10
0
20
0
30
0
70
128
71
1
72
4
73
2
0
VERTEX
8
OBJECT__10
10
0
20
0
30
0
70
128
71
5
72
6
73
4
0
VERTEX
8
OBJECT__10
10
0
20
0
30
0
70
128
71
5
72
7
73
6
0
VERTEX
8
OBJECT__10
10
0
20
0
30
0
70
128
71
4
72
1
73
5
0
VERTEX
8
OBJECT__10
10
0
20
0
30
0
70
128
71
8
72
9
73
10
0
VERTEX
8
OBJECT__10
10
0
20
0
30
0
70
128
71
1
72
11
73
9
0
VERTEX
8
OBJECT__10
10
0
20
0
30
0
70
128
71
9
72
8
73
1
0
VERTEX
8
OBJECT__10
10
0
20
0
30
0
70
128
71
1
72
12
73
13
0
VERTEX
8
OBJECT__10
10
0
20
0
30
0
70
128
71
13
72
11
73
1
0
VERTEX
8
OBJECT__10
10
0
20
0
30
0
70
128
71
14
72
15
73
16
0
VERTEX
8
OBJECT__10
10
0
20
0
30
0
70
128
71
8
72
17
73
15
0
VERTEX
8
OBJECT__10
10
0
20
0
30
0
70
128
71
15
72
14
73
8
0
VERTEX
8
OBJECT__10
10
0
20
0
30
0
70
128
71
8
72
18
73
17
0
VERTEX
8
OBJECT__10
10
0
20
0
30
0
70
128
71
8
72
19
73
20
0
VERTEX
8
OBJECT__10
10
0
20
0
30
0
70
128
71
20
72
18
73
8
0
VERTEX
8
OBJECT__10
10
0
20
0
30
0
70
128
71
21
72
14
73
22
0
VERTEX
8
OBJECT__10
10
0
20
0
30
0
70
128
71
22
72
23
73
21
0
VERTEX
8
OBJECT__10
10
0
20
0
30
0
70
128
71
14
72
24
73
25
0
VERTEX
8
OBJECT__10
10
0
20
0
30
0
70
128
71
25
72
22
73
14
0
VERTEX
8
OBJECT__10
10
0
20
0
30
0
70
128
71
23
72
26
73
21
0
VERTEX
8
OBJECT__10
10
0
20
0
30
0
70
128
71
14
72
27
73
24
0
VERTEX
8
OBJECT__10
10
0
20
0
30
0
70
128
71
28
72
21
73
29
0
VERTEX
8
OBJECT__10
10
0
20
0
30
0
70
128
71
29
72
30
73
28
0
VERTEX
8
OBJECT__10
10
0
20
0
30
0
70
128
71
21
72
31
73
32
0
VERTEX
8
OBJECT__10
10
0
20
0
30
0
70
128
71
32
72
29
73
21
0
VERTEX
8
OBJECT__10
10
0
20
0
30
0
70
128
71
30
72
33
73
28
0
VERTEX
8
OBJECT__10
10
0
20
0
30
0
70
128
71
21
72
34
73
31
0
VERTEX
8
OBJECT__10
10
0
20
0
30
0
70
128
71
28
72
35
73
36
0
VERTEX
8
OBJECT__10
10
0
20
0
30
0
70
128
71
36
72
37
73
28
0
VERTEX
8
OBJECT__10
10
0
20
0
30
0
70
128
71
28
72
38
73
39
0
VERTEX
8
OBJECT__10
10
0
20
0
30
0
70
128
71
39
72
35
73
28
0
VERTEX
8
OBJECT__10
10
0
20
0
30
0
70
128
71
36
72
40
73
37
0
VERTEX
8
OBJECT__10
10
0
20
0
30
0
70
128
71
41
72
42
73
43
0
VERTEX
8
OBJECT__10
10
0
20
0
30
0
70
128
71
43
72
44
73
41
0
VERTEX
8
OBJECT__10
10
0
20
0
30
0
70
128
71
37
72
45
73
42
0
VERTEX
8
OBJECT__10
10
0
20
0
30
0
70
128
71
37
72
46
73
47
0
VERTEX
8
OBJECT__10
10
0
20
0
30
0
70
128
71
47
72
45
73
37
0
VERTEX
8
OBJECT__10
10
0
20
0
30
0
70
128
71
42
72
41
73
37
0
VERTEX
8
OBJECT__10
10
0
20
0
30
0
70
128
71
41
72
48
73
49
0
VERTEX
8
OBJECT__10
10
0
20
0
30
0
70
128
71
49
72
50
73
41
0
VERTEX
8
OBJECT__10
10
0
20
0
30
0
70
128
71
49
72
51
73
50
0
VERTEX
8
OBJECT__10
10
0
20
0
30
0
70
128
71
41
72
52
73
53
0
VERTEX
8
OBJECT__10
10
0
20
0
30
0
70
128
71
53
72
48
73
41
0
VERTEX
8
OBJECT__10
10
0
20
0
30
0
70
128
71
54
72
55
73
56
0
VERTEX
8
OBJECT__10
10
0
20
0
30
0
70
128
71
54
72
50
73
57
0
VERTEX
8
OBJECT__10
10
0
20
0
30
0
70
128
71
50
72
58
73
57
0
VERTEX
8
OBJECT__10
10
0
20
0
30
0
70
128
71
57
72
55
73
54
0
VERTEX
8
OBJECT__10
10
0
20
0
30
0
70
128
71
50
72
59
73
58
0
VERTEX
8
OBJECT__10
10
0
20
0
30
0
70
128
71
50
72
60
73
61
0
VERTEX
8
OBJECT__10
10
0
20
0
30
0
70
128
71
61
72
59
73
50
0
VERTEX
8
OBJECT__10
10
0
20
0
30
0
70
128
71
62
72
54
73
63
0
VERTEX
8
OBJECT__10
10
0
20
0
30
0
70
128
71
54
72
64
73
63
0
VERTEX
8
OBJECT__10
10
0
20
0
30
0
70
128
71
63
72
65
73
62
0
VERTEX
8
OBJECT__10
10
0
20
0
30
0
70
128
71
65
72
66
73
62
0
VERTEX
8
OBJECT__10
10
0
20
0
30
0
70
128
71
66
72
67
73
62
0
VERTEX
8
OBJECT__10
10
0
20
0
30
0
70
128
71
54
72
68
73
64
0
VERTEX
8
OBJECT__10
10
0
20
0
30
0
70
128
71
69
72
70
73
71
0
VERTEX
8
OBJECT__10
10
0
20
0
30
0
70
128
71
62
72
72
73
73
0
VERTEX
8
OBJECT__10
10
0
20
0
30
0
70
128
71
62
72
74
73
72
0
VERTEX
8
OBJECT__10
10
0
20
0
30
0
70
128
71
73
72
69
73
62
0
VERTEX
8
OBJECT__10
10
0
20
0
30
0
70
128
71
73
72
70
73
69
0
VERTEX
8
OBJECT__10
10
0
20
0
30
0
70
128
71
75
72
76
73
77
0
VERTEX
8
OBJECT__10
10
0
20
0
30
0
70
128
71
69
72
78
73
79
0
VERTEX
8
OBJECT__10
10
0
20
0
30
0
70
128
71
69
72
80
73
78
0
VERTEX
8
OBJECT__10
10
0
20
0
30
0
70
128
71
79
72
75
73
69
0
VERTEX
8
OBJECT__10
10
0
20
0
30
0
70
128
71
79
72
76
73
75
0
VERTEX
8
OBJECT__10
10
0
20
0
30
0
70
128
71
81
72
82
73
83
0
VERTEX
8
OBJECT__10
10
0
20
0
30
0
70
128
71
81
72
75
73
84
0
VERTEX
8
OBJECT__10
10
0
20
0
30
0
70
128
71
84
72
82
73
81
0
VERTEX
8
OBJECT__10
10
0
20
0
30
0
70
128
71
75
72
85
73
86
0
VERTEX
8
OBJECT__10
10
0
20
0
30
0
70
128
71
86
72
87
73
75
0
VERTEX
8
OBJECT__10
10
0
20
0
30
0
70
128
71
87
72
84
73
75
0
VERTEX
8
OBJECT__10
10
0
20
0
30
0
70
128
71
88
72
81
73
89
0
VERTEX
8
OBJECT__10
10
0
20
0
30
0
70
128
71
89
72
90
73
88
0
VERTEX
8
OBJECT__10
10
0
20
0
30
0
70
128
71
81
72
91
73
89
0
VERTEX
8
OBJECT__10
10
0
20
0
30
0
70
128
71
81
72
92
73
91
0
VERTEX
8
OBJECT__10
10
0
20
0
30
0
70
128
71
81
72
93
73
92
0
VERTEX
8
OBJECT__10
10
0
20
0
30
0
70
128
71
94
72
88
73
95
0
VERTEX
8
OBJECT__10
10
0
20
0
30
0
70
128
71
95
72
96
73
94
0
VERTEX
8
OBJECT__10
10
0
20
0
30
0
70
128
71
88
72
97
73
95
0
VERTEX
8
OBJECT__10
10
0
20
0
30
0
70
128
71
88
72
98
73
97
0
VERTEX
8
OBJECT__10
10
0
20
0
30
0
70
128
71
88
72
99
73
98
0
VERTEX
8
OBJECT__10
10
0
20
0
30
0
70
128
71
100
72
94
73
101
0
VERTEX
8
OBJECT__10
10
0
20
0
30
0
70
128
71
101
72
102
73
100
0
VERTEX
8
OBJECT__10
10
0
20
0
30
0
70
128
71
94
72
103
73
101
0
VERTEX
8
OBJECT__10
10
0
20
0
30
0
70
128
71
94
72
104
73
103
0
VERTEX
8
OBJECT__10
10
0
20
0
30
0
70
128
71
102
72
105
73
100
0
VERTEX
8
OBJECT__10
10
0
20
0
30
0
70
128
71
94
72
106
73
104
0
VERTEX
8
OBJECT__10
10
0
20
0
30
0
70
128
71
5
72
107
73
108
0
VERTEX
8
OBJECT__10
10
0
20
0
30
0
70
128
71
100
72
109
73
107
0
VERTEX
8
OBJECT__10
10
0
20
0
30
0
70
128
71
107
72
5
73
100
0
VERTEX
8
OBJECT__10
10
0
20
0
30
0
70
128
71
100
72
110
73
111
0
VERTEX
8
OBJECT__10
10
0
20
0
30
0
70
128
71
111
72
109
73
100
0
VERTEX
8
OBJECT__10
10
0
20
0
30
0
70
128
71
108
72
7
73
5
0
VERTEX
8
OBJECT__10
10
0
20
0
30
0
70
128
71
105
72
110
73
100
0
VERTEX
8
OBJECT__10
10
0
20
0
30
0
70
128
71
96
72
106
73
94
0
VERTEX
8
OBJECT__10
10
0
20
0
30
0
70
128
71
90
72
99
73
88
0
VERTEX
8
OBJECT__10
10
0
20
0
30
0
70
128
71
83
72
93
73
81
0
VERTEX
8
OBJECT__10
10
0
20
0
30
0
70
128
71
77
72
85
73
75
0
VERTEX
8
OBJECT__10
10
0
20
0
30
0
70
128
71
71
72
80
73
69
0
VERTEX
8
OBJECT__10
10
0
20
0
30
0
70
128
71
67
72
74
73
62
0
VERTEX
8
OBJECT__10
10
0
20
0
30
0
70
128
71
56
72
68
73
54
0
VERTEX
8
OBJECT__10
10
0
20
0
30
0
70
128
71
51
72
60
73
50
0
VERTEX
8
OBJECT__10
10
0
20
0
30
0
70
128
71
44
72
52
73
41
0
VERTEX
8
OBJECT__10
10
0
20
0
30
0
70
128
71
40
72
46
73
37
0
VERTEX
8
OBJECT__10
10
0
20
0
30
0
70
128
71
33
72
38
73
28
0
VERTEX
8
OBJECT__10
10
0
20
0
30
0
70
128
71
26
72
34
73
21
0
VERTEX
8
OBJECT__10
10
0
20
0
30
0
70
128
71
16
72
27
73
14
0
VERTEX
8
OBJECT__10
10
0
20
0
30
0
70
128
71
10
72
19
73
8
0
VERTEX
8
OBJECT__10
10
0
20
0
30
0
70
128
71
3
72
12
73
1
0
SEQEND
8
OBJECT__10
0
POLYLINE
8
OBJECT__11
66
1
70
64
71
274
72
276
62
253
0
VERTEX
8
OBJECT__11
10
29.362000
20
-20.735001
30
86.102997
70
192
0
VERTEX
8
OBJECT__11
10
29.333000
20
-20.000999
30
80.130997
70
192
0
VERTEX
8
OBJECT__11
10
29.393999
20
-19.964001
30
80.156998
70
192
0
VERTEX
8
OBJECT__11
10
30.379000
20
-19.926001
30
85.921997
70
192
0
VERTEX
8
OBJECT__11
10
27.055000
20
-21.413000
30
79.139000
70
192
0
VERTEX
8
OBJECT__11
10
28.316999
20
-21.412001
30
86.287003
70
192
0
VERTEX
8
OBJECT__11
10
25.183001
20
-23.033001
30
86.835999
70
192
0
VERTEX
8
OBJECT__11
10
23.423000
20
-23.639999
30
87.148003
70
192
0
VERTEX
8
OBJECT__11
10
24.597000
20
-22.587999
30
77.792999
70
192
0
VERTEX
8
OBJECT__11
10
26.867001
20
-21.503000
30
79.036003
70
192
0
VERTEX
8
OBJECT__11
10
22.430000
20
-23.378000
30
76.292000
70
192
0
VERTEX
8
OBJECT__11
10
24.323999
20
-22.688000
30
77.603996
70
192
0
VERTEX
8
OBJECT__11
10
22.246000
20
-23.445000
30
76.164001
70
192
0
VERTEX
8
OBJECT__11
10
21.343000
20
-23.697001
30
75.240997
70
192
0
VERTEX
8
OBJECT__11
10
21.520000
20
-23.646999
30
75.421997
70
192
0
VERTEX
8
OBJECT__11
10
34.573002
20
-15.944000
30
85.181999
70
192
0
VERTEX
8
OBJECT__11
10
34.313999
20
-15.472000
30
81.519997
70
192
0
VERTEX
8
OBJECT__11
10
34.689999
20
-14.950000
30
81.626999
70
192
0
VERTEX
8
OBJECT__11
10
32.147999
20
-18.520000
30
85.609001
70
192
0
VERTEX
8
OBJECT__11
10
32.917999
20
-16.905001
30
81.178001
70
192
0
VERTEX
8
OBJECT__11
10
32.452999
20
-17.382999
30
81.064003
70
192
0
VERTEX
8
OBJECT__11
10
31.611000
20
-18.247999
30
80.858002
70
192
0
VERTEX
8
OBJECT__11
10
30.410000
20
-19.902000
30
85.917000
70
192
0
VERTEX
8
OBJECT__11
10
29.600000
20
-19.836000
30
80.247002
70
192
0
VERTEX
8
OBJECT__11
10
38.639999
20
-7.851000
30
82.815002
70
192
0
VERTEX
8
OBJECT__11
10
38.972000
20
-7.866000
30
84.405998
70
192
0
VERTEX
8
OBJECT__11
10
38.698002
20
-8.681000
30
84.453003
70
192
0
VERTEX
8
OBJECT__11
10
37.247002
20
-11.926000
30
84.710999
70
192
0
VERTEX
8
OBJECT__11
10
37.547001
20
-10.411000
30
82.463997
70
192
0
VERTEX
8
OBJECT__11
10
38.237000
20
-9.065000
30
82.680000
70
192
0
VERTEX
8
OBJECT__11
10
37.230999
20
-11.027000
30
82.364998
70
192
0
VERTEX
8
OBJECT__11
10
36.523998
20
-12.404000
30
82.143997
70
192
0
VERTEX
8
OBJECT__11
10
36.491001
20
-13.127000
30
84.845001
70
192
0
VERTEX
8
OBJECT__11
10
35.297001
20
-14.108000
30
81.797997
70
192
0
VERTEX
8
OBJECT__11
10
35.341000
20
-14.951000
30
85.047997
70
192
0
VERTEX
8
OBJECT__11
10
35.325001
20
-14.971000
30
85.051003
70
192
0
VERTEX
8
OBJECT__11
10
40.226002
20
-0.438000
30
84.183998
70
192
0
VERTEX
8
OBJECT__11
10
39.914001
20
-3.988000
30
84.241997
70
192
0
VERTEX
8
OBJECT__11
10
39.930000
20
-2.578000
30
83.251999
70
192
0
VERTEX
8
OBJECT__11
10
40.021999
20
0.045000
30
83.285004
70
192
0
VERTEX
8
OBJECT__11
10
40.223000
20
0.043000
30
84.183998
70
192
0
VERTEX
8
OBJECT__11
10
39.709000
20
-3.806000
30
83.176003
70
192
0
VERTEX
8
OBJECT__11
10
39.775002
20
-4.585000
30
84.265999
70
192
0
VERTEX
8
OBJECT__11
10
39.388000
20
-5.594000
30
83.065002
70
192
0
VERTEX
8
OBJECT__11
10
39.099998
20
-7.485000
30
84.384003
70
192
0
VERTEX
8
OBJECT__11
10
38.862000
20
-7.182000
30
82.889000
70
192
0
VERTEX
8
OBJECT__11
10
39.798000
20
4.590000
30
84.262001
70
192
0
VERTEX
8
OBJECT__11
10
39.634998
20
4.484000
30
83.150002
70
192
0
VERTEX
8
OBJECT__11
10
39.228001
20
5.990000
30
83.012001
70
192
0
VERTEX
8
OBJECT__11
10
38.979000
20
7.866000
30
84.404999
70
192
0
VERTEX
8
OBJECT__11
10
38.786999
20
7.626000
30
82.862000
70
192
0
VERTEX
8
OBJECT__11
10
39.844002
20
4.406000
30
84.253998
70
192
0
VERTEX
8
OBJECT__11
10
40.216999
20
0.827000
30
84.185997
70
192
0
VERTEX
8
OBJECT__11
10
40.054001
20
0.972000
30
83.295998
70
192
0
VERTEX
8
OBJECT__11
10
39.660000
20
4.274000
30
83.158997
70
192
0
VERTEX
8
OBJECT__11
10
40.049999
20
0.855000
30
83.294998
70
192
0
VERTEX
8
OBJECT__11
10
36.457001
20
12.392000
30
82.130997
70
192
0
VERTEX
8
OBJECT__11
10
36.500000
20
13.132000
30
84.843002
70
192
0
VERTEX
8
OBJECT__11
10
37.041000
20
12.304000
30
84.748001
70
192
0
VERTEX
8
OBJECT__11
10
35.424000
20
14.051000
30
81.824997
70
192
0
VERTEX
8
OBJECT__11
10
35.328999
20
14.922000
30
85.050003
70
192
0
VERTEX
8
OBJECT__11
10
37.327999
20
10.993000
30
82.389999
70
192
0
VERTEX
8
OBJECT__11
10
38.557999
20
9.056000
30
84.477997
70
192
0
VERTEX
8
OBJECT__11
10
38.978001
20
7.870000
30
84.404999
70
192
0
VERTEX
8
OBJECT__11
10
38.685001
20
7.860000
30
82.829002
70
192
0
VERTEX
8
OBJECT__11
10
38.077000
20
9.263000
30
82.632004
70
192
0
VERTEX
8
OBJECT__11
10
30.408001
20
19.899000
30
85.917000
70
192
0
VERTEX
8
OBJECT__11
10
31.815001
20
18.820999
30
85.667999
70
192
0
VERTEX
8
OBJECT__11
10
31.611000
20
18.247999
30
80.858002
70
192
0
VERTEX
8
OBJECT__11
10
29.558001
20
19.865999
30
80.231003
70
192
0
VERTEX
8
OBJECT__11
10
30.223000
20
20.041000
30
85.949997
70
192
0
VERTEX
8
OBJECT__11
10
35.089001
20
15.288000
30
85.092003
70
192
0
VERTEX
8
OBJECT__11
10
34.706001
20
14.902000
30
81.635002
70
192
0
VERTEX
8
OBJECT__11
10
34.143002
20
15.570000
30
81.486000
70
192
0
VERTEX
8
OBJECT__11
10
34.303001
20
16.268999
30
85.228996
70
192
0
VERTEX
8
OBJECT__11
10
33.007000
20
16.917999
30
81.185997
70
192
0
VERTEX
8
OBJECT__11
10
23.280001
20
23.690001
30
87.172997
70
192
0
VERTEX
8
OBJECT__11
10
22.087999
20
23.493000
30
76.033997
70
192
0
VERTEX
8
OBJECT__11
10
21.622000
20
23.622000
30
75.556000
70
192
0
VERTEX
8
OBJECT__11
10
24.214001
20
22.745001
30
77.557999
70
192
0
VERTEX
8
OBJECT__11
10
22.733000
20
23.266001
30
76.496002
70
192
0
VERTEX
8
OBJECT__11
10
25.044001
20
22.355000
30
78.019997
70
192
0
VERTEX
8
OBJECT__11
10
24.757000
20
23.211000
30
86.911003
70
192
0
VERTEX
8
OBJECT__11
10
27.070000
20
21.405001
30
79.146004
70
192
0
VERTEX
8
OBJECT__11
10
29.000000
20
20.978001
30
86.166000
70
192
0
VERTEX
8
OBJECT__11
10
29.216999
20
20.077000
30
80.083000
70
192
0
VERTEX
8
OBJECT__11
10
27.695999
20
21.017000
30
79.418999
70
192
0
VERTEX
8
OBJECT__11
10
27.938999
20
21.639000
30
86.352997
70
192
0
VERTEX
8
OBJECT__11
10
15.567000
20
-24.937000
30
88.532997
70
192
0
VERTEX
8
OBJECT__11
10
-0.046000
20
-24.980000
30
0.000000
70
192
0
VERTEX
8
OBJECT__11
10
0.061000
20
-24.973000
30
0.000000
70
192
0
VERTEX
8
OBJECT__11
10
21.010000
20
-23.790001
30
74.900002
70
192
0
VERTEX
8
OBJECT__11
10
21.833000
20
-24.188000
30
87.430000
70
192
0
VERTEX
8
OBJECT__11
10
20.622000
20
-24.476000
30
87.643997
70
192
0
VERTEX
8
OBJECT__11
10
22.337000
20
-24.014000
30
87.339996
70
192
0
VERTEX
8
OBJECT__11
10
17.127001
20
-24.952999
30
88.258003
70
192
0
VERTEX
8
OBJECT__11
10
15.671000
20
-24.938000
30
88.514000
70
192
0
VERTEX
8
OBJECT__11
10
20.540001
20
-23.879999
30
73.878998
70
192
0
VERTEX
8
OBJECT__11
10
20.848000
20
-23.820999
30
74.549004
70
192
0
VERTEX
8
OBJECT__11
10
19.851000
20
-23.806999
30
68.626999
70
192
0
VERTEX
8
OBJECT__11
10
20.358000
20
-23.884001
30
72.917999
70
192
0
VERTEX
8
OBJECT__11
10
7.055000
20
-24.014999
30
0.000000
70
192
0
VERTEX
8
OBJECT__11
10
8.058000
20
-23.650999
30
0.000000
70
192
0
VERTEX
8
OBJECT__11
10
19.834000
20
-23.698000
30
66.682999
70
192
0
VERTEX
8
OBJECT__11
10
3.658000
20
-24.739000
30
0.000000
70
192
0
VERTEX
8
OBJECT__11
10
19.812000
20
-23.548000
30
63.993999
70
192
0
VERTEX
8
OBJECT__11
10
19.834000
20
-23.694000
30
66.612000
70
192
0
VERTEX
8
OBJECT__11
10
20.253000
20
-23.000000
30
58.431999
70
192
0
VERTEX
8
OBJECT__11
10
20.184000
20
-23.087000
30
59.308998
70
192
0
VERTEX
8
OBJECT__11
10
21.229000
20
-21.954000
30
51.526001
70
192
0
VERTEX
8
OBJECT__11
10
21.158001
20
-22.030001
30
52.027000
70
192
0
VERTEX
8
OBJECT__11
10
13.644000
20
-21.080999
30
0.000000
70
192
0
VERTEX
8
OBJECT__11
10
15.220000
20
-19.912001
30
0.000000
70
192
0
VERTEX
8
OBJECT__11
10
22.839001
20
-19.948000
30
43.051998
70
192
0
VERTEX
8
OBJECT__11
10
22.483000
20
-20.434000
30
44.741001
70
192
0
VERTEX
8
OBJECT__11
10
22.306000
20
-20.676001
30
45.580002
70
192
0
VERTEX
8
OBJECT__11
10
10.474000
20
-22.774000
30
0.000000
70
192
0
VERTEX
8
OBJECT__11
10
24.639000
20
-17.187000
30
35.173000
70
192
0
VERTEX
8
OBJECT__11
10
24.121000
20
-18.021999
30
37.348999
70
192
0
VERTEX
8
OBJECT__11
10
23.421000
20
-19.150999
30
40.287998
70
192
0
VERTEX
8
OBJECT__11
10
25.589001
20
-15.370000
30
31.582001
70
192
0
VERTEX
8
OBJECT__11
10
19.499001
20
-16.007000
30
0.000000
70
192
0
VERTEX
8
OBJECT__11
10
20.275999
20
-14.935000
30
0.000000
70
192
0
VERTEX
8
OBJECT__11
10
25.771999
20
-14.961000
30
30.955999
70
192
0
VERTEX
8
OBJECT__11
10
16.819000
20
-18.726000
30
0.000000
70
192
0
VERTEX
8
OBJECT__11
10
26.476000
20
-13.376000
30
28.531000
70
192
0
VERTEX
8
OBJECT__11
10
26.028999
20
-14.382000
30
30.069000
70
192
0
VERTEX
8
OBJECT__11
10
27.275999
20
-11.199000
30
25.971001
70
192
0
VERTEX
8
OBJECT__11
10
27.063000
20
-11.778000
30
26.650999
70
192
0
VERTEX
8
OBJECT__11
10
27.926001
20
-8.970000
30
23.989000
70
192
0
VERTEX
8
OBJECT__11
10
23.434999
20
-9.614000
30
0.000000
70
192
0
VERTEX
8
OBJECT__11
10
24.027000
20
-7.846000
30
0.000000
70
192
0
VERTEX
8
OBJECT__11
10
28.169001
20
-7.859000
30
23.280001
70
192
0
VERTEX
8
OBJECT__11
10
28.030001
20
-8.497000
30
23.688000
70
192
0
VERTEX
8
OBJECT__11
10
21.714001
20
-12.949000
30
0.000000
70
192
0
VERTEX
8
OBJECT__11
10
28.799000
20
-4.275000
30
21.481001
70
192
0
VERTEX
8
OBJECT__11
10
28.770000
20
-4.464000
30
21.561001
70
192
0
VERTEX
8
OBJECT__11
10
28.458000
20
-6.539000
30
22.438999
70
192
0
VERTEX
8
OBJECT__11
10
24.638000
20
-6.021000
30
0.000000
70
192
0
VERTEX
8
OBJECT__11
10
25.226000
20
-2.797000
30
0.000000
70
192
0
VERTEX
8
OBJECT__11
10
29.016001
20
-1.611000
30
20.884001
70
192
0
VERTEX
8
OBJECT__11
10
25.334999
20
0.045000
30
0.000000
70
192
0
VERTEX
8
OBJECT__11
10
29.028000
20
0.044000
30
20.850000
70
192
0
VERTEX
8
OBJECT__11
10
29.028000
20
0.091000
30
20.849001
70
192
0
VERTEX
8
OBJECT__11
10
25.368999
20
0.928000
30
0.000000
70
192
0
VERTEX
8
OBJECT__11
10
29.035000
20
1.075000
30
20.827999
70
192
0
VERTEX
8
OBJECT__11
10
24.955000
20
4.582000
30
0.000000
70
192
0
VERTEX
8
OBJECT__11
10
28.872000
20
3.604000
30
21.277000
70
192
0
VERTEX
8
OBJECT__11
10
24.075001
20
7.860000
30
0.000000
70
192
0
VERTEX
8
OBJECT__11
10
28.533001
20
6.112000
30
22.221001
70
192
0
VERTEX
8
OBJECT__11
10
28.733999
20
4.619000
30
21.659000
70
192
0
VERTEX
8
OBJECT__11
10
28.172001
20
7.858000
30
23.264000
70
192
0
VERTEX
8
OBJECT__11
10
28.025999
20
8.566000
30
23.687000
70
192
0
VERTEX
8
OBJECT__11
10
23.990000
20
8.178000
30
0.000000
70
192
0
VERTEX
8
OBJECT__11
10
22.457001
20
11.658000
30
0.000000
70
192
0
VERTEX
8
OBJECT__11
10
20.452999
20
14.807000
30
0.000000
70
192
0
VERTEX
8
OBJECT__11
10
20.347000
20
14.929000
30
0.000000
70
192
0
VERTEX
8
OBJECT__11
10
27.367001
20
10.914000
30
25.674999
70
192
0
VERTEX
8
OBJECT__11
10
28.009001
20
8.629000
30
23.740000
70
192
0
VERTEX
8
OBJECT__11
10
26.546000
20
13.198000
30
28.282000
70
192
0
VERTEX
8
OBJECT__11
10
27.025000
20
11.866000
30
26.761000
70
192
0
VERTEX
8
OBJECT__11
10
25.784000
20
14.924000
30
30.885000
70
192
0
VERTEX
8
OBJECT__11
10
25.990000
20
14.457000
30
30.181000
70
192
0
VERTEX
8
OBJECT__11
10
17.966999
20
17.662001
30
0.000000
70
192
0
VERTEX
8
OBJECT__11
10
25.598000
20
15.345000
30
31.521000
70
192
0
VERTEX
8
OBJECT__11
10
15.120000
20
20.080999
30
0.000000
70
192
0
VERTEX
8
OBJECT__11
10
15.105000
20
20.090000
30
0.000000
70
192
0
VERTEX
8
OBJECT__11
10
23.412001
20
19.158001
30
40.278000
70
192
0
VERTEX
8
OBJECT__11
10
24.091999
20
18.068001
30
37.409000
70
192
0
VERTEX
8
OBJECT__11
10
22.747000
20
20.059999
30
43.445000
70
192
0
VERTEX
8
OBJECT__11
10
24.540001
20
17.351000
30
35.521000
70
192
0
VERTEX
8
OBJECT__11
10
22.207001
20
20.792999
30
46.014999
70
192
0
VERTEX
8
OBJECT__11
10
11.802000
20
22.134001
30
0.000000
70
192
0
VERTEX
8
OBJECT__11
10
8.620000
20
23.514999
30
0.000000
70
192
0
VERTEX
8
OBJECT__11
10
22.473000
20
20.431999
30
44.749001
70
192
0
VERTEX
8
OBJECT__11
10
7.917000
20
23.709000
30
0.000000
70
192
0
VERTEX
8
OBJECT__11
10
20.973000
20
22.223000
30
52.999001
70
192
0
VERTEX
8
OBJECT__11
10
21.134001
20
22.037001
30
52.088001
70
192
0
VERTEX
8
OBJECT__11
10
20.084000
20
23.173000
30
59.866001
70
192
0
VERTEX
8
OBJECT__11
10
20.146999
20
23.105000
30
59.375000
70
192
0
VERTEX
8
OBJECT__11
10
19.768000
20
23.620001
30
64.922997
70
192
0
VERTEX
8
OBJECT__11
10
19.837999
20
23.747000
30
67.544998
70
192
0
VERTEX
8
OBJECT__11
10
19.813999
20
23.702999
30
66.644997
70
192
0
VERTEX
8
OBJECT__11
10
5.067000
20
24.496000
30
0.000000
70
192
0
VERTEX
8
OBJECT__11
10
15.581000
20
25.000999
30
88.529999
70
192
0
VERTEX
8
OBJECT__11
10
19.888000
20
23.836000
30
69.373001
70
192
0
VERTEX
8
OBJECT__11
10
1.553000
20
24.952999
30
0.000000
70
192
0
VERTEX
8
OBJECT__11
10
20.531000
20
23.885000
30
73.918999
70
192
0
VERTEX
8
OBJECT__11
10
20.524000
20
23.885000
30
73.885002
70
192
0
VERTEX
8
OBJECT__11
10
21.004000
20
23.792999
30
74.922997
70
192
0
VERTEX
8
OBJECT__11
10
22.332001
20
23.997000
30
87.341003
70
192
0
VERTEX
8
OBJECT__11
10
21.169001
20
23.747000
30
75.092003
70
192
0
VERTEX
8
OBJECT__11
10
16.697001
20
24.976000
30
88.333000
70
192
0
VERTEX
8
OBJECT__11
10
20.194000
20
24.562000
30
87.719002
70
192
0
VERTEX
8
OBJECT__11
10
21.407000
20
24.296000
30
87.504997
70
192
0
VERTEX
8
OBJECT__11
10
13.342000
20
24.833000
30
88.926003
70
192
0
VERTEX
8
OBJECT__11
10
-0.029000
20
24.931999
30
0.000000
70
192
0
VERTEX
8
OBJECT__11
10
8.823000
20
24.014999
30
89.723000
70
192
0
VERTEX
8
OBJECT__11
10
12.044000
20
24.736000
30
89.155998
70
192
0
VERTEX
8
OBJECT__11
10
-2.251000
20
24.900999
30
0.000000
70
192
0
VERTEX
8
OBJECT__11
10
-6.151000
20
24.254000
30
0.000000
70
192
0
VERTEX
8
OBJECT__11
10
-6.986000
20
23.985001
30
0.000000
70
192
0
VERTEX
8
OBJECT__11
10
6.929000
20
23.395000
30
90.055000
70
192
0
VERTEX
8
OBJECT__11
10
8.606000
20
23.966999
30
89.761002
70
192
0
VERTEX
8
OBJECT__11
10
-9.642000
20
23.127001
30
0.000000
70
192
0
VERTEX
8
OBJECT__11
10
3.717000
20
21.889999
30
90.623001
70
192
0
VERTEX
8
OBJECT__11
10
4.657000
20
22.330999
30
90.457001
70
192
0
VERTEX
8
OBJECT__11
10
1.748000
20
20.591000
30
90.971001
70
192
0
VERTEX
8
OBJECT__11
10
-13.210000
20
21.348000
30
0.000000
70
192
0
VERTEX
8
OBJECT__11
10
-14.289000
20
20.590000
30
0.000000
70
192
0
VERTEX
8
OBJECT__11
10
0.757000
20
19.938000
30
91.146004
70
192
0
VERTEX
8
OBJECT__11
10
-16.205999
20
19.243000
30
0.000000
70
192
0
VERTEX
8
OBJECT__11
10
-0.214000
20
19.153000
30
91.316002
70
192
0
VERTEX
8
OBJECT__11
10
-2.753000
20
16.653999
30
91.763000
70
192
0
VERTEX
8
OBJECT__11
10
-2.574000
20
16.830000
30
91.731003
70
192
0
VERTEX
8
OBJECT__11
10
-19.072001
20
16.500000
30
0.000000
70
192
0
VERTEX
8
OBJECT__11
10
-3.920000
20
15.117000
30
91.970001
70
192
0
VERTEX
8
OBJECT__11
10
-20.135000
20
15.116000
30
0.000000
70
192
0
VERTEX
8
OBJECT__11
10
-4.906000
20
13.819000
30
92.144997
70
192
0
VERTEX
8
OBJECT__11
10
-21.299999
20
13.600000
30
0.000000
70
192
0
VERTEX
8
OBJECT__11
10
-5.567000
20
12.751000
30
92.261002
70
192
0
VERTEX
8
OBJECT__11
10
-7.150000
20
9.536000
30
92.537003
70
192
0
VERTEX
8
OBJECT__11
10
-23.159000
20
10.240000
30
0.000000
70
192
0
VERTEX
8
OBJECT__11
10
-7.318000
20
9.021000
30
92.567001
70
192
0
VERTEX
8
OBJECT__11
10
-23.941999
20
8.109000
30
0.000000
70
192
0
VERTEX
8
OBJECT__11
10
-7.614000
20
8.112000
30
92.620003
70
192
0
VERTEX
8
OBJECT__11
10
-8.254000
20
6.148000
30
92.735001
70
192
0
VERTEX
8
OBJECT__11
10
-25.191999
20
3.077000
30
0.000000
70
192
0
VERTEX
8
OBJECT__11
10
-8.975000
20
1.355000
30
92.860001
70
192
0
VERTEX
8
OBJECT__11
10
-8.528000
20
4.919000
30
92.783997
70
192
0
VERTEX
8
OBJECT__11
10
-24.445000
20
6.741000
30
0.000000
70
192
0
VERTEX
8
OBJECT__11
10
-25.326000
20
0.375000
30
0.000000
70
192
0
VERTEX
8
OBJECT__11
10
-8.959000
20
0.379000
30
92.857002
70
192
0
VERTEX
8
OBJECT__11
10
-8.949000
20
-0.196000
30
92.856003
70
192
0
VERTEX
8
OBJECT__11
10
-8.952000
20
0.001000
30
92.856003
70
192
0
VERTEX
8
OBJECT__11
10
-25.354000
20
-0.198000
30
0.000000
70
192
0
VERTEX
8
OBJECT__11
10
-8.915000
20
-2.208000
30
92.849998
70
192
0
VERTEX
8
OBJECT__11
10
-24.988001
20
-4.402000
30
0.000000
70
192
0
VERTEX
8
OBJECT__11
10
-8.773000
20
-3.462000
30
92.825996
70
192
0
VERTEX
8
OBJECT__11
10
-24.038000
20
-8.035000
30
0.000000
70
192
0
VERTEX
8
OBJECT__11
10
-8.033000
20
-6.973000
30
92.695000
70
192
0
VERTEX
8
OBJECT__11
10
-7.654000
20
-8.016000
30
92.627998
70
192
0
VERTEX
8
OBJECT__11
10
-25.377001
20
-0.666000
30
0.000000
70
192
0
VERTEX
8
OBJECT__11
10
-24.035999
20
-8.045000
30
0.000000
70
192
0
VERTEX
8
OBJECT__11
10
-7.293000
20
-9.010000
30
92.563004
70
192
0
VERTEX
8
OBJECT__11
10
-22.524000
20
-11.531000
30
0.000000
70
192
0
VERTEX
8
OBJECT__11
10
-6.818000
20
-10.316000
30
92.478996
70
192
0
VERTEX
8
OBJECT__11
10
-6.274000
20
-11.455000
30
92.384003
70
192
0
VERTEX
8
OBJECT__11
10
-20.570999
20
-14.648000
30
0.000000
70
192
0
VERTEX
8
OBJECT__11
10
-4.430000
20
-14.522000
30
92.060997
70
192
0
VERTEX
8
OBJECT__11
10
-20.228001
20
-15.046000
30
0.000000
70
192
0
VERTEX
8
OBJECT__11
10
-4.005000
20
-15.044000
30
91.985001
70
192
0
VERTEX
8
OBJECT__11
10
-18.016001
20
-17.614000
30
0.000000
70
192
0
VERTEX
8
OBJECT__11
10
-2.194000
20
-17.268999
30
91.664001
70
192
0
VERTEX
8
OBJECT__11
10
-2.559000
20
-16.820999
30
91.727997
70
192
0
VERTEX
8
OBJECT__11
10
-1.311000
20
-18.160999
30
91.508003
70
192
0
VERTEX
8
OBJECT__11
10
-15.230000
20
-19.997000
30
0.000000
70
192
0
VERTEX
8
OBJECT__11
10
0.863000
20
-19.966000
30
91.126999
70
192
0
VERTEX
8
OBJECT__11
10
-15.203000
20
-20.021000
30
0.000000
70
192
0
VERTEX
8
OBJECT__11
10
1.434000
20
-20.438999
30
91.027000
70
192
0
VERTEX
8
OBJECT__11
10
-11.960000
20
-22.051001
30
0.000000
70
192
0
VERTEX
8
OBJECT__11
10
4.449000
20
-22.284000
30
90.492996
70
192
0
VERTEX
8
OBJECT__11
10
4.637000
20
-22.375000
30
90.459999
70
192
0
VERTEX
8
OBJECT__11
10
5.569000
20
-22.827999
30
90.294998
70
192
0
VERTEX
8
OBJECT__11
10
-8.482000
20
-23.563999
30
0.000000
70
192
0
VERTEX
8
OBJECT__11
10
-8.020000
20
-23.687000
30
0.000000
70
192
0
VERTEX
8
OBJECT__11
10
7.842000
20
-23.664000
30
89.894997
70
192
0
VERTEX
8
OBJECT__11
10
13.338000
20
-24.888000
30
88.926003
70
192
0
VERTEX
8
OBJECT__11
10
12.352000
20
-24.780001
30
89.100998
70
192
0
VERTEX
8
OBJECT__11
10
8.897000
20
-24.052000
30
89.709999
70
192
0
VERTEX
8
OBJECT__11
10
-4.771000
20
-24.554001
30
0.000000
70
192
0
VERTEX
8
OBJECT__11
10
-1.159000
20
-24.974001
30
0.000000
70
192
0
VERTEX
8
OBJECT__11
10
13.590000
20
-24.916000
30
88.882004
70
192
0
VERTEX
8
OBJECT__11
10
-0.330000
20
-24.999001
30
0.000000
70
192
0
VERTEX
8
OBJECT__11
10
0
20
0
30
0
70
128
71
1
72
2
73
3
0
VERTEX
8
OBJECT__11
10
0
20
0
30
0
70
128
71
3
72
4
73
1
0
VERTEX
8
OBJECT__11
10
0
20
0
30
0
70
128
71
5
72
2
73
6
0
VERTEX
8
OBJECT__11
10
0
20
0
30
0
70
128
71
6
72
7
73
5
0
VERTEX
8
OBJECT__11
10
0
20
0
30
0
70
128
71
1
72
6
73
2
0
VERTEX
8
OBJECT__11
10
0
20
0
30
0
70
128
71
8
72
9
73
10
0
VERTEX
8
OBJECT__11
10
0
20
0
30
0
70
128
71
10
72
5
73
8
0
VERTEX
8
OBJECT__11
10
0
20
0
30
0
70
128
71
8
72
11
73
12
0
VERTEX
8
OBJECT__11
10
0
20
0
30
0
70
128
71
8
72
13
73
11
0
VERTEX
8
OBJECT__11
10
0
20
0
30
0
70
128
71
12
72
9
73
8
0
VERTEX
8
OBJECT__11
10
0
20
0
30
0
70
128
71
8
72
14
73
15
0
VERTEX
8
OBJECT__11
10
0
20
0
30
0
70
128
71
15
72
13
73
8
0
VERTEX
8
OBJECT__11
10
0
20
0
30
0
70
128
71
16
72
17
73
18
0
VERTEX
8
OBJECT__11
10
0
20
0
30
0
70
128
71
16
72
19
73
20
0
VERTEX
8
OBJECT__11
10
0
20
0
30
0
70
128
71
19
72
21
73
20
0
VERTEX
8
OBJECT__11
10
0
20
0
30
0
70
128
71
19
72
22
73
21
0
VERTEX
8
OBJECT__11
10
0
20
0
30
0
70
128
71
20
72
17
73
16
0
VERTEX
8
OBJECT__11
10
0
20
0
30
0
70
128
71
19
72
23
73
22
0
VERTEX
8
OBJECT__11
10
0
20
0
30
0
70
128
71
24
72
22
73
23
0
VERTEX
8
OBJECT__11
10
0
20
0
30
0
70
128
71
23
72
4
73
24
0
VERTEX
8
OBJECT__11
10
0
20
0
30
0
70
128
71
4
72
3
73
24
0
VERTEX
8
OBJECT__11
10
0
20
0
30
0
70
128
71
25
72
26
73
27
0
VERTEX
8
OBJECT__11
10
0
20
0
30
0
70
128
71
28
72
29
73
30
0
VERTEX
8
OBJECT__11
10
0
20
0
30
0
70
128
71
28
72
31
73
29
0
VERTEX
8
OBJECT__11
10
0
20
0
30
0
70
128
71
32
72
31
73
28
0
VERTEX
8
OBJECT__11
10
0
20
0
30
0
70
128
71
28
72
33
73
32
0
VERTEX
8
OBJECT__11
10
0
20
0
30
0
70
128
71
34
72
32
73
33
0
VERTEX
8
OBJECT__11
10
0
20
0
30
0
70
128
71
18
72
34
73
35
0
VERTEX
8
OBJECT__11
10
0
20
0
30
0
70
128
71
35
72
36
73
18
0
VERTEX
8
OBJECT__11
10
0
20
0
30
0
70
128
71
33
72
35
73
34
0
VERTEX
8
OBJECT__11
10
0
20
0
30
0
70
128
71
30
72
27
73
28
0
VERTEX
8
OBJECT__11
10
0
20
0
30
0
70
128
71
37
72
38
73
39
0
VERTEX
8
OBJECT__11
10
0
20
0
30
0
70
128
71
40
72
41
73
37
0
VERTEX
8
OBJECT__11
10
0
20
0
30
0
70
128
71
42
72
38
73
43
0
VERTEX
8
OBJECT__11
10
0
20
0
30
0
70
128
71
43
72
44
73
42
0
VERTEX
8
OBJECT__11
10
0
20
0
30
0
70
128
71
45
72
46
73
44
0
VERTEX
8
OBJECT__11
10
0
20
0
30
0
70
128
71
25
72
46
73
45
0
VERTEX
8
OBJECT__11
10
0
20
0
30
0
70
128
71
45
72
26
73
25
0
VERTEX
8
OBJECT__11
10
0
20
0
30
0
70
128
71
44
72
43
73
45
0
VERTEX
8
OBJECT__11
10
0
20
0
30
0
70
128
71
42
72
39
73
38
0
VERTEX
8
OBJECT__11
10
0
20
0
30
0
70
128
71
47
72
48
73
49
0
VERTEX
8
OBJECT__11
10
0
20
0
30
0
70
128
71
49
72
50
73
47
0
VERTEX
8
OBJECT__11
10
0
20
0
30
0
70
128
71
49
72
51
73
50
0
VERTEX
8
OBJECT__11
10
0
20
0
30
0
70
128
71
48
72
47
73
52
0
VERTEX
8
OBJECT__11
10
0
20
0
30
0
70
128
71
52
72
53
73
54
0
VERTEX
8
OBJECT__11
10
0
20
0
30
0
70
128
71
54
72
55
73
52
0
VERTEX
8
OBJECT__11
10
0
20
0
30
0
70
128
71
52
72
55
73
48
0
VERTEX
8
OBJECT__11
10
0
20
0
30
0
70
128
71
40
72
56
73
53
0
VERTEX
8
OBJECT__11
10
0
20
0
30
0
70
128
71
53
72
41
73
40
0
VERTEX
8
OBJECT__11
10
0
20
0
30
0
70
128
71
56
72
54
73
53
0
VERTEX
8
OBJECT__11
10
0
20
0
30
0
70
128
71
57
72
58
73
59
0
VERTEX
8
OBJECT__11
10
0
20
0
30
0
70
128
71
60
72
61
73
58
0
VERTEX
8
OBJECT__11
10
0
20
0
30
0
70
128
71
58
72
57
73
60
0
VERTEX
8
OBJECT__11
10
0
20
0
30
0
70
128
71
59
72
62
73
57
0
VERTEX
8
OBJECT__11
10
0
20
0
30
0
70
128
71
63
72
64
73
65
0
VERTEX
8
OBJECT__11
10
0
20
0
30
0
70
128
71
65
72
66
73
63
0
VERTEX
8
OBJECT__11
10
0
20
0
30
0
70
128
71
63
72
66
73
62
0
VERTEX
8
OBJECT__11
10
0
20
0
30
0
70
128
71
62
72
59
73
63
0
VERTEX
8
OBJECT__11
10
0
20
0
30
0
70
128
71
64
72
50
73
65
0
VERTEX
8
OBJECT__11
10
0
20
0
30
0
70
128
71
67
72
68
73
69
0
VERTEX
8
OBJECT__11
10
0
20
0
30
0
70
128
71
70
72
71
73
67
0
VERTEX
8
OBJECT__11
10
0
20
0
30
0
70
128
71
72
72
61
73
73
0
VERTEX
8
OBJECT__11
10
0
20
0
30
0
70
128
71
74
72
75
73
72
0
VERTEX
8
OBJECT__11
10
0
20
0
30
0
70
128
71
73
72
74
73
72
0
VERTEX
8
OBJECT__11
10
0
20
0
30
0
70
128
71
76
72
68
73
75
0
VERTEX
8
OBJECT__11
10
0
20
0
30
0
70
128
71
74
72
76
73
75
0
VERTEX
8
OBJECT__11
10
0
20
0
30
0
70
128
71
76
72
69
73
68
0
VERTEX
8
OBJECT__11
10
0
20
0
30
0
70
128
71
69
72
70
73
67
0
VERTEX
8
OBJECT__11
10
0
20
0
30
0
70
128
71
77
72
78
73
79
0
VERTEX
8
OBJECT__11
10
0
20
0
30
0
70
128
71
77
72
80
73
81
0
VERTEX
8
OBJECT__11
10
0
20
0
30
0
70
128
71
82
72
77
73
83
0
VERTEX
8
OBJECT__11
10
0
20
0
30
0
70
128
71
83
72
84
73
82
0
VERTEX
8
OBJECT__11
10
0
20
0
30
0
70
128
71
85
72
71
73
86
0
VERTEX
8
OBJECT__11
10
0
20
0
30
0
70
128
71
87
72
88
73
85
0
VERTEX
8
OBJECT__11
10
0
20
0
30
0
70
128
71
87
72
83
73
88
0
VERTEX
8
OBJECT__11
10
0
20
0
30
0
70
128
71
86
72
87
73
85
0
VERTEX
8
OBJECT__11
10
0
20
0
30
0
70
128
71
87
72
84
73
83
0
VERTEX
8
OBJECT__11
10
0
20
0
30
0
70
128
71
82
72
80
73
77
0
VERTEX
8
OBJECT__11
10
0
20
0
30
0
70
128
71
81
72
78
73
77
0
VERTEX
8
OBJECT__11
10
0
20
0
30
0
70
128
71
89
72
90
73
91
0
VERTEX
8
OBJECT__11
10
0
20
0
30
0
70
128
71
92
72
93
73
94
0
VERTEX
8
OBJECT__11
10
0
20
0
30
0
70
128
71
92
72
95
73
93
0
VERTEX
8
OBJECT__11
10
0
20
0
30
0
70
128
71
95
72
92
73
14
0
VERTEX
8
OBJECT__11
10
0
20
0
30
0
70
128
71
14
72
8
73
95
0
VERTEX
8
OBJECT__11
10
0
20
0
30
0
70
128
71
94
72
96
73
92
0
VERTEX
8
OBJECT__11
10
0
20
0
30
0
70
128
71
97
72
98
73
99
0
VERTEX
8
OBJECT__11
10
0
20
0
30
0
70
128
71
97
72
100
73
101
0
VERTEX
8
OBJECT__11
10
0
20
0
30
0
70
128
71
102
72
103
73
104
0
VERTEX
8
OBJECT__11
10
0
20
0
30
0
70
128
71
104
72
97
73
102
0
VERTEX
8
OBJECT__11
10
0
20
0
30
0
70
128
71
97
72
91
73
105
0
VERTEX
8
OBJECT__11
10
0
20
0
30
0
70
128
71
105
72
102
73
97
0
VERTEX
8
OBJECT__11
10
0
20
0
30
0
70
128
71
104
72
100
73
97
0
VERTEX
8
OBJECT__11
10
0
20
0
30
0
70
128
71
101
72
98
73
97
0
VERTEX
8
OBJECT__11
10
0
20
0
30
0
70
128
71
99
72
92
73
97
0
VERTEX
8
OBJECT__11
10
0
20
0
30
0
70
128
71
103
72
106
73
107
0
VERTEX
8
OBJECT__11
10
0
20
0
30
0
70
128
71
103
72
108
73
109
0
VERTEX
8
OBJECT__11
10
0
20
0
30
0
70
128
71
103
72
110
73
111
0
VERTEX
8
OBJECT__11
10
0
20
0
30
0
70
128
71
112
72
113
73
114
0
VERTEX
8
OBJECT__11
10
0
20
0
30
0
70
128
71
114
72
115
73
112
0
VERTEX
8
OBJECT__11
10
0
20
0
30
0
70
128
71
116
72
103
73
117
0
VERTEX
8
OBJECT__11
10
0
20
0
30
0
70
128
71
117
72
112
73
116
0
VERTEX
8
OBJECT__11
10
0
20
0
30
0
70
128
71
115
72
116
73
112
0
VERTEX
8
OBJECT__11
10
0
20
0
30
0
70
128
71
116
72
110
73
103
0
VERTEX
8
OBJECT__11
10
0
20
0
30
0
70
128
71
111
72
108
73
103
0
VERTEX
8
OBJECT__11
10
0
20
0
30
0
70
128
71
109
72
106
73
103
0
VERTEX
8
OBJECT__11
10
0
20
0
30
0
70
128
71
113
72
118
73
119
0
VERTEX
8
OBJECT__11
10
0
20
0
30
0
70
128
71
119
72
120
73
113
0
VERTEX
8
OBJECT__11
10
0
20
0
30
0
70
128
71
113
72
121
73
118
0
VERTEX
8
OBJECT__11
10
0
20
0
30
0
70
128
71
122
72
123
73
124
0
VERTEX
8
OBJECT__11
10
0
20
0
30
0
70
128
71
121
72
125
73
122
0
VERTEX
8
OBJECT__11
10
0
20
0
30
0
70
128
71
121
72
113
73
125
0
VERTEX
8
OBJECT__11
10
0
20
0
30
0
70
128
71
124
72
121
73
122
0
VERTEX
8
OBJECT__11
10
0
20
0
30
0
70
128
71
123
72
126
73
127
0
VERTEX
8
OBJECT__11
10
0
20
0
30
0
70
128
71
123
72
128
73
129
0
VERTEX
8
OBJECT__11
10
0
20
0
30
0
70
128
71
129
72
126
73
123
0
VERTEX
8
OBJECT__11
10
0
20
0
30
0
70
128
71
123
72
130
73
128
0
VERTEX
8
OBJECT__11
10
0
20
0
30
0
70
128
71
131
72
132
73
133
0
VERTEX
8
OBJECT__11
10
0
20
0
30
0
70
128
71
133
72
134
73
131
0
VERTEX
8
OBJECT__11
10
0
20
0
30
0
70
128
71
130
72
135
73
131
0
VERTEX
8
OBJECT__11
10
0
20
0
30
0
70
128
71
130
72
123
73
135
0
VERTEX
8
OBJECT__11
10
0
20
0
30
0
70
128
71
134
72
130
73
131
0
VERTEX
8
OBJECT__11
10
0
20
0
30
0
70
128
71
132
72
136
73
137
0
VERTEX
8
OBJECT__11
10
0
20
0
30
0
70
128
71
137
72
138
73
132
0
VERTEX
8
OBJECT__11
10
0
20
0
30
0
70
128
71
139
72
140
73
141
0
VERTEX
8
OBJECT__11
10
0
20
0
30
0
70
128
71
136
72
132
73
139
0
VERTEX
8
OBJECT__11
10
0
20
0
30
0
70
128
71
141
72
136
73
139
0
VERTEX
8
OBJECT__11
10
0
20
0
30
0
70
128
71
142
72
143
73
141
0
VERTEX
8
OBJECT__11
10
0
20
0
30
0
70
128
71
141
72
140
73
142
0
VERTEX
8
OBJECT__11
10
0
20
0
30
0
70
128
71
144
72
142
73
145
0
VERTEX
8
OBJECT__11
10
0
20
0
30
0
70
128
71
145
72
146
73
144
0
VERTEX
8
OBJECT__11
10
0
20
0
30
0
70
128
71
147
72
148
73
146
0
VERTEX
8
OBJECT__11
10
0
20
0
30
0
70
128
71
146
72
145
73
147
0
VERTEX
8
OBJECT__11
10
0
20
0
30
0
70
128
71
149
72
150
73
151
0
VERTEX
8
OBJECT__11
10
0
20
0
30
0
70
128
71
149
72
152
73
150
0
VERTEX
8
OBJECT__11
10
0
20
0
30
0
70
128
71
151
72
148
73
149
0
VERTEX
8
OBJECT__11
10
0
20
0
30
0
70
128
71
147
72
149
73
148
0
VERTEX
8
OBJECT__11
10
0
20
0
30
0
70
128
71
153
72
154
73
155
0
VERTEX
8
OBJECT__11
10
0
20
0
30
0
70
128
71
155
72
156
73
153
0
VERTEX
8
OBJECT__11
10
0
20
0
30
0
70
128
71
154
72
153
73
152
0
VERTEX
8
OBJECT__11
10
0
20
0
30
0
70
128
71
152
72
149
73
154
0
VERTEX
8
OBJECT__11
10
0
20
0
30
0
70
128
71
157
72
158
73
159
0
VERTEX
8
OBJECT__11
10
0
20
0
30
0
70
128
71
157
72
160
73
161
0
VERTEX
8
OBJECT__11
10
0
20
0
30
0
70
128
71
157
72
162
73
163
0
VERTEX
8
OBJECT__11
10
0
20
0
30
0
70
128
71
163
72
160
73
157
0
VERTEX
8
OBJECT__11
10
0
20
0
30
0
70
128
71
161
72
158
73
157
0
VERTEX
8
OBJECT__11
10
0
20
0
30
0
70
128
71
159
72
153
73
157
0
VERTEX
8
OBJECT__11
10
0
20
0
30
0
70
128
71
164
72
165
73
162
0
VERTEX
8
OBJECT__11
10
0
20
0
30
0
70
128
71
162
72
157
73
164
0
VERTEX
8
OBJECT__11
10
0
20
0
30
0
70
128
71
164
72
166
73
165
0
VERTEX
8
OBJECT__11
10
0
20
0
30
0
70
128
71
167
72
168
73
169
0
VERTEX
8
OBJECT__11
10
0
20
0
30
0
70
128
71
167
72
170
73
168
0
VERTEX
8
OBJECT__11
10
0
20
0
30
0
70
128
71
169
72
171
73
167
0
VERTEX
8
OBJECT__11
10
0
20
0
30
0
70
128
71
171
72
165
73
167
0
VERTEX
8
OBJECT__11
10
0
20
0
30
0
70
128
71
172
72
173
73
174
0
VERTEX
8
OBJECT__11
10
0
20
0
30
0
70
128
71
173
72
175
73
170
0
VERTEX
8
OBJECT__11
10
0
20
0
30
0
70
128
71
173
72
172
73
175
0
VERTEX
8
OBJECT__11
10
0
20
0
30
0
70
128
71
170
72
167
73
173
0
VERTEX
8
OBJECT__11
10
0
20
0
30
0
70
128
71
176
72
177
73
178
0
VERTEX
8
OBJECT__11
10
0
20
0
30
0
70
128
71
178
72
172
73
176
0
VERTEX
8
OBJECT__11
10
0
20
0
30
0
70
128
71
176
72
179
73
180
0
VERTEX
8
OBJECT__11
10
0
20
0
30
0
70
128
71
180
72
177
73
176
0
VERTEX
8
OBJECT__11
10
0
20
0
30
0
70
128
71
176
72
181
73
179
0
VERTEX
8
OBJECT__11
10
0
20
0
30
0
70
128
71
176
72
182
73
183
0
VERTEX
8
OBJECT__11
10
0
20
0
30
0
70
128
71
183
72
181
73
176
0
VERTEX
8
OBJECT__11
10
0
20
0
30
0
70
128
71
184
72
185
73
182
0
VERTEX
8
OBJECT__11
10
0
20
0
30
0
70
128
71
185
72
186
73
182
0
VERTEX
8
OBJECT__11
10
0
20
0
30
0
70
128
71
182
72
176
73
184
0
VERTEX
8
OBJECT__11
10
0
20
0
30
0
70
128
71
184
72
187
73
185
0
VERTEX
8
OBJECT__11
10
0
20
0
30
0
70
128
71
185
72
188
73
189
0
VERTEX
8
OBJECT__11
10
0
20
0
30
0
70
128
71
189
72
186
73
185
0
VERTEX
8
OBJECT__11
10
0
20
0
30
0
70
128
71
185
72
190
73
188
0
VERTEX
8
OBJECT__11
10
0
20
0
30
0
70
128
71
191
72
77
73
192
0
VERTEX
8
OBJECT__11
10
0
20
0
30
0
70
128
71
190
72
193
73
194
0
VERTEX
8
OBJECT__11
10
0
20
0
30
0
70
128
71
194
72
195
73
190
0
VERTEX
8
OBJECT__11
10
0
20
0
30
0
70
128
71
195
72
191
73
190
0
VERTEX
8
OBJECT__11
10
0
20
0
30
0
70
128
71
190
72
185
73
193
0
VERTEX
8
OBJECT__11
10
0
20
0
30
0
70
128
71
192
72
190
73
191
0
VERTEX
8
OBJECT__11
10
0
20
0
30
0
70
128
71
196
72
185
73
197
0
VERTEX
8
OBJECT__11
10
0
20
0
30
0
70
128
71
198
72
199
73
200
0
VERTEX
8
OBJECT__11
10
0
20
0
30
0
70
128
71
200
72
201
73
198
0
VERTEX
8
OBJECT__11
10
0
20
0
30
0
70
128
71
201
72
202
73
198
0
VERTEX
8
OBJECT__11
10
0
20
0
30
0
70
128
71
199
72
196
73
200
0
VERTEX
8
OBJECT__11
10
0
20
0
30
0
70
128
71
203
72
204
73
202
0
VERTEX
8
OBJECT__11
10
0
20
0
30
0
70
128
71
202
72
205
73
203
0
VERTEX
8
OBJECT__11
10
0
20
0
30
0
70
128
71
206
72
207
73
205
0
VERTEX
8
OBJECT__11
10
0
20
0
30
0
70
128
71
208
72
206
73
209
0
VERTEX
8
OBJECT__11
10
0
20
0
30
0
70
128
71
209
72
210
73
208
0
VERTEX
8
OBJECT__11
10
0
20
0
30
0
70
128
71
205
72
209
73
206
0
VERTEX
8
OBJECT__11
10
0
20
0
30
0
70
128
71
207
72
203
73
205
0
VERTEX
8
OBJECT__11
10
0
20
0
30
0
70
128
71
211
72
208
73
210
0
VERTEX
8
OBJECT__11
10
0
20
0
30
0
70
128
71
212
72
213
73
211
0
VERTEX
8
OBJECT__11
10
0
20
0
30
0
70
128
71
214
72
215
73
212
0
VERTEX
8
OBJECT__11
10
0
20
0
30
0
70
128
71
212
72
216
73
214
0
VERTEX
8
OBJECT__11
10
0
20
0
30
0
70
128
71
215
72
213
73
212
0
VERTEX
8
OBJECT__11
10
0
20
0
30
0
70
128
71
217
72
214
73
216
0
VERTEX
8
OBJECT__11
10
0
20
0
30
0
70
128
71
216
72
218
73
217
0
VERTEX
8
OBJECT__11
10
0
20
0
30
0
70
128
71
219
72
217
73
218
0
VERTEX
8
OBJECT__11
10
0
20
0
30
0
70
128
71
220
72
221
73
219
0
VERTEX
8
OBJECT__11
10
0
20
0
30
0
70
128
71
222
72
221
73
220
0
VERTEX
8
OBJECT__11
10
0
20
0
30
0
70
128
71
220
72
223
73
222
0
VERTEX
8
OBJECT__11
10
0
20
0
30
0
70
128
71
224
72
222
73
223
0
VERTEX
8
OBJECT__11
10
0
20
0
30
0
70
128
71
225
72
226
73
224
0
VERTEX
8
OBJECT__11
10
0
20
0
30
0
70
128
71
223
72
225
73
224
0
VERTEX
8
OBJECT__11
10
0
20
0
30
0
70
128
71
227
72
226
73
225
0
VERTEX
8
OBJECT__11
10
0
20
0
30
0
70
128
71
228
72
229
73
230
0
VERTEX
8
OBJECT__11
10
0
20
0
30
0
70
128
71
230
72
231
73
228
0
VERTEX
8
OBJECT__11
10
0
20
0
30
0
70
128
71
228
72
232
73
229
0
VERTEX
8
OBJECT__11
10
0
20
0
30
0
70
128
71
230
72
227
73
231
0
VERTEX
8
OBJECT__11
10
0
20
0
30
0
70
128
71
232
72
233
73
229
0
VERTEX
8
OBJECT__11
10
0
20
0
30
0
70
128
71
234
72
235
73
232
0
VERTEX
8
OBJECT__11
10
0
20
0
30
0
70
128
71
232
72
236
73
234
0
VERTEX
8
OBJECT__11
10
0
20
0
30
0
70
128
71
235
72
233
73
232
0
VERTEX
8
OBJECT__11
10
0
20
0
30
0
70
128
71
237
72
234
73
236
0
VERTEX
8
OBJECT__11
10
0
20
0
30
0
70
128
71
238
72
239
73
237
0
VERTEX
8
OBJECT__11
10
0
20
0
30
0
70
128
71
239
72
238
73
240
0
VERTEX
8
OBJECT__11
10
0
20
0
30
0
70
128
71
240
72
241
73
239
0
VERTEX
8
OBJECT__11
10
0
20
0
30
0
70
128
71
240
72
242
73
241
0
VERTEX
8
OBJECT__11
10
0
20
0
30
0
70
128
71
237
72
243
73
238
0
VERTEX
8
OBJECT__11
10
0
20
0
30
0
70
128
71
242
72
240
73
244
0
VERTEX
8
OBJECT__11
10
0
20
0
30
0
70
128
71
245
72
244
73
246
0
VERTEX
8
OBJECT__11
10
0
20
0
30
0
70
128
71
246
72
247
73
245
0
VERTEX
8
OBJECT__11
10
0
20
0
30
0
70
128
71
248
72
246
73
249
0
VERTEX
8
OBJECT__11
10
0
20
0
30
0
70
128
71
250
72
249
73
251
0
VERTEX
8
OBJECT__11
10
0
20
0
30
0
70
128
71
251
72
252
73
250
0
VERTEX
8
OBJECT__11
10
0
20
0
30
0
70
128
71
249
72
250
73
248
0
VERTEX
8
OBJECT__11
10
0
20
0
30
0
70
128
71
248
72
247
73
246
0
VERTEX
8
OBJECT__11
10
0
20
0
30
0
70
128
71
252
72
251
73
253
0
VERTEX
8
OBJECT__11
10
0
20
0
30
0
70
128
71
253
72
254
73
255
0
VERTEX
8
OBJECT__11
10
0
20
0
30
0
70
128
71
256
72
253
73
257
0
VERTEX
8
OBJECT__11
10
0
20
0
30
0
70
128
71
257
72
258
73
256
0
VERTEX
8
OBJECT__11
10
0
20
0
30
0
70
128
71
256
72
254
73
253
0
VERTEX
8
OBJECT__11
10
0
20
0
30
0
70
128
71
258
72
257
73
259
0
VERTEX
8
OBJECT__11
10
0
20
0
30
0
70
128
71
260
72
259
73
261
0
VERTEX
8
OBJECT__11
10
0
20
0
30
0
70
128
71
261
72
262
73
260
0
VERTEX
8
OBJECT__11
10
0
20
0
30
0
70
128
71
261
72
263
73
262
0
VERTEX
8
OBJECT__11
10
0
20
0
30
0
70
128
71
261
72
264
73
263
0
VERTEX
8
OBJECT__11
10
0
20
0
30
0
70
128
71
264
72
265
73
266
0
VERTEX
8
OBJECT__11
10
0
20
0
30
0
70
128
71
264
72
261
73
265
0
VERTEX
8
OBJECT__11
10
0
20
0
30
0
70
128
71
266
72
267
73
264
0
VERTEX
8
OBJECT__11
10
0
20
0
30
0
70
128
71
266
72
268
73
269
0
VERTEX
8
OBJECT__11
10
0
20
0
30
0
70
128
71
269
72
270
73
266
0
VERTEX
8
OBJECT__11
10
0
20
0
30
0
70
128
71
268
72
271
73
272
0
VERTEX
8
OBJECT__11
10
0
20
0
30
0
70
128
71
268
72
266
73
271
0
VERTEX
8
OBJECT__11
10
0
20
0
30
0
70
128
71
272
72
273
73
268
0
VERTEX
8
OBJECT__11
10
0
20
0
30
0
70
128
71
270
72
267
73
266
0
VERTEX
8
OBJECT__11
10
0
20
0
30
0
70
128
71
273
72
274
73
90
0
VERTEX
8
OBJECT__11
10
0
20
0
30
0
70
128
71
273
72
272
73
274
0
VERTEX
8
OBJECT__11
10
0
20
0
30
0
70
128
71
90
72
89
73
273
0
VERTEX
8
OBJECT__11
10
0
20
0
30
0
70
128
71
259
72
260
73
258
0
VERTEX
8
OBJECT__11
10
0
20
0
30
0
70
128
71
253
72
255
73
252
0
VERTEX
8
OBJECT__11
10
0
20
0
30
0
70
128
71
244
72
245
73
242
0
VERTEX
8
OBJECT__11
10
0
20
0
30
0
70
128
71
236
72
243
73
237
0
VERTEX
8
OBJECT__11
10
0
20
0
30
0
70
128
71
225
72
231
73
227
0
VERTEX
8
OBJECT__11
10
0
20
0
30
0
70
128
71
218
72
220
73
219
0
VERTEX
8
OBJECT__11
10
0
20
0
30
0
70
128
71
210
72
212
73
211
0
VERTEX
8
OBJECT__11
10
0
20
0
30
0
70
128
71
204
72
198
73
202
0
VERTEX
8
OBJECT__11
10
0
20
0
30
0
70
128
71
197
72
200
73
196
0
VERTEX
8
OBJECT__11
10
0
20
0
30
0
70
128
71
187
72
197
73
185
0
VERTEX
8
OBJECT__11
10
0
20
0
30
0
70
128
71
174
72
176
73
172
0
VERTEX
8
OBJECT__11
10
0
20
0
30
0
70
128
71
166
72
167
73
165
0
VERTEX
8
OBJECT__11
10
0
20
0
30
0
70
128
71
156
72
157
73
153
0
VERTEX
8
OBJECT__11
10
0
20
0
30
0
70
128
71
144
72
143
73
142
0
VERTEX
8
OBJECT__11
10
0
20
0
30
0
70
128
71
138
72
133
73
132
0
VERTEX
8
OBJECT__11
10
0
20
0
30
0
70
128
71
127
72
124
73
123
0
VERTEX
8
OBJECT__11
10
0
20
0
30
0
70
128
71
120
72
114
73
113
0
VERTEX
8
OBJECT__11
10
0
20
0
30
0
70
128
71
107
72
104
73
103
0
VERTEX
8
OBJECT__11
10
0
20
0
30
0
70
128
71
96
72
97
73
92
0
VERTEX
8
OBJECT__11
10
0
20
0
30
0
70
128
71
91
72
97
73
89
0
VERTEX
8
OBJECT__11
10
0
20
0
30
0
70
128
71
79
72
192
73
77
0
VERTEX
8
OBJECT__11
10
0
20
0
30
0
70
128
71
70
72
86
73
71
0
VERTEX
8
OBJECT__11
10
0
20
0
30
0
70
128
71
60
72
73
73
61
0
VERTEX
8
OBJECT__11
10
0
20
0
30
0
70
128
71
51
72
65
73
50
0
VERTEX
8
OBJECT__11
10
0
20
0
30
0
70
128
71
39
72
40
73
37
0
VERTEX
8
OBJECT__11
10
0
20
0
30
0
70
128
71
27
72
30
73
25
0
VERTEX
8
OBJECT__11
10
0
20
0
30
0
70
128
71
18
72
36
73
16
0
VERTEX
8
OBJECT__11
10
0
20
0
30
0
70
128
71
7
72
8
73
5
0
SEQEND
8
OBJECT__11
0
POLYLINE
8
OBJECT__13
66
1
70
64
71
65
72
63
62
253
0
VERTEX
8
OBJECT__13
10
-6.986000
20
23.985001
30
0.000000
70
192
0
VERTEX
8
OBJECT__13
10
-20.135000
20
15.116000
30
0.000000
70
192
0
VERTEX
8
OBJECT__13
10
-19.072001
20
16.500000
30
0.000000
70
192
0
VERTEX
8
OBJECT__13
10
20.347000
20
14.929000
30
0.000000
70
192
0
VERTEX
8
OBJECT__13
10
24.955000
20
4.582000
30
0.000000
70
192
0
VERTEX
8
OBJECT__13
10
25.368999
20
0.928000
30
0.000000
70
192
0
VERTEX
8
OBJECT__13
10
24.075001
20
7.860000
30
0.000000
70
192
0
VERTEX
8
OBJECT__13
10
20.452999
20
14.807000
30
0.000000
70
192
0
VERTEX
8
OBJECT__13
10
22.457001
20
11.658000
30
0.000000
70
192
0
VERTEX
8
OBJECT__13
10
-14.289000
20
20.590000
30
0.000000
70
192
0
VERTEX
8
OBJECT__13
10
-13.210000
20
21.348000
30
0.000000
70
192
0
VERTEX
8
OBJECT__13
10
-16.205999
20
19.243000
30
0.000000
70
192
0
VERTEX
8
OBJECT__13
10
-23.941999
20
8.109000
30
0.000000
70
192
0
VERTEX
8
OBJECT__13
10
-23.159000
20
10.240000
30
0.000000
70
192
0
VERTEX
8
OBJECT__13
10
-24.988001
20
-4.402000
30
0.000000
70
192
0
VERTEX
8
OBJECT__13
10
-25.377001
20
-0.666000
30
0.000000
70
192
0
VERTEX
8
OBJECT__13
10
25.334999
20
0.045000
30
0.000000
70
192
0
VERTEX
8
OBJECT__13
10
15.105000
20
20.090000
30
0.000000
70
192
0
VERTEX
8
OBJECT__13
10
15.120000
20
20.080999
30
0.000000
70
192
0
VERTEX
8
OBJECT__13
10
-21.299999
20
13.600000
30
0.000000
70
192
0
VERTEX
8
OBJECT__13
10
-25.326000
20
0.375000
30
0.000000
70
192
0
VERTEX
8
OBJECT__13
10
-25.191999
20
3.077000
30
0.000000
70
192
0
VERTEX
8
OBJECT__13
10
-24.038000
20
-8.035000
30
0.000000
70
192
0
VERTEX
8
OBJECT__13
10
-22.524000
20
-11.531000
30
0.000000
70
192
0
VERTEX
8
OBJECT__13
10
-24.035999
20
-8.045000
30
0.000000
70
192
0
VERTEX
8
OBJECT__13
10
-20.228001
20
-15.046000
30
0.000000
70
192
0
VERTEX
8
OBJECT__13
10
-20.570999
20
-14.648000
30
0.000000
70
192
0
VERTEX
8
OBJECT__13
10
7.917000
20
23.709000
30
0.000000
70
192
0
VERTEX
8
OBJECT__13
10
7.055000
20
-24.014999
30
0.000000
70
192
0
VERTEX
8
OBJECT__13
10
3.658000
20
-24.739000
30
0.000000
70
192
0
VERTEX
8
OBJECT__13
10
25.226000
20
-2.797000
30
0.000000
70
192
0
VERTEX
8
OBJECT__13
10
24.638000
20
-6.021000
30
0.000000
70
192
0
VERTEX
8
OBJECT__13
10
23.990000
20
8.178000
30
0.000000
70
192
0
VERTEX
8
OBJECT__13
10
17.966999
20
17.662001
30
0.000000
70
192
0
VERTEX
8
OBJECT__13
10
-24.445000
20
6.741000
30
0.000000
70
192
0
VERTEX
8
OBJECT__13
10
-25.354000
20
-0.198000
30
0.000000
70
192
0
VERTEX
8
OBJECT__13
10
-2.251000
20
24.900999
30
0.000000
70
192
0
VERTEX
8
OBJECT__13
10
-8.020000
20
-23.687000
30
0.000000
70
192
0
VERTEX
8
OBJECT__13
10
-8.482000
20
-23.563999
30
0.000000
70
192
0
VERTEX
8
OBJECT__13
10
8.058000
20
-23.650999
30
0.000000
70
192
0
VERTEX
8
OBJECT__13
10
15.220000
20
-19.912001
30
0.000000
70
192
0
VERTEX
8
OBJECT__13
10
13.644000
20
-21.080999
30
0.000000
70
192
0
VERTEX
8
OBJECT__13
10
24.027000
20
-7.846000
30
0.000000
70
192
0
VERTEX
8
OBJECT__13
10
8.620000
20
23.514999
30
0.000000
70
192
0
VERTEX
8
OBJECT__13
10
11.802000
20
22.134001
30
0.000000
70
192
0
VERTEX
8
OBJECT__13
10
-11.960000
20
-22.051001
30
0.000000
70
192
0
VERTEX
8
OBJECT__13
10
0.061000
20
-24.973000
30
0.000000
70
192
0
VERTEX
8
OBJECT__13
10
10.474000
20
-22.774000
30
0.000000
70
192
0
VERTEX
8
OBJECT__13
10
19.499001
20
-16.007000
30
0.000000
70
192
0
VERTEX
8
OBJECT__13
10
16.819000
20
-18.726000
30
0.000000
70
192
0
VERTEX
8
OBJECT__13
10
23.434999
20
-9.614000
30
0.000000
70
192
0
VERTEX
8
OBJECT__13
10
-6.151000
20
24.254000
30
0.000000
70
192
0
VERTEX
8
OBJECT__13
10
-15.230000
20
-19.997000
30
0.000000
70
192
0
VERTEX
8
OBJECT__13
10
-18.016001
20
-17.614000
30
0.000000
70
192
0
VERTEX
8
OBJECT__13
10
-15.203000
20
-20.021000
30
0.000000
70
192
0
VERTEX
8
OBJECT__13
10
20.275999
20
-14.935000
30
0.000000
70
192
0
VERTEX
8
OBJECT__13
10
21.714001
20
-12.949000
30
0.000000
70
192
0
VERTEX
8
OBJECT__13
10
-0.046000
20
-24.980000
30
0.000000
70
192
0
VERTEX
8
OBJECT__13
10
-0.029000
20
24.931999
30
0.000000
70
192
0
VERTEX
8
OBJECT__13
10
1.553000
20
24.952999
30
0.000000
70
192
0
VERTEX
8
OBJECT__13
10
-9.642000
20
23.127001
30
0.000000
70
192
0
VERTEX
8
OBJECT__13
10
-1.159000
20
-24.974001
30
0.000000
70
192
0
VERTEX
8
OBJECT__13
10
-4.771000
20
-24.554001
30
0.000000
70
192
0
VERTEX
8
OBJECT__13
10
-0.330000
20
-24.999001
30
0.000000
70
192
0
VERTEX
8
OBJECT__13
10
5.067000
20
24.496000
30
0.000000
70
192
0
VERTEX
8
OBJECT__13
10
0
20
0
30
0
70
128
71
1
72
2
73
3
0
VERTEX
8
OBJECT__13
10
0
20
0
30
0
70
128
71
4
72
5
73
6
0
VERTEX
8
OBJECT__13
10
0
20
0
30
0
70
128
71
7
72
8
73
9
0
VERTEX
8
OBJECT__13
10
0
20
0
30
0
70
128
71
1
72
10
73
11
0
VERTEX
8
OBJECT__13
10
0
20
0
30
0
70
128
71
3
72
12
73
1
0
VERTEX
8
OBJECT__13
10
0
20
0
30
0
70
128
71
1
72
13
73
14
0
VERTEX
8
OBJECT__13
10
0
20
0
30
0
70
128
71
1
72
15
73
16
0
VERTEX
8
OBJECT__13
10
0
20
0
30
0
70
128
71
4
72
7
73
5
0
VERTEX
8
OBJECT__13
10
0
20
0
30
0
70
128
71
7
72
4
73
8
0
VERTEX
8
OBJECT__13
10
0
20
0
30
0
70
128
71
17
72
18
73
19
0
VERTEX
8
OBJECT__13
10
0
20
0
30
0
70
128
71
12
72
10
73
1
0
VERTEX
8
OBJECT__13
10
0
20
0
30
0
70
128
71
14
72
20
73
1
0
VERTEX
8
OBJECT__13
10
0
20
0
30
0
70
128
71
1
72
21
73
22
0
VERTEX
8
OBJECT__13
10
0
20
0
30
0
70
128
71
1
72
23
73
15
0
VERTEX
8
OBJECT__13
10
0
20
0
30
0
70
128
71
1
72
24
73
25
0
VERTEX
8
OBJECT__13
10
0
20
0
30
0
70
128
71
1
72
26
73
27
0
VERTEX
8
OBJECT__13
10
0
20
0
30
0
70
128
71
28
72
29
73
30
0
VERTEX
8
OBJECT__13
10
0
20
0
30
0
70
128
71
18
72
31
73
32
0
VERTEX
8
OBJECT__13
10
0
20
0
30
0
70
128
71
9
72
33
73
7
0
VERTEX
8
OBJECT__13
10
0
20
0
30
0
70
128
71
19
72
34
73
17
0
VERTEX
8
OBJECT__13
10
0
20
0
30
0
70
128
71
20
72
2
73
1
0
VERTEX
8
OBJECT__13
10
0
20
0
30
0
70
128
71
22
72
35
73
1
0
VERTEX
8
OBJECT__13
10
0
20
0
30
0
70
128
71
16
72
36
73
1
0
VERTEX
8
OBJECT__13
10
0
20
0
30
0
70
128
71
27
72
24
73
1
0
VERTEX
8
OBJECT__13
10
0
20
0
30
0
70
128
71
37
72
38
73
39
0
VERTEX
8
OBJECT__13
10
0
20
0
30
0
70
128
71
28
72
40
73
29
0
VERTEX
8
OBJECT__13
10
0
20
0
30
0
70
128
71
28
72
41
73
42
0
VERTEX
8
OBJECT__13
10
0
20
0
30
0
70
128
71
18
72
17
73
31
0
VERTEX
8
OBJECT__13
10
0
20
0
30
0
70
128
71
34
72
4
73
17
0
VERTEX
8
OBJECT__13
10
0
20
0
30
0
70
128
71
43
72
44
73
45
0
VERTEX
8
OBJECT__13
10
0
20
0
30
0
70
128
71
35
72
13
73
1
0
VERTEX
8
OBJECT__13
10
0
20
0
30
0
70
128
71
25
72
23
73
1
0
VERTEX
8
OBJECT__13
10
0
20
0
30
0
70
128
71
39
72
46
73
37
0
VERTEX
8
OBJECT__13
10
0
20
0
30
0
70
128
71
30
72
47
73
28
0
VERTEX
8
OBJECT__13
10
0
20
0
30
0
70
128
71
42
72
48
73
28
0
VERTEX
8
OBJECT__13
10
0
20
0
30
0
70
128
71
28
72
49
73
50
0
VERTEX
8
OBJECT__13
10
0
20
0
30
0
70
128
71
28
72
43
73
51
0
VERTEX
8
OBJECT__13
10
0
20
0
30
0
70
128
71
6
72
17
73
4
0
VERTEX
8
OBJECT__13
10
0
20
0
30
0
70
128
71
43
72
28
73
44
0
VERTEX
8
OBJECT__13
10
0
20
0
30
0
70
128
71
26
72
1
73
52
0
VERTEX
8
OBJECT__13
10
0
20
0
30
0
70
128
71
36
72
21
73
1
0
VERTEX
8
OBJECT__13
10
0
20
0
30
0
70
128
71
37
72
53
73
54
0
VERTEX
8
OBJECT__13
10
0
20
0
30
0
70
128
71
46
72
55
73
37
0
VERTEX
8
OBJECT__13
10
0
20
0
30
0
70
128
71
48
72
40
73
28
0
VERTEX
8
OBJECT__13
10
0
20
0
30
0
70
128
71
28
72
56
73
49
0
VERTEX
8
OBJECT__13
10
0
20
0
30
0
70
128
71
51
72
57
73
28
0
VERTEX
8
OBJECT__13
10
0
20
0
30
0
70
128
71
45
72
18
73
43
0
VERTEX
8
OBJECT__13
10
0
20
0
30
0
70
128
71
58
72
59
73
60
0
VERTEX
8
OBJECT__13
10
0
20
0
30
0
70
128
71
11
72
61
73
1
0
VERTEX
8
OBJECT__13
10
0
20
0
30
0
70
128
71
55
72
53
73
37
0
VERTEX
8
OBJECT__13
10
0
20
0
30
0
70
128
71
37
72
62
73
63
0
VERTEX
8
OBJECT__13
10
0
20
0
30
0
70
128
71
37
72
58
73
64
0
VERTEX
8
OBJECT__13
10
0
20
0
30
0
70
128
71
50
72
41
73
28
0
VERTEX
8
OBJECT__13
10
0
20
0
30
0
70
128
71
32
72
43
73
18
0
VERTEX
8
OBJECT__13
10
0
20
0
30
0
70
128
71
60
72
65
73
58
0
VERTEX
8
OBJECT__13
10
0
20
0
30
0
70
128
71
54
72
26
73
37
0
VERTEX
8
OBJECT__13
10
0
20
0
30
0
70
128
71
64
72
62
73
37
0
VERTEX
8
OBJECT__13
10
0
20
0
30
0
70
128
71
57
72
56
73
28
0
VERTEX
8
OBJECT__13
10
0
20
0
30
0
70
128
71
58
72
37
73
59
0
VERTEX
8
OBJECT__13
10
0
20
0
30
0
70
128
71
63
72
38
73
37
0
VERTEX
8
OBJECT__13
10
0
20
0
30
0
70
128
71
65
72
28
73
58
0
VERTEX
8
OBJECT__13
10
0
20
0
30
0
70
128
71
47
72
58
73
28
0
VERTEX
8
OBJECT__13
10
0
20
0
30
0
70
128
71
52
72
37
73
26
0
SEQEND
8
OBJECT__13
0
POLYLINE
8
OBJECT__14
66
1
70
64
71
36
72
40
62
253
0
VERTEX
8
OBJECT__14
10
29.600000
20
-19.836000
30
80.247002
70
192
0
VERTEX
8
OBJECT__14
10
30.304001
20
-20.076000
30
76.907997
70
192
0
VERTEX
8
OBJECT__14
10
32.040001
20
-18.271999
30
78.143997
70
192
0
VERTEX
8
OBJECT__14
10
31.611000
20
-18.247999
30
80.858002
70
192
0
VERTEX
8
OBJECT__14
10
29.393999
20
-19.964001
30
80.156998
70
192
0
VERTEX
8
OBJECT__14
10
32.632999
20
-18.742001
30
76.997002
70
192
0
VERTEX
8
OBJECT__14
10
32.087002
20
-21.641001
30
74.499001
70
192
0
VERTEX
8
OBJECT__14
10
33.226002
20
-19.211000
30
75.849998
70
192
0
VERTEX
8
OBJECT__14
10
34.921001
20
-20.865999
30
74.457001
70
192
0
VERTEX
8
OBJECT__14
10
29.333000
20
-20.000999
30
80.130997
70
192
0
VERTEX
8
OBJECT__14
10
27.055000
20
-21.413000
30
79.139000
70
192
0
VERTEX
8
OBJECT__14
10
27.768000
20
-21.413000
30
76.553001
70
192
0
VERTEX
8
OBJECT__14
10
29.080999
20
-22.341000
30
74.444000
70
192
0
VERTEX
8
OBJECT__14
10
26.867001
20
-21.503000
30
79.036003
70
192
0
VERTEX
8
OBJECT__14
10
24.597000
20
-22.587999
30
77.792999
70
192
0
VERTEX
8
OBJECT__14
10
25.086000
20
-22.545000
30
75.896004
70
192
0
VERTEX
8
OBJECT__14
10
26.025000
20
-22.947001
30
74.299004
70
192
0
VERTEX
8
OBJECT__14
10
24.323999
20
-22.688000
30
77.603996
70
192
0
VERTEX
8
OBJECT__14
10
22.430000
20
-23.378000
30
76.292000
70
192
0
VERTEX
8
OBJECT__14
10
23.072001
20
-23.225000
30
75.194000
70
192
0
VERTEX
8
OBJECT__14
10
23.788000
20
-23.332001
30
74.115997
70
192
0
VERTEX
8
OBJECT__14
10
25.197001
20
-23.090000
30
74.231003
70
192
0
VERTEX
8
OBJECT__14
10
22.246000
20
-23.445000
30
76.164001
70
192
0
VERTEX
8
OBJECT__14
10
21.520000
20
-23.646999
30
75.421997
70
192
0
VERTEX
8
OBJECT__14
10
22.073999
20
-23.509001
30
74.713997
70
192
0
VERTEX
8
OBJECT__14
10
22.700001
20
-23.500999
30
73.973999
70
192
0
VERTEX
8
OBJECT__14
10
21.010000
20
-23.790001
30
74.900002
70
192
0
VERTEX
8
OBJECT__14
10
20.848000
20
-23.820999
30
74.549004
70
192
0
VERTEX
8
OBJECT__14
10
21.363001
20
-23.684000
30
74.183998
70
192
0
VERTEX
8
OBJECT__14
10
21.343000
20
-23.697001
30
75.240997
70
192
0
VERTEX
8
OBJECT__14
10
21.941000
20
-23.611000
30
73.796997
70
192
0
VERTEX
8
OBJECT__14
10
20.822001
20
-23.806000
30
73.819000
70
192
0
VERTEX
8
OBJECT__14
10
21.106001
20
-23.732000
30
73.759003
70
192
0
VERTEX
8
OBJECT__14
10
20.540001
20
-23.879999
30
73.878998
70
192
0
VERTEX
8
OBJECT__14
10
21.683001
20
-23.643000
30
73.638000
70
192
0
VERTEX
8
OBJECT__14
10
21.900999
20
-23.615999
30
73.772003
70
192
0
VERTEX
8
OBJECT__14
10
0
20
0
30
0
70
128
71
1
72
2
73
3
0
VERTEX
8
OBJECT__14
10
0
20
0
30
0
70
128
71
3
72
4
73
1
0
VERTEX
8
OBJECT__14
10
0
20
0
30
0
70
128
71
1
72
5
73
2
0
VERTEX
8
OBJECT__14
10
0
20
0
30
0
70
128
71
2
72
6
73
3
0
VERTEX
8
OBJECT__14
10
0
20
0
30
0
70
128
71
2
72
7
73
8
0
VERTEX
8
OBJECT__14
10
0
20
0
30
0
70
128
71
7
72
9
73
8
0
VERTEX
8
OBJECT__14
10
0
20
0
30
0
70
128
71
2
72
10
73
11
0
VERTEX
8
OBJECT__14
10
0
20
0
30
0
70
128
71
11
72
12
73
2
0
VERTEX
8
OBJECT__14
10
0
20
0
30
0
70
128
71
2
72
12
73
13
0
VERTEX
8
OBJECT__14
10
0
20
0
30
0
70
128
71
12
72
14
73
15
0
VERTEX
8
OBJECT__14
10
0
20
0
30
0
70
128
71
15
72
16
73
12
0
VERTEX
8
OBJECT__14
10
0
20
0
30
0
70
128
71
12
72
16
73
17
0
VERTEX
8
OBJECT__14
10
0
20
0
30
0
70
128
71
18
72
19
73
20
0
VERTEX
8
OBJECT__14
10
0
20
0
30
0
70
128
71
16
72
20
73
21
0
VERTEX
8
OBJECT__14
10
0
20
0
30
0
70
128
71
21
72
22
73
16
0
VERTEX
8
OBJECT__14
10
0
20
0
30
0
70
128
71
23
72
24
73
25
0
VERTEX
8
OBJECT__14
10
0
20
0
30
0
70
128
71
20
72
19
73
23
0
VERTEX
8
OBJECT__14
10
0
20
0
30
0
70
128
71
20
72
25
73
26
0
VERTEX
8
OBJECT__14
10
0
20
0
30
0
70
128
71
27
72
28
73
29
0
VERTEX
8
OBJECT__14
10
0
20
0
30
0
70
128
71
25
72
30
73
27
0
VERTEX
8
OBJECT__14
10
0
20
0
30
0
70
128
71
25
72
24
73
30
0
VERTEX
8
OBJECT__14
10
0
20
0
30
0
70
128
71
25
72
29
73
31
0
VERTEX
8
OBJECT__14
10
0
20
0
30
0
70
128
71
28
72
32
73
33
0
VERTEX
8
OBJECT__14
10
0
20
0
30
0
70
128
71
28
72
34
73
32
0
VERTEX
8
OBJECT__14
10
0
20
0
30
0
70
128
71
29
72
33
73
35
0
VERTEX
8
OBJECT__14
10
0
20
0
30
0
70
128
71
35
72
36
73
29
0
VERTEX
8
OBJECT__14
10
0
20
0
30
0
70
128
71
36
72
31
73
29
0
VERTEX
8
OBJECT__14
10
0
20
0
30
0
70
128
71
33
72
29
73
28
0
VERTEX
8
OBJECT__14
10
0
20
0
30
0
70
128
71
31
72
26
73
25
0
VERTEX
8
OBJECT__14
10
0
20
0
30
0
70
128
71
29
72
25
73
27
0
VERTEX
8
OBJECT__14
10
0
20
0
30
0
70
128
71
26
72
21
73
20
0
VERTEX
8
OBJECT__14
10
0
20
0
30
0
70
128
71
25
72
20
73
23
0
VERTEX
8
OBJECT__14
10
0
20
0
30
0
70
128
71
22
72
17
73
16
0
VERTEX
8
OBJECT__14
10
0
20
0
30
0
70
128
71
20
72
16
73
18
0
VERTEX
8
OBJECT__14
10
0
20
0
30
0
70
128
71
17
72
13
73
12
0
VERTEX
8
OBJECT__14
10
0
20
0
30
0
70
128
71
15
72
18
73
16
0
VERTEX
8
OBJECT__14
10
0
20
0
30
0
70
128
71
13
72
7
73
2
0
VERTEX
8
OBJECT__14
10
0
20
0
30
0
70
128
71
11
72
14
73
12
0
VERTEX
8
OBJECT__14
10
0
20
0
30
0
70
128
71
8
72
6
73
2
0
VERTEX
8
OBJECT__14
10
0
20
0
30
0
70
128
71
5
72
10
73
2
0
SEQEND
8
OBJECT__14
0
POLYLINE
8
OBJECT__15
66
1
70
64
71
86
72
112
62
253
0
VERTEX
8
OBJECT__15
10
31.924000
20
18.266001
30
78.880997
70
192
0
VERTEX
8
OBJECT__15
10
31.611000
20
18.247999
30
80.858002
70
192
0
VERTEX
8
OBJECT__15
10
33.007000
20
16.917999
30
81.185997
70
192
0
VERTEX
8
OBJECT__15
10
34.634998
20
15.548000
30
78.664001
70
192
0
VERTEX
8
OBJECT__15
10
32.040001
20
18.271999
30
78.143997
70
192
0
VERTEX
8
OBJECT__15
10
36.025002
20
16.348000
30
76.295998
70
192
0
VERTEX
8
OBJECT__15
10
32.633999
20
18.742001
30
76.997002
70
192
0
VERTEX
8
OBJECT__15
10
33.227001
20
19.211000
30
75.849998
70
192
0
VERTEX
8
OBJECT__15
10
38.048000
20
17.830999
30
74.922997
70
192
0
VERTEX
8
OBJECT__15
10
34.921001
20
20.865999
30
74.457001
70
192
0
VERTEX
8
OBJECT__15
10
33.687000
20
19.660000
30
75.472000
70
192
0
VERTEX
8
OBJECT__15
10
34.706001
20
14.902000
30
81.635002
70
192
0
VERTEX
8
OBJECT__15
10
35.424000
20
14.051000
30
81.824997
70
192
0
VERTEX
8
OBJECT__15
10
36.926998
20
12.300000
30
79.200996
70
192
0
VERTEX
8
OBJECT__15
10
34.143002
20
15.570000
30
81.486000
70
192
0
VERTEX
8
OBJECT__15
10
38.499001
20
12.936000
30
76.761002
70
192
0
VERTEX
8
OBJECT__15
10
36.457001
20
12.392000
30
82.130997
70
192
0
VERTEX
8
OBJECT__15
10
37.327999
20
10.993000
30
82.389999
70
192
0
VERTEX
8
OBJECT__15
10
38.515999
20
9.151000
30
79.617996
70
192
0
VERTEX
8
OBJECT__15
10
40.219002
20
9.625000
30
77.122002
70
192
0
VERTEX
8
OBJECT__15
10
40.840000
20
14.180000
30
75.418999
70
192
0
VERTEX
8
OBJECT__15
10
39.612999
20
5.891000
30
79.927002
70
192
0
VERTEX
8
OBJECT__15
10
38.685001
20
7.860000
30
82.829002
70
192
0
VERTEX
8
OBJECT__15
10
38.786999
20
7.626000
30
82.862000
70
192
0
VERTEX
8
OBJECT__15
10
38.077000
20
9.263000
30
82.632004
70
192
0
VERTEX
8
OBJECT__15
10
41.408001
20
6.196000
30
77.390999
70
192
0
VERTEX
8
OBJECT__15
10
42.834000
20
10.517000
30
75.817001
70
192
0
VERTEX
8
OBJECT__15
10
44.180000
20
6.840000
30
76.107002
70
192
0
VERTEX
8
OBJECT__15
10
39.228001
20
5.990000
30
83.012001
70
192
0
VERTEX
8
OBJECT__15
10
39.634998
20
4.484000
30
83.150002
70
192
0
VERTEX
8
OBJECT__15
10
39.987999
20
4.188000
30
80.036003
70
192
0
VERTEX
8
OBJECT__15
10
41.813999
20
4.407000
30
77.486000
70
192
0
VERTEX
8
OBJECT__15
10
39.660000
20
4.274000
30
83.158997
70
192
0
VERTEX
8
OBJECT__15
10
40.054001
20
0.972000
30
83.295998
70
192
0
VERTEX
8
OBJECT__15
10
40.353001
20
0.836000
30
80.143997
70
192
0
VERTEX
8
OBJECT__15
10
42.209999
20
0.881000
30
77.579002
70
192
0
VERTEX
8
OBJECT__15
10
44.652000
20
4.871000
30
76.212997
70
192
0
VERTEX
8
OBJECT__15
10
40.234001
20
-2.487000
30
80.109001
70
192
0
VERTEX
8
OBJECT__15
10
40.021999
20
0.045000
30
83.285004
70
192
0
VERTEX
8
OBJECT__15
10
40.049999
20
0.855000
30
83.294998
70
192
0
VERTEX
8
OBJECT__15
10
42.081001
20
-2.617000
30
77.549004
70
192
0
VERTEX
8
OBJECT__15
10
44.963001
20
-2.896000
30
76.282997
70
192
0
VERTEX
8
OBJECT__15
10
45.076000
20
0.000000
30
76.308998
70
192
0
VERTEX
8
OBJECT__15
10
39.930000
20
-2.578000
30
83.251999
70
192
0
VERTEX
8
OBJECT__15
10
39.709000
20
-3.806000
30
83.176003
70
192
0
VERTEX
8
OBJECT__15
10
40.066002
20
-3.736000
30
80.058998
70
192
0
VERTEX
8
OBJECT__15
10
41.898998
20
-3.931000
30
77.505997
70
192
0
VERTEX
8
OBJECT__15
10
44.750000
20
-4.347000
30
76.235001
70
192
0
VERTEX
8
OBJECT__15
10
39.273998
20
-7.076000
30
79.829002
70
192
0
VERTEX
8
OBJECT__15
10
39.388000
20
-5.594000
30
83.065002
70
192
0
VERTEX
8
OBJECT__15
10
41.040001
20
-7.443000
30
77.306000
70
192
0
VERTEX
8
OBJECT__15
10
43.752998
20
-8.207000
30
76.013000
70
192
0
VERTEX
8
OBJECT__15
10
38.639999
20
-7.851000
30
82.815002
70
192
0
VERTEX
8
OBJECT__15
10
38.237000
20
-9.065000
30
82.680000
70
192
0
VERTEX
8
OBJECT__15
10
37.999001
20
-10.304000
30
79.477997
70
192
0
VERTEX
8
OBJECT__15
10
38.862000
20
-7.182000
30
82.889000
70
192
0
VERTEX
8
OBJECT__15
10
39.658001
20
-10.838000
30
77.000999
70
192
0
VERTEX
8
OBJECT__15
10
42.762001
20
-10.515000
30
75.805000
70
192
0
VERTEX
8
OBJECT__15
10
42.162998
20
-11.911000
30
75.678001
70
192
0
VERTEX
8
OBJECT__15
10
37.547001
20
-10.411000
30
82.463997
70
192
0
VERTEX
8
OBJECT__15
10
37.230999
20
-11.027000
30
82.364998
70
192
0
VERTEX
8
OBJECT__15
10
37.692001
20
-10.921000
30
79.397003
70
192
0
VERTEX
8
OBJECT__15
10
39.326000
20
-11.487000
30
76.931000
70
192
0
VERTEX
8
OBJECT__15
10
41.783001
20
-12.615000
30
75.601997
70
192
0
VERTEX
8
OBJECT__15
10
35.785999
20
-14.049000
30
78.924004
70
192
0
VERTEX
8
OBJECT__15
10
36.523998
20
-12.404000
30
82.143997
70
192
0
VERTEX
8
OBJECT__15
10
37.265999
20
-14.773000
30
76.521004
70
192
0
VERTEX
8
OBJECT__15
10
39.444000
20
-16.150999
30
75.162003
70
192
0
VERTEX
8
OBJECT__15
10
33.410000
20
-16.931000
30
78.406998
70
192
0
VERTEX
8
OBJECT__15
10
34.313999
20
-15.472000
30
81.519997
70
192
0
VERTEX
8
OBJECT__15
10
35.297001
20
-14.108000
30
81.797997
70
192
0
VERTEX
8
OBJECT__15
10
34.689999
20
-14.950000
30
81.626999
70
192
0
VERTEX
8
OBJECT__15
10
34.702999
20
-17.799999
30
76.073997
70
192
0
VERTEX
8
OBJECT__15
10
36.567001
20
-19.375000
30
74.690002
70
192
0
VERTEX
8
OBJECT__15
10
32.917999
20
-16.905001
30
81.178001
70
192
0
VERTEX
8
OBJECT__15
10
32.452999
20
-17.382999
30
81.064003
70
192
0
VERTEX
8
OBJECT__15
10
32.935001
20
-17.417999
30
78.311996
70
192
0
VERTEX
8
OBJECT__15
10
34.191002
20
-18.313000
30
75.994003
70
192
0
VERTEX
8
OBJECT__15
10
35.994999
20
-19.917000
30
74.606003
70
192
0
VERTEX
8
OBJECT__15
10
31.611000
20
-18.247999
30
80.858002
70
192
0
VERTEX
8
OBJECT__15
10
32.040001
20
-18.271999
30
78.143997
70
192
0
VERTEX
8
OBJECT__15
10
32.632999
20
-18.742001
30
76.997002
70
192
0
VERTEX
8
OBJECT__15
10
34.921001
20
-20.865999
30
74.457001
70
192
0
VERTEX
8
OBJECT__15
10
33.226002
20
-19.211000
30
75.849998
70
192
0
VERTEX
8
OBJECT__15
10
45.113998
20
0.975000
30
76.318001
70
192
0
VERTEX
8
OBJECT__15
10
42.806000
20
10.592000
30
75.810997
70
192
0
VERTEX
8
OBJECT__15
10
0
20
0
30
0
70
128
71
1
72
2
73
3
0
VERTEX
8
OBJECT__15
10
0
20
0
30
0
70
128
71
4
72
5
73
1
0
VERTEX
8
OBJECT__15
10
0
20
0
30
0
70
128
71
3
72
4
73
1
0
VERTEX
8
OBJECT__15
10
0
20
0
30
0
70
128
71
4
72
6
73
7
0
VERTEX
8
OBJECT__15
10
0
20
0
30
0
70
128
71
6
72
8
73
7
0
VERTEX
8
OBJECT__15
10
0
20
0
30
0
70
128
71
9
72
10
73
11
0
VERTEX
8
OBJECT__15
10
0
20
0
30
0
70
128
71
11
72
6
73
9
0
VERTEX
8
OBJECT__15
10
0
20
0
30
0
70
128
71
4
72
12
73
13
0
VERTEX
8
OBJECT__15
10
0
20
0
30
0
70
128
71
13
72
14
73
4
0
VERTEX
8
OBJECT__15
10
0
20
0
30
0
70
128
71
4
72
15
73
12
0
VERTEX
8
OBJECT__15
10
0
20
0
30
0
70
128
71
14
72
16
73
6
0
VERTEX
8
OBJECT__15
10
0
20
0
30
0
70
128
71
9
72
6
73
16
0
VERTEX
8
OBJECT__15
10
0
20
0
30
0
70
128
71
14
72
17
73
18
0
VERTEX
8
OBJECT__15
10
0
20
0
30
0
70
128
71
18
72
19
73
14
0
VERTEX
8
OBJECT__15
10
0
20
0
30
0
70
128
71
19
72
20
73
16
0
VERTEX
8
OBJECT__15
10
0
20
0
30
0
70
128
71
21
72
16
73
20
0
VERTEX
8
OBJECT__15
10
0
20
0
30
0
70
128
71
22
72
19
73
23
0
VERTEX
8
OBJECT__15
10
0
20
0
30
0
70
128
71
23
72
24
73
22
0
VERTEX
8
OBJECT__15
10
0
20
0
30
0
70
128
71
19
72
25
73
23
0
VERTEX
8
OBJECT__15
10
0
20
0
30
0
70
128
71
22
72
26
73
20
0
VERTEX
8
OBJECT__15
10
0
20
0
30
0
70
128
71
27
72
20
73
26
0
VERTEX
8
OBJECT__15
10
0
20
0
30
0
70
128
71
26
72
28
73
27
0
VERTEX
8
OBJECT__15
10
0
20
0
30
0
70
128
71
22
72
29
73
30
0
VERTEX
8
OBJECT__15
10
0
20
0
30
0
70
128
71
30
72
31
73
22
0
VERTEX
8
OBJECT__15
10
0
20
0
30
0
70
128
71
31
72
32
73
26
0
VERTEX
8
OBJECT__15
10
0
20
0
30
0
70
128
71
28
72
26
73
32
0
VERTEX
8
OBJECT__15
10
0
20
0
30
0
70
128
71
31
72
33
73
34
0
VERTEX
8
OBJECT__15
10
0
20
0
30
0
70
128
71
34
72
35
73
31
0
VERTEX
8
OBJECT__15
10
0
20
0
30
0
70
128
71
35
72
36
73
32
0
VERTEX
8
OBJECT__15
10
0
20
0
30
0
70
128
71
37
72
32
73
36
0
VERTEX
8
OBJECT__15
10
0
20
0
30
0
70
128
71
38
72
35
73
39
0
VERTEX
8
OBJECT__15
10
0
20
0
30
0
70
128
71
35
72
40
73
39
0
VERTEX
8
OBJECT__15
10
0
20
0
30
0
70
128
71
38
72
41
73
36
0
VERTEX
8
OBJECT__15
10
0
20
0
30
0
70
128
71
41
72
42
73
43
0
VERTEX
8
OBJECT__15
10
0
20
0
30
0
70
128
71
43
72
36
73
41
0
VERTEX
8
OBJECT__15
10
0
20
0
30
0
70
128
71
38
72
44
73
45
0
VERTEX
8
OBJECT__15
10
0
20
0
30
0
70
128
71
46
72
47
73
41
0
VERTEX
8
OBJECT__15
10
0
20
0
30
0
70
128
71
48
72
42
73
41
0
VERTEX
8
OBJECT__15
10
0
20
0
30
0
70
128
71
49
72
46
73
50
0
VERTEX
8
OBJECT__15
10
0
20
0
30
0
70
128
71
46
72
45
73
50
0
VERTEX
8
OBJECT__15
10
0
20
0
30
0
70
128
71
49
72
51
73
47
0
VERTEX
8
OBJECT__15
10
0
20
0
30
0
70
128
71
52
72
48
73
47
0
VERTEX
8
OBJECT__15
10
0
20
0
30
0
70
128
71
49
72
53
73
54
0
VERTEX
8
OBJECT__15
10
0
20
0
30
0
70
128
71
54
72
55
73
49
0
VERTEX
8
OBJECT__15
10
0
20
0
30
0
70
128
71
49
72
56
73
53
0
VERTEX
8
OBJECT__15
10
0
20
0
30
0
70
128
71
55
72
57
73
51
0
VERTEX
8
OBJECT__15
10
0
20
0
30
0
70
128
71
51
72
57
73
58
0
VERTEX
8
OBJECT__15
10
0
20
0
30
0
70
128
71
57
72
59
73
58
0
VERTEX
8
OBJECT__15
10
0
20
0
30
0
70
128
71
55
72
60
73
61
0
VERTEX
8
OBJECT__15
10
0
20
0
30
0
70
128
71
62
72
63
73
57
0
VERTEX
8
OBJECT__15
10
0
20
0
30
0
70
128
71
64
72
59
73
57
0
VERTEX
8
OBJECT__15
10
0
20
0
30
0
70
128
71
65
72
62
73
66
0
VERTEX
8
OBJECT__15
10
0
20
0
30
0
70
128
71
62
72
61
73
66
0
VERTEX
8
OBJECT__15
10
0
20
0
30
0
70
128
71
65
72
67
73
63
0
VERTEX
8
OBJECT__15
10
0
20
0
30
0
70
128
71
68
72
64
73
63
0
VERTEX
8
OBJECT__15
10
0
20
0
30
0
70
128
71
69
72
65
73
70
0
VERTEX
8
OBJECT__15
10
0
20
0
30
0
70
128
71
65
72
71
73
72
0
VERTEX
8
OBJECT__15
10
0
20
0
30
0
70
128
71
72
72
70
73
65
0
VERTEX
8
OBJECT__15
10
0
20
0
30
0
70
128
71
69
72
73
73
67
0
VERTEX
8
OBJECT__15
10
0
20
0
30
0
70
128
71
74
72
68
73
67
0
VERTEX
8
OBJECT__15
10
0
20
0
30
0
70
128
71
69
72
75
73
76
0
VERTEX
8
OBJECT__15
10
0
20
0
30
0
70
128
71
77
72
78
73
73
0
VERTEX
8
OBJECT__15
10
0
20
0
30
0
70
128
71
73
72
78
73
79
0
VERTEX
8
OBJECT__15
10
0
20
0
30
0
70
128
71
77
72
76
73
80
0
VERTEX
8
OBJECT__15
10
0
20
0
30
0
70
128
71
77
72
81
73
82
0
VERTEX
8
OBJECT__15
10
0
20
0
30
0
70
128
71
82
72
78
73
77
0
VERTEX
8
OBJECT__15
10
0
20
0
30
0
70
128
71
83
72
79
73
78
0
VERTEX
8
OBJECT__15
10
0
20
0
30
0
70
128
71
78
72
84
73
83
0
VERTEX
8
OBJECT__15
10
0
20
0
30
0
70
128
71
82
72
84
73
78
0
VERTEX
8
OBJECT__15
10
0
20
0
30
0
70
128
71
80
72
81
73
77
0
VERTEX
8
OBJECT__15
10
0
20
0
30
0
70
128
71
79
72
74
73
73
0
VERTEX
8
OBJECT__15
10
0
20
0
30
0
70
128
71
73
72
69
73
77
0
VERTEX
8
OBJECT__15
10
0
20
0
30
0
70
128
71
76
72
77
73
69
0
VERTEX
8
OBJECT__15
10
0
20
0
30
0
70
128
71
67
72
73
73
74
0
VERTEX
8
OBJECT__15
10
0
20
0
30
0
70
128
71
67
72
65
73
69
0
VERTEX
8
OBJECT__15
10
0
20
0
30
0
70
128
71
70
72
75
73
69
0
VERTEX
8
OBJECT__15
10
0
20
0
30
0
70
128
71
63
72
67
73
68
0
VERTEX
8
OBJECT__15
10
0
20
0
30
0
70
128
71
63
72
62
73
65
0
VERTEX
8
OBJECT__15
10
0
20
0
30
0
70
128
71
66
72
71
73
65
0
VERTEX
8
OBJECT__15
10
0
20
0
30
0
70
128
71
57
72
63
73
64
0
VERTEX
8
OBJECT__15
10
0
20
0
30
0
70
128
71
57
72
55
73
62
0
VERTEX
8
OBJECT__15
10
0
20
0
30
0
70
128
71
61
72
62
73
55
0
VERTEX
8
OBJECT__15
10
0
20
0
30
0
70
128
71
58
72
52
73
51
0
VERTEX
8
OBJECT__15
10
0
20
0
30
0
70
128
71
51
72
49
73
55
0
VERTEX
8
OBJECT__15
10
0
20
0
30
0
70
128
71
54
72
60
73
55
0
VERTEX
8
OBJECT__15
10
0
20
0
30
0
70
128
71
47
72
51
73
52
0
VERTEX
8
OBJECT__15
10
0
20
0
30
0
70
128
71
47
72
46
73
49
0
VERTEX
8
OBJECT__15
10
0
20
0
30
0
70
128
71
50
72
56
73
49
0
VERTEX
8
OBJECT__15
10
0
20
0
30
0
70
128
71
41
72
47
73
48
0
VERTEX
8
OBJECT__15
10
0
20
0
30
0
70
128
71
41
72
38
73
46
0
VERTEX
8
OBJECT__15
10
0
20
0
30
0
70
128
71
45
72
46
73
38
0
VERTEX
8
OBJECT__15
10
0
20
0
30
0
70
128
71
43
72
85
73
36
0
VERTEX
8
OBJECT__15
10
0
20
0
30
0
70
128
71
36
72
35
73
38
0
VERTEX
8
OBJECT__15
10
0
20
0
30
0
70
128
71
39
72
44
73
38
0
VERTEX
8
OBJECT__15
10
0
20
0
30
0
70
128
71
36
72
85
73
37
0
VERTEX
8
OBJECT__15
10
0
20
0
30
0
70
128
71
32
72
31
73
35
0
VERTEX
8
OBJECT__15
10
0
20
0
30
0
70
128
71
34
72
40
73
35
0
VERTEX
8
OBJECT__15
10
0
20
0
30
0
70
128
71
32
72
37
73
28
0
VERTEX
8
OBJECT__15
10
0
20
0
30
0
70
128
71
26
72
22
73
31
0
VERTEX
8
OBJECT__15
10
0
20
0
30
0
70
128
71
30
72
33
73
31
0
VERTEX
8
OBJECT__15
10
0
20
0
30
0
70
128
71
27
72
86
73
20
0
VERTEX
8
OBJECT__15
10
0
20
0
30
0
70
128
71
20
72
19
73
22
0
VERTEX
8
OBJECT__15
10
0
20
0
30
0
70
128
71
24
72
29
73
22
0
VERTEX
8
OBJECT__15
10
0
20
0
30
0
70
128
71
20
72
86
73
21
0
VERTEX
8
OBJECT__15
10
0
20
0
30
0
70
128
71
16
72
14
73
19
0
VERTEX
8
OBJECT__15
10
0
20
0
30
0
70
128
71
18
72
25
73
19
0
VERTEX
8
OBJECT__15
10
0
20
0
30
0
70
128
71
16
72
21
73
9
0
VERTEX
8
OBJECT__15
10
0
20
0
30
0
70
128
71
6
72
4
73
14
0
VERTEX
8
OBJECT__15
10
0
20
0
30
0
70
128
71
13
72
17
73
14
0
VERTEX
8
OBJECT__15
10
0
20
0
30
0
70
128
71
11
72
8
73
6
0
VERTEX
8
OBJECT__15
10
0
20
0
30
0
70
128
71
7
72
5
73
4
0
VERTEX
8
OBJECT__15
10
0
20
0
30
0
70
128
71
3
72
15
73
4
0
SEQEND
8
OBJECT__15
0
POLYLINE
8
OBJECT__16
66
1
70
64
71
178
72
229
62
253
0
VERTEX
8
OBJECT__16
10
29.909000
20
4.080000
30
25.150000
70
192
0
VERTEX
8
OBJECT__16
10
31.858000
20
3.690000
30
28.462999
70
192
0
VERTEX
8
OBJECT__16
10
32.105999
20
0.071000
30
28.003000
70
192
0
VERTEX
8
OBJECT__16
10
34.485001
20
3.506000
30
31.290001
70
192
0
VERTEX
8
OBJECT__16
10
37.577000
20
3.534000
30
33.445999
70
192
0
VERTEX
8
OBJECT__16
10
37.964001
20
1.078000
30
33.188999
70
192
0
VERTEX
8
OBJECT__16
10
34.801998
20
0.067000
30
30.951000
70
192
0
VERTEX
8
OBJECT__16
10
20.822001
20
-23.806000
30
73.819000
70
192
0
VERTEX
8
OBJECT__16
10
20.101999
20
-23.620001
30
66.632004
70
192
0
VERTEX
8
OBJECT__16
10
20.569000
20
-23.704000
30
70.235001
70
192
0
VERTEX
8
OBJECT__16
10
20.433001
20
-23.541000
30
66.651001
70
192
0
VERTEX
8
OBJECT__16
10
21.106001
20
-23.732000
30
73.759003
70
192
0
VERTEX
8
OBJECT__16
10
21.180000
20
-23.606001
30
70.186996
70
192
0
VERTEX
8
OBJECT__16
10
23.482000
20
19.934999
30
45.391998
70
192
0
VERTEX
8
OBJECT__16
10
22.473000
20
20.431999
30
44.749001
70
192
0
VERTEX
8
OBJECT__16
10
22.207001
20
20.792999
30
46.014999
70
192
0
VERTEX
8
OBJECT__16
10
21.134001
20
22.037001
30
52.088001
70
192
0
VERTEX
8
OBJECT__16
10
22.620001
20
21.507999
30
52.723000
70
192
0
VERTEX
8
OBJECT__16
10
24.580999
20
19.527000
30
46.028000
70
192
0
VERTEX
8
OBJECT__16
10
30.150000
20
0.078000
30
24.520000
70
192
0
VERTEX
8
OBJECT__16
10
29.035000
20
1.075000
30
20.827999
70
192
0
VERTEX
8
OBJECT__16
10
28.872000
20
3.604000
30
21.277000
70
192
0
VERTEX
8
OBJECT__16
10
29.028000
20
0.091000
30
20.849001
70
192
0
VERTEX
8
OBJECT__16
10
25.362000
20
17.306000
30
38.583000
70
192
0
VERTEX
8
OBJECT__16
10
26.813000
20
16.695000
30
39.734001
70
192
0
VERTEX
8
OBJECT__16
10
29.139000
20
12.689000
30
34.089001
70
192
0
VERTEX
8
OBJECT__16
10
31.201000
20
7.061000
30
29.733000
70
192
0
VERTEX
8
OBJECT__16
10
29.282000
20
7.711000
30
26.827000
70
192
0
VERTEX
8
OBJECT__16
10
28.398001
20
10.848000
30
29.266001
70
192
0
VERTEX
8
OBJECT__16
10
30.252001
20
10.085000
30
31.673000
70
192
0
VERTEX
8
OBJECT__16
10
27.389000
20
13.456000
30
32.166000
70
192
0
VERTEX
8
OBJECT__16
10
25.598000
20
15.345000
30
31.521000
70
192
0
VERTEX
8
OBJECT__16
10
24.540001
20
17.351000
30
35.521000
70
192
0
VERTEX
8
OBJECT__16
10
25.784000
20
14.924000
30
30.885000
70
192
0
VERTEX
8
OBJECT__16
10
25.990000
20
14.457000
30
30.181000
70
192
0
VERTEX
8
OBJECT__16
10
27.367001
20
10.914000
30
25.674999
70
192
0
VERTEX
8
OBJECT__16
10
28.009001
20
8.629000
30
23.740000
70
192
0
VERTEX
8
OBJECT__16
10
28.172001
20
7.858000
30
23.264000
70
192
0
VERTEX
8
OBJECT__16
10
28.025999
20
8.566000
30
23.687000
70
192
0
VERTEX
8
OBJECT__16
10
28.533001
20
6.112000
30
22.221001
70
192
0
VERTEX
8
OBJECT__16
10
28.733999
20
4.619000
30
21.659000
70
192
0
VERTEX
8
OBJECT__16
10
26.546000
20
13.198000
30
28.282000
70
192
0
VERTEX
8
OBJECT__16
10
27.025000
20
11.866000
30
26.761000
70
192
0
VERTEX
8
OBJECT__16
10
23.412001
20
19.158001
30
40.278000
70
192
0
VERTEX
8
OBJECT__16
10
22.747000
20
20.059999
30
43.445000
70
192
0
VERTEX
8
OBJECT__16
10
24.091999
20
18.068001
30
37.409000
70
192
0
VERTEX
8
OBJECT__16
10
21.127001
20
22.812000
30
59.634998
70
192
0
VERTEX
8
OBJECT__16
10
20.084000
20
23.173000
30
59.866001
70
192
0
VERTEX
8
OBJECT__16
10
19.768000
20
23.620001
30
64.922997
70
192
0
VERTEX
8
OBJECT__16
10
20.434999
20
23.544001
30
66.685997
70
192
0
VERTEX
8
OBJECT__16
10
20.146999
20
23.105000
30
59.375000
70
192
0
VERTEX
8
OBJECT__16
10
20.973000
20
22.223000
30
52.999001
70
192
0
VERTEX
8
OBJECT__16
10
21.114000
20
23.763000
30
73.760002
70
192
0
VERTEX
8
OBJECT__16
10
19.888000
20
23.836000
30
69.373001
70
192
0
VERTEX
8
OBJECT__16
10
19.837999
20
23.747000
30
67.544998
70
192
0
VERTEX
8
OBJECT__16
10
19.813999
20
23.702999
30
66.644997
70
192
0
VERTEX
8
OBJECT__16
10
25.738001
20
19.253000
30
46.632000
70
192
0
VERTEX
8
OBJECT__16
10
23.410000
20
21.334999
30
53.028000
70
192
0
VERTEX
8
OBJECT__16
10
25.058001
20
20.615999
30
51.221001
70
192
0
VERTEX
8
OBJECT__16
10
24.257999
20
21.190001
30
53.347000
70
192
0
VERTEX
8
OBJECT__16
10
24.518000
20
21.003000
30
52.654999
70
192
0
VERTEX
8
OBJECT__16
10
31.171000
20
12.247000
30
35.827999
70
192
0
VERTEX
8
OBJECT__16
10
28.396999
20
16.309999
30
40.804001
70
192
0
VERTEX
8
OBJECT__16
10
30.857000
20
15.292000
30
40.603001
70
192
0
VERTEX
8
OBJECT__16
10
30.753000
20
15.415000
30
40.742001
70
192
0
VERTEX
8
OBJECT__16
10
32.592999
20
13.214000
30
38.269001
70
192
0
VERTEX
8
OBJECT__16
10
30.075001
20
16.115999
30
41.799000
70
192
0
VERTEX
8
OBJECT__16
10
33.665001
20
6.733000
30
32.258999
70
192
0
VERTEX
8
OBJECT__16
10
35.581001
20
8.638000
30
35.048000
70
192
0
VERTEX
8
OBJECT__16
10
35.873001
20
8.004000
30
34.801998
70
192
0
VERTEX
8
OBJECT__16
10
32.505001
20
9.673000
30
33.808998
70
192
0
VERTEX
8
OBJECT__16
10
35.014000
20
9.591000
30
35.608002
70
192
0
VERTEX
8
OBJECT__16
10
36.847000
20
5.883000
30
33.980999
70
192
0
VERTEX
8
OBJECT__16
10
36.469002
20
6.706000
30
34.299999
70
192
0
VERTEX
8
OBJECT__16
10
37.416000
20
4.052000
30
33.563999
70
192
0
VERTEX
8
OBJECT__16
10
33.625000
20
11.766000
30
37.077000
70
192
0
VERTEX
8
OBJECT__16
10
34.205002
20
10.951000
30
36.407001
70
192
0
VERTEX
8
OBJECT__16
10
33.384998
20
12.103000
30
37.354000
70
192
0
VERTEX
8
OBJECT__16
10
27.747000
20
18.379999
30
45.712002
70
192
0
VERTEX
8
OBJECT__16
10
26.931999
20
19.118000
30
47.193001
70
192
0
VERTEX
8
OBJECT__16
10
28.854000
20
17.378000
30
43.702000
70
192
0
VERTEX
8
OBJECT__16
10
21.639000
20
22.711000
30
59.761002
70
192
0
VERTEX
8
OBJECT__16
10
20.778999
20
23.480000
30
66.704002
70
192
0
VERTEX
8
OBJECT__16
10
21.268999
20
23.282000
30
64.874001
70
192
0
VERTEX
8
OBJECT__16
10
21.750000
20
22.930000
30
61.983002
70
192
0
VERTEX
8
OBJECT__16
10
21.954000
20
22.781000
30
60.757999
70
192
0
VERTEX
8
OBJECT__16
10
21.184999
20
23.414000
30
66.724998
70
192
0
VERTEX
8
OBJECT__16
10
22.191999
20
22.621000
30
59.896000
70
192
0
VERTEX
8
OBJECT__16
10
23.297001
20
21.878000
30
55.900002
70
192
0
VERTEX
8
OBJECT__16
10
20.875000
20
23.649000
30
70.198997
70
192
0
VERTEX
8
OBJECT__16
10
21.100000
20
23.547001
30
68.588997
70
192
0
VERTEX
8
OBJECT__16
10
21.242001
20
23.590000
30
70.170998
70
192
0
VERTEX
8
OBJECT__16
10
21.410000
20
23.702000
30
73.697998
70
192
0
VERTEX
8
OBJECT__16
10
21.417999
20
23.643999
30
72.127998
70
192
0
VERTEX
8
OBJECT__16
10
21.705000
20
23.641001
30
73.636002
70
192
0
VERTEX
8
OBJECT__16
10
25.732000
20
-19.249001
30
46.615002
70
192
0
VERTEX
8
OBJECT__16
10
28.112000
20
-18.061001
30
44.944000
70
192
0
VERTEX
8
OBJECT__16
10
27.725000
20
-18.392000
30
45.700001
70
192
0
VERTEX
8
OBJECT__16
10
28.416000
20
-16.274000
30
40.741001
70
192
0
VERTEX
8
OBJECT__16
10
30.082001
20
-16.122999
30
41.702000
70
192
0
VERTEX
8
OBJECT__16
10
22.632000
20
-21.490999
30
52.660000
70
192
0
VERTEX
8
OBJECT__16
10
24.028000
20
-21.353001
30
53.735001
70
192
0
VERTEX
8
OBJECT__16
10
22.570000
20
-22.354000
30
58.194000
70
192
0
VERTEX
8
OBJECT__16
10
24.226999
20
-21.204000
30
53.262001
70
192
0
VERTEX
8
OBJECT__16
10
21.135000
20
-22.801001
30
59.564999
70
192
0
VERTEX
8
OBJECT__16
10
21.613001
20
-23.002001
30
62.325001
70
192
0
VERTEX
8
OBJECT__16
10
22.191999
20
-22.608999
30
59.823002
70
192
0
VERTEX
8
OBJECT__16
10
21.695999
20
-22.945000
30
61.964001
70
192
0
VERTEX
8
OBJECT__16
10
21.136000
20
-23.393000
30
66.132004
70
192
0
VERTEX
8
OBJECT__16
10
21.136999
20
-23.424000
30
66.685997
70
192
0
VERTEX
8
OBJECT__16
10
21.141001
20
-23.603001
30
69.916000
70
192
0
VERTEX
8
OBJECT__16
10
24.582001
20
-19.521000
30
46.015999
70
192
0
VERTEX
8
OBJECT__16
10
25.924000
20
-19.929001
30
49.209999
70
192
0
VERTEX
8
OBJECT__16
10
24.485001
20
-21.010000
30
52.645000
70
192
0
VERTEX
8
OBJECT__16
10
26.948000
20
-19.055000
30
47.213001
70
192
0
VERTEX
8
OBJECT__16
10
26.834999
20
-16.658001
30
39.668999
70
192
0
VERTEX
8
OBJECT__16
10
31.209999
20
-12.167000
30
35.750999
70
192
0
VERTEX
8
OBJECT__16
10
33.722000
20
-11.652000
30
36.914001
70
192
0
VERTEX
8
OBJECT__16
10
33.612999
20
-11.796000
30
37.044998
70
192
0
VERTEX
8
OBJECT__16
10
32.542000
20
-9.582000
30
33.747002
70
192
0
VERTEX
8
OBJECT__16
10
35.066002
20
-9.515000
30
35.535000
70
192
0
VERTEX
8
OBJECT__16
10
31.976000
20
-13.972000
30
39.027000
70
192
0
VERTEX
8
OBJECT__16
10
30.843000
20
-15.259000
30
40.627998
70
192
0
VERTEX
8
OBJECT__16
10
33.431000
20
-12.038000
30
37.265999
70
192
0
VERTEX
8
OBJECT__16
10
34.507000
20
-3.374000
30
31.264000
70
192
0
VERTEX
8
OBJECT__16
10
37.433998
20
-4.087000
30
33.542999
70
192
0
VERTEX
8
OBJECT__16
10
36.506001
20
-6.713000
30
34.244999
70
192
0
VERTEX
8
OBJECT__16
10
37.569000
20
-3.391000
30
33.452999
70
192
0
VERTEX
8
OBJECT__16
10
33.694000
20
-6.636000
30
32.219002
70
192
0
VERTEX
8
OBJECT__16
10
35.863998
20
-8.001000
30
34.806999
70
192
0
VERTEX
8
OBJECT__16
10
35.270000
20
-9.190000
30
35.325001
70
192
0
VERTEX
8
OBJECT__16
10
37.914001
20
-1.607000
30
33.220001
70
192
0
VERTEX
8
OBJECT__16
10
37.944000
20
-0.001000
30
33.201000
70
192
0
VERTEX
8
OBJECT__16
10
37.945999
20
0.070000
30
33.200001
70
192
0
VERTEX
8
OBJECT__16
10
29.174999
20
-12.608000
30
34.002998
70
192
0
VERTEX
8
OBJECT__16
10
31.875999
20
-3.551000
30
28.429001
70
192
0
VERTEX
8
OBJECT__16
10
30.284000
20
-9.992000
30
31.601000
70
192
0
VERTEX
8
OBJECT__16
10
20.358000
20
-23.884001
30
72.917999
70
192
0
VERTEX
8
OBJECT__16
10
19.851000
20
-23.806999
30
68.626999
70
192
0
VERTEX
8
OBJECT__16
10
20.540001
20
-23.879999
30
73.878998
70
192
0
VERTEX
8
OBJECT__16
10
19.834000
20
-23.698000
30
66.682999
70
192
0
VERTEX
8
OBJECT__16
10
23.489000
20
-19.927999
30
45.383999
70
192
0
VERTEX
8
OBJECT__16
10
25.386000
20
-17.268999
30
38.518002
70
192
0
VERTEX
8
OBJECT__16
10
20.641001
20
-22.936001
30
59.437000
70
192
0
VERTEX
8
OBJECT__16
10
21.874001
20
-21.733999
30
52.346001
70
192
0
VERTEX
8
OBJECT__16
10
27.424000
20
-13.375000
30
32.070000
70
192
0
VERTEX
8
OBJECT__16
10
29.306000
20
-7.605000
30
26.764000
70
192
0
VERTEX
8
OBJECT__16
10
29.926001
20
-3.928000
30
25.104000
70
192
0
VERTEX
8
OBJECT__16
10
31.226000
20
-6.961000
30
29.683001
70
192
0
VERTEX
8
OBJECT__16
10
28.430000
20
-10.752000
30
29.180000
70
192
0
VERTEX
8
OBJECT__16
10
22.839001
20
-19.948000
30
43.051998
70
192
0
VERTEX
8
OBJECT__16
10
23.421000
20
-19.150999
30
40.287998
70
192
0
VERTEX
8
OBJECT__16
10
22.483000
20
-20.434000
30
44.741001
70
192
0
VERTEX
8
OBJECT__16
10
20.253000
20
-23.000000
30
58.431999
70
192
0
VERTEX
8
OBJECT__16
10
20.184000
20
-23.087000
30
59.308998
70
192
0
VERTEX
8
OBJECT__16
10
19.834000
20
-23.694000
30
66.612000
70
192
0
VERTEX
8
OBJECT__16
10
19.812000
20
-23.548000
30
63.993999
70
192
0
VERTEX
8
OBJECT__16
10
21.229000
20
-21.954000
30
51.526001
70
192
0
VERTEX
8
OBJECT__16
10
21.158001
20
-22.030001
30
52.027000
70
192
0
VERTEX
8
OBJECT__16
10
22.306000
20
-20.676001
30
45.580002
70
192
0
VERTEX
8
OBJECT__16
10
26.028999
20
-14.382000
30
30.069000
70
192
0
VERTEX
8
OBJECT__16
10
26.476000
20
-13.376000
30
28.531000
70
192
0
VERTEX
8
OBJECT__16
10
24.639000
20
-17.187000
30
35.173000
70
192
0
VERTEX
8
OBJECT__16
10
25.589001
20
-15.370000
30
31.582001
70
192
0
VERTEX
8
OBJECT__16
10
24.121000
20
-18.021999
30
37.348999
70
192
0
VERTEX
8
OBJECT__16
10
25.771999
20
-14.961000
30
30.955999
70
192
0
VERTEX
8
OBJECT__16
10
28.169001
20
-7.859000
30
23.280001
70
192
0
VERTEX
8
OBJECT__16
10
28.458000
20
-6.539000
30
22.438999
70
192
0
VERTEX
8
OBJECT__16
10
28.030001
20
-8.497000
30
23.688000
70
192
0
VERTEX
8
OBJECT__16
10
27.275999
20
-11.199000
30
25.971001
70
192
0
VERTEX
8
OBJECT__16
10
27.926001
20
-8.970000
30
23.989000
70
192
0
VERTEX
8
OBJECT__16
10
27.063000
20
-11.778000
30
26.650999
70
192
0
VERTEX
8
OBJECT__16
10
28.799000
20
-4.275000
30
21.481001
70
192
0
VERTEX
8
OBJECT__16
10
29.016001
20
-1.611000
30
20.884001
70
192
0
VERTEX
8
OBJECT__16
10
28.770000
20
-4.464000
30
21.561001
70
192
0
VERTEX
8
OBJECT__16
10
29.028000
20
0.044000
30
20.850000
70
192
0
VERTEX
8
OBJECT__16
10
20.524000
20
23.885000
30
73.885002
70
192
0
VERTEX
8
OBJECT__16
10
21.683001
20
-23.643000
30
73.638000
70
192
0
VERTEX
8
OBJECT__16
10
0
20
0
30
0
70
128
71
1
72
2
73
3
0
VERTEX
8
OBJECT__16
10
0
20
0
30
0
70
128
71
4
72
5
73
6
0
VERTEX
8
OBJECT__16
10
0
20
0
30
0
70
128
71
6
72
7
73
4
0
VERTEX
8
OBJECT__16
10
0
20
0
30
0
70
128
71
8
72
9
73
10
0
VERTEX
8
OBJECT__16
10
0
20
0
30
0
70
128
71
9
72
11
73
10
0
VERTEX
8
OBJECT__16
10
0
20
0
30
0
70
128
71
12
72
10
73
13
0
VERTEX
8
OBJECT__16
10
0
20
0
30
0
70
128
71
14
72
15
73
16
0
VERTEX
8
OBJECT__16
10
0
20
0
30
0
70
128
71
17
72
18
73
19
0
VERTEX
8
OBJECT__16
10
0
20
0
30
0
70
128
71
19
72
14
73
17
0
VERTEX
8
OBJECT__16
10
0
20
0
30
0
70
128
71
20
72
21
73
22
0
VERTEX
8
OBJECT__16
10
0
20
0
30
0
70
128
71
20
72
23
73
21
0
VERTEX
8
OBJECT__16
10
0
20
0
30
0
70
128
71
22
72
1
73
20
0
VERTEX
8
OBJECT__16
10
0
20
0
30
0
70
128
71
24
72
25
73
26
0
VERTEX
8
OBJECT__16
10
0
20
0
30
0
70
128
71
27
72
28
73
29
0
VERTEX
8
OBJECT__16
10
0
20
0
30
0
70
128
71
28
72
27
73
2
0
VERTEX
8
OBJECT__16
10
0
20
0
30
0
70
128
71
30
72
29
73
31
0
VERTEX
8
OBJECT__16
10
0
20
0
30
0
70
128
71
14
72
19
73
25
0
VERTEX
8
OBJECT__16
10
0
20
0
30
0
70
128
71
31
72
32
73
33
0
VERTEX
8
OBJECT__16
10
0
20
0
30
0
70
128
71
31
72
34
73
32
0
VERTEX
8
OBJECT__16
10
0
20
0
30
0
70
128
71
33
72
24
73
31
0
VERTEX
8
OBJECT__16
10
0
20
0
30
0
70
128
71
31
72
35
73
34
0
VERTEX
8
OBJECT__16
10
0
20
0
30
0
70
128
71
29
72
28
73
36
0
VERTEX
8
OBJECT__16
10
0
20
0
30
0
70
128
71
28
72
37
73
36
0
VERTEX
8
OBJECT__16
10
0
20
0
30
0
70
128
71
28
72
38
73
39
0
VERTEX
8
OBJECT__16
10
0
20
0
30
0
70
128
71
1
72
40
73
38
0
VERTEX
8
OBJECT__16
10
0
20
0
30
0
70
128
71
1
72
41
73
40
0
VERTEX
8
OBJECT__16
10
0
20
0
30
0
70
128
71
38
72
28
73
1
0
VERTEX
8
OBJECT__16
10
0
20
0
30
0
70
128
71
31
72
29
73
42
0
VERTEX
8
OBJECT__16
10
0
20
0
30
0
70
128
71
29
72
43
73
42
0
VERTEX
8
OBJECT__16
10
0
20
0
30
0
70
128
71
24
72
44
73
45
0
VERTEX
8
OBJECT__16
10
0
20
0
30
0
70
128
71
24
72
46
73
44
0
VERTEX
8
OBJECT__16
10
0
20
0
30
0
70
128
71
45
72
14
73
24
0
VERTEX
8
OBJECT__16
10
0
20
0
30
0
70
128
71
47
72
48
73
49
0
VERTEX
8
OBJECT__16
10
0
20
0
30
0
70
128
71
49
72
50
73
47
0
VERTEX
8
OBJECT__16
10
0
20
0
30
0
70
128
71
47
72
51
73
48
0
VERTEX
8
OBJECT__16
10
0
20
0
30
0
70
128
71
47
72
18
73
52
0
VERTEX
8
OBJECT__16
10
0
20
0
30
0
70
128
71
18
72
17
73
52
0
VERTEX
8
OBJECT__16
10
0
20
0
30
0
70
128
71
53
72
50
73
54
0
VERTEX
8
OBJECT__16
10
0
20
0
30
0
70
128
71
50
72
55
73
54
0
VERTEX
8
OBJECT__16
10
0
20
0
30
0
70
128
71
50
72
56
73
55
0
VERTEX
8
OBJECT__16
10
0
20
0
30
0
70
128
71
3
72
2
73
4
0
VERTEX
8
OBJECT__16
10
0
20
0
30
0
70
128
71
57
72
58
73
59
0
VERTEX
8
OBJECT__16
10
0
20
0
30
0
70
128
71
58
72
60
73
61
0
VERTEX
8
OBJECT__16
10
0
20
0
30
0
70
128
71
61
72
59
73
58
0
VERTEX
8
OBJECT__16
10
0
20
0
30
0
70
128
71
62
72
63
73
64
0
VERTEX
8
OBJECT__16
10
0
20
0
30
0
70
128
71
63
72
65
73
64
0
VERTEX
8
OBJECT__16
10
0
20
0
30
0
70
128
71
64
72
66
73
62
0
VERTEX
8
OBJECT__16
10
0
20
0
30
0
70
128
71
63
72
67
73
65
0
VERTEX
8
OBJECT__16
10
0
20
0
30
0
70
128
71
68
72
69
73
70
0
VERTEX
8
OBJECT__16
10
0
20
0
30
0
70
128
71
71
72
72
73
69
0
VERTEX
8
OBJECT__16
10
0
20
0
30
0
70
128
71
69
72
68
73
71
0
VERTEX
8
OBJECT__16
10
0
20
0
30
0
70
128
71
4
72
68
73
73
0
VERTEX
8
OBJECT__16
10
0
20
0
30
0
70
128
71
68
72
74
73
73
0
VERTEX
8
OBJECT__16
10
0
20
0
30
0
70
128
71
73
72
75
73
4
0
VERTEX
8
OBJECT__16
10
0
20
0
30
0
70
128
71
62
72
76
73
77
0
VERTEX
8
OBJECT__16
10
0
20
0
30
0
70
128
71
62
72
78
73
76
0
VERTEX
8
OBJECT__16
10
0
20
0
30
0
70
128
71
77
72
71
73
62
0
VERTEX
8
OBJECT__16
10
0
20
0
30
0
70
128
71
63
72
57
73
79
0
VERTEX
8
OBJECT__16
10
0
20
0
30
0
70
128
71
57
72
80
73
79
0
VERTEX
8
OBJECT__16
10
0
20
0
30
0
70
128
71
79
72
81
73
63
0
VERTEX
8
OBJECT__16
10
0
20
0
30
0
70
128
71
82
72
83
73
84
0
VERTEX
8
OBJECT__16
10
0
20
0
30
0
70
128
71
84
72
85
73
82
0
VERTEX
8
OBJECT__16
10
0
20
0
30
0
70
128
71
85
72
86
73
82
0
VERTEX
8
OBJECT__16
10
0
20
0
30
0
70
128
71
83
72
87
73
84
0
VERTEX
8
OBJECT__16
10
0
20
0
30
0
70
128
71
82
72
88
73
89
0
VERTEX
8
OBJECT__16
10
0
20
0
30
0
70
128
71
89
72
58
73
82
0
VERTEX
8
OBJECT__16
10
0
20
0
30
0
70
128
71
83
72
90
73
91
0
VERTEX
8
OBJECT__16
10
0
20
0
30
0
70
128
71
90
72
92
73
91
0
VERTEX
8
OBJECT__16
10
0
20
0
30
0
70
128
71
90
72
93
73
94
0
VERTEX
8
OBJECT__16
10
0
20
0
30
0
70
128
71
93
72
95
73
94
0
VERTEX
8
OBJECT__16
10
0
20
0
30
0
70
128
71
18
72
58
73
57
0
VERTEX
8
OBJECT__16
10
0
20
0
30
0
70
128
71
25
72
63
73
62
0
VERTEX
8
OBJECT__16
10
0
20
0
30
0
70
128
71
68
72
27
73
30
0
VERTEX
8
OBJECT__16
10
0
20
0
30
0
70
128
71
2
72
27
73
68
0
VERTEX
8
OBJECT__16
10
0
20
0
30
0
70
128
71
71
72
30
73
26
0
VERTEX
8
OBJECT__16
10
0
20
0
30
0
70
128
71
19
72
57
73
63
0
VERTEX
8
OBJECT__16
10
0
20
0
30
0
70
128
71
50
72
83
73
82
0
VERTEX
8
OBJECT__16
10
0
20
0
30
0
70
128
71
47
72
82
73
58
0
VERTEX
8
OBJECT__16
10
0
20
0
30
0
70
128
71
53
72
93
73
90
0
VERTEX
8
OBJECT__16
10
0
20
0
30
0
70
128
71
90
72
50
73
53
0
VERTEX
8
OBJECT__16
10
0
20
0
30
0
70
128
71
96
72
97
73
98
0
VERTEX
8
OBJECT__16
10
0
20
0
30
0
70
128
71
99
72
100
73
97
0
VERTEX
8
OBJECT__16
10
0
20
0
30
0
70
128
71
97
72
96
73
99
0
VERTEX
8
OBJECT__16
10
0
20
0
30
0
70
128
71
101
72
102
73
103
0
VERTEX
8
OBJECT__16
10
0
20
0
30
0
70
128
71
101
72
104
73
102
0
VERTEX
8
OBJECT__16
10
0
20
0
30
0
70
128
71
103
72
105
73
101
0
VERTEX
8
OBJECT__16
10
0
20
0
30
0
70
128
71
11
72
105
73
106
0
VERTEX
8
OBJECT__16
10
0
20
0
30
0
70
128
71
105
72
107
73
108
0
VERTEX
8
OBJECT__16
10
0
20
0
30
0
70
128
71
108
72
106
73
105
0
VERTEX
8
OBJECT__16
10
0
20
0
30
0
70
128
71
106
72
109
73
11
0
VERTEX
8
OBJECT__16
10
0
20
0
30
0
70
128
71
11
72
110
73
111
0
VERTEX
8
OBJECT__16
10
0
20
0
30
0
70
128
71
111
72
10
73
11
0
VERTEX
8
OBJECT__16
10
0
20
0
30
0
70
128
71
101
72
112
73
113
0
VERTEX
8
OBJECT__16
10
0
20
0
30
0
70
128
71
113
72
114
73
101
0
VERTEX
8
OBJECT__16
10
0
20
0
30
0
70
128
71
113
72
112
73
96
0
VERTEX
8
OBJECT__16
10
0
20
0
30
0
70
128
71
96
72
115
73
113
0
VERTEX
8
OBJECT__16
10
0
20
0
30
0
70
128
71
112
72
116
73
99
0
VERTEX
8
OBJECT__16
10
0
20
0
30
0
70
128
71
117
72
118
73
119
0
VERTEX
8
OBJECT__16
10
0
20
0
30
0
70
128
71
120
72
121
73
118
0
VERTEX
8
OBJECT__16
10
0
20
0
30
0
70
128
71
118
72
117
73
120
0
VERTEX
8
OBJECT__16
10
0
20
0
30
0
70
128
71
99
72
117
73
122
0
VERTEX
8
OBJECT__16
10
0
20
0
30
0
70
128
71
122
72
123
73
99
0
VERTEX
8
OBJECT__16
10
0
20
0
30
0
70
128
71
117
72
124
73
122
0
VERTEX
8
OBJECT__16
10
0
20
0
30
0
70
128
71
125
72
126
73
127
0
VERTEX
8
OBJECT__16
10
0
20
0
30
0
70
128
71
125
72
128
73
126
0
VERTEX
8
OBJECT__16
10
0
20
0
30
0
70
128
71
120
72
129
73
130
0
VERTEX
8
OBJECT__16
10
0
20
0
30
0
70
128
71
129
72
127
73
130
0
VERTEX
8
OBJECT__16
10
0
20
0
30
0
70
128
71
130
72
131
73
120
0
VERTEX
8
OBJECT__16
10
0
20
0
30
0
70
128
71
125
72
7
73
132
0
VERTEX
8
OBJECT__16
10
0
20
0
30
0
70
128
71
7
72
133
73
132
0
VERTEX
8
OBJECT__16
10
0
20
0
30
0
70
128
71
7
72
134
73
133
0
VERTEX
8
OBJECT__16
10
0
20
0
30
0
70
128
71
120
72
117
73
135
0
VERTEX
8
OBJECT__16
10
0
20
0
30
0
70
128
71
116
72
135
73
117
0
VERTEX
8
OBJECT__16
10
0
20
0
30
0
70
128
71
136
72
125
73
129
0
VERTEX
8
OBJECT__16
10
0
20
0
30
0
70
128
71
129
72
120
73
137
0
VERTEX
8
OBJECT__16
10
0
20
0
30
0
70
128
71
3
72
7
73
125
0
VERTEX
8
OBJECT__16
10
0
20
0
30
0
70
128
71
8
72
138
73
139
0
VERTEX
8
OBJECT__16
10
0
20
0
30
0
70
128
71
139
72
9
73
8
0
VERTEX
8
OBJECT__16
10
0
20
0
30
0
70
128
71
8
72
140
73
138
0
VERTEX
8
OBJECT__16
10
0
20
0
30
0
70
128
71
139
72
141
73
9
0
VERTEX
8
OBJECT__16
10
0
20
0
30
0
70
128
71
142
72
143
73
116
0
VERTEX
8
OBJECT__16
10
0
20
0
30
0
70
128
71
144
72
145
73
101
0
VERTEX
8
OBJECT__16
10
0
20
0
30
0
70
128
71
9
72
144
73
105
0
VERTEX
8
OBJECT__16
10
0
20
0
30
0
70
128
71
145
72
142
73
112
0
VERTEX
8
OBJECT__16
10
0
20
0
30
0
70
128
71
137
72
135
73
146
0
VERTEX
8
OBJECT__16
10
0
20
0
30
0
70
128
71
143
72
146
73
135
0
VERTEX
8
OBJECT__16
10
0
20
0
30
0
70
128
71
147
72
148
73
136
0
VERTEX
8
OBJECT__16
10
0
20
0
30
0
70
128
71
149
72
137
73
150
0
VERTEX
8
OBJECT__16
10
0
20
0
30
0
70
128
71
148
72
20
73
3
0
VERTEX
8
OBJECT__16
10
0
20
0
30
0
70
128
71
143
72
142
73
151
0
VERTEX
8
OBJECT__16
10
0
20
0
30
0
70
128
71
151
72
152
73
143
0
VERTEX
8
OBJECT__16
10
0
20
0
30
0
70
128
71
142
72
153
73
151
0
VERTEX
8
OBJECT__16
10
0
20
0
30
0
70
128
71
145
72
144
73
154
0
VERTEX
8
OBJECT__16
10
0
20
0
30
0
70
128
71
144
72
155
73
154
0
VERTEX
8
OBJECT__16
10
0
20
0
30
0
70
128
71
9
72
156
73
157
0
VERTEX
8
OBJECT__16
10
0
20
0
30
0
70
128
71
157
72
144
73
9
0
VERTEX
8
OBJECT__16
10
0
20
0
30
0
70
128
71
142
72
145
73
158
0
VERTEX
8
OBJECT__16
10
0
20
0
30
0
70
128
71
145
72
159
73
158
0
VERTEX
8
OBJECT__16
10
0
20
0
30
0
70
128
71
158
72
160
73
142
0
VERTEX
8
OBJECT__16
10
0
20
0
30
0
70
128
71
146
72
161
73
162
0
VERTEX
8
OBJECT__16
10
0
20
0
30
0
70
128
71
162
72
150
73
146
0
VERTEX
8
OBJECT__16
10
0
20
0
30
0
70
128
71
146
72
143
73
163
0
VERTEX
8
OBJECT__16
10
0
20
0
30
0
70
128
71
163
72
164
73
146
0
VERTEX
8
OBJECT__16
10
0
20
0
30
0
70
128
71
143
72
165
73
163
0
VERTEX
8
OBJECT__16
10
0
20
0
30
0
70
128
71
164
72
166
73
146
0
VERTEX
8
OBJECT__16
10
0
20
0
30
0
70
128
71
148
72
147
73
167
0
VERTEX
8
OBJECT__16
10
0
20
0
30
0
70
128
71
167
72
168
73
148
0
VERTEX
8
OBJECT__16
10
0
20
0
30
0
70
128
71
147
72
169
73
167
0
VERTEX
8
OBJECT__16
10
0
20
0
30
0
70
128
71
147
72
150
73
170
0
VERTEX
8
OBJECT__16
10
0
20
0
30
0
70
128
71
170
72
171
73
147
0
VERTEX
8
OBJECT__16
10
0
20
0
30
0
70
128
71
150
72
172
73
170
0
VERTEX
8
OBJECT__16
10
0
20
0
30
0
70
128
71
148
72
173
73
174
0
VERTEX
8
OBJECT__16
10
0
20
0
30
0
70
128
71
174
72
20
73
148
0
VERTEX
8
OBJECT__16
10
0
20
0
30
0
70
128
71
148
72
175
73
173
0
VERTEX
8
OBJECT__16
10
0
20
0
30
0
70
128
71
174
72
176
73
20
0
VERTEX
8
OBJECT__16
10
0
20
0
30
0
70
128
71
176
72
23
73
20
0
VERTEX
8
OBJECT__16
10
0
20
0
30
0
70
128
71
171
72
169
73
147
0
VERTEX
8
OBJECT__16
10
0
20
0
30
0
70
128
71
168
72
175
73
148
0
VERTEX
8
OBJECT__16
10
0
20
0
30
0
70
128
71
166
72
161
73
146
0
VERTEX
8
OBJECT__16
10
0
20
0
30
0
70
128
71
162
72
172
73
150
0
VERTEX
8
OBJECT__16
10
0
20
0
30
0
70
128
71
160
72
153
73
142
0
VERTEX
8
OBJECT__16
10
0
20
0
30
0
70
128
71
157
72
155
73
144
0
VERTEX
8
OBJECT__16
10
0
20
0
30
0
70
128
71
154
72
159
73
145
0
VERTEX
8
OBJECT__16
10
0
20
0
30
0
70
128
71
152
72
165
73
143
0
VERTEX
8
OBJECT__16
10
0
20
0
30
0
70
128
71
3
72
136
73
148
0
VERTEX
8
OBJECT__16
10
0
20
0
30
0
70
128
71
150
72
147
73
149
0
VERTEX
8
OBJECT__16
10
0
20
0
30
0
70
128
71
136
72
149
73
147
0
VERTEX
8
OBJECT__16
10
0
20
0
30
0
70
128
71
135
72
116
73
143
0
VERTEX
8
OBJECT__16
10
0
20
0
30
0
70
128
71
146
72
150
73
137
0
VERTEX
8
OBJECT__16
10
0
20
0
30
0
70
128
71
112
72
101
73
145
0
VERTEX
8
OBJECT__16
10
0
20
0
30
0
70
128
71
105
72
11
73
9
0
VERTEX
8
OBJECT__16
10
0
20
0
30
0
70
128
71
101
72
105
73
144
0
VERTEX
8
OBJECT__16
10
0
20
0
30
0
70
128
71
116
72
112
73
142
0
VERTEX
8
OBJECT__16
10
0
20
0
30
0
70
128
71
141
72
156
73
9
0
VERTEX
8
OBJECT__16
10
0
20
0
30
0
70
128
71
125
72
136
73
3
0
VERTEX
8
OBJECT__16
10
0
20
0
30
0
70
128
71
137
72
149
73
129
0
VERTEX
8
OBJECT__16
10
0
20
0
30
0
70
128
71
129
72
149
73
136
0
VERTEX
8
OBJECT__16
10
0
20
0
30
0
70
128
71
117
72
99
73
116
0
VERTEX
8
OBJECT__16
10
0
20
0
30
0
70
128
71
135
72
137
73
120
0
VERTEX
8
OBJECT__16
10
0
20
0
30
0
70
128
71
132
72
128
73
125
0
VERTEX
8
OBJECT__16
10
0
20
0
30
0
70
128
71
131
72
121
73
120
0
VERTEX
8
OBJECT__16
10
0
20
0
30
0
70
128
71
127
72
129
73
125
0
VERTEX
8
OBJECT__16
10
0
20
0
30
0
70
128
71
123
72
100
73
99
0
VERTEX
8
OBJECT__16
10
0
20
0
30
0
70
128
71
119
72
124
73
117
0
VERTEX
8
OBJECT__16
10
0
20
0
30
0
70
128
71
99
72
96
73
112
0
VERTEX
8
OBJECT__16
10
0
20
0
30
0
70
128
71
114
72
104
73
101
0
VERTEX
8
OBJECT__16
10
0
20
0
30
0
70
128
71
111
72
13
73
10
0
VERTEX
8
OBJECT__16
10
0
20
0
30
0
70
128
71
109
72
110
73
11
0
VERTEX
8
OBJECT__16
10
0
20
0
30
0
70
128
71
103
72
107
73
105
0
VERTEX
8
OBJECT__16
10
0
20
0
30
0
70
128
71
98
72
115
73
96
0
VERTEX
8
OBJECT__16
10
0
20
0
30
0
70
128
71
90
72
83
73
50
0
VERTEX
8
OBJECT__16
10
0
20
0
30
0
70
128
71
58
72
18
73
47
0
VERTEX
8
OBJECT__16
10
0
20
0
30
0
70
128
71
82
72
47
73
50
0
VERTEX
8
OBJECT__16
10
0
20
0
30
0
70
128
71
63
72
25
73
19
0
VERTEX
8
OBJECT__16
10
0
20
0
30
0
70
128
71
26
72
62
73
71
0
VERTEX
8
OBJECT__16
10
0
20
0
30
0
70
128
71
68
72
4
73
2
0
VERTEX
8
OBJECT__16
10
0
20
0
30
0
70
128
71
30
72
71
73
68
0
VERTEX
8
OBJECT__16
10
0
20
0
30
0
70
128
71
62
72
26
73
25
0
VERTEX
8
OBJECT__16
10
0
20
0
30
0
70
128
71
57
72
19
73
18
0
VERTEX
8
OBJECT__16
10
0
20
0
30
0
70
128
71
94
72
92
73
90
0
VERTEX
8
OBJECT__16
10
0
20
0
30
0
70
128
71
91
72
87
73
83
0
VERTEX
8
OBJECT__16
10
0
20
0
30
0
70
128
71
89
72
60
73
58
0
VERTEX
8
OBJECT__16
10
0
20
0
30
0
70
128
71
86
72
88
73
82
0
VERTEX
8
OBJECT__16
10
0
20
0
30
0
70
128
71
81
72
67
73
63
0
VERTEX
8
OBJECT__16
10
0
20
0
30
0
70
128
71
77
72
72
73
71
0
VERTEX
8
OBJECT__16
10
0
20
0
30
0
70
128
71
75
72
5
73
4
0
VERTEX
8
OBJECT__16
10
0
20
0
30
0
70
128
71
70
72
74
73
68
0
VERTEX
8
OBJECT__16
10
0
20
0
30
0
70
128
71
66
72
78
73
62
0
VERTEX
8
OBJECT__16
10
0
20
0
30
0
70
128
71
59
72
80
73
57
0
VERTEX
8
OBJECT__16
10
0
20
0
30
0
70
128
71
4
72
7
73
3
0
VERTEX
8
OBJECT__16
10
0
20
0
30
0
70
128
71
54
72
177
73
53
0
VERTEX
8
OBJECT__16
10
0
20
0
30
0
70
128
71
52
72
51
73
47
0
VERTEX
8
OBJECT__16
10
0
20
0
30
0
70
128
71
49
72
56
73
50
0
VERTEX
8
OBJECT__16
10
0
20
0
30
0
70
128
71
45
72
15
73
14
0
VERTEX
8
OBJECT__16
10
0
20
0
30
0
70
128
71
42
72
35
73
31
0
VERTEX
8
OBJECT__16
10
0
20
0
30
0
70
128
71
39
72
37
73
28
0
VERTEX
8
OBJECT__16
10
0
20
0
30
0
70
128
71
36
72
43
73
29
0
VERTEX
8
OBJECT__16
10
0
20
0
30
0
70
128
71
33
72
46
73
24
0
VERTEX
8
OBJECT__16
10
0
20
0
30
0
70
128
71
25
72
24
73
14
0
VERTEX
8
OBJECT__16
10
0
20
0
30
0
70
128
71
31
72
26
73
30
0
VERTEX
8
OBJECT__16
10
0
20
0
30
0
70
128
71
2
72
1
73
28
0
VERTEX
8
OBJECT__16
10
0
20
0
30
0
70
128
71
29
72
30
73
27
0
VERTEX
8
OBJECT__16
10
0
20
0
30
0
70
128
71
26
72
31
73
24
0
VERTEX
8
OBJECT__16
10
0
20
0
30
0
70
128
71
22
72
41
73
1
0
VERTEX
8
OBJECT__16
10
0
20
0
30
0
70
128
71
16
72
17
73
14
0
VERTEX
8
OBJECT__16
10
0
20
0
30
0
70
128
71
13
72
178
73
12
0
VERTEX
8
OBJECT__16
10
0
20
0
30
0
70
128
71
10
72
12
73
8
0
VERTEX
8
OBJECT__16
10
0
20
0
30
0
70
128
71
6
72
134
73
7
0
VERTEX
8
OBJECT__16
10
0
20
0
30
0
70
128
71
3
72
20
73
1
0
SEQEND
8
OBJECT__16
0
POLYLINE
8
OBJECT__17
66
1
70
64
71
38
72
43
62
253
0
VERTEX
8
OBJECT__17
10
25.851999
20
22.249001
30
76.111000
70
192
0
VERTEX
8
OBJECT__17
10
25.044001
20
22.355000
30
78.019997
70
192
0
VERTEX
8
OBJECT__17
10
28.077999
20
20.865000
30
78.073997
70
192
0
VERTEX
8
OBJECT__17
10
27.070000
20
21.405001
30
79.146004
70
192
0
VERTEX
8
OBJECT__17
10
27.695999
20
21.017000
30
79.418999
70
192
0
VERTEX
8
OBJECT__17
10
29.327000
20
21.423000
30
75.472000
70
192
0
VERTEX
8
OBJECT__17
10
30.090000
20
22.101000
30
74.456001
70
192
0
VERTEX
8
OBJECT__17
10
26.884001
20
22.740000
30
74.300003
70
192
0
VERTEX
8
OBJECT__17
10
21.004000
20
23.792999
30
74.922997
70
192
0
VERTEX
8
OBJECT__17
10
22.197001
20
23.476999
30
74.783997
70
192
0
VERTEX
8
OBJECT__17
10
21.114000
20
23.763000
30
73.760002
70
192
0
VERTEX
8
OBJECT__17
10
20.531000
20
23.885000
30
73.918999
70
192
0
VERTEX
8
OBJECT__17
10
20.524000
20
23.885000
30
73.885002
70
192
0
VERTEX
8
OBJECT__17
10
21.169001
20
23.747000
30
75.092003
70
192
0
VERTEX
8
OBJECT__17
10
22.150000
20
23.583000
30
73.850998
70
192
0
VERTEX
8
OBJECT__17
10
21.705000
20
23.641001
30
73.636002
70
192
0
VERTEX
8
OBJECT__17
10
21.410000
20
23.702000
30
73.697998
70
192
0
VERTEX
8
OBJECT__17
10
22.844000
20
23.474001
30
73.948997
70
192
0
VERTEX
8
OBJECT__17
10
32.040001
20
18.271999
30
78.143997
70
192
0
VERTEX
8
OBJECT__17
10
32.633999
20
18.742001
30
76.997002
70
192
0
VERTEX
8
OBJECT__17
10
28.632999
20
20.988001
30
76.707001
70
192
0
VERTEX
8
OBJECT__17
10
31.924000
20
18.266001
30
78.880997
70
192
0
VERTEX
8
OBJECT__17
10
29.216999
20
20.077000
30
80.083000
70
192
0
VERTEX
8
OBJECT__17
10
29.558001
20
19.865999
30
80.231003
70
192
0
VERTEX
8
OBJECT__17
10
26.354000
20
22.436001
30
75.185997
70
192
0
VERTEX
8
OBJECT__17
10
33.687000
20
19.660000
30
75.472000
70
192
0
VERTEX
8
OBJECT__17
10
34.921001
20
20.865999
30
74.457001
70
192
0
VERTEX
8
OBJECT__17
10
30.674999
20
21.983999
30
74.484001
70
192
0
VERTEX
8
OBJECT__17
10
33.227001
20
19.211000
30
75.849998
70
192
0
VERTEX
8
OBJECT__17
10
25.204000
20
23.073999
30
74.218002
70
192
0
VERTEX
8
OBJECT__17
10
24.493000
20
23.216000
30
74.183998
70
192
0
VERTEX
8
OBJECT__17
10
23.382999
20
23.129000
30
75.319000
70
192
0
VERTEX
8
OBJECT__17
10
24.132999
20
23.273001
30
74.133003
70
192
0
VERTEX
8
OBJECT__17
10
22.733000
20
23.266001
30
76.496002
70
192
0
VERTEX
8
OBJECT__17
10
24.214001
20
22.745001
30
77.557999
70
192
0
VERTEX
8
OBJECT__17
10
21.622000
20
23.622000
30
75.556000
70
192
0
VERTEX
8
OBJECT__17
10
22.087999
20
23.493000
30
76.033997
70
192
0
VERTEX
8
OBJECT__17
10
31.611000
20
18.247999
30
80.858002
70
192
0
VERTEX
8
OBJECT__17
10
0
20
0
30
0
70
128
71
1
72
2
73
3
0
VERTEX
8
OBJECT__17
10
0
20
0
30
0
70
128
71
3
72
2
73
4
0
VERTEX
8
OBJECT__17
10
0
20
0
30
0
70
128
71
4
72
5
73
3
0
VERTEX
8
OBJECT__17
10
0
20
0
30
0
70
128
71
6
72
7
73
8
0
VERTEX
8
OBJECT__17
10
0
20
0
30
0
70
128
71
9
72
10
73
11
0
VERTEX
8
OBJECT__17
10
0
20
0
30
0
70
128
71
11
72
12
73
9
0
VERTEX
8
OBJECT__17
10
0
20
0
30
0
70
128
71
11
72
13
73
12
0
VERTEX
8
OBJECT__17
10
0
20
0
30
0
70
128
71
9
72
14
73
10
0
VERTEX
8
OBJECT__17
10
0
20
0
30
0
70
128
71
10
72
15
73
16
0
VERTEX
8
OBJECT__17
10
0
20
0
30
0
70
128
71
16
72
17
73
10
0
VERTEX
8
OBJECT__17
10
0
20
0
30
0
70
128
71
10
72
18
73
15
0
VERTEX
8
OBJECT__17
10
0
20
0
30
0
70
128
71
19
72
20
73
21
0
VERTEX
8
OBJECT__17
10
0
20
0
30
0
70
128
71
3
72
22
73
19
0
VERTEX
8
OBJECT__17
10
0
20
0
30
0
70
128
71
22
72
23
73
24
0
VERTEX
8
OBJECT__17
10
0
20
0
30
0
70
128
71
3
72
5
73
23
0
VERTEX
8
OBJECT__17
10
0
20
0
30
0
70
128
71
23
72
22
73
3
0
VERTEX
8
OBJECT__17
10
0
20
0
30
0
70
128
71
21
72
6
73
25
0
VERTEX
8
OBJECT__17
10
0
20
0
30
0
70
128
71
26
72
27
73
28
0
VERTEX
8
OBJECT__17
10
0
20
0
30
0
70
128
71
28
72
6
73
26
0
VERTEX
8
OBJECT__17
10
0
20
0
30
0
70
128
71
20
72
29
73
6
0
VERTEX
8
OBJECT__17
10
0
20
0
30
0
70
128
71
6
72
21
73
20
0
VERTEX
8
OBJECT__17
10
0
20
0
30
0
70
128
71
1
72
30
73
31
0
VERTEX
8
OBJECT__17
10
0
20
0
30
0
70
128
71
30
72
1
73
25
0
VERTEX
8
OBJECT__17
10
0
20
0
30
0
70
128
71
25
72
8
73
30
0
VERTEX
8
OBJECT__17
10
0
20
0
30
0
70
128
71
31
72
32
73
1
0
VERTEX
8
OBJECT__17
10
0
20
0
30
0
70
128
71
32
72
33
73
18
0
VERTEX
8
OBJECT__17
10
0
20
0
30
0
70
128
71
32
72
34
73
35
0
VERTEX
8
OBJECT__17
10
0
20
0
30
0
70
128
71
35
72
1
73
32
0
VERTEX
8
OBJECT__17
10
0
20
0
30
0
70
128
71
10
72
36
73
37
0
VERTEX
8
OBJECT__17
10
0
20
0
30
0
70
128
71
37
72
32
73
10
0
VERTEX
8
OBJECT__17
10
0
20
0
30
0
70
128
71
37
72
34
73
32
0
VERTEX
8
OBJECT__17
10
0
20
0
30
0
70
128
71
35
72
2
73
1
0
VERTEX
8
OBJECT__17
10
0
20
0
30
0
70
128
71
18
72
10
73
32
0
VERTEX
8
OBJECT__17
10
0
20
0
30
0
70
128
71
31
72
33
73
32
0
VERTEX
8
OBJECT__17
10
0
20
0
30
0
70
128
71
29
72
26
73
6
0
VERTEX
8
OBJECT__17
10
0
20
0
30
0
70
128
71
28
72
7
73
6
0
VERTEX
8
OBJECT__17
10
0
20
0
30
0
70
128
71
25
72
1
73
21
0
VERTEX
8
OBJECT__17
10
0
20
0
30
0
70
128
71
24
72
38
73
22
0
VERTEX
8
OBJECT__17
10
0
20
0
30
0
70
128
71
21
72
3
73
19
0
VERTEX
8
OBJECT__17
10
0
20
0
30
0
70
128
71
17
72
11
73
10
0
VERTEX
8
OBJECT__17
10
0
20
0
30
0
70
128
71
14
72
36
73
10
0
VERTEX
8
OBJECT__17
10
0
20
0
30
0
70
128
71
8
72
25
73
6
0
VERTEX
8
OBJECT__17
10
0
20
0
30
0
70
128
71
3
72
21
73
1
0
SEQEND
8
OBJECT__17
0
POLYLINE
8
OBJECT__18
66
1
70
64
71
57
72
64
62
253
0
VERTEX
8
OBJECT__18
10
55.124001
20
0.000000
30
74.794998
70
192
0
VERTEX
8
OBJECT__18
10
55.009998
20
-10.463000
30
73.985001
70
192
0
VERTEX
8
OBJECT__18
10
74.882004
20
-10.408000
30
70.360001
70
192
0
VERTEX
8
OBJECT__18
10
75.042999
20
0.000000
30
71.161003
70
192
0
VERTEX
8
OBJECT__18
10
94.237999
20
-10.394000
30
66.023003
70
192
0
VERTEX
8
OBJECT__18
10
94.444000
20
0.000000
30
66.814003
70
192
0
VERTEX
8
OBJECT__18
10
94.238998
20
10.394000
30
66.024002
70
192
0
VERTEX
8
OBJECT__18
10
74.882004
20
10.408000
30
70.361000
70
192
0
VERTEX
8
OBJECT__18
10
92.235001
20
15.764000
30
65.419998
70
192
0
VERTEX
8
OBJECT__18
10
76.106003
20
16.823999
30
68.764999
70
192
0
VERTEX
8
OBJECT__18
10
93.970001
20
15.689000
30
64.987999
70
192
0
VERTEX
8
OBJECT__18
10
55.009998
20
10.463000
30
73.985001
70
192
0
VERTEX
8
OBJECT__18
10
66.995003
20
17.590000
30
70.361000
70
192
0
VERTEX
8
OBJECT__18
10
74.614998
20
16.950001
30
69.026001
70
192
0
VERTEX
8
OBJECT__18
10
54.748001
20
18.794001
30
72.114998
70
192
0
VERTEX
8
OBJECT__18
10
42.806000
20
10.592000
30
75.810997
70
192
0
VERTEX
8
OBJECT__18
10
42.834000
20
10.517000
30
75.817001
70
192
0
VERTEX
8
OBJECT__18
10
49.331001
20
19.326000
30
72.890999
70
192
0
VERTEX
8
OBJECT__18
10
40.840000
20
14.180000
30
75.418999
70
192
0
VERTEX
8
OBJECT__18
10
45.264999
20
19.756001
30
73.375999
70
192
0
VERTEX
8
OBJECT__18
10
34.921001
20
20.865999
30
74.457001
70
192
0
VERTEX
8
OBJECT__18
10
38.048000
20
17.830999
30
74.922997
70
192
0
VERTEX
8
OBJECT__18
10
44.652000
20
4.871000
30
76.212997
70
192
0
VERTEX
8
OBJECT__18
10
44.180000
20
6.840000
30
76.107002
70
192
0
VERTEX
8
OBJECT__18
10
45.113998
20
0.975000
30
76.318001
70
192
0
VERTEX
8
OBJECT__18
10
44.963001
20
-2.896000
30
76.282997
70
192
0
VERTEX
8
OBJECT__18
10
44.750000
20
-4.347000
30
76.235001
70
192
0
VERTEX
8
OBJECT__18
10
45.076000
20
0.000000
30
76.308998
70
192
0
VERTEX
8
OBJECT__18
10
43.752998
20
-8.207000
30
76.013000
70
192
0
VERTEX
8
OBJECT__18
10
45.261002
20
-19.756001
30
73.375999
70
192
0
VERTEX
8
OBJECT__18
10
36.567001
20
-19.375000
30
74.690002
70
192
0
VERTEX
8
OBJECT__18
10
35.994999
20
-19.917000
30
74.606003
70
192
0
VERTEX
8
OBJECT__18
10
39.444000
20
-16.150999
30
75.162003
70
192
0
VERTEX
8
OBJECT__18
10
41.783001
20
-12.615000
30
75.601997
70
192
0
VERTEX
8
OBJECT__18
10
49.325001
20
-19.327000
30
72.890999
70
192
0
VERTEX
8
OBJECT__18
10
54.748001
20
-18.794001
30
72.114998
70
192
0
VERTEX
8
OBJECT__18
10
42.162998
20
-11.911000
30
75.678001
70
192
0
VERTEX
8
OBJECT__18
10
42.762001
20
-10.515000
30
75.805000
70
192
0
VERTEX
8
OBJECT__18
10
66.991997
20
-17.591000
30
70.361000
70
192
0
VERTEX
8
OBJECT__18
10
76.112999
20
-16.823999
30
68.763000
70
192
0
VERTEX
8
OBJECT__18
10
92.242996
20
-15.764000
30
65.417000
70
192
0
VERTEX
8
OBJECT__18
10
74.614998
20
-16.950001
30
69.025002
70
192
0
VERTEX
8
OBJECT__18
10
93.970001
20
-15.689000
30
64.987000
70
192
0
VERTEX
8
OBJECT__18
10
107.489998
20
-15.106000
30
61.624001
70
192
0
VERTEX
8
OBJECT__18
10
109.237999
20
-12.391000
30
61.721001
70
192
0
VERTEX
8
OBJECT__18
10
112.091003
20
-5.421000
30
61.882000
70
192
0
VERTEX
8
OBJECT__18
10
112.677002
20
-1.886000
30
61.915001
70
192
0
VERTEX
8
OBJECT__18
10
110.693001
20
-9.517000
30
61.801998
70
192
0
VERTEX
8
OBJECT__18
10
110.238998
20
-10.414000
30
61.777000
70
192
0
VERTEX
8
OBJECT__18
10
110.646004
20
9.624000
30
61.799999
70
192
0
VERTEX
8
OBJECT__18
10
110.223000
20
10.413000
30
61.776001
70
192
0
VERTEX
8
OBJECT__18
10
112.666000
20
0.000000
30
61.915001
70
192
0
VERTEX
8
OBJECT__18
10
112.653999
20
2.143000
30
61.914001
70
192
0
VERTEX
8
OBJECT__18
10
112.049004
20
5.592000
30
61.879002
70
192
0
VERTEX
8
OBJECT__18
10
108.558998
20
13.516000
30
61.682999
70
192
0
VERTEX
8
OBJECT__18
10
107.490997
20
15.106000
30
61.624001
70
192
0
VERTEX
8
OBJECT__18
10
34.921001
20
-20.865999
30
74.457001
70
192
0
VERTEX
8
OBJECT__18
10
0
20
0
30
0
70
128
71
1
72
2
73
3
0
VERTEX
8
OBJECT__18
10
0
20
0
30
0
70
128
71
4
72
3
73
5
0
VERTEX
8
OBJECT__18
10
0
20
0
30
0
70
128
71
4
72
6
73
7
0
VERTEX
8
OBJECT__18
10
0
20
0
30
0
70
128
71
1
72
4
73
8
0
VERTEX
8
OBJECT__18
10
0
20
0
30
0
70
128
71
8
72
7
73
9
0
VERTEX
8
OBJECT__18
10
0
20
0
30
0
70
128
71
9
72
10
73
8
0
VERTEX
8
OBJECT__18
10
0
20
0
30
0
70
128
71
7
72
11
73
9
0
VERTEX
8
OBJECT__18
10
0
20
0
30
0
70
128
71
12
72
8
73
13
0
VERTEX
8
OBJECT__18
10
0
20
0
30
0
70
128
71
8
72
14
73
13
0
VERTEX
8
OBJECT__18
10
0
20
0
30
0
70
128
71
15
72
16
73
17
0
VERTEX
8
OBJECT__18
10
0
20
0
30
0
70
128
71
16
72
15
73
18
0
VERTEX
8
OBJECT__18
10
0
20
0
30
0
70
128
71
18
72
19
73
16
0
VERTEX
8
OBJECT__18
10
0
20
0
30
0
70
128
71
19
72
18
73
20
0
VERTEX
8
OBJECT__18
10
0
20
0
30
0
70
128
71
20
72
21
73
22
0
VERTEX
8
OBJECT__18
10
0
20
0
30
0
70
128
71
20
72
22
73
19
0
VERTEX
8
OBJECT__18
10
0
20
0
30
0
70
128
71
1
72
12
73
23
0
VERTEX
8
OBJECT__18
10
0
20
0
30
0
70
128
71
12
72
17
73
24
0
VERTEX
8
OBJECT__18
10
0
20
0
30
0
70
128
71
24
72
23
73
12
0
VERTEX
8
OBJECT__18
10
0
20
0
30
0
70
128
71
23
72
25
73
1
0
VERTEX
8
OBJECT__18
10
0
20
0
30
0
70
128
71
2
72
1
73
26
0
VERTEX
8
OBJECT__18
10
0
20
0
30
0
70
128
71
26
72
27
73
2
0
VERTEX
8
OBJECT__18
10
0
20
0
30
0
70
128
71
1
72
28
73
26
0
VERTEX
8
OBJECT__18
10
0
20
0
30
0
70
128
71
27
72
29
73
2
0
VERTEX
8
OBJECT__18
10
0
20
0
30
0
70
128
71
30
72
31
73
32
0
VERTEX
8
OBJECT__18
10
0
20
0
30
0
70
128
71
30
72
33
73
31
0
VERTEX
8
OBJECT__18
10
0
20
0
30
0
70
128
71
34
72
33
73
30
0
VERTEX
8
OBJECT__18
10
0
20
0
30
0
70
128
71
30
72
35
73
34
0
VERTEX
8
OBJECT__18
10
0
20
0
30
0
70
128
71
36
72
37
73
34
0
VERTEX
8
OBJECT__18
10
0
20
0
30
0
70
128
71
36
72
2
73
38
0
VERTEX
8
OBJECT__18
10
0
20
0
30
0
70
128
71
38
72
37
73
36
0
VERTEX
8
OBJECT__18
10
0
20
0
30
0
70
128
71
35
72
36
73
34
0
VERTEX
8
OBJECT__18
10
0
20
0
30
0
70
128
71
2
72
36
73
39
0
VERTEX
8
OBJECT__18
10
0
20
0
30
0
70
128
71
39
72
3
73
2
0
VERTEX
8
OBJECT__18
10
0
20
0
30
0
70
128
71
3
72
40
73
41
0
VERTEX
8
OBJECT__18
10
0
20
0
30
0
70
128
71
3
72
42
73
40
0
VERTEX
8
OBJECT__18
10
0
20
0
30
0
70
128
71
41
72
5
73
3
0
VERTEX
8
OBJECT__18
10
0
20
0
30
0
70
128
71
5
72
43
73
44
0
VERTEX
8
OBJECT__18
10
0
20
0
30
0
70
128
71
44
72
45
73
5
0
VERTEX
8
OBJECT__18
10
0
20
0
30
0
70
128
71
6
72
46
73
47
0
VERTEX
8
OBJECT__18
10
0
20
0
30
0
70
128
71
6
72
48
73
46
0
VERTEX
8
OBJECT__18
10
0
20
0
30
0
70
128
71
6
72
5
73
49
0
VERTEX
8
OBJECT__18
10
0
20
0
30
0
70
128
71
49
72
48
73
6
0
VERTEX
8
OBJECT__18
10
0
20
0
30
0
70
128
71
6
72
50
73
51
0
VERTEX
8
OBJECT__18
10
0
20
0
30
0
70
128
71
6
72
52
73
53
0
VERTEX
8
OBJECT__18
10
0
20
0
30
0
70
128
71
53
72
54
73
6
0
VERTEX
8
OBJECT__18
10
0
20
0
30
0
70
128
71
54
72
50
73
6
0
VERTEX
8
OBJECT__18
10
0
20
0
30
0
70
128
71
7
72
55
73
56
0
VERTEX
8
OBJECT__18
10
0
20
0
30
0
70
128
71
7
72
51
73
55
0
VERTEX
8
OBJECT__18
10
0
20
0
30
0
70
128
71
56
72
11
73
7
0
VERTEX
8
OBJECT__18
10
0
20
0
30
0
70
128
71
51
72
7
73
6
0
VERTEX
8
OBJECT__18
10
0
20
0
30
0
70
128
71
47
72
52
73
6
0
VERTEX
8
OBJECT__18
10
0
20
0
30
0
70
128
71
45
72
49
73
5
0
VERTEX
8
OBJECT__18
10
0
20
0
30
0
70
128
71
41
72
43
73
5
0
VERTEX
8
OBJECT__18
10
0
20
0
30
0
70
128
71
39
72
42
73
3
0
VERTEX
8
OBJECT__18
10
0
20
0
30
0
70
128
71
32
72
57
73
30
0
VERTEX
8
OBJECT__18
10
0
20
0
30
0
70
128
71
29
72
38
73
2
0
VERTEX
8
OBJECT__18
10
0
20
0
30
0
70
128
71
25
72
28
73
1
0
VERTEX
8
OBJECT__18
10
0
20
0
30
0
70
128
71
17
72
12
73
15
0
VERTEX
8
OBJECT__18
10
0
20
0
30
0
70
128
71
13
72
15
73
12
0
VERTEX
8
OBJECT__18
10
0
20
0
30
0
70
128
71
10
72
14
73
8
0
VERTEX
8
OBJECT__18
10
0
20
0
30
0
70
128
71
8
72
12
73
1
0
VERTEX
8
OBJECT__18
10
0
20
0
30
0
70
128
71
7
72
8
73
4
0
VERTEX
8
OBJECT__18
10
0
20
0
30
0
70
128
71
5
72
6
73
4
0
VERTEX
8
OBJECT__18
10
0
20
0
30
0
70
128
71
3
72
4
73
1
0
SEQEND
8
OBJECT__18
0
POLYLINE
8
OBJECT__19
66
1
70
64
71
41
72
39
62
253
0
VERTEX
8
OBJECT__19
10
76.106003
20
16.823999
30
68.764999
70
192
0
VERTEX
8
OBJECT__19
10
92.235001
20
15.764000
30
65.419998
70
192
0
VERTEX
8
OBJECT__19
10
84.586998
20
17.761999
30
64.914001
70
192
0
VERTEX
8
OBJECT__19
10
91.855003
20
17.296000
30
63.410999
70
192
0
VERTEX
8
OBJECT__19
10
66.995003
20
17.590000
30
70.361000
70
192
0
VERTEX
8
OBJECT__19
10
74.614998
20
16.950001
30
69.026001
70
192
0
VERTEX
8
OBJECT__19
10
73.542000
20
18.513000
30
67.129997
70
192
0
VERTEX
8
OBJECT__19
10
74.831001
20
18.406000
30
66.902000
70
192
0
VERTEX
8
OBJECT__19
10
75.837997
20
18.323000
30
66.723999
70
192
0
VERTEX
8
OBJECT__19
10
62.013000
20
19.528999
30
69.027000
70
192
0
VERTEX
8
OBJECT__19
10
49.893002
20
20.698000
30
70.802002
70
192
0
VERTEX
8
OBJECT__19
10
54.748001
20
18.794001
30
72.114998
70
192
0
VERTEX
8
OBJECT__19
10
49.331001
20
19.326000
30
72.890999
70
192
0
VERTEX
8
OBJECT__19
10
49.231998
20
20.761999
30
70.899002
70
192
0
VERTEX
8
OBJECT__19
10
66.791000
20
19.069000
30
68.327003
70
192
0
VERTEX
8
OBJECT__19
10
45.185001
20
21.181000
30
71.396004
70
192
0
VERTEX
8
OBJECT__19
10
25.160000
20
23.285999
30
73.370003
70
192
0
VERTEX
8
OBJECT__19
10
24.132999
20
23.273001
30
74.133003
70
192
0
VERTEX
8
OBJECT__19
10
24.493000
20
23.216000
30
74.183998
70
192
0
VERTEX
8
OBJECT__19
10
22.257000
20
23.584000
30
73.594002
70
192
0
VERTEX
8
OBJECT__19
10
22.844000
20
23.474001
30
73.948997
70
192
0
VERTEX
8
OBJECT__19
10
21.705000
20
23.641001
30
73.636002
70
192
0
VERTEX
8
OBJECT__19
10
22.150000
20
23.583000
30
73.850998
70
192
0
VERTEX
8
OBJECT__19
10
36.644001
20
22.079000
30
72.237999
70
192
0
VERTEX
8
OBJECT__19
10
30.090000
20
22.101000
30
74.456001
70
192
0
VERTEX
8
OBJECT__19
10
30.674999
20
21.983999
30
74.484001
70
192
0
VERTEX
8
OBJECT__19
10
26.884001
20
22.740000
30
74.300003
70
192
0
VERTEX
8
OBJECT__19
10
45.264999
20
19.756001
30
73.375999
70
192
0
VERTEX
8
OBJECT__19
10
44.678001
20
21.235001
30
71.445000
70
192
0
VERTEX
8
OBJECT__19
10
34.921001
20
20.865999
30
74.457001
70
192
0
VERTEX
8
OBJECT__19
10
25.204000
20
23.073999
30
74.218002
70
192
0
VERTEX
8
OBJECT__19
10
95.528999
20
17.139999
30
62.521999
70
192
0
VERTEX
8
OBJECT__19
10
106.660004
20
16.622000
30
60.117001
70
192
0
VERTEX
8
OBJECT__19
10
106.011002
20
16.695999
30
59.991001
70
192
0
VERTEX
8
OBJECT__19
10
107.668999
20
16.412001
30
60.432999
70
192
0
VERTEX
8
OBJECT__19
10
107.670998
20
16.507000
30
60.313999
70
192
0
VERTEX
8
OBJECT__19
10
107.494003
20
15.115000
30
61.620998
70
192
0
VERTEX
8
OBJECT__19
10
107.651001
20
15.693000
30
61.332001
70
192
0
VERTEX
8
OBJECT__19
10
107.490997
20
15.106000
30
61.624001
70
192
0
VERTEX
8
OBJECT__19
10
93.970001
20
15.689000
30
64.987999
70
192
0
VERTEX
8
OBJECT__19
10
106.000000
20
16.695999
30
59.988998
70
192
0
VERTEX
8
OBJECT__19
10
0
20
0
30
0
70
128
71
1
72
2
73
3
0
VERTEX
8
OBJECT__19
10
0
20
0
30
0
70
128
71
2
72
4
73
3
0
VERTEX
8
OBJECT__19
10
0
20
0
30
0
70
128
71
5
72
6
73
7
0
VERTEX
8
OBJECT__19
10
0
20
0
30
0
70
128
71
6
72
8
73
7
0
VERTEX
8
OBJECT__19
10
0
20
0
30
0
70
128
71
1
72
9
73
8
0
VERTEX
8
OBJECT__19
10
0
20
0
30
0
70
128
71
8
72
6
73
1
0
VERTEX
8
OBJECT__19
10
0
20
0
30
0
70
128
71
10
72
11
73
12
0
VERTEX
8
OBJECT__19
10
0
20
0
30
0
70
128
71
13
72
12
73
11
0
VERTEX
8
OBJECT__19
10
0
20
0
30
0
70
128
71
11
72
14
73
13
0
VERTEX
8
OBJECT__19
10
0
20
0
30
0
70
128
71
5
72
15
73
10
0
VERTEX
8
OBJECT__19
10
0
20
0
30
0
70
128
71
13
72
14
73
16
0
VERTEX
8
OBJECT__19
10
0
20
0
30
0
70
128
71
17
72
18
73
19
0
VERTEX
8
OBJECT__19
10
0
20
0
30
0
70
128
71
17
72
20
73
21
0
VERTEX
8
OBJECT__19
10
0
20
0
30
0
70
128
71
21
72
18
73
17
0
VERTEX
8
OBJECT__19
10
0
20
0
30
0
70
128
71
20
72
22
73
23
0
VERTEX
8
OBJECT__19
10
0
20
0
30
0
70
128
71
23
72
21
73
20
0
VERTEX
8
OBJECT__19
10
0
20
0
30
0
70
128
71
24
72
25
73
26
0
VERTEX
8
OBJECT__19
10
0
20
0
30
0
70
128
71
17
72
27
73
25
0
VERTEX
8
OBJECT__19
10
0
20
0
30
0
70
128
71
25
72
24
73
17
0
VERTEX
8
OBJECT__19
10
0
20
0
30
0
70
128
71
28
72
29
73
24
0
VERTEX
8
OBJECT__19
10
0
20
0
30
0
70
128
71
28
72
16
73
29
0
VERTEX
8
OBJECT__19
10
0
20
0
30
0
70
128
71
24
72
30
73
28
0
VERTEX
8
OBJECT__19
10
0
20
0
30
0
70
128
71
17
72
31
73
27
0
VERTEX
8
OBJECT__19
10
0
20
0
30
0
70
128
71
32
72
33
73
34
0
VERTEX
8
OBJECT__19
10
0
20
0
30
0
70
128
71
35
72
36
73
33
0
VERTEX
8
OBJECT__19
10
0
20
0
30
0
70
128
71
33
72
32
73
35
0
VERTEX
8
OBJECT__19
10
0
20
0
30
0
70
128
71
32
72
37
73
38
0
VERTEX
8
OBJECT__19
10
0
20
0
30
0
70
128
71
39
72
37
73
32
0
VERTEX
8
OBJECT__19
10
0
20
0
30
0
70
128
71
32
72
40
73
39
0
VERTEX
8
OBJECT__19
10
0
20
0
30
0
70
128
71
32
72
4
73
40
0
VERTEX
8
OBJECT__19
10
0
20
0
30
0
70
128
71
4
72
2
73
40
0
VERTEX
8
OBJECT__19
10
0
20
0
30
0
70
128
71
38
72
35
73
32
0
VERTEX
8
OBJECT__19
10
0
20
0
30
0
70
128
71
34
72
41
73
32
0
VERTEX
8
OBJECT__19
10
0
20
0
30
0
70
128
71
26
72
30
73
24
0
VERTEX
8
OBJECT__19
10
0
20
0
30
0
70
128
71
19
72
31
73
17
0
VERTEX
8
OBJECT__19
10
0
20
0
30
0
70
128
71
16
72
28
73
13
0
VERTEX
8
OBJECT__19
10
0
20
0
30
0
70
128
71
12
72
5
73
10
0
VERTEX
8
OBJECT__19
10
0
20
0
30
0
70
128
71
7
72
15
73
5
0
VERTEX
8
OBJECT__19
10
0
20
0
30
0
70
128
71
3
72
9
73
1
0
SEQEND
8
OBJECT__19
0
POLYLINE
8
OBJECT__20
66
1
70
64
71
211
72
293
62
253
0
VERTEX
8
OBJECT__20
10
75.082001
20
-4.246000
30
43.734001
70
192
0
VERTEX
8
OBJECT__20
10
66.642998
20
-4.208000
30
43.044998
70
192
0
VERTEX
8
OBJECT__20
10
66.742996
20
-0.002000
30
42.438000
70
192
0
VERTEX
8
OBJECT__20
10
74.127998
20
-17.230000
30
59.292999
70
192
0
VERTEX
8
OBJECT__20
10
64.014999
20
-17.558001
30
58.341999
70
192
0
VERTEX
8
OBJECT__20
10
65.051003
20
-15.089000
30
52.435001
70
192
0
VERTEX
8
OBJECT__20
10
74.802002
20
-11.935000
30
48.764999
70
192
0
VERTEX
8
OBJECT__20
10
65.815002
20
-11.926000
30
47.981998
70
192
0
VERTEX
8
OBJECT__20
10
66.337997
20
-8.241000
30
44.876999
70
192
0
VERTEX
8
OBJECT__20
10
83.832001
20
-4.290000
30
43.599998
70
192
0
VERTEX
8
OBJECT__20
10
75.114998
20
-0.002000
30
43.116001
70
192
0
VERTEX
8
OBJECT__20
10
74.982002
20
-8.290000
30
45.603001
70
192
0
VERTEX
8
OBJECT__20
10
83.927002
20
-8.351000
30
45.480000
70
192
0
VERTEX
8
OBJECT__20
10
84.074997
20
-11.959000
30
48.659000
70
192
0
VERTEX
8
OBJECT__20
10
74.526001
20
-14.982000
30
53.294998
70
192
0
VERTEX
8
OBJECT__20
10
84.263000
20
-14.887000
30
53.207001
70
192
0
VERTEX
8
OBJECT__20
10
95.003998
20
-16.621000
30
58.077000
70
192
0
VERTEX
8
OBJECT__20
10
84.473000
20
-16.910000
30
59.220001
70
192
0
VERTEX
8
OBJECT__20
10
73.574997
20
-18.481001
30
66.891998
70
192
0
VERTEX
8
OBJECT__20
10
62.666000
20
-19.157000
30
65.839996
70
192
0
VERTEX
8
OBJECT__20
10
58.521000
20
-4.174000
30
41.570000
70
192
0
VERTEX
8
OBJECT__20
10
50.724998
20
-4.140000
30
39.348999
70
192
0
VERTEX
8
OBJECT__20
10
50.964001
20
-0.002000
30
38.791000
70
192
0
VERTEX
8
OBJECT__20
10
43.262001
20
-4.103000
30
36.419998
70
192
0
VERTEX
8
OBJECT__20
10
43.568001
20
-0.002000
30
35.896999
70
192
0
VERTEX
8
OBJECT__20
10
48.778999
20
-11.905000
30
43.908001
70
192
0
VERTEX
8
OBJECT__20
10
40.773998
20
-11.870000
30
40.699001
70
192
0
VERTEX
8
OBJECT__20
10
42.338001
20
-8.095000
30
38.004002
70
192
0
VERTEX
8
OBJECT__20
10
50.002998
20
-8.151000
30
41.039001
70
192
0
VERTEX
8
OBJECT__20
10
47.021000
20
-15.275000
30
48.039001
70
192
0
VERTEX
8
OBJECT__20
10
38.532001
20
-15.317000
30
44.587002
70
192
0
VERTEX
8
OBJECT__20
10
44.682999
20
-18.132999
30
53.542999
70
192
0
VERTEX
8
OBJECT__20
10
35.562000
20
-18.330000
30
49.785999
70
192
0
VERTEX
8
OBJECT__20
10
38.027000
20
-21.799999
30
69.292000
70
192
0
VERTEX
8
OBJECT__20
10
27.156000
20
-22.612000
30
64.741997
70
192
0
VERTEX
8
OBJECT__20
10
31.797001
20
-20.798000
30
56.443001
70
192
0
VERTEX
8
OBJECT__20
10
41.709000
20
-20.351000
30
60.569000
70
192
0
VERTEX
8
OBJECT__20
10
54.183998
20
-17.867001
30
56.410000
70
192
0
VERTEX
8
OBJECT__20
10
58.691002
20
-0.002000
30
40.984001
70
192
0
VERTEX
8
OBJECT__20
10
57.132999
20
-11.920000
30
46.348999
70
192
0
VERTEX
8
OBJECT__20
10
58.007999
20
-8.197000
30
43.342999
70
192
0
VERTEX
8
OBJECT__20
10
55.870998
20
-15.193000
30
50.667999
70
192
0
VERTEX
8
OBJECT__20
10
52.021000
20
-19.792000
30
63.716999
70
192
0
VERTEX
8
OBJECT__20
10
38.029999
20
21.799000
30
69.283997
70
192
0
VERTEX
8
OBJECT__20
10
41.712002
20
20.349001
30
60.562000
70
192
0
VERTEX
8
OBJECT__20
10
31.801001
20
20.796000
30
56.437000
70
192
0
VERTEX
8
OBJECT__20
10
44.685001
20
18.131001
30
53.537998
70
192
0
VERTEX
8
OBJECT__20
10
35.564999
20
18.327000
30
49.780998
70
192
0
VERTEX
8
OBJECT__20
10
47.022999
20
15.272000
30
48.034000
70
192
0
VERTEX
8
OBJECT__20
10
38.535000
20
15.315000
30
44.584000
70
192
0
VERTEX
8
OBJECT__20
10
52.022999
20
19.791000
30
63.709999
70
192
0
VERTEX
8
OBJECT__20
10
54.185001
20
17.865000
30
56.404999
70
192
0
VERTEX
8
OBJECT__20
10
62.667999
20
19.156000
30
65.833000
70
192
0
VERTEX
8
OBJECT__20
10
64.015999
20
17.556000
30
58.335999
70
192
0
VERTEX
8
OBJECT__20
10
55.873001
20
15.191000
30
50.664001
70
192
0
VERTEX
8
OBJECT__20
10
65.051003
20
15.087000
30
52.430000
70
192
0
VERTEX
8
OBJECT__20
10
57.133999
20
11.917000
30
46.346001
70
192
0
VERTEX
8
OBJECT__20
10
48.780998
20
11.902000
30
43.904999
70
192
0
VERTEX
8
OBJECT__20
10
40.775002
20
11.866000
30
40.695999
70
192
0
VERTEX
8
OBJECT__20
10
50.004002
20
8.147000
30
41.036999
70
192
0
VERTEX
8
OBJECT__20
10
42.339001
20
8.092000
30
38.001999
70
192
0
VERTEX
8
OBJECT__20
10
50.726002
20
4.137000
30
39.348000
70
192
0
VERTEX
8
OBJECT__20
10
43.262001
20
4.099000
30
36.418999
70
192
0
VERTEX
8
OBJECT__20
10
58.007999
20
8.194000
30
43.341000
70
192
0
VERTEX
8
OBJECT__20
10
58.521999
20
4.171000
30
41.569000
70
192
0
VERTEX
8
OBJECT__20
10
65.815002
20
11.923000
30
47.979000
70
192
0
VERTEX
8
OBJECT__20
10
66.337997
20
8.238000
30
44.875000
70
192
0
VERTEX
8
OBJECT__20
10
66.642998
20
4.205000
30
43.043999
70
192
0
VERTEX
8
OBJECT__20
10
74.526001
20
14.979000
30
53.290001
70
192
0
VERTEX
8
OBJECT__20
10
74.802002
20
11.932000
30
48.762001
70
192
0
VERTEX
8
OBJECT__20
10
73.575996
20
18.481001
30
66.885002
70
192
0
VERTEX
8
OBJECT__20
10
74.127998
20
17.229000
30
59.287998
70
192
0
VERTEX
8
OBJECT__20
10
84.473000
20
16.908001
30
59.214001
70
192
0
VERTEX
8
OBJECT__20
10
84.263000
20
14.885000
30
53.202000
70
192
0
VERTEX
8
OBJECT__20
10
84.074997
20
11.956000
30
48.655998
70
192
0
VERTEX
8
OBJECT__20
10
74.982002
20
8.286000
30
45.601002
70
192
0
VERTEX
8
OBJECT__20
10
75.082001
20
4.242000
30
43.733002
70
192
0
VERTEX
8
OBJECT__20
10
83.926003
20
8.348000
30
45.478001
70
192
0
VERTEX
8
OBJECT__20
10
83.832001
20
4.286000
30
43.598999
70
192
0
VERTEX
8
OBJECT__20
10
83.800003
20
-0.002000
30
42.978001
70
192
0
VERTEX
8
OBJECT__20
10
95.002998
20
16.620001
30
58.070999
70
192
0
VERTEX
8
OBJECT__20
10
94.230003
20
14.823000
30
52.123001
70
192
0
VERTEX
8
OBJECT__20
10
27.160000
20
22.611000
30
64.734001
70
192
0
VERTEX
8
OBJECT__20
10
25.160000
20
23.285999
30
73.370003
70
192
0
VERTEX
8
OBJECT__20
10
36.644001
20
22.079000
30
72.237999
70
192
0
VERTEX
8
OBJECT__20
10
22.257000
20
23.584000
30
73.594002
70
192
0
VERTEX
8
OBJECT__20
10
49.231998
20
20.761999
30
70.899002
70
192
0
VERTEX
8
OBJECT__20
10
44.678001
20
21.235001
30
71.445000
70
192
0
VERTEX
8
OBJECT__20
10
45.185001
20
21.181000
30
71.396004
70
192
0
VERTEX
8
OBJECT__20
10
49.893002
20
20.698000
30
70.802002
70
192
0
VERTEX
8
OBJECT__20
10
62.013000
20
19.528999
30
69.027000
70
192
0
VERTEX
8
OBJECT__20
10
66.791000
20
19.069000
30
68.327003
70
192
0
VERTEX
8
OBJECT__20
10
75.837997
20
18.323000
30
66.723999
70
192
0
VERTEX
8
OBJECT__20
10
84.586998
20
17.761999
30
64.914001
70
192
0
VERTEX
8
OBJECT__20
10
74.831001
20
18.406000
30
66.902000
70
192
0
VERTEX
8
OBJECT__20
10
91.855003
20
17.296000
30
63.410999
70
192
0
VERTEX
8
OBJECT__20
10
95.528999
20
17.139999
30
62.521999
70
192
0
VERTEX
8
OBJECT__20
10
102.080002
20
16.518000
30
57.102001
70
192
0
VERTEX
8
OBJECT__20
10
101.677002
20
16.438999
30
56.794998
70
192
0
VERTEX
8
OBJECT__20
10
106.000000
20
16.695999
30
59.988998
70
192
0
VERTEX
8
OBJECT__20
10
97.897003
20
15.702000
30
53.923000
70
192
0
VERTEX
8
OBJECT__20
10
95.408997
20
14.755000
30
51.957001
70
192
0
VERTEX
8
OBJECT__20
10
94.285004
20
14.327000
30
51.069000
70
192
0
VERTEX
8
OBJECT__20
10
91.150002
20
12.411000
30
48.495998
70
192
0
VERTEX
8
OBJECT__20
10
90.628998
20
11.972000
30
48.056999
70
192
0
VERTEX
8
OBJECT__20
10
94.063004
20
14.192000
30
50.887001
70
192
0
VERTEX
8
OBJECT__20
10
87.681999
20
8.905000
30
45.534000
70
192
0
VERTEX
8
OBJECT__20
10
87.357002
20
8.351000
30
45.248001
70
192
0
VERTEX
8
OBJECT__20
10
89.717003
20
11.203000
30
47.286999
70
192
0
VERTEX
8
OBJECT__20
10
86.085999
20
6.183000
30
44.127998
70
192
0
VERTEX
8
OBJECT__20
10
84.973999
20
2.667000
30
43.134998
70
192
0
VERTEX
8
OBJECT__20
10
84.771004
20
1.099000
30
42.952000
70
192
0
VERTEX
8
OBJECT__20
10
85.154999
20
3.513000
30
43.298000
70
192
0
VERTEX
8
OBJECT__20
10
85.421997
20
4.278000
30
43.535999
70
192
0
VERTEX
8
OBJECT__20
10
84.817001
20
-1.602000
30
42.993999
70
192
0
VERTEX
8
OBJECT__20
10
84.945000
20
-2.507000
30
43.109001
70
192
0
VERTEX
8
OBJECT__20
10
84.790001
20
-0.001000
30
42.969002
70
192
0
VERTEX
8
OBJECT__20
10
85.668999
20
-5.179000
30
43.757999
70
192
0
VERTEX
8
OBJECT__20
10
85.920998
20
-5.809000
30
43.981998
70
192
0
VERTEX
8
OBJECT__20
10
85.427002
20
-4.285000
30
43.541000
70
192
0
VERTEX
8
OBJECT__20
10
87.389000
20
-8.489000
30
45.278000
70
192
0
VERTEX
8
OBJECT__20
10
88.359001
20
-9.769000
30
46.122002
70
192
0
VERTEX
8
OBJECT__20
10
93.408997
20
-13.872000
30
50.359001
70
192
0
VERTEX
8
OBJECT__20
10
94.060997
20
-14.149000
30
50.879002
70
192
0
VERTEX
8
OBJECT__20
10
90.917000
20
-12.231000
30
48.300999
70
192
0
VERTEX
8
OBJECT__20
10
90.642998
20
-11.967000
30
48.067001
70
192
0
VERTEX
8
OBJECT__20
10
97.308998
20
-15.527000
30
53.466000
70
192
0
VERTEX
8
OBJECT__20
10
101.667999
20
-16.469000
30
56.793999
70
192
0
VERTEX
8
OBJECT__20
10
94.231003
20
-14.825000
30
52.126999
70
192
0
VERTEX
8
OBJECT__20
10
95.433998
20
-14.731000
30
51.973000
70
192
0
VERTEX
8
OBJECT__20
10
95.528999
20
-17.139999
30
62.521000
70
192
0
VERTEX
8
OBJECT__20
10
101.669998
20
-16.469000
30
56.796001
70
192
0
VERTEX
8
OBJECT__20
10
102.739998
20
-16.584999
30
57.592999
70
192
0
VERTEX
8
OBJECT__20
10
91.862000
20
-17.295000
30
63.408001
70
192
0
VERTEX
8
OBJECT__20
10
75.845001
20
-18.323000
30
66.721001
70
192
0
VERTEX
8
OBJECT__20
10
74.796997
20
-18.409000
30
66.906998
70
192
0
VERTEX
8
OBJECT__20
10
84.586998
20
-17.761999
30
64.913002
70
192
0
VERTEX
8
OBJECT__20
10
73.542000
20
-18.513000
30
67.128998
70
192
0
VERTEX
8
OBJECT__20
10
66.787003
20
-19.069000
30
68.325996
70
192
0
VERTEX
8
OBJECT__20
10
62.014000
20
-19.528999
30
69.026001
70
192
0
VERTEX
8
OBJECT__20
10
45.181000
20
-21.181999
30
71.394997
70
192
0
VERTEX
8
OBJECT__20
10
44.654999
20
-21.237000
30
71.446999
70
192
0
VERTEX
8
OBJECT__20
10
49.226002
20
-20.763000
30
70.899002
70
192
0
VERTEX
8
OBJECT__20
10
49.893002
20
-20.698000
30
70.801003
70
192
0
VERTEX
8
OBJECT__20
10
36.644001
20
-22.079000
30
72.237000
70
192
0
VERTEX
8
OBJECT__20
10
25.150999
20
-23.287001
30
73.371002
70
192
0
VERTEX
8
OBJECT__20
10
21.136999
20
-23.424000
30
66.685997
70
192
0
VERTEX
8
OBJECT__20
10
21.136000
20
-23.393000
30
66.132004
70
192
0
VERTEX
8
OBJECT__20
10
21.613001
20
-23.002001
30
62.325001
70
192
0
VERTEX
8
OBJECT__20
10
21.180000
20
-23.606001
30
70.186996
70
192
0
VERTEX
8
OBJECT__20
10
21.141001
20
-23.603001
30
69.916000
70
192
0
VERTEX
8
OBJECT__20
10
22.257000
20
-23.584000
30
73.594002
70
192
0
VERTEX
8
OBJECT__20
10
21.683001
20
-23.643000
30
73.638000
70
192
0
VERTEX
8
OBJECT__20
10
22.191999
20
-22.608999
30
59.823002
70
192
0
VERTEX
8
OBJECT__20
10
22.570000
20
-22.354000
30
58.194000
70
192
0
VERTEX
8
OBJECT__20
10
24.028000
20
-21.353001
30
53.735001
70
192
0
VERTEX
8
OBJECT__20
10
24.226999
20
-21.204000
30
53.262001
70
192
0
VERTEX
8
OBJECT__20
10
21.695999
20
-22.945000
30
61.964001
70
192
0
VERTEX
8
OBJECT__20
10
24.485001
20
-21.010000
30
52.645000
70
192
0
VERTEX
8
OBJECT__20
10
25.924000
20
-19.929001
30
49.209999
70
192
0
VERTEX
8
OBJECT__20
10
26.948000
20
-19.055000
30
47.213001
70
192
0
VERTEX
8
OBJECT__20
10
28.112000
20
-18.061001
30
44.944000
70
192
0
VERTEX
8
OBJECT__20
10
30.082001
20
-16.122999
30
41.702000
70
192
0
VERTEX
8
OBJECT__20
10
27.725000
20
-18.392000
30
45.700001
70
192
0
VERTEX
8
OBJECT__20
10
31.976000
20
-13.972000
30
39.027000
70
192
0
VERTEX
8
OBJECT__20
10
33.431000
20
-12.038000
30
37.265999
70
192
0
VERTEX
8
OBJECT__20
10
30.843000
20
-15.259000
30
40.627998
70
192
0
VERTEX
8
OBJECT__20
10
35.270000
20
-9.190000
30
35.325001
70
192
0
VERTEX
8
OBJECT__20
10
35.066002
20
-9.515000
30
35.535000
70
192
0
VERTEX
8
OBJECT__20
10
33.612999
20
-11.796000
30
37.044998
70
192
0
VERTEX
8
OBJECT__20
10
33.722000
20
-11.652000
30
36.914001
70
192
0
VERTEX
8
OBJECT__20
10
36.506001
20
-6.713000
30
34.244999
70
192
0
VERTEX
8
OBJECT__20
10
37.433998
20
-4.087000
30
33.542999
70
192
0
VERTEX
8
OBJECT__20
10
35.863998
20
-8.001000
30
34.806999
70
192
0
VERTEX
8
OBJECT__20
10
37.569000
20
-3.391000
30
33.452999
70
192
0
VERTEX
8
OBJECT__20
10
37.914001
20
-1.607000
30
33.220001
70
192
0
VERTEX
8
OBJECT__20
10
37.964001
20
1.078000
30
33.188999
70
192
0
VERTEX
8
OBJECT__20
10
37.577000
20
3.534000
30
33.445999
70
192
0
VERTEX
8
OBJECT__20
10
37.944000
20
-0.001000
30
33.201000
70
192
0
VERTEX
8
OBJECT__20
10
37.945999
20
0.070000
30
33.200001
70
192
0
VERTEX
8
OBJECT__20
10
36.847000
20
5.883000
30
33.980999
70
192
0
VERTEX
8
OBJECT__20
10
36.469002
20
6.706000
30
34.299999
70
192
0
VERTEX
8
OBJECT__20
10
37.416000
20
4.052000
30
33.563999
70
192
0
VERTEX
8
OBJECT__20
10
35.014000
20
9.591000
30
35.608002
70
192
0
VERTEX
8
OBJECT__20
10
34.205002
20
10.951000
30
36.407001
70
192
0
VERTEX
8
OBJECT__20
10
35.581001
20
8.638000
30
35.048000
70
192
0
VERTEX
8
OBJECT__20
10
35.873001
20
8.004000
30
34.801998
70
192
0
VERTEX
8
OBJECT__20
10
33.384998
20
12.103000
30
37.354000
70
192
0
VERTEX
8
OBJECT__20
10
32.592999
20
13.214000
30
38.269001
70
192
0
VERTEX
8
OBJECT__20
10
33.625000
20
11.766000
30
37.077000
70
192
0
VERTEX
8
OBJECT__20
10
30.075001
20
16.115999
30
41.799000
70
192
0
VERTEX
8
OBJECT__20
10
28.854000
20
17.378000
30
43.702000
70
192
0
VERTEX
8
OBJECT__20
10
30.857000
20
15.292000
30
40.603001
70
192
0
VERTEX
8
OBJECT__20
10
30.753000
20
15.415000
30
40.742001
70
192
0
VERTEX
8
OBJECT__20
10
26.931999
20
19.118000
30
47.193001
70
192
0
VERTEX
8
OBJECT__20
10
25.058001
20
20.615999
30
51.221001
70
192
0
VERTEX
8
OBJECT__20
10
27.747000
20
18.379999
30
45.712002
70
192
0
VERTEX
8
OBJECT__20
10
22.191999
20
22.621000
30
59.896000
70
192
0
VERTEX
8
OBJECT__20
10
21.954000
20
22.781000
30
60.757999
70
192
0
VERTEX
8
OBJECT__20
10
23.297001
20
21.878000
30
55.900002
70
192
0
VERTEX
8
OBJECT__20
10
24.257999
20
21.190001
30
53.347000
70
192
0
VERTEX
8
OBJECT__20
10
24.518000
20
21.003000
30
52.654999
70
192
0
VERTEX
8
OBJECT__20
10
21.417999
20
23.643999
30
72.127998
70
192
0
VERTEX
8
OBJECT__20
10
21.242001
20
23.590000
30
70.170998
70
192
0
VERTEX
8
OBJECT__20
10
21.184999
20
23.414000
30
66.724998
70
192
0
VERTEX
8
OBJECT__20
10
21.100000
20
23.547001
30
68.588997
70
192
0
VERTEX
8
OBJECT__20
10
21.750000
20
22.930000
30
61.983002
70
192
0
VERTEX
8
OBJECT__20
10
21.268999
20
23.282000
30
64.874001
70
192
0
VERTEX
8
OBJECT__20
10
21.705000
20
23.641001
30
73.636002
70
192
0
VERTEX
8
OBJECT__20
10
105.999001
20
-16.695999
30
59.987999
70
192
0
VERTEX
8
OBJECT__20
10
73.542000
20
18.513000
30
67.129997
70
192
0
VERTEX
8
OBJECT__20
10
0
20
0
30
0
70
128
71
1
72
2
73
3
0
VERTEX
8
OBJECT__20
10
0
20
0
30
0
70
128
71
4
72
5
73
6
0
VERTEX
8
OBJECT__20
10
0
20
0
30
0
70
128
71
7
72
8
73
9
0
VERTEX
8
OBJECT__20
10
0
20
0
30
0
70
128
71
10
72
1
73
11
0
VERTEX
8
OBJECT__20
10
0
20
0
30
0
70
128
71
12
72
9
73
2
0
VERTEX
8
OBJECT__20
10
0
20
0
30
0
70
128
71
13
72
12
73
1
0
VERTEX
8
OBJECT__20
10
0
20
0
30
0
70
128
71
14
72
7
73
12
0
VERTEX
8
OBJECT__20
10
0
20
0
30
0
70
128
71
15
72
6
73
8
0
VERTEX
8
OBJECT__20
10
0
20
0
30
0
70
128
71
16
72
15
73
7
0
VERTEX
8
OBJECT__20
10
0
20
0
30
0
70
128
71
17
72
18
73
16
0
VERTEX
8
OBJECT__20
10
0
20
0
30
0
70
128
71
18
72
4
73
15
0
VERTEX
8
OBJECT__20
10
0
20
0
30
0
70
128
71
19
72
20
73
5
0
VERTEX
8
OBJECT__20
10
0
20
0
30
0
70
128
71
21
72
22
73
23
0
VERTEX
8
OBJECT__20
10
0
20
0
30
0
70
128
71
22
72
24
73
25
0
VERTEX
8
OBJECT__20
10
0
20
0
30
0
70
128
71
26
72
27
73
28
0
VERTEX
8
OBJECT__20
10
0
20
0
30
0
70
128
71
29
72
28
73
24
0
VERTEX
8
OBJECT__20
10
0
20
0
30
0
70
128
71
30
72
31
73
27
0
VERTEX
8
OBJECT__20
10
0
20
0
30
0
70
128
71
32
72
33
73
31
0
VERTEX
8
OBJECT__20
10
0
20
0
30
0
70
128
71
34
72
35
73
36
0
VERTEX
8
OBJECT__20
10
0
20
0
30
0
70
128
71
37
72
36
73
33
0
VERTEX
8
OBJECT__20
10
0
20
0
30
0
70
128
71
38
72
32
73
30
0
VERTEX
8
OBJECT__20
10
0
20
0
30
0
70
128
71
2
72
21
73
39
0
VERTEX
8
OBJECT__20
10
0
20
0
30
0
70
128
71
40
72
26
73
29
0
VERTEX
8
OBJECT__20
10
0
20
0
30
0
70
128
71
41
72
29
73
22
0
VERTEX
8
OBJECT__20
10
0
20
0
30
0
70
128
71
42
72
30
73
26
0
VERTEX
8
OBJECT__20
10
0
20
0
30
0
70
128
71
8
72
40
73
41
0
VERTEX
8
OBJECT__20
10
0
20
0
30
0
70
128
71
9
72
41
73
21
0
VERTEX
8
OBJECT__20
10
0
20
0
30
0
70
128
71
6
72
42
73
40
0
VERTEX
8
OBJECT__20
10
0
20
0
30
0
70
128
71
5
72
38
73
42
0
VERTEX
8
OBJECT__20
10
0
20
0
30
0
70
128
71
43
72
37
73
32
0
VERTEX
8
OBJECT__20
10
0
20
0
30
0
70
128
71
20
72
43
73
38
0
VERTEX
8
OBJECT__20
10
0
20
0
30
0
70
128
71
44
72
45
73
46
0
VERTEX
8
OBJECT__20
10
0
20
0
30
0
70
128
71
45
72
47
73
48
0
VERTEX
8
OBJECT__20
10
0
20
0
30
0
70
128
71
47
72
49
73
50
0
VERTEX
8
OBJECT__20
10
0
20
0
30
0
70
128
71
51
72
52
73
47
0
VERTEX
8
OBJECT__20
10
0
20
0
30
0
70
128
71
53
72
54
73
52
0
VERTEX
8
OBJECT__20
10
0
20
0
30
0
70
128
71
52
72
55
73
49
0
VERTEX
8
OBJECT__20
10
0
20
0
30
0
70
128
71
54
72
56
73
55
0
VERTEX
8
OBJECT__20
10
0
20
0
30
0
70
128
71
55
72
57
73
58
0
VERTEX
8
OBJECT__20
10
0
20
0
30
0
70
128
71
49
72
58
73
59
0
VERTEX
8
OBJECT__20
10
0
20
0
30
0
70
128
71
58
72
60
73
61
0
VERTEX
8
OBJECT__20
10
0
20
0
30
0
70
128
71
60
72
62
73
63
0
VERTEX
8
OBJECT__20
10
0
20
0
30
0
70
128
71
62
72
23
73
25
0
VERTEX
8
OBJECT__20
10
0
20
0
30
0
70
128
71
64
72
65
73
62
0
VERTEX
8
OBJECT__20
10
0
20
0
30
0
70
128
71
56
72
66
73
57
0
VERTEX
8
OBJECT__20
10
0
20
0
30
0
70
128
71
57
72
64
73
60
0
VERTEX
8
OBJECT__20
10
0
20
0
30
0
70
128
71
66
72
67
73
64
0
VERTEX
8
OBJECT__20
10
0
20
0
30
0
70
128
71
67
72
68
73
65
0
VERTEX
8
OBJECT__20
10
0
20
0
30
0
70
128
71
65
72
39
73
23
0
VERTEX
8
OBJECT__20
10
0
20
0
30
0
70
128
71
68
72
3
73
39
0
VERTEX
8
OBJECT__20
10
0
20
0
30
0
70
128
71
69
72
70
73
66
0
VERTEX
8
OBJECT__20
10
0
20
0
30
0
70
128
71
71
72
72
73
54
0
VERTEX
8
OBJECT__20
10
0
20
0
30
0
70
128
71
72
72
69
73
56
0
VERTEX
8
OBJECT__20
10
0
20
0
30
0
70
128
71
73
72
74
73
69
0
VERTEX
8
OBJECT__20
10
0
20
0
30
0
70
128
71
74
72
75
73
70
0
VERTEX
8
OBJECT__20
10
0
20
0
30
0
70
128
71
76
72
77
73
68
0
VERTEX
8
OBJECT__20
10
0
20
0
30
0
70
128
71
70
72
76
73
67
0
VERTEX
8
OBJECT__20
10
0
20
0
30
0
70
128
71
77
72
11
73
3
0
VERTEX
8
OBJECT__20
10
0
20
0
30
0
70
128
71
78
72
79
73
77
0
VERTEX
8
OBJECT__20
10
0
20
0
30
0
70
128
71
75
72
78
73
76
0
VERTEX
8
OBJECT__20
10
0
20
0
30
0
70
128
71
79
72
80
73
11
0
VERTEX
8
OBJECT__20
10
0
20
0
30
0
70
128
71
81
72
82
73
74
0
VERTEX
8
OBJECT__20
10
0
20
0
30
0
70
128
71
83
72
84
73
85
0
VERTEX
8
OBJECT__20
10
0
20
0
30
0
70
128
71
83
72
86
73
84
0
VERTEX
8
OBJECT__20
10
0
20
0
30
0
70
128
71
51
72
45
73
87
0
VERTEX
8
OBJECT__20
10
0
20
0
30
0
70
128
71
45
72
44
73
88
0
VERTEX
8
OBJECT__20
10
0
20
0
30
0
70
128
71
88
72
89
73
45
0
VERTEX
8
OBJECT__20
10
0
20
0
30
0
70
128
71
89
72
87
73
45
0
VERTEX
8
OBJECT__20
10
0
20
0
30
0
70
128
71
51
72
90
73
91
0
VERTEX
8
OBJECT__20
10
0
20
0
30
0
70
128
71
71
72
53
73
92
0
VERTEX
8
OBJECT__20
10
0
20
0
30
0
70
128
71
53
72
91
73
92
0
VERTEX
8
OBJECT__20
10
0
20
0
30
0
70
128
71
72
72
93
73
94
0
VERTEX
8
OBJECT__20
10
0
20
0
30
0
70
128
71
72
72
71
73
95
0
VERTEX
8
OBJECT__20
10
0
20
0
30
0
70
128
71
95
72
93
73
72
0
VERTEX
8
OBJECT__20
10
0
20
0
30
0
70
128
71
73
72
94
73
96
0
VERTEX
8
OBJECT__20
10
0
20
0
30
0
70
128
71
96
72
81
73
73
0
VERTEX
8
OBJECT__20
10
0
20
0
30
0
70
128
71
97
72
98
73
99
0
VERTEX
8
OBJECT__20
10
0
20
0
30
0
70
128
71
97
72
100
73
98
0
VERTEX
8
OBJECT__20
10
0
20
0
30
0
70
128
71
81
72
101
73
102
0
VERTEX
8
OBJECT__20
10
0
20
0
30
0
70
128
71
81
72
99
73
101
0
VERTEX
8
OBJECT__20
10
0
20
0
30
0
70
128
71
82
72
102
73
103
0
VERTEX
8
OBJECT__20
10
0
20
0
30
0
70
128
71
74
72
104
73
105
0
VERTEX
8
OBJECT__20
10
0
20
0
30
0
70
128
71
74
72
82
73
106
0
VERTEX
8
OBJECT__20
10
0
20
0
30
0
70
128
71
106
72
104
73
74
0
VERTEX
8
OBJECT__20
10
0
20
0
30
0
70
128
71
75
72
107
73
108
0
VERTEX
8
OBJECT__20
10
0
20
0
30
0
70
128
71
75
72
105
73
109
0
VERTEX
8
OBJECT__20
10
0
20
0
30
0
70
128
71
109
72
107
73
75
0
VERTEX
8
OBJECT__20
10
0
20
0
30
0
70
128
71
79
72
78
73
110
0
VERTEX
8
OBJECT__20
10
0
20
0
30
0
70
128
71
78
72
108
73
110
0
VERTEX
8
OBJECT__20
10
0
20
0
30
0
70
128
71
79
72
111
73
112
0
VERTEX
8
OBJECT__20
10
0
20
0
30
0
70
128
71
79
72
113
73
111
0
VERTEX
8
OBJECT__20
10
0
20
0
30
0
70
128
71
79
72
114
73
113
0
VERTEX
8
OBJECT__20
10
0
20
0
30
0
70
128
71
112
72
80
73
79
0
VERTEX
8
OBJECT__20
10
0
20
0
30
0
70
128
71
10
72
80
73
115
0
VERTEX
8
OBJECT__20
10
0
20
0
30
0
70
128
71
115
72
116
73
10
0
VERTEX
8
OBJECT__20
10
0
20
0
30
0
70
128
71
80
72
117
73
115
0
VERTEX
8
OBJECT__20
10
0
20
0
30
0
70
128
71
13
72
10
73
118
0
VERTEX
8
OBJECT__20
10
0
20
0
30
0
70
128
71
118
72
119
73
13
0
VERTEX
8
OBJECT__20
10
0
20
0
30
0
70
128
71
10
72
120
73
118
0
VERTEX
8
OBJECT__20
10
0
20
0
30
0
70
128
71
14
72
13
73
121
0
VERTEX
8
OBJECT__20
10
0
20
0
30
0
70
128
71
121
72
122
73
14
0
VERTEX
8
OBJECT__20
10
0
20
0
30
0
70
128
71
16
72
123
73
124
0
VERTEX
8
OBJECT__20
10
0
20
0
30
0
70
128
71
16
72
125
73
123
0
VERTEX
8
OBJECT__20
10
0
20
0
30
0
70
128
71
16
72
14
73
126
0
VERTEX
8
OBJECT__20
10
0
20
0
30
0
70
128
71
126
72
125
73
16
0
VERTEX
8
OBJECT__20
10
0
20
0
30
0
70
128
71
17
72
127
73
128
0
VERTEX
8
OBJECT__20
10
0
20
0
30
0
70
128
71
17
72
129
73
130
0
VERTEX
8
OBJECT__20
10
0
20
0
30
0
70
128
71
130
72
127
73
17
0
VERTEX
8
OBJECT__20
10
0
20
0
30
0
70
128
71
131
72
17
73
132
0
VERTEX
8
OBJECT__20
10
0
20
0
30
0
70
128
71
132
72
133
73
131
0
VERTEX
8
OBJECT__20
10
0
20
0
30
0
70
128
71
18
72
17
73
134
0
VERTEX
8
OBJECT__20
10
0
20
0
30
0
70
128
71
17
72
131
73
134
0
VERTEX
8
OBJECT__20
10
0
20
0
30
0
70
128
71
4
72
135
73
136
0
VERTEX
8
OBJECT__20
10
0
20
0
30
0
70
128
71
4
72
18
73
137
0
VERTEX
8
OBJECT__20
10
0
20
0
30
0
70
128
71
137
72
135
73
4
0
VERTEX
8
OBJECT__20
10
0
20
0
30
0
70
128
71
19
72
138
73
139
0
VERTEX
8
OBJECT__20
10
0
20
0
30
0
70
128
71
139
72
20
73
19
0
VERTEX
8
OBJECT__20
10
0
20
0
30
0
70
128
71
43
72
20
73
140
0
VERTEX
8
OBJECT__20
10
0
20
0
30
0
70
128
71
37
72
141
73
142
0
VERTEX
8
OBJECT__20
10
0
20
0
30
0
70
128
71
37
72
143
73
141
0
VERTEX
8
OBJECT__20
10
0
20
0
30
0
70
128
71
43
72
144
73
143
0
VERTEX
8
OBJECT__20
10
0
20
0
30
0
70
128
71
143
72
37
73
43
0
VERTEX
8
OBJECT__20
10
0
20
0
30
0
70
128
71
35
72
34
73
145
0
VERTEX
8
OBJECT__20
10
0
20
0
30
0
70
128
71
145
72
146
73
35
0
VERTEX
8
OBJECT__20
10
0
20
0
30
0
70
128
71
35
72
147
73
148
0
VERTEX
8
OBJECT__20
10
0
20
0
30
0
70
128
71
148
72
149
73
35
0
VERTEX
8
OBJECT__20
10
0
20
0
30
0
70
128
71
35
72
150
73
151
0
VERTEX
8
OBJECT__20
10
0
20
0
30
0
70
128
71
151
72
147
73
35
0
VERTEX
8
OBJECT__20
10
0
20
0
30
0
70
128
71
152
72
153
73
150
0
VERTEX
8
OBJECT__20
10
0
20
0
30
0
70
128
71
150
72
35
73
152
0
VERTEX
8
OBJECT__20
10
0
20
0
30
0
70
128
71
36
72
35
73
154
0
VERTEX
8
OBJECT__20
10
0
20
0
30
0
70
128
71
154
72
155
73
36
0
VERTEX
8
OBJECT__20
10
0
20
0
30
0
70
128
71
155
72
156
73
36
0
VERTEX
8
OBJECT__20
10
0
20
0
30
0
70
128
71
156
72
157
73
36
0
VERTEX
8
OBJECT__20
10
0
20
0
30
0
70
128
71
35
72
158
73
154
0
VERTEX
8
OBJECT__20
10
0
20
0
30
0
70
128
71
36
72
159
73
160
0
VERTEX
8
OBJECT__20
10
0
20
0
30
0
70
128
71
160
72
33
73
36
0
VERTEX
8
OBJECT__20
10
0
20
0
30
0
70
128
71
160
72
161
73
33
0
VERTEX
8
OBJECT__20
10
0
20
0
30
0
70
128
71
33
72
162
73
163
0
VERTEX
8
OBJECT__20
10
0
20
0
30
0
70
128
71
33
72
164
73
162
0
VERTEX
8
OBJECT__20
10
0
20
0
30
0
70
128
71
163
72
31
73
33
0
VERTEX
8
OBJECT__20
10
0
20
0
30
0
70
128
71
31
72
165
73
166
0
VERTEX
8
OBJECT__20
10
0
20
0
30
0
70
128
71
31
72
167
73
165
0
VERTEX
8
OBJECT__20
10
0
20
0
30
0
70
128
71
166
72
27
73
31
0
VERTEX
8
OBJECT__20
10
0
20
0
30
0
70
128
71
28
72
27
73
168
0
VERTEX
8
OBJECT__20
10
0
20
0
30
0
70
128
71
27
72
169
73
168
0
VERTEX
8
OBJECT__20
10
0
20
0
30
0
70
128
71
27
72
170
73
171
0
VERTEX
8
OBJECT__20
10
0
20
0
30
0
70
128
71
171
72
169
73
27
0
VERTEX
8
OBJECT__20
10
0
20
0
30
0
70
128
71
28
72
172
73
173
0
VERTEX
8
OBJECT__20
10
0
20
0
30
0
70
128
71
28
72
174
73
172
0
VERTEX
8
OBJECT__20
10
0
20
0
30
0
70
128
71
24
72
175
73
176
0
VERTEX
8
OBJECT__20
10
0
20
0
30
0
70
128
71
24
72
173
73
175
0
VERTEX
8
OBJECT__20
10
0
20
0
30
0
70
128
71
176
72
25
73
24
0
VERTEX
8
OBJECT__20
10
0
20
0
30
0
70
128
71
63
72
25
73
177
0
VERTEX
8
OBJECT__20
10
0
20
0
30
0
70
128
71
177
72
178
73
63
0
VERTEX
8
OBJECT__20
10
0
20
0
30
0
70
128
71
25
72
179
73
180
0
VERTEX
8
OBJECT__20
10
0
20
0
30
0
70
128
71
180
72
177
73
25
0
VERTEX
8
OBJECT__20
10
0
20
0
30
0
70
128
71
61
72
181
73
182
0
VERTEX
8
OBJECT__20
10
0
20
0
30
0
70
128
71
63
72
183
73
181
0
VERTEX
8
OBJECT__20
10
0
20
0
30
0
70
128
71
181
72
61
73
63
0
VERTEX
8
OBJECT__20
10
0
20
0
30
0
70
128
71
59
72
184
73
185
0
VERTEX
8
OBJECT__20
10
0
20
0
30
0
70
128
71
59
72
61
73
186
0
VERTEX
8
OBJECT__20
10
0
20
0
30
0
70
128
71
61
72
187
73
186
0
VERTEX
8
OBJECT__20
10
0
20
0
30
0
70
128
71
186
72
184
73
59
0
VERTEX
8
OBJECT__20
10
0
20
0
30
0
70
128
71
59
72
188
73
189
0
VERTEX
8
OBJECT__20
10
0
20
0
30
0
70
128
71
189
72
50
73
59
0
VERTEX
8
OBJECT__20
10
0
20
0
30
0
70
128
71
59
72
190
73
188
0
VERTEX
8
OBJECT__20
10
0
20
0
30
0
70
128
71
48
72
50
73
191
0
VERTEX
8
OBJECT__20
10
0
20
0
30
0
70
128
71
191
72
192
73
48
0
VERTEX
8
OBJECT__20
10
0
20
0
30
0
70
128
71
50
72
193
73
194
0
VERTEX
8
OBJECT__20
10
0
20
0
30
0
70
128
71
194
72
191
73
50
0
VERTEX
8
OBJECT__20
10
0
20
0
30
0
70
128
71
48
72
195
73
196
0
VERTEX
8
OBJECT__20
10
0
20
0
30
0
70
128
71
196
72
46
73
48
0
VERTEX
8
OBJECT__20
10
0
20
0
30
0
70
128
71
48
72
197
73
195
0
VERTEX
8
OBJECT__20
10
0
20
0
30
0
70
128
71
83
72
198
73
199
0
VERTEX
8
OBJECT__20
10
0
20
0
30
0
70
128
71
46
72
200
73
198
0
VERTEX
8
OBJECT__20
10
0
20
0
30
0
70
128
71
46
72
201
73
200
0
VERTEX
8
OBJECT__20
10
0
20
0
30
0
70
128
71
198
72
83
73
46
0
VERTEX
8
OBJECT__20
10
0
20
0
30
0
70
128
71
46
72
202
73
201
0
VERTEX
8
OBJECT__20
10
0
20
0
30
0
70
128
71
86
72
83
73
203
0
VERTEX
8
OBJECT__20
10
0
20
0
30
0
70
128
71
83
72
204
73
203
0
VERTEX
8
OBJECT__20
10
0
20
0
30
0
70
128
71
83
72
205
73
206
0
VERTEX
8
OBJECT__20
10
0
20
0
30
0
70
128
71
83
72
207
73
208
0
VERTEX
8
OBJECT__20
10
0
20
0
30
0
70
128
71
208
72
205
73
83
0
VERTEX
8
OBJECT__20
10
0
20
0
30
0
70
128
71
206
72
204
73
83
0
VERTEX
8
OBJECT__20
10
0
20
0
30
0
70
128
71
203
72
209
73
86
0
VERTEX
8
OBJECT__20
10
0
20
0
30
0
70
128
71
199
72
207
73
83
0
VERTEX
8
OBJECT__20
10
0
20
0
30
0
70
128
71
196
72
202
73
46
0
VERTEX
8
OBJECT__20
10
0
20
0
30
0
70
128
71
192
72
197
73
48
0
VERTEX
8
OBJECT__20
10
0
20
0
30
0
70
128
71
189
72
193
73
50
0
VERTEX
8
OBJECT__20
10
0
20
0
30
0
70
128
71
185
72
190
73
59
0
VERTEX
8
OBJECT__20
10
0
20
0
30
0
70
128
71
182
72
187
73
61
0
VERTEX
8
OBJECT__20
10
0
20
0
30
0
70
128
71
178
72
183
73
63
0
VERTEX
8
OBJECT__20
10
0
20
0
30
0
70
128
71
176
72
179
73
25
0
VERTEX
8
OBJECT__20
10
0
20
0
30
0
70
128
71
173
72
24
73
28
0
VERTEX
8
OBJECT__20
10
0
20
0
30
0
70
128
71
168
72
174
73
28
0
VERTEX
8
OBJECT__20
10
0
20
0
30
0
70
128
71
166
72
170
73
27
0
VERTEX
8
OBJECT__20
10
0
20
0
30
0
70
128
71
163
72
167
73
31
0
VERTEX
8
OBJECT__20
10
0
20
0
30
0
70
128
71
161
72
164
73
33
0
VERTEX
8
OBJECT__20
10
0
20
0
30
0
70
128
71
157
72
159
73
36
0
VERTEX
8
OBJECT__20
10
0
20
0
30
0
70
128
71
149
72
158
73
35
0
VERTEX
8
OBJECT__20
10
0
20
0
30
0
70
128
71
146
72
152
73
35
0
VERTEX
8
OBJECT__20
10
0
20
0
30
0
70
128
71
145
72
34
73
142
0
VERTEX
8
OBJECT__20
10
0
20
0
30
0
70
128
71
142
72
34
73
37
0
VERTEX
8
OBJECT__20
10
0
20
0
30
0
70
128
71
140
72
144
73
43
0
VERTEX
8
OBJECT__20
10
0
20
0
30
0
70
128
71
139
72
140
73
20
0
VERTEX
8
OBJECT__20
10
0
20
0
30
0
70
128
71
138
72
19
73
136
0
VERTEX
8
OBJECT__20
10
0
20
0
30
0
70
128
71
136
72
19
73
4
0
VERTEX
8
OBJECT__20
10
0
20
0
30
0
70
128
71
134
72
137
73
18
0
VERTEX
8
OBJECT__20
10
0
20
0
30
0
70
128
71
133
72
210
73
131
0
VERTEX
8
OBJECT__20
10
0
20
0
30
0
70
128
71
128
72
132
73
17
0
VERTEX
8
OBJECT__20
10
0
20
0
30
0
70
128
71
130
72
129
73
124
0
VERTEX
8
OBJECT__20
10
0
20
0
30
0
70
128
71
124
72
129
73
16
0
VERTEX
8
OBJECT__20
10
0
20
0
30
0
70
128
71
122
72
126
73
14
0
VERTEX
8
OBJECT__20
10
0
20
0
30
0
70
128
71
119
72
121
73
13
0
VERTEX
8
OBJECT__20
10
0
20
0
30
0
70
128
71
116
72
120
73
10
0
VERTEX
8
OBJECT__20
10
0
20
0
30
0
70
128
71
112
72
117
73
80
0
VERTEX
8
OBJECT__20
10
0
20
0
30
0
70
128
71
110
72
114
73
79
0
VERTEX
8
OBJECT__20
10
0
20
0
30
0
70
128
71
108
72
78
73
75
0
VERTEX
8
OBJECT__20
10
0
20
0
30
0
70
128
71
105
72
75
73
74
0
VERTEX
8
OBJECT__20
10
0
20
0
30
0
70
128
71
103
72
106
73
82
0
VERTEX
8
OBJECT__20
10
0
20
0
30
0
70
128
71
102
72
82
73
81
0
VERTEX
8
OBJECT__20
10
0
20
0
30
0
70
128
71
99
72
81
73
97
0
VERTEX
8
OBJECT__20
10
0
20
0
30
0
70
128
71
96
72
97
73
81
0
VERTEX
8
OBJECT__20
10
0
20
0
30
0
70
128
71
94
72
73
73
72
0
VERTEX
8
OBJECT__20
10
0
20
0
30
0
70
128
71
95
72
71
73
211
0
VERTEX
8
OBJECT__20
10
0
20
0
30
0
70
128
71
92
72
211
73
71
0
VERTEX
8
OBJECT__20
10
0
20
0
30
0
70
128
71
91
72
53
73
51
0
VERTEX
8
OBJECT__20
10
0
20
0
30
0
70
128
71
87
72
90
73
51
0
VERTEX
8
OBJECT__20
10
0
20
0
30
0
70
128
71
88
72
44
73
85
0
VERTEX
8
OBJECT__20
10
0
20
0
30
0
70
128
71
85
72
44
73
83
0
VERTEX
8
OBJECT__20
10
0
20
0
30
0
70
128
71
74
72
73
73
81
0
VERTEX
8
OBJECT__20
10
0
20
0
30
0
70
128
71
11
72
77
73
79
0
VERTEX
8
OBJECT__20
10
0
20
0
30
0
70
128
71
76
72
70
73
75
0
VERTEX
8
OBJECT__20
10
0
20
0
30
0
70
128
71
77
72
76
73
78
0
VERTEX
8
OBJECT__20
10
0
20
0
30
0
70
128
71
3
72
68
73
77
0
VERTEX
8
OBJECT__20
10
0
20
0
30
0
70
128
71
67
72
66
73
70
0
VERTEX
8
OBJECT__20
10
0
20
0
30
0
70
128
71
68
72
67
73
76
0
VERTEX
8
OBJECT__20
10
0
20
0
30
0
70
128
71
70
72
69
73
74
0
VERTEX
8
OBJECT__20
10
0
20
0
30
0
70
128
71
69
72
72
73
73
0
VERTEX
8
OBJECT__20
10
0
20
0
30
0
70
128
71
56
72
54
73
72
0
VERTEX
8
OBJECT__20
10
0
20
0
30
0
70
128
71
54
72
53
73
71
0
VERTEX
8
OBJECT__20
10
0
20
0
30
0
70
128
71
66
72
56
73
69
0
VERTEX
8
OBJECT__20
10
0
20
0
30
0
70
128
71
39
72
65
73
68
0
VERTEX
8
OBJECT__20
10
0
20
0
30
0
70
128
71
23
72
62
73
65
0
VERTEX
8
OBJECT__20
10
0
20
0
30
0
70
128
71
65
72
64
73
67
0
VERTEX
8
OBJECT__20
10
0
20
0
30
0
70
128
71
64
72
57
73
66
0
VERTEX
8
OBJECT__20
10
0
20
0
30
0
70
128
71
60
72
58
73
57
0
VERTEX
8
OBJECT__20
10
0
20
0
30
0
70
128
71
57
72
55
73
56
0
VERTEX
8
OBJECT__20
10
0
20
0
30
0
70
128
71
62
72
60
73
64
0
VERTEX
8
OBJECT__20
10
0
20
0
30
0
70
128
71
25
72
63
73
62
0
VERTEX
8
OBJECT__20
10
0
20
0
30
0
70
128
71
63
72
61
73
60
0
VERTEX
8
OBJECT__20
10
0
20
0
30
0
70
128
71
61
72
59
73
58
0
VERTEX
8
OBJECT__20
10
0
20
0
30
0
70
128
71
59
72
50
73
49
0
VERTEX
8
OBJECT__20
10
0
20
0
30
0
70
128
71
58
72
49
73
55
0
VERTEX
8
OBJECT__20
10
0
20
0
30
0
70
128
71
55
72
52
73
54
0
VERTEX
8
OBJECT__20
10
0
20
0
30
0
70
128
71
49
72
47
73
52
0
VERTEX
8
OBJECT__20
10
0
20
0
30
0
70
128
71
52
72
51
73
53
0
VERTEX
8
OBJECT__20
10
0
20
0
30
0
70
128
71
47
72
45
73
51
0
VERTEX
8
OBJECT__20
10
0
20
0
30
0
70
128
71
50
72
48
73
47
0
VERTEX
8
OBJECT__20
10
0
20
0
30
0
70
128
71
48
72
46
73
45
0
VERTEX
8
OBJECT__20
10
0
20
0
30
0
70
128
71
46
72
83
73
44
0
VERTEX
8
OBJECT__20
10
0
20
0
30
0
70
128
71
38
72
5
73
20
0
VERTEX
8
OBJECT__20
10
0
20
0
30
0
70
128
71
32
72
38
73
43
0
VERTEX
8
OBJECT__20
10
0
20
0
30
0
70
128
71
42
72
6
73
5
0
VERTEX
8
OBJECT__20
10
0
20
0
30
0
70
128
71
40
72
8
73
6
0
VERTEX
8
OBJECT__20
10
0
20
0
30
0
70
128
71
21
72
2
73
9
0
VERTEX
8
OBJECT__20
10
0
20
0
30
0
70
128
71
41
72
9
73
8
0
VERTEX
8
OBJECT__20
10
0
20
0
30
0
70
128
71
26
72
40
73
42
0
VERTEX
8
OBJECT__20
10
0
20
0
30
0
70
128
71
22
72
21
73
41
0
VERTEX
8
OBJECT__20
10
0
20
0
30
0
70
128
71
29
72
41
73
40
0
VERTEX
8
OBJECT__20
10
0
20
0
30
0
70
128
71
39
72
3
73
2
0
VERTEX
8
OBJECT__20
10
0
20
0
30
0
70
128
71
30
72
42
73
38
0
VERTEX
8
OBJECT__20
10
0
20
0
30
0
70
128
71
33
72
32
73
37
0
VERTEX
8
OBJECT__20
10
0
20
0
30
0
70
128
71
36
72
37
73
34
0
VERTEX
8
OBJECT__20
10
0
20
0
30
0
70
128
71
31
72
30
73
32
0
VERTEX
8
OBJECT__20
10
0
20
0
30
0
70
128
71
27
72
26
73
30
0
VERTEX
8
OBJECT__20
10
0
20
0
30
0
70
128
71
24
72
22
73
29
0
VERTEX
8
OBJECT__20
10
0
20
0
30
0
70
128
71
28
72
29
73
26
0
VERTEX
8
OBJECT__20
10
0
20
0
30
0
70
128
71
25
72
23
73
22
0
VERTEX
8
OBJECT__20
10
0
20
0
30
0
70
128
71
23
72
39
73
21
0
VERTEX
8
OBJECT__20
10
0
20
0
30
0
70
128
71
5
72
4
73
19
0
VERTEX
8
OBJECT__20
10
0
20
0
30
0
70
128
71
15
72
16
73
18
0
VERTEX
8
OBJECT__20
10
0
20
0
30
0
70
128
71
16
72
129
73
17
0
VERTEX
8
OBJECT__20
10
0
20
0
30
0
70
128
71
7
72
14
73
16
0
VERTEX
8
OBJECT__20
10
0
20
0
30
0
70
128
71
8
72
7
73
15
0
VERTEX
8
OBJECT__20
10
0
20
0
30
0
70
128
71
12
72
13
73
14
0
VERTEX
8
OBJECT__20
10
0
20
0
30
0
70
128
71
1
72
10
73
13
0
VERTEX
8
OBJECT__20
10
0
20
0
30
0
70
128
71
2
72
1
73
12
0
VERTEX
8
OBJECT__20
10
0
20
0
30
0
70
128
71
11
72
80
73
10
0
VERTEX
8
OBJECT__20
10
0
20
0
30
0
70
128
71
9
72
12
73
7
0
VERTEX
8
OBJECT__20
10
0
20
0
30
0
70
128
71
6
72
15
73
4
0
VERTEX
8
OBJECT__20
10
0
20
0
30
0
70
128
71
3
72
11
73
1
0
SEQEND
8
OBJECT__20
0
POLYLINE
8
OBJECT__21
66
1
70
64
71
52
72
56
62
253
0
VERTEX
8
OBJECT__21
10
76.112999
20
-16.823999
30
68.763000
70
192
0
VERTEX
8
OBJECT__21
10
75.875000
20
-18.326000
30
66.883003
70
192
0
VERTEX
8
OBJECT__21
10
91.899002
20
-17.296000
30
63.569000
70
192
0
VERTEX
8
OBJECT__21
10
66.814003
20
-19.070999
30
68.487000
70
192
0
VERTEX
8
OBJECT__21
10
74.614998
20
-16.950001
30
69.025002
70
192
0
VERTEX
8
OBJECT__21
10
66.991997
20
-17.591000
30
70.361000
70
192
0
VERTEX
8
OBJECT__21
10
54.748001
20
-18.794001
30
72.114998
70
192
0
VERTEX
8
OBJECT__21
10
49.244999
20
-20.761999
30
71.055000
70
192
0
VERTEX
8
OBJECT__21
10
49.325001
20
-19.327000
30
72.890999
70
192
0
VERTEX
8
OBJECT__21
10
45.261002
20
-19.756001
30
73.375999
70
192
0
VERTEX
8
OBJECT__21
10
45.199001
20
-21.180000
30
71.551003
70
192
0
VERTEX
8
OBJECT__21
10
25.162001
20
-23.283001
30
73.521004
70
192
0
VERTEX
8
OBJECT__21
10
29.080999
20
-22.341000
30
74.444000
70
192
0
VERTEX
8
OBJECT__21
10
26.025000
20
-22.947001
30
74.299004
70
192
0
VERTEX
8
OBJECT__21
10
32.087002
20
-21.641001
30
74.499001
70
192
0
VERTEX
8
OBJECT__21
10
34.921001
20
-20.865999
30
74.457001
70
192
0
VERTEX
8
OBJECT__21
10
22.700001
20
-23.500999
30
73.973999
70
192
0
VERTEX
8
OBJECT__21
10
21.941000
20
-23.611000
30
73.796997
70
192
0
VERTEX
8
OBJECT__21
10
23.788000
20
-23.332001
30
74.115997
70
192
0
VERTEX
8
OBJECT__21
10
25.197001
20
-23.090000
30
74.231003
70
192
0
VERTEX
8
OBJECT__21
10
21.900999
20
-23.615999
30
73.772003
70
192
0
VERTEX
8
OBJECT__21
10
22.257000
20
-23.584000
30
73.594002
70
192
0
VERTEX
8
OBJECT__21
10
21.683001
20
-23.643000
30
73.638000
70
192
0
VERTEX
8
OBJECT__21
10
36.644001
20
-22.079000
30
72.237000
70
192
0
VERTEX
8
OBJECT__21
10
44.654999
20
-21.237000
30
71.446999
70
192
0
VERTEX
8
OBJECT__21
10
25.150999
20
-23.287001
30
73.371002
70
192
0
VERTEX
8
OBJECT__21
10
45.181000
20
-21.181999
30
71.394997
70
192
0
VERTEX
8
OBJECT__21
10
49.893002
20
-20.698000
30
70.801003
70
192
0
VERTEX
8
OBJECT__21
10
62.014000
20
-19.528999
30
69.026001
70
192
0
VERTEX
8
OBJECT__21
10
49.226002
20
-20.763000
30
70.899002
70
192
0
VERTEX
8
OBJECT__21
10
73.542000
20
-18.513000
30
67.128998
70
192
0
VERTEX
8
OBJECT__21
10
74.796997
20
-18.409000
30
66.906998
70
192
0
VERTEX
8
OBJECT__21
10
66.787003
20
-19.069000
30
68.325996
70
192
0
VERTEX
8
OBJECT__21
10
75.845001
20
-18.323000
30
66.721001
70
192
0
VERTEX
8
OBJECT__21
10
84.586998
20
-17.761999
30
64.913002
70
192
0
VERTEX
8
OBJECT__21
10
106.000999
20
-16.695999
30
59.978001
70
192
0
VERTEX
8
OBJECT__21
10
106.996002
20
-16.538000
30
59.035999
70
192
0
VERTEX
8
OBJECT__21
10
107.333000
20
-16.639000
30
59.442001
70
192
0
VERTEX
8
OBJECT__21
10
106.168999
20
-16.415001
30
58.926998
70
192
0
VERTEX
8
OBJECT__21
10
106.420998
20
-16.044001
30
58.389000
70
192
0
VERTEX
8
OBJECT__21
10
107.449997
20
-16.579000
30
59.766998
70
192
0
VERTEX
8
OBJECT__21
10
105.999001
20
-16.695999
30
59.987999
70
192
0
VERTEX
8
OBJECT__21
10
106.301003
20
-15.432000
30
58.009998
70
192
0
VERTEX
8
OBJECT__21
10
106.303001
20
-15.614000
30
58.098000
70
192
0
VERTEX
8
OBJECT__21
10
95.528999
20
-17.139999
30
62.521000
70
192
0
VERTEX
8
OBJECT__21
10
91.862000
20
-17.295000
30
63.408001
70
192
0
VERTEX
8
OBJECT__21
10
107.492996
20
-15.116000
30
61.620998
70
192
0
VERTEX
8
OBJECT__21
10
107.489998
20
-15.106000
30
61.624001
70
192
0
VERTEX
8
OBJECT__21
10
93.970001
20
-15.689000
30
64.987000
70
192
0
VERTEX
8
OBJECT__21
10
107.686996
20
-16.438999
30
60.445000
70
192
0
VERTEX
8
OBJECT__21
10
107.690002
20
-16.457001
30
60.428001
70
192
0
VERTEX
8
OBJECT__21
10
92.242996
20
-15.764000
30
65.417000
70
192
0
VERTEX
8
OBJECT__21
10
0
20
0
30
0
70
128
71
1
72
2
73
3
0
VERTEX
8
OBJECT__21
10
0
20
0
30
0
70
128
71
4
72
2
73
5
0
VERTEX
8
OBJECT__21
10
0
20
0
30
0
70
128
71
2
72
1
73
5
0
VERTEX
8
OBJECT__21
10
0
20
0
30
0
70
128
71
4
72
6
73
7
0
VERTEX
8
OBJECT__21
10
0
20
0
30
0
70
128
71
7
72
8
73
4
0
VERTEX
8
OBJECT__21
10
0
20
0
30
0
70
128
71
9
72
10
73
11
0
VERTEX
8
OBJECT__21
10
0
20
0
30
0
70
128
71
12
72
11
73
13
0
VERTEX
8
OBJECT__21
10
0
20
0
30
0
70
128
71
13
72
14
73
12
0
VERTEX
8
OBJECT__21
10
0
20
0
30
0
70
128
71
11
72
15
73
13
0
VERTEX
8
OBJECT__21
10
0
20
0
30
0
70
128
71
11
72
10
73
16
0
VERTEX
8
OBJECT__21
10
0
20
0
30
0
70
128
71
16
72
15
73
11
0
VERTEX
8
OBJECT__21
10
0
20
0
30
0
70
128
71
12
72
17
73
18
0
VERTEX
8
OBJECT__21
10
0
20
0
30
0
70
128
71
12
72
19
73
17
0
VERTEX
8
OBJECT__21
10
0
20
0
30
0
70
128
71
12
72
20
73
19
0
VERTEX
8
OBJECT__21
10
0
20
0
30
0
70
128
71
12
72
21
73
22
0
VERTEX
8
OBJECT__21
10
0
20
0
30
0
70
128
71
21
72
23
73
22
0
VERTEX
8
OBJECT__21
10
0
20
0
30
0
70
128
71
11
72
24
73
25
0
VERTEX
8
OBJECT__21
10
0
20
0
30
0
70
128
71
12
72
26
73
24
0
VERTEX
8
OBJECT__21
10
0
20
0
30
0
70
128
71
24
72
11
73
12
0
VERTEX
8
OBJECT__21
10
0
20
0
30
0
70
128
71
8
72
11
73
27
0
VERTEX
8
OBJECT__21
10
0
20
0
30
0
70
128
71
8
72
28
73
29
0
VERTEX
8
OBJECT__21
10
0
20
0
30
0
70
128
71
29
72
4
73
8
0
VERTEX
8
OBJECT__21
10
0
20
0
30
0
70
128
71
8
72
30
73
28
0
VERTEX
8
OBJECT__21
10
0
20
0
30
0
70
128
71
2
72
31
73
32
0
VERTEX
8
OBJECT__21
10
0
20
0
30
0
70
128
71
4
72
33
73
31
0
VERTEX
8
OBJECT__21
10
0
20
0
30
0
70
128
71
31
72
2
73
4
0
VERTEX
8
OBJECT__21
10
0
20
0
30
0
70
128
71
2
72
34
73
35
0
VERTEX
8
OBJECT__21
10
0
20
0
30
0
70
128
71
35
72
3
73
2
0
VERTEX
8
OBJECT__21
10
0
20
0
30
0
70
128
71
36
72
37
73
38
0
VERTEX
8
OBJECT__21
10
0
20
0
30
0
70
128
71
37
72
36
73
39
0
VERTEX
8
OBJECT__21
10
0
20
0
30
0
70
128
71
39
72
40
73
37
0
VERTEX
8
OBJECT__21
10
0
20
0
30
0
70
128
71
41
72
42
73
36
0
VERTEX
8
OBJECT__21
10
0
20
0
30
0
70
128
71
39
72
43
73
44
0
VERTEX
8
OBJECT__21
10
0
20
0
30
0
70
128
71
44
72
40
73
39
0
VERTEX
8
OBJECT__21
10
0
20
0
30
0
70
128
71
41
72
3
73
45
0
VERTEX
8
OBJECT__21
10
0
20
0
30
0
70
128
71
3
72
46
73
45
0
VERTEX
8
OBJECT__21
10
0
20
0
30
0
70
128
71
45
72
42
73
41
0
VERTEX
8
OBJECT__21
10
0
20
0
30
0
70
128
71
47
72
48
73
49
0
VERTEX
8
OBJECT__21
10
0
20
0
30
0
70
128
71
3
72
50
73
47
0
VERTEX
8
OBJECT__21
10
0
20
0
30
0
70
128
71
49
72
3
73
47
0
VERTEX
8
OBJECT__21
10
0
20
0
30
0
70
128
71
3
72
41
73
51
0
VERTEX
8
OBJECT__21
10
0
20
0
30
0
70
128
71
51
72
50
73
3
0
VERTEX
8
OBJECT__21
10
0
20
0
30
0
70
128
71
49
72
52
73
3
0
VERTEX
8
OBJECT__21
10
0
20
0
30
0
70
128
71
38
72
41
73
36
0
VERTEX
8
OBJECT__21
10
0
20
0
30
0
70
128
71
35
72
46
73
3
0
VERTEX
8
OBJECT__21
10
0
20
0
30
0
70
128
71
32
72
34
73
2
0
VERTEX
8
OBJECT__21
10
0
20
0
30
0
70
128
71
29
72
33
73
4
0
VERTEX
8
OBJECT__21
10
0
20
0
30
0
70
128
71
27
72
30
73
8
0
VERTEX
8
OBJECT__21
10
0
20
0
30
0
70
128
71
25
72
27
73
11
0
VERTEX
8
OBJECT__21
10
0
20
0
30
0
70
128
71
22
72
26
73
12
0
VERTEX
8
OBJECT__21
10
0
20
0
30
0
70
128
71
18
72
21
73
12
0
VERTEX
8
OBJECT__21
10
0
20
0
30
0
70
128
71
14
72
20
73
12
0
VERTEX
8
OBJECT__21
10
0
20
0
30
0
70
128
71
11
72
8
73
9
0
VERTEX
8
OBJECT__21
10
0
20
0
30
0
70
128
71
7
72
9
73
8
0
VERTEX
8
OBJECT__21
10
0
20
0
30
0
70
128
71
5
72
6
73
4
0
VERTEX
8
OBJECT__21
10
0
20
0
30
0
70
128
71
3
72
52
73
1
0
SEQEND
8
OBJECT__21
0
POLYLINE
8
OBJECT__22
66
1
70
64
71
74
72
72
62
253
0
VERTEX
8
OBJECT__22
10
98.945999
20
14.482000
30
52.890999
70
192
0
VERTEX
8
OBJECT__22
10
97.897003
20
15.702000
30
53.923000
70
192
0
VERTEX
8
OBJECT__22
10
101.677002
20
16.438999
30
56.794998
70
192
0
VERTEX
8
OBJECT__22
10
103.109001
20
15.259000
30
55.807999
70
192
0
VERTEX
8
OBJECT__22
10
98.552002
20
14.340000
30
52.608002
70
192
0
VERTEX
8
OBJECT__22
10
95.339996
20
13.183000
30
50.308998
70
192
0
VERTEX
8
OBJECT__22
10
95.408997
20
14.755000
30
51.957001
70
192
0
VERTEX
8
OBJECT__22
10
94.285004
20
14.327000
30
51.069000
70
192
0
VERTEX
8
OBJECT__22
10
92.195000
20
11.392000
30
48.007999
70
192
0
VERTEX
8
OBJECT__22
10
91.150002
20
12.411000
30
48.495998
70
192
0
VERTEX
8
OBJECT__22
10
94.063004
20
14.192000
30
50.887001
70
192
0
VERTEX
8
OBJECT__22
10
90.750999
20
10.272000
30
46.933998
70
192
0
VERTEX
8
OBJECT__22
10
89.717003
20
11.203000
30
47.286999
70
192
0
VERTEX
8
OBJECT__22
10
90.628998
20
11.972000
30
48.056999
70
192
0
VERTEX
8
OBJECT__22
10
92.038002
20
11.270000
30
47.890999
70
192
0
VERTEX
8
OBJECT__22
10
87.681999
20
8.905000
30
45.534000
70
192
0
VERTEX
8
OBJECT__22
10
88.692001
20
8.152000
30
45.384998
70
192
0
VERTEX
8
OBJECT__22
10
88.357002
20
7.637000
30
45.130001
70
192
0
VERTEX
8
OBJECT__22
10
87.357002
20
8.351000
30
45.248001
70
192
0
VERTEX
8
OBJECT__22
10
87.068001
20
5.655000
30
44.146999
70
192
0
VERTEX
8
OBJECT__22
10
86.085999
20
6.183000
30
44.127998
70
192
0
VERTEX
8
OBJECT__22
10
86.117996
20
3.211000
30
43.417000
70
192
0
VERTEX
8
OBJECT__22
10
85.421997
20
4.278000
30
43.535999
70
192
0
VERTEX
8
OBJECT__22
10
85.154999
20
3.513000
30
43.298000
70
192
0
VERTEX
8
OBJECT__22
10
84.973999
20
2.667000
30
43.134998
70
192
0
VERTEX
8
OBJECT__22
10
84.771004
20
1.099000
30
42.952000
70
192
0
VERTEX
8
OBJECT__22
10
85.932999
20
2.438000
30
43.272999
70
192
0
VERTEX
8
OBJECT__22
10
84.817001
20
-1.602000
30
42.993999
70
192
0
VERTEX
8
OBJECT__22
10
84.790001
20
-0.001000
30
42.969002
70
192
0
VERTEX
8
OBJECT__22
10
85.752998
20
-0.468000
30
43.133999
70
192
0
VERTEX
8
OBJECT__22
10
85.724998
20
1.005000
30
43.112000
70
192
0
VERTEX
8
OBJECT__22
10
85.772003
20
-1.465000
30
43.148998
70
192
0
VERTEX
8
OBJECT__22
10
85.903000
20
-2.291000
30
43.250000
70
192
0
VERTEX
8
OBJECT__22
10
86.643997
20
-4.735000
30
43.820999
70
192
0
VERTEX
8
OBJECT__22
10
85.427002
20
-4.285000
30
43.541000
70
192
0
VERTEX
8
OBJECT__22
10
85.668999
20
-5.179000
30
43.757999
70
192
0
VERTEX
8
OBJECT__22
10
86.900002
20
-5.312000
30
44.018002
70
192
0
VERTEX
8
OBJECT__22
10
85.920998
20
-5.809000
30
43.981998
70
192
0
VERTEX
8
OBJECT__22
10
88.394997
20
-7.771000
30
45.159000
70
192
0
VERTEX
8
OBJECT__22
10
87.389000
20
-8.489000
30
45.278000
70
192
0
VERTEX
8
OBJECT__22
10
89.068001
20
-8.576000
30
45.668999
70
192
0
VERTEX
8
OBJECT__22
10
88.359001
20
-9.769000
30
46.122002
70
192
0
VERTEX
8
OBJECT__22
10
89.377998
20
-8.948000
30
45.903999
70
192
0
VERTEX
8
OBJECT__22
10
91.959999
20
-11.225000
30
47.834000
70
192
0
VERTEX
8
OBJECT__22
10
90.642998
20
-11.967000
30
48.067001
70
192
0
VERTEX
8
OBJECT__22
10
90.917000
20
-12.231000
30
48.300999
70
192
0
VERTEX
8
OBJECT__22
10
93.408997
20
-13.872000
30
50.359001
70
192
0
VERTEX
8
OBJECT__22
10
92.038002
20
-11.273000
30
47.890999
70
192
0
VERTEX
8
OBJECT__22
10
94.461998
20
-12.756000
30
49.672001
70
192
0
VERTEX
8
OBJECT__22
10
98.360001
20
-14.315000
30
52.474998
70
192
0
VERTEX
8
OBJECT__22
10
95.433998
20
-14.731000
30
51.973000
70
192
0
VERTEX
8
OBJECT__22
10
97.308998
20
-15.527000
30
53.466000
70
192
0
VERTEX
8
OBJECT__22
10
94.060997
20
-14.149000
30
50.879002
70
192
0
VERTEX
8
OBJECT__22
10
101.667999
20
-16.469000
30
56.793999
70
192
0
VERTEX
8
OBJECT__22
10
98.552002
20
-14.354000
30
52.609001
70
192
0
VERTEX
8
OBJECT__22
10
103.764999
20
-15.323000
30
56.262001
70
192
0
VERTEX
8
OBJECT__22
10
102.739998
20
-16.584999
30
57.592999
70
192
0
VERTEX
8
OBJECT__22
10
101.669998
20
-16.469000
30
56.796001
70
192
0
VERTEX
8
OBJECT__22
10
102.698997
20
-15.212000
30
55.522999
70
192
0
VERTEX
8
OBJECT__22
10
102.080002
20
16.518000
30
57.102001
70
192
0
VERTEX
8
OBJECT__22
10
106.000000
20
16.695999
30
59.988998
70
192
0
VERTEX
8
OBJECT__22
10
105.093002
20
15.328000
30
57.174000
70
192
0
VERTEX
8
OBJECT__22
10
106.011002
20
16.695999
30
59.991001
70
192
0
VERTEX
8
OBJECT__22
10
106.660004
20
16.622000
30
60.117001
70
192
0
VERTEX
8
OBJECT__22
10
107.500999
20
15.412000
30
58.833000
70
192
0
VERTEX
8
OBJECT__22
10
107.670998
20
16.507000
30
60.313999
70
192
0
VERTEX
8
OBJECT__22
10
107.849998
20
15.407000
30
59.076000
70
192
0
VERTEX
8
OBJECT__22
10
106.168999
20
-16.415001
30
58.926998
70
192
0
VERTEX
8
OBJECT__22
10
106.000999
20
-16.695999
30
59.978001
70
192
0
VERTEX
8
OBJECT__22
10
105.091003
20
-15.380000
30
57.175999
70
192
0
VERTEX
8
OBJECT__22
10
106.301003
20
-15.432000
30
58.009998
70
192
0
VERTEX
8
OBJECT__22
10
105.999001
20
-16.695999
30
59.987999
70
192
0
VERTEX
8
OBJECT__22
10
107.848000
20
15.398000
30
59.070999
70
192
0
VERTEX
8
OBJECT__22
10
84.945000
20
-2.507000
30
43.109001
70
192
0
VERTEX
8
OBJECT__22
10
0
20
0
30
0
70
128
71
1
72
2
73
3
0
VERTEX
8
OBJECT__22
10
0
20
0
30
0
70
128
71
3
72
4
73
1
0
VERTEX
8
OBJECT__22
10
0
20
0
30
0
70
128
71
5
72
6
73
7
0
VERTEX
8
OBJECT__22
10
0
20
0
30
0
70
128
71
6
72
8
73
7
0
VERTEX
8
OBJECT__22
10
0
20
0
30
0
70
128
71
2
72
1
73
5
0
VERTEX
8
OBJECT__22
10
0
20
0
30
0
70
128
71
9
72
10
73
11
0
VERTEX
8
OBJECT__22
10
0
20
0
30
0
70
128
71
11
72
6
73
9
0
VERTEX
8
OBJECT__22
10
0
20
0
30
0
70
128
71
12
72
13
73
14
0
VERTEX
8
OBJECT__22
10
0
20
0
30
0
70
128
71
14
72
15
73
12
0
VERTEX
8
OBJECT__22
10
0
20
0
30
0
70
128
71
10
72
9
73
15
0
VERTEX
8
OBJECT__22
10
0
20
0
30
0
70
128
71
16
72
13
73
12
0
VERTEX
8
OBJECT__22
10
0
20
0
30
0
70
128
71
17
72
18
73
19
0
VERTEX
8
OBJECT__22
10
0
20
0
30
0
70
128
71
19
72
18
73
20
0
VERTEX
8
OBJECT__22
10
0
20
0
30
0
70
128
71
20
72
21
73
19
0
VERTEX
8
OBJECT__22
10
0
20
0
30
0
70
128
71
20
72
22
73
23
0
VERTEX
8
OBJECT__22
10
0
20
0
30
0
70
128
71
22
72
24
73
23
0
VERTEX
8
OBJECT__22
10
0
20
0
30
0
70
128
71
25
72
24
73
22
0
VERTEX
8
OBJECT__22
10
0
20
0
30
0
70
128
71
26
72
25
73
27
0
VERTEX
8
OBJECT__22
10
0
20
0
30
0
70
128
71
28
72
29
73
30
0
VERTEX
8
OBJECT__22
10
0
20
0
30
0
70
128
71
31
72
30
73
29
0
VERTEX
8
OBJECT__22
10
0
20
0
30
0
70
128
71
29
72
26
73
31
0
VERTEX
8
OBJECT__22
10
0
20
0
30
0
70
128
71
28
72
32
73
33
0
VERTEX
8
OBJECT__22
10
0
20
0
30
0
70
128
71
33
72
34
73
35
0
VERTEX
8
OBJECT__22
10
0
20
0
30
0
70
128
71
34
72
36
73
35
0
VERTEX
8
OBJECT__22
10
0
20
0
30
0
70
128
71
36
72
34
73
37
0
VERTEX
8
OBJECT__22
10
0
20
0
30
0
70
128
71
38
72
37
73
39
0
VERTEX
8
OBJECT__22
10
0
20
0
30
0
70
128
71
40
72
39
73
41
0
VERTEX
8
OBJECT__22
10
0
20
0
30
0
70
128
71
41
72
42
73
40
0
VERTEX
8
OBJECT__22
10
0
20
0
30
0
70
128
71
43
72
44
73
45
0
VERTEX
8
OBJECT__22
10
0
20
0
30
0
70
128
71
44
72
46
73
45
0
VERTEX
8
OBJECT__22
10
0
20
0
30
0
70
128
71
47
72
46
73
48
0
VERTEX
8
OBJECT__22
10
0
20
0
30
0
70
128
71
46
72
44
73
48
0
VERTEX
8
OBJECT__22
10
0
20
0
30
0
70
128
71
49
72
50
73
51
0
VERTEX
8
OBJECT__22
10
0
20
0
30
0
70
128
71
50
72
52
73
51
0
VERTEX
8
OBJECT__22
10
0
20
0
30
0
70
128
71
51
72
53
73
49
0
VERTEX
8
OBJECT__22
10
0
20
0
30
0
70
128
71
54
72
52
73
55
0
VERTEX
8
OBJECT__22
10
0
20
0
30
0
70
128
71
52
72
50
73
55
0
VERTEX
8
OBJECT__22
10
0
20
0
30
0
70
128
71
56
72
57
73
58
0
VERTEX
8
OBJECT__22
10
0
20
0
30
0
70
128
71
58
72
59
73
56
0
VERTEX
8
OBJECT__22
10
0
20
0
30
0
70
128
71
60
72
61
73
62
0
VERTEX
8
OBJECT__22
10
0
20
0
30
0
70
128
71
62
72
63
73
64
0
VERTEX
8
OBJECT__22
10
0
20
0
30
0
70
128
71
62
72
61
73
63
0
VERTEX
8
OBJECT__22
10
0
20
0
30
0
70
128
71
64
72
65
73
62
0
VERTEX
8
OBJECT__22
10
0
20
0
30
0
70
128
71
64
72
66
73
67
0
VERTEX
8
OBJECT__22
10
0
20
0
30
0
70
128
71
67
72
65
73
64
0
VERTEX
8
OBJECT__22
10
0
20
0
30
0
70
128
71
57
72
68
73
69
0
VERTEX
8
OBJECT__22
10
0
20
0
30
0
70
128
71
68
72
57
73
70
0
VERTEX
8
OBJECT__22
10
0
20
0
30
0
70
128
71
57
72
56
73
70
0
VERTEX
8
OBJECT__22
10
0
20
0
30
0
70
128
71
70
72
71
73
68
0
VERTEX
8
OBJECT__22
10
0
20
0
30
0
70
128
71
69
72
72
73
57
0
VERTEX
8
OBJECT__22
10
0
20
0
30
0
70
128
71
67
72
73
73
65
0
VERTEX
8
OBJECT__22
10
0
20
0
30
0
70
128
71
62
72
4
73
60
0
VERTEX
8
OBJECT__22
10
0
20
0
30
0
70
128
71
58
72
54
73
59
0
VERTEX
8
OBJECT__22
10
0
20
0
30
0
70
128
71
55
72
59
73
54
0
VERTEX
8
OBJECT__22
10
0
20
0
30
0
70
128
71
53
72
47
73
49
0
VERTEX
8
OBJECT__22
10
0
20
0
30
0
70
128
71
48
72
49
73
47
0
VERTEX
8
OBJECT__22
10
0
20
0
30
0
70
128
71
45
72
42
73
43
0
VERTEX
8
OBJECT__22
10
0
20
0
30
0
70
128
71
41
72
43
73
42
0
VERTEX
8
OBJECT__22
10
0
20
0
30
0
70
128
71
39
72
40
73
38
0
VERTEX
8
OBJECT__22
10
0
20
0
30
0
70
128
71
37
72
38
73
36
0
VERTEX
8
OBJECT__22
10
0
20
0
30
0
70
128
71
35
72
74
73
33
0
VERTEX
8
OBJECT__22
10
0
20
0
30
0
70
128
71
33
72
74
73
28
0
VERTEX
8
OBJECT__22
10
0
20
0
30
0
70
128
71
30
72
32
73
28
0
VERTEX
8
OBJECT__22
10
0
20
0
30
0
70
128
71
27
72
31
73
26
0
VERTEX
8
OBJECT__22
10
0
20
0
30
0
70
128
71
22
72
27
73
25
0
VERTEX
8
OBJECT__22
10
0
20
0
30
0
70
128
71
23
72
21
73
20
0
VERTEX
8
OBJECT__22
10
0
20
0
30
0
70
128
71
19
72
16
73
17
0
VERTEX
8
OBJECT__22
10
0
20
0
30
0
70
128
71
12
72
17
73
16
0
VERTEX
8
OBJECT__22
10
0
20
0
30
0
70
128
71
14
72
10
73
15
0
VERTEX
8
OBJECT__22
10
0
20
0
30
0
70
128
71
11
72
8
73
6
0
VERTEX
8
OBJECT__22
10
0
20
0
30
0
70
128
71
7
72
2
73
5
0
VERTEX
8
OBJECT__22
10
0
20
0
30
0
70
128
71
3
72
60
73
4
0
SEQEND
8
OBJECT__22
0
POLYLINE
8
OBJECT__23
66
1
70
64
71
44
72
50
62
253
0
VERTEX
8
OBJECT__23
10
109.401001
20
14.021000
30
60.535000
70
192
0
VERTEX
8
OBJECT__23
10
108.558998
20
13.516000
30
61.682999
70
192
0
VERTEX
8
OBJECT__23
10
110.223000
20
10.413000
30
61.776001
70
192
0
VERTEX
8
OBJECT__23
10
111.584000
20
10.019000
30
60.641998
70
192
0
VERTEX
8
OBJECT__23
10
111.102997
20
9.770000
30
59.200001
70
192
0
VERTEX
8
OBJECT__23
10
108.987999
20
13.710000
30
59.116001
70
192
0
VERTEX
8
OBJECT__23
10
113.063004
20
5.839000
30
60.715000
70
192
0
VERTEX
8
OBJECT__23
10
110.646004
20
9.624000
30
61.799999
70
192
0
VERTEX
8
OBJECT__23
10
111.848000
20
7.628000
30
59.229000
70
192
0
VERTEX
8
OBJECT__23
10
112.525002
20
5.680000
30
59.255001
70
192
0
VERTEX
8
OBJECT__23
10
113.705002
20
2.241000
30
60.745998
70
192
0
VERTEX
8
OBJECT__23
10
112.049004
20
5.592000
30
61.879002
70
192
0
VERTEX
8
OBJECT__23
10
113.139000
20
2.178000
30
59.278000
70
192
0
VERTEX
8
OBJECT__23
10
112.653999
20
2.143000
30
61.914001
70
192
0
VERTEX
8
OBJECT__23
10
112.666000
20
0.000000
30
61.915001
70
192
0
VERTEX
8
OBJECT__23
10
113.730003
20
-1.973000
30
60.747002
70
192
0
VERTEX
8
OBJECT__23
10
113.154999
20
-0.468000
30
59.278999
70
192
0
VERTEX
8
OBJECT__23
10
113.163002
20
-1.917000
30
59.278999
70
192
0
VERTEX
8
OBJECT__23
10
112.677002
20
-1.886000
30
61.915001
70
192
0
VERTEX
8
OBJECT__23
10
112.091003
20
-5.421000
30
61.882000
70
192
0
VERTEX
8
OBJECT__23
10
113.108002
20
-5.661000
30
60.716999
70
192
0
VERTEX
8
OBJECT__23
10
112.568001
20
-5.507000
30
59.256001
70
192
0
VERTEX
8
OBJECT__23
10
110.693001
20
-9.517000
30
61.801998
70
192
0
VERTEX
8
OBJECT__23
10
111.633003
20
-9.908000
30
60.644001
70
192
0
VERTEX
8
OBJECT__23
10
111.523003
20
-8.569000
30
59.216000
70
192
0
VERTEX
8
OBJECT__23
10
111.150002
20
-9.661000
30
59.201000
70
192
0
VERTEX
8
OBJECT__23
10
110.109001
20
-12.867000
30
60.570000
70
192
0
VERTEX
8
OBJECT__23
10
110.238998
20
-10.414000
30
61.777000
70
192
0
VERTEX
8
OBJECT__23
10
109.676003
20
-12.572000
30
59.143002
70
192
0
VERTEX
8
OBJECT__23
10
107.849998
20
15.407000
30
59.076000
70
192
0
VERTEX
8
OBJECT__23
10
107.670998
20
16.507000
30
60.313999
70
192
0
VERTEX
8
OBJECT__23
10
107.668999
20
16.412001
30
60.432999
70
192
0
VERTEX
8
OBJECT__23
10
107.848000
20
15.398000
30
59.070999
70
192
0
VERTEX
8
OBJECT__23
10
107.494003
20
15.115000
30
61.620998
70
192
0
VERTEX
8
OBJECT__23
10
107.490997
20
15.106000
30
61.624001
70
192
0
VERTEX
8
OBJECT__23
10
107.651001
20
15.693000
30
61.332001
70
192
0
VERTEX
8
OBJECT__23
10
109.237999
20
-12.391000
30
61.721001
70
192
0
VERTEX
8
OBJECT__23
10
107.489998
20
-15.106000
30
61.624001
70
192
0
VERTEX
8
OBJECT__23
10
107.492996
20
-15.116000
30
61.620998
70
192
0
VERTEX
8
OBJECT__23
10
107.449997
20
-16.579000
30
59.766998
70
192
0
VERTEX
8
OBJECT__23
10
107.333000
20
-16.639000
30
59.442001
70
192
0
VERTEX
8
OBJECT__23
10
107.686996
20
-16.438999
30
60.445000
70
192
0
VERTEX
8
OBJECT__23
10
107.690002
20
-16.457001
30
60.428001
70
192
0
VERTEX
8
OBJECT__23
10
106.996002
20
-16.538000
30
59.035999
70
192
0
VERTEX
8
OBJECT__23
10
0
20
0
30
0
70
128
71
1
72
2
73
3
0
VERTEX
8
OBJECT__23
10
0
20
0
30
0
70
128
71
3
72
4
73
1
0
VERTEX
8
OBJECT__23
10
0
20
0
30
0
70
128
71
4
72
5
73
6
0
VERTEX
8
OBJECT__23
10
0
20
0
30
0
70
128
71
7
72
4
73
8
0
VERTEX
8
OBJECT__23
10
0
20
0
30
0
70
128
71
4
72
7
73
9
0
VERTEX
8
OBJECT__23
10
0
20
0
30
0
70
128
71
7
72
10
73
9
0
VERTEX
8
OBJECT__23
10
0
20
0
30
0
70
128
71
11
72
7
73
12
0
VERTEX
8
OBJECT__23
10
0
20
0
30
0
70
128
71
11
72
13
73
10
0
VERTEX
8
OBJECT__23
10
0
20
0
30
0
70
128
71
11
72
14
73
15
0
VERTEX
8
OBJECT__23
10
0
20
0
30
0
70
128
71
15
72
16
73
11
0
VERTEX
8
OBJECT__23
10
0
20
0
30
0
70
128
71
11
72
16
73
17
0
VERTEX
8
OBJECT__23
10
0
20
0
30
0
70
128
71
16
72
18
73
17
0
VERTEX
8
OBJECT__23
10
0
20
0
30
0
70
128
71
16
72
19
73
20
0
VERTEX
8
OBJECT__23
10
0
20
0
30
0
70
128
71
16
72
21
73
22
0
VERTEX
8
OBJECT__23
10
0
20
0
30
0
70
128
71
21
72
20
73
23
0
VERTEX
8
OBJECT__23
10
0
20
0
30
0
70
128
71
21
72
24
73
25
0
VERTEX
8
OBJECT__23
10
0
20
0
30
0
70
128
71
24
72
26
73
25
0
VERTEX
8
OBJECT__23
10
0
20
0
30
0
70
128
71
27
72
24
73
28
0
VERTEX
8
OBJECT__23
10
0
20
0
30
0
70
128
71
24
72
23
73
28
0
VERTEX
8
OBJECT__23
10
0
20
0
30
0
70
128
71
24
72
27
73
29
0
VERTEX
8
OBJECT__23
10
0
20
0
30
0
70
128
71
30
72
31
73
32
0
VERTEX
8
OBJECT__23
10
0
20
0
30
0
70
128
71
1
72
6
73
33
0
VERTEX
8
OBJECT__23
10
0
20
0
30
0
70
128
71
33
72
30
73
1
0
VERTEX
8
OBJECT__23
10
0
20
0
30
0
70
128
71
1
72
34
73
35
0
VERTEX
8
OBJECT__23
10
0
20
0
30
0
70
128
71
1
72
32
73
36
0
VERTEX
8
OBJECT__23
10
0
20
0
30
0
70
128
71
36
72
34
73
1
0
VERTEX
8
OBJECT__23
10
0
20
0
30
0
70
128
71
27
72
37
73
38
0
VERTEX
8
OBJECT__23
10
0
20
0
30
0
70
128
71
38
72
39
73
27
0
VERTEX
8
OBJECT__23
10
0
20
0
30
0
70
128
71
29
72
40
73
41
0
VERTEX
8
OBJECT__23
10
0
20
0
30
0
70
128
71
29
72
27
73
42
0
VERTEX
8
OBJECT__23
10
0
20
0
30
0
70
128
71
42
72
43
73
29
0
VERTEX
8
OBJECT__23
10
0
20
0
30
0
70
128
71
43
72
40
73
29
0
VERTEX
8
OBJECT__23
10
0
20
0
30
0
70
128
71
41
72
44
73
29
0
VERTEX
8
OBJECT__23
10
0
20
0
30
0
70
128
71
39
72
42
73
27
0
VERTEX
8
OBJECT__23
10
0
20
0
30
0
70
128
71
35
72
2
73
1
0
VERTEX
8
OBJECT__23
10
0
20
0
30
0
70
128
71
32
72
1
73
30
0
VERTEX
8
OBJECT__23
10
0
20
0
30
0
70
128
71
29
72
26
73
24
0
VERTEX
8
OBJECT__23
10
0
20
0
30
0
70
128
71
28
72
37
73
27
0
VERTEX
8
OBJECT__23
10
0
20
0
30
0
70
128
71
25
72
22
73
21
0
VERTEX
8
OBJECT__23
10
0
20
0
30
0
70
128
71
23
72
24
73
21
0
VERTEX
8
OBJECT__23
10
0
20
0
30
0
70
128
71
22
72
18
73
16
0
VERTEX
8
OBJECT__23
10
0
20
0
30
0
70
128
71
20
72
21
73
16
0
VERTEX
8
OBJECT__23
10
0
20
0
30
0
70
128
71
17
72
13
73
11
0
VERTEX
8
OBJECT__23
10
0
20
0
30
0
70
128
71
15
72
19
73
16
0
VERTEX
8
OBJECT__23
10
0
20
0
30
0
70
128
71
10
72
7
73
11
0
VERTEX
8
OBJECT__23
10
0
20
0
30
0
70
128
71
12
72
14
73
11
0
VERTEX
8
OBJECT__23
10
0
20
0
30
0
70
128
71
9
72
5
73
4
0
VERTEX
8
OBJECT__23
10
0
20
0
30
0
70
128
71
8
72
12
73
7
0
VERTEX
8
OBJECT__23
10
0
20
0
30
0
70
128
71
6
72
1
73
4
0
VERTEX
8
OBJECT__23
10
0
20
0
30
0
70
128
71
3
72
8
73
4
0
SEQEND
8
OBJECT__23
0
POLYLINE
8
OBJECT__24
66
1
70
64
71
56
72
63
62
253
0
VERTEX
8
OBJECT__24
10
92.815002
20
-0.468000
30
46.474998
70
192
0
VERTEX
8
OBJECT__24
10
92.459000
20
7.637000
30
47.123001
70
192
0
VERTEX
8
OBJECT__24
10
99.551003
20
7.637000
30
51.014999
70
192
0
VERTEX
8
OBJECT__24
10
99.944000
20
-0.468000
30
50.388000
70
192
0
VERTEX
8
OBJECT__24
10
106.406998
20
7.637000
30
55.323002
70
192
0
VERTEX
8
OBJECT__24
10
106.834999
20
-0.468000
30
54.720001
70
192
0
VERTEX
8
OBJECT__24
10
106.294998
20
-8.576000
30
55.480999
70
192
0
VERTEX
8
OBJECT__24
10
99.447998
20
-8.576000
30
51.179001
70
192
0
VERTEX
8
OBJECT__24
10
102.698997
20
-15.212000
30
55.522999
70
192
0
VERTEX
8
OBJECT__24
10
103.764999
20
-15.323000
30
56.262001
70
192
0
VERTEX
8
OBJECT__24
10
105.091003
20
-15.380000
30
57.175999
70
192
0
VERTEX
8
OBJECT__24
10
94.461998
20
-12.756000
30
49.672001
70
192
0
VERTEX
8
OBJECT__24
10
92.038002
20
-11.273000
30
47.890999
70
192
0
VERTEX
8
OBJECT__24
10
98.552002
20
-14.354000
30
52.609001
70
192
0
VERTEX
8
OBJECT__24
10
98.360001
20
-14.315000
30
52.474998
70
192
0
VERTEX
8
OBJECT__24
10
92.365997
20
-8.576000
30
47.292999
70
192
0
VERTEX
8
OBJECT__24
10
91.959999
20
-11.225000
30
47.834000
70
192
0
VERTEX
8
OBJECT__24
10
89.377998
20
-8.948000
30
45.903999
70
192
0
VERTEX
8
OBJECT__24
10
85.903000
20
-2.291000
30
43.250000
70
192
0
VERTEX
8
OBJECT__24
10
85.772003
20
-1.465000
30
43.148998
70
192
0
VERTEX
8
OBJECT__24
10
86.643997
20
-4.735000
30
43.820999
70
192
0
VERTEX
8
OBJECT__24
10
86.900002
20
-5.312000
30
44.018002
70
192
0
VERTEX
8
OBJECT__24
10
89.068001
20
-8.576000
30
45.668999
70
192
0
VERTEX
8
OBJECT__24
10
88.394997
20
-7.771000
30
45.159000
70
192
0
VERTEX
8
OBJECT__24
10
87.068001
20
5.655000
30
44.146999
70
192
0
VERTEX
8
OBJECT__24
10
88.357002
20
7.637000
30
45.130001
70
192
0
VERTEX
8
OBJECT__24
10
86.117996
20
3.211000
30
43.417000
70
192
0
VERTEX
8
OBJECT__24
10
85.932999
20
2.438000
30
43.272999
70
192
0
VERTEX
8
OBJECT__24
10
85.752998
20
-0.468000
30
43.133999
70
192
0
VERTEX
8
OBJECT__24
10
85.724998
20
1.005000
30
43.112000
70
192
0
VERTEX
8
OBJECT__24
10
88.692001
20
8.152000
30
45.384998
70
192
0
VERTEX
8
OBJECT__24
10
90.750999
20
10.272000
30
46.933998
70
192
0
VERTEX
8
OBJECT__24
10
92.195000
20
11.392000
30
48.007999
70
192
0
VERTEX
8
OBJECT__24
10
95.339996
20
13.183000
30
50.308998
70
192
0
VERTEX
8
OBJECT__24
10
92.038002
20
11.270000
30
47.890999
70
192
0
VERTEX
8
OBJECT__24
10
98.945999
20
14.482000
30
52.890999
70
192
0
VERTEX
8
OBJECT__24
10
98.552002
20
14.340000
30
52.608002
70
192
0
VERTEX
8
OBJECT__24
10
103.109001
20
15.259000
30
55.807999
70
192
0
VERTEX
8
OBJECT__24
10
108.987999
20
13.710000
30
59.116001
70
192
0
VERTEX
8
OBJECT__24
10
111.102997
20
9.770000
30
59.200001
70
192
0
VERTEX
8
OBJECT__24
10
107.500999
20
15.412000
30
58.833000
70
192
0
VERTEX
8
OBJECT__24
10
107.848000
20
15.398000
30
59.070999
70
192
0
VERTEX
8
OBJECT__24
10
105.093002
20
15.328000
30
57.174000
70
192
0
VERTEX
8
OBJECT__24
10
112.525002
20
5.680000
30
59.255001
70
192
0
VERTEX
8
OBJECT__24
10
113.139000
20
2.178000
30
59.278000
70
192
0
VERTEX
8
OBJECT__24
10
111.848000
20
7.628000
30
59.229000
70
192
0
VERTEX
8
OBJECT__24
10
112.568001
20
-5.507000
30
59.256001
70
192
0
VERTEX
8
OBJECT__24
10
113.154999
20
-0.468000
30
59.278999
70
192
0
VERTEX
8
OBJECT__24
10
113.163002
20
-1.917000
30
59.278999
70
192
0
VERTEX
8
OBJECT__24
10
111.150002
20
-9.661000
30
59.201000
70
192
0
VERTEX
8
OBJECT__24
10
106.301003
20
-15.432000
30
58.009998
70
192
0
VERTEX
8
OBJECT__24
10
111.523003
20
-8.569000
30
59.216000
70
192
0
VERTEX
8
OBJECT__24
10
109.676003
20
-12.572000
30
59.143002
70
192
0
VERTEX
8
OBJECT__24
10
106.996002
20
-16.538000
30
59.035999
70
192
0
VERTEX
8
OBJECT__24
10
106.420998
20
-16.044001
30
58.389000
70
192
0
VERTEX
8
OBJECT__24
10
106.303001
20
-15.614000
30
58.098000
70
192
0
VERTEX
8
OBJECT__24
10
0
20
0
30
0
70
128
71
1
72
2
73
3
0
VERTEX
8
OBJECT__24
10
0
20
0
30
0
70
128
71
4
72
3
73
5
0
VERTEX
8
OBJECT__24
10
0
20
0
30
0
70
128
71
4
72
6
73
7
0
VERTEX
8
OBJECT__24
10
0
20
0
30
0
70
128
71
1
72
4
73
8
0
VERTEX
8
OBJECT__24
10
0
20
0
30
0
70
128
71
8
72
7
73
9
0
VERTEX
8
OBJECT__24
10
0
20
0
30
0
70
128
71
7
72
10
73
9
0
VERTEX
8
OBJECT__24
10
0
20
0
30
0
70
128
71
7
72
11
73
10
0
VERTEX
8
OBJECT__24
10
0
20
0
30
0
70
128
71
8
72
12
73
13
0
VERTEX
8
OBJECT__24
10
0
20
0
30
0
70
128
71
8
72
14
73
15
0
VERTEX
8
OBJECT__24
10
0
20
0
30
0
70
128
71
15
72
12
73
8
0
VERTEX
8
OBJECT__24
10
0
20
0
30
0
70
128
71
16
72
13
73
17
0
VERTEX
8
OBJECT__24
10
0
20
0
30
0
70
128
71
17
72
18
73
16
0
VERTEX
8
OBJECT__24
10
0
20
0
30
0
70
128
71
1
72
19
73
20
0
VERTEX
8
OBJECT__24
10
0
20
0
30
0
70
128
71
1
72
21
73
19
0
VERTEX
8
OBJECT__24
10
0
20
0
30
0
70
128
71
1
72
22
73
21
0
VERTEX
8
OBJECT__24
10
0
20
0
30
0
70
128
71
1
72
16
73
23
0
VERTEX
8
OBJECT__24
10
0
20
0
30
0
70
128
71
23
72
24
73
1
0
VERTEX
8
OBJECT__24
10
0
20
0
30
0
70
128
71
24
72
22
73
1
0
VERTEX
8
OBJECT__24
10
0
20
0
30
0
70
128
71
1
72
25
73
26
0
VERTEX
8
OBJECT__24
10
0
20
0
30
0
70
128
71
1
72
27
73
25
0
VERTEX
8
OBJECT__24
10
0
20
0
30
0
70
128
71
1
72
28
73
27
0
VERTEX
8
OBJECT__24
10
0
20
0
30
0
70
128
71
1
72
29
73
30
0
VERTEX
8
OBJECT__24
10
0
20
0
30
0
70
128
71
30
72
28
73
1
0
VERTEX
8
OBJECT__24
10
0
20
0
30
0
70
128
71
2
72
26
73
31
0
VERTEX
8
OBJECT__24
10
0
20
0
30
0
70
128
71
31
72
32
73
2
0
VERTEX
8
OBJECT__24
10
0
20
0
30
0
70
128
71
3
72
2
73
33
0
VERTEX
8
OBJECT__24
10
0
20
0
30
0
70
128
71
33
72
34
73
3
0
VERTEX
8
OBJECT__24
10
0
20
0
30
0
70
128
71
2
72
35
73
33
0
VERTEX
8
OBJECT__24
10
0
20
0
30
0
70
128
71
5
72
3
73
36
0
VERTEX
8
OBJECT__24
10
0
20
0
30
0
70
128
71
3
72
37
73
36
0
VERTEX
8
OBJECT__24
10
0
20
0
30
0
70
128
71
36
72
38
73
5
0
VERTEX
8
OBJECT__24
10
0
20
0
30
0
70
128
71
5
72
39
73
40
0
VERTEX
8
OBJECT__24
10
0
20
0
30
0
70
128
71
5
72
41
73
42
0
VERTEX
8
OBJECT__24
10
0
20
0
30
0
70
128
71
42
72
39
73
5
0
VERTEX
8
OBJECT__24
10
0
20
0
30
0
70
128
71
5
72
43
73
41
0
VERTEX
8
OBJECT__24
10
0
20
0
30
0
70
128
71
6
72
5
73
44
0
VERTEX
8
OBJECT__24
10
0
20
0
30
0
70
128
71
44
72
45
73
6
0
VERTEX
8
OBJECT__24
10
0
20
0
30
0
70
128
71
5
72
46
73
44
0
VERTEX
8
OBJECT__24
10
0
20
0
30
0
70
128
71
7
72
6
73
47
0
VERTEX
8
OBJECT__24
10
0
20
0
30
0
70
128
71
6
72
48
73
49
0
VERTEX
8
OBJECT__24
10
0
20
0
30
0
70
128
71
49
72
47
73
6
0
VERTEX
8
OBJECT__24
10
0
20
0
30
0
70
128
71
7
72
50
73
51
0
VERTEX
8
OBJECT__24
10
0
20
0
30
0
70
128
71
7
72
52
73
50
0
VERTEX
8
OBJECT__24
10
0
20
0
30
0
70
128
71
53
72
54
73
55
0
VERTEX
8
OBJECT__24
10
0
20
0
30
0
70
128
71
55
72
56
73
53
0
VERTEX
8
OBJECT__24
10
0
20
0
30
0
70
128
71
51
72
50
73
53
0
VERTEX
8
OBJECT__24
10
0
20
0
30
0
70
128
71
56
72
51
73
53
0
VERTEX
8
OBJECT__24
10
0
20
0
30
0
70
128
71
51
72
11
73
7
0
VERTEX
8
OBJECT__24
10
0
20
0
30
0
70
128
71
47
72
52
73
7
0
VERTEX
8
OBJECT__24
10
0
20
0
30
0
70
128
71
45
72
48
73
6
0
VERTEX
8
OBJECT__24
10
0
20
0
30
0
70
128
71
40
72
46
73
5
0
VERTEX
8
OBJECT__24
10
0
20
0
30
0
70
128
71
38
72
43
73
5
0
VERTEX
8
OBJECT__24
10
0
20
0
30
0
70
128
71
34
72
37
73
3
0
VERTEX
8
OBJECT__24
10
0
20
0
30
0
70
128
71
32
72
35
73
2
0
VERTEX
8
OBJECT__24
10
0
20
0
30
0
70
128
71
26
72
2
73
1
0
VERTEX
8
OBJECT__24
10
0
20
0
30
0
70
128
71
20
72
29
73
1
0
VERTEX
8
OBJECT__24
10
0
20
0
30
0
70
128
71
18
72
23
73
16
0
VERTEX
8
OBJECT__24
10
0
20
0
30
0
70
128
71
13
72
16
73
8
0
VERTEX
8
OBJECT__24
10
0
20
0
30
0
70
128
71
9
72
14
73
8
0
VERTEX
8
OBJECT__24
10
0
20
0
30
0
70
128
71
8
72
16
73
1
0
VERTEX
8
OBJECT__24
10
0
20
0
30
0
70
128
71
7
72
8
73
4
0
VERTEX
8
OBJECT__24
10
0
20
0
30
0
70
128
71
5
72
6
73
4
0
VERTEX
8
OBJECT__24
10
0
20
0
30
0
70
128
71
3
72
4
73
1
0
SEQEND
8
OBJECT__24
0
POLYLINE
8
OBJECT__25
66
1
70
64
71
12
72
12
62
253
0
VERTEX
8
OBJECT__25
10
-22.082001
20
0.153000
30
32.162998
70
192
0
VERTEX
8
OBJECT__25
10
-22.566000
20
0.153000
30
30.834000
70
192
0
VERTEX
8
OBJECT__25
10
-22.114000
20
3.556000
30
31.254999
70
192
0
VERTEX
8
OBJECT__25
10
-22.646000
20
3.556000
30
31.007000
70
192
0
VERTEX
8
OBJECT__25
10
-23.410999
20
0.153000
30
32.646000
70
192
0
VERTEX
8
OBJECT__25
10
-22.257000
20
3.556000
30
32.422001
70
192
0
VERTEX
8
OBJECT__25
10
-22.223000
20
3.556000
30
32.145000
70
192
0
VERTEX
8
OBJECT__25
10
-23.410999
20
3.556000
30
32.646000
70
192
0
VERTEX
8
OBJECT__25
10
-23.981001
20
3.556000
30
31.618000
70
192
0
VERTEX
8
OBJECT__25
10
-23.895000
20
0.153000
30
31.316999
70
192
0
VERTEX
8
OBJECT__25
10
-23.895000
20
3.556000
30
31.316999
70
192
0
VERTEX
8
OBJECT__25
10
-23.179001
20
3.556000
30
30.757999
70
192
0
VERTEX
8
OBJECT__25
10
0
20
0
30
0
70
128
71
1
72
2
73
3
0
VERTEX
8
OBJECT__25
10
0
20
0
30
0
70
128
71
2
72
4
73
3
0
VERTEX
8
OBJECT__25
10
0
20
0
30
0
70
128
71
5
72
1
73
6
0
VERTEX
8
OBJECT__25
10
0
20
0
30
0
70
128
71
1
72
7
73
6
0
VERTEX
8
OBJECT__25
10
0
20
0
30
0
70
128
71
5
72
8
73
9
0
VERTEX
8
OBJECT__25
10
0
20
0
30
0
70
128
71
9
72
10
73
5
0
VERTEX
8
OBJECT__25
10
0
20
0
30
0
70
128
71
10
72
11
73
12
0
VERTEX
8
OBJECT__25
10
0
20
0
30
0
70
128
71
12
72
2
73
10
0
VERTEX
8
OBJECT__25
10
0
20
0
30
0
70
128
71
12
72
4
73
2
0
VERTEX
8
OBJECT__25
10
0
20
0
30
0
70
128
71
9
72
11
73
10
0
VERTEX
8
OBJECT__25
10
0
20
0
30
0
70
128
71
6
72
8
73
5
0
VERTEX
8
OBJECT__25
10
0
20
0
30
0
70
128
71
3
72
7
73
1
0
SEQEND
8
OBJECT__25
0
POLYLINE
8
OBJECT__26
66
1
70
64
71
26
72
36
62
253
0
VERTEX
8
OBJECT__26
10
-22.566000
20
4.655000
30
33.085999
70
192
0
VERTEX
8
OBJECT__26
10
-22.856001
20
4.725000
30
33.707001
70
192
0
VERTEX
8
OBJECT__26
10
-23.662001
20
4.047000
30
33.186001
70
192
0
VERTEX
8
OBJECT__26
10
-23.541000
20
4.017000
30
32.924999
70
192
0
VERTEX
8
OBJECT__26
10
-23.445999
20
3.833000
30
32.722000
70
192
0
VERTEX
8
OBJECT__26
10
-22.341000
20
4.216000
30
32.603001
70
192
0
VERTEX
8
OBJECT__26
10
-23.410999
20
3.556000
30
32.646000
70
192
0
VERTEX
8
OBJECT__26
10
-22.712999
20
5.687000
30
32.541000
70
192
0
VERTEX
8
OBJECT__26
10
-22.955999
20
4.985000
30
33.716999
70
192
0
VERTEX
8
OBJECT__26
10
-23.275999
20
5.823000
30
33.747002
70
192
0
VERTEX
8
OBJECT__26
10
-22.277000
20
4.836000
30
31.606001
70
192
0
VERTEX
8
OBJECT__26
10
-22.257000
20
3.556000
30
32.422001
70
192
0
VERTEX
8
OBJECT__26
10
-22.223000
20
3.556000
30
32.145000
70
192
0
VERTEX
8
OBJECT__26
10
-23.778999
20
5.687000
30
32.044998
70
192
0
VERTEX
8
OBJECT__26
10
-24.341000
20
5.823000
30
33.250000
70
192
0
VERTEX
8
OBJECT__26
10
-23.808001
20
5.823000
30
33.499001
70
192
0
VERTEX
8
OBJECT__26
10
-23.343000
20
4.836000
30
31.108999
70
192
0
VERTEX
8
OBJECT__26
10
-22.114000
20
3.556000
30
31.254999
70
192
0
VERTEX
8
OBJECT__26
10
-22.646000
20
3.556000
30
31.007000
70
192
0
VERTEX
8
OBJECT__26
10
-24.290001
20
4.655000
30
32.282001
70
192
0
VERTEX
8
OBJECT__26
10
-24.580000
20
4.725000
30
32.903999
70
192
0
VERTEX
8
OBJECT__26
10
-24.649000
20
5.029000
30
32.936001
70
192
0
VERTEX
8
OBJECT__26
10
-24.065001
20
4.216000
30
31.799000
70
192
0
VERTEX
8
OBJECT__26
10
-23.895000
20
3.556000
30
31.316999
70
192
0
VERTEX
8
OBJECT__26
10
-23.179001
20
3.556000
30
30.757999
70
192
0
VERTEX
8
OBJECT__26
10
-23.981001
20
3.556000
30
31.618000
70
192
0
VERTEX
8
OBJECT__26
10
0
20
0
30
0
70
128
71
1
72
2
73
3
0
VERTEX
8
OBJECT__26
10
0
20
0
30
0
70
128
71
4
72
5
73
6
0
VERTEX
8
OBJECT__26
10
0
20
0
30
0
70
128
71
6
72
5
73
7
0
VERTEX
8
OBJECT__26
10
0
20
0
30
0
70
128
71
1
72
8
73
9
0
VERTEX
8
OBJECT__26
10
0
20
0
30
0
70
128
71
8
72
10
73
9
0
VERTEX
8
OBJECT__26
10
0
20
0
30
0
70
128
71
1
72
6
73
11
0
VERTEX
8
OBJECT__26
10
0
20
0
30
0
70
128
71
6
72
12
73
13
0
VERTEX
8
OBJECT__26
10
0
20
0
30
0
70
128
71
13
72
11
73
6
0
VERTEX
8
OBJECT__26
10
0
20
0
30
0
70
128
71
14
72
15
73
16
0
VERTEX
8
OBJECT__26
10
0
20
0
30
0
70
128
71
16
72
8
73
14
0
VERTEX
8
OBJECT__26
10
0
20
0
30
0
70
128
71
8
72
11
73
17
0
VERTEX
8
OBJECT__26
10
0
20
0
30
0
70
128
71
11
72
18
73
19
0
VERTEX
8
OBJECT__26
10
0
20
0
30
0
70
128
71
19
72
17
73
11
0
VERTEX
8
OBJECT__26
10
0
20
0
30
0
70
128
71
14
72
20
73
21
0
VERTEX
8
OBJECT__26
10
0
20
0
30
0
70
128
71
21
72
22
73
14
0
VERTEX
8
OBJECT__26
10
0
20
0
30
0
70
128
71
14
72
17
73
23
0
VERTEX
8
OBJECT__26
10
0
20
0
30
0
70
128
71
23
72
17
73
24
0
VERTEX
8
OBJECT__26
10
0
20
0
30
0
70
128
71
17
72
25
73
24
0
VERTEX
8
OBJECT__26
10
0
20
0
30
0
70
128
71
21
72
20
73
4
0
VERTEX
8
OBJECT__26
10
0
20
0
30
0
70
128
71
20
72
23
73
5
0
VERTEX
8
OBJECT__26
10
0
20
0
30
0
70
128
71
23
72
26
73
7
0
VERTEX
8
OBJECT__26
10
0
20
0
30
0
70
128
71
7
72
5
73
23
0
VERTEX
8
OBJECT__26
10
0
20
0
30
0
70
128
71
5
72
4
73
20
0
VERTEX
8
OBJECT__26
10
0
20
0
30
0
70
128
71
4
72
3
73
21
0
VERTEX
8
OBJECT__26
10
0
20
0
30
0
70
128
71
24
72
26
73
23
0
VERTEX
8
OBJECT__26
10
0
20
0
30
0
70
128
71
23
72
20
73
14
0
VERTEX
8
OBJECT__26
10
0
20
0
30
0
70
128
71
22
72
15
73
14
0
VERTEX
8
OBJECT__26
10
0
20
0
30
0
70
128
71
19
72
25
73
17
0
VERTEX
8
OBJECT__26
10
0
20
0
30
0
70
128
71
17
72
14
73
8
0
VERTEX
8
OBJECT__26
10
0
20
0
30
0
70
128
71
16
72
10
73
8
0
VERTEX
8
OBJECT__26
10
0
20
0
30
0
70
128
71
13
72
18
73
11
0
VERTEX
8
OBJECT__26
10
0
20
0
30
0
70
128
71
11
72
8
73
1
0
VERTEX
8
OBJECT__26
10
0
20
0
30
0
70
128
71
9
72
2
73
1
0
VERTEX
8
OBJECT__26
10
0
20
0
30
0
70
128
71
7
72
12
73
6
0
VERTEX
8
OBJECT__26
10
0
20
0
30
0
70
128
71
6
72
1
73
4
0
VERTEX
8
OBJECT__26
10
0
20
0
30
0
70
128
71
3
72
4
73
1
0
SEQEND
8
OBJECT__26
0
POLYLINE
8
OBJECT__28
66
1
70
64
71
16
72
16
62
253
0
VERTEX
8
OBJECT__28
10
-27.486000
20
2.902000
30
43.431999
70
192
0
VERTEX
8
OBJECT__28
10
-22.955999
20
4.985000
30
33.716999
70
192
0
VERTEX
8
OBJECT__28
10
-23.275999
20
5.823000
30
33.747002
70
192
0
VERTEX
8
OBJECT__28
10
-27.806000
20
3.739000
30
43.462002
70
192
0
VERTEX
8
OBJECT__28
10
-23.808001
20
5.823000
30
33.499001
70
192
0
VERTEX
8
OBJECT__28
10
-28.339001
20
3.739000
30
43.214001
70
192
0
VERTEX
8
OBJECT__28
10
-27.386999
20
2.642000
30
43.423000
70
192
0
VERTEX
8
OBJECT__28
10
-28.193001
20
1.963000
30
42.901001
70
192
0
VERTEX
8
OBJECT__28
10
-23.662001
20
4.047000
30
33.186001
70
192
0
VERTEX
8
OBJECT__28
10
-22.856001
20
4.725000
30
33.707001
70
192
0
VERTEX
8
OBJECT__28
10
-24.649000
20
5.029000
30
32.936001
70
192
0
VERTEX
8
OBJECT__28
10
-24.580000
20
4.725000
30
32.903999
70
192
0
VERTEX
8
OBJECT__28
10
-29.110001
20
2.642000
30
42.618999
70
192
0
VERTEX
8
OBJECT__28
10
-24.341000
20
5.823000
30
33.250000
70
192
0
VERTEX
8
OBJECT__28
10
-28.871000
20
3.739000
30
42.966000
70
192
0
VERTEX
8
OBJECT__28
10
-29.180000
20
2.945000
30
42.652000
70
192
0
VERTEX
8
OBJECT__28
10
0
20
0
30
0
70
128
71
1
72
2
73
3
0
VERTEX
8
OBJECT__28
10
0
20
0
30
0
70
128
71
4
72
3
73
5
0
VERTEX
8
OBJECT__28
10
0
20
0
30
0
70
128
71
5
72
6
73
4
0
VERTEX
8
OBJECT__28
10
0
20
0
30
0
70
128
71
7
72
8
73
9
0
VERTEX
8
OBJECT__28
10
0
20
0
30
0
70
128
71
7
72
10
73
2
0
VERTEX
8
OBJECT__28
10
0
20
0
30
0
70
128
71
2
72
1
73
7
0
VERTEX
8
OBJECT__28
10
0
20
0
30
0
70
128
71
11
72
12
73
13
0
VERTEX
8
OBJECT__28
10
0
20
0
30
0
70
128
71
13
72
12
73
9
0
VERTEX
8
OBJECT__28
10
0
20
0
30
0
70
128
71
9
72
8
73
13
0
VERTEX
8
OBJECT__28
10
0
20
0
30
0
70
128
71
5
72
14
73
15
0
VERTEX
8
OBJECT__28
10
0
20
0
30
0
70
128
71
16
72
15
73
14
0
VERTEX
8
OBJECT__28
10
0
20
0
30
0
70
128
71
14
72
11
73
16
0
VERTEX
8
OBJECT__28
10
0
20
0
30
0
70
128
71
15
72
6
73
5
0
VERTEX
8
OBJECT__28
10
0
20
0
30
0
70
128
71
13
72
16
73
11
0
VERTEX
8
OBJECT__28
10
0
20
0
30
0
70
128
71
9
72
10
73
7
0
VERTEX
8
OBJECT__28
10
0
20
0
30
0
70
128
71
3
72
4
73
1
0
SEQEND
8
OBJECT__28
0
POLYLINE
8
OBJECT__29
66
1
70
64
71
31
72
46
62
253
0
VERTEX
8
OBJECT__29
10
-28.047001
20
-1.712000
30
44.839001
70
192
0
VERTEX
8
OBJECT__29
10
-27.386999
20
-2.642000
30
43.423000
70
192
0
VERTEX
8
OBJECT__29
10
-28.193001
20
-1.963000
30
42.901001
70
192
0
VERTEX
8
OBJECT__29
10
-28.684000
20
-1.272000
30
43.953999
70
192
0
VERTEX
8
OBJECT__29
10
-28.877001
20
0.000000
30
44.368000
70
192
0
VERTEX
8
OBJECT__29
10
-28.306999
20
0.000000
30
45.396000
70
192
0
VERTEX
8
OBJECT__29
10
-28.684000
20
1.272000
30
43.953999
70
192
0
VERTEX
8
OBJECT__29
10
-28.047001
20
1.712000
30
44.839001
70
192
0
VERTEX
8
OBJECT__29
10
-27.386999
20
2.642000
30
43.423000
70
192
0
VERTEX
8
OBJECT__29
10
-27.486000
20
-2.902000
30
43.431999
70
192
0
VERTEX
8
OBJECT__29
10
-28.740999
20
-2.423000
30
45.467999
70
192
0
VERTEX
8
OBJECT__29
10
-27.806000
20
-3.739000
30
43.462002
70
192
0
VERTEX
8
OBJECT__29
10
-29.108999
20
0.000000
30
46.256001
70
192
0
VERTEX
8
OBJECT__29
10
-28.740999
20
2.423000
30
45.467999
70
192
0
VERTEX
8
OBJECT__29
10
-27.486000
20
2.902000
30
43.431999
70
192
0
VERTEX
8
OBJECT__29
10
-29.806000
20
-2.423000
30
44.971001
70
192
0
VERTEX
8
OBJECT__29
10
-28.339001
20
-3.739000
30
43.214001
70
192
0
VERTEX
8
OBJECT__29
10
-28.871000
20
-3.739000
30
42.966000
70
192
0
VERTEX
8
OBJECT__29
10
-30.174000
20
0.000000
30
45.758999
70
192
0
VERTEX
8
OBJECT__29
10
-29.806000
20
2.423000
30
44.971001
70
192
0
VERTEX
8
OBJECT__29
10
-28.339001
20
3.739000
30
43.214001
70
192
0
VERTEX
8
OBJECT__29
10
-27.806000
20
3.739000
30
43.462002
70
192
0
VERTEX
8
OBJECT__29
10
-29.771000
20
-1.712000
30
44.035000
70
192
0
VERTEX
8
OBJECT__29
10
-29.110001
20
-2.642000
30
42.618999
70
192
0
VERTEX
8
OBJECT__29
10
-29.180000
20
-2.945000
30
42.652000
70
192
0
VERTEX
8
OBJECT__29
10
-30.031000
20
0.000000
30
44.591999
70
192
0
VERTEX
8
OBJECT__29
10
-29.771000
20
1.712000
30
44.035000
70
192
0
VERTEX
8
OBJECT__29
10
-29.180000
20
2.945000
30
42.652000
70
192
0
VERTEX
8
OBJECT__29
10
-29.110001
20
2.642000
30
42.618999
70
192
0
VERTEX
8
OBJECT__29
10
-28.871000
20
3.739000
30
42.966000
70
192
0
VERTEX
8
OBJECT__29
10
-28.193001
20
1.963000
30
42.901001
70
192
0
VERTEX
8
OBJECT__29
10
0
20
0
30
0
70
128
71
1
72
2
73
3
0
VERTEX
8
OBJECT__29
10
0
20
0
30
0
70
128
71
4
72
5
73
6
0
VERTEX
8
OBJECT__29
10
0
20
0
30
0
70
128
71
5
72
7
73
8
0
VERTEX
8
OBJECT__29
10
0
20
0
30
0
70
128
71
9
72
8
73
7
0
VERTEX
8
OBJECT__29
10
0
20
0
30
0
70
128
71
10
72
2
73
1
0
VERTEX
8
OBJECT__29
10
0
20
0
30
0
70
128
71
11
72
12
73
10
0
VERTEX
8
OBJECT__29
10
0
20
0
30
0
70
128
71
1
72
6
73
13
0
VERTEX
8
OBJECT__29
10
0
20
0
30
0
70
128
71
6
72
8
73
14
0
VERTEX
8
OBJECT__29
10
0
20
0
30
0
70
128
71
15
72
14
73
8
0
VERTEX
8
OBJECT__29
10
0
20
0
30
0
70
128
71
8
72
9
73
15
0
VERTEX
8
OBJECT__29
10
0
20
0
30
0
70
128
71
11
72
16
73
17
0
VERTEX
8
OBJECT__29
10
0
20
0
30
0
70
128
71
16
72
18
73
17
0
VERTEX
8
OBJECT__29
10
0
20
0
30
0
70
128
71
11
72
13
73
19
0
VERTEX
8
OBJECT__29
10
0
20
0
30
0
70
128
71
13
72
14
73
20
0
VERTEX
8
OBJECT__29
10
0
20
0
30
0
70
128
71
20
72
14
73
21
0
VERTEX
8
OBJECT__29
10
0
20
0
30
0
70
128
71
14
72
22
73
21
0
VERTEX
8
OBJECT__29
10
0
20
0
30
0
70
128
71
16
72
23
73
24
0
VERTEX
8
OBJECT__29
10
0
20
0
30
0
70
128
71
24
72
25
73
16
0
VERTEX
8
OBJECT__29
10
0
20
0
30
0
70
128
71
16
72
19
73
26
0
VERTEX
8
OBJECT__29
10
0
20
0
30
0
70
128
71
19
72
20
73
27
0
VERTEX
8
OBJECT__29
10
0
20
0
30
0
70
128
71
20
72
28
73
29
0
VERTEX
8
OBJECT__29
10
0
20
0
30
0
70
128
71
20
72
30
73
28
0
VERTEX
8
OBJECT__29
10
0
20
0
30
0
70
128
71
23
72
4
73
3
0
VERTEX
8
OBJECT__29
10
0
20
0
30
0
70
128
71
23
72
26
73
5
0
VERTEX
8
OBJECT__29
10
0
20
0
30
0
70
128
71
26
72
27
73
7
0
VERTEX
8
OBJECT__29
10
0
20
0
30
0
70
128
71
29
72
31
73
7
0
VERTEX
8
OBJECT__29
10
0
20
0
30
0
70
128
71
7
72
27
73
29
0
VERTEX
8
OBJECT__29
10
0
20
0
30
0
70
128
71
7
72
5
73
26
0
VERTEX
8
OBJECT__29
10
0
20
0
30
0
70
128
71
5
72
4
73
23
0
VERTEX
8
OBJECT__29
10
0
20
0
30
0
70
128
71
3
72
24
73
23
0
VERTEX
8
OBJECT__29
10
0
20
0
30
0
70
128
71
29
72
27
73
20
0
VERTEX
8
OBJECT__29
10
0
20
0
30
0
70
128
71
27
72
26
73
19
0
VERTEX
8
OBJECT__29
10
0
20
0
30
0
70
128
71
26
72
23
73
16
0
VERTEX
8
OBJECT__29
10
0
20
0
30
0
70
128
71
25
72
18
73
16
0
VERTEX
8
OBJECT__29
10
0
20
0
30
0
70
128
71
21
72
30
73
20
0
VERTEX
8
OBJECT__29
10
0
20
0
30
0
70
128
71
20
72
19
73
13
0
VERTEX
8
OBJECT__29
10
0
20
0
30
0
70
128
71
19
72
16
73
11
0
VERTEX
8
OBJECT__29
10
0
20
0
30
0
70
128
71
17
72
12
73
11
0
VERTEX
8
OBJECT__29
10
0
20
0
30
0
70
128
71
15
72
22
73
14
0
VERTEX
8
OBJECT__29
10
0
20
0
30
0
70
128
71
14
72
13
73
6
0
VERTEX
8
OBJECT__29
10
0
20
0
30
0
70
128
71
13
72
11
73
1
0
VERTEX
8
OBJECT__29
10
0
20
0
30
0
70
128
71
1
72
11
73
10
0
VERTEX
8
OBJECT__29
10
0
20
0
30
0
70
128
71
7
72
31
73
9
0
VERTEX
8
OBJECT__29
10
0
20
0
30
0
70
128
71
8
72
6
73
5
0
VERTEX
8
OBJECT__29
10
0
20
0
30
0
70
128
71
6
72
1
73
4
0
VERTEX
8
OBJECT__29
10
0
20
0
30
0
70
128
71
3
72
4
73
1
0
SEQEND
8
OBJECT__29
0
POLYLINE
8
OBJECT__30
66
1
70
64
71
16
72
16
62
253
0
VERTEX
8
OBJECT__30
10
-27.486000
20
-2.902000
30
43.431999
70
192
0
VERTEX
8
OBJECT__30
10
-27.806000
20
-3.739000
30
43.462002
70
192
0
VERTEX
8
OBJECT__30
10
-23.275999
20
-5.823000
30
33.747002
70
192
0
VERTEX
8
OBJECT__30
10
-23.808001
20
-5.823000
30
33.499001
70
192
0
VERTEX
8
OBJECT__30
10
-28.339001
20
-3.739000
30
43.214001
70
192
0
VERTEX
8
OBJECT__30
10
-27.386999
20
-2.642000
30
43.423000
70
192
0
VERTEX
8
OBJECT__30
10
-22.955999
20
-4.985000
30
33.716999
70
192
0
VERTEX
8
OBJECT__30
10
-23.662001
20
-4.047000
30
33.186001
70
192
0
VERTEX
8
OBJECT__30
10
-28.193001
20
-1.963000
30
42.901001
70
192
0
VERTEX
8
OBJECT__30
10
-22.856001
20
-4.725000
30
33.707001
70
192
0
VERTEX
8
OBJECT__30
10
-29.110001
20
-2.642000
30
42.618999
70
192
0
VERTEX
8
OBJECT__30
10
-24.580000
20
-4.725000
30
32.903000
70
192
0
VERTEX
8
OBJECT__30
10
-24.649000
20
-5.029000
30
32.936001
70
192
0
VERTEX
8
OBJECT__30
10
-29.180000
20
-2.945000
30
42.652000
70
192
0
VERTEX
8
OBJECT__30
10
-28.871000
20
-3.739000
30
42.966000
70
192
0
VERTEX
8
OBJECT__30
10
-24.341000
20
-5.823000
30
33.250000
70
192
0
VERTEX
8
OBJECT__30
10
0
20
0
30
0
70
128
71
1
72
2
73
3
0
VERTEX
8
OBJECT__30
10
0
20
0
30
0
70
128
71
4
72
3
73
2
0
VERTEX
8
OBJECT__30
10
0
20
0
30
0
70
128
71
2
72
5
73
4
0
VERTEX
8
OBJECT__30
10
0
20
0
30
0
70
128
71
6
72
1
73
7
0
VERTEX
8
OBJECT__30
10
0
20
0
30
0
70
128
71
8
72
9
73
6
0
VERTEX
8
OBJECT__30
10
0
20
0
30
0
70
128
71
6
72
10
73
8
0
VERTEX
8
OBJECT__30
10
0
20
0
30
0
70
128
71
11
72
9
73
8
0
VERTEX
8
OBJECT__30
10
0
20
0
30
0
70
128
71
11
72
12
73
13
0
VERTEX
8
OBJECT__30
10
0
20
0
30
0
70
128
71
13
72
14
73
11
0
VERTEX
8
OBJECT__30
10
0
20
0
30
0
70
128
71
15
72
16
73
4
0
VERTEX
8
OBJECT__30
10
0
20
0
30
0
70
128
71
14
72
13
73
16
0
VERTEX
8
OBJECT__30
10
0
20
0
30
0
70
128
71
16
72
15
73
14
0
VERTEX
8
OBJECT__30
10
0
20
0
30
0
70
128
71
4
72
5
73
15
0
VERTEX
8
OBJECT__30
10
0
20
0
30
0
70
128
71
8
72
12
73
11
0
VERTEX
8
OBJECT__30
10
0
20
0
30
0
70
128
71
7
72
10
73
6
0
VERTEX
8
OBJECT__30
10
0
20
0
30
0
70
128
71
3
72
7
73
1
0
SEQEND
8
OBJECT__30
0
POLYLINE
8
OBJECT__31
66
1
70
64
71
26
72
36
62
253
0
VERTEX
8
OBJECT__31
10
-22.257000
20
-3.556000
30
32.422001
70
192
0
VERTEX
8
OBJECT__31
10
-23.410999
20
-3.556000
30
32.646000
70
192
0
VERTEX
8
OBJECT__31
10
-23.445999
20
-3.833000
30
32.722000
70
192
0
VERTEX
8
OBJECT__31
10
-23.541000
20
-4.018000
30
32.924999
70
192
0
VERTEX
8
OBJECT__31
10
-22.566000
20
-4.655000
30
33.084999
70
192
0
VERTEX
8
OBJECT__31
10
-22.856001
20
-4.725000
30
33.707001
70
192
0
VERTEX
8
OBJECT__31
10
-22.341000
20
-4.216000
30
32.603001
70
192
0
VERTEX
8
OBJECT__31
10
-22.277000
20
-4.836000
30
31.606001
70
192
0
VERTEX
8
OBJECT__31
10
-22.223000
20
-3.556000
30
32.145000
70
192
0
VERTEX
8
OBJECT__31
10
-22.114000
20
-3.556000
30
31.254999
70
192
0
VERTEX
8
OBJECT__31
10
-22.712999
20
-5.687000
30
32.541000
70
192
0
VERTEX
8
OBJECT__31
10
-22.955999
20
-4.985000
30
33.716999
70
192
0
VERTEX
8
OBJECT__31
10
-23.343000
20
-4.836000
30
31.108999
70
192
0
VERTEX
8
OBJECT__31
10
-22.646000
20
-3.556000
30
31.007000
70
192
0
VERTEX
8
OBJECT__31
10
-23.179001
20
-3.556000
30
30.757999
70
192
0
VERTEX
8
OBJECT__31
10
-23.778999
20
-5.687000
30
32.044998
70
192
0
VERTEX
8
OBJECT__31
10
-23.275999
20
-5.823000
30
33.747002
70
192
0
VERTEX
8
OBJECT__31
10
-23.808001
20
-5.823000
30
33.499001
70
192
0
VERTEX
8
OBJECT__31
10
-24.065001
20
-4.216000
30
31.799000
70
192
0
VERTEX
8
OBJECT__31
10
-23.981001
20
-3.556000
30
31.618000
70
192
0
VERTEX
8
OBJECT__31
10
-23.893999
20
-3.556000
30
31.316999
70
192
0
VERTEX
8
OBJECT__31
10
-24.290001
20
-4.655000
30
32.282001
70
192
0
VERTEX
8
OBJECT__31
10
-24.649000
20
-5.029000
30
32.936001
70
192
0
VERTEX
8
OBJECT__31
10
-24.341000
20
-5.823000
30
33.250000
70
192
0
VERTEX
8
OBJECT__31
10
-24.580000
20
-4.725000
30
32.903000
70
192
0
VERTEX
8
OBJECT__31
10
-23.662001
20
-4.047000
30
33.186001
70
192
0
VERTEX
8
OBJECT__31
10
0
20
0
30
0
70
128
71
1
72
2
73
3
0
VERTEX
8
OBJECT__31
10
0
20
0
30
0
70
128
71
3
72
4
73
5
0
VERTEX
8
OBJECT__31
10
0
20
0
30
0
70
128
71
6
72
5
73
4
0
VERTEX
8
OBJECT__31
10
0
20
0
30
0
70
128
71
7
72
8
73
9
0
VERTEX
8
OBJECT__31
10
0
20
0
30
0
70
128
71
8
72
10
73
9
0
VERTEX
8
OBJECT__31
10
0
20
0
30
0
70
128
71
7
72
5
73
11
0
VERTEX
8
OBJECT__31
10
0
20
0
30
0
70
128
71
5
72
6
73
12
0
VERTEX
8
OBJECT__31
10
0
20
0
30
0
70
128
71
12
72
11
73
5
0
VERTEX
8
OBJECT__31
10
0
20
0
30
0
70
128
71
8
72
13
73
14
0
VERTEX
8
OBJECT__31
10
0
20
0
30
0
70
128
71
13
72
15
73
14
0
VERTEX
8
OBJECT__31
10
0
20
0
30
0
70
128
71
8
72
11
73
16
0
VERTEX
8
OBJECT__31
10
0
20
0
30
0
70
128
71
11
72
17
73
18
0
VERTEX
8
OBJECT__31
10
0
20
0
30
0
70
128
71
18
72
16
73
11
0
VERTEX
8
OBJECT__31
10
0
20
0
30
0
70
128
71
13
72
19
73
20
0
VERTEX
8
OBJECT__31
10
0
20
0
30
0
70
128
71
20
72
21
73
13
0
VERTEX
8
OBJECT__31
10
0
20
0
30
0
70
128
71
13
72
16
73
22
0
VERTEX
8
OBJECT__31
10
0
20
0
30
0
70
128
71
22
72
16
73
23
0
VERTEX
8
OBJECT__31
10
0
20
0
30
0
70
128
71
16
72
24
73
23
0
VERTEX
8
OBJECT__31
10
0
20
0
30
0
70
128
71
20
72
19
73
3
0
VERTEX
8
OBJECT__31
10
0
20
0
30
0
70
128
71
19
72
22
73
4
0
VERTEX
8
OBJECT__31
10
0
20
0
30
0
70
128
71
22
72
25
73
26
0
VERTEX
8
OBJECT__31
10
0
20
0
30
0
70
128
71
26
72
4
73
22
0
VERTEX
8
OBJECT__31
10
0
20
0
30
0
70
128
71
4
72
3
73
19
0
VERTEX
8
OBJECT__31
10
0
20
0
30
0
70
128
71
3
72
2
73
20
0
VERTEX
8
OBJECT__31
10
0
20
0
30
0
70
128
71
23
72
25
73
22
0
VERTEX
8
OBJECT__31
10
0
20
0
30
0
70
128
71
22
72
19
73
13
0
VERTEX
8
OBJECT__31
10
0
20
0
30
0
70
128
71
21
72
15
73
13
0
VERTEX
8
OBJECT__31
10
0
20
0
30
0
70
128
71
18
72
24
73
16
0
VERTEX
8
OBJECT__31
10
0
20
0
30
0
70
128
71
16
72
13
73
8
0
VERTEX
8
OBJECT__31
10
0
20
0
30
0
70
128
71
14
72
10
73
8
0
VERTEX
8
OBJECT__31
10
0
20
0
30
0
70
128
71
12
72
17
73
11
0
VERTEX
8
OBJECT__31
10
0
20
0
30
0
70
128
71
11
72
8
73
7
0
VERTEX
8
OBJECT__31
10
0
20
0
30
0
70
128
71
9
72
1
73
7
0
VERTEX
8
OBJECT__31
10
0
20
0
30
0
70
128
71
4
72
26
73
6
0
VERTEX
8
OBJECT__31
10
0
20
0
30
0
70
128
71
5
72
7
73
3
0
VERTEX
8
OBJECT__31
10
0
20
0
30
0
70
128
71
3
72
7
73
1
0
SEQEND
8
OBJECT__31
0
POLYLINE
8
OBJECT__32
66
1
70
64
71
12
72
12
62
253
0
VERTEX
8
OBJECT__32
10
-22.082001
20
-0.153000
30
32.162998
70
192
0
VERTEX
8
OBJECT__32
10
-22.223000
20
-3.556000
30
32.145000
70
192
0
VERTEX
8
OBJECT__32
10
-22.114000
20
-3.556000
30
31.254999
70
192
0
VERTEX
8
OBJECT__32
10
-22.566000
20
-0.153000
30
30.834000
70
192
0
VERTEX
8
OBJECT__32
10
-23.410999
20
-0.153000
30
32.646000
70
192
0
VERTEX
8
OBJECT__32
10
-23.410999
20
-3.556000
30
32.646000
70
192
0
VERTEX
8
OBJECT__32
10
-22.257000
20
-3.556000
30
32.422001
70
192
0
VERTEX
8
OBJECT__32
10
-23.893999
20
-0.153000
30
31.316999
70
192
0
VERTEX
8
OBJECT__32
10
-23.981001
20
-3.556000
30
31.618000
70
192
0
VERTEX
8
OBJECT__32
10
-23.893999
20
-3.556000
30
31.316999
70
192
0
VERTEX
8
OBJECT__32
10
-23.179001
20
-3.556000
30
30.757999
70
192
0
VERTEX
8
OBJECT__32
10
-22.646000
20
-3.556000
30
31.007000
70
192
0
VERTEX
8
OBJECT__32
10
0
20
0
30
0
70
128
71
1
72
2
73
3
0
VERTEX
8
OBJECT__32
10
0
20
0
30
0
70
128
71
3
72
4
73
1
0
VERTEX
8
OBJECT__32
10
0
20
0
30
0
70
128
71
5
72
6
73
7
0
VERTEX
8
OBJECT__32
10
0
20
0
30
0
70
128
71
7
72
1
73
5
0
VERTEX
8
OBJECT__32
10
0
20
0
30
0
70
128
71
5
72
8
73
9
0
VERTEX
8
OBJECT__32
10
0
20
0
30
0
70
128
71
8
72
10
73
9
0
VERTEX
8
OBJECT__32
10
0
20
0
30
0
70
128
71
8
72
4
73
11
0
VERTEX
8
OBJECT__32
10
0
20
0
30
0
70
128
71
4
72
12
73
11
0
VERTEX
8
OBJECT__32
10
0
20
0
30
0
70
128
71
11
72
10
73
8
0
VERTEX
8
OBJECT__32
10
0
20
0
30
0
70
128
71
9
72
6
73
5
0
VERTEX
8
OBJECT__32
10
0
20
0
30
0
70
128
71
7
72
2
73
1
0
VERTEX
8
OBJECT__32
10
0
20
0
30
0
70
128
71
3
72
12
73
4
0
SEQEND
8
OBJECT__32
0
POLYLINE
8
OBJECT__33
66
1
70
64
71
24
72
24
62
253
0
VERTEX
8
OBJECT__33
10
96.750000
20
10.219000
30
42.132000
70
192
0
VERTEX
8
OBJECT__33
10
92.625000
20
10.219000
30
48.862999
70
192
0
VERTEX
8
OBJECT__33
10
97.655998
20
11.800000
30
51.945999
70
192
0
VERTEX
8
OBJECT__33
10
93.067001
20
5.900000
30
39.875999
70
192
0
VERTEX
8
OBJECT__33
10
88.942001
20
5.900000
30
46.605999
70
192
0
VERTEX
8
OBJECT__33
10
91.719002
20
0.000000
30
39.049999
70
192
0
VERTEX
8
OBJECT__33
10
87.594002
20
0.000000
30
45.779999
70
192
0
VERTEX
8
OBJECT__33
10
93.067001
20
-5.900000
30
39.875999
70
192
0
VERTEX
8
OBJECT__33
10
88.942001
20
-5.900000
30
46.605999
70
192
0
VERTEX
8
OBJECT__33
10
92.625000
20
-10.219000
30
48.862999
70
192
0
VERTEX
8
OBJECT__33
10
97.655998
20
-11.800000
30
51.945999
70
192
0
VERTEX
8
OBJECT__33
10
96.750000
20
-10.219000
30
42.132000
70
192
0
VERTEX
8
OBJECT__33
10
102.685997
20
-10.219000
30
55.028000
70
192
0
VERTEX
8
OBJECT__33
10
101.779999
20
-11.800000
30
45.215000
70
192
0
VERTEX
8
OBJECT__33
10
106.369003
20
-5.900000
30
57.285000
70
192
0
VERTEX
8
OBJECT__33
10
106.810997
20
-10.219000
30
48.298000
70
192
0
VERTEX
8
OBJECT__33
10
107.717003
20
0.000000
30
58.111000
70
192
0
VERTEX
8
OBJECT__33
10
110.492996
20
-5.900000
30
50.554001
70
192
0
VERTEX
8
OBJECT__33
10
106.369003
20
5.900000
30
57.285000
70
192
0
VERTEX
8
OBJECT__33
10
111.841003
20
0.000000
30
51.380001
70
192
0
VERTEX
8
OBJECT__33
10
106.810997
20
10.219000
30
48.298000
70
192
0
VERTEX
8
OBJECT__33
10
102.685997
20
10.219000
30
55.028000
70
192
0
VERTEX
8
OBJECT__33
10
101.779999
20
11.800000
30
45.215000
70
192
0
VERTEX
8
OBJECT__33
10
110.492996
20
5.900000
30
50.554001
70
192
0
VERTEX
8
OBJECT__33
10
0
20
0
30
0
70
128
71
1
72
2
73
3
0
VERTEX
8
OBJECT__33
10
0
20
0
30
0
70
128
71
4
72
5
73
2
0
VERTEX
8
OBJECT__33
10
0
20
0
30
0
70
128
71
6
72
7
73
5
0
VERTEX
8
OBJECT__33
10
0
20
0
30
0
70
128
71
8
72
9
73
7
0
VERTEX
8
OBJECT__33
10
0
20
0
30
0
70
128
71
10
72
9
73
8
0
VERTEX
8
OBJECT__33
10
0
20
0
30
0
70
128
71
11
72
10
73
12
0
VERTEX
8
OBJECT__33
10
0
20
0
30
0
70
128
71
13
72
11
73
14
0
VERTEX
8
OBJECT__33
10
0
20
0
30
0
70
128
71
15
72
13
73
16
0
VERTEX
8
OBJECT__33
10
0
20
0
30
0
70
128
71
17
72
15
73
18
0
VERTEX
8
OBJECT__33
10
0
20
0
30
0
70
128
71
19
72
17
73
20
0
VERTEX
8
OBJECT__33
10
0
20
0
30
0
70
128
71
21
72
22
73
19
0
VERTEX
8
OBJECT__33
10
0
20
0
30
0
70
128
71
23
72
3
73
22
0
VERTEX
8
OBJECT__33
10
0
20
0
30
0
70
128
71
22
72
21
73
23
0
VERTEX
8
OBJECT__33
10
0
20
0
30
0
70
128
71
19
72
24
73
21
0
VERTEX
8
OBJECT__33
10
0
20
0
30
0
70
128
71
20
72
24
73
19
0
VERTEX
8
OBJECT__33
10
0
20
0
30
0
70
128
71
18
72
20
73
17
0
VERTEX
8
OBJECT__33
10
0
20
0
30
0
70
128
71
16
72
18
73
15
0
VERTEX
8
OBJECT__33
10
0
20
0
30
0
70
128
71
14
72
16
73
13
0
VERTEX
8
OBJECT__33
10
0
20
0
30
0
70
128
71
12
72
14
73
11
0
VERTEX
8
OBJECT__33
10
0
20
0
30
0
70
128
71
8
72
12
73
10
0
VERTEX
8
OBJECT__33
10
0
20
0
30
0
70
128
71
7
72
6
73
8
0
VERTEX
8
OBJECT__33
10
0
20
0
30
0
70
128
71
5
72
4
73
6
0
VERTEX
8
OBJECT__33
10
0
20
0
30
0
70
128
71
2
72
1
73
4
0
VERTEX
8
OBJECT__33
10
0
20
0
30
0
70
128
71
3
72
23
73
1
0
SEQEND
8
OBJECT__33
0
POLYLINE
8
OBJECT__34
66
1
70
64
71
24
72
24
62
253
0
VERTEX
8
OBJECT__34
10
96.750000
20
10.219000
30
42.132000
70
192
0
VERTEX
8
OBJECT__34
10
101.779999
20
11.800000
30
45.215000
70
192
0
VERTEX
8
OBJECT__34
10
102.097000
20
10.750000
30
44.698002
70
192
0
VERTEX
8
OBJECT__34
10
93.067001
20
5.900000
30
39.875999
70
192
0
VERTEX
8
OBJECT__34
10
97.514000
20
9.310000
30
41.889999
70
192
0
VERTEX
8
OBJECT__34
10
91.719002
20
0.000000
30
39.049999
70
192
0
VERTEX
8
OBJECT__34
10
94.158997
20
5.375000
30
39.834000
70
192
0
VERTEX
8
OBJECT__34
10
93.067001
20
-5.900000
30
39.875999
70
192
0
VERTEX
8
OBJECT__34
10
92.931000
20
0.000000
30
39.081001
70
192
0
VERTEX
8
OBJECT__34
10
96.750000
20
-10.219000
30
42.132000
70
192
0
VERTEX
8
OBJECT__34
10
94.158997
20
-5.375000
30
39.834000
70
192
0
VERTEX
8
OBJECT__34
10
97.514000
20
-9.310000
30
41.889999
70
192
0
VERTEX
8
OBJECT__34
10
102.097000
20
-10.750000
30
44.698002
70
192
0
VERTEX
8
OBJECT__34
10
106.810997
20
-10.219000
30
48.298000
70
192
0
VERTEX
8
OBJECT__34
10
101.779999
20
-11.800000
30
45.215000
70
192
0
VERTEX
8
OBJECT__34
10
106.680000
20
-9.310000
30
47.507000
70
192
0
VERTEX
8
OBJECT__34
10
110.035004
20
-5.375000
30
49.562000
70
192
0
VERTEX
8
OBJECT__34
10
110.492996
20
-5.900000
30
50.554001
70
192
0
VERTEX
8
OBJECT__34
10
111.263000
20
0.000000
30
50.314999
70
192
0
VERTEX
8
OBJECT__34
10
110.492996
20
5.900000
30
50.554001
70
192
0
VERTEX
8
OBJECT__34
10
111.841003
20
0.000000
30
51.380001
70
192
0
VERTEX
8
OBJECT__34
10
106.810997
20
10.219000
30
48.298000
70
192
0
VERTEX
8
OBJECT__34
10
110.035004
20
5.375000
30
49.562000
70
192
0
VERTEX
8
OBJECT__34
10
106.680000
20
9.310000
30
47.507000
70
192
0
VERTEX
8
OBJECT__34
10
0
20
0
30
0
70
128
71
1
72
2
73
3
0
VERTEX
8
OBJECT__34
10
0
20
0
30
0
70
128
71
4
72
1
73
5
0
VERTEX
8
OBJECT__34
10
0
20
0
30
0
70
128
71
6
72
4
73
7
0
VERTEX
8
OBJECT__34
10
0
20
0
30
0
70
128
71
8
72
6
73
9
0
VERTEX
8
OBJECT__34
10
0
20
0
30
0
70
128
71
10
72
8
73
11
0
VERTEX
8
OBJECT__34
10
0
20
0
30
0
70
128
71
10
72
12
73
13
0
VERTEX
8
OBJECT__34
10
0
20
0
30
0
70
128
71
14
72
15
73
13
0
VERTEX
8
OBJECT__34
10
0
20
0
30
0
70
128
71
14
72
16
73
17
0
VERTEX
8
OBJECT__34
10
0
20
0
30
0
70
128
71
18
72
17
73
19
0
VERTEX
8
OBJECT__34
10
0
20
0
30
0
70
128
71
20
72
21
73
19
0
VERTEX
8
OBJECT__34
10
0
20
0
30
0
70
128
71
22
72
20
73
23
0
VERTEX
8
OBJECT__34
10
0
20
0
30
0
70
128
71
2
72
22
73
24
0
VERTEX
8
OBJECT__34
10
0
20
0
30
0
70
128
71
24
72
3
73
2
0
VERTEX
8
OBJECT__34
10
0
20
0
30
0
70
128
71
23
72
24
73
22
0
VERTEX
8
OBJECT__34
10
0
20
0
30
0
70
128
71
19
72
23
73
20
0
VERTEX
8
OBJECT__34
10
0
20
0
30
0
70
128
71
19
72
21
73
18
0
VERTEX
8
OBJECT__34
10
0
20
0
30
0
70
128
71
17
72
18
73
14
0
VERTEX
8
OBJECT__34
10
0
20
0
30
0
70
128
71
13
72
16
73
14
0
VERTEX
8
OBJECT__34
10
0
20
0
30
0
70
128
71
13
72
15
73
10
0
VERTEX
8
OBJECT__34
10
0
20
0
30
0
70
128
71
11
72
12
73
10
0
VERTEX
8
OBJECT__34
10
0
20
0
30
0
70
128
71
9
72
11
73
8
0
VERTEX
8
OBJECT__34
10
0
20
0
30
0
70
128
71
7
72
9
73
6
0
VERTEX
8
OBJECT__34
10
0
20
0
30
0
70
128
71
5
72
7
73
4
0
VERTEX
8
OBJECT__34
10
0
20
0
30
0
70
128
71
3
72
5
73
1
0
SEQEND
8
OBJECT__34
0
POLYLINE
8
OBJECT__36
66
1
70
64
71
12
72
10
62
253
0
VERTEX
8
OBJECT__36
10
102.097000
20
-10.750000
30
44.698002
70
192
0
VERTEX
8
OBJECT__36
10
110.035004
20
5.375000
30
49.562000
70
192
0
VERTEX
8
OBJECT__36
10
111.263000
20
0.000000
30
50.314999
70
192
0
VERTEX
8
OBJECT__36
10
110.035004
20
-5.375000
30
49.562000
70
192
0
VERTEX
8
OBJECT__36
10
97.514000
20
-9.310000
30
41.889999
70
192
0
VERTEX
8
OBJECT__36
10
94.158997
20
5.375000
30
39.834000
70
192
0
VERTEX
8
OBJECT__36
10
97.514000
20
9.310000
30
41.889999
70
192
0
VERTEX
8
OBJECT__36
10
106.680000
20
9.310000
30
47.507000
70
192
0
VERTEX
8
OBJECT__36
10
102.097000
20
10.750000
30
44.698002
70
192
0
VERTEX
8
OBJECT__36
10
94.158997
20
-5.375000
30
39.834000
70
192
0
VERTEX
8
OBJECT__36
10
106.680000
20
-9.310000
30
47.507000
70
192
0
VERTEX
8
OBJECT__36
10
92.931000
20
0.000000
30
39.081001
70
192
0
VERTEX
8
OBJECT__36
10
0
20
0
30
0
70
128
71
1
72
2
73
3
0
VERTEX
8
OBJECT__36
10
0
20
0
30
0
70
128
71
3
72
4
73
1
0
VERTEX
8
OBJECT__36
10
0
20
0
30
0
70
128
71
5
72
6
73
7
0
VERTEX
8
OBJECT__36
10
0
20
0
30
0
70
128
71
1
72
8
73
2
0
VERTEX
8
OBJECT__36
10
0
20
0
30
0
70
128
71
7
72
9
73
5
0
VERTEX
8
OBJECT__36
10
0
20
0
30
0
70
128
71
6
72
5
73
10
0
VERTEX
8
OBJECT__36
10
0
20
0
30
0
70
128
71
4
72
11
73
1
0
VERTEX
8
OBJECT__36
10
0
20
0
30
0
70
128
71
10
72
12
73
6
0
VERTEX
8
OBJECT__36
10
0
20
0
30
0
70
128
71
9
72
8
73
5
0
VERTEX
8
OBJECT__36
10
0
20
0
30
0
70
128
71
1
72
5
73
8
0
SEQEND
8
OBJECT__36
0
POLYLINE
8
OBJECT__37
66
1
70
64
71
24
72
36
62
253
0
VERTEX
8
OBJECT__37
10
-17.705000
20
0.000000
30
24.125999
70
192
0
VERTEX
8
OBJECT__37
10
-18.413000
20
0.000000
30
22.754999
70
192
0
VERTEX
8
OBJECT__37
10
-18.572001
20
0.303000
30
22.681000
70
192
0
VERTEX
8
OBJECT__37
10
-19.841000
20
1.360000
30
23.129999
70
192
0
VERTEX
8
OBJECT__37
10
-18.417000
20
1.360000
30
23.794001
70
192
0
VERTEX
8
OBJECT__37
10
-18.889000
20
0.303000
30
22.533001
70
192
0
VERTEX
8
OBJECT__37
10
-19.047001
20
0.000000
30
22.459000
70
192
0
VERTEX
8
OBJECT__37
10
-20.552000
20
0.000000
30
22.798000
70
192
0
VERTEX
8
OBJECT__37
10
-18.889000
20
-0.303000
30
22.533001
70
192
0
VERTEX
8
OBJECT__37
10
-19.841000
20
-1.360000
30
23.129999
70
192
0
VERTEX
8
OBJECT__37
10
-18.572001
20
-0.303000
30
22.681000
70
192
0
VERTEX
8
OBJECT__37
10
-18.417000
20
-1.360000
30
23.794001
70
192
0
VERTEX
8
OBJECT__37
10
-19.069000
20
1.360000
30
25.191999
70
192
0
VERTEX
8
OBJECT__37
10
-20.493000
20
1.360000
30
24.528999
70
192
0
VERTEX
8
OBJECT__37
10
-21.204000
20
0.000000
30
24.197001
70
192
0
VERTEX
8
OBJECT__37
10
-20.493000
20
-1.360000
30
24.528999
70
192
0
VERTEX
8
OBJECT__37
10
-19.069000
20
-1.360000
30
25.191999
70
192
0
VERTEX
8
OBJECT__37
10
-18.357000
20
0.000000
30
25.524000
70
192
0
VERTEX
8
OBJECT__37
10
-20.021000
20
0.303000
30
25.789000
70
192
0
VERTEX
8
OBJECT__37
10
-20.337999
20
0.303000
30
25.641001
70
192
0
VERTEX
8
OBJECT__37
10
-20.497000
20
0.000000
30
25.566999
70
192
0
VERTEX
8
OBJECT__37
10
-20.337999
20
-0.303000
30
25.641001
70
192
0
VERTEX
8
OBJECT__37
10
-20.021000
20
-0.303000
30
25.789000
70
192
0
VERTEX
8
OBJECT__37
10
-19.862000
20
0.000000
30
25.863001
70
192
0
VERTEX
8
OBJECT__37
10
0
20
0
30
0
70
128
71
1
72
2
73
3
0
VERTEX
8
OBJECT__37
10
0
20
0
30
0
70
128
71
4
72
5
73
3
0
VERTEX
8
OBJECT__37
10
0
20
0
30
0
70
128
71
4
72
6
73
7
0
VERTEX
8
OBJECT__37
10
0
20
0
30
0
70
128
71
8
72
7
73
9
0
VERTEX
8
OBJECT__37
10
0
20
0
30
0
70
128
71
10
72
9
73
11
0
VERTEX
8
OBJECT__37
10
0
20
0
30
0
70
128
71
12
72
11
73
2
0
VERTEX
8
OBJECT__37
10
0
20
0
30
0
70
128
71
1
72
5
73
13
0
VERTEX
8
OBJECT__37
10
0
20
0
30
0
70
128
71
5
72
4
73
14
0
VERTEX
8
OBJECT__37
10
0
20
0
30
0
70
128
71
4
72
8
73
15
0
VERTEX
8
OBJECT__37
10
0
20
0
30
0
70
128
71
8
72
10
73
16
0
VERTEX
8
OBJECT__37
10
0
20
0
30
0
70
128
71
10
72
12
73
17
0
VERTEX
8
OBJECT__37
10
0
20
0
30
0
70
128
71
12
72
1
73
18
0
VERTEX
8
OBJECT__37
10
0
20
0
30
0
70
128
71
18
72
13
73
19
0
VERTEX
8
OBJECT__37
10
0
20
0
30
0
70
128
71
14
72
20
73
19
0
VERTEX
8
OBJECT__37
10
0
20
0
30
0
70
128
71
14
72
15
73
21
0
VERTEX
8
OBJECT__37
10
0
20
0
30
0
70
128
71
15
72
16
73
22
0
VERTEX
8
OBJECT__37
10
0
20
0
30
0
70
128
71
16
72
17
73
23
0
VERTEX
8
OBJECT__37
10
0
20
0
30
0
70
128
71
17
72
18
73
24
0
VERTEX
8
OBJECT__37
10
0
20
0
30
0
70
128
71
24
72
23
73
17
0
VERTEX
8
OBJECT__37
10
0
20
0
30
0
70
128
71
23
72
22
73
16
0
VERTEX
8
OBJECT__37
10
0
20
0
30
0
70
128
71
22
72
21
73
15
0
VERTEX
8
OBJECT__37
10
0
20
0
30
0
70
128
71
21
72
20
73
14
0
VERTEX
8
OBJECT__37
10
0
20
0
30
0
70
128
71
19
72
13
73
14
0
VERTEX
8
OBJECT__37
10
0
20
0
30
0
70
128
71
19
72
24
73
18
0
VERTEX
8
OBJECT__37
10
0
20
0
30
0
70
128
71
18
72
17
73
12
0
VERTEX
8
OBJECT__37
10
0
20
0
30
0
70
128
71
17
72
16
73
10
0
VERTEX
8
OBJECT__37
10
0
20
0
30
0
70
128
71
16
72
15
73
8
0
VERTEX
8
OBJECT__37
10
0
20
0
30
0
70
128
71
15
72
14
73
4
0
VERTEX
8
OBJECT__37
10
0
20
0
30
0
70
128
71
14
72
13
73
5
0
VERTEX
8
OBJECT__37
10
0
20
0
30
0
70
128
71
13
72
18
73
1
0
VERTEX
8
OBJECT__37
10
0
20
0
30
0
70
128
71
2
72
1
73
12
0
VERTEX
8
OBJECT__37
10
0
20
0
30
0
70
128
71
11
72
12
73
10
0
VERTEX
8
OBJECT__37
10
0
20
0
30
0
70
128
71
9
72
10
73
8
0
VERTEX
8
OBJECT__37
10
0
20
0
30
0
70
128
71
7
72
8
73
4
0
VERTEX
8
OBJECT__37
10
0
20
0
30
0
70
128
71
3
72
6
73
4
0
VERTEX
8
OBJECT__37
10
0
20
0
30
0
70
128
71
3
72
5
73
1
0
SEQEND
8
OBJECT__37
0
POLYLINE
8
OBJECT__38
66
1
70
64
71
31
72
39
62
253
0
VERTEX
8
OBJECT__38
10
-22.900000
20
1.697000
30
27.535000
70
192
0
VERTEX
8
OBJECT__38
10
-21.855000
20
1.280000
30
26.282000
70
192
0
VERTEX
8
OBJECT__38
10
-22.336000
20
0.000000
30
26.058001
70
192
0
VERTEX
8
OBJECT__38
10
-21.973000
20
2.121000
30
27.966999
70
192
0
VERTEX
8
OBJECT__38
10
-20.695000
20
1.810000
30
26.823000
70
192
0
VERTEX
8
OBJECT__38
10
-19.823999
20
1.697000
30
28.969000
70
192
0
VERTEX
8
OBJECT__38
10
-19.535999
20
1.280000
30
27.364000
70
192
0
VERTEX
8
OBJECT__38
10
-19.698999
20
1.366000
30
29.027000
70
192
0
VERTEX
8
OBJECT__38
10
-19.187000
20
0.000000
30
29.266001
70
192
0
VERTEX
8
OBJECT__38
10
-19.055000
20
0.000000
30
27.587999
70
192
0
VERTEX
8
OBJECT__38
10
-19.698999
20
-1.366000
30
29.027000
70
192
0
VERTEX
8
OBJECT__38
10
-19.535999
20
-1.280000
30
27.364000
70
192
0
VERTEX
8
OBJECT__38
10
-19.823999
20
-1.697000
30
28.969000
70
192
0
VERTEX
8
OBJECT__38
10
-21.362000
20
-2.400000
30
28.252001
70
192
0
VERTEX
8
OBJECT__38
10
-20.695000
20
-1.810000
30
26.823000
70
192
0
VERTEX
8
OBJECT__38
10
-21.855000
20
-1.280000
30
26.282000
70
192
0
VERTEX
8
OBJECT__38
10
-21.973000
20
-2.121000
30
27.966999
70
192
0
VERTEX
8
OBJECT__38
10
-22.900000
20
-1.697000
30
27.535000
70
192
0
VERTEX
8
OBJECT__38
10
-23.537001
20
0.000000
30
27.238001
70
192
0
VERTEX
8
OBJECT__38
10
-20.537001
20
-0.191000
30
26.017000
70
192
0
VERTEX
8
OBJECT__38
10
-20.375000
20
-0.350000
30
26.091999
70
192
0
VERTEX
8
OBJECT__38
10
-20.172001
20
-0.189000
30
26.187000
70
192
0
VERTEX
8
OBJECT__38
10
-20.052999
20
-0.094000
30
26.242001
70
192
0
VERTEX
8
OBJECT__38
10
-20.177000
20
0.227000
30
26.184000
70
192
0
VERTEX
8
OBJECT__38
10
-20.208000
20
0.308000
30
26.170000
70
192
0
VERTEX
8
OBJECT__38
10
-20.347000
20
0.280000
30
26.105000
70
192
0
VERTEX
8
OBJECT__38
10
-20.598000
20
0.229000
30
25.988001
70
192
0
VERTEX
8
OBJECT__38
10
-20.676001
20
0.014000
30
25.952000
70
192
0
VERTEX
8
OBJECT__38
10
-20.674999
20
0.000000
30
25.952000
70
192
0
VERTEX
8
OBJECT__38
10
-20.671000
20
-0.059000
30
25.954000
70
192
0
VERTEX
8
OBJECT__38
10
-21.362000
20
2.400000
30
28.252001
70
192
0
VERTEX
8
OBJECT__38
10
0
20
0
30
0
70
128
71
1
72
2
73
3
0
VERTEX
8
OBJECT__38
10
0
20
0
30
0
70
128
71
2
72
1
73
4
0
VERTEX
8
OBJECT__38
10
0
20
0
30
0
70
128
71
4
72
5
73
2
0
VERTEX
8
OBJECT__38
10
0
20
0
30
0
70
128
71
6
72
7
73
5
0
VERTEX
8
OBJECT__38
10
0
20
0
30
0
70
128
71
8
72
9
73
10
0
VERTEX
8
OBJECT__38
10
0
20
0
30
0
70
128
71
7
72
6
73
8
0
VERTEX
8
OBJECT__38
10
0
20
0
30
0
70
128
71
11
72
12
73
10
0
VERTEX
8
OBJECT__38
10
0
20
0
30
0
70
128
71
10
72
9
73
11
0
VERTEX
8
OBJECT__38
10
0
20
0
30
0
70
128
71
13
72
14
73
15
0
VERTEX
8
OBJECT__38
10
0
20
0
30
0
70
128
71
16
72
15
73
17
0
VERTEX
8
OBJECT__38
10
0
20
0
30
0
70
128
71
15
72
14
73
17
0
VERTEX
8
OBJECT__38
10
0
20
0
30
0
70
128
71
18
72
19
73
3
0
VERTEX
8
OBJECT__38
10
0
20
0
30
0
70
128
71
16
72
20
73
21
0
VERTEX
8
OBJECT__38
10
0
20
0
30
0
70
128
71
12
72
15
73
21
0
VERTEX
8
OBJECT__38
10
0
20
0
30
0
70
128
71
12
72
22
73
23
0
VERTEX
8
OBJECT__38
10
0
20
0
30
0
70
128
71
10
72
23
73
24
0
VERTEX
8
OBJECT__38
10
0
20
0
30
0
70
128
71
5
72
7
73
25
0
VERTEX
8
OBJECT__38
10
0
20
0
30
0
70
128
71
7
72
24
73
25
0
VERTEX
8
OBJECT__38
10
0
20
0
30
0
70
128
71
5
72
26
73
27
0
VERTEX
8
OBJECT__38
10
0
20
0
30
0
70
128
71
3
72
2
73
27
0
VERTEX
8
OBJECT__38
10
0
20
0
30
0
70
128
71
27
72
28
73
3
0
VERTEX
8
OBJECT__38
10
0
20
0
30
0
70
128
71
3
72
29
73
30
0
VERTEX
8
OBJECT__38
10
0
20
0
30
0
70
128
71
30
72
16
73
3
0
VERTEX
8
OBJECT__38
10
0
20
0
30
0
70
128
71
30
72
20
73
16
0
VERTEX
8
OBJECT__38
10
0
20
0
30
0
70
128
71
28
72
29
73
3
0
VERTEX
8
OBJECT__38
10
0
20
0
30
0
70
128
71
27
72
2
73
5
0
VERTEX
8
OBJECT__38
10
0
20
0
30
0
70
128
71
25
72
26
73
5
0
VERTEX
8
OBJECT__38
10
0
20
0
30
0
70
128
71
24
72
7
73
10
0
VERTEX
8
OBJECT__38
10
0
20
0
30
0
70
128
71
23
72
10
73
12
0
VERTEX
8
OBJECT__38
10
0
20
0
30
0
70
128
71
21
72
22
73
12
0
VERTEX
8
OBJECT__38
10
0
20
0
30
0
70
128
71
21
72
15
73
16
0
VERTEX
8
OBJECT__38
10
0
20
0
30
0
70
128
71
3
72
16
73
18
0
VERTEX
8
OBJECT__38
10
0
20
0
30
0
70
128
71
17
72
18
73
16
0
VERTEX
8
OBJECT__38
10
0
20
0
30
0
70
128
71
15
72
12
73
13
0
VERTEX
8
OBJECT__38
10
0
20
0
30
0
70
128
71
11
72
13
73
12
0
VERTEX
8
OBJECT__38
10
0
20
0
30
0
70
128
71
10
72
7
73
8
0
VERTEX
8
OBJECT__38
10
0
20
0
30
0
70
128
71
5
72
31
73
6
0
VERTEX
8
OBJECT__38
10
0
20
0
30
0
70
128
71
4
72
31
73
5
0
VERTEX
8
OBJECT__38
10
0
20
0
30
0
70
128
71
3
72
19
73
1
0
SEQEND
8
OBJECT__38
0
POLYLINE
8
OBJECT__40
66
1
70
64
71
25
72
25
62
253
0
VERTEX
8
OBJECT__40
10
-20.605000
20
1.411000
30
31.224001
70
192
0
VERTEX
8
OBJECT__40
10
-19.823999
20
1.697000
30
28.969000
70
192
0
VERTEX
8
OBJECT__40
10
-21.362000
20
2.400000
30
28.252001
70
192
0
VERTEX
8
OBJECT__40
10
-19.698999
20
1.366000
30
29.027000
70
192
0
VERTEX
8
OBJECT__40
10
-23.037001
20
2.283000
30
30.090000
70
192
0
VERTEX
8
OBJECT__40
10
-19.698999
20
-1.366000
30
29.027000
70
192
0
VERTEX
8
OBJECT__40
10
-19.187000
20
0.000000
30
29.266001
70
192
0
VERTEX
8
OBJECT__40
10
-20.299000
20
-0.750000
30
31.367001
70
192
0
VERTEX
8
OBJECT__40
10
-20.605000
20
-1.411000
30
31.224001
70
192
0
VERTEX
8
OBJECT__40
10
-21.989000
20
-0.750000
30
34.992001
70
192
0
VERTEX
8
OBJECT__40
10
-20.299000
20
0.750000
30
31.367001
70
192
0
VERTEX
8
OBJECT__40
10
-21.989000
20
0.750000
30
34.992001
70
192
0
VERTEX
8
OBJECT__40
10
-23.037001
20
-2.283000
30
30.090000
70
192
0
VERTEX
8
OBJECT__40
10
-21.362000
20
-2.400000
30
28.252001
70
192
0
VERTEX
8
OBJECT__40
10
-19.823999
20
-1.697000
30
28.969000
70
192
0
VERTEX
8
OBJECT__40
10
-21.973000
20
-2.121000
30
27.966999
70
192
0
VERTEX
8
OBJECT__40
10
-26.230000
20
0.000000
30
33.014000
70
192
0
VERTEX
8
OBJECT__40
10
-23.537001
20
0.000000
30
27.238001
70
192
0
VERTEX
8
OBJECT__40
10
-24.431000
20
-0.750000
30
29.440001
70
192
0
VERTEX
8
OBJECT__40
10
-22.900000
20
-1.697000
30
27.535000
70
192
0
VERTEX
8
OBJECT__40
10
-24.431000
20
0.750000
30
29.440001
70
192
0
VERTEX
8
OBJECT__40
10
-22.900000
20
1.697000
30
27.535000
70
192
0
VERTEX
8
OBJECT__40
10
-21.973000
20
2.121000
30
27.966999
70
192
0
VERTEX
8
OBJECT__40
10
-26.122000
20
0.750000
30
33.064999
70
192
0
VERTEX
8
OBJECT__40
10
-26.122000
20
-0.750000
30
33.064999
70
192
0
VERTEX
8
OBJECT__40
10
0
20
0
30
0
70
128
71
1
72
2
73
3
0
VERTEX
8
OBJECT__40
10
0
20
0
30
0
70
128
71
1
72
4
73
2
0
VERTEX
8
OBJECT__40
10
0
20
0
30
0
70
128
71
3
72
5
73
1
0
VERTEX
8
OBJECT__40
10
0
20
0
30
0
70
128
71
6
72
7
73
8
0
VERTEX
8
OBJECT__40
10
0
20
0
30
0
70
128
71
8
72
9
73
6
0
VERTEX
8
OBJECT__40
10
0
20
0
30
0
70
128
71
10
72
8
73
11
0
VERTEX
8
OBJECT__40
10
0
20
0
30
0
70
128
71
4
72
1
73
11
0
VERTEX
8
OBJECT__40
10
0
20
0
30
0
70
128
71
11
72
8
73
4
0
VERTEX
8
OBJECT__40
10
0
20
0
30
0
70
128
71
11
72
12
73
10
0
VERTEX
8
OBJECT__40
10
0
20
0
30
0
70
128
71
9
72
13
73
14
0
VERTEX
8
OBJECT__40
10
0
20
0
30
0
70
128
71
14
72
15
73
9
0
VERTEX
8
OBJECT__40
10
0
20
0
30
0
70
128
71
13
72
16
73
14
0
VERTEX
8
OBJECT__40
10
0
20
0
30
0
70
128
71
17
72
18
73
19
0
VERTEX
8
OBJECT__40
10
0
20
0
30
0
70
128
71
19
72
18
73
20
0
VERTEX
8
OBJECT__40
10
0
20
0
30
0
70
128
71
20
72
13
73
19
0
VERTEX
8
OBJECT__40
10
0
20
0
30
0
70
128
71
20
72
16
73
13
0
VERTEX
8
OBJECT__40
10
0
20
0
30
0
70
128
71
21
72
5
73
22
0
VERTEX
8
OBJECT__40
10
0
20
0
30
0
70
128
71
5
72
23
73
22
0
VERTEX
8
OBJECT__40
10
0
20
0
30
0
70
128
71
17
72
24
73
21
0
VERTEX
8
OBJECT__40
10
0
20
0
30
0
70
128
71
21
72
18
73
17
0
VERTEX
8
OBJECT__40
10
0
20
0
30
0
70
128
71
22
72
18
73
21
0
VERTEX
8
OBJECT__40
10
0
20
0
30
0
70
128
71
19
72
25
73
17
0
VERTEX
8
OBJECT__40
10
0
20
0
30
0
70
128
71
15
72
6
73
9
0
VERTEX
8
OBJECT__40
10
0
20
0
30
0
70
128
71
7
72
4
73
8
0
VERTEX
8
OBJECT__40
10
0
20
0
30
0
70
128
71
3
72
23
73
5
0
SEQEND
8
OBJECT__40
0
POLYLINE
8
OBJECT__41
66
1
70
64
71
5
72
3
62
253
0
VERTEX
8
OBJECT__41
10
-21.989000
20
-0.750000
30
34.992001
70
192
0
VERTEX
8
OBJECT__41
10
-21.989000
20
0.750000
30
34.992001
70
192
0
VERTEX
8
OBJECT__41
10
-26.122000
20
0.750000
30
33.064999
70
192
0
VERTEX
8
OBJECT__41
10
-26.230000
20
0.000000
30
33.014000
70
192
0
VERTEX
8
OBJECT__41
10
-26.122000
20
-0.750000
30
33.064999
70
192
0
VERTEX
8
OBJECT__41
10
0
20
0
30
0
70
128
71
1
72
2
73
3
0
VERTEX
8
OBJECT__41
10
0
20
0
30
0
70
128
71
3
72
4
73
1
0
VERTEX
8
OBJECT__41
10
0
20
0
30
0
70
128
71
4
72
5
73
1
0
SEQEND
8
OBJECT__41
0
POLYLINE
8
OBJECT__42
66
1
70
64
71
4
72
2
62
253
0
VERTEX
8
OBJECT__42
10
-26.122000
20
0.750000
30
33.064999
70
192
0
VERTEX
8
OBJECT__42
10
-21.989000
20
0.750000
30
34.992001
70
192
0
VERTEX
8
OBJECT__42
10
-20.299000
20
0.750000
30
31.367001
70
192
0
VERTEX
8
OBJECT__42
10
-24.431000
20
0.750000
30
29.440001
70
192
0
VERTEX
8
OBJECT__42
10
0
20
0
30
0
70
128
71
1
72
2
73
3
0
VERTEX
8
OBJECT__42
10
0
20
0
30
0
70
128
71
3
72
4
73
1
0
SEQEND
8
OBJECT__42
0
POLYLINE
8
OBJECT__43
66
1
70
64
71
4
72
2
62
253
0
VERTEX
8
OBJECT__43
10
-26.122000
20
-0.750000
30
33.064999
70
192
0
VERTEX
8
OBJECT__43
10
-24.431000
20
-0.750000
30
29.440001
70
192
0
VERTEX
8
OBJECT__43
10
-20.299000
20
-0.750000
30
31.367001
70
192
0
VERTEX
8
OBJECT__43
10
-21.989000
20
-0.750000
30
34.992001
70
192
0
VERTEX
8
OBJECT__43
10
0
20
0
30
0
70
128
71
1
72
2
73
3
0
VERTEX
8
OBJECT__43
10
0
20
0
30
0
70
128
71
3
72
4
73
1
0
SEQEND
8
OBJECT__43
0
POLYLINE
8
OBJECT__44
66
1
70
64
71
4
72
2
62
253
0
VERTEX
8
OBJECT__44
10
-24.431000
20
0.750000
30
29.440001
70
192
0
VERTEX
8
OBJECT__44
10
-20.299000
20
0.750000
30
31.367001
70
192
0
VERTEX
8
OBJECT__44
10
-20.605000
20
1.411000
30
31.224001
70
192
0
VERTEX
8
OBJECT__44
10
-23.037001
20
2.283000
30
30.090000
70
192
0
VERTEX
8
OBJECT__44
10
0
20
0
30
0
70
128
71
1
72
2
73
3
0
VERTEX
8
OBJECT__44
10
0
20
0
30
0
70
128
71
3
72
4
73
1
0
SEQEND
8
OBJECT__44
0
POLYLINE
8
OBJECT__45
66
1
70
64
71
4
72
2
62
253
0
VERTEX
8
OBJECT__45
10
-24.431000
20
-0.750000
30
29.440001
70
192
0
VERTEX
8
OBJECT__45
10
-23.037001
20
-2.283000
30
30.090000
70
192
0
VERTEX
8
OBJECT__45
10
-20.605000
20
-1.411000
30
31.224001
70
192
0
VERTEX
8
OBJECT__45
10
-20.299000
20
-0.750000
30
31.367001
70
192
0
VERTEX
8
OBJECT__45
10
0
20
0
30
0
70
128
71
1
72
2
73
3
0
VERTEX
8
OBJECT__45
10
0
20
0
30
0
70
128
71
3
72
4
73
1
0
SEQEND
8
OBJECT__45
0
ENDSEC
0
EOF
