999
Converted by 3D Exploration 
999
XDimension Software, LLC
999
http://www.xdsoft.com/explorer/
0
SECTION
2
HEADER
9
$ACADVER
1
AC1008
9
$UCSORG
10
0.0
20
0.0
30
0.0
9
$UCSXDIR
10
1.0
20
0.0
30
0.0
9
$TILEMODE
70
1
9
$UCSYDIR
10
0.0
20
1.0
30
0.0
9
$EXTMIN
10
0.000000
20
-75.000000
30
-75.000000
9
$EXTMAX
10
74.699997
20
75.000000
30
147.093994
0
ENDSEC
0
SECTION
2
TABLES
0
TABLE
2
LTYPE
70
1
0
LTYPE
2
CONTINUOUS
70
64
3
Solid line
72
65
73
0
40
0.0
0
ENDTAB
0
TABLE
2
LAYER
70
73
0
LAYER
2
OBJECT__0
70
0
62
253
6
CONTINUOUS
0
LAYER
2
OBJECT__1
70
0
62
253
6
CONTINUOUS
0
LAYER
2
OBJECT__3
70
0
62
253
6
CONTINUOUS
0
LAYER
2
OBJECT__4
70
0
62
253
6
CONTINUOUS
0
LAYER
2
OBJECT__5
70
0
62
253
6
CONTINUOUS
0
LAYER
2
OBJECT__6
70
0
62
253
6
CONTINUOUS
0
LAYER
2
OBJECT__7
70
0
62
253
6
CONTINUOUS
0
LAYER
2
OBJECT__8
70
0
62
253
6
CONTINUOUS
0
LAYER
2
OBJECT__9
70
0
62
253
6
CONTINUOUS
0
LAYER
2
OBJECT__10
70
0
62
253
6
CONTINUOUS
0
LAYER
2
OBJECT__11
70
0
62
253
6
CONTINUOUS
0
LAYER
2
OBJECT__12
70
0
62
253
6
CONTINUOUS
0
LAYER
2
OBJECT__13
70
0
62
253
6
CONTINUOUS
0
LAYER
2
OBJECT__14
70
0
62
253
6
CONTINUOUS
0
LAYER
2
OBJECT__15
70
0
62
253
6
CONTINUOUS
0
LAYER
2
OBJECT__16
70
0
62
253
6
CONTINUOUS
0
LAYER
2
OBJECT__17
70
0
62
253
6
CONTINUOUS
0
LAYER
2
OBJECT__18
70
0
62
253
6
CONTINUOUS
0
LAYER
2
OBJECT__19
70
0
62
253
6
CONTINUOUS
0
LAYER
2
OBJECT__20
70
0
62
253
6
CONTINUOUS
0
LAYER
2
OBJECT__21
70
0
62
253
6
CONTINUOUS
0
LAYER
2
OBJECT__22
70
0
62
253
6
CONTINUOUS
0
LAYER
2
OBJECT__23
70
0
62
253
6
CONTINUOUS
0
LAYER
2
OBJECT__24
70
0
62
253
6
CONTINUOUS
0
LAYER
2
OBJECT__25
70
0
62
253
6
CONTINUOUS
0
LAYER
2
OBJECT__26
70
0
62
253
6
CONTINUOUS
0
LAYER
2
OBJECT__27
70
0
62
253
6
CONTINUOUS
0
LAYER
2
OBJECT__28
70
0
62
253
6
CONTINUOUS
0
LAYER
2
OBJECT__29
70
0
62
253
6
CONTINUOUS
0
LAYER
2
OBJECT__30
70
0
62
253
6
CONTINUOUS
0
LAYER
2
OBJECT__31
70
0
62
253
6
CONTINUOUS
0
LAYER
2
OBJECT__32
70
0
62
253
6
CONTINUOUS
0
LAYER
2
OBJECT__33
70
0
62
253
6
CONTINUOUS
0
LAYER
2
OBJECT__34
70
0
62
253
6
CONTINUOUS
0
LAYER
2
OBJECT__35
70
0
62
253
6
CONTINUOUS
0
LAYER
2
OBJECT__36
70
0
62
253
6
CONTINUOUS
0
LAYER
2
OBJECT__37
70
0
62
253
6
CONTINUOUS
0
LAYER
2
OBJECT__38
70
0
62
253
6
CONTINUOUS
0
LAYER
2
OBJECT__39
70
0
62
253
6
CONTINUOUS
0
LAYER
2
OBJECT__40
70
0
62
253
6
CONTINUOUS
0
LAYER
2
OBJECT__41
70
0
62
253
6
CONTINUOUS
0
LAYER
2
OBJECT__42
70
0
62
253
6
CONTINUOUS
0
LAYER
2
OBJECT__43
70
0
62
253
6
CONTINUOUS
0
LAYER
2
OBJECT__44
70
0
62
253
6
CONTINUOUS
0
LAYER
2
OBJECT__45
70
0
62
253
6
CONTINUOUS
0
LAYER
2
OBJECT__46
70
0
62
253
6
CONTINUOUS
0
LAYER
2
OBJECT__47
70
0
62
253
6
CONTINUOUS
0
LAYER
2
OBJECT__48
70
0
62
253
6
CONTINUOUS
0
LAYER
2
OBJECT__49
70
0
62
253
6
CONTINUOUS
0
LAYER
2
OBJECT__50
70
0
62
253
6
CONTINUOUS
0
LAYER
2
OBJECT__51
70
0
62
253
6
CONTINUOUS
0
LAYER
2
OBJECT__52
70
0
62
253
6
CONTINUOUS
0
LAYER
2
OBJECT__53
70
0
62
253
6
CONTINUOUS
0
LAYER
2
OBJECT__54
70
0
62
253
6
CONTINUOUS
0
LAYER
2
OBJECT__56
70
0
62
253
6
CONTINUOUS
0
LAYER
2
OBJECT__57
70
0
62
253
6
CONTINUOUS
0
LAYER
2
OBJECT__58
70
0
62
253
6
CONTINUOUS
0
LAYER
2
OBJECT__59
70
0
62
253
6
CONTINUOUS
0
LAYER
2
OBJECT__60
70
0
62
253
6
CONTINUOUS
0
LAYER
2
OBJECT__61
70
0
62
253
6
CONTINUOUS
0
LAYER
2
OBJECT__62
70
0
62
253
6
CONTINUOUS
0
LAYER
2
OBJECT__63
70
0
62
253
6
CONTINUOUS
0
LAYER
2
OBJECT__65
70
0
62
253
6
CONTINUOUS
0
LAYER
2
OBJECT__66
70
0
62
253
6
CONTINUOUS
0
LAYER
2
OBJECT__67
70
0
62
253
6
CONTINUOUS
0
LAYER
2
OBJECT__68
70
0
62
253
6
CONTINUOUS
0
LAYER
2
OBJECT__69
70
0
62
253
6
CONTINUOUS
0
LAYER
2
OBJECT__71
70
0
62
253
6
CONTINUOUS
0
LAYER
2
OBJECT__72
70
0
62
253
6
CONTINUOUS
0
ENDTAB
0
TABLE
2
STYLE
70
1
0
STYLE
2
STANDARD
70
0
40
0.0
41
1.0
50
0.0
71
0
42
0.2
3
txt
4
1
0
ENDTAB
0
TABLE
2
UCS
70
0
0
ENDTAB
0
ENDSEC
0
SECTION
2
ENTITIES
0
POLYLINE
8
OBJECT__0
66
1
70
64
71
12
72
10
62
253
0
VERTEX
8
OBJECT__0
10
17.700001
20
-13.125000
30
-22.733000
70
192
0
VERTEX
8
OBJECT__0
10
17.700001
20
-26.250000
30
0.000000
70
192
0
VERTEX
8
OBJECT__0
10
17.700001
20
-22.733000
30
13.125000
70
192
0
VERTEX
8
OBJECT__0
10
17.700001
20
-13.125000
30
22.733000
70
192
0
VERTEX
8
OBJECT__0
10
17.700001
20
13.125000
30
22.733000
70
192
0
VERTEX
8
OBJECT__0
10
17.700001
20
22.733000
30
13.125000
70
192
0
VERTEX
8
OBJECT__0
10
17.700001
20
-22.733000
30
-13.125000
70
192
0
VERTEX
8
OBJECT__0
10
17.700001
20
13.125000
30
-22.733000
70
192
0
VERTEX
8
OBJECT__0
10
17.700001
20
0.000000
30
-26.250000
70
192
0
VERTEX
8
OBJECT__0
10
17.700001
20
26.250000
30
0.000000
70
192
0
VERTEX
8
OBJECT__0
10
17.700001
20
22.733000
30
-13.125000
70
192
0
VERTEX
8
OBJECT__0
10
17.700001
20
0.000000
30
26.250000
70
192
0
VERTEX
8
OBJECT__0
10
0
20
0
30
0
70
128
71
1
72
2
73
3
0
VERTEX
8
OBJECT__0
10
0
20
0
30
0
70
128
71
4
72
5
73
6
0
VERTEX
8
OBJECT__0
10
0
20
0
30
0
70
128
71
1
72
7
73
2
0
VERTEX
8
OBJECT__0
10
0
20
0
30
0
70
128
71
4
72
8
73
9
0
VERTEX
8
OBJECT__0
10
0
20
0
30
0
70
128
71
4
72
10
73
11
0
VERTEX
8
OBJECT__0
10
0
20
0
30
0
70
128
71
4
72
12
73
5
0
VERTEX
8
OBJECT__0
10
0
20
0
30
0
70
128
71
9
72
1
73
4
0
VERTEX
8
OBJECT__0
10
0
20
0
30
0
70
128
71
6
72
10
73
4
0
VERTEX
8
OBJECT__0
10
0
20
0
30
0
70
128
71
11
72
8
73
4
0
VERTEX
8
OBJECT__0
10
0
20
0
30
0
70
128
71
3
72
4
73
1
0
SEQEND
8
OBJECT__0
0
POLYLINE
8
OBJECT__1
66
1
70
64
71
86
72
90
62
253
0
VERTEX
8
OBJECT__1
10
74.699997
20
22.733000
30
13.125000
70
192
0
VERTEX
8
OBJECT__1
10
17.700001
20
22.733000
30
13.125000
70
192
0
VERTEX
8
OBJECT__1
10
17.700001
20
13.125000
30
22.733000
70
192
0
VERTEX
8
OBJECT__1
10
17.700001
20
26.250000
30
0.000000
70
192
0
VERTEX
8
OBJECT__1
10
74.699997
20
22.733000
30
-13.125000
70
192
0
VERTEX
8
OBJECT__1
10
17.700001
20
22.733000
30
-13.125000
70
192
0
VERTEX
8
OBJECT__1
10
17.700001
20
13.125000
30
-22.733000
70
192
0
VERTEX
8
OBJECT__1
10
17.700001
20
-22.733000
30
-13.125000
70
192
0
VERTEX
8
OBJECT__1
10
17.700001
20
-13.125000
30
-22.733000
70
192
0
VERTEX
8
OBJECT__1
10
74.699997
20
-13.125000
30
-22.733000
70
192
0
VERTEX
8
OBJECT__1
10
74.699997
20
-26.250000
30
0.000000
70
192
0
VERTEX
8
OBJECT__1
10
17.700001
20
-26.250000
30
0.000000
70
192
0
VERTEX
8
OBJECT__1
10
17.700001
20
-22.733000
30
13.125000
70
192
0
VERTEX
8
OBJECT__1
10
74.699997
20
-13.125000
30
22.733000
70
192
0
VERTEX
8
OBJECT__1
10
17.700001
20
-13.125000
30
22.733000
70
192
0
VERTEX
8
OBJECT__1
10
74.699997
20
0.000000
30
26.250000
70
192
0
VERTEX
8
OBJECT__1
10
74.699997
20
13.125000
30
22.733000
70
192
0
VERTEX
8
OBJECT__1
10
64.500999
20
2.815000
30
26.099001
70
192
0
VERTEX
8
OBJECT__1
10
61.199001
20
7.595000
30
25.127001
70
192
0
VERTEX
8
OBJECT__1
10
63.139999
20
5.584000
30
25.649000
70
192
0
VERTEX
8
OBJECT__1
10
58.568001
20
9.006000
30
24.657000
70
192
0
VERTEX
8
OBJECT__1
10
64.918999
20
0.000000
30
26.250000
70
192
0
VERTEX
8
OBJECT__1
10
35.700001
20
9.500000
30
24.469999
70
192
0
VERTEX
8
OBJECT__1
10
55.599998
20
9.500000
30
24.469999
70
192
0
VERTEX
8
OBJECT__1
10
32.731998
20
9.006000
30
24.657000
70
192
0
VERTEX
8
OBJECT__1
10
26.799000
20
2.815000
30
26.099001
70
192
0
VERTEX
8
OBJECT__1
10
28.160000
20
5.584000
30
25.649000
70
192
0
VERTEX
8
OBJECT__1
10
26.381001
20
0.000000
30
26.250000
70
192
0
VERTEX
8
OBJECT__1
10
30.101000
20
7.595000
30
25.127001
70
192
0
VERTEX
8
OBJECT__1
10
17.700001
20
0.000000
30
26.250000
70
192
0
VERTEX
8
OBJECT__1
10
26.868999
20
-3.034000
30
26.073999
70
192
0
VERTEX
8
OBJECT__1
10
28.160999
20
-5.584000
30
25.649000
70
192
0
VERTEX
8
OBJECT__1
10
31.389999
20
-8.423000
30
24.862000
70
192
0
VERTEX
8
OBJECT__1
10
30.429001
20
-7.834000
30
25.054001
70
192
0
VERTEX
8
OBJECT__1
10
34.221001
20
-9.380000
30
24.517000
70
192
0
VERTEX
8
OBJECT__1
10
55.599998
20
-9.500000
30
24.471001
70
192
0
VERTEX
8
OBJECT__1
10
57.078999
20
-9.380000
30
24.517000
70
192
0
VERTEX
8
OBJECT__1
10
35.700001
20
-9.500000
30
24.471001
70
192
0
VERTEX
8
OBJECT__1
10
63.139000
20
-5.584000
30
25.649000
70
192
0
VERTEX
8
OBJECT__1
10
60.870998
20
-7.834000
30
25.054001
70
192
0
VERTEX
8
OBJECT__1
10
59.910000
20
-8.423000
30
24.862000
70
192
0
VERTEX
8
OBJECT__1
10
64.431000
20
-3.034000
30
26.073999
70
192
0
VERTEX
8
OBJECT__1
10
17.700001
20
0.000000
30
-26.250000
70
192
0
VERTEX
8
OBJECT__1
10
26.878000
20
1.847000
30
-26.184999
70
192
0
VERTEX
8
OBJECT__1
10
26.635000
20
0.955000
30
-26.233000
70
192
0
VERTEX
8
OBJECT__1
10
28.294001
20
3.917000
30
-25.955999
70
192
0
VERTEX
8
OBJECT__1
10
27.723000
20
3.326000
30
-26.038000
70
192
0
VERTEX
8
OBJECT__1
10
28.934999
20
4.390000
30
-25.879999
70
192
0
VERTEX
8
OBJECT__1
10
30.313000
20
4.994000
30
-25.771000
70
192
0
VERTEX
8
OBJECT__1
10
29.724001
20
4.792000
30
-25.809000
70
192
0
VERTEX
8
OBJECT__1
10
30.914000
20
5.127000
30
-25.743999
70
192
0
VERTEX
8
OBJECT__1
10
74.699997
20
13.125000
30
-22.733000
70
192
0
VERTEX
8
OBJECT__1
10
59.700001
20
5.192000
30
-25.731001
70
192
0
VERTEX
8
OBJECT__1
10
60.324001
20
5.151000
30
-25.740000
70
192
0
VERTEX
8
OBJECT__1
10
31.700001
20
5.192000
30
-25.731001
70
192
0
VERTEX
8
OBJECT__1
10
60.929001
20
5.036000
30
-25.761999
70
192
0
VERTEX
8
OBJECT__1
10
61.675999
20
4.792000
30
-25.809000
70
192
0
VERTEX
8
OBJECT__1
10
62.437000
20
4.408000
30
-25.877001
70
192
0
VERTEX
8
OBJECT__1
10
63.105999
20
3.917000
30
-25.955999
70
192
0
VERTEX
8
OBJECT__1
10
63.678001
20
3.326000
30
-26.039000
70
192
0
VERTEX
8
OBJECT__1
10
64.524002
20
1.843000
30
-26.184999
70
192
0
VERTEX
8
OBJECT__1
10
64.848999
20
0.000000
30
-26.250000
70
192
0
VERTEX
8
OBJECT__1
10
64.765999
20
0.953000
30
-26.233000
70
192
0
VERTEX
8
OBJECT__1
10
74.699997
20
0.000000
30
-26.250000
70
192
0
VERTEX
8
OBJECT__1
10
26.551001
20
0.000000
30
-26.250000
70
192
0
VERTEX
8
OBJECT__1
10
64.197998
20
-2.554000
30
-26.125000
70
192
0
VERTEX
8
OBJECT__1
10
64.566002
20
-1.726000
30
-26.193001
70
192
0
VERTEX
8
OBJECT__1
10
63.676998
20
-3.326000
30
-26.038000
70
192
0
VERTEX
8
OBJECT__1
10
62.452000
20
-4.398000
30
-25.879000
70
192
0
VERTEX
8
OBJECT__1
10
63.132000
20
-3.894000
30
-25.959999
70
192
0
VERTEX
8
OBJECT__1
10
61.675999
20
-4.792000
30
-25.809000
70
192
0
VERTEX
8
OBJECT__1
10
60.487000
20
-5.127000
30
-25.745001
70
192
0
VERTEX
8
OBJECT__1
10
61.087002
20
-4.994000
30
-25.771000
70
192
0
VERTEX
8
OBJECT__1
10
31.700001
20
-5.192000
30
-25.731001
70
192
0
VERTEX
8
OBJECT__1
10
59.700001
20
-5.192000
30
-25.731001
70
192
0
VERTEX
8
OBJECT__1
10
31.073000
20
-5.150000
30
-25.740000
70
192
0
VERTEX
8
OBJECT__1
10
30.465000
20
-5.035000
30
-25.763000
70
192
0
VERTEX
8
OBJECT__1
10
29.724001
20
-4.792000
30
-25.809000
70
192
0
VERTEX
8
OBJECT__1
10
28.952000
20
-4.401000
30
-25.879000
70
192
0
VERTEX
8
OBJECT__1
10
27.723000
20
-3.326000
30
-26.038000
70
192
0
VERTEX
8
OBJECT__1
10
28.275000
20
-3.900000
30
-25.959000
70
192
0
VERTEX
8
OBJECT__1
10
27.202999
20
-2.556000
30
-26.125000
70
192
0
VERTEX
8
OBJECT__1
10
26.836000
20
-1.730000
30
-26.193001
70
192
0
VERTEX
8
OBJECT__1
10
74.699997
20
-22.733000
30
13.125000
70
192
0
VERTEX
8
OBJECT__1
10
74.699997
20
-22.733000
30
-13.125000
70
192
0
VERTEX
8
OBJECT__1
10
74.699997
20
26.250000
30
0.000000
70
192
0
VERTEX
8
OBJECT__1
10
0
20
0
30
0
70
128
71
1
72
2
73
3
0
VERTEX
8
OBJECT__1
10
0
20
0
30
0
70
128
71
4
72
2
73
1
0
VERTEX
8
OBJECT__1
10
0
20
0
30
0
70
128
71
5
72
6
73
4
0
VERTEX
8
OBJECT__1
10
0
20
0
30
0
70
128
71
7
72
6
73
5
0
VERTEX
8
OBJECT__1
10
0
20
0
30
0
70
128
71
8
72
9
73
10
0
VERTEX
8
OBJECT__1
10
0
20
0
30
0
70
128
71
11
72
12
73
8
0
VERTEX
8
OBJECT__1
10
0
20
0
30
0
70
128
71
13
72
12
73
11
0
VERTEX
8
OBJECT__1
10
0
20
0
30
0
70
128
71
14
72
15
73
13
0
VERTEX
8
OBJECT__1
10
0
20
0
30
0
70
128
71
16
72
17
73
18
0
VERTEX
8
OBJECT__1
10
0
20
0
30
0
70
128
71
17
72
19
73
20
0
VERTEX
8
OBJECT__1
10
0
20
0
30
0
70
128
71
20
72
18
73
17
0
VERTEX
8
OBJECT__1
10
0
20
0
30
0
70
128
71
17
72
21
73
19
0
VERTEX
8
OBJECT__1
10
0
20
0
30
0
70
128
71
18
72
22
73
16
0
VERTEX
8
OBJECT__1
10
0
20
0
30
0
70
128
71
17
72
23
73
24
0
VERTEX
8
OBJECT__1
10
0
20
0
30
0
70
128
71
24
72
21
73
17
0
VERTEX
8
OBJECT__1
10
0
20
0
30
0
70
128
71
23
72
17
73
3
0
VERTEX
8
OBJECT__1
10
0
20
0
30
0
70
128
71
3
72
25
73
23
0
VERTEX
8
OBJECT__1
10
0
20
0
30
0
70
128
71
3
72
26
73
27
0
VERTEX
8
OBJECT__1
10
0
20
0
30
0
70
128
71
3
72
28
73
26
0
VERTEX
8
OBJECT__1
10
0
20
0
30
0
70
128
71
27
72
29
73
3
0
VERTEX
8
OBJECT__1
10
0
20
0
30
0
70
128
71
28
72
3
73
30
0
VERTEX
8
OBJECT__1
10
0
20
0
30
0
70
128
71
29
72
25
73
3
0
VERTEX
8
OBJECT__1
10
0
20
0
30
0
70
128
71
30
72
15
73
31
0
VERTEX
8
OBJECT__1
10
0
20
0
30
0
70
128
71
15
72
32
73
31
0
VERTEX
8
OBJECT__1
10
0
20
0
30
0
70
128
71
15
72
33
73
34
0
VERTEX
8
OBJECT__1
10
0
20
0
30
0
70
128
71
15
72
35
73
33
0
VERTEX
8
OBJECT__1
10
0
20
0
30
0
70
128
71
15
72
14
73
36
0
VERTEX
8
OBJECT__1
10
0
20
0
30
0
70
128
71
14
72
37
73
36
0
VERTEX
8
OBJECT__1
10
0
20
0
30
0
70
128
71
36
72
38
73
15
0
VERTEX
8
OBJECT__1
10
0
20
0
30
0
70
128
71
38
72
35
73
15
0
VERTEX
8
OBJECT__1
10
0
20
0
30
0
70
128
71
14
72
39
73
40
0
VERTEX
8
OBJECT__1
10
0
20
0
30
0
70
128
71
40
72
41
73
14
0
VERTEX
8
OBJECT__1
10
0
20
0
30
0
70
128
71
41
72
37
73
14
0
VERTEX
8
OBJECT__1
10
0
20
0
30
0
70
128
71
34
72
32
73
15
0
VERTEX
8
OBJECT__1
10
0
20
0
30
0
70
128
71
16
72
22
73
42
0
VERTEX
8
OBJECT__1
10
0
20
0
30
0
70
128
71
42
72
14
73
16
0
VERTEX
8
OBJECT__1
10
0
20
0
30
0
70
128
71
42
72
39
73
14
0
VERTEX
8
OBJECT__1
10
0
20
0
30
0
70
128
71
43
72
7
73
44
0
VERTEX
8
OBJECT__1
10
0
20
0
30
0
70
128
71
44
72
45
73
43
0
VERTEX
8
OBJECT__1
10
0
20
0
30
0
70
128
71
7
72
46
73
47
0
VERTEX
8
OBJECT__1
10
0
20
0
30
0
70
128
71
7
72
48
73
46
0
VERTEX
8
OBJECT__1
10
0
20
0
30
0
70
128
71
7
72
49
73
50
0
VERTEX
8
OBJECT__1
10
0
20
0
30
0
70
128
71
7
72
51
73
49
0
VERTEX
8
OBJECT__1
10
0
20
0
30
0
70
128
71
7
72
52
73
53
0
VERTEX
8
OBJECT__1
10
0
20
0
30
0
70
128
71
52
72
54
73
53
0
VERTEX
8
OBJECT__1
10
0
20
0
30
0
70
128
71
53
72
55
73
7
0
VERTEX
8
OBJECT__1
10
0
20
0
30
0
70
128
71
52
72
56
73
54
0
VERTEX
8
OBJECT__1
10
0
20
0
30
0
70
128
71
57
72
56
73
52
0
VERTEX
8
OBJECT__1
10
0
20
0
30
0
70
128
71
55
72
51
73
7
0
VERTEX
8
OBJECT__1
10
0
20
0
30
0
70
128
71
52
72
58
73
57
0
VERTEX
8
OBJECT__1
10
0
20
0
30
0
70
128
71
52
72
59
73
58
0
VERTEX
8
OBJECT__1
10
0
20
0
30
0
70
128
71
50
72
48
73
7
0
VERTEX
8
OBJECT__1
10
0
20
0
30
0
70
128
71
60
72
59
73
52
0
VERTEX
8
OBJECT__1
10
0
20
0
30
0
70
128
71
52
72
61
73
60
0
VERTEX
8
OBJECT__1
10
0
20
0
30
0
70
128
71
47
72
44
73
7
0
VERTEX
8
OBJECT__1
10
0
20
0
30
0
70
128
71
52
72
62
73
63
0
VERTEX
8
OBJECT__1
10
0
20
0
30
0
70
128
71
63
72
61
73
52
0
VERTEX
8
OBJECT__1
10
0
20
0
30
0
70
128
71
62
72
52
73
64
0
VERTEX
8
OBJECT__1
10
0
20
0
30
0
70
128
71
45
72
65
73
43
0
VERTEX
8
OBJECT__1
10
0
20
0
30
0
70
128
71
10
72
66
73
67
0
VERTEX
8
OBJECT__1
10
0
20
0
30
0
70
128
71
10
72
69
73
70
0
VERTEX
8
OBJECT__1
10
0
20
0
30
0
70
128
71
70
72
68
73
10
0
VERTEX
8
OBJECT__1
10
0
20
0
30
0
70
128
71
10
72
72
73
73
0
VERTEX
8
OBJECT__1
10
0
20
0
30
0
70
128
71
9
72
74
73
75
0
VERTEX
8
OBJECT__1
10
0
20
0
30
0
70
128
71
9
72
76
73
74
0
VERTEX
8
OBJECT__1
10
0
20
0
30
0
70
128
71
75
72
10
73
9
0
VERTEX
8
OBJECT__1
10
0
20
0
30
0
70
128
71
9
72
77
73
76
0
VERTEX
8
OBJECT__1
10
0
20
0
30
0
70
128
71
9
72
78
73
77
0
VERTEX
8
OBJECT__1
10
0
20
0
30
0
70
128
71
75
72
72
73
10
0
VERTEX
8
OBJECT__1
10
0
20
0
30
0
70
128
71
73
72
71
73
10
0
VERTEX
8
OBJECT__1
10
0
20
0
30
0
70
128
71
9
72
79
73
78
0
VERTEX
8
OBJECT__1
10
0
20
0
30
0
70
128
71
9
72
80
73
81
0
VERTEX
8
OBJECT__1
10
0
20
0
30
0
70
128
71
81
72
79
73
9
0
VERTEX
8
OBJECT__1
10
0
20
0
30
0
70
128
71
71
72
69
73
10
0
VERTEX
8
OBJECT__1
10
0
20
0
30
0
70
128
71
9
72
82
73
80
0
VERTEX
8
OBJECT__1
10
0
20
0
30
0
70
128
71
9
72
43
73
83
0
VERTEX
8
OBJECT__1
10
0
20
0
30
0
70
128
71
83
72
82
73
9
0
VERTEX
8
OBJECT__1
10
0
20
0
30
0
70
128
71
68
72
66
73
10
0
VERTEX
8
OBJECT__1
10
0
20
0
30
0
70
128
71
67
72
64
73
10
0
VERTEX
8
OBJECT__1
10
0
20
0
30
0
70
128
71
43
72
65
73
83
0
VERTEX
8
OBJECT__1
10
0
20
0
30
0
70
128
71
67
72
62
73
64
0
VERTEX
8
OBJECT__1
10
0
20
0
30
0
70
128
71
31
72
28
73
30
0
VERTEX
8
OBJECT__1
10
0
20
0
30
0
70
128
71
13
72
84
73
14
0
VERTEX
8
OBJECT__1
10
0
20
0
30
0
70
128
71
11
72
84
73
13
0
VERTEX
8
OBJECT__1
10
0
20
0
30
0
70
128
71
8
72
85
73
11
0
VERTEX
8
OBJECT__1
10
0
20
0
30
0
70
128
71
10
72
85
73
8
0
VERTEX
8
OBJECT__1
10
0
20
0
30
0
70
128
71
5
72
52
73
7
0
VERTEX
8
OBJECT__1
10
0
20
0
30
0
70
128
71
4
72
86
73
5
0
VERTEX
8
OBJECT__1
10
0
20
0
30
0
70
128
71
1
72
86
73
4
0
VERTEX
8
OBJECT__1
10
0
20
0
30
0
70
128
71
3
72
17
73
1
0
SEQEND
8
OBJECT__1
0
POLYLINE
8
OBJECT__3
66
1
70
64
71
12
72
10
62
253
0
VERTEX
8
OBJECT__3
10
74.699997
20
-13.125000
30
22.733000
70
192
0
VERTEX
8
OBJECT__3
10
74.699997
20
22.733000
30
13.125000
70
192
0
VERTEX
8
OBJECT__3
10
74.699997
20
13.125000
30
22.733000
70
192
0
VERTEX
8
OBJECT__3
10
74.699997
20
13.125000
30
-22.733000
70
192
0
VERTEX
8
OBJECT__3
10
74.699997
20
-22.733000
30
13.125000
70
192
0
VERTEX
8
OBJECT__3
10
74.699997
20
-26.250000
30
0.000000
70
192
0
VERTEX
8
OBJECT__3
10
74.699997
20
26.250000
30
0.000000
70
192
0
VERTEX
8
OBJECT__3
10
74.699997
20
22.733000
30
-13.125000
70
192
0
VERTEX
8
OBJECT__3
10
74.699997
20
-22.733000
30
-13.125000
70
192
0
VERTEX
8
OBJECT__3
10
74.699997
20
-13.125000
30
-22.733000
70
192
0
VERTEX
8
OBJECT__3
10
74.699997
20
0.000000
30
-26.250000
70
192
0
VERTEX
8
OBJECT__3
10
74.699997
20
0.000000
30
26.250000
70
192
0
VERTEX
8
OBJECT__3
10
0
20
0
30
0
70
128
71
1
72
2
73
3
0
VERTEX
8
OBJECT__3
10
0
20
0
30
0
70
128
71
4
72
5
73
6
0
VERTEX
8
OBJECT__3
10
0
20
0
30
0
70
128
71
1
72
7
73
2
0
VERTEX
8
OBJECT__3
10
0
20
0
30
0
70
128
71
1
72
4
73
8
0
VERTEX
8
OBJECT__3
10
0
20
0
30
0
70
128
71
9
72
10
73
11
0
VERTEX
8
OBJECT__3
10
0
20
0
30
0
70
128
71
4
72
1
73
5
0
VERTEX
8
OBJECT__3
10
0
20
0
30
0
70
128
71
8
72
7
73
1
0
VERTEX
8
OBJECT__3
10
0
20
0
30
0
70
128
71
6
72
9
73
4
0
VERTEX
8
OBJECT__3
10
0
20
0
30
0
70
128
71
11
72
4
73
9
0
VERTEX
8
OBJECT__3
10
0
20
0
30
0
70
128
71
3
72
12
73
1
0
SEQEND
8
OBJECT__3
0
POLYLINE
8
OBJECT__4
66
1
70
64
71
6
72
4
62
253
0
VERTEX
8
OBJECT__4
10
55.599998
20
9.046000
30
24.423000
70
192
0
VERTEX
8
OBJECT__4
10
35.700001
20
9.046000
30
24.423000
70
192
0
VERTEX
8
OBJECT__4
10
35.700001
20
8.820000
30
24.033001
70
192
0
VERTEX
8
OBJECT__4
10
55.599998
20
9.500000
30
24.469999
70
192
0
VERTEX
8
OBJECT__4
10
35.700001
20
9.500000
30
24.469999
70
192
0
VERTEX
8
OBJECT__4
10
55.599998
20
8.820000
30
24.033001
70
192
0
VERTEX
8
OBJECT__4
10
0
20
0
30
0
70
128
71
1
72
2
73
3
0
VERTEX
8
OBJECT__4
10
0
20
0
30
0
70
128
71
4
72
5
73
2
0
VERTEX
8
OBJECT__4
10
0
20
0
30
0
70
128
71
2
72
1
73
4
0
VERTEX
8
OBJECT__4
10
0
20
0
30
0
70
128
71
3
72
6
73
1
0
SEQEND
8
OBJECT__4
0
POLYLINE
8
OBJECT__5
66
1
70
64
71
13
72
11
62
253
0
VERTEX
8
OBJECT__5
10
28.160000
20
5.584000
30
25.649000
70
192
0
VERTEX
8
OBJECT__5
10
28.566999
20
5.188000
30
25.184999
70
192
0
VERTEX
8
OBJECT__5
10
30.239000
20
6.309000
30
24.834000
70
192
0
VERTEX
8
OBJECT__5
10
30.101000
20
7.595000
30
25.127001
70
192
0
VERTEX
8
OBJECT__5
10
30.707001
20
6.622000
30
24.736000
70
192
0
VERTEX
8
OBJECT__5
10
33.026001
20
8.177000
30
24.250000
70
192
0
VERTEX
8
OBJECT__5
10
32.731998
20
9.006000
30
24.657000
70
192
0
VERTEX
8
OBJECT__5
10
33.611000
20
8.569000
30
24.127001
70
192
0
VERTEX
8
OBJECT__5
10
34.983002
20
8.791000
30
24.035999
70
192
0
VERTEX
8
OBJECT__5
10
35.700001
20
9.046000
30
24.423000
70
192
0
VERTEX
8
OBJECT__5
10
35.700001
20
8.820000
30
24.023001
70
192
0
VERTEX
8
OBJECT__5
10
35.700001
20
8.820000
30
24.033001
70
192
0
VERTEX
8
OBJECT__5
10
35.700001
20
9.500000
30
24.469999
70
192
0
VERTEX
8
OBJECT__5
10
0
20
0
30
0
70
128
71
1
72
2
73
3
0
VERTEX
8
OBJECT__5
10
0
20
0
30
0
70
128
71
3
72
4
73
1
0
VERTEX
8
OBJECT__5
10
0
20
0
30
0
70
128
71
4
72
5
73
6
0
VERTEX
8
OBJECT__5
10
0
20
0
30
0
70
128
71
7
72
8
73
9
0
VERTEX
8
OBJECT__5
10
0
20
0
30
0
70
128
71
9
72
10
73
7
0
VERTEX
8
OBJECT__5
10
0
20
0
30
0
70
128
71
7
72
6
73
8
0
VERTEX
8
OBJECT__5
10
0
20
0
30
0
70
128
71
9
72
11
73
12
0
VERTEX
8
OBJECT__5
10
0
20
0
30
0
70
128
71
9
72
12
73
10
0
VERTEX
8
OBJECT__5
10
0
20
0
30
0
70
128
71
10
72
13
73
7
0
VERTEX
8
OBJECT__5
10
0
20
0
30
0
70
128
71
6
72
7
73
4
0
VERTEX
8
OBJECT__5
10
0
20
0
30
0
70
128
71
3
72
5
73
4
0
SEQEND
8
OBJECT__5
0
POLYLINE
8
OBJECT__6
66
1
70
64
71
8
72
6
62
253
0
VERTEX
8
OBJECT__6
10
28.160000
20
5.584000
30
25.649000
70
192
0
VERTEX
8
OBJECT__6
10
26.799000
20
2.815000
30
26.099001
70
192
0
VERTEX
8
OBJECT__6
10
27.695000
20
3.703000
30
25.476000
70
192
0
VERTEX
8
OBJECT__6
10
27.445999
20
2.574000
30
25.568001
70
192
0
VERTEX
8
OBJECT__6
10
26.493000
20
0.000000
30
26.143000
70
192
0
VERTEX
8
OBJECT__6
10
26.879999
20
0.000000
30
25.775999
70
192
0
VERTEX
8
OBJECT__6
10
26.381001
20
0.000000
30
26.250000
70
192
0
VERTEX
8
OBJECT__6
10
28.566999
20
5.188000
30
25.184999
70
192
0
VERTEX
8
OBJECT__6
10
0
20
0
30
0
70
128
71
1
72
2
73
3
0
VERTEX
8
OBJECT__6
10
0
20
0
30
0
70
128
71
2
72
4
73
3
0
VERTEX
8
OBJECT__6
10
0
20
0
30
0
70
128
71
2
72
7
73
5
0
VERTEX
8
OBJECT__6
10
0
20
0
30
0
70
128
71
6
72
2
73
5
0
VERTEX
8
OBJECT__6
10
0
20
0
30
0
70
128
71
6
72
4
73
2
0
VERTEX
8
OBJECT__6
10
0
20
0
30
0
70
128
71
3
72
8
73
1
0
SEQEND
8
OBJECT__6
0
POLYLINE
8
OBJECT__7
66
1
70
64
71
8
72
6
62
253
0
VERTEX
8
OBJECT__7
10
26.868999
20
-3.034000
30
26.073999
70
192
0
VERTEX
8
OBJECT__7
10
28.160999
20
-5.584000
30
25.649000
70
192
0
VERTEX
8
OBJECT__7
10
28.566999
20
-5.188000
30
25.188000
70
192
0
VERTEX
8
OBJECT__7
10
26.493000
20
0.000000
30
26.143000
70
192
0
VERTEX
8
OBJECT__7
10
27.035000
20
-1.645000
30
25.719000
70
192
0
VERTEX
8
OBJECT__7
10
26.879999
20
0.000000
30
25.775999
70
192
0
VERTEX
8
OBJECT__7
10
27.507999
20
-2.740000
30
25.555000
70
192
0
VERTEX
8
OBJECT__7
10
26.381001
20
0.000000
30
26.250000
70
192
0
VERTEX
8
OBJECT__7
10
0
20
0
30
0
70
128
71
1
72
2
73
3
0
VERTEX
8
OBJECT__7
10
0
20
0
30
0
70
128
71
4
72
1
73
5
0
VERTEX
8
OBJECT__7
10
0
20
0
30
0
70
128
71
5
72
6
73
4
0
VERTEX
8
OBJECT__7
10
0
20
0
30
0
70
128
71
1
72
7
73
5
0
VERTEX
8
OBJECT__7
10
0
20
0
30
0
70
128
71
4
72
8
73
1
0
VERTEX
8
OBJECT__7
10
0
20
0
30
0
70
128
71
3
72
7
73
1
0
SEQEND
8
OBJECT__7
0
POLYLINE
8
OBJECT__8
66
1
70
64
71
9
72
7
62
253
0
VERTEX
8
OBJECT__8
10
28.160999
20
-5.584000
30
25.649000
70
192
0
VERTEX
8
OBJECT__8
10
30.429001
20
-7.834000
30
25.054001
70
192
0
VERTEX
8
OBJECT__8
10
30.054001
20
-6.621000
30
24.785999
70
192
0
VERTEX
8
OBJECT__8
10
30.724001
20
-7.267000
30
24.605000
70
192
0
VERTEX
8
OBJECT__8
10
31.389999
20
-8.423000
30
24.862000
70
192
0
VERTEX
8
OBJECT__8
10
31.625000
20
-7.822000
30
24.420000
70
192
0
VERTEX
8
OBJECT__8
10
30.777000
20
-7.318000
30
24.591000
70
192
0
VERTEX
8
OBJECT__8
10
31.625000
20
-7.822000
30
24.417000
70
192
0
VERTEX
8
OBJECT__8
10
28.566999
20
-5.188000
30
25.188000
70
192
0
VERTEX
8
OBJECT__8
10
0
20
0
30
0
70
128
71
1
72
2
73
3
0
VERTEX
8
OBJECT__8
10
0
20
0
30
0
70
128
71
2
72
4
73
3
0
VERTEX
8
OBJECT__8
10
0
20
0
30
0
70
128
71
5
72
6
73
7
0
VERTEX
8
OBJECT__8
10
0
20
0
30
0
70
128
71
7
72
2
73
5
0
VERTEX
8
OBJECT__8
10
0
20
0
30
0
70
128
71
6
72
8
73
7
0
VERTEX
8
OBJECT__8
10
0
20
0
30
0
70
128
71
7
72
4
73
2
0
VERTEX
8
OBJECT__8
10
0
20
0
30
0
70
128
71
3
72
9
73
1
0
SEQEND
8
OBJECT__8
0
POLYLINE
8
OBJECT__9
66
1
70
64
71
8
72
6
62
253
0
VERTEX
8
OBJECT__9
10
34.327000
20
-8.584000
30
24.129000
70
192
0
VERTEX
8
OBJECT__9
10
34.221001
20
-9.380000
30
24.517000
70
192
0
VERTEX
8
OBJECT__9
10
35.700001
20
-9.156000
30
24.250999
70
192
0
VERTEX
8
OBJECT__9
10
35.700001
20
-9.500000
30
24.471001
70
192
0
VERTEX
8
OBJECT__9
10
32.758999
20
-8.315000
30
24.236000
70
192
0
VERTEX
8
OBJECT__9
10
31.389999
20
-8.423000
30
24.862000
70
192
0
VERTEX
8
OBJECT__9
10
31.625000
20
-7.822000
30
24.420000
70
192
0
VERTEX
8
OBJECT__9
10
35.700001
20
-8.820000
30
24.035999
70
192
0
VERTEX
8
OBJECT__9
10
0
20
0
30
0
70
128
71
1
72
2
73
3
0
VERTEX
8
OBJECT__9
10
0
20
0
30
0
70
128
71
2
72
4
73
3
0
VERTEX
8
OBJECT__9
10
0
20
0
30
0
70
128
71
2
72
1
73
5
0
VERTEX
8
OBJECT__9
10
0
20
0
30
0
70
128
71
5
72
6
73
2
0
VERTEX
8
OBJECT__9
10
0
20
0
30
0
70
128
71
5
72
7
73
6
0
VERTEX
8
OBJECT__9
10
0
20
0
30
0
70
128
71
3
72
8
73
1
0
SEQEND
8
OBJECT__9
0
POLYLINE
8
OBJECT__10
66
1
70
64
71
37
72
35
62
253
0
VERTEX
8
OBJECT__10
10
30.707001
20
6.622000
30
24.736000
70
192
0
VERTEX
8
OBJECT__10
10
30.047001
20
6.613000
30
24.312000
70
192
0
VERTEX
8
OBJECT__10
10
31.407000
20
7.705000
30
24.007000
70
192
0
VERTEX
8
OBJECT__10
10
34.264000
20
8.702000
30
23.664000
70
192
0
VERTEX
8
OBJECT__10
10
33.611000
20
8.569000
30
24.127001
70
192
0
VERTEX
8
OBJECT__10
10
33.026001
20
8.177000
30
24.250000
70
192
0
VERTEX
8
OBJECT__10
10
35.700001
20
8.820000
30
23.620001
70
192
0
VERTEX
8
OBJECT__10
10
35.700001
20
8.820000
30
24.023001
70
192
0
VERTEX
8
OBJECT__10
10
34.983002
20
8.791000
30
24.035999
70
192
0
VERTEX
8
OBJECT__10
10
27.597000
20
3.484000
30
24.972000
70
192
0
VERTEX
8
OBJECT__10
10
29.106001
20
5.858000
30
24.523001
70
192
0
VERTEX
8
OBJECT__10
10
28.566999
20
5.188000
30
25.184999
70
192
0
VERTEX
8
OBJECT__10
10
30.239000
20
6.309000
30
24.834000
70
192
0
VERTEX
8
OBJECT__10
10
27.695000
20
3.703000
30
25.476000
70
192
0
VERTEX
8
OBJECT__10
10
26.914000
20
0.769000
30
25.202000
70
192
0
VERTEX
8
OBJECT__10
10
27.445999
20
2.574000
30
25.568001
70
192
0
VERTEX
8
OBJECT__10
10
26.879999
20
0.000000
30
25.775999
70
192
0
VERTEX
8
OBJECT__10
10
26.974001
20
0.008000
30
25.181000
70
192
0
VERTEX
8
OBJECT__10
10
26.979000
20
-0.053000
30
25.179001
70
192
0
VERTEX
8
OBJECT__10
10
27.035000
20
-1.645000
30
25.719000
70
192
0
VERTEX
8
OBJECT__10
10
27.146999
20
-2.155000
30
25.121000
70
192
0
VERTEX
8
OBJECT__10
10
28.379000
20
-4.919000
30
24.729000
70
192
0
VERTEX
8
OBJECT__10
10
27.507999
20
-2.740000
30
25.555000
70
192
0
VERTEX
8
OBJECT__10
10
30.024000
20
-6.657000
30
24.304001
70
192
0
VERTEX
8
OBJECT__10
10
28.566999
20
-5.188000
30
25.188000
70
192
0
VERTEX
8
OBJECT__10
10
30.054001
20
-6.621000
30
24.785999
70
192
0
VERTEX
8
OBJECT__10
10
35.700001
20
-8.820000
30
24.033001
70
192
0
VERTEX
8
OBJECT__10
10
32.883999
20
-8.358000
30
23.788000
70
192
0
VERTEX
8
OBJECT__10
10
34.327000
20
-8.584000
30
24.129000
70
192
0
VERTEX
8
OBJECT__10
10
32.758999
20
-8.315000
30
24.236000
70
192
0
VERTEX
8
OBJECT__10
10
35.700001
20
-8.820000
30
24.035999
70
192
0
VERTEX
8
OBJECT__10
10
35.700001
20
-8.820000
30
23.620001
70
192
0
VERTEX
8
OBJECT__10
10
31.625000
20
-7.822000
30
24.417000
70
192
0
VERTEX
8
OBJECT__10
10
31.625000
20
-7.822000
30
24.420000
70
192
0
VERTEX
8
OBJECT__10
10
30.386999
20
-7.040000
30
24.211000
70
192
0
VERTEX
8
OBJECT__10
10
30.777000
20
-7.318000
30
24.591000
70
192
0
VERTEX
8
OBJECT__10
10
30.724001
20
-7.267000
30
24.605000
70
192
0
VERTEX
8
OBJECT__10
10
0
20
0
30
0
70
128
71
1
72
2
73
3
0
VERTEX
8
OBJECT__10
10
0
20
0
30
0
70
128
71
4
72
5
73
6
0
VERTEX
8
OBJECT__10
10
0
20
0
30
0
70
128
71
6
72
3
73
4
0
VERTEX
8
OBJECT__10
10
0
20
0
30
0
70
128
71
3
72
6
73
1
0
VERTEX
8
OBJECT__10
10
0
20
0
30
0
70
128
71
7
72
8
73
9
0
VERTEX
8
OBJECT__10
10
0
20
0
30
0
70
128
71
9
72
4
73
7
0
VERTEX
8
OBJECT__10
10
0
20
0
30
0
70
128
71
9
72
5
73
4
0
VERTEX
8
OBJECT__10
10
0
20
0
30
0
70
128
71
10
72
11
73
12
0
VERTEX
8
OBJECT__10
10
0
20
0
30
0
70
128
71
11
72
13
73
12
0
VERTEX
8
OBJECT__10
10
0
20
0
30
0
70
128
71
12
72
14
73
10
0
VERTEX
8
OBJECT__10
10
0
20
0
30
0
70
128
71
15
72
10
73
16
0
VERTEX
8
OBJECT__10
10
0
20
0
30
0
70
128
71
10
72
14
73
16
0
VERTEX
8
OBJECT__10
10
0
20
0
30
0
70
128
71
16
72
17
73
15
0
VERTEX
8
OBJECT__10
10
0
20
0
30
0
70
128
71
17
72
18
73
15
0
VERTEX
8
OBJECT__10
10
0
20
0
30
0
70
128
71
17
72
19
73
18
0
VERTEX
8
OBJECT__10
10
0
20
0
30
0
70
128
71
19
72
17
73
20
0
VERTEX
8
OBJECT__10
10
0
20
0
30
0
70
128
71
20
72
21
73
19
0
VERTEX
8
OBJECT__10
10
0
20
0
30
0
70
128
71
22
72
21
73
23
0
VERTEX
8
OBJECT__10
10
0
20
0
30
0
70
128
71
21
72
20
73
23
0
VERTEX
8
OBJECT__10
10
0
20
0
30
0
70
128
71
24
72
22
73
25
0
VERTEX
8
OBJECT__10
10
0
20
0
30
0
70
128
71
25
72
26
73
24
0
VERTEX
8
OBJECT__10
10
0
20
0
30
0
70
128
71
23
72
25
73
22
0
VERTEX
8
OBJECT__10
10
0
20
0
30
0
70
128
71
27
72
28
73
29
0
VERTEX
8
OBJECT__10
10
0
20
0
30
0
70
128
71
28
72
30
73
29
0
VERTEX
8
OBJECT__10
10
0
20
0
30
0
70
128
71
29
72
31
73
27
0
VERTEX
8
OBJECT__10
10
0
20
0
30
0
70
128
71
27
72
32
73
28
0
VERTEX
8
OBJECT__10
10
0
20
0
30
0
70
128
71
33
72
34
73
30
0
VERTEX
8
OBJECT__10
10
0
20
0
30
0
70
128
71
30
72
28
73
33
0
VERTEX
8
OBJECT__10
10
0
20
0
30
0
70
128
71
35
72
36
73
33
0
VERTEX
8
OBJECT__10
10
0
20
0
30
0
70
128
71
26
72
37
73
35
0
VERTEX
8
OBJECT__10
10
0
20
0
30
0
70
128
71
35
72
24
73
26
0
VERTEX
8
OBJECT__10
10
0
20
0
30
0
70
128
71
37
72
36
73
35
0
VERTEX
8
OBJECT__10
10
0
20
0
30
0
70
128
71
33
72
28
73
35
0
VERTEX
8
OBJECT__10
10
0
20
0
30
0
70
128
71
11
72
2
73
13
0
VERTEX
8
OBJECT__10
10
0
20
0
30
0
70
128
71
1
72
13
73
2
0
SEQEND
8
OBJECT__10
0
POLYLINE
8
OBJECT__11
66
1
70
64
71
6
72
4
62
253
0
VERTEX
8
OBJECT__11
10
55.599998
20
8.820000
30
24.023001
70
192
0
VERTEX
8
OBJECT__11
10
55.599998
20
8.820000
30
24.033001
70
192
0
VERTEX
8
OBJECT__11
10
35.700001
20
8.820000
30
24.033001
70
192
0
VERTEX
8
OBJECT__11
10
35.700001
20
8.820000
30
23.620001
70
192
0
VERTEX
8
OBJECT__11
10
55.599998
20
8.820000
30
23.620001
70
192
0
VERTEX
8
OBJECT__11
10
35.700001
20
8.820000
30
24.023001
70
192
0
VERTEX
8
OBJECT__11
10
0
20
0
30
0
70
128
71
1
72
2
73
3
0
VERTEX
8
OBJECT__11
10
0
20
0
30
0
70
128
71
4
72
5
73
1
0
VERTEX
8
OBJECT__11
10
0
20
0
30
0
70
128
71
1
72
6
73
4
0
VERTEX
8
OBJECT__11
10
0
20
0
30
0
70
128
71
3
72
6
73
1
0
SEQEND
8
OBJECT__11
0
POLYLINE
8
OBJECT__12
66
1
70
64
71
35
72
33
62
253
0
VERTEX
8
OBJECT__12
10
59.893002
20
-7.705000
30
24.007000
70
192
0
VERTEX
8
OBJECT__12
10
59.674999
20
-7.822000
30
24.417000
70
192
0
VERTEX
8
OBJECT__12
10
60.466000
20
-7.141000
30
24.615999
70
192
0
VERTEX
8
OBJECT__12
10
61.252998
20
-6.613000
30
24.312000
70
192
0
VERTEX
8
OBJECT__12
10
57.035999
20
-8.702000
30
23.664000
70
192
0
VERTEX
8
OBJECT__12
10
56.959999
20
-8.592000
30
24.124001
70
192
0
VERTEX
8
OBJECT__12
10
59.674999
20
-7.822000
30
24.420000
70
192
0
VERTEX
8
OBJECT__12
10
55.599998
20
-8.820000
30
23.620001
70
192
0
VERTEX
8
OBJECT__12
10
56.240002
20
-8.797000
30
24.045000
70
192
0
VERTEX
8
OBJECT__12
10
55.599998
20
-8.820000
30
24.033001
70
192
0
VERTEX
8
OBJECT__12
10
55.599998
20
-8.820000
30
24.035999
70
192
0
VERTEX
8
OBJECT__12
10
61.174999
20
-6.530000
30
24.795000
70
192
0
VERTEX
8
OBJECT__12
10
62.733002
20
-5.188000
30
25.188000
70
192
0
VERTEX
8
OBJECT__12
10
62.194000
20
-5.858000
30
24.523001
70
192
0
VERTEX
8
OBJECT__12
10
63.702999
20
-3.484000
30
24.972000
70
192
0
VERTEX
8
OBJECT__12
10
63.619999
20
-3.671000
30
25.485001
70
192
0
VERTEX
8
OBJECT__12
10
63.813000
20
-2.784000
30
25.555000
70
192
0
VERTEX
8
OBJECT__12
10
64.419998
20
0.000000
30
25.775999
70
192
0
VERTEX
8
OBJECT__12
10
64.386002
20
-0.769000
30
25.202000
70
192
0
VERTEX
8
OBJECT__12
10
64.325996
20
-0.008000
30
25.181000
70
192
0
VERTEX
8
OBJECT__12
10
64.329002
20
-0.055000
30
25.181999
70
192
0
VERTEX
8
OBJECT__12
10
64.264999
20
1.644000
30
25.716999
70
192
0
VERTEX
8
OBJECT__12
10
64.153000
20
2.155000
30
25.121000
70
192
0
VERTEX
8
OBJECT__12
10
62.921001
20
4.919000
30
24.729000
70
192
0
VERTEX
8
OBJECT__12
10
63.875999
20
2.545000
30
25.582001
70
192
0
VERTEX
8
OBJECT__12
10
61.276001
20
6.657000
30
24.304001
70
192
0
VERTEX
8
OBJECT__12
10
62.733002
20
5.188000
30
25.184999
70
192
0
VERTEX
8
OBJECT__12
10
61.192001
20
6.553000
30
24.788000
70
192
0
VERTEX
8
OBJECT__12
10
55.599998
20
8.820000
30
24.023001
70
192
0
VERTEX
8
OBJECT__12
10
55.599998
20
8.820000
30
23.620001
70
192
0
VERTEX
8
OBJECT__12
10
58.416000
20
8.358000
30
23.788000
70
192
0
VERTEX
8
OBJECT__12
10
60.912998
20
7.040000
30
24.211000
70
192
0
VERTEX
8
OBJECT__12
10
59.890999
20
7.706000
30
24.452999
70
192
0
VERTEX
8
OBJECT__12
10
58.333000
20
8.110000
30
24.297001
70
192
0
VERTEX
8
OBJECT__12
10
60.776001
20
6.921000
30
24.681000
70
192
0
VERTEX
8
OBJECT__12
10
0
20
0
30
0
70
128
71
1
72
2
73
3
0
VERTEX
8
OBJECT__12
10
0
20
0
30
0
70
128
71
3
72
4
73
1
0
VERTEX
8
OBJECT__12
10
0
20
0
30
0
70
128
71
1
72
5
73
2
0
VERTEX
8
OBJECT__12
10
0
20
0
30
0
70
128
71
6
72
7
73
2
0
VERTEX
8
OBJECT__12
10
0
20
0
30
0
70
128
71
5
72
8
73
9
0
VERTEX
8
OBJECT__12
10
0
20
0
30
0
70
128
71
9
72
6
73
5
0
VERTEX
8
OBJECT__12
10
0
20
0
30
0
70
128
71
9
72
8
73
10
0
VERTEX
8
OBJECT__12
10
0
20
0
30
0
70
128
71
10
72
11
73
9
0
VERTEX
8
OBJECT__12
10
0
20
0
30
0
70
128
71
2
72
5
73
6
0
VERTEX
8
OBJECT__12
10
0
20
0
30
0
70
128
71
12
72
13
73
14
0
VERTEX
8
OBJECT__12
10
0
20
0
30
0
70
128
71
15
72
14
73
13
0
VERTEX
8
OBJECT__12
10
0
20
0
30
0
70
128
71
13
72
16
73
15
0
VERTEX
8
OBJECT__12
10
0
20
0
30
0
70
128
71
17
72
18
73
19
0
VERTEX
8
OBJECT__12
10
0
20
0
30
0
70
128
71
15
72
16
73
17
0
VERTEX
8
OBJECT__12
10
0
20
0
30
0
70
128
71
19
72
15
73
17
0
VERTEX
8
OBJECT__12
10
0
20
0
30
0
70
128
71
18
72
20
73
21
0
VERTEX
8
OBJECT__12
10
0
20
0
30
0
70
128
71
21
72
19
73
18
0
VERTEX
8
OBJECT__12
10
0
20
0
30
0
70
128
71
20
72
18
73
22
0
VERTEX
8
OBJECT__12
10
0
20
0
30
0
70
128
71
22
72
23
73
20
0
VERTEX
8
OBJECT__12
10
0
20
0
30
0
70
128
71
24
72
23
73
25
0
VERTEX
8
OBJECT__12
10
0
20
0
30
0
70
128
71
26
72
24
73
27
0
VERTEX
8
OBJECT__12
10
0
20
0
30
0
70
128
71
27
72
28
73
26
0
VERTEX
8
OBJECT__12
10
0
20
0
30
0
70
128
71
25
72
27
73
24
0
VERTEX
8
OBJECT__12
10
0
20
0
30
0
70
128
71
29
72
30
73
31
0
VERTEX
8
OBJECT__12
10
0
20
0
30
0
70
128
71
31
72
32
73
33
0
VERTEX
8
OBJECT__12
10
0
20
0
30
0
70
128
71
33
72
34
73
31
0
VERTEX
8
OBJECT__12
10
0
20
0
30
0
70
128
71
35
72
32
73
26
0
VERTEX
8
OBJECT__12
10
0
20
0
30
0
70
128
71
26
72
28
73
35
0
VERTEX
8
OBJECT__12
10
0
20
0
30
0
70
128
71
35
72
33
73
32
0
VERTEX
8
OBJECT__12
10
0
20
0
30
0
70
128
71
31
72
34
73
29
0
VERTEX
8
OBJECT__12
10
0
20
0
30
0
70
128
71
22
72
25
73
23
0
VERTEX
8
OBJECT__12
10
0
20
0
30
0
70
128
71
14
72
4
73
12
0
VERTEX
8
OBJECT__12
10
0
20
0
30
0
70
128
71
3
72
12
73
4
0
SEQEND
8
OBJECT__12
0
POLYLINE
8
OBJECT__13
66
1
70
64
71
20
72
26
62
253
0
VERTEX
8
OBJECT__13
10
58.568001
20
9.006000
30
24.657000
70
192
0
VERTEX
8
OBJECT__13
10
58.333000
20
8.110000
30
24.297001
70
192
0
VERTEX
8
OBJECT__13
10
59.890999
20
7.706000
30
24.452999
70
192
0
VERTEX
8
OBJECT__13
10
61.199001
20
7.595000
30
25.127001
70
192
0
VERTEX
8
OBJECT__13
10
63.139999
20
5.584000
30
25.649000
70
192
0
VERTEX
8
OBJECT__13
10
61.192001
20
6.553000
30
24.788000
70
192
0
VERTEX
8
OBJECT__13
10
60.776001
20
6.921000
30
24.681000
70
192
0
VERTEX
8
OBJECT__13
10
55.599998
20
8.888000
30
24.256001
70
192
0
VERTEX
8
OBJECT__13
10
55.599998
20
8.820000
30
24.033001
70
192
0
VERTEX
8
OBJECT__13
10
55.599998
20
8.891000
30
24.261999
70
192
0
VERTEX
8
OBJECT__13
10
55.599998
20
8.890000
30
24.259001
70
192
0
VERTEX
8
OBJECT__13
10
55.599998
20
8.903000
30
24.281000
70
192
0
VERTEX
8
OBJECT__13
10
55.599998
20
8.895000
30
24.268999
70
192
0
VERTEX
8
OBJECT__13
10
55.599998
20
9.049000
30
24.424999
70
192
0
VERTEX
8
OBJECT__13
10
55.599998
20
8.958000
30
24.350000
70
192
0
VERTEX
8
OBJECT__13
10
55.599998
20
8.920000
30
24.305000
70
192
0
VERTEX
8
OBJECT__13
10
55.599998
20
9.500000
30
24.469999
70
192
0
VERTEX
8
OBJECT__13
10
55.599998
20
9.046000
30
24.423000
70
192
0
VERTEX
8
OBJECT__13
10
55.599998
20
8.820000
30
24.023001
70
192
0
VERTEX
8
OBJECT__13
10
62.733002
20
5.188000
30
25.184999
70
192
0
VERTEX
8
OBJECT__13
10
0
20
0
30
0
70
128
71
1
72
2
73
3
0
VERTEX
8
OBJECT__13
10
0
20
0
30
0
70
128
71
3
72
4
73
1
0
VERTEX
8
OBJECT__13
10
0
20
0
30
0
70
128
71
5
72
4
73
6
0
VERTEX
8
OBJECT__13
10
0
20
0
30
0
70
128
71
4
72
7
73
6
0
VERTEX
8
OBJECT__13
10
0
20
0
30
0
70
128
71
8
72
9
73
2
0
VERTEX
8
OBJECT__13
10
0
20
0
30
0
70
128
71
1
72
10
73
11
0
VERTEX
8
OBJECT__13
10
0
20
0
30
0
70
128
71
1
72
12
73
13
0
VERTEX
8
OBJECT__13
10
0
20
0
30
0
70
128
71
13
72
10
73
1
0
VERTEX
8
OBJECT__13
10
0
20
0
30
0
70
128
71
11
72
8
73
1
0
VERTEX
8
OBJECT__13
10
0
20
0
30
0
70
128
71
1
72
14
73
15
0
VERTEX
8
OBJECT__13
10
0
20
0
30
0
70
128
71
15
72
16
73
1
0
VERTEX
8
OBJECT__13
10
0
20
0
30
0
70
128
71
16
72
12
73
1
0
VERTEX
8
OBJECT__13
10
0
20
0
30
0
70
128
71
2
72
1
73
8
0
VERTEX
8
OBJECT__13
10
0
20
0
30
0
70
128
71
1
72
17
73
14
0
VERTEX
8
OBJECT__13
10
0
20
0
30
0
70
128
71
18
72
9
73
15
0
VERTEX
8
OBJECT__13
10
0
20
0
30
0
70
128
71
15
72
14
73
18
0
VERTEX
8
OBJECT__13
10
0
20
0
30
0
70
128
71
9
72
11
73
10
0
VERTEX
8
OBJECT__13
10
0
20
0
30
0
70
128
71
10
72
13
73
9
0
VERTEX
8
OBJECT__13
10
0
20
0
30
0
70
128
71
13
72
12
73
9
0
VERTEX
8
OBJECT__13
10
0
20
0
30
0
70
128
71
12
72
16
73
9
0
VERTEX
8
OBJECT__13
10
0
20
0
30
0
70
128
71
16
72
15
73
9
0
VERTEX
8
OBJECT__13
10
0
20
0
30
0
70
128
71
9
72
8
73
11
0
VERTEX
8
OBJECT__13
10
0
20
0
30
0
70
128
71
17
72
18
73
14
0
VERTEX
8
OBJECT__13
10
0
20
0
30
0
70
128
71
9
72
19
73
2
0
VERTEX
8
OBJECT__13
10
0
20
0
30
0
70
128
71
6
72
20
73
5
0
VERTEX
8
OBJECT__13
10
0
20
0
30
0
70
128
71
3
72
7
73
4
0
SEQEND
8
OBJECT__13
0
POLYLINE
8
OBJECT__14
66
1
70
64
71
9
72
7
62
253
0
VERTEX
8
OBJECT__14
10
55.599998
20
-9.500000
30
24.471001
70
192
0
VERTEX
8
OBJECT__14
10
55.599998
20
-9.156000
30
24.250999
70
192
0
VERTEX
8
OBJECT__14
10
35.700001
20
-9.156000
30
24.250999
70
192
0
VERTEX
8
OBJECT__14
10
35.700001
20
-8.820000
30
24.035999
70
192
0
VERTEX
8
OBJECT__14
10
50.445000
20
-8.820000
30
24.033001
70
192
0
VERTEX
8
OBJECT__14
10
55.599998
20
-8.820000
30
24.035999
70
192
0
VERTEX
8
OBJECT__14
10
35.700001
20
-8.820000
30
24.033001
70
192
0
VERTEX
8
OBJECT__14
10
55.599998
20
-8.820000
30
24.033001
70
192
0
VERTEX
8
OBJECT__14
10
35.700001
20
-9.500000
30
24.471001
70
192
0
VERTEX
8
OBJECT__14
10
0
20
0
30
0
70
128
71
1
72
2
73
3
0
VERTEX
8
OBJECT__14
10
0
20
0
30
0
70
128
71
4
72
2
73
5
0
VERTEX
8
OBJECT__14
10
0
20
0
30
0
70
128
71
2
72
6
73
5
0
VERTEX
8
OBJECT__14
10
0
20
0
30
0
70
128
71
5
72
7
73
4
0
VERTEX
8
OBJECT__14
10
0
20
0
30
0
70
128
71
6
72
8
73
5
0
VERTEX
8
OBJECT__14
10
0
20
0
30
0
70
128
71
4
72
3
73
2
0
VERTEX
8
OBJECT__14
10
0
20
0
30
0
70
128
71
3
72
9
73
1
0
SEQEND
8
OBJECT__14
0
POLYLINE
8
OBJECT__15
66
1
70
64
71
7
72
5
62
253
0
VERTEX
8
OBJECT__15
10
64.918999
20
0.000000
30
26.250000
70
192
0
VERTEX
8
OBJECT__15
10
64.500999
20
2.815000
30
26.099001
70
192
0
VERTEX
8
OBJECT__15
10
64.264999
20
1.644000
30
25.716999
70
192
0
VERTEX
8
OBJECT__15
10
63.875999
20
2.545000
30
25.582001
70
192
0
VERTEX
8
OBJECT__15
10
63.139999
20
5.584000
30
25.649000
70
192
0
VERTEX
8
OBJECT__15
10
62.733002
20
5.188000
30
25.184999
70
192
0
VERTEX
8
OBJECT__15
10
64.419998
20
0.000000
30
25.775999
70
192
0
VERTEX
8
OBJECT__15
10
0
20
0
30
0
70
128
71
1
72
2
73
3
0
VERTEX
8
OBJECT__15
10
0
20
0
30
0
70
128
71
2
72
4
73
3
0
VERTEX
8
OBJECT__15
10
0
20
0
30
0
70
128
71
2
72
5
73
6
0
VERTEX
8
OBJECT__15
10
0
20
0
30
0
70
128
71
6
72
4
73
2
0
VERTEX
8
OBJECT__15
10
0
20
0
30
0
70
128
71
3
72
7
73
1
0
SEQEND
8
OBJECT__15
0
POLYLINE
8
OBJECT__16
66
1
70
64
71
7
72
5
62
253
0
VERTEX
8
OBJECT__16
10
64.431000
20
-3.034000
30
26.073999
70
192
0
VERTEX
8
OBJECT__16
10
64.918999
20
0.000000
30
26.250000
70
192
0
VERTEX
8
OBJECT__16
10
64.419998
20
0.000000
30
25.775999
70
192
0
VERTEX
8
OBJECT__16
10
63.139000
20
-5.584000
30
25.649000
70
192
0
VERTEX
8
OBJECT__16
10
63.619999
20
-3.671000
30
25.485001
70
192
0
VERTEX
8
OBJECT__16
10
63.813000
20
-2.784000
30
25.555000
70
192
0
VERTEX
8
OBJECT__16
10
62.733002
20
-5.188000
30
25.188000
70
192
0
VERTEX
8
OBJECT__16
10
0
20
0
30
0
70
128
71
1
72
2
73
3
0
VERTEX
8
OBJECT__16
10
0
20
0
30
0
70
128
71
4
72
1
73
5
0
VERTEX
8
OBJECT__16
10
0
20
0
30
0
70
128
71
1
72
6
73
5
0
VERTEX
8
OBJECT__16
10
0
20
0
30
0
70
128
71
5
72
7
73
4
0
VERTEX
8
OBJECT__16
10
0
20
0
30
0
70
128
71
3
72
6
73
1
0
SEQEND
8
OBJECT__16
0
POLYLINE
8
OBJECT__17
66
1
70
64
71
8
72
6
62
253
0
VERTEX
8
OBJECT__17
10
60.466000
20
-7.141000
30
24.615999
70
192
0
VERTEX
8
OBJECT__17
10
59.674999
20
-7.822000
30
24.417000
70
192
0
VERTEX
8
OBJECT__17
10
59.674999
20
-7.822000
30
24.420000
70
192
0
VERTEX
8
OBJECT__17
10
60.870998
20
-7.834000
30
25.054001
70
192
0
VERTEX
8
OBJECT__17
10
59.910000
20
-8.423000
30
24.862000
70
192
0
VERTEX
8
OBJECT__17
10
63.139000
20
-5.584000
30
25.649000
70
192
0
VERTEX
8
OBJECT__17
10
62.733002
20
-5.188000
30
25.188000
70
192
0
VERTEX
8
OBJECT__17
10
61.174999
20
-6.530000
30
24.795000
70
192
0
VERTEX
8
OBJECT__17
10
0
20
0
30
0
70
128
71
1
72
2
73
3
0
VERTEX
8
OBJECT__17
10
0
20
0
30
0
70
128
71
3
72
4
73
1
0
VERTEX
8
OBJECT__17
10
0
20
0
30
0
70
128
71
3
72
5
73
4
0
VERTEX
8
OBJECT__17
10
0
20
0
30
0
70
128
71
6
72
7
73
8
0
VERTEX
8
OBJECT__17
10
0
20
0
30
0
70
128
71
8
72
4
73
6
0
VERTEX
8
OBJECT__17
10
0
20
0
30
0
70
128
71
8
72
1
73
4
0
SEQEND
8
OBJECT__17
0
POLYLINE
8
OBJECT__18
66
1
70
64
71
8
72
6
62
253
0
VERTEX
8
OBJECT__18
10
57.078999
20
-9.380000
30
24.517000
70
192
0
VERTEX
8
OBJECT__18
10
59.910000
20
-8.423000
30
24.862000
70
192
0
VERTEX
8
OBJECT__18
10
59.674999
20
-7.822000
30
24.420000
70
192
0
VERTEX
8
OBJECT__18
10
56.240002
20
-8.797000
30
24.045000
70
192
0
VERTEX
8
OBJECT__18
10
55.599998
20
-8.820000
30
24.035999
70
192
0
VERTEX
8
OBJECT__18
10
55.599998
20
-9.156000
30
24.250999
70
192
0
VERTEX
8
OBJECT__18
10
56.959999
20
-8.592000
30
24.124001
70
192
0
VERTEX
8
OBJECT__18
10
55.599998
20
-9.500000
30
24.471001
70
192
0
VERTEX
8
OBJECT__18
10
0
20
0
30
0
70
128
71
1
72
2
73
3
0
VERTEX
8
OBJECT__18
10
0
20
0
30
0
70
128
71
4
72
5
73
6
0
VERTEX
8
OBJECT__18
10
0
20
0
30
0
70
128
71
1
72
7
73
4
0
VERTEX
8
OBJECT__18
10
0
20
0
30
0
70
128
71
4
72
8
73
1
0
VERTEX
8
OBJECT__18
10
0
20
0
30
0
70
128
71
6
72
8
73
4
0
VERTEX
8
OBJECT__18
10
0
20
0
30
0
70
128
71
3
72
7
73
1
0
SEQEND
8
OBJECT__18
0
POLYLINE
8
OBJECT__19
66
1
70
64
71
32
72
32
62
253
0
VERTEX
8
OBJECT__19
10
26.979000
20
-0.053000
30
25.179001
70
192
0
VERTEX
8
OBJECT__19
10
64.329002
20
-0.055000
30
25.181999
70
192
0
VERTEX
8
OBJECT__19
10
64.325996
20
-0.008000
30
25.181000
70
192
0
VERTEX
8
OBJECT__19
10
26.974001
20
0.008000
30
25.181000
70
192
0
VERTEX
8
OBJECT__19
10
64.153000
20
2.155000
30
25.121000
70
192
0
VERTEX
8
OBJECT__19
10
27.597000
20
3.484000
30
24.972000
70
192
0
VERTEX
8
OBJECT__19
10
26.914000
20
0.769000
30
25.202000
70
192
0
VERTEX
8
OBJECT__19
10
30.047001
20
6.613000
30
24.312000
70
192
0
VERTEX
8
OBJECT__19
10
29.106001
20
5.858000
30
24.523001
70
192
0
VERTEX
8
OBJECT__19
10
32.874001
20
7.727000
30
24.000000
70
192
0
VERTEX
8
OBJECT__19
10
35.700001
20
8.820000
30
23.620001
70
192
0
VERTEX
8
OBJECT__19
10
34.264000
20
8.702000
30
23.664000
70
192
0
VERTEX
8
OBJECT__19
10
31.407000
20
7.705000
30
24.007000
70
192
0
VERTEX
8
OBJECT__19
10
61.276001
20
6.657000
30
24.304001
70
192
0
VERTEX
8
OBJECT__19
10
55.599998
20
8.820000
30
23.620001
70
192
0
VERTEX
8
OBJECT__19
10
60.912998
20
7.040000
30
24.211000
70
192
0
VERTEX
8
OBJECT__19
10
58.416000
20
8.358000
30
23.788000
70
192
0
VERTEX
8
OBJECT__19
10
62.921001
20
4.919000
30
24.729000
70
192
0
VERTEX
8
OBJECT__19
10
63.702999
20
-3.484000
30
24.972000
70
192
0
VERTEX
8
OBJECT__19
10
64.386002
20
-0.769000
30
25.202000
70
192
0
VERTEX
8
OBJECT__19
10
61.252998
20
-6.613000
30
24.312000
70
192
0
VERTEX
8
OBJECT__19
10
62.194000
20
-5.858000
30
24.523001
70
192
0
VERTEX
8
OBJECT__19
10
58.425999
20
-7.727000
30
24.000000
70
192
0
VERTEX
8
OBJECT__19
10
55.599998
20
-8.820000
30
23.620001
70
192
0
VERTEX
8
OBJECT__19
10
57.035999
20
-8.702000
30
23.664000
70
192
0
VERTEX
8
OBJECT__19
10
59.893002
20
-7.705000
30
24.007000
70
192
0
VERTEX
8
OBJECT__19
10
30.024000
20
-6.657000
30
24.304001
70
192
0
VERTEX
8
OBJECT__19
10
35.700001
20
-8.820000
30
23.620001
70
192
0
VERTEX
8
OBJECT__19
10
30.386999
20
-7.040000
30
24.211000
70
192
0
VERTEX
8
OBJECT__19
10
32.883999
20
-8.358000
30
23.788000
70
192
0
VERTEX
8
OBJECT__19
10
27.146999
20
-2.155000
30
25.121000
70
192
0
VERTEX
8
OBJECT__19
10
28.379000
20
-4.919000
30
24.729000
70
192
0
VERTEX
8
OBJECT__19
10
0
20
0
30
0
70
128
71
1
72
2
73
3
0
VERTEX
8
OBJECT__19
10
0
20
0
30
0
70
128
71
3
72
4
73
1
0
VERTEX
8
OBJECT__19
10
0
20
0
30
0
70
128
71
3
72
5
73
4
0
VERTEX
8
OBJECT__19
10
0
20
0
30
0
70
128
71
5
72
6
73
7
0
VERTEX
8
OBJECT__19
10
0
20
0
30
0
70
128
71
5
72
8
73
9
0
VERTEX
8
OBJECT__19
10
0
20
0
30
0
70
128
71
9
72
6
73
5
0
VERTEX
8
OBJECT__19
10
0
20
0
30
0
70
128
71
10
72
11
73
12
0
VERTEX
8
OBJECT__19
10
0
20
0
30
0
70
128
71
13
72
8
73
10
0
VERTEX
8
OBJECT__19
10
0
20
0
30
0
70
128
71
10
72
14
73
15
0
VERTEX
8
OBJECT__19
10
0
20
0
30
0
70
128
71
15
72
14
73
16
0
VERTEX
8
OBJECT__19
10
0
20
0
30
0
70
128
71
16
72
17
73
15
0
VERTEX
8
OBJECT__19
10
0
20
0
30
0
70
128
71
15
72
11
73
10
0
VERTEX
8
OBJECT__19
10
0
20
0
30
0
70
128
71
10
72
8
73
14
0
VERTEX
8
OBJECT__19
10
0
20
0
30
0
70
128
71
8
72
5
73
18
0
VERTEX
8
OBJECT__19
10
0
20
0
30
0
70
128
71
18
72
14
73
8
0
VERTEX
8
OBJECT__19
10
0
20
0
30
0
70
128
71
12
72
13
73
10
0
VERTEX
8
OBJECT__19
10
0
20
0
30
0
70
128
71
7
72
4
73
5
0
VERTEX
8
OBJECT__19
10
0
20
0
30
0
70
128
71
1
72
19
73
20
0
VERTEX
8
OBJECT__19
10
0
20
0
30
0
70
128
71
1
72
21
73
22
0
VERTEX
8
OBJECT__19
10
0
20
0
30
0
70
128
71
22
72
19
73
1
0
VERTEX
8
OBJECT__19
10
0
20
0
30
0
70
128
71
23
72
24
73
25
0
VERTEX
8
OBJECT__19
10
0
20
0
30
0
70
128
71
26
72
21
73
23
0
VERTEX
8
OBJECT__19
10
0
20
0
30
0
70
128
71
23
72
27
73
28
0
VERTEX
8
OBJECT__19
10
0
20
0
30
0
70
128
71
28
72
27
73
29
0
VERTEX
8
OBJECT__19
10
0
20
0
30
0
70
128
71
29
72
30
73
28
0
VERTEX
8
OBJECT__19
10
0
20
0
30
0
70
128
71
28
72
24
73
23
0
VERTEX
8
OBJECT__19
10
0
20
0
30
0
70
128
71
23
72
21
73
27
0
VERTEX
8
OBJECT__19
10
0
20
0
30
0
70
128
71
21
72
1
73
31
0
VERTEX
8
OBJECT__19
10
0
20
0
30
0
70
128
71
31
72
32
73
21
0
VERTEX
8
OBJECT__19
10
0
20
0
30
0
70
128
71
32
72
27
73
21
0
VERTEX
8
OBJECT__19
10
0
20
0
30
0
70
128
71
25
72
26
73
23
0
VERTEX
8
OBJECT__19
10
0
20
0
30
0
70
128
71
20
72
2
73
1
0
SEQEND
8
OBJECT__19
0
POLYLINE
8
OBJECT__20
66
1
70
64
71
4
72
2
62
253
0
VERTEX
8
OBJECT__20
10
59.700001
20
-4.831000
30
-25.667000
70
192
0
VERTEX
8
OBJECT__20
10
59.700001
20
-5.192000
30
-25.731001
70
192
0
VERTEX
8
OBJECT__20
10
31.700001
20
-5.192000
30
-25.731001
70
192
0
VERTEX
8
OBJECT__20
10
31.700001
20
-4.831000
30
-25.667000
70
192
0
VERTEX
8
OBJECT__20
10
0
20
0
30
0
70
128
71
1
72
2
73
3
0
VERTEX
8
OBJECT__20
10
0
20
0
30
0
70
128
71
3
72
4
73
1
0
SEQEND
8
OBJECT__20
0
POLYLINE
8
OBJECT__21
66
1
70
64
71
8
72
6
62
253
0
VERTEX
8
OBJECT__21
10
29.724001
20
-4.792000
30
-25.809000
70
192
0
VERTEX
8
OBJECT__21
10
29.851999
20
-4.461000
30
-25.737000
70
192
0
VERTEX
8
OBJECT__21
10
30.546000
20
-4.691000
30
-25.698999
70
192
0
VERTEX
8
OBJECT__21
10
31.073000
20
-5.150000
30
-25.740000
70
192
0
VERTEX
8
OBJECT__21
10
30.465000
20
-5.035000
30
-25.763000
70
192
0
VERTEX
8
OBJECT__21
10
31.700001
20
-5.192000
30
-25.731001
70
192
0
VERTEX
8
OBJECT__21
10
31.117001
20
-4.796000
30
-25.677000
70
192
0
VERTEX
8
OBJECT__21
10
31.700001
20
-4.831000
30
-25.667000
70
192
0
VERTEX
8
OBJECT__21
10
0
20
0
30
0
70
128
71
1
72
2
73
3
0
VERTEX
8
OBJECT__21
10
0
20
0
30
0
70
128
71
4
72
5
73
3
0
VERTEX
8
OBJECT__21
10
0
20
0
30
0
70
128
71
6
72
4
73
7
0
VERTEX
8
OBJECT__21
10
0
20
0
30
0
70
128
71
7
72
8
73
6
0
VERTEX
8
OBJECT__21
10
0
20
0
30
0
70
128
71
3
72
7
73
4
0
VERTEX
8
OBJECT__21
10
0
20
0
30
0
70
128
71
3
72
5
73
1
0
SEQEND
8
OBJECT__21
0
POLYLINE
8
OBJECT__22
66
1
70
64
71
8
72
6
62
253
0
VERTEX
8
OBJECT__22
10
59.700001
20
-5.192000
30
-25.731001
70
192
0
VERTEX
8
OBJECT__22
10
59.700001
20
-4.831000
30
-25.667000
70
192
0
VERTEX
8
OBJECT__22
10
60.432999
20
-4.776000
30
-25.681999
70
192
0
VERTEX
8
OBJECT__22
10
61.087002
20
-4.994000
30
-25.771000
70
192
0
VERTEX
8
OBJECT__22
10
60.487000
20
-5.127000
30
-25.745001
70
192
0
VERTEX
8
OBJECT__22
10
61.675999
20
-4.792000
30
-25.809000
70
192
0
VERTEX
8
OBJECT__22
10
60.997002
20
-4.653000
30
-25.705999
70
192
0
VERTEX
8
OBJECT__22
10
61.548000
20
-4.461000
30
-25.737000
70
192
0
VERTEX
8
OBJECT__22
10
0
20
0
30
0
70
128
71
1
72
2
73
3
0
VERTEX
8
OBJECT__22
10
0
20
0
30
0
70
128
71
4
72
5
73
3
0
VERTEX
8
OBJECT__22
10
0
20
0
30
0
70
128
71
6
72
4
73
7
0
VERTEX
8
OBJECT__22
10
0
20
0
30
0
70
128
71
7
72
8
73
6
0
VERTEX
8
OBJECT__22
10
0
20
0
30
0
70
128
71
3
72
7
73
4
0
VERTEX
8
OBJECT__22
10
0
20
0
30
0
70
128
71
3
72
5
73
1
0
SEQEND
8
OBJECT__22
0
POLYLINE
8
OBJECT__23
66
1
70
64
71
8
72
6
62
253
0
VERTEX
8
OBJECT__23
10
27.723000
20
-3.326000
30
-26.038000
70
192
0
VERTEX
8
OBJECT__23
10
27.993999
20
-3.084000
30
-25.922001
70
192
0
VERTEX
8
OBJECT__23
10
28.506001
20
-3.617000
30
-25.855000
70
192
0
VERTEX
8
OBJECT__23
10
28.275000
20
-3.900000
30
-25.959000
70
192
0
VERTEX
8
OBJECT__23
10
29.131001
20
-4.089000
30
-25.792999
70
192
0
VERTEX
8
OBJECT__23
10
28.952000
20
-4.401000
30
-25.879000
70
192
0
VERTEX
8
OBJECT__23
10
29.851999
20
-4.461000
30
-25.737000
70
192
0
VERTEX
8
OBJECT__23
10
29.724001
20
-4.792000
30
-25.809000
70
192
0
VERTEX
8
OBJECT__23
10
0
20
0
30
0
70
128
71
1
72
2
73
3
0
VERTEX
8
OBJECT__23
10
0
20
0
30
0
70
128
71
4
72
3
73
5
0
VERTEX
8
OBJECT__23
10
0
20
0
30
0
70
128
71
6
72
5
73
7
0
VERTEX
8
OBJECT__23
10
0
20
0
30
0
70
128
71
7
72
8
73
6
0
VERTEX
8
OBJECT__23
10
0
20
0
30
0
70
128
71
5
72
6
73
4
0
VERTEX
8
OBJECT__23
10
0
20
0
30
0
70
128
71
3
72
4
73
1
0
SEQEND
8
OBJECT__23
0
POLYLINE
8
OBJECT__24
66
1
70
64
71
8
72
6
62
253
0
VERTEX
8
OBJECT__24
10
63.676998
20
-3.326000
30
-26.038000
70
192
0
VERTEX
8
OBJECT__24
10
63.132000
20
-3.894000
30
-25.959999
70
192
0
VERTEX
8
OBJECT__24
10
62.900002
20
-3.611000
30
-25.856001
70
192
0
VERTEX
8
OBJECT__24
10
62.452000
20
-4.398000
30
-25.879000
70
192
0
VERTEX
8
OBJECT__24
10
62.272999
20
-4.086000
30
-25.792999
70
192
0
VERTEX
8
OBJECT__24
10
61.675999
20
-4.792000
30
-25.809000
70
192
0
VERTEX
8
OBJECT__24
10
61.548000
20
-4.461000
30
-25.737000
70
192
0
VERTEX
8
OBJECT__24
10
63.404999
20
-3.085000
30
-25.923000
70
192
0
VERTEX
8
OBJECT__24
10
0
20
0
30
0
70
128
71
1
72
2
73
3
0
VERTEX
8
OBJECT__24
10
0
20
0
30
0
70
128
71
2
72
4
73
5
0
VERTEX
8
OBJECT__24
10
0
20
0
30
0
70
128
71
4
72
6
73
7
0
VERTEX
8
OBJECT__24
10
0
20
0
30
0
70
128
71
7
72
5
73
4
0
VERTEX
8
OBJECT__24
10
0
20
0
30
0
70
128
71
5
72
3
73
2
0
VERTEX
8
OBJECT__24
10
0
20
0
30
0
70
128
71
3
72
8
73
1
0
SEQEND
8
OBJECT__24
0
POLYLINE
8
OBJECT__25
66
1
70
64
71
8
72
6
62
253
0
VERTEX
8
OBJECT__25
10
26.551001
20
0.000000
30
-26.250000
70
192
0
VERTEX
8
OBJECT__25
10
26.889999
20
0.000000
30
-26.117001
70
192
0
VERTEX
8
OBJECT__25
10
27.162001
20
-1.607000
30
-26.062000
70
192
0
VERTEX
8
OBJECT__25
10
26.836000
20
-1.730000
30
-26.193001
70
192
0
VERTEX
8
OBJECT__25
10
27.506001
20
-2.373000
30
-26.000999
70
192
0
VERTEX
8
OBJECT__25
10
27.202999
20
-2.556000
30
-26.125000
70
192
0
VERTEX
8
OBJECT__25
10
27.993999
20
-3.084000
30
-25.922001
70
192
0
VERTEX
8
OBJECT__25
10
27.723000
20
-3.326000
30
-26.038000
70
192
0
VERTEX
8
OBJECT__25
10
0
20
0
30
0
70
128
71
1
72
2
73
3
0
VERTEX
8
OBJECT__25
10
0
20
0
30
0
70
128
71
3
72
4
73
1
0
VERTEX
8
OBJECT__25
10
0
20
0
30
0
70
128
71
4
72
3
73
5
0
VERTEX
8
OBJECT__25
10
0
20
0
30
0
70
128
71
6
72
5
73
7
0
VERTEX
8
OBJECT__25
10
0
20
0
30
0
70
128
71
7
72
8
73
6
0
VERTEX
8
OBJECT__25
10
0
20
0
30
0
70
128
71
5
72
6
73
4
0
SEQEND
8
OBJECT__25
0
POLYLINE
8
OBJECT__26
66
1
70
64
71
8
72
6
62
253
0
VERTEX
8
OBJECT__26
10
64.848999
20
0.000000
30
-26.250000
70
192
0
VERTEX
8
OBJECT__26
10
64.566002
20
-1.726000
30
-26.193001
70
192
0
VERTEX
8
OBJECT__26
10
64.238998
20
-1.603000
30
-26.063000
70
192
0
VERTEX
8
OBJECT__26
10
64.510002
20
0.000000
30
-26.117001
70
192
0
VERTEX
8
OBJECT__26
10
64.197998
20
-2.554000
30
-26.125000
70
192
0
VERTEX
8
OBJECT__26
10
63.895000
20
-2.371000
30
-26.002001
70
192
0
VERTEX
8
OBJECT__26
10
63.404999
20
-3.085000
30
-25.923000
70
192
0
VERTEX
8
OBJECT__26
10
63.676998
20
-3.326000
30
-26.038000
70
192
0
VERTEX
8
OBJECT__26
10
0
20
0
30
0
70
128
71
1
72
2
73
3
0
VERTEX
8
OBJECT__26
10
0
20
0
30
0
70
128
71
2
72
5
73
6
0
VERTEX
8
OBJECT__26
10
0
20
0
30
0
70
128
71
5
72
8
73
7
0
VERTEX
8
OBJECT__26
10
0
20
0
30
0
70
128
71
7
72
6
73
5
0
VERTEX
8
OBJECT__26
10
0
20
0
30
0
70
128
71
6
72
3
73
2
0
VERTEX
8
OBJECT__26
10
0
20
0
30
0
70
128
71
3
72
4
73
1
0
SEQEND
8
OBJECT__26
0
POLYLINE
8
OBJECT__27
66
1
70
64
71
8
72
6
62
253
0
VERTEX
8
OBJECT__27
10
26.635000
20
0.955000
30
-26.233000
70
192
0
VERTEX
8
OBJECT__27
10
26.878000
20
1.847000
30
-26.184999
70
192
0
VERTEX
8
OBJECT__27
10
27.201000
20
1.715000
30
-26.055000
70
192
0
VERTEX
8
OBJECT__27
10
26.972000
20
0.889000
30
-26.099001
70
192
0
VERTEX
8
OBJECT__27
10
26.889999
20
0.000000
30
-26.117001
70
192
0
VERTEX
8
OBJECT__27
10
27.723000
20
3.326000
30
-26.038000
70
192
0
VERTEX
8
OBJECT__27
10
27.995001
20
3.085000
30
-25.923000
70
192
0
VERTEX
8
OBJECT__27
10
26.551001
20
0.000000
30
-26.250000
70
192
0
VERTEX
8
OBJECT__27
10
0
20
0
30
0
70
128
71
1
72
2
73
3
0
VERTEX
8
OBJECT__27
10
0
20
0
30
0
70
128
71
1
72
4
73
5
0
VERTEX
8
OBJECT__27
10
0
20
0
30
0
70
128
71
2
72
6
73
7
0
VERTEX
8
OBJECT__27
10
0
20
0
30
0
70
128
71
7
72
3
73
2
0
VERTEX
8
OBJECT__27
10
0
20
0
30
0
70
128
71
5
72
8
73
1
0
VERTEX
8
OBJECT__27
10
0
20
0
30
0
70
128
71
3
72
4
73
1
0
SEQEND
8
OBJECT__27
0
POLYLINE
8
OBJECT__28
66
1
70
64
71
8
72
6
62
253
0
VERTEX
8
OBJECT__28
10
64.765999
20
0.953000
30
-26.233000
70
192
0
VERTEX
8
OBJECT__28
10
64.428001
20
0.887000
30
-26.099001
70
192
0
VERTEX
8
OBJECT__28
10
64.199997
20
1.712000
30
-26.055000
70
192
0
VERTEX
8
OBJECT__28
10
64.848999
20
0.000000
30
-26.250000
70
192
0
VERTEX
8
OBJECT__28
10
64.510002
20
0.000000
30
-26.117001
70
192
0
VERTEX
8
OBJECT__28
10
64.524002
20
1.843000
30
-26.184999
70
192
0
VERTEX
8
OBJECT__28
10
63.405998
20
3.084000
30
-25.922001
70
192
0
VERTEX
8
OBJECT__28
10
63.678001
20
3.326000
30
-26.039000
70
192
0
VERTEX
8
OBJECT__28
10
0
20
0
30
0
70
128
71
1
72
2
73
3
0
VERTEX
8
OBJECT__28
10
0
20
0
30
0
70
128
71
1
72
4
73
5
0
VERTEX
8
OBJECT__28
10
0
20
0
30
0
70
128
71
6
72
3
73
7
0
VERTEX
8
OBJECT__28
10
0
20
0
30
0
70
128
71
7
72
8
73
6
0
VERTEX
8
OBJECT__28
10
0
20
0
30
0
70
128
71
5
72
2
73
1
0
VERTEX
8
OBJECT__28
10
0
20
0
30
0
70
128
71
3
72
6
73
1
0
SEQEND
8
OBJECT__28
0
POLYLINE
8
OBJECT__29
66
1
70
64
71
8
72
6
62
253
0
VERTEX
8
OBJECT__29
10
28.294001
20
3.917000
30
-25.955999
70
192
0
VERTEX
8
OBJECT__29
10
28.934999
20
4.390000
30
-25.879999
70
192
0
VERTEX
8
OBJECT__29
10
29.115999
20
4.079000
30
-25.794001
70
192
0
VERTEX
8
OBJECT__29
10
27.723000
20
3.326000
30
-26.038000
70
192
0
VERTEX
8
OBJECT__29
10
28.524000
20
3.633000
30
-25.853001
70
192
0
VERTEX
8
OBJECT__29
10
29.724001
20
4.792000
30
-25.809000
70
192
0
VERTEX
8
OBJECT__29
10
29.851999
20
4.461000
30
-25.737000
70
192
0
VERTEX
8
OBJECT__29
10
27.995001
20
3.085000
30
-25.923000
70
192
0
VERTEX
8
OBJECT__29
10
0
20
0
30
0
70
128
71
1
72
2
73
3
0
VERTEX
8
OBJECT__29
10
0
20
0
30
0
70
128
71
4
72
1
73
5
0
VERTEX
8
OBJECT__29
10
0
20
0
30
0
70
128
71
2
72
6
73
7
0
VERTEX
8
OBJECT__29
10
0
20
0
30
0
70
128
71
7
72
3
73
2
0
VERTEX
8
OBJECT__29
10
0
20
0
30
0
70
128
71
5
72
8
73
4
0
VERTEX
8
OBJECT__29
10
0
20
0
30
0
70
128
71
3
72
5
73
1
0
SEQEND
8
OBJECT__29
0
POLYLINE
8
OBJECT__30
66
1
70
64
71
8
72
6
62
253
0
VERTEX
8
OBJECT__30
10
63.676998
20
3.326000
30
-26.038000
70
192
0
VERTEX
8
OBJECT__30
10
63.405998
20
3.084000
30
-25.922001
70
192
0
VERTEX
8
OBJECT__30
10
62.875999
20
3.633000
30
-25.853001
70
192
0
VERTEX
8
OBJECT__30
10
63.105999
20
3.917000
30
-25.955999
70
192
0
VERTEX
8
OBJECT__30
10
62.257999
20
4.095000
30
-25.792000
70
192
0
VERTEX
8
OBJECT__30
10
62.437000
20
4.408000
30
-25.877001
70
192
0
VERTEX
8
OBJECT__30
10
61.548000
20
4.461000
30
-25.737000
70
192
0
VERTEX
8
OBJECT__30
10
61.675999
20
4.792000
30
-25.809000
70
192
0
VERTEX
8
OBJECT__30
10
0
20
0
30
0
70
128
71
1
72
2
73
3
0
VERTEX
8
OBJECT__30
10
0
20
0
30
0
70
128
71
4
72
3
73
5
0
VERTEX
8
OBJECT__30
10
0
20
0
30
0
70
128
71
6
72
5
73
7
0
VERTEX
8
OBJECT__30
10
0
20
0
30
0
70
128
71
7
72
8
73
6
0
VERTEX
8
OBJECT__30
10
0
20
0
30
0
70
128
71
5
72
6
73
4
0
VERTEX
8
OBJECT__30
10
0
20
0
30
0
70
128
71
3
72
4
73
1
0
SEQEND
8
OBJECT__30
0
POLYLINE
8
OBJECT__31
66
1
70
64
71
8
72
6
62
253
0
VERTEX
8
OBJECT__31
10
31.700001
20
5.192000
30
-25.731001
70
192
0
VERTEX
8
OBJECT__31
10
31.700001
20
4.831000
30
-25.667000
70
192
0
VERTEX
8
OBJECT__31
10
30.968000
20
4.776000
30
-25.681999
70
192
0
VERTEX
8
OBJECT__31
10
30.313000
20
4.994000
30
-25.771000
70
192
0
VERTEX
8
OBJECT__31
10
30.914000
20
5.127000
30
-25.743999
70
192
0
VERTEX
8
OBJECT__31
10
29.724001
20
4.792000
30
-25.809000
70
192
0
VERTEX
8
OBJECT__31
10
30.403000
20
4.653000
30
-25.705999
70
192
0
VERTEX
8
OBJECT__31
10
29.851999
20
4.461000
30
-25.737000
70
192
0
VERTEX
8
OBJECT__31
10
0
20
0
30
0
70
128
71
1
72
2
73
3
0
VERTEX
8
OBJECT__31
10
0
20
0
30
0
70
128
71
4
72
5
73
3
0
VERTEX
8
OBJECT__31
10
0
20
0
30
0
70
128
71
6
72
4
73
7
0
VERTEX
8
OBJECT__31
10
0
20
0
30
0
70
128
71
7
72
8
73
6
0
VERTEX
8
OBJECT__31
10
0
20
0
30
0
70
128
71
3
72
7
73
4
0
VERTEX
8
OBJECT__31
10
0
20
0
30
0
70
128
71
3
72
5
73
1
0
SEQEND
8
OBJECT__31
0
POLYLINE
8
OBJECT__32
66
1
70
64
71
8
72
6
62
253
0
VERTEX
8
OBJECT__32
10
61.675999
20
4.792000
30
-25.809000
70
192
0
VERTEX
8
OBJECT__32
10
61.548000
20
4.461000
30
-25.737000
70
192
0
VERTEX
8
OBJECT__32
10
60.848000
20
4.693000
30
-25.698000
70
192
0
VERTEX
8
OBJECT__32
10
60.324001
20
5.151000
30
-25.740000
70
192
0
VERTEX
8
OBJECT__32
10
60.929001
20
5.036000
30
-25.761999
70
192
0
VERTEX
8
OBJECT__32
10
59.700001
20
5.192000
30
-25.731001
70
192
0
VERTEX
8
OBJECT__32
10
60.279999
20
4.797000
30
-25.677000
70
192
0
VERTEX
8
OBJECT__32
10
59.700001
20
4.831000
30
-25.667000
70
192
0
VERTEX
8
OBJECT__32
10
0
20
0
30
0
70
128
71
1
72
2
73
3
0
VERTEX
8
OBJECT__32
10
0
20
0
30
0
70
128
71
4
72
5
73
3
0
VERTEX
8
OBJECT__32
10
0
20
0
30
0
70
128
71
6
72
4
73
7
0
VERTEX
8
OBJECT__32
10
0
20
0
30
0
70
128
71
7
72
8
73
6
0
VERTEX
8
OBJECT__32
10
0
20
0
30
0
70
128
71
3
72
7
73
4
0
VERTEX
8
OBJECT__32
10
0
20
0
30
0
70
128
71
3
72
5
73
1
0
SEQEND
8
OBJECT__32
0
POLYLINE
8
OBJECT__33
66
1
70
64
71
4
72
2
62
253
0
VERTEX
8
OBJECT__33
10
31.700001
20
5.192000
30
-25.731001
70
192
0
VERTEX
8
OBJECT__33
10
59.700001
20
5.192000
30
-25.731001
70
192
0
VERTEX
8
OBJECT__33
10
59.700001
20
4.831000
30
-25.667000
70
192
0
VERTEX
8
OBJECT__33
10
31.700001
20
4.831000
30
-25.667000
70
192
0
VERTEX
8
OBJECT__33
10
0
20
0
30
0
70
128
71
1
72
2
73
3
0
VERTEX
8
OBJECT__33
10
0
20
0
30
0
70
128
71
3
72
4
73
1
0
SEQEND
8
OBJECT__33
0
POLYLINE
8
OBJECT__34
66
1
70
64
71
4
72
2
62
253
0
VERTEX
8
OBJECT__34
10
31.700001
20
3.462000
30
-24.975000
70
192
0
VERTEX
8
OBJECT__34
10
31.700001
20
4.831000
30
-25.667000
70
192
0
VERTEX
8
OBJECT__34
10
59.700001
20
4.831000
30
-25.667000
70
192
0
VERTEX
8
OBJECT__34
10
59.700001
20
3.462000
30
-24.975000
70
192
0
VERTEX
8
OBJECT__34
10
0
20
0
30
0
70
128
71
1
72
2
73
3
0
VERTEX
8
OBJECT__34
10
0
20
0
30
0
70
128
71
3
72
4
73
1
0
SEQEND
8
OBJECT__34
0
POLYLINE
8
OBJECT__35
66
1
70
64
71
4
72
2
62
253
0
VERTEX
8
OBJECT__35
10
31.700001
20
-4.831000
30
-25.667000
70
192
0
VERTEX
8
OBJECT__35
10
31.700001
20
-3.462000
30
-24.975000
70
192
0
VERTEX
8
OBJECT__35
10
59.700001
20
-3.462000
30
-24.975000
70
192
0
VERTEX
8
OBJECT__35
10
59.700001
20
-4.831000
30
-25.667000
70
192
0
VERTEX
8
OBJECT__35
10
0
20
0
30
0
70
128
71
1
72
2
73
3
0
VERTEX
8
OBJECT__35
10
0
20
0
30
0
70
128
71
3
72
4
73
1
0
SEQEND
8
OBJECT__35
0
POLYLINE
8
OBJECT__36
66
1
70
64
71
8
72
6
62
253
0
VERTEX
8
OBJECT__36
10
31.316000
20
3.434000
30
-24.978001
70
192
0
VERTEX
8
OBJECT__36
10
29.254999
20
2.483000
30
-25.091000
70
192
0
VERTEX
8
OBJECT__36
10
29.851999
20
4.461000
30
-25.737000
70
192
0
VERTEX
8
OBJECT__36
10
30.403000
20
4.653000
30
-25.705999
70
192
0
VERTEX
8
OBJECT__36
10
29.351000
20
2.912000
30
-25.195000
70
192
0
VERTEX
8
OBJECT__36
10
31.700001
20
4.831000
30
-25.667000
70
192
0
VERTEX
8
OBJECT__36
10
31.700001
20
3.462000
30
-24.975000
70
192
0
VERTEX
8
OBJECT__36
10
30.968000
20
4.776000
30
-25.681999
70
192
0
VERTEX
8
OBJECT__36
10
0
20
0
30
0
70
128
71
1
72
2
73
3
0
VERTEX
8
OBJECT__36
10
0
20
0
30
0
70
128
71
3
72
4
73
1
0
VERTEX
8
OBJECT__36
10
0
20
0
30
0
70
128
71
3
72
2
73
5
0
VERTEX
8
OBJECT__36
10
0
20
0
30
0
70
128
71
6
72
7
73
1
0
VERTEX
8
OBJECT__36
10
0
20
0
30
0
70
128
71
1
72
8
73
6
0
VERTEX
8
OBJECT__36
10
0
20
0
30
0
70
128
71
4
72
8
73
1
0
SEQEND
8
OBJECT__36
0
POLYLINE
8
OBJECT__37
66
1
70
64
71
6
72
4
62
253
0
VERTEX
8
OBJECT__37
10
27.778000
20
0.000000
30
-25.443001
70
192
0
VERTEX
8
OBJECT__37
10
26.972000
20
0.889000
30
-26.099001
70
192
0
VERTEX
8
OBJECT__37
10
27.201000
20
1.715000
30
-26.055000
70
192
0
VERTEX
8
OBJECT__37
10
28.160000
20
2.151000
30
-25.492001
70
192
0
VERTEX
8
OBJECT__37
10
26.889999
20
0.000000
30
-26.117001
70
192
0
VERTEX
8
OBJECT__37
10
27.995001
20
3.085000
30
-25.923000
70
192
0
VERTEX
8
OBJECT__37
10
0
20
0
30
0
70
128
71
1
72
2
73
3
0
VERTEX
8
OBJECT__37
10
0
20
0
30
0
70
128
71
3
72
4
73
1
0
VERTEX
8
OBJECT__37
10
0
20
0
30
0
70
128
71
1
72
5
73
2
0
VERTEX
8
OBJECT__37
10
0
20
0
30
0
70
128
71
3
72
6
73
4
0
SEQEND
8
OBJECT__37
0
POLYLINE
8
OBJECT__38
66
1
70
64
71
6
72
4
62
253
0
VERTEX
8
OBJECT__38
10
29.351000
20
2.912000
30
-25.195000
70
192
0
VERTEX
8
OBJECT__38
10
28.524000
20
3.633000
30
-25.853001
70
192
0
VERTEX
8
OBJECT__38
10
29.115999
20
4.079000
30
-25.794001
70
192
0
VERTEX
8
OBJECT__38
10
27.995001
20
3.085000
30
-25.923000
70
192
0
VERTEX
8
OBJECT__38
10
28.160000
20
2.151000
30
-25.492001
70
192
0
VERTEX
8
OBJECT__38
10
29.851999
20
4.461000
30
-25.737000
70
192
0
VERTEX
8
OBJECT__38
10
0
20
0
30
0
70
128
71
1
72
2
73
3
0
VERTEX
8
OBJECT__38
10
0
20
0
30
0
70
128
71
1
72
4
73
2
0
VERTEX
8
OBJECT__38
10
0
20
0
30
0
70
128
71
4
72
1
73
5
0
VERTEX
8
OBJECT__38
10
0
20
0
30
0
70
128
71
3
72
6
73
1
0
SEQEND
8
OBJECT__38
0
POLYLINE
8
OBJECT__39
66
1
70
64
71
6
72
4
62
253
0
VERTEX
8
OBJECT__39
10
27.778000
20
0.000000
30
-25.443001
70
192
0
VERTEX
8
OBJECT__39
10
28.160000
20
2.151000
30
-25.492001
70
192
0
VERTEX
8
OBJECT__39
10
28.270000
20
0.884000
30
-25.198000
70
192
0
VERTEX
8
OBJECT__39
10
29.351000
20
2.912000
30
-25.195000
70
192
0
VERTEX
8
OBJECT__39
10
29.254999
20
2.483000
30
-25.091000
70
192
0
VERTEX
8
OBJECT__39
10
28.160000
20
0.000000
30
-25.212999
70
192
0
VERTEX
8
OBJECT__39
10
0
20
0
30
0
70
128
71
1
72
2
73
3
0
VERTEX
8
OBJECT__39
10
0
20
0
30
0
70
128
71
2
72
4
73
5
0
VERTEX
8
OBJECT__39
10
0
20
0
30
0
70
128
71
5
72
3
73
2
0
VERTEX
8
OBJECT__39
10
0
20
0
30
0
70
128
71
3
72
6
73
1
0
SEQEND
8
OBJECT__39
0
POLYLINE
8
OBJECT__40
66
1
70
64
71
6
72
4
62
253
0
VERTEX
8
OBJECT__40
10
28.158001
20
-2.153000
30
-25.493000
70
192
0
VERTEX
8
OBJECT__40
10
28.843000
20
-2.024000
30
-25.132000
70
192
0
VERTEX
8
OBJECT__40
10
29.254999
20
-2.483000
30
-25.091000
70
192
0
VERTEX
8
OBJECT__40
10
27.778000
20
0.000000
30
-25.443001
70
192
0
VERTEX
8
OBJECT__40
10
28.160000
20
0.000000
30
-25.212999
70
192
0
VERTEX
8
OBJECT__40
10
29.351000
20
-2.912000
30
-25.195000
70
192
0
VERTEX
8
OBJECT__40
10
0
20
0
30
0
70
128
71
1
72
2
73
3
0
VERTEX
8
OBJECT__40
10
0
20
0
30
0
70
128
71
1
72
4
73
5
0
VERTEX
8
OBJECT__40
10
0
20
0
30
0
70
128
71
5
72
2
73
1
0
VERTEX
8
OBJECT__40
10
0
20
0
30
0
70
128
71
3
72
6
73
1
0
SEQEND
8
OBJECT__40
0
POLYLINE
8
OBJECT__41
66
1
70
64
71
7
72
5
62
253
0
VERTEX
8
OBJECT__41
10
31.700001
20
-3.462000
30
-24.975000
70
192
0
VERTEX
8
OBJECT__41
10
30.546000
20
-4.691000
30
-25.698999
70
192
0
VERTEX
8
OBJECT__41
10
29.851999
20
-4.461000
30
-25.737000
70
192
0
VERTEX
8
OBJECT__41
10
31.117001
20
-4.796000
30
-25.677000
70
192
0
VERTEX
8
OBJECT__41
10
31.700001
20
-4.831000
30
-25.667000
70
192
0
VERTEX
8
OBJECT__41
10
29.351000
20
-2.912000
30
-25.195000
70
192
0
VERTEX
8
OBJECT__41
10
29.254999
20
-2.483000
30
-25.091000
70
192
0
VERTEX
8
OBJECT__41
10
0
20
0
30
0
70
128
71
1
72
2
73
3
0
VERTEX
8
OBJECT__41
10
0
20
0
30
0
70
128
71
1
72
4
73
2
0
VERTEX
8
OBJECT__41
10
0
20
0
30
0
70
128
71
1
72
5
73
4
0
VERTEX
8
OBJECT__41
10
0
20
0
30
0
70
128
71
3
72
6
73
1
0
VERTEX
8
OBJECT__41
10
0
20
0
30
0
70
128
71
6
72
7
73
1
0
SEQEND
8
OBJECT__41
0
POLYLINE
8
OBJECT__42
66
1
70
64
71
6
72
4
62
253
0
VERTEX
8
OBJECT__42
10
27.778000
20
0.000000
30
-25.443001
70
192
0
VERTEX
8
OBJECT__42
10
28.158001
20
-2.153000
30
-25.493000
70
192
0
VERTEX
8
OBJECT__42
10
27.162001
20
-1.607000
30
-26.062000
70
192
0
VERTEX
8
OBJECT__42
10
27.506001
20
-2.373000
30
-26.000999
70
192
0
VERTEX
8
OBJECT__42
10
27.993999
20
-3.084000
30
-25.922001
70
192
0
VERTEX
8
OBJECT__42
10
26.889999
20
0.000000
30
-26.117001
70
192
0
VERTEX
8
OBJECT__42
10
0
20
0
30
0
70
128
71
1
72
2
73
3
0
VERTEX
8
OBJECT__42
10
0
20
0
30
0
70
128
71
2
72
4
73
3
0
VERTEX
8
OBJECT__42
10
0
20
0
30
0
70
128
71
2
72
5
73
4
0
VERTEX
8
OBJECT__42
10
0
20
0
30
0
70
128
71
3
72
6
73
1
0
SEQEND
8
OBJECT__42
0
POLYLINE
8
OBJECT__43
66
1
70
64
71
6
72
4
62
253
0
VERTEX
8
OBJECT__43
10
28.158001
20
-2.153000
30
-25.493000
70
192
0
VERTEX
8
OBJECT__43
10
29.851999
20
-4.461000
30
-25.737000
70
192
0
VERTEX
8
OBJECT__43
10
29.131001
20
-4.089000
30
-25.792999
70
192
0
VERTEX
8
OBJECT__43
10
28.506001
20
-3.617000
30
-25.855000
70
192
0
VERTEX
8
OBJECT__43
10
29.351000
20
-2.912000
30
-25.195000
70
192
0
VERTEX
8
OBJECT__43
10
27.993999
20
-3.084000
30
-25.922001
70
192
0
VERTEX
8
OBJECT__43
10
0
20
0
30
0
70
128
71
1
72
2
73
3
0
VERTEX
8
OBJECT__43
10
0
20
0
30
0
70
128
71
3
72
4
73
1
0
VERTEX
8
OBJECT__43
10
0
20
0
30
0
70
128
71
2
72
1
73
5
0
VERTEX
8
OBJECT__43
10
0
20
0
30
0
70
128
71
4
72
6
73
1
0
SEQEND
8
OBJECT__43
0
POLYLINE
8
OBJECT__44
66
1
70
64
71
8
72
6
62
253
0
VERTEX
8
OBJECT__44
10
59.700001
20
4.831000
30
-25.667000
70
192
0
VERTEX
8
OBJECT__44
10
60.279999
20
4.797000
30
-25.677000
70
192
0
VERTEX
8
OBJECT__44
10
60.084999
20
3.434000
30
-24.978001
70
192
0
VERTEX
8
OBJECT__44
10
61.548000
20
4.461000
30
-25.737000
70
192
0
VERTEX
8
OBJECT__44
10
62.049000
20
2.912000
30
-25.195000
70
192
0
VERTEX
8
OBJECT__44
10
60.848000
20
4.693000
30
-25.698000
70
192
0
VERTEX
8
OBJECT__44
10
62.145000
20
2.483000
30
-25.091000
70
192
0
VERTEX
8
OBJECT__44
10
59.700001
20
3.462000
30
-24.975000
70
192
0
VERTEX
8
OBJECT__44
10
0
20
0
30
0
70
128
71
1
72
2
73
3
0
VERTEX
8
OBJECT__44
10
0
20
0
30
0
70
128
71
3
72
6
73
4
0
VERTEX
8
OBJECT__44
10
0
20
0
30
0
70
128
71
3
72
2
73
6
0
VERTEX
8
OBJECT__44
10
0
20
0
30
0
70
128
71
4
72
7
73
3
0
VERTEX
8
OBJECT__44
10
0
20
0
30
0
70
128
71
5
72
7
73
4
0
VERTEX
8
OBJECT__44
10
0
20
0
30
0
70
128
71
3
72
8
73
1
0
SEQEND
8
OBJECT__44
0
POLYLINE
8
OBJECT__45
66
1
70
64
71
6
72
4
62
253
0
VERTEX
8
OBJECT__45
10
63.622002
20
0.000000
30
-25.443001
70
192
0
VERTEX
8
OBJECT__45
10
63.242001
20
2.153000
30
-25.493000
70
192
0
VERTEX
8
OBJECT__45
10
64.199997
20
1.712000
30
-26.055000
70
192
0
VERTEX
8
OBJECT__45
10
63.405998
20
3.084000
30
-25.922001
70
192
0
VERTEX
8
OBJECT__45
10
64.428001
20
0.887000
30
-26.099001
70
192
0
VERTEX
8
OBJECT__45
10
64.510002
20
0.000000
30
-26.117001
70
192
0
VERTEX
8
OBJECT__45
10
0
20
0
30
0
70
128
71
1
72
2
73
3
0
VERTEX
8
OBJECT__45
10
0
20
0
30
0
70
128
71
2
72
4
73
3
0
VERTEX
8
OBJECT__45
10
0
20
0
30
0
70
128
71
3
72
5
73
1
0
VERTEX
8
OBJECT__45
10
0
20
0
30
0
70
128
71
5
72
6
73
1
0
SEQEND
8
OBJECT__45
0
POLYLINE
8
OBJECT__46
66
1
70
64
71
6
72
4
62
253
0
VERTEX
8
OBJECT__46
10
62.049000
20
2.912000
30
-25.195000
70
192
0
VERTEX
8
OBJECT__46
10
62.875999
20
3.633000
30
-25.853001
70
192
0
VERTEX
8
OBJECT__46
10
63.405998
20
3.084000
30
-25.922001
70
192
0
VERTEX
8
OBJECT__46
10
61.548000
20
4.461000
30
-25.737000
70
192
0
VERTEX
8
OBJECT__46
10
62.257999
20
4.095000
30
-25.792000
70
192
0
VERTEX
8
OBJECT__46
10
63.242001
20
2.153000
30
-25.493000
70
192
0
VERTEX
8
OBJECT__46
10
0
20
0
30
0
70
128
71
1
72
2
73
3
0
VERTEX
8
OBJECT__46
10
0
20
0
30
0
70
128
71
1
72
4
73
5
0
VERTEX
8
OBJECT__46
10
0
20
0
30
0
70
128
71
5
72
2
73
1
0
VERTEX
8
OBJECT__46
10
0
20
0
30
0
70
128
71
3
72
6
73
1
0
SEQEND
8
OBJECT__46
0
POLYLINE
8
OBJECT__47
66
1
70
64
71
16
72
14
62
253
0
VERTEX
8
OBJECT__47
10
60.084999
20
3.434000
30
-24.978001
70
192
0
VERTEX
8
OBJECT__47
10
62.555000
20
-2.026000
30
-25.132000
70
192
0
VERTEX
8
OBJECT__47
10
62.145000
20
-2.483000
30
-25.091000
70
192
0
VERTEX
8
OBJECT__47
10
63.130001
20
0.883000
30
-25.198000
70
192
0
VERTEX
8
OBJECT__47
10
63.240002
20
0.000000
30
-25.212999
70
192
0
VERTEX
8
OBJECT__47
10
62.145000
20
2.483000
30
-25.091000
70
192
0
VERTEX
8
OBJECT__47
10
59.700001
20
-3.462000
30
-24.975000
70
192
0
VERTEX
8
OBJECT__47
10
59.700001
20
3.462000
30
-24.975000
70
192
0
VERTEX
8
OBJECT__47
10
31.700001
20
-3.462000
30
-24.975000
70
192
0
VERTEX
8
OBJECT__47
10
31.700001
20
3.462000
30
-24.975000
70
192
0
VERTEX
8
OBJECT__47
10
31.316000
20
3.434000
30
-24.978001
70
192
0
VERTEX
8
OBJECT__47
10
28.843000
20
-2.024000
30
-25.132000
70
192
0
VERTEX
8
OBJECT__47
10
28.160000
20
0.000000
30
-25.212999
70
192
0
VERTEX
8
OBJECT__47
10
28.270000
20
0.884000
30
-25.198000
70
192
0
VERTEX
8
OBJECT__47
10
29.254999
20
-2.483000
30
-25.091000
70
192
0
VERTEX
8
OBJECT__47
10
29.254999
20
2.483000
30
-25.091000
70
192
0
VERTEX
8
OBJECT__47
10
0
20
0
30
0
70
128
71
1
72
2
73
3
0
VERTEX
8
OBJECT__47
10
0
20
0
30
0
70
128
71
1
72
4
73
5
0
VERTEX
8
OBJECT__47
10
0
20
0
30
0
70
128
71
1
72
6
73
4
0
VERTEX
8
OBJECT__47
10
0
20
0
30
0
70
128
71
5
72
2
73
1
0
VERTEX
8
OBJECT__47
10
0
20
0
30
0
70
128
71
7
72
8
73
1
0
VERTEX
8
OBJECT__47
10
0
20
0
30
0
70
128
71
9
72
10
73
8
0
VERTEX
8
OBJECT__47
10
0
20
0
30
0
70
128
71
8
72
7
73
9
0
VERTEX
8
OBJECT__47
10
0
20
0
30
0
70
128
71
11
72
12
73
13
0
VERTEX
8
OBJECT__47
10
0
20
0
30
0
70
128
71
13
72
14
73
11
0
VERTEX
8
OBJECT__47
10
0
20
0
30
0
70
128
71
11
72
9
73
15
0
VERTEX
8
OBJECT__47
10
0
20
0
30
0
70
128
71
15
72
12
73
11
0
VERTEX
8
OBJECT__47
10
0
20
0
30
0
70
128
71
14
72
16
73
11
0
VERTEX
8
OBJECT__47
10
0
20
0
30
0
70
128
71
11
72
10
73
9
0
VERTEX
8
OBJECT__47
10
0
20
0
30
0
70
128
71
3
72
7
73
1
0
SEQEND
8
OBJECT__47
0
POLYLINE
8
OBJECT__48
66
1
70
64
71
6
72
4
62
253
0
VERTEX
8
OBJECT__48
10
63.242001
20
2.153000
30
-25.493000
70
192
0
VERTEX
8
OBJECT__48
10
63.130001
20
0.883000
30
-25.198000
70
192
0
VERTEX
8
OBJECT__48
10
62.145000
20
2.483000
30
-25.091000
70
192
0
VERTEX
8
OBJECT__48
10
63.622002
20
0.000000
30
-25.443001
70
192
0
VERTEX
8
OBJECT__48
10
63.240002
20
0.000000
30
-25.212999
70
192
0
VERTEX
8
OBJECT__48
10
62.049000
20
2.912000
30
-25.195000
70
192
0
VERTEX
8
OBJECT__48
10
0
20
0
30
0
70
128
71
1
72
2
73
3
0
VERTEX
8
OBJECT__48
10
0
20
0
30
0
70
128
71
4
72
5
73
2
0
VERTEX
8
OBJECT__48
10
0
20
0
30
0
70
128
71
2
72
1
73
4
0
VERTEX
8
OBJECT__48
10
0
20
0
30
0
70
128
71
3
72
6
73
1
0
SEQEND
8
OBJECT__48
0
POLYLINE
8
OBJECT__49
66
1
70
64
71
6
72
4
62
253
0
VERTEX
8
OBJECT__49
10
63.240002
20
-2.151000
30
-25.492001
70
192
0
VERTEX
8
OBJECT__49
10
62.555000
20
-2.026000
30
-25.132000
70
192
0
VERTEX
8
OBJECT__49
10
63.240002
20
0.000000
30
-25.212999
70
192
0
VERTEX
8
OBJECT__49
10
62.049000
20
-2.912000
30
-25.195000
70
192
0
VERTEX
8
OBJECT__49
10
62.145000
20
-2.483000
30
-25.091000
70
192
0
VERTEX
8
OBJECT__49
10
63.622002
20
0.000000
30
-25.443001
70
192
0
VERTEX
8
OBJECT__49
10
0
20
0
30
0
70
128
71
1
72
2
73
3
0
VERTEX
8
OBJECT__49
10
0
20
0
30
0
70
128
71
1
72
4
73
5
0
VERTEX
8
OBJECT__49
10
0
20
0
30
0
70
128
71
5
72
2
73
1
0
VERTEX
8
OBJECT__49
10
0
20
0
30
0
70
128
71
3
72
6
73
1
0
SEQEND
8
OBJECT__49
0
POLYLINE
8
OBJECT__50
66
1
70
64
71
7
72
5
62
253
0
VERTEX
8
OBJECT__50
10
59.700001
20
-3.462000
30
-24.975000
70
192
0
VERTEX
8
OBJECT__50
10
60.997002
20
-4.653000
30
-25.705999
70
192
0
VERTEX
8
OBJECT__50
10
60.432999
20
-4.776000
30
-25.681999
70
192
0
VERTEX
8
OBJECT__50
10
62.049000
20
-2.912000
30
-25.195000
70
192
0
VERTEX
8
OBJECT__50
10
61.548000
20
-4.461000
30
-25.737000
70
192
0
VERTEX
8
OBJECT__50
10
62.145000
20
-2.483000
30
-25.091000
70
192
0
VERTEX
8
OBJECT__50
10
59.700001
20
-4.831000
30
-25.667000
70
192
0
VERTEX
8
OBJECT__50
10
0
20
0
30
0
70
128
71
1
72
2
73
3
0
VERTEX
8
OBJECT__50
10
0
20
0
30
0
70
128
71
1
72
4
73
5
0
VERTEX
8
OBJECT__50
10
0
20
0
30
0
70
128
71
5
72
2
73
1
0
VERTEX
8
OBJECT__50
10
0
20
0
30
0
70
128
71
1
72
6
73
4
0
VERTEX
8
OBJECT__50
10
0
20
0
30
0
70
128
71
3
72
7
73
1
0
SEQEND
8
OBJECT__50
0
POLYLINE
8
OBJECT__51
66
1
70
64
71
6
72
4
62
253
0
VERTEX
8
OBJECT__51
10
63.622002
20
0.000000
30
-25.443001
70
192
0
VERTEX
8
OBJECT__51
10
64.510002
20
0.000000
30
-26.117001
70
192
0
VERTEX
8
OBJECT__51
10
64.238998
20
-1.603000
30
-26.063000
70
192
0
VERTEX
8
OBJECT__51
10
63.240002
20
-2.151000
30
-25.492001
70
192
0
VERTEX
8
OBJECT__51
10
63.895000
20
-2.371000
30
-26.002001
70
192
0
VERTEX
8
OBJECT__51
10
63.404999
20
-3.085000
30
-25.923000
70
192
0
VERTEX
8
OBJECT__51
10
0
20
0
30
0
70
128
71
1
72
2
73
3
0
VERTEX
8
OBJECT__51
10
0
20
0
30
0
70
128
71
3
72
4
73
1
0
VERTEX
8
OBJECT__51
10
0
20
0
30
0
70
128
71
3
72
5
73
4
0
VERTEX
8
OBJECT__51
10
0
20
0
30
0
70
128
71
5
72
6
73
4
0
SEQEND
8
OBJECT__51
0
POLYLINE
8
OBJECT__52
66
1
70
64
71
6
72
4
62
253
0
VERTEX
8
OBJECT__52
10
62.049000
20
-2.912000
30
-25.195000
70
192
0
VERTEX
8
OBJECT__52
10
62.900002
20
-3.611000
30
-25.856001
70
192
0
VERTEX
8
OBJECT__52
10
62.272999
20
-4.086000
30
-25.792999
70
192
0
VERTEX
8
OBJECT__52
10
63.240002
20
-2.151000
30
-25.492001
70
192
0
VERTEX
8
OBJECT__52
10
63.404999
20
-3.085000
30
-25.923000
70
192
0
VERTEX
8
OBJECT__52
10
61.548000
20
-4.461000
30
-25.737000
70
192
0
VERTEX
8
OBJECT__52
10
0
20
0
30
0
70
128
71
1
72
2
73
3
0
VERTEX
8
OBJECT__52
10
0
20
0
30
0
70
128
71
1
72
4
73
5
0
VERTEX
8
OBJECT__52
10
0
20
0
30
0
70
128
71
5
72
2
73
1
0
VERTEX
8
OBJECT__52
10
0
20
0
30
0
70
128
71
3
72
6
73
1
0
SEQEND
8
OBJECT__52
0
POLYLINE
8
OBJECT__53
66
1
70
64
71
14
72
12
62
253
0
VERTEX
8
OBJECT__53
10
10.000000
20
25.973000
30
6.402000
70
192
0
VERTEX
8
OBJECT__53
10
10.000000
20
9.486000
30
25.011999
70
192
0
VERTEX
8
OBJECT__53
10
10.000000
20
-3.224000
30
26.555000
70
192
0
VERTEX
8
OBJECT__53
10
10.000000
20
-26.750000
30
0.000000
70
192
0
VERTEX
8
OBJECT__53
10
10.000000
20
-3.224000
30
-26.555000
70
192
0
VERTEX
8
OBJECT__53
10
10.000000
20
9.486000
30
-25.011999
70
192
0
VERTEX
8
OBJECT__53
10
10.000000
20
-15.196000
30
22.014999
70
192
0
VERTEX
8
OBJECT__53
10
10.000000
20
-23.686001
30
12.431000
70
192
0
VERTEX
8
OBJECT__53
10
10.000000
20
20.023001
30
17.739000
70
192
0
VERTEX
8
OBJECT__53
10
10.000000
20
20.023001
30
-17.739000
70
192
0
VERTEX
8
OBJECT__53
10
10.000000
20
-23.686001
30
-12.431000
70
192
0
VERTEX
8
OBJECT__53
10
10.000000
20
-15.196000
30
-22.014999
70
192
0
VERTEX
8
OBJECT__53
10
10.000000
20
26.750000
30
0.000000
70
192
0
VERTEX
8
OBJECT__53
10
10.000000
20
25.973000
30
-6.402000
70
192
0
VERTEX
8
OBJECT__53
10
0
20
0
30
0
70
128
71
1
72
2
73
3
0
VERTEX
8
OBJECT__53
10
0
20
0
30
0
70
128
71
4
72
5
73
6
0
VERTEX
8
OBJECT__53
10
0
20
0
30
0
70
128
71
1
72
7
73
8
0
VERTEX
8
OBJECT__53
10
0
20
0
30
0
70
128
71
1
72
9
73
2
0
VERTEX
8
OBJECT__53
10
0
20
0
30
0
70
128
71
6
72
10
73
4
0
VERTEX
8
OBJECT__53
10
0
20
0
30
0
70
128
71
5
72
4
73
11
0
VERTEX
8
OBJECT__53
10
0
20
0
30
0
70
128
71
3
72
7
73
1
0
VERTEX
8
OBJECT__53
10
0
20
0
30
0
70
128
71
11
72
12
73
5
0
VERTEX
8
OBJECT__53
10
0
20
0
30
0
70
128
71
4
72
13
73
1
0
VERTEX
8
OBJECT__53
10
0
20
0
30
0
70
128
71
10
72
14
73
4
0
VERTEX
8
OBJECT__53
10
0
20
0
30
0
70
128
71
14
72
13
73
4
0
VERTEX
8
OBJECT__53
10
0
20
0
30
0
70
128
71
8
72
4
73
1
0
SEQEND
8
OBJECT__53
0
POLYLINE
8
OBJECT__54
66
1
70
64
71
69
72
69
62
253
0
VERTEX
8
OBJECT__54
10
10.000000
20
-3.224000
30
-26.555000
70
192
0
VERTEX
8
OBJECT__54
10
10.000000
20
-15.196000
30
-22.014999
70
192
0
VERTEX
8
OBJECT__54
10
12.793000
20
-10.991000
30
-24.388000
70
192
0
VERTEX
8
OBJECT__54
10
12.776000
20
-6.285000
30
-26.000999
70
192
0
VERTEX
8
OBJECT__54
10
12.814000
20
-14.537000
30
-22.455000
70
192
0
VERTEX
8
OBJECT__54
10
12.820000
20
-15.158000
30
-21.966000
70
192
0
VERTEX
8
OBJECT__54
10
10.000000
20
9.486000
30
-25.011999
70
192
0
VERTEX
8
OBJECT__54
10
12.770000
20
2.675000
30
-26.615999
70
192
0
VERTEX
8
OBJECT__54
10
12.770000
20
-2.299000
30
-26.650999
70
192
0
VERTEX
8
OBJECT__54
10
12.770000
20
0.000000
30
-26.635000
70
192
0
VERTEX
8
OBJECT__54
10
12.771000
20
-3.216000
30
-26.502001
70
192
0
VERTEX
8
OBJECT__54
10
12.777000
20
6.652000
30
-25.910000
70
192
0
VERTEX
8
OBJECT__54
10
10.000000
20
20.023001
30
-17.739000
70
192
0
VERTEX
8
OBJECT__54
10
12.817000
20
14.853000
30
-22.247000
70
192
0
VERTEX
8
OBJECT__54
10
12.788000
20
9.448000
30
-24.907000
70
192
0
VERTEX
8
OBJECT__54
10
12.795000
20
11.334000
30
-24.230000
70
192
0
VERTEX
8
OBJECT__54
10
12.852000
20
18.716000
30
-19.113001
70
192
0
VERTEX
8
OBJECT__54
10
12.889000
20
21.379999
30
-16.076000
70
192
0
VERTEX
8
OBJECT__54
10
12.943000
20
23.987000
30
-11.839000
70
192
0
VERTEX
8
OBJECT__54
10
12.870000
20
19.965000
30
-17.688000
70
192
0
VERTEX
8
OBJECT__54
10
10.000000
20
25.973000
30
-6.402000
70
192
0
VERTEX
8
OBJECT__54
10
12.994000
20
25.497000
30
-8.091000
70
192
0
VERTEX
8
OBJECT__54
10
10.000000
20
25.973000
30
6.402000
70
192
0
VERTEX
8
OBJECT__54
10
10.000000
20
26.750000
30
0.000000
70
192
0
VERTEX
8
OBJECT__54
10
13.127000
20
26.738001
30
0.805000
70
192
0
VERTEX
8
OBJECT__54
10
13.207000
20
26.125999
30
5.742000
70
192
0
VERTEX
8
OBJECT__54
10
13.019000
20
25.868999
30
-6.379000
70
192
0
VERTEX
8
OBJECT__54
10
13.065000
20
26.554001
30
-3.231000
70
192
0
VERTEX
8
OBJECT__54
10
10.000000
20
20.023001
30
17.739000
70
192
0
VERTEX
8
OBJECT__54
10
13.354000
20
22.753000
30
14.067000
70
192
0
VERTEX
8
OBJECT__54
10
13.415000
20
20.375999
30
17.330999
70
192
0
VERTEX
8
OBJECT__54
10
13.273000
20
24.964001
30
9.610000
70
192
0
VERTEX
8
OBJECT__54
10
13.230000
20
25.733000
30
7.052000
70
192
0
VERTEX
8
OBJECT__54
10
13.218000
20
25.931999
30
6.389000
70
192
0
VERTEX
8
OBJECT__54
10
10.000000
20
9.486000
30
25.011999
70
192
0
VERTEX
8
OBJECT__54
10
13.483000
20
16.815001
30
20.804001
70
192
0
VERTEX
8
OBJECT__54
10
13.529000
20
13.493000
30
23.098000
70
192
0
VERTEX
8
OBJECT__54
10
13.423000
20
19.990999
30
17.705999
70
192
0
VERTEX
8
OBJECT__54
10
10.000000
20
-3.224000
30
26.555000
70
192
0
VERTEX
8
OBJECT__54
10
13.594000
20
5.088000
30
26.261999
70
192
0
VERTEX
8
OBJECT__54
10
13.604000
20
0.138000
30
26.750000
70
192
0
VERTEX
8
OBJECT__54
10
13.567000
20
9.467000
30
24.971001
70
192
0
VERTEX
8
OBJECT__54
10
13.572000
20
8.983000
30
25.197001
70
192
0
VERTEX
8
OBJECT__54
10
13.604000
20
0.000000
30
26.740000
70
192
0
VERTEX
8
OBJECT__54
10
10.000000
20
-15.196000
30
22.014999
70
192
0
VERTEX
8
OBJECT__54
10
13.574000
20
-8.723000
30
25.288000
70
192
0
VERTEX
8
OBJECT__54
10
13.599000
20
-3.221000
30
26.513000
70
192
0
VERTEX
8
OBJECT__54
10
13.598000
20
-3.891000
30
26.465000
70
192
0
VERTEX
8
OBJECT__54
10
13.541000
20
-12.433000
30
23.684999
70
192
0
VERTEX
8
OBJECT__54
10
10.000000
20
-23.686001
30
12.431000
70
192
0
VERTEX
8
OBJECT__54
10
13.433000
20
-19.573000
30
18.233999
70
192
0
VERTEX
8
OBJECT__54
10
13.505000
20
-15.138000
30
21.926001
70
192
0
VERTEX
8
OBJECT__54
10
13.486000
20
-16.603001
30
20.974001
70
192
0
VERTEX
8
OBJECT__54
10
13.358000
20
-22.610001
30
14.295000
70
192
0
VERTEX
8
OBJECT__54
10
13.230000
20
-25.721001
30
7.052000
70
192
0
VERTEX
8
OBJECT__54
10
13.211000
20
-26.068001
30
6.004000
70
192
0
VERTEX
8
OBJECT__54
10
13.324000
20
-23.618999
30
12.396000
70
192
0
VERTEX
8
OBJECT__54
10
13.293000
20
-24.504999
30
10.727000
70
192
0
VERTEX
8
OBJECT__54
10
10.000000
20
-26.750000
30
0.000000
70
192
0
VERTEX
8
OBJECT__54
10
13.146000
20
-26.674000
30
2.011000
70
192
0
VERTEX
8
OBJECT__54
10
10.000000
20
-23.686001
30
-12.431000
70
192
0
VERTEX
8
OBJECT__54
10
13.011000
20
-25.836000
30
-6.932000
70
192
0
VERTEX
8
OBJECT__54
10
12.946000
20
-24.106001
30
-11.596000
70
192
0
VERTEX
8
OBJECT__54
10
13.069000
20
-26.584999
30
-2.963000
70
192
0
VERTEX
8
OBJECT__54
10
13.115000
20
-26.638000
30
0.002000
70
192
0
VERTEX
8
OBJECT__54
10
12.855000
20
-18.909000
30
-18.922001
70
192
0
VERTEX
8
OBJECT__54
10
12.849000
20
-18.433001
30
-19.385000
70
192
0
VERTEX
8
OBJECT__54
10
12.901000
20
-22.084999
30
-15.093000
70
192
0
VERTEX
8
OBJECT__54
10
12.936000
20
-23.639000
30
-12.404000
70
192
0
VERTEX
8
OBJECT__54
10
0
20
0
30
0
70
128
71
1
72
2
73
3
0
VERTEX
8
OBJECT__54
10
0
20
0
30
0
70
128
71
3
72
4
73
1
0
VERTEX
8
OBJECT__54
10
0
20
0
30
0
70
128
71
2
72
5
73
3
0
VERTEX
8
OBJECT__54
10
0
20
0
30
0
70
128
71
2
72
6
73
5
0
VERTEX
8
OBJECT__54
10
0
20
0
30
0
70
128
71
7
72
1
73
8
0
VERTEX
8
OBJECT__54
10
0
20
0
30
0
70
128
71
1
72
9
73
10
0
VERTEX
8
OBJECT__54
10
0
20
0
30
0
70
128
71
10
72
8
73
1
0
VERTEX
8
OBJECT__54
10
0
20
0
30
0
70
128
71
1
72
11
73
9
0
VERTEX
8
OBJECT__54
10
0
20
0
30
0
70
128
71
8
72
12
73
7
0
VERTEX
8
OBJECT__54
10
0
20
0
30
0
70
128
71
13
72
7
73
14
0
VERTEX
8
OBJECT__54
10
0
20
0
30
0
70
128
71
7
72
15
73
16
0
VERTEX
8
OBJECT__54
10
0
20
0
30
0
70
128
71
16
72
14
73
7
0
VERTEX
8
OBJECT__54
10
0
20
0
30
0
70
128
71
14
72
17
73
13
0
VERTEX
8
OBJECT__54
10
0
20
0
30
0
70
128
71
13
72
18
73
19
0
VERTEX
8
OBJECT__54
10
0
20
0
30
0
70
128
71
13
72
20
73
18
0
VERTEX
8
OBJECT__54
10
0
20
0
30
0
70
128
71
19
72
21
73
13
0
VERTEX
8
OBJECT__54
10
0
20
0
30
0
70
128
71
19
72
22
73
21
0
VERTEX
8
OBJECT__54
10
0
20
0
30
0
70
128
71
23
72
24
73
25
0
VERTEX
8
OBJECT__54
10
0
20
0
30
0
70
128
71
25
72
26
73
23
0
VERTEX
8
OBJECT__54
10
0
20
0
30
0
70
128
71
21
72
27
73
28
0
VERTEX
8
OBJECT__54
10
0
20
0
30
0
70
128
71
28
72
24
73
21
0
VERTEX
8
OBJECT__54
10
0
20
0
30
0
70
128
71
28
72
25
73
24
0
VERTEX
8
OBJECT__54
10
0
20
0
30
0
70
128
71
29
72
30
73
31
0
VERTEX
8
OBJECT__54
10
0
20
0
30
0
70
128
71
23
72
32
73
30
0
VERTEX
8
OBJECT__54
10
0
20
0
30
0
70
128
71
30
72
29
73
23
0
VERTEX
8
OBJECT__54
10
0
20
0
30
0
70
128
71
23
72
33
73
32
0
VERTEX
8
OBJECT__54
10
0
20
0
30
0
70
128
71
23
72
34
73
33
0
VERTEX
8
OBJECT__54
10
0
20
0
30
0
70
128
71
35
72
29
73
36
0
VERTEX
8
OBJECT__54
10
0
20
0
30
0
70
128
71
36
72
37
73
35
0
VERTEX
8
OBJECT__54
10
0
20
0
30
0
70
128
71
29
72
38
73
36
0
VERTEX
8
OBJECT__54
10
0
20
0
30
0
70
128
71
39
72
35
73
40
0
VERTEX
8
OBJECT__54
10
0
20
0
30
0
70
128
71
40
72
41
73
39
0
VERTEX
8
OBJECT__54
10
0
20
0
30
0
70
128
71
35
72
42
73
43
0
VERTEX
8
OBJECT__54
10
0
20
0
30
0
70
128
71
43
72
40
73
35
0
VERTEX
8
OBJECT__54
10
0
20
0
30
0
70
128
71
41
72
44
73
39
0
VERTEX
8
OBJECT__54
10
0
20
0
30
0
70
128
71
45
72
39
73
46
0
VERTEX
8
OBJECT__54
10
0
20
0
30
0
70
128
71
39
72
47
73
48
0
VERTEX
8
OBJECT__54
10
0
20
0
30
0
70
128
71
48
72
46
73
39
0
VERTEX
8
OBJECT__54
10
0
20
0
30
0
70
128
71
46
72
49
73
45
0
VERTEX
8
OBJECT__54
10
0
20
0
30
0
70
128
71
50
72
45
73
51
0
VERTEX
8
OBJECT__54
10
0
20
0
30
0
70
128
71
45
72
52
73
53
0
VERTEX
8
OBJECT__54
10
0
20
0
30
0
70
128
71
53
72
51
73
45
0
VERTEX
8
OBJECT__54
10
0
20
0
30
0
70
128
71
51
72
54
73
50
0
VERTEX
8
OBJECT__54
10
0
20
0
30
0
70
128
71
50
72
55
73
56
0
VERTEX
8
OBJECT__54
10
0
20
0
30
0
70
128
71
50
72
57
73
58
0
VERTEX
8
OBJECT__54
10
0
20
0
30
0
70
128
71
58
72
55
73
50
0
VERTEX
8
OBJECT__54
10
0
20
0
30
0
70
128
71
56
72
59
73
50
0
VERTEX
8
OBJECT__54
10
0
20
0
30
0
70
128
71
56
72
60
73
59
0
VERTEX
8
OBJECT__54
10
0
20
0
30
0
70
128
71
61
72
62
73
63
0
VERTEX
8
OBJECT__54
10
0
20
0
30
0
70
128
71
59
72
64
73
62
0
VERTEX
8
OBJECT__54
10
0
20
0
30
0
70
128
71
62
72
61
73
59
0
VERTEX
8
OBJECT__54
10
0
20
0
30
0
70
128
71
59
72
65
73
64
0
VERTEX
8
OBJECT__54
10
0
20
0
30
0
70
128
71
2
72
66
73
67
0
VERTEX
8
OBJECT__54
10
0
20
0
30
0
70
128
71
61
72
68
73
66
0
VERTEX
8
OBJECT__54
10
0
20
0
30
0
70
128
71
66
72
2
73
61
0
VERTEX
8
OBJECT__54
10
0
20
0
30
0
70
128
71
61
72
69
73
68
0
VERTEX
8
OBJECT__54
10
0
20
0
30
0
70
128
71
67
72
6
73
2
0
VERTEX
8
OBJECT__54
10
0
20
0
30
0
70
128
71
63
72
69
73
61
0
VERTEX
8
OBJECT__54
10
0
20
0
30
0
70
128
71
60
72
65
73
59
0
VERTEX
8
OBJECT__54
10
0
20
0
30
0
70
128
71
54
72
57
73
50
0
VERTEX
8
OBJECT__54
10
0
20
0
30
0
70
128
71
49
72
52
73
45
0
VERTEX
8
OBJECT__54
10
0
20
0
30
0
70
128
71
44
72
47
73
39
0
VERTEX
8
OBJECT__54
10
0
20
0
30
0
70
128
71
37
72
42
73
35
0
VERTEX
8
OBJECT__54
10
0
20
0
30
0
70
128
71
31
72
38
73
29
0
VERTEX
8
OBJECT__54
10
0
20
0
30
0
70
128
71
26
72
34
73
23
0
VERTEX
8
OBJECT__54
10
0
20
0
30
0
70
128
71
22
72
27
73
21
0
VERTEX
8
OBJECT__54
10
0
20
0
30
0
70
128
71
17
72
20
73
13
0
VERTEX
8
OBJECT__54
10
0
20
0
30
0
70
128
71
12
72
15
73
7
0
VERTEX
8
OBJECT__54
10
0
20
0
30
0
70
128
71
4
72
11
73
1
0
SEQEND
8
OBJECT__54
0
POLYLINE
8
OBJECT__56
66
1
70
64
71
142
72
143
62
253
0
VERTEX
8
OBJECT__56
10
13.419000
20
0.000000
30
77.947998
70
192
0
VERTEX
8
OBJECT__56
10
11.635000
20
10.600000
30
146.238998
70
192
0
VERTEX
8
OBJECT__56
10
11.637000
20
8.204000
30
146.641006
70
192
0
VERTEX
8
OBJECT__56
10
11.623000
20
24.635000
30
142.908997
70
192
0
VERTEX
8
OBJECT__56
10
11.632000
20
16.426001
30
145.263000
70
192
0
VERTEX
8
OBJECT__56
10
11.616000
20
30.962999
30
140.292999
70
192
0
VERTEX
8
OBJECT__56
10
11.599000
20
46.542999
30
130.794006
70
192
0
VERTEX
8
OBJECT__56
10
11.605000
20
39.580002
30
135.727997
70
192
0
VERTEX
8
OBJECT__56
10
11.598000
20
48.778999
30
128.796005
70
192
0
VERTEX
8
OBJECT__56
10
11.614000
20
32.278000
30
139.748993
70
192
0
VERTEX
8
OBJECT__56
10
11.618000
20
62.716999
30
112.803001
70
192
0
VERTEX
8
OBJECT__56
10
11.603000
20
58.269001
30
119.073997
70
192
0
VERTEX
8
OBJECT__56
10
11.597000
20
52.709999
30
125.283997
70
192
0
VERTEX
8
OBJECT__56
10
11.646000
20
67.202003
30
104.874001
70
192
0
VERTEX
8
OBJECT__56
10
11.619000
20
63.207001
30
112.112999
70
192
0
VERTEX
8
OBJECT__56
10
11.712000
20
71.453003
30
93.481003
70
192
0
VERTEX
8
OBJECT__56
10
11.687000
20
70.391998
30
97.176003
70
192
0
VERTEX
8
OBJECT__56
10
11.813000
20
74.122002
30
80.820000
70
192
0
VERTEX
8
OBJECT__56
10
11.743000
20
72.748001
30
88.972000
70
192
0
VERTEX
8
OBJECT__56
10
11.842000
20
74.281998
30
77.947998
70
192
0
VERTEX
8
OBJECT__56
10
11.712000
20
-71.461998
30
93.484001
70
192
0
VERTEX
8
OBJECT__56
10
11.744000
20
-72.780998
30
88.825996
70
192
0
VERTEX
8
OBJECT__56
10
11.817000
20
-74.167999
30
80.399002
70
192
0
VERTEX
8
OBJECT__56
10
11.620000
20
-63.280998
30
111.995003
70
192
0
VERTEX
8
OBJECT__56
10
11.648000
20
-67.382004
30
104.497002
70
192
0
VERTEX
8
OBJECT__56
10
11.618000
20
-62.713001
30
112.801003
70
192
0
VERTEX
8
OBJECT__56
10
11.689000
20
-70.528999
30
96.779999
70
192
0
VERTEX
8
OBJECT__56
10
11.598000
20
-48.776001
30
128.794006
70
192
0
VERTEX
8
OBJECT__56
10
11.597000
20
-52.997002
30
124.995003
70
192
0
VERTEX
8
OBJECT__56
10
11.604000
20
-58.521999
30
118.755997
70
192
0
VERTEX
8
OBJECT__56
10
11.605000
20
-39.910999
30
135.518997
70
192
0
VERTEX
8
OBJECT__56
10
11.599000
20
-46.641998
30
130.714996
70
192
0
VERTEX
8
OBJECT__56
10
11.616000
20
-30.955999
30
140.278000
70
192
0
VERTEX
8
OBJECT__56
10
11.614000
20
-32.631001
30
139.578995
70
192
0
VERTEX
8
OBJECT__56
10
11.631000
20
-16.799999
30
145.177002
70
192
0
VERTEX
8
OBJECT__56
10
11.623000
20
-24.742001
30
142.871002
70
192
0
VERTEX
8
OBJECT__56
10
11.635000
20
-10.601000
30
146.248993
70
192
0
VERTEX
8
OBJECT__56
10
11.639000
20
-0.054000
30
147.093994
70
192
0
VERTEX
8
OBJECT__56
10
11.637000
20
-8.585000
30
146.598007
70
192
0
VERTEX
8
OBJECT__56
10
11.639000
20
0.000000
30
147.091003
70
192
0
VERTEX
8
OBJECT__56
10
13.598000
20
-3.891000
30
26.465000
70
192
0
VERTEX
8
OBJECT__56
10
13.599000
20
-3.221000
30
26.513000
70
192
0
VERTEX
8
OBJECT__56
10
13.574000
20
-8.723000
30
25.288000
70
192
0
VERTEX
8
OBJECT__56
10
11.842000
20
-74.296997
30
77.947998
70
192
0
VERTEX
8
OBJECT__56
10
13.541000
20
-12.433000
30
23.684999
70
192
0
VERTEX
8
OBJECT__56
10
13.486000
20
-16.603001
30
20.974001
70
192
0
VERTEX
8
OBJECT__56
10
13.505000
20
-15.138000
30
21.926001
70
192
0
VERTEX
8
OBJECT__56
10
11.898000
20
-74.584999
30
72.500000
70
192
0
VERTEX
8
OBJECT__56
10
11.990000
20
-74.581001
30
22.549999
70
192
0
VERTEX
8
OBJECT__56
10
13.324000
20
-23.618999
30
12.396000
70
192
0
VERTEX
8
OBJECT__56
10
13.358000
20
-22.610001
30
14.295000
70
192
0
VERTEX
8
OBJECT__56
10
13.293000
20
-24.504999
30
10.727000
70
192
0
VERTEX
8
OBJECT__56
10
11.898000
20
-74.584999
30
12.500000
70
192
0
VERTEX
8
OBJECT__56
10
11.842000
20
-74.281998
30
7.052000
70
192
0
VERTEX
8
OBJECT__56
10
13.230000
20
-25.721001
30
7.052000
70
192
0
VERTEX
8
OBJECT__56
10
13.433000
20
-19.573000
30
18.233999
70
192
0
VERTEX
8
OBJECT__56
10
11.813000
20
-74.122002
30
4.180000
70
192
0
VERTEX
8
OBJECT__56
10
13.146000
20
-26.674000
30
2.011000
70
192
0
VERTEX
8
OBJECT__56
10
11.743000
20
-72.748001
30
-3.972000
70
192
0
VERTEX
8
OBJECT__56
10
13.115000
20
-26.638000
30
0.002000
70
192
0
VERTEX
8
OBJECT__56
10
11.712000
20
-71.453003
30
-8.481000
70
192
0
VERTEX
8
OBJECT__56
10
13.069000
20
-26.584999
30
-2.963000
70
192
0
VERTEX
8
OBJECT__56
10
11.687000
20
-70.391998
30
-12.176000
70
192
0
VERTEX
8
OBJECT__56
10
11.646000
20
-67.202003
30
-19.874001
70
192
0
VERTEX
8
OBJECT__56
10
13.011000
20
-25.836000
30
-6.932000
70
192
0
VERTEX
8
OBJECT__56
10
11.619000
20
-63.207001
30
-27.113001
70
192
0
VERTEX
8
OBJECT__56
10
11.618000
20
-62.716999
30
-27.802999
70
192
0
VERTEX
8
OBJECT__56
10
12.946000
20
-24.106001
30
-11.596000
70
192
0
VERTEX
8
OBJECT__56
10
11.603000
20
-58.269001
30
-34.074001
70
192
0
VERTEX
8
OBJECT__56
10
12.936000
20
-23.639000
30
-12.404000
70
192
0
VERTEX
8
OBJECT__56
10
11.597000
20
-52.709999
30
-40.284000
70
192
0
VERTEX
8
OBJECT__56
10
12.901000
20
-22.084999
30
-15.093000
70
192
0
VERTEX
8
OBJECT__56
10
11.598000
20
-48.778999
30
-43.796001
70
192
0
VERTEX
8
OBJECT__56
10
11.599000
20
-46.542999
30
-45.793999
70
192
0
VERTEX
8
OBJECT__56
10
12.855000
20
-18.909000
30
-18.922001
70
192
0
VERTEX
8
OBJECT__56
10
11.605000
20
-39.580002
30
-50.728001
70
192
0
VERTEX
8
OBJECT__56
10
12.820000
20
-15.158000
30
-21.966000
70
192
0
VERTEX
8
OBJECT__56
10
12.849000
20
-18.433001
30
-19.385000
70
192
0
VERTEX
8
OBJECT__56
10
11.614000
20
-32.278000
30
-54.749001
70
192
0
VERTEX
8
OBJECT__56
10
12.814000
20
-14.537000
30
-22.455000
70
192
0
VERTEX
8
OBJECT__56
10
11.616000
20
-30.962999
30
-55.292999
70
192
0
VERTEX
8
OBJECT__56
10
11.623000
20
-24.635000
30
-57.909000
70
192
0
VERTEX
8
OBJECT__56
10
12.793000
20
-10.991000
30
-24.388000
70
192
0
VERTEX
8
OBJECT__56
10
11.632000
20
-16.426001
30
-60.263000
70
192
0
VERTEX
8
OBJECT__56
10
12.776000
20
-6.285000
30
-26.000999
70
192
0
VERTEX
8
OBJECT__56
10
13.211000
20
-26.068001
30
6.004000
70
192
0
VERTEX
8
OBJECT__56
10
11.637000
20
-8.204000
30
-61.640999
70
192
0
VERTEX
8
OBJECT__56
10
12.770000
20
-2.299000
30
-26.650999
70
192
0
VERTEX
8
OBJECT__56
10
12.771000
20
-3.216000
30
-26.502001
70
192
0
VERTEX
8
OBJECT__56
10
11.635000
20
-10.600000
30
-61.238998
70
192
0
VERTEX
8
OBJECT__56
10
11.639000
20
0.000000
30
-62.091000
70
192
0
VERTEX
8
OBJECT__56
10
12.770000
20
0.000000
30
-26.635000
70
192
0
VERTEX
8
OBJECT__56
10
11.639000
20
0.054000
30
-62.094002
70
192
0
VERTEX
8
OBJECT__56
10
11.637000
20
8.585000
30
-61.598000
70
192
0
VERTEX
8
OBJECT__56
10
12.770000
20
2.675000
30
-26.615999
70
192
0
VERTEX
8
OBJECT__56
10
11.635000
20
10.601000
30
-61.249001
70
192
0
VERTEX
8
OBJECT__56
10
11.631000
20
16.799999
30
-60.176998
70
192
0
VERTEX
8
OBJECT__56
10
12.777000
20
6.652000
30
-25.910000
70
192
0
VERTEX
8
OBJECT__56
10
11.623000
20
24.742001
30
-57.870998
70
192
0
VERTEX
8
OBJECT__56
10
12.788000
20
9.448000
30
-24.907000
70
192
0
VERTEX
8
OBJECT__56
10
12.795000
20
11.334000
30
-24.230000
70
192
0
VERTEX
8
OBJECT__56
10
11.616000
20
30.955999
30
-55.278000
70
192
0
VERTEX
8
OBJECT__56
10
12.817000
20
14.853000
30
-22.247000
70
192
0
VERTEX
8
OBJECT__56
10
11.605000
20
39.910999
30
-50.519001
70
192
0
VERTEX
8
OBJECT__56
10
12.852000
20
18.716000
30
-19.113001
70
192
0
VERTEX
8
OBJECT__56
10
11.614000
20
32.631001
30
-54.578999
70
192
0
VERTEX
8
OBJECT__56
10
11.599000
20
46.641998
30
-45.715000
70
192
0
VERTEX
8
OBJECT__56
10
12.870000
20
19.965000
30
-17.688000
70
192
0
VERTEX
8
OBJECT__56
10
11.598000
20
48.776001
30
-43.793999
70
192
0
VERTEX
8
OBJECT__56
10
12.889000
20
21.379999
30
-16.076000
70
192
0
VERTEX
8
OBJECT__56
10
11.604000
20
58.521999
30
-33.756001
70
192
0
VERTEX
8
OBJECT__56
10
12.943000
20
23.987000
30
-11.839000
70
192
0
VERTEX
8
OBJECT__56
10
11.597000
20
52.997002
30
-39.995998
70
192
0
VERTEX
8
OBJECT__56
10
11.618000
20
62.713001
30
-27.801001
70
192
0
VERTEX
8
OBJECT__56
10
12.994000
20
25.497000
30
-8.091000
70
192
0
VERTEX
8
OBJECT__56
10
11.620000
20
63.280998
30
-26.995001
70
192
0
VERTEX
8
OBJECT__56
10
11.689000
20
70.528999
30
-11.780000
70
192
0
VERTEX
8
OBJECT__56
10
13.065000
20
26.554001
30
-3.231000
70
192
0
VERTEX
8
OBJECT__56
10
13.019000
20
25.868999
30
-6.379000
70
192
0
VERTEX
8
OBJECT__56
10
11.648000
20
67.382004
30
-19.497000
70
192
0
VERTEX
8
OBJECT__56
10
11.712000
20
71.461998
30
-8.484000
70
192
0
VERTEX
8
OBJECT__56
10
13.127000
20
26.738001
30
0.805000
70
192
0
VERTEX
8
OBJECT__56
10
11.744000
20
72.780998
30
-3.826000
70
192
0
VERTEX
8
OBJECT__56
10
13.207000
20
26.125999
30
5.742000
70
192
0
VERTEX
8
OBJECT__56
10
11.817000
20
74.167999
30
4.601000
70
192
0
VERTEX
8
OBJECT__56
10
11.842000
20
74.296997
30
7.052000
70
192
0
VERTEX
8
OBJECT__56
10
13.230000
20
25.733000
30
7.052000
70
192
0
VERTEX
8
OBJECT__56
10
13.218000
20
25.931999
30
6.389000
70
192
0
VERTEX
8
OBJECT__56
10
11.898000
20
74.584999
30
12.500000
70
192
0
VERTEX
8
OBJECT__56
10
13.273000
20
24.964001
30
9.610000
70
192
0
VERTEX
8
OBJECT__56
10
11.990000
20
74.581001
30
62.450001
70
192
0
VERTEX
8
OBJECT__56
10
13.354000
20
22.753000
30
14.067000
70
192
0
VERTEX
8
OBJECT__56
10
13.415000
20
20.375999
30
17.330999
70
192
0
VERTEX
8
OBJECT__56
10
13.483000
20
16.815001
30
20.804001
70
192
0
VERTEX
8
OBJECT__56
10
13.423000
20
19.990999
30
17.705999
70
192
0
VERTEX
8
OBJECT__56
10
13.529000
20
13.493000
30
23.098000
70
192
0
VERTEX
8
OBJECT__56
10
13.572000
20
8.983000
30
25.197001
70
192
0
VERTEX
8
OBJECT__56
10
13.567000
20
9.467000
30
24.971001
70
192
0
VERTEX
8
OBJECT__56
10
13.594000
20
5.088000
30
26.261999
70
192
0
VERTEX
8
OBJECT__56
10
13.604000
20
0.138000
30
26.750000
70
192
0
VERTEX
8
OBJECT__56
10
13.604000
20
0.000000
30
26.740000
70
192
0
VERTEX
8
OBJECT__56
10
11.898000
20
74.584999
30
72.500000
70
192
0
VERTEX
8
OBJECT__56
10
0
20
0
30
0
70
128
71
1
72
2
73
3
0
VERTEX
8
OBJECT__56
10
0
20
0
30
0
70
128
71
1
72
4
73
5
0
VERTEX
8
OBJECT__56
10
0
20
0
30
0
70
128
71
1
72
6
73
4
0
VERTEX
8
OBJECT__56
10
0
20
0
30
0
70
128
71
1
72
7
73
8
0
VERTEX
8
OBJECT__56
10
0
20
0
30
0
70
128
71
1
72
9
73
7
0
VERTEX
8
OBJECT__56
10
0
20
0
30
0
70
128
71
8
72
10
73
1
0
VERTEX
8
OBJECT__56
10
0
20
0
30
0
70
128
71
10
72
6
73
1
0
VERTEX
8
OBJECT__56
10
0
20
0
30
0
70
128
71
5
72
2
73
1
0
VERTEX
8
OBJECT__56
10
0
20
0
30
0
70
128
71
1
72
11
73
12
0
VERTEX
8
OBJECT__56
10
0
20
0
30
0
70
128
71
12
72
13
73
1
0
VERTEX
8
OBJECT__56
10
0
20
0
30
0
70
128
71
13
72
9
73
1
0
VERTEX
8
OBJECT__56
10
0
20
0
30
0
70
128
71
1
72
14
73
15
0
VERTEX
8
OBJECT__56
10
0
20
0
30
0
70
128
71
1
72
16
73
17
0
VERTEX
8
OBJECT__56
10
0
20
0
30
0
70
128
71
17
72
14
73
1
0
VERTEX
8
OBJECT__56
10
0
20
0
30
0
70
128
71
1
72
18
73
19
0
VERTEX
8
OBJECT__56
10
0
20
0
30
0
70
128
71
1
72
20
73
18
0
VERTEX
8
OBJECT__56
10
0
20
0
30
0
70
128
71
19
72
16
73
1
0
VERTEX
8
OBJECT__56
10
0
20
0
30
0
70
128
71
15
72
11
73
1
0
VERTEX
8
OBJECT__56
10
0
20
0
30
0
70
128
71
1
72
21
73
22
0
VERTEX
8
OBJECT__56
10
0
20
0
30
0
70
128
71
22
72
23
73
1
0
VERTEX
8
OBJECT__56
10
0
20
0
30
0
70
128
71
1
72
24
73
25
0
VERTEX
8
OBJECT__56
10
0
20
0
30
0
70
128
71
1
72
26
73
24
0
VERTEX
8
OBJECT__56
10
0
20
0
30
0
70
128
71
25
72
27
73
1
0
VERTEX
8
OBJECT__56
10
0
20
0
30
0
70
128
71
1
72
28
73
29
0
VERTEX
8
OBJECT__56
10
0
20
0
30
0
70
128
71
29
72
30
73
1
0
VERTEX
8
OBJECT__56
10
0
20
0
30
0
70
128
71
30
72
26
73
1
0
VERTEX
8
OBJECT__56
10
0
20
0
30
0
70
128
71
27
72
21
73
1
0
VERTEX
8
OBJECT__56
10
0
20
0
30
0
70
128
71
1
72
31
73
32
0
VERTEX
8
OBJECT__56
10
0
20
0
30
0
70
128
71
1
72
33
73
34
0
VERTEX
8
OBJECT__56
10
0
20
0
30
0
70
128
71
34
72
31
73
1
0
VERTEX
8
OBJECT__56
10
0
20
0
30
0
70
128
71
1
72
35
73
36
0
VERTEX
8
OBJECT__56
10
0
20
0
30
0
70
128
71
1
72
37
73
35
0
VERTEX
8
OBJECT__56
10
0
20
0
30
0
70
128
71
1
72
38
73
39
0
VERTEX
8
OBJECT__56
10
0
20
0
30
0
70
128
71
1
72
40
73
38
0
VERTEX
8
OBJECT__56
10
0
20
0
30
0
70
128
71
39
72
37
73
1
0
VERTEX
8
OBJECT__56
10
0
20
0
30
0
70
128
71
36
72
33
73
1
0
VERTEX
8
OBJECT__56
10
0
20
0
30
0
70
128
71
32
72
28
73
1
0
VERTEX
8
OBJECT__56
10
0
20
0
30
0
70
128
71
1
72
41
73
42
0
VERTEX
8
OBJECT__56
10
0
20
0
30
0
70
128
71
1
72
43
73
41
0
VERTEX
8
OBJECT__56
10
0
20
0
30
0
70
128
71
44
72
45
73
43
0
VERTEX
8
OBJECT__56
10
0
20
0
30
0
70
128
71
44
72
46
73
47
0
VERTEX
8
OBJECT__56
10
0
20
0
30
0
70
128
71
46
72
44
73
48
0
VERTEX
8
OBJECT__56
10
0
20
0
30
0
70
128
71
49
72
50
73
51
0
VERTEX
8
OBJECT__56
10
0
20
0
30
0
70
128
71
49
72
52
73
50
0
VERTEX
8
OBJECT__56
10
0
20
0
30
0
70
128
71
53
72
54
73
55
0
VERTEX
8
OBJECT__56
10
0
20
0
30
0
70
128
71
52
72
49
73
53
0
VERTEX
8
OBJECT__56
10
0
20
0
30
0
70
128
71
55
72
52
73
53
0
VERTEX
8
OBJECT__56
10
0
20
0
30
0
70
128
71
51
72
48
73
49
0
VERTEX
8
OBJECT__56
10
0
20
0
30
0
70
128
71
51
72
56
73
48
0
VERTEX
8
OBJECT__56
10
0
20
0
30
0
70
128
71
48
72
56
73
46
0
VERTEX
8
OBJECT__56
10
0
20
0
30
0
70
128
71
47
72
45
73
44
0
VERTEX
8
OBJECT__56
10
0
20
0
30
0
70
128
71
43
72
1
73
44
0
VERTEX
8
OBJECT__56
10
0
20
0
30
0
70
128
71
54
72
57
73
58
0
VERTEX
8
OBJECT__56
10
0
20
0
30
0
70
128
71
58
72
57
73
59
0
VERTEX
8
OBJECT__56
10
0
20
0
30
0
70
128
71
60
72
59
73
61
0
VERTEX
8
OBJECT__56
10
0
20
0
30
0
70
128
71
61
72
62
73
60
0
VERTEX
8
OBJECT__56
10
0
20
0
30
0
70
128
71
63
72
64
73
65
0
VERTEX
8
OBJECT__56
10
0
20
0
30
0
70
128
71
62
72
61
73
63
0
VERTEX
8
OBJECT__56
10
0
20
0
30
0
70
128
71
65
72
66
73
67
0
VERTEX
8
OBJECT__56
10
0
20
0
30
0
70
128
71
65
72
64
73
66
0
VERTEX
8
OBJECT__56
10
0
20
0
30
0
70
128
71
67
72
68
73
65
0
VERTEX
8
OBJECT__56
10
0
20
0
30
0
70
128
71
65
72
62
73
63
0
VERTEX
8
OBJECT__56
10
0
20
0
30
0
70
128
71
69
72
70
73
68
0
VERTEX
8
OBJECT__56
10
0
20
0
30
0
70
128
71
69
72
71
73
72
0
VERTEX
8
OBJECT__56
10
0
20
0
30
0
70
128
71
72
72
70
73
69
0
VERTEX
8
OBJECT__56
10
0
20
0
30
0
70
128
71
68
72
67
73
69
0
VERTEX
8
OBJECT__56
10
0
20
0
30
0
70
128
71
73
72
74
73
75
0
VERTEX
8
OBJECT__56
10
0
20
0
30
0
70
128
71
72
72
71
73
73
0
VERTEX
8
OBJECT__56
10
0
20
0
30
0
70
128
71
76
72
77
73
78
0
VERTEX
8
OBJECT__56
10
0
20
0
30
0
70
128
71
76
72
79
73
80
0
VERTEX
8
OBJECT__56
10
0
20
0
30
0
70
128
71
80
72
77
73
76
0
VERTEX
8
OBJECT__56
10
0
20
0
30
0
70
128
71
78
72
74
73
76
0
VERTEX
8
OBJECT__56
10
0
20
0
30
0
70
128
71
78
72
75
73
74
0
VERTEX
8
OBJECT__56
10
0
20
0
30
0
70
128
71
81
72
82
73
83
0
VERTEX
8
OBJECT__56
10
0
20
0
30
0
70
128
71
80
72
79
73
81
0
VERTEX
8
OBJECT__56
10
0
20
0
30
0
70
128
71
83
72
80
73
81
0
VERTEX
8
OBJECT__56
10
0
20
0
30
0
70
128
71
75
72
72
73
73
0
VERTEX
8
OBJECT__56
10
0
20
0
30
0
70
128
71
59
72
60
73
58
0
VERTEX
8
OBJECT__56
10
0
20
0
30
0
70
128
71
84
72
85
73
83
0
VERTEX
8
OBJECT__56
10
0
20
0
30
0
70
128
71
83
72
82
73
84
0
VERTEX
8
OBJECT__56
10
0
20
0
30
0
70
128
71
58
72
86
73
54
0
VERTEX
8
OBJECT__56
10
0
20
0
30
0
70
128
71
87
72
88
73
89
0
VERTEX
8
OBJECT__56
10
0
20
0
30
0
70
128
71
90
72
89
73
85
0
VERTEX
8
OBJECT__56
10
0
20
0
30
0
70
128
71
85
72
84
73
90
0
VERTEX
8
OBJECT__56
10
0
20
0
30
0
70
128
71
89
72
90
73
87
0
VERTEX
8
OBJECT__56
10
0
20
0
30
0
70
128
71
91
72
92
73
88
0
VERTEX
8
OBJECT__56
10
0
20
0
30
0
70
128
71
88
72
87
73
91
0
VERTEX
8
OBJECT__56
10
0
20
0
30
0
70
128
71
93
72
94
73
95
0
VERTEX
8
OBJECT__56
10
0
20
0
30
0
70
128
71
92
72
91
73
93
0
VERTEX
8
OBJECT__56
10
0
20
0
30
0
70
128
71
96
72
97
73
98
0
VERTEX
8
OBJECT__56
10
0
20
0
30
0
70
128
71
95
72
94
73
96
0
VERTEX
8
OBJECT__56
10
0
20
0
30
0
70
128
71
97
72
99
73
100
0
VERTEX
8
OBJECT__56
10
0
20
0
30
0
70
128
71
99
72
101
73
100
0
VERTEX
8
OBJECT__56
10
0
20
0
30
0
70
128
71
102
72
103
73
101
0
VERTEX
8
OBJECT__56
10
0
20
0
30
0
70
128
71
101
72
99
73
102
0
VERTEX
8
OBJECT__56
10
0
20
0
30
0
70
128
71
104
72
105
73
103
0
VERTEX
8
OBJECT__56
10
0
20
0
30
0
70
128
71
103
72
106
73
104
0
VERTEX
8
OBJECT__56
10
0
20
0
30
0
70
128
71
104
72
107
73
105
0
VERTEX
8
OBJECT__56
10
0
20
0
30
0
70
128
71
108
72
105
73
107
0
VERTEX
8
OBJECT__56
10
0
20
0
30
0
70
128
71
109
72
110
73
108
0
VERTEX
8
OBJECT__56
10
0
20
0
30
0
70
128
71
107
72
109
73
108
0
VERTEX
8
OBJECT__56
10
0
20
0
30
0
70
128
71
111
72
112
73
110
0
VERTEX
8
OBJECT__56
10
0
20
0
30
0
70
128
71
110
72
113
73
111
0
VERTEX
8
OBJECT__56
10
0
20
0
30
0
70
128
71
111
72
114
73
112
0
VERTEX
8
OBJECT__56
10
0
20
0
30
0
70
128
71
115
72
112
73
114
0
VERTEX
8
OBJECT__56
10
0
20
0
30
0
70
128
71
114
72
116
73
115
0
VERTEX
8
OBJECT__56
10
0
20
0
30
0
70
128
71
117
72
118
73
119
0
VERTEX
8
OBJECT__56
10
0
20
0
30
0
70
128
71
119
72
120
73
117
0
VERTEX
8
OBJECT__56
10
0
20
0
30
0
70
128
71
117
72
121
73
118
0
VERTEX
8
OBJECT__56
10
0
20
0
30
0
70
128
71
122
72
118
73
121
0
VERTEX
8
OBJECT__56
10
0
20
0
30
0
70
128
71
121
72
123
73
122
0
VERTEX
8
OBJECT__56
10
0
20
0
30
0
70
128
71
124
72
122
73
125
0
VERTEX
8
OBJECT__56
10
0
20
0
30
0
70
128
71
126
72
127
73
128
0
VERTEX
8
OBJECT__56
10
0
20
0
30
0
70
128
71
128
72
124
73
126
0
VERTEX
8
OBJECT__56
10
0
20
0
30
0
70
128
71
125
72
126
73
124
0
VERTEX
8
OBJECT__56
10
0
20
0
30
0
70
128
71
123
72
125
73
122
0
VERTEX
8
OBJECT__56
10
0
20
0
30
0
70
128
71
119
72
115
73
120
0
VERTEX
8
OBJECT__56
10
0
20
0
30
0
70
128
71
116
72
120
73
115
0
VERTEX
8
OBJECT__56
10
0
20
0
30
0
70
128
71
109
72
113
73
110
0
VERTEX
8
OBJECT__56
10
0
20
0
30
0
70
128
71
102
72
106
73
103
0
VERTEX
8
OBJECT__56
10
0
20
0
30
0
70
128
71
100
72
98
73
97
0
VERTEX
8
OBJECT__56
10
0
20
0
30
0
70
128
71
98
72
95
73
96
0
VERTEX
8
OBJECT__56
10
0
20
0
30
0
70
128
71
129
72
130
73
127
0
VERTEX
8
OBJECT__56
10
0
20
0
30
0
70
128
71
131
72
132
73
130
0
VERTEX
8
OBJECT__56
10
0
20
0
30
0
70
128
71
131
72
133
73
132
0
VERTEX
8
OBJECT__56
10
0
20
0
30
0
70
128
71
131
72
134
73
135
0
VERTEX
8
OBJECT__56
10
0
20
0
30
0
70
128
71
131
72
136
73
134
0
VERTEX
8
OBJECT__56
10
0
20
0
30
0
70
128
71
135
72
133
73
131
0
VERTEX
8
OBJECT__56
10
0
20
0
30
0
70
128
71
131
72
137
73
138
0
VERTEX
8
OBJECT__56
10
0
20
0
30
0
70
128
71
138
72
136
73
131
0
VERTEX
8
OBJECT__56
10
0
20
0
30
0
70
128
71
130
72
129
73
131
0
VERTEX
8
OBJECT__56
10
0
20
0
30
0
70
128
71
131
72
139
73
137
0
VERTEX
8
OBJECT__56
10
0
20
0
30
0
70
128
71
131
72
140
73
139
0
VERTEX
8
OBJECT__56
10
0
20
0
30
0
70
128
71
1
72
140
73
131
0
VERTEX
8
OBJECT__56
10
0
20
0
30
0
70
128
71
1
72
141
73
140
0
VERTEX
8
OBJECT__56
10
0
20
0
30
0
70
128
71
131
72
142
73
1
0
VERTEX
8
OBJECT__56
10
0
20
0
30
0
70
128
71
142
72
20
73
1
0
VERTEX
8
OBJECT__56
10
0
20
0
30
0
70
128
71
127
72
126
73
129
0
VERTEX
8
OBJECT__56
10
0
20
0
30
0
70
128
71
95
72
92
73
93
0
VERTEX
8
OBJECT__56
10
0
20
0
30
0
70
128
71
86
72
55
73
54
0
VERTEX
8
OBJECT__56
10
0
20
0
30
0
70
128
71
42
72
141
73
1
0
VERTEX
8
OBJECT__56
10
0
20
0
30
0
70
128
71
23
72
44
73
1
0
VERTEX
8
OBJECT__56
10
0
20
0
30
0
70
128
71
3
72
40
73
1
0
SEQEND
8
OBJECT__56
0
POLYLINE
8
OBJECT__57
66
1
70
64
71
5
72
3
62
253
0
VERTEX
8
OBJECT__57
10
0.000000
20
75.000000
30
12.500000
70
192
0
VERTEX
8
OBJECT__57
10
0.000000
20
75.000000
30
72.500000
70
192
0
VERTEX
8
OBJECT__57
10
11.990000
20
74.581001
30
62.450001
70
192
0
VERTEX
8
OBJECT__57
10
11.898000
20
74.584999
30
72.500000
70
192
0
VERTEX
8
OBJECT__57
10
11.898000
20
74.584999
30
12.500000
70
192
0
VERTEX
8
OBJECT__57
10
0
20
0
30
0
70
128
71
1
72
2
73
3
0
VERTEX
8
OBJECT__57
10
0
20
0
30
0
70
128
71
2
72
4
73
3
0
VERTEX
8
OBJECT__57
10
0
20
0
30
0
70
128
71
3
72
5
73
1
0
SEQEND
8
OBJECT__57
0
POLYLINE
8
OBJECT__58
66
1
70
64
71
54
72
52
62
253
0
VERTEX
8
OBJECT__58
10
0.000000
20
-71.961998
30
93.629997
70
192
0
VERTEX
8
OBJECT__58
10
0.000000
20
-75.000000
30
72.500000
70
192
0
VERTEX
8
OBJECT__58
10
11.817000
20
-74.167999
30
80.399002
70
192
0
VERTEX
8
OBJECT__58
10
11.898000
20
-74.584999
30
72.500000
70
192
0
VERTEX
8
OBJECT__58
10
11.842000
20
-74.296997
30
77.947998
70
192
0
VERTEX
8
OBJECT__58
10
11.744000
20
-72.780998
30
88.825996
70
192
0
VERTEX
8
OBJECT__58
10
0.000000
20
-63.094002
30
113.047997
70
192
0
VERTEX
8
OBJECT__58
10
11.648000
20
-67.382004
30
104.497002
70
192
0
VERTEX
8
OBJECT__58
10
11.620000
20
-63.280998
30
111.995003
70
192
0
VERTEX
8
OBJECT__58
10
11.689000
20
-70.528999
30
96.779999
70
192
0
VERTEX
8
OBJECT__58
10
11.712000
20
-71.461998
30
93.484001
70
192
0
VERTEX
8
OBJECT__58
10
0.000000
20
-49.115002
30
129.181000
70
192
0
VERTEX
8
OBJECT__58
10
11.604000
20
-58.521999
30
118.755997
70
192
0
VERTEX
8
OBJECT__58
10
11.597000
20
-52.997002
30
124.995003
70
192
0
VERTEX
8
OBJECT__58
10
11.618000
20
-62.713001
30
112.801003
70
192
0
VERTEX
8
OBJECT__58
10
0.000000
20
-31.156000
30
140.722000
70
192
0
VERTEX
8
OBJECT__58
10
11.605000
20
-39.910999
30
135.518997
70
192
0
VERTEX
8
OBJECT__58
10
11.614000
20
-32.631001
30
139.578995
70
192
0
VERTEX
8
OBJECT__58
10
11.599000
20
-46.641998
30
130.714996
70
192
0
VERTEX
8
OBJECT__58
10
11.598000
20
-48.776001
30
128.794006
70
192
0
VERTEX
8
OBJECT__58
10
0.000000
20
-10.674000
30
146.737000
70
192
0
VERTEX
8
OBJECT__58
10
11.623000
20
-24.742001
30
142.871002
70
192
0
VERTEX
8
OBJECT__58
10
11.631000
20
-16.799999
30
145.177002
70
192
0
VERTEX
8
OBJECT__58
10
11.616000
20
-30.955999
30
140.278000
70
192
0
VERTEX
8
OBJECT__58
10
0.000000
20
10.674000
30
146.737000
70
192
0
VERTEX
8
OBJECT__58
10
11.639000
20
-0.054000
30
147.093994
70
192
0
VERTEX
8
OBJECT__58
10
11.639000
20
0.000000
30
147.091003
70
192
0
VERTEX
8
OBJECT__58
10
11.637000
20
-8.585000
30
146.598007
70
192
0
VERTEX
8
OBJECT__58
10
11.637000
20
8.204000
30
146.641006
70
192
0
VERTEX
8
OBJECT__58
10
11.635000
20
-10.601000
30
146.248993
70
192
0
VERTEX
8
OBJECT__58
10
11.632000
20
16.426001
30
145.263000
70
192
0
VERTEX
8
OBJECT__58
10
11.623000
20
24.635000
30
142.908997
70
192
0
VERTEX
8
OBJECT__58
10
11.635000
20
10.600000
30
146.238998
70
192
0
VERTEX
8
OBJECT__58
10
0.000000
20
31.156000
30
140.722000
70
192
0
VERTEX
8
OBJECT__58
10
0.000000
20
49.115002
30
129.181000
70
192
0
VERTEX
8
OBJECT__58
10
11.605000
20
39.580002
30
135.727997
70
192
0
VERTEX
8
OBJECT__58
10
11.616000
20
30.962999
30
140.292999
70
192
0
VERTEX
8
OBJECT__58
10
11.614000
20
32.278000
30
139.748993
70
192
0
VERTEX
8
OBJECT__58
10
11.599000
20
46.542999
30
130.794006
70
192
0
VERTEX
8
OBJECT__58
10
11.597000
20
52.709999
30
125.283997
70
192
0
VERTEX
8
OBJECT__58
10
11.603000
20
58.269001
30
119.073997
70
192
0
VERTEX
8
OBJECT__58
10
11.598000
20
48.778999
30
128.796005
70
192
0
VERTEX
8
OBJECT__58
10
0.000000
20
63.094002
30
113.047997
70
192
0
VERTEX
8
OBJECT__58
10
0.000000
20
71.961998
30
93.629997
70
192
0
VERTEX
8
OBJECT__58
10
11.646000
20
67.202003
30
104.874001
70
192
0
VERTEX
8
OBJECT__58
10
11.618000
20
62.716999
30
112.803001
70
192
0
VERTEX
8
OBJECT__58
10
11.619000
20
63.207001
30
112.112999
70
192
0
VERTEX
8
OBJECT__58
10
11.687000
20
70.391998
30
97.176003
70
192
0
VERTEX
8
OBJECT__58
10
0.000000
20
75.000000
30
72.500000
70
192
0
VERTEX
8
OBJECT__58
10
11.813000
20
74.122002
30
80.820000
70
192
0
VERTEX
8
OBJECT__58
10
11.842000
20
74.281998
30
77.947998
70
192
0
VERTEX
8
OBJECT__58
10
11.743000
20
72.748001
30
88.972000
70
192
0
VERTEX
8
OBJECT__58
10
11.712000
20
71.453003
30
93.481003
70
192
0
VERTEX
8
OBJECT__58
10
11.898000
20
74.584999
30
72.500000
70
192
0
VERTEX
8
OBJECT__58
10
0
20
0
30
0
70
128
71
1
72
2
73
3
0
VERTEX
8
OBJECT__58
10
0
20
0
30
0
70
128
71
2
72
4
73
5
0
VERTEX
8
OBJECT__58
10
0
20
0
30
0
70
128
71
5
72
3
73
2
0
VERTEX
8
OBJECT__58
10
0
20
0
30
0
70
128
71
3
72
6
73
1
0
VERTEX
8
OBJECT__58
10
0
20
0
30
0
70
128
71
7
72
8
73
9
0
VERTEX
8
OBJECT__58
10
0
20
0
30
0
70
128
71
1
72
10
73
8
0
VERTEX
8
OBJECT__58
10
0
20
0
30
0
70
128
71
8
72
7
73
1
0
VERTEX
8
OBJECT__58
10
0
20
0
30
0
70
128
71
1
72
11
73
10
0
VERTEX
8
OBJECT__58
10
0
20
0
30
0
70
128
71
12
72
7
73
13
0
VERTEX
8
OBJECT__58
10
0
20
0
30
0
70
128
71
13
72
14
73
12
0
VERTEX
8
OBJECT__58
10
0
20
0
30
0
70
128
71
7
72
15
73
13
0
VERTEX
8
OBJECT__58
10
0
20
0
30
0
70
128
71
16
72
17
73
18
0
VERTEX
8
OBJECT__58
10
0
20
0
30
0
70
128
71
12
72
19
73
17
0
VERTEX
8
OBJECT__58
10
0
20
0
30
0
70
128
71
17
72
16
73
12
0
VERTEX
8
OBJECT__58
10
0
20
0
30
0
70
128
71
12
72
20
73
19
0
VERTEX
8
OBJECT__58
10
0
20
0
30
0
70
128
71
21
72
16
73
22
0
VERTEX
8
OBJECT__58
10
0
20
0
30
0
70
128
71
22
72
23
73
21
0
VERTEX
8
OBJECT__58
10
0
20
0
30
0
70
128
71
16
72
24
73
22
0
VERTEX
8
OBJECT__58
10
0
20
0
30
0
70
128
71
25
72
21
73
26
0
VERTEX
8
OBJECT__58
10
0
20
0
30
0
70
128
71
26
72
27
73
25
0
VERTEX
8
OBJECT__58
10
0
20
0
30
0
70
128
71
21
72
28
73
26
0
VERTEX
8
OBJECT__58
10
0
20
0
30
0
70
128
71
27
72
29
73
25
0
VERTEX
8
OBJECT__58
10
0
20
0
30
0
70
128
71
21
72
30
73
28
0
VERTEX
8
OBJECT__58
10
0
20
0
30
0
70
128
71
25
72
31
73
32
0
VERTEX
8
OBJECT__58
10
0
20
0
30
0
70
128
71
25
72
33
73
31
0
VERTEX
8
OBJECT__58
10
0
20
0
30
0
70
128
71
32
72
34
73
25
0
VERTEX
8
OBJECT__58
10
0
20
0
30
0
70
128
71
35
72
34
73
36
0
VERTEX
8
OBJECT__58
10
0
20
0
30
0
70
128
71
34
72
37
73
38
0
VERTEX
8
OBJECT__58
10
0
20
0
30
0
70
128
71
38
72
36
73
34
0
VERTEX
8
OBJECT__58
10
0
20
0
30
0
70
128
71
36
72
39
73
35
0
VERTEX
8
OBJECT__58
10
0
20
0
30
0
70
128
71
35
72
40
73
41
0
VERTEX
8
OBJECT__58
10
0
20
0
30
0
70
128
71
35
72
42
73
40
0
VERTEX
8
OBJECT__58
10
0
20
0
30
0
70
128
71
41
72
43
73
35
0
VERTEX
8
OBJECT__58
10
0
20
0
30
0
70
128
71
44
72
43
73
45
0
VERTEX
8
OBJECT__58
10
0
20
0
30
0
70
128
71
43
72
46
73
47
0
VERTEX
8
OBJECT__58
10
0
20
0
30
0
70
128
71
47
72
45
73
43
0
VERTEX
8
OBJECT__58
10
0
20
0
30
0
70
128
71
45
72
48
73
44
0
VERTEX
8
OBJECT__58
10
0
20
0
30
0
70
128
71
49
72
50
73
51
0
VERTEX
8
OBJECT__58
10
0
20
0
30
0
70
128
71
44
72
52
73
50
0
VERTEX
8
OBJECT__58
10
0
20
0
30
0
70
128
71
44
72
53
73
52
0
VERTEX
8
OBJECT__58
10
0
20
0
30
0
70
128
71
50
72
49
73
44
0
VERTEX
8
OBJECT__58
10
0
20
0
30
0
70
128
71
51
72
54
73
49
0
VERTEX
8
OBJECT__58
10
0
20
0
30
0
70
128
71
48
72
53
73
44
0
VERTEX
8
OBJECT__58
10
0
20
0
30
0
70
128
71
41
72
46
73
43
0
VERTEX
8
OBJECT__58
10
0
20
0
30
0
70
128
71
39
72
42
73
35
0
VERTEX
8
OBJECT__58
10
0
20
0
30
0
70
128
71
32
72
37
73
34
0
VERTEX
8
OBJECT__58
10
0
20
0
30
0
70
128
71
29
72
33
73
25
0
VERTEX
8
OBJECT__58
10
0
20
0
30
0
70
128
71
23
72
30
73
21
0
VERTEX
8
OBJECT__58
10
0
20
0
30
0
70
128
71
18
72
24
73
16
0
VERTEX
8
OBJECT__58
10
0
20
0
30
0
70
128
71
14
72
20
73
12
0
VERTEX
8
OBJECT__58
10
0
20
0
30
0
70
128
71
9
72
15
73
7
0
VERTEX
8
OBJECT__58
10
0
20
0
30
0
70
128
71
6
72
11
73
1
0
SEQEND
8
OBJECT__58
0
POLYLINE
8
OBJECT__59
66
1
70
64
71
5
72
3
62
253
0
VERTEX
8
OBJECT__59
10
0.000000
20
-75.000000
30
72.500000
70
192
0
VERTEX
8
OBJECT__59
10
0.000000
20
-75.000000
30
12.500000
70
192
0
VERTEX
8
OBJECT__59
10
11.990000
20
-74.581001
30
22.549999
70
192
0
VERTEX
8
OBJECT__59
10
11.898000
20
-74.584999
30
12.500000
70
192
0
VERTEX
8
OBJECT__59
10
11.898000
20
-74.584999
30
72.500000
70
192
0
VERTEX
8
OBJECT__59
10
0
20
0
30
0
70
128
71
1
72
2
73
3
0
VERTEX
8
OBJECT__59
10
0
20
0
30
0
70
128
71
2
72
4
73
3
0
VERTEX
8
OBJECT__59
10
0
20
0
30
0
70
128
71
3
72
5
73
1
0
SEQEND
8
OBJECT__59
0
POLYLINE
8
OBJECT__60
66
1
70
64
71
54
72
52
62
253
0
VERTEX
8
OBJECT__60
10
0.000000
20
71.961998
30
-8.630000
70
192
0
VERTEX
8
OBJECT__60
10
0.000000
20
75.000000
30
12.500000
70
192
0
VERTEX
8
OBJECT__60
10
11.817000
20
74.167999
30
4.601000
70
192
0
VERTEX
8
OBJECT__60
10
11.898000
20
74.584999
30
12.500000
70
192
0
VERTEX
8
OBJECT__60
10
11.842000
20
74.296997
30
7.052000
70
192
0
VERTEX
8
OBJECT__60
10
11.744000
20
72.780998
30
-3.826000
70
192
0
VERTEX
8
OBJECT__60
10
0.000000
20
63.094002
30
-28.048000
70
192
0
VERTEX
8
OBJECT__60
10
11.648000
20
67.382004
30
-19.497000
70
192
0
VERTEX
8
OBJECT__60
10
11.620000
20
63.280998
30
-26.995001
70
192
0
VERTEX
8
OBJECT__60
10
11.689000
20
70.528999
30
-11.780000
70
192
0
VERTEX
8
OBJECT__60
10
11.712000
20
71.461998
30
-8.484000
70
192
0
VERTEX
8
OBJECT__60
10
0.000000
20
49.115002
30
-44.181000
70
192
0
VERTEX
8
OBJECT__60
10
11.604000
20
58.521999
30
-33.756001
70
192
0
VERTEX
8
OBJECT__60
10
11.597000
20
52.997002
30
-39.995998
70
192
0
VERTEX
8
OBJECT__60
10
11.618000
20
62.713001
30
-27.801001
70
192
0
VERTEX
8
OBJECT__60
10
0.000000
20
31.156000
30
-55.722000
70
192
0
VERTEX
8
OBJECT__60
10
11.605000
20
39.910999
30
-50.519001
70
192
0
VERTEX
8
OBJECT__60
10
11.614000
20
32.631001
30
-54.578999
70
192
0
VERTEX
8
OBJECT__60
10
11.599000
20
46.641998
30
-45.715000
70
192
0
VERTEX
8
OBJECT__60
10
11.598000
20
48.776001
30
-43.793999
70
192
0
VERTEX
8
OBJECT__60
10
0.000000
20
10.674000
30
-61.737000
70
192
0
VERTEX
8
OBJECT__60
10
11.623000
20
24.742001
30
-57.870998
70
192
0
VERTEX
8
OBJECT__60
10
11.631000
20
16.799999
30
-60.176998
70
192
0
VERTEX
8
OBJECT__60
10
11.616000
20
30.955999
30
-55.278000
70
192
0
VERTEX
8
OBJECT__60
10
0.000000
20
-10.674000
30
-61.737000
70
192
0
VERTEX
8
OBJECT__60
10
11.639000
20
0.054000
30
-62.094002
70
192
0
VERTEX
8
OBJECT__60
10
11.639000
20
0.000000
30
-62.091000
70
192
0
VERTEX
8
OBJECT__60
10
11.637000
20
8.585000
30
-61.598000
70
192
0
VERTEX
8
OBJECT__60
10
11.637000
20
-8.204000
30
-61.640999
70
192
0
VERTEX
8
OBJECT__60
10
11.635000
20
10.601000
30
-61.249001
70
192
0
VERTEX
8
OBJECT__60
10
11.632000
20
-16.426001
30
-60.263000
70
192
0
VERTEX
8
OBJECT__60
10
11.623000
20
-24.635000
30
-57.909000
70
192
0
VERTEX
8
OBJECT__60
10
11.635000
20
-10.600000
30
-61.238998
70
192
0
VERTEX
8
OBJECT__60
10
0.000000
20
-31.156000
30
-55.722000
70
192
0
VERTEX
8
OBJECT__60
10
0.000000
20
-49.115002
30
-44.181000
70
192
0
VERTEX
8
OBJECT__60
10
11.605000
20
-39.580002
30
-50.728001
70
192
0
VERTEX
8
OBJECT__60
10
11.616000
20
-30.962999
30
-55.292999
70
192
0
VERTEX
8
OBJECT__60
10
11.614000
20
-32.278000
30
-54.749001
70
192
0
VERTEX
8
OBJECT__60
10
11.599000
20
-46.542999
30
-45.793999
70
192
0
VERTEX
8
OBJECT__60
10
11.597000
20
-52.709999
30
-40.284000
70
192
0
VERTEX
8
OBJECT__60
10
11.603000
20
-58.269001
30
-34.074001
70
192
0
VERTEX
8
OBJECT__60
10
11.598000
20
-48.778999
30
-43.796001
70
192
0
VERTEX
8
OBJECT__60
10
0.000000
20
-63.094002
30
-28.048000
70
192
0
VERTEX
8
OBJECT__60
10
0.000000
20
-71.961998
30
-8.630000
70
192
0
VERTEX
8
OBJECT__60
10
11.646000
20
-67.202003
30
-19.874001
70
192
0
VERTEX
8
OBJECT__60
10
11.618000
20
-62.716999
30
-27.802999
70
192
0
VERTEX
8
OBJECT__60
10
11.619000
20
-63.207001
30
-27.113001
70
192
0
VERTEX
8
OBJECT__60
10
11.687000
20
-70.391998
30
-12.176000
70
192
0
VERTEX
8
OBJECT__60
10
0.000000
20
-75.000000
30
12.500000
70
192
0
VERTEX
8
OBJECT__60
10
11.813000
20
-74.122002
30
4.180000
70
192
0
VERTEX
8
OBJECT__60
10
11.842000
20
-74.281998
30
7.052000
70
192
0
VERTEX
8
OBJECT__60
10
11.743000
20
-72.748001
30
-3.972000
70
192
0
VERTEX
8
OBJECT__60
10
11.712000
20
-71.453003
30
-8.481000
70
192
0
VERTEX
8
OBJECT__60
10
11.898000
20
-74.584999
30
12.500000
70
192
0
VERTEX
8
OBJECT__60
10
0
20
0
30
0
70
128
71
1
72
2
73
3
0
VERTEX
8
OBJECT__60
10
0
20
0
30
0
70
128
71
2
72
4
73
5
0
VERTEX
8
OBJECT__60
10
0
20
0
30
0
70
128
71
5
72
3
73
2
0
VERTEX
8
OBJECT__60
10
0
20
0
30
0
70
128
71
3
72
6
73
1
0
VERTEX
8
OBJECT__60
10
0
20
0
30
0
70
128
71
7
72
8
73
9
0
VERTEX
8
OBJECT__60
10
0
20
0
30
0
70
128
71
1
72
10
73
8
0
VERTEX
8
OBJECT__60
10
0
20
0
30
0
70
128
71
8
72
7
73
1
0
VERTEX
8
OBJECT__60
10
0
20
0
30
0
70
128
71
1
72
11
73
10
0
VERTEX
8
OBJECT__60
10
0
20
0
30
0
70
128
71
12
72
7
73
13
0
VERTEX
8
OBJECT__60
10
0
20
0
30
0
70
128
71
13
72
14
73
12
0
VERTEX
8
OBJECT__60
10
0
20
0
30
0
70
128
71
7
72
15
73
13
0
VERTEX
8
OBJECT__60
10
0
20
0
30
0
70
128
71
16
72
17
73
18
0
VERTEX
8
OBJECT__60
10
0
20
0
30
0
70
128
71
12
72
19
73
17
0
VERTEX
8
OBJECT__60
10
0
20
0
30
0
70
128
71
17
72
16
73
12
0
VERTEX
8
OBJECT__60
10
0
20
0
30
0
70
128
71
12
72
20
73
19
0
VERTEX
8
OBJECT__60
10
0
20
0
30
0
70
128
71
21
72
16
73
22
0
VERTEX
8
OBJECT__60
10
0
20
0
30
0
70
128
71
22
72
23
73
21
0
VERTEX
8
OBJECT__60
10
0
20
0
30
0
70
128
71
16
72
24
73
22
0
VERTEX
8
OBJECT__60
10
0
20
0
30
0
70
128
71
25
72
21
73
26
0
VERTEX
8
OBJECT__60
10
0
20
0
30
0
70
128
71
26
72
27
73
25
0
VERTEX
8
OBJECT__60
10
0
20
0
30
0
70
128
71
21
72
28
73
26
0
VERTEX
8
OBJECT__60
10
0
20
0
30
0
70
128
71
27
72
29
73
25
0
VERTEX
8
OBJECT__60
10
0
20
0
30
0
70
128
71
21
72
30
73
28
0
VERTEX
8
OBJECT__60
10
0
20
0
30
0
70
128
71
25
72
31
73
32
0
VERTEX
8
OBJECT__60
10
0
20
0
30
0
70
128
71
25
72
33
73
31
0
VERTEX
8
OBJECT__60
10
0
20
0
30
0
70
128
71
32
72
34
73
25
0
VERTEX
8
OBJECT__60
10
0
20
0
30
0
70
128
71
35
72
34
73
36
0
VERTEX
8
OBJECT__60
10
0
20
0
30
0
70
128
71
34
72
37
73
38
0
VERTEX
8
OBJECT__60
10
0
20
0
30
0
70
128
71
38
72
36
73
34
0
VERTEX
8
OBJECT__60
10
0
20
0
30
0
70
128
71
36
72
39
73
35
0
VERTEX
8
OBJECT__60
10
0
20
0
30
0
70
128
71
35
72
40
73
41
0
VERTEX
8
OBJECT__60
10
0
20
0
30
0
70
128
71
35
72
42
73
40
0
VERTEX
8
OBJECT__60
10
0
20
0
30
0
70
128
71
41
72
43
73
35
0
VERTEX
8
OBJECT__60
10
0
20
0
30
0
70
128
71
44
72
43
73
45
0
VERTEX
8
OBJECT__60
10
0
20
0
30
0
70
128
71
43
72
46
73
47
0
VERTEX
8
OBJECT__60
10
0
20
0
30
0
70
128
71
47
72
45
73
43
0
VERTEX
8
OBJECT__60
10
0
20
0
30
0
70
128
71
45
72
48
73
44
0
VERTEX
8
OBJECT__60
10
0
20
0
30
0
70
128
71
49
72
50
73
51
0
VERTEX
8
OBJECT__60
10
0
20
0
30
0
70
128
71
44
72
52
73
50
0
VERTEX
8
OBJECT__60
10
0
20
0
30
0
70
128
71
44
72
53
73
52
0
VERTEX
8
OBJECT__60
10
0
20
0
30
0
70
128
71
50
72
49
73
44
0
VERTEX
8
OBJECT__60
10
0
20
0
30
0
70
128
71
51
72
54
73
49
0
VERTEX
8
OBJECT__60
10
0
20
0
30
0
70
128
71
48
72
53
73
44
0
VERTEX
8
OBJECT__60
10
0
20
0
30
0
70
128
71
41
72
46
73
43
0
VERTEX
8
OBJECT__60
10
0
20
0
30
0
70
128
71
39
72
42
73
35
0
VERTEX
8
OBJECT__60
10
0
20
0
30
0
70
128
71
32
72
37
73
34
0
VERTEX
8
OBJECT__60
10
0
20
0
30
0
70
128
71
29
72
33
73
25
0
VERTEX
8
OBJECT__60
10
0
20
0
30
0
70
128
71
23
72
30
73
21
0
VERTEX
8
OBJECT__60
10
0
20
0
30
0
70
128
71
18
72
24
73
16
0
VERTEX
8
OBJECT__60
10
0
20
0
30
0
70
128
71
14
72
20
73
12
0
VERTEX
8
OBJECT__60
10
0
20
0
30
0
70
128
71
9
72
15
73
7
0
VERTEX
8
OBJECT__60
10
0
20
0
30
0
70
128
71
6
72
11
73
1
0
SEQEND
8
OBJECT__60
0
POLYLINE
8
OBJECT__61
66
1
70
64
71
24
72
22
62
253
0
VERTEX
8
OBJECT__61
10
0.000000
20
-71.961998
30
93.629997
70
192
0
VERTEX
8
OBJECT__61
10
0.000000
20
-49.115002
30
129.181000
70
192
0
VERTEX
8
OBJECT__61
10
0.000000
20
-31.156000
30
140.722000
70
192
0
VERTEX
8
OBJECT__61
10
0.000000
20
-63.094002
30
113.047997
70
192
0
VERTEX
8
OBJECT__61
10
0.000000
20
-75.000000
30
72.500000
70
192
0
VERTEX
8
OBJECT__61
10
0.000000
20
31.156000
30
140.722000
70
192
0
VERTEX
8
OBJECT__61
10
0.000000
20
49.115002
30
129.181000
70
192
0
VERTEX
8
OBJECT__61
10
0.000000
20
-10.674000
30
146.737000
70
192
0
VERTEX
8
OBJECT__61
10
0.000000
20
10.674000
30
146.737000
70
192
0
VERTEX
8
OBJECT__61
10
0.000000
20
-75.000000
30
12.500000
70
192
0
VERTEX
8
OBJECT__61
10
0.000000
20
31.156000
30
-55.722000
70
192
0
VERTEX
8
OBJECT__61
10
0.000000
20
10.674000
30
-61.737000
70
192
0
VERTEX
8
OBJECT__61
10
0.000000
20
63.094002
30
113.047997
70
192
0
VERTEX
8
OBJECT__61
10
0.000000
20
-49.115002
30
-44.181000
70
192
0
VERTEX
8
OBJECT__61
10
0.000000
20
-63.094002
30
-28.048000
70
192
0
VERTEX
8
OBJECT__61
10
0.000000
20
-10.674000
30
-61.737000
70
192
0
VERTEX
8
OBJECT__61
10
0.000000
20
-31.156000
30
-55.722000
70
192
0
VERTEX
8
OBJECT__61
10
0.000000
20
49.115002
30
-44.181000
70
192
0
VERTEX
8
OBJECT__61
10
0.000000
20
71.961998
30
-8.630000
70
192
0
VERTEX
8
OBJECT__61
10
0.000000
20
63.094002
30
-28.048000
70
192
0
VERTEX
8
OBJECT__61
10
0.000000
20
71.961998
30
93.629997
70
192
0
VERTEX
8
OBJECT__61
10
0.000000
20
75.000000
30
72.500000
70
192
0
VERTEX
8
OBJECT__61
10
0.000000
20
75.000000
30
12.500000
70
192
0
VERTEX
8
OBJECT__61
10
0.000000
20
-71.961998
30
-8.630000
70
192
0
VERTEX
8
OBJECT__61
10
0
20
0
30
0
70
128
71
1
72
2
73
3
0
VERTEX
8
OBJECT__61
10
0
20
0
30
0
70
128
71
1
72
4
73
2
0
VERTEX
8
OBJECT__61
10
0
20
0
30
0
70
128
71
5
72
6
73
7
0
VERTEX
8
OBJECT__61
10
0
20
0
30
0
70
128
71
5
72
8
73
9
0
VERTEX
8
OBJECT__61
10
0
20
0
30
0
70
128
71
8
72
5
73
1
0
VERTEX
8
OBJECT__61
10
0
20
0
30
0
70
128
71
10
72
11
73
12
0
VERTEX
8
OBJECT__61
10
0
20
0
30
0
70
128
71
7
72
13
73
5
0
VERTEX
8
OBJECT__61
10
0
20
0
30
0
70
128
71
3
72
8
73
1
0
VERTEX
8
OBJECT__61
10
0
20
0
30
0
70
128
71
10
72
14
73
15
0
VERTEX
8
OBJECT__61
10
0
20
0
30
0
70
128
71
10
72
16
73
17
0
VERTEX
8
OBJECT__61
10
0
20
0
30
0
70
128
71
10
72
18
73
11
0
VERTEX
8
OBJECT__61
10
0
20
0
30
0
70
128
71
10
72
19
73
20
0
VERTEX
8
OBJECT__61
10
0
20
0
30
0
70
128
71
9
72
6
73
5
0
VERTEX
8
OBJECT__61
10
0
20
0
30
0
70
128
71
17
72
14
73
10
0
VERTEX
8
OBJECT__61
10
0
20
0
30
0
70
128
71
20
72
18
73
10
0
VERTEX
8
OBJECT__61
10
0
20
0
30
0
70
128
71
13
72
21
73
5
0
VERTEX
8
OBJECT__61
10
0
20
0
30
0
70
128
71
22
72
23
73
10
0
VERTEX
8
OBJECT__61
10
0
20
0
30
0
70
128
71
12
72
16
73
10
0
VERTEX
8
OBJECT__61
10
0
20
0
30
0
70
128
71
10
72
5
73
22
0
VERTEX
8
OBJECT__61
10
0
20
0
30
0
70
128
71
10
72
23
73
19
0
VERTEX
8
OBJECT__61
10
0
20
0
30
0
70
128
71
15
72
24
73
10
0
VERTEX
8
OBJECT__61
10
0
20
0
30
0
70
128
71
21
72
22
73
5
0
SEQEND
8
OBJECT__61
0
POLYLINE
8
OBJECT__62
66
1
70
64
71
19
72
17
62
253
0
VERTEX
8
OBJECT__62
10
55.584000
20
8.500000
30
22.400000
70
192
0
VERTEX
8
OBJECT__62
10
55.599998
20
8.500000
30
23.421000
70
192
0
VERTEX
8
OBJECT__62
10
55.599998
20
8.500000
30
23.337999
70
192
0
VERTEX
8
OBJECT__62
10
55.599998
20
8.500000
30
23.201000
70
192
0
VERTEX
8
OBJECT__62
10
55.599998
20
8.500000
30
23.122999
70
192
0
VERTEX
8
OBJECT__62
10
55.599998
20
8.500000
30
23.263000
70
192
0
VERTEX
8
OBJECT__62
10
55.599998
20
8.500000
30
23.232000
70
192
0
VERTEX
8
OBJECT__62
10
55.599998
20
8.500000
30
23.014000
70
192
0
VERTEX
8
OBJECT__62
10
55.599998
20
8.500000
30
22.988001
70
192
0
VERTEX
8
OBJECT__62
10
55.599998
20
8.500000
30
23.216999
70
192
0
VERTEX
8
OBJECT__62
10
55.599998
20
8.500000
30
23.528999
70
192
0
VERTEX
8
OBJECT__62
10
55.599998
20
8.500000
30
23.521999
70
192
0
VERTEX
8
OBJECT__62
10
55.599998
20
8.500000
30
22.400000
70
192
0
VERTEX
8
OBJECT__62
10
35.692001
20
8.500000
30
24.836000
70
192
0
VERTEX
8
OBJECT__62
10
55.599998
20
8.500000
30
23.569000
70
192
0
VERTEX
8
OBJECT__62
10
55.599998
20
8.500000
30
24.127001
70
192
0
VERTEX
8
OBJECT__62
10
35.700001
20
8.500000
30
22.000000
70
192
0
VERTEX
8
OBJECT__62
10
55.599998
20
8.500000
30
24.836000
70
192
0
VERTEX
8
OBJECT__62
10
55.584000
20
8.500000
30
22.000000
70
192
0
VERTEX
8
OBJECT__62
10
0
20
0
30
0
70
128
71
1
72
2
73
3
0
VERTEX
8
OBJECT__62
10
0
20
0
30
0
70
128
71
1
72
4
73
5
0
VERTEX
8
OBJECT__62
10
0
20
0
30
0
70
128
71
6
72
7
73
1
0
VERTEX
8
OBJECT__62
10
0
20
0
30
0
70
128
71
3
72
6
73
1
0
VERTEX
8
OBJECT__62
10
0
20
0
30
0
70
128
71
1
72
8
73
9
0
VERTEX
8
OBJECT__62
10
0
20
0
30
0
70
128
71
5
72
8
73
1
0
VERTEX
8
OBJECT__62
10
0
20
0
30
0
70
128
71
1
72
10
73
4
0
VERTEX
8
OBJECT__62
10
0
20
0
30
0
70
128
71
1
72
11
73
12
0
VERTEX
8
OBJECT__62
10
0
20
0
30
0
70
128
71
7
72
10
73
1
0
VERTEX
8
OBJECT__62
10
0
20
0
30
0
70
128
71
9
72
13
73
1
0
VERTEX
8
OBJECT__62
10
0
20
0
30
0
70
128
71
12
72
2
73
1
0
VERTEX
8
OBJECT__62
10
0
20
0
30
0
70
128
71
14
72
15
73
11
0
VERTEX
8
OBJECT__62
10
0
20
0
30
0
70
128
71
11
72
1
73
14
0
VERTEX
8
OBJECT__62
10
0
20
0
30
0
70
128
71
14
72
16
73
15
0
VERTEX
8
OBJECT__62
10
0
20
0
30
0
70
128
71
17
72
14
73
1
0
VERTEX
8
OBJECT__62
10
0
20
0
30
0
70
128
71
14
72
18
73
16
0
VERTEX
8
OBJECT__62
10
0
20
0
30
0
70
128
71
1
72
19
73
17
0
SEQEND
8
OBJECT__62
0
POLYLINE
8
OBJECT__63
66
1
70
64
71
34
72
36
62
253
0
VERTEX
8
OBJECT__63
10
61.041000
20
6.382000
30
25.447001
70
192
0
VERTEX
8
OBJECT__63
10
27.913000
20
3.407000
30
26.028000
70
192
0
VERTEX
8
OBJECT__63
10
27.235001
20
0.775000
30
26.239000
70
192
0
VERTEX
8
OBJECT__63
10
30.222000
20
6.352000
30
25.455000
70
192
0
VERTEX
8
OBJECT__63
10
29.396000
20
5.702000
30
25.622999
70
192
0
VERTEX
8
OBJECT__63
10
35.692001
20
8.500000
30
24.836000
70
192
0
VERTEX
8
OBJECT__63
10
34.384998
20
8.398000
30
24.871000
70
192
0
VERTEX
8
OBJECT__63
10
58.320000
20
7.449000
30
25.171000
70
192
0
VERTEX
8
OBJECT__63
10
55.599998
20
8.500000
30
24.836000
70
192
0
VERTEX
8
OBJECT__63
10
59.666000
20
7.464000
30
25.166000
70
192
0
VERTEX
8
OBJECT__63
10
56.915001
20
8.398000
30
24.871000
70
192
0
VERTEX
8
OBJECT__63
10
31.634001
20
7.464000
30
25.166000
70
192
0
VERTEX
8
OBJECT__63
10
64.065002
20
0.775000
30
26.239000
70
192
0
VERTEX
8
OBJECT__63
10
63.387001
20
3.407000
30
26.028000
70
192
0
VERTEX
8
OBJECT__63
10
63.696999
20
1.715000
30
26.194000
70
192
0
VERTEX
8
OBJECT__63
10
27.294001
20
0.001000
30
26.219999
70
192
0
VERTEX
8
OBJECT__63
10
61.903999
20
5.702000
30
25.622999
70
192
0
VERTEX
8
OBJECT__63
10
64.005997
20
0.001000
30
26.219999
70
192
0
VERTEX
8
OBJECT__63
10
64.007004
20
0.015000
30
26.219999
70
192
0
VERTEX
8
OBJECT__63
10
27.450001
20
-2.046000
30
26.170000
70
192
0
VERTEX
8
OBJECT__63
10
28.622000
20
-4.706000
30
25.825001
70
192
0
VERTEX
8
OBJECT__63
10
27.961000
20
-2.399000
30
26.139999
70
192
0
VERTEX
8
OBJECT__63
10
30.312000
20
-6.508000
30
25.421000
70
192
0
VERTEX
8
OBJECT__63
10
62.678001
20
-4.706000
30
25.825001
70
192
0
VERTEX
8
OBJECT__63
10
63.849998
20
-2.046000
30
26.170000
70
192
0
VERTEX
8
OBJECT__63
10
61.075001
20
-6.416000
30
25.441999
70
192
0
VERTEX
8
OBJECT__63
10
55.599998
20
-8.500000
30
24.836000
70
192
0
VERTEX
8
OBJECT__63
10
58.328999
20
-8.050000
30
24.985001
70
192
0
VERTEX
8
OBJECT__63
10
60.748001
20
-6.764000
30
25.364000
70
192
0
VERTEX
8
OBJECT__63
10
33.006001
20
-7.511000
30
25.152000
70
192
0
VERTEX
8
OBJECT__63
10
35.700001
20
-8.500000
30
24.836000
70
192
0
VERTEX
8
OBJECT__63
10
30.552000
20
-6.764000
30
25.364000
70
192
0
VERTEX
8
OBJECT__63
10
32.971001
20
-8.050000
30
24.985001
70
192
0
VERTEX
8
OBJECT__63
10
27.299999
20
-0.073000
30
26.218000
70
192
0
VERTEX
8
OBJECT__63
10
0
20
0
30
0
70
128
71
1
72
2
73
3
0
VERTEX
8
OBJECT__63
10
0
20
0
30
0
70
128
71
1
72
4
73
5
0
VERTEX
8
OBJECT__63
10
0
20
0
30
0
70
128
71
5
72
2
73
1
0
VERTEX
8
OBJECT__63
10
0
20
0
30
0
70
128
71
4
72
6
73
7
0
VERTEX
8
OBJECT__63
10
0
20
0
30
0
70
128
71
4
72
8
73
9
0
VERTEX
8
OBJECT__63
10
0
20
0
30
0
70
128
71
9
72
6
73
4
0
VERTEX
8
OBJECT__63
10
0
20
0
30
0
70
128
71
4
72
1
73
8
0
VERTEX
8
OBJECT__63
10
0
20
0
30
0
70
128
71
8
72
10
73
11
0
VERTEX
8
OBJECT__63
10
0
20
0
30
0
70
128
71
11
72
9
73
8
0
VERTEX
8
OBJECT__63
10
0
20
0
30
0
70
128
71
8
72
1
73
10
0
VERTEX
8
OBJECT__63
10
0
20
0
30
0
70
128
71
7
72
12
73
4
0
VERTEX
8
OBJECT__63
10
0
20
0
30
0
70
128
71
13
72
14
73
15
0
VERTEX
8
OBJECT__63
10
0
20
0
30
0
70
128
71
16
72
15
73
14
0
VERTEX
8
OBJECT__63
10
0
20
0
30
0
70
128
71
14
72
17
73
16
0
VERTEX
8
OBJECT__63
10
0
20
0
30
0
70
128
71
16
72
18
73
19
0
VERTEX
8
OBJECT__63
10
0
20
0
30
0
70
128
71
19
72
15
73
16
0
VERTEX
8
OBJECT__63
10
0
20
0
30
0
70
128
71
17
72
1
73
16
0
VERTEX
8
OBJECT__63
10
0
20
0
30
0
70
128
71
15
72
19
73
13
0
VERTEX
8
OBJECT__63
10
0
20
0
30
0
70
128
71
20
72
21
73
22
0
VERTEX
8
OBJECT__63
10
0
20
0
30
0
70
128
71
23
72
24
73
25
0
VERTEX
8
OBJECT__63
10
0
20
0
30
0
70
128
71
23
72
26
73
24
0
VERTEX
8
OBJECT__63
10
0
20
0
30
0
70
128
71
27
72
28
73
29
0
VERTEX
8
OBJECT__63
10
0
20
0
30
0
70
128
71
26
72
30
73
31
0
VERTEX
8
OBJECT__63
10
0
20
0
30
0
70
128
71
31
72
27
73
26
0
VERTEX
8
OBJECT__63
10
0
20
0
30
0
70
128
71
26
72
23
73
30
0
VERTEX
8
OBJECT__63
10
0
20
0
30
0
70
128
71
30
72
23
73
32
0
VERTEX
8
OBJECT__63
10
0
20
0
30
0
70
128
71
33
72
31
73
30
0
VERTEX
8
OBJECT__63
10
0
20
0
30
0
70
128
71
32
72
33
73
30
0
VERTEX
8
OBJECT__63
10
0
20
0
30
0
70
128
71
29
72
26
73
27
0
VERTEX
8
OBJECT__63
10
0
20
0
30
0
70
128
71
18
72
22
73
21
0
VERTEX
8
OBJECT__63
10
0
20
0
30
0
70
128
71
21
72
23
73
18
0
VERTEX
8
OBJECT__63
10
0
20
0
30
0
70
128
71
18
72
16
73
34
0
VERTEX
8
OBJECT__63
10
0
20
0
30
0
70
128
71
34
72
22
73
18
0
VERTEX
8
OBJECT__63
10
0
20
0
30
0
70
128
71
25
72
18
73
23
0
VERTEX
8
OBJECT__63
10
0
20
0
30
0
70
128
71
22
72
34
73
20
0
VERTEX
8
OBJECT__63
10
0
20
0
30
0
70
128
71
3
72
16
73
1
0
SEQEND
8
OBJECT__63
0
POLYLINE
8
OBJECT__65
66
1
70
64
71
36
72
35
62
253
0
VERTEX
8
OBJECT__65
10
61.111000
20
6.471000
30
22.000000
70
192
0
VERTEX
8
OBJECT__65
10
55.599998
20
8.500000
30
22.400000
70
192
0
VERTEX
8
OBJECT__65
10
56.915001
20
8.398000
30
24.871000
70
192
0
VERTEX
8
OBJECT__65
10
55.599998
20
8.500000
30
23.569000
70
192
0
VERTEX
8
OBJECT__65
10
55.599998
20
8.500000
30
24.127001
70
192
0
VERTEX
8
OBJECT__65
10
55.599998
20
8.500000
30
23.521999
70
192
0
VERTEX
8
OBJECT__65
10
55.599998
20
8.500000
30
23.528999
70
192
0
VERTEX
8
OBJECT__65
10
55.599998
20
8.500000
30
24.836000
70
192
0
VERTEX
8
OBJECT__65
10
55.599998
20
8.500000
30
23.421000
70
192
0
VERTEX
8
OBJECT__65
10
55.599998
20
8.500000
30
23.337999
70
192
0
VERTEX
8
OBJECT__65
10
55.599998
20
8.500000
30
23.263000
70
192
0
VERTEX
8
OBJECT__65
10
55.599998
20
8.500000
30
23.232000
70
192
0
VERTEX
8
OBJECT__65
10
55.599998
20
8.500000
30
23.201000
70
192
0
VERTEX
8
OBJECT__65
10
55.599998
20
8.500000
30
23.216999
70
192
0
VERTEX
8
OBJECT__65
10
55.599998
20
8.500000
30
23.122999
70
192
0
VERTEX
8
OBJECT__65
10
55.599998
20
8.500000
30
23.014000
70
192
0
VERTEX
8
OBJECT__65
10
55.599998
20
8.500000
30
22.988001
70
192
0
VERTEX
8
OBJECT__65
10
59.666000
20
7.464000
30
25.166000
70
192
0
VERTEX
8
OBJECT__65
10
55.584000
20
8.500000
30
22.000000
70
192
0
VERTEX
8
OBJECT__65
10
55.584000
20
8.500000
30
22.400000
70
192
0
VERTEX
8
OBJECT__65
10
64.099998
20
0.008000
30
22.000000
70
192
0
VERTEX
8
OBJECT__65
10
63.387001
20
3.407000
30
26.028000
70
192
0
VERTEX
8
OBJECT__65
10
64.065002
20
0.775000
30
26.239000
70
192
0
VERTEX
8
OBJECT__65
10
61.903999
20
5.702000
30
25.622999
70
192
0
VERTEX
8
OBJECT__65
10
61.041000
20
6.382000
30
25.447001
70
192
0
VERTEX
8
OBJECT__65
10
63.849998
20
-2.046000
30
26.170000
70
192
0
VERTEX
8
OBJECT__65
10
62.678001
20
-4.706000
30
25.825001
70
192
0
VERTEX
8
OBJECT__65
10
63.737000
20
-2.458000
30
26.021999
70
192
0
VERTEX
8
OBJECT__65
10
61.123001
20
-6.461000
30
22.000000
70
192
0
VERTEX
8
OBJECT__65
10
64.007004
20
0.015000
30
26.219999
70
192
0
VERTEX
8
OBJECT__65
10
64.005997
20
0.001000
30
26.219999
70
192
0
VERTEX
8
OBJECT__65
10
61.075001
20
-6.416000
30
25.441999
70
192
0
VERTEX
8
OBJECT__65
10
55.599998
20
-8.500000
30
22.000000
70
192
0
VERTEX
8
OBJECT__65
10
58.328999
20
-8.050000
30
24.985001
70
192
0
VERTEX
8
OBJECT__65
10
60.748001
20
-6.764000
30
25.364000
70
192
0
VERTEX
8
OBJECT__65
10
55.599998
20
-8.500000
30
24.836000
70
192
0
VERTEX
8
OBJECT__65
10
0
20
0
30
0
70
128
71
1
72
2
73
3
0
VERTEX
8
OBJECT__65
10
0
20
0
30
0
70
128
71
3
72
4
73
5
0
VERTEX
8
OBJECT__65
10
0
20
0
30
0
70
128
71
3
72
6
73
7
0
VERTEX
8
OBJECT__65
10
0
20
0
30
0
70
128
71
7
72
4
73
3
0
VERTEX
8
OBJECT__65
10
0
20
0
30
0
70
128
71
5
72
8
73
3
0
VERTEX
8
OBJECT__65
10
0
20
0
30
0
70
128
71
3
72
9
73
6
0
VERTEX
8
OBJECT__65
10
0
20
0
30
0
70
128
71
3
72
10
73
9
0
VERTEX
8
OBJECT__65
10
0
20
0
30
0
70
128
71
3
72
11
73
10
0
VERTEX
8
OBJECT__65
10
0
20
0
30
0
70
128
71
3
72
12
73
11
0
VERTEX
8
OBJECT__65
10
0
20
0
30
0
70
128
71
3
72
13
73
14
0
VERTEX
8
OBJECT__65
10
0
20
0
30
0
70
128
71
14
72
12
73
3
0
VERTEX
8
OBJECT__65
10
0
20
0
30
0
70
128
71
3
72
15
73
13
0
VERTEX
8
OBJECT__65
10
0
20
0
30
0
70
128
71
3
72
16
73
15
0
VERTEX
8
OBJECT__65
10
0
20
0
30
0
70
128
71
3
72
17
73
16
0
VERTEX
8
OBJECT__65
10
0
20
0
30
0
70
128
71
3
72
2
73
17
0
VERTEX
8
OBJECT__65
10
0
20
0
30
0
70
128
71
3
72
18
73
1
0
VERTEX
8
OBJECT__65
10
0
20
0
30
0
70
128
71
19
72
20
73
2
0
VERTEX
8
OBJECT__65
10
0
20
0
30
0
70
128
71
2
72
1
73
19
0
VERTEX
8
OBJECT__65
10
0
20
0
30
0
70
128
71
21
72
22
73
23
0
VERTEX
8
OBJECT__65
10
0
20
0
30
0
70
128
71
1
72
24
73
22
0
VERTEX
8
OBJECT__65
10
0
20
0
30
0
70
128
71
22
72
21
73
1
0
VERTEX
8
OBJECT__65
10
0
20
0
30
0
70
128
71
1
72
25
73
24
0
VERTEX
8
OBJECT__65
10
0
20
0
30
0
70
128
71
26
72
27
73
28
0
VERTEX
8
OBJECT__65
10
0
20
0
30
0
70
128
71
21
72
28
73
27
0
VERTEX
8
OBJECT__65
10
0
20
0
30
0
70
128
71
27
72
29
73
21
0
VERTEX
8
OBJECT__65
10
0
20
0
30
0
70
128
71
21
72
30
73
31
0
VERTEX
8
OBJECT__65
10
0
20
0
30
0
70
128
71
31
72
28
73
21
0
VERTEX
8
OBJECT__65
10
0
20
0
30
0
70
128
71
27
72
32
73
29
0
VERTEX
8
OBJECT__65
10
0
20
0
30
0
70
128
71
28
72
31
73
26
0
VERTEX
8
OBJECT__65
10
0
20
0
30
0
70
128
71
33
72
29
73
34
0
VERTEX
8
OBJECT__65
10
0
20
0
30
0
70
128
71
29
72
32
73
35
0
VERTEX
8
OBJECT__65
10
0
20
0
30
0
70
128
71
35
72
34
73
29
0
VERTEX
8
OBJECT__65
10
0
20
0
30
0
70
128
71
34
72
36
73
33
0
VERTEX
8
OBJECT__65
10
0
20
0
30
0
70
128
71
23
72
30
73
21
0
VERTEX
8
OBJECT__65
10
0
20
0
30
0
70
128
71
18
72
25
73
1
0
SEQEND
8
OBJECT__65
0
POLYLINE
8
OBJECT__66
66
1
70
64
71
20
72
18
62
253
0
VERTEX
8
OBJECT__66
10
30.275000
20
-6.543000
30
22.000000
70
192
0
VERTEX
8
OBJECT__66
10
32.971001
20
-8.050000
30
24.985001
70
192
0
VERTEX
8
OBJECT__66
10
30.552000
20
-6.764000
30
25.364000
70
192
0
VERTEX
8
OBJECT__66
10
35.700001
20
-8.500000
30
22.000000
70
192
0
VERTEX
8
OBJECT__66
10
35.700001
20
-8.500000
30
24.836000
70
192
0
VERTEX
8
OBJECT__66
10
27.200001
20
-0.080000
30
22.000000
70
192
0
VERTEX
8
OBJECT__66
10
28.622000
20
-4.706000
30
25.825001
70
192
0
VERTEX
8
OBJECT__66
10
27.450001
20
-2.046000
30
26.170000
70
192
0
VERTEX
8
OBJECT__66
10
30.312000
20
-6.508000
30
25.421000
70
192
0
VERTEX
8
OBJECT__66
10
30.152000
20
6.440000
30
22.000000
70
192
0
VERTEX
8
OBJECT__66
10
27.913000
20
3.407000
30
26.028000
70
192
0
VERTEX
8
OBJECT__66
10
27.294001
20
0.001000
30
26.219999
70
192
0
VERTEX
8
OBJECT__66
10
27.235001
20
0.775000
30
26.239000
70
192
0
VERTEX
8
OBJECT__66
10
29.396000
20
5.702000
30
25.622999
70
192
0
VERTEX
8
OBJECT__66
10
27.299999
20
-0.073000
30
26.218000
70
192
0
VERTEX
8
OBJECT__66
10
31.634001
20
7.464000
30
25.166000
70
192
0
VERTEX
8
OBJECT__66
10
34.384998
20
8.398000
30
24.871000
70
192
0
VERTEX
8
OBJECT__66
10
30.222000
20
6.352000
30
25.455000
70
192
0
VERTEX
8
OBJECT__66
10
35.700001
20
8.500000
30
22.000000
70
192
0
VERTEX
8
OBJECT__66
10
35.692001
20
8.500000
30
24.836000
70
192
0
VERTEX
8
OBJECT__66
10
0
20
0
30
0
70
128
71
1
72
2
73
3
0
VERTEX
8
OBJECT__66
10
0
20
0
30
0
70
128
71
4
72
5
73
2
0
VERTEX
8
OBJECT__66
10
0
20
0
30
0
70
128
71
2
72
1
73
4
0
VERTEX
8
OBJECT__66
10
0
20
0
30
0
70
128
71
6
72
1
73
7
0
VERTEX
8
OBJECT__66
10
0
20
0
30
0
70
128
71
7
72
8
73
6
0
VERTEX
8
OBJECT__66
10
0
20
0
30
0
70
128
71
1
72
9
73
7
0
VERTEX
8
OBJECT__66
10
0
20
0
30
0
70
128
71
10
72
6
73
11
0
VERTEX
8
OBJECT__66
10
0
20
0
30
0
70
128
71
6
72
12
73
13
0
VERTEX
8
OBJECT__66
10
0
20
0
30
0
70
128
71
13
72
11
73
6
0
VERTEX
8
OBJECT__66
10
0
20
0
30
0
70
128
71
11
72
14
73
10
0
VERTEX
8
OBJECT__66
10
0
20
0
30
0
70
128
71
6
72
15
73
12
0
VERTEX
8
OBJECT__66
10
0
20
0
30
0
70
128
71
10
72
16
73
17
0
VERTEX
8
OBJECT__66
10
0
20
0
30
0
70
128
71
10
72
18
73
16
0
VERTEX
8
OBJECT__66
10
0
20
0
30
0
70
128
71
17
72
19
73
10
0
VERTEX
8
OBJECT__66
10
0
20
0
30
0
70
128
71
17
72
20
73
19
0
VERTEX
8
OBJECT__66
10
0
20
0
30
0
70
128
71
14
72
18
73
10
0
VERTEX
8
OBJECT__66
10
0
20
0
30
0
70
128
71
8
72
15
73
6
0
VERTEX
8
OBJECT__66
10
0
20
0
30
0
70
128
71
3
72
9
73
1
0
SEQEND
8
OBJECT__66
0
POLYLINE
8
OBJECT__67
66
1
70
64
71
4
72
2
62
253
0
VERTEX
8
OBJECT__67
10
55.599998
20
-8.500000
30
22.000000
70
192
0
VERTEX
8
OBJECT__67
10
55.599998
20
-8.500000
30
24.836000
70
192
0
VERTEX
8
OBJECT__67
10
35.700001
20
-8.500000
30
24.836000
70
192
0
VERTEX
8
OBJECT__67
10
35.700001
20
-8.500000
30
22.000000
70
192
0
VERTEX
8
OBJECT__67
10
0
20
0
30
0
70
128
71
1
72
2
73
3
0
VERTEX
8
OBJECT__67
10
0
20
0
30
0
70
128
71
3
72
4
73
1
0
SEQEND
8
OBJECT__67
0
POLYLINE
8
OBJECT__68
66
1
70
64
71
24
72
24
62
253
0
VERTEX
8
OBJECT__68
10
45.375000
20
-9.923000
30
-15.441000
70
192
0
VERTEX
8
OBJECT__68
10
16.799999
20
-9.923000
30
-15.441000
70
192
0
VERTEX
8
OBJECT__68
10
16.799999
20
0.000000
30
-18.354000
70
192
0
VERTEX
8
OBJECT__68
10
45.375000
20
-16.695999
30
-7.625000
70
192
0
VERTEX
8
OBJECT__68
10
16.799999
20
-16.695999
30
-7.625000
70
192
0
VERTEX
8
OBJECT__68
10
45.375000
20
-18.167999
30
2.612000
70
192
0
VERTEX
8
OBJECT__68
10
16.799999
20
-18.167999
30
2.612000
70
192
0
VERTEX
8
OBJECT__68
10
45.375000
20
-13.871000
30
12.020000
70
192
0
VERTEX
8
OBJECT__68
10
16.799999
20
-13.871000
30
12.020000
70
192
0
VERTEX
8
OBJECT__68
10
45.375000
20
-5.171000
30
17.611000
70
192
0
VERTEX
8
OBJECT__68
10
16.799999
20
-5.171000
30
17.611000
70
192
0
VERTEX
8
OBJECT__68
10
45.375000
20
5.171000
30
17.611000
70
192
0
VERTEX
8
OBJECT__68
10
16.799999
20
0.000000
30
18.354000
70
192
0
VERTEX
8
OBJECT__68
10
16.799999
20
5.171000
30
17.611000
70
192
0
VERTEX
8
OBJECT__68
10
45.375000
20
13.871000
30
12.020000
70
192
0
VERTEX
8
OBJECT__68
10
16.799999
20
13.871000
30
12.020000
70
192
0
VERTEX
8
OBJECT__68
10
16.799999
20
18.167999
30
2.612000
70
192
0
VERTEX
8
OBJECT__68
10
16.799999
20
16.695999
30
-7.625000
70
192
0
VERTEX
8
OBJECT__68
10
45.375000
20
18.354000
30
0.000000
70
192
0
VERTEX
8
OBJECT__68
10
45.375000
20
18.167999
30
2.612000
70
192
0
VERTEX
8
OBJECT__68
10
16.799999
20
9.923000
30
-15.441000
70
192
0
VERTEX
8
OBJECT__68
10
45.375000
20
16.695999
30
-7.625000
70
192
0
VERTEX
8
OBJECT__68
10
45.375000
20
9.923000
30
-15.441000
70
192
0
VERTEX
8
OBJECT__68
10
45.375000
20
0.000000
30
-18.354000
70
192
0
VERTEX
8
OBJECT__68
10
0
20
0
30
0
70
128
71
1
72
2
73
3
0
VERTEX
8
OBJECT__68
10
0
20
0
30
0
70
128
71
4
72
5
73
2
0
VERTEX
8
OBJECT__68
10
0
20
0
30
0
70
128
71
6
72
7
73
5
0
VERTEX
8
OBJECT__68
10
0
20
0
30
0
70
128
71
8
72
9
73
7
0
VERTEX
8
OBJECT__68
10
0
20
0
30
0
70
128
71
10
72
11
73
9
0
VERTEX
8
OBJECT__68
10
0
20
0
30
0
70
128
71
10
72
12
73
13
0
VERTEX
8
OBJECT__68
10
0
20
0
30
0
70
128
71
12
72
14
73
13
0
VERTEX
8
OBJECT__68
10
0
20
0
30
0
70
128
71
15
72
16
73
14
0
VERTEX
8
OBJECT__68
10
0
20
0
30
0
70
128
71
17
72
16
73
15
0
VERTEX
8
OBJECT__68
10
0
20
0
30
0
70
128
71
18
72
17
73
19
0
VERTEX
8
OBJECT__68
10
0
20
0
30
0
70
128
71
17
72
20
73
19
0
VERTEX
8
OBJECT__68
10
0
20
0
30
0
70
128
71
21
72
18
73
22
0
VERTEX
8
OBJECT__68
10
0
20
0
30
0
70
128
71
3
72
21
73
23
0
VERTEX
8
OBJECT__68
10
0
20
0
30
0
70
128
71
23
72
24
73
3
0
VERTEX
8
OBJECT__68
10
0
20
0
30
0
70
128
71
22
72
23
73
21
0
VERTEX
8
OBJECT__68
10
0
20
0
30
0
70
128
71
19
72
22
73
18
0
VERTEX
8
OBJECT__68
10
0
20
0
30
0
70
128
71
15
72
20
73
17
0
VERTEX
8
OBJECT__68
10
0
20
0
30
0
70
128
71
14
72
12
73
15
0
VERTEX
8
OBJECT__68
10
0
20
0
30
0
70
128
71
13
72
11
73
10
0
VERTEX
8
OBJECT__68
10
0
20
0
30
0
70
128
71
9
72
8
73
10
0
VERTEX
8
OBJECT__68
10
0
20
0
30
0
70
128
71
7
72
6
73
8
0
VERTEX
8
OBJECT__68
10
0
20
0
30
0
70
128
71
5
72
4
73
6
0
VERTEX
8
OBJECT__68
10
0
20
0
30
0
70
128
71
2
72
1
73
4
0
VERTEX
8
OBJECT__68
10
0
20
0
30
0
70
128
71
3
72
24
73
1
0
SEQEND
8
OBJECT__68
0
POLYLINE
8
OBJECT__69
66
1
70
64
71
30
72
30
62
253
0
VERTEX
8
OBJECT__69
10
16.799999
20
0.000000
30
24.250000
70
192
0
VERTEX
8
OBJECT__69
10
16.799999
20
0.000000
30
18.354000
70
192
0
VERTEX
8
OBJECT__69
10
16.799999
20
5.171000
30
17.611000
70
192
0
VERTEX
8
OBJECT__69
10
16.799999
20
-8.294000
30
22.788000
70
192
0
VERTEX
8
OBJECT__69
10
16.799999
20
-5.171000
30
17.611000
70
192
0
VERTEX
8
OBJECT__69
10
16.799999
20
18.167999
30
2.612000
70
192
0
VERTEX
8
OBJECT__69
10
16.799999
20
16.695999
30
-7.625000
70
192
0
VERTEX
8
OBJECT__69
10
16.799999
20
23.882000
30
-4.211000
70
192
0
VERTEX
8
OBJECT__69
10
16.799999
20
13.871000
30
12.020000
70
192
0
VERTEX
8
OBJECT__69
10
16.799999
20
15.588000
30
18.577000
70
192
0
VERTEX
8
OBJECT__69
10
16.799999
20
-18.167999
30
2.612000
70
192
0
VERTEX
8
OBJECT__69
10
16.799999
20
-13.871000
30
12.020000
70
192
0
VERTEX
8
OBJECT__69
10
16.799999
20
-21.000999
30
12.125000
70
192
0
VERTEX
8
OBJECT__69
10
16.799999
20
-23.882000
30
4.211000
70
192
0
VERTEX
8
OBJECT__69
10
16.799999
20
-23.882000
30
-4.211000
70
192
0
VERTEX
8
OBJECT__69
10
16.799999
20
9.923000
30
-15.441000
70
192
0
VERTEX
8
OBJECT__69
10
16.799999
20
15.588000
30
-18.577000
70
192
0
VERTEX
8
OBJECT__69
10
16.799999
20
21.000999
30
-12.125000
70
192
0
VERTEX
8
OBJECT__69
10
16.799999
20
23.882000
30
4.211000
70
192
0
VERTEX
8
OBJECT__69
10
16.799999
20
21.000999
30
12.125000
70
192
0
VERTEX
8
OBJECT__69
10
16.799999
20
8.294000
30
22.788000
70
192
0
VERTEX
8
OBJECT__69
10
16.799999
20
-15.588000
30
18.577000
70
192
0
VERTEX
8
OBJECT__69
10
16.799999
20
-16.695999
30
-7.625000
70
192
0
VERTEX
8
OBJECT__69
10
16.799999
20
0.000000
30
-18.354000
70
192
0
VERTEX
8
OBJECT__69
10
16.799999
20
-9.923000
30
-15.441000
70
192
0
VERTEX
8
OBJECT__69
10
16.799999
20
-8.294000
30
-22.788000
70
192
0
VERTEX
8
OBJECT__69
10
16.799999
20
0.000000
30
-24.250000
70
192
0
VERTEX
8
OBJECT__69
10
16.799999
20
8.294000
30
-22.788000
70
192
0
VERTEX
8
OBJECT__69
10
16.799999
20
-21.000999
30
-12.125000
70
192
0
VERTEX
8
OBJECT__69
10
16.799999
20
-15.588000
30
-18.577000
70
192
0
VERTEX
8
OBJECT__69
10
0
20
0
30
0
70
128
71
1
72
2
73
3
0
VERTEX
8
OBJECT__69
10
0
20
0
30
0
70
128
71
1
72
4
73
5
0
VERTEX
8
OBJECT__69
10
0
20
0
30
0
70
128
71
6
72
7
73
8
0
VERTEX
8
OBJECT__69
10
0
20
0
30
0
70
128
71
3
72
9
73
10
0
VERTEX
8
OBJECT__69
10
0
20
0
30
0
70
128
71
5
72
2
73
1
0
VERTEX
8
OBJECT__69
10
0
20
0
30
0
70
128
71
11
72
12
73
13
0
VERTEX
8
OBJECT__69
10
0
20
0
30
0
70
128
71
11
72
14
73
15
0
VERTEX
8
OBJECT__69
10
0
20
0
30
0
70
128
71
7
72
16
73
17
0
VERTEX
8
OBJECT__69
10
0
20
0
30
0
70
128
71
7
72
18
73
8
0
VERTEX
8
OBJECT__69
10
0
20
0
30
0
70
128
71
6
72
19
73
20
0
VERTEX
8
OBJECT__69
10
0
20
0
30
0
70
128
71
3
72
21
73
1
0
VERTEX
8
OBJECT__69
10
0
20
0
30
0
70
128
71
5
72
4
73
22
0
VERTEX
8
OBJECT__69
10
0
20
0
30
0
70
128
71
12
72
22
73
13
0
VERTEX
8
OBJECT__69
10
0
20
0
30
0
70
128
71
15
72
23
73
11
0
VERTEX
8
OBJECT__69
10
0
20
0
30
0
70
128
71
24
72
25
73
26
0
VERTEX
8
OBJECT__69
10
0
20
0
30
0
70
128
71
24
72
27
73
28
0
VERTEX
8
OBJECT__69
10
0
20
0
30
0
70
128
71
8
72
19
73
6
0
VERTEX
8
OBJECT__69
10
0
20
0
30
0
70
128
71
20
72
9
73
6
0
VERTEX
8
OBJECT__69
10
0
20
0
30
0
70
128
71
22
72
12
73
5
0
VERTEX
8
OBJECT__69
10
0
20
0
30
0
70
128
71
15
72
29
73
23
0
VERTEX
8
OBJECT__69
10
0
20
0
30
0
70
128
71
23
72
29
73
30
0
VERTEX
8
OBJECT__69
10
0
20
0
30
0
70
128
71
25
72
30
73
26
0
VERTEX
8
OBJECT__69
10
0
20
0
30
0
70
128
71
28
72
16
73
24
0
VERTEX
8
OBJECT__69
10
0
20
0
30
0
70
128
71
20
72
10
73
9
0
VERTEX
8
OBJECT__69
10
0
20
0
30
0
70
128
71
13
72
14
73
11
0
VERTEX
8
OBJECT__69
10
0
20
0
30
0
70
128
71
26
72
27
73
24
0
VERTEX
8
OBJECT__69
10
0
20
0
30
0
70
128
71
17
72
18
73
7
0
VERTEX
8
OBJECT__69
10
0
20
0
30
0
70
128
71
30
72
25
73
23
0
VERTEX
8
OBJECT__69
10
0
20
0
30
0
70
128
71
10
72
21
73
3
0
VERTEX
8
OBJECT__69
10
0
20
0
30
0
70
128
71
28
72
17
73
16
0
SEQEND
8
OBJECT__69
0
POLYLINE
8
OBJECT__71
66
1
70
64
71
66
72
84
62
253
0
VERTEX
8
OBJECT__71
10
16.214001
20
0.000000
30
25.664000
70
192
0
VERTEX
8
OBJECT__71
10
14.800000
20
0.000000
30
26.250000
70
192
0
VERTEX
8
OBJECT__71
10
14.800000
20
-6.223000
30
25.153000
70
192
0
VERTEX
8
OBJECT__71
10
16.214001
20
-8.778000
30
24.115999
70
192
0
VERTEX
8
OBJECT__71
10
14.800000
20
-16.872999
30
20.108999
70
192
0
VERTEX
8
OBJECT__71
10
16.214001
20
-16.497000
30
19.660000
70
192
0
VERTEX
8
OBJECT__71
10
16.214001
20
-22.226000
30
12.832000
70
192
0
VERTEX
8
OBJECT__71
10
14.800000
20
-17.320000
30
19.576000
70
192
0
VERTEX
8
OBJECT__71
10
16.214001
20
-25.274000
30
4.457000
70
192
0
VERTEX
8
OBJECT__71
10
14.800000
20
-24.172001
30
9.173000
70
192
0
VERTEX
8
OBJECT__71
10
14.800000
20
-22.733000
30
13.125000
70
192
0
VERTEX
8
OBJECT__71
10
14.800000
20
-25.851000
30
4.558000
70
192
0
VERTEX
8
OBJECT__71
10
14.800000
20
-25.851000
30
-3.164000
70
192
0
VERTEX
8
OBJECT__71
10
16.214001
20
-25.274000
30
-4.457000
70
192
0
VERTEX
8
OBJECT__71
10
14.800000
20
-22.733000
30
-13.125000
70
192
0
VERTEX
8
OBJECT__71
10
16.214001
20
-22.226000
30
-12.832000
70
192
0
VERTEX
8
OBJECT__71
10
16.214001
20
-16.497000
30
-19.660000
70
192
0
VERTEX
8
OBJECT__71
10
14.800000
20
-21.386999
30
-14.730000
70
192
0
VERTEX
8
OBJECT__71
10
14.800000
20
-16.872999
30
-20.108999
70
192
0
VERTEX
8
OBJECT__71
10
14.800000
20
-12.010000
30
-22.916000
70
192
0
VERTEX
8
OBJECT__71
10
16.214001
20
-8.778000
30
-24.115999
70
192
0
VERTEX
8
OBJECT__71
10
14.800000
20
0.000000
30
-26.250000
70
192
0
VERTEX
8
OBJECT__71
10
16.214001
20
0.000000
30
-25.664000
70
192
0
VERTEX
8
OBJECT__71
10
14.800000
20
8.978000
30
-24.667000
70
192
0
VERTEX
8
OBJECT__71
10
16.214001
20
8.778000
30
-24.115999
70
192
0
VERTEX
8
OBJECT__71
10
16.214001
20
16.497000
30
-19.660000
70
192
0
VERTEX
8
OBJECT__71
10
14.800000
20
12.010000
30
-22.916000
70
192
0
VERTEX
8
OBJECT__71
10
14.800000
20
16.872999
30
-20.108999
70
192
0
VERTEX
8
OBJECT__71
10
14.800000
20
21.386999
30
-14.730000
70
192
0
VERTEX
8
OBJECT__71
10
16.214001
20
22.226000
30
-12.832000
70
192
0
VERTEX
8
OBJECT__71
10
14.800000
20
25.851000
30
-4.558000
70
192
0
VERTEX
8
OBJECT__71
10
16.214001
20
25.274000
30
-4.457000
70
192
0
VERTEX
8
OBJECT__71
10
16.214001
20
25.274000
30
4.457000
70
192
0
VERTEX
8
OBJECT__71
10
14.800000
20
25.851000
30
-3.164000
70
192
0
VERTEX
8
OBJECT__71
10
14.800000
20
25.851000
30
4.558000
70
192
0
VERTEX
8
OBJECT__71
10
14.800000
20
24.172001
30
9.173000
70
192
0
VERTEX
8
OBJECT__71
10
16.214001
20
22.226000
30
12.832000
70
192
0
VERTEX
8
OBJECT__71
10
14.800000
20
22.733000
30
13.125000
70
192
0
VERTEX
8
OBJECT__71
10
14.800000
20
17.320000
30
19.576000
70
192
0
VERTEX
8
OBJECT__71
10
16.214001
20
16.497000
30
19.660000
70
192
0
VERTEX
8
OBJECT__71
10
14.800000
20
8.978000
30
24.667000
70
192
0
VERTEX
8
OBJECT__71
10
16.214001
20
8.778000
30
24.115999
70
192
0
VERTEX
8
OBJECT__71
10
14.800000
20
6.223000
30
25.153000
70
192
0
VERTEX
8
OBJECT__71
10
16.799999
20
-8.294000
30
22.788000
70
192
0
VERTEX
8
OBJECT__71
10
16.799999
20
-15.588000
30
18.577000
70
192
0
VERTEX
8
OBJECT__71
10
16.799999
20
-21.000999
30
12.125000
70
192
0
VERTEX
8
OBJECT__71
10
16.799999
20
-23.882000
30
4.211000
70
192
0
VERTEX
8
OBJECT__71
10
16.799999
20
-23.882000
30
-4.211000
70
192
0
VERTEX
8
OBJECT__71
10
16.799999
20
-21.000999
30
-12.125000
70
192
0
VERTEX
8
OBJECT__71
10
16.799999
20
-15.588000
30
-18.577000
70
192
0
VERTEX
8
OBJECT__71
10
16.799999
20
-8.294000
30
-22.788000
70
192
0
VERTEX
8
OBJECT__71
10
16.799999
20
0.000000
30
-24.250000
70
192
0
VERTEX
8
OBJECT__71
10
16.799999
20
8.294000
30
-22.788000
70
192
0
VERTEX
8
OBJECT__71
10
16.799999
20
15.588000
30
-18.577000
70
192
0
VERTEX
8
OBJECT__71
10
16.799999
20
21.000999
30
-12.125000
70
192
0
VERTEX
8
OBJECT__71
10
16.799999
20
23.882000
30
-4.211000
70
192
0
VERTEX
8
OBJECT__71
10
16.799999
20
23.882000
30
4.211000
70
192
0
VERTEX
8
OBJECT__71
10
16.799999
20
21.000999
30
12.125000
70
192
0
VERTEX
8
OBJECT__71
10
16.799999
20
15.588000
30
18.577000
70
192
0
VERTEX
8
OBJECT__71
10
16.799999
20
8.294000
30
22.788000
70
192
0
VERTEX
8
OBJECT__71
10
16.799999
20
0.000000
30
24.250000
70
192
0
VERTEX
8
OBJECT__71
10
14.800000
20
16.872999
30
20.108999
70
192
0
VERTEX
8
OBJECT__71
10
14.800000
20
22.733000
30
-13.125000
70
192
0
VERTEX
8
OBJECT__71
10
14.800000
20
-8.978000
30
-24.667000
70
192
0
VERTEX
8
OBJECT__71
10
14.800000
20
-25.851000
30
-4.558000
70
192
0
VERTEX
8
OBJECT__71
10
14.800000
20
-8.978000
30
24.667000
70
192
0
VERTEX
8
OBJECT__71
10
0
20
0
30
0
70
128
71
1
72
2
73
3
0
VERTEX
8
OBJECT__71
10
0
20
0
30
0
70
128
71
3
72
4
73
1
0
VERTEX
8
OBJECT__71
10
0
20
0
30
0
70
128
71
5
72
6
73
4
0
VERTEX
8
OBJECT__71
10
0
20
0
30
0
70
128
71
7
72
6
73
8
0
VERTEX
8
OBJECT__71
10
0
20
0
30
0
70
128
71
6
72
5
73
8
0
VERTEX
8
OBJECT__71
10
0
20
0
30
0
70
128
71
9
72
7
73
10
0
VERTEX
8
OBJECT__71
10
0
20
0
30
0
70
128
71
7
72
11
73
10
0
VERTEX
8
OBJECT__71
10
0
20
0
30
0
70
128
71
9
72
12
73
13
0
VERTEX
8
OBJECT__71
10
0
20
0
30
0
70
128
71
13
72
14
73
9
0
VERTEX
8
OBJECT__71
10
0
20
0
30
0
70
128
71
15
72
16
73
14
0
VERTEX
8
OBJECT__71
10
0
20
0
30
0
70
128
71
17
72
16
73
18
0
VERTEX
8
OBJECT__71
10
0
20
0
30
0
70
128
71
16
72
15
73
18
0
VERTEX
8
OBJECT__71
10
0
20
0
30
0
70
128
71
17
72
19
73
20
0
VERTEX
8
OBJECT__71
10
0
20
0
30
0
70
128
71
20
72
21
73
17
0
VERTEX
8
OBJECT__71
10
0
20
0
30
0
70
128
71
22
72
23
73
21
0
VERTEX
8
OBJECT__71
10
0
20
0
30
0
70
128
71
22
72
24
73
25
0
VERTEX
8
OBJECT__71
10
0
20
0
30
0
70
128
71
26
72
25
73
27
0
VERTEX
8
OBJECT__71
10
0
20
0
30
0
70
128
71
25
72
24
73
27
0
VERTEX
8
OBJECT__71
10
0
20
0
30
0
70
128
71
26
72
28
73
29
0
VERTEX
8
OBJECT__71
10
0
20
0
30
0
70
128
71
29
72
30
73
26
0
VERTEX
8
OBJECT__71
10
0
20
0
30
0
70
128
71
31
72
32
73
30
0
VERTEX
8
OBJECT__71
10
0
20
0
30
0
70
128
71
33
72
32
73
34
0
VERTEX
8
OBJECT__71
10
0
20
0
30
0
70
128
71
32
72
31
73
34
0
VERTEX
8
OBJECT__71
10
0
20
0
30
0
70
128
71
33
72
35
73
36
0
VERTEX
8
OBJECT__71
10
0
20
0
30
0
70
128
71
36
72
37
73
33
0
VERTEX
8
OBJECT__71
10
0
20
0
30
0
70
128
71
37
72
38
73
39
0
VERTEX
8
OBJECT__71
10
0
20
0
30
0
70
128
71
39
72
40
73
37
0
VERTEX
8
OBJECT__71
10
0
20
0
30
0
70
128
71
41
72
42
73
40
0
VERTEX
8
OBJECT__71
10
0
20
0
30
0
70
128
71
1
72
42
73
43
0
VERTEX
8
OBJECT__71
10
0
20
0
30
0
70
128
71
42
72
41
73
43
0
VERTEX
8
OBJECT__71
10
0
20
0
30
0
70
128
71
1
72
4
73
44
0
VERTEX
8
OBJECT__71
10
0
20
0
30
0
70
128
71
4
72
6
73
45
0
VERTEX
8
OBJECT__71
10
0
20
0
30
0
70
128
71
6
72
7
73
46
0
VERTEX
8
OBJECT__71
10
0
20
0
30
0
70
128
71
7
72
9
73
47
0
VERTEX
8
OBJECT__71
10
0
20
0
30
0
70
128
71
9
72
14
73
48
0
VERTEX
8
OBJECT__71
10
0
20
0
30
0
70
128
71
14
72
16
73
49
0
VERTEX
8
OBJECT__71
10
0
20
0
30
0
70
128
71
16
72
17
73
50
0
VERTEX
8
OBJECT__71
10
0
20
0
30
0
70
128
71
17
72
21
73
51
0
VERTEX
8
OBJECT__71
10
0
20
0
30
0
70
128
71
23
72
52
73
51
0
VERTEX
8
OBJECT__71
10
0
20
0
30
0
70
128
71
25
72
53
73
52
0
VERTEX
8
OBJECT__71
10
0
20
0
30
0
70
128
71
25
72
26
73
54
0
VERTEX
8
OBJECT__71
10
0
20
0
30
0
70
128
71
26
72
30
73
55
0
VERTEX
8
OBJECT__71
10
0
20
0
30
0
70
128
71
30
72
32
73
56
0
VERTEX
8
OBJECT__71
10
0
20
0
30
0
70
128
71
32
72
33
73
57
0
VERTEX
8
OBJECT__71
10
0
20
0
30
0
70
128
71
33
72
37
73
58
0
VERTEX
8
OBJECT__71
10
0
20
0
30
0
70
128
71
37
72
40
73
59
0
VERTEX
8
OBJECT__71
10
0
20
0
30
0
70
128
71
40
72
42
73
60
0
VERTEX
8
OBJECT__71
10
0
20
0
30
0
70
128
71
1
72
61
73
60
0
VERTEX
8
OBJECT__71
10
0
20
0
30
0
70
128
71
60
72
42
73
1
0
VERTEX
8
OBJECT__71
10
0
20
0
30
0
70
128
71
60
72
59
73
40
0
VERTEX
8
OBJECT__71
10
0
20
0
30
0
70
128
71
59
72
58
73
37
0
VERTEX
8
OBJECT__71
10
0
20
0
30
0
70
128
71
58
72
57
73
33
0
VERTEX
8
OBJECT__71
10
0
20
0
30
0
70
128
71
57
72
56
73
32
0
VERTEX
8
OBJECT__71
10
0
20
0
30
0
70
128
71
56
72
55
73
30
0
VERTEX
8
OBJECT__71
10
0
20
0
30
0
70
128
71
55
72
54
73
26
0
VERTEX
8
OBJECT__71
10
0
20
0
30
0
70
128
71
54
72
53
73
25
0
VERTEX
8
OBJECT__71
10
0
20
0
30
0
70
128
71
52
72
23
73
25
0
VERTEX
8
OBJECT__71
10
0
20
0
30
0
70
128
71
51
72
21
73
23
0
VERTEX
8
OBJECT__71
10
0
20
0
30
0
70
128
71
51
72
50
73
17
0
VERTEX
8
OBJECT__71
10
0
20
0
30
0
70
128
71
50
72
49
73
16
0
VERTEX
8
OBJECT__71
10
0
20
0
30
0
70
128
71
49
72
48
73
14
0
VERTEX
8
OBJECT__71
10
0
20
0
30
0
70
128
71
48
72
47
73
9
0
VERTEX
8
OBJECT__71
10
0
20
0
30
0
70
128
71
47
72
46
73
7
0
VERTEX
8
OBJECT__71
10
0
20
0
30
0
70
128
71
46
72
45
73
6
0
VERTEX
8
OBJECT__71
10
0
20
0
30
0
70
128
71
45
72
44
73
4
0
VERTEX
8
OBJECT__71
10
0
20
0
30
0
70
128
71
44
72
61
73
1
0
VERTEX
8
OBJECT__71
10
0
20
0
30
0
70
128
71
43
72
2
73
1
0
VERTEX
8
OBJECT__71
10
0
20
0
30
0
70
128
71
40
72
62
73
41
0
VERTEX
8
OBJECT__71
10
0
20
0
30
0
70
128
71
39
72
62
73
40
0
VERTEX
8
OBJECT__71
10
0
20
0
30
0
70
128
71
36
72
38
73
37
0
VERTEX
8
OBJECT__71
10
0
20
0
30
0
70
128
71
34
72
35
73
33
0
VERTEX
8
OBJECT__71
10
0
20
0
30
0
70
128
71
30
72
63
73
31
0
VERTEX
8
OBJECT__71
10
0
20
0
30
0
70
128
71
29
72
63
73
30
0
VERTEX
8
OBJECT__71
10
0
20
0
30
0
70
128
71
27
72
28
73
26
0
VERTEX
8
OBJECT__71
10
0
20
0
30
0
70
128
71
25
72
23
73
22
0
VERTEX
8
OBJECT__71
10
0
20
0
30
0
70
128
71
21
72
64
73
22
0
VERTEX
8
OBJECT__71
10
0
20
0
30
0
70
128
71
20
72
64
73
21
0
VERTEX
8
OBJECT__71
10
0
20
0
30
0
70
128
71
18
72
19
73
17
0
VERTEX
8
OBJECT__71
10
0
20
0
30
0
70
128
71
14
72
65
73
15
0
VERTEX
8
OBJECT__71
10
0
20
0
30
0
70
128
71
13
72
65
73
14
0
VERTEX
8
OBJECT__71
10
0
20
0
30
0
70
128
71
10
72
12
73
9
0
VERTEX
8
OBJECT__71
10
0
20
0
30
0
70
128
71
8
72
11
73
7
0
VERTEX
8
OBJECT__71
10
0
20
0
30
0
70
128
71
4
72
66
73
5
0
VERTEX
8
OBJECT__71
10
0
20
0
30
0
70
128
71
3
72
66
73
4
0
SEQEND
8
OBJECT__71
0
POLYLINE
8
OBJECT__72
66
1
70
64
71
44
72
44
62
253
0
VERTEX
8
OBJECT__72
10
6.151000
20
0.000000
30
-26.250000
70
192
0
VERTEX
8
OBJECT__72
10
14.800000
20
0.000000
30
-26.250000
70
192
0
VERTEX
8
OBJECT__72
10
14.800000
20
-8.978000
30
-24.667000
70
192
0
VERTEX
8
OBJECT__72
10
6.151000
20
-12.199000
30
-23.243000
70
192
0
VERTEX
8
OBJECT__72
10
6.151000
20
-21.603001
30
-14.912000
70
192
0
VERTEX
8
OBJECT__72
10
14.800000
20
-16.872999
30
-20.108999
70
192
0
VERTEX
8
OBJECT__72
10
14.800000
20
-12.010000
30
-22.916000
70
192
0
VERTEX
8
OBJECT__72
10
6.151000
20
-26.059000
30
-3.164000
70
192
0
VERTEX
8
OBJECT__72
10
14.800000
20
-22.733000
30
-13.125000
70
192
0
VERTEX
8
OBJECT__72
10
14.800000
20
-25.851000
30
-4.558000
70
192
0
VERTEX
8
OBJECT__72
10
14.800000
20
-21.386999
30
-14.730000
70
192
0
VERTEX
8
OBJECT__72
10
14.800000
20
-25.851000
30
-3.164000
70
192
0
VERTEX
8
OBJECT__72
10
14.800000
20
-25.851000
30
4.558000
70
192
0
VERTEX
8
OBJECT__72
10
6.151000
20
-24.544001
30
9.308000
70
192
0
VERTEX
8
OBJECT__72
10
6.151000
20
-17.407000
30
19.648001
70
192
0
VERTEX
8
OBJECT__72
10
14.800000
20
-22.733000
30
13.125000
70
192
0
VERTEX
8
OBJECT__72
10
14.800000
20
-24.172001
30
9.173000
70
192
0
VERTEX
8
OBJECT__72
10
14.800000
20
-16.872999
30
20.108999
70
192
0
VERTEX
8
OBJECT__72
10
14.800000
20
-8.978000
30
24.667000
70
192
0
VERTEX
8
OBJECT__72
10
14.800000
20
-17.320000
30
19.576000
70
192
0
VERTEX
8
OBJECT__72
10
6.151000
20
-6.282000
30
25.487000
70
192
0
VERTEX
8
OBJECT__72
10
6.151000
20
0.000000
30
26.250000
70
192
0
VERTEX
8
OBJECT__72
10
14.800000
20
0.000000
30
26.250000
70
192
0
VERTEX
8
OBJECT__72
10
14.800000
20
6.223000
30
25.153000
70
192
0
VERTEX
8
OBJECT__72
10
14.800000
20
-6.223000
30
25.153000
70
192
0
VERTEX
8
OBJECT__72
10
6.151000
20
17.407000
30
19.648001
70
192
0
VERTEX
8
OBJECT__72
10
6.151000
20
6.282000
30
25.487000
70
192
0
VERTEX
8
OBJECT__72
10
14.800000
20
8.978000
30
24.667000
70
192
0
VERTEX
8
OBJECT__72
10
14.800000
20
16.872999
30
20.108999
70
192
0
VERTEX
8
OBJECT__72
10
14.800000
20
17.320000
30
19.576000
70
192
0
VERTEX
8
OBJECT__72
10
14.800000
20
22.733000
30
13.125000
70
192
0
VERTEX
8
OBJECT__72
10
6.151000
20
24.544001
30
9.308000
70
192
0
VERTEX
8
OBJECT__72
10
6.151000
20
26.059000
30
-3.164000
70
192
0
VERTEX
8
OBJECT__72
10
14.800000
20
25.851000
30
4.558000
70
192
0
VERTEX
8
OBJECT__72
10
14.800000
20
24.172001
30
9.173000
70
192
0
VERTEX
8
OBJECT__72
10
14.800000
20
25.851000
30
-4.558000
70
192
0
VERTEX
8
OBJECT__72
10
14.800000
20
22.733000
30
-13.125000
70
192
0
VERTEX
8
OBJECT__72
10
6.151000
20
21.603001
30
-14.912000
70
192
0
VERTEX
8
OBJECT__72
10
14.800000
20
25.851000
30
-3.164000
70
192
0
VERTEX
8
OBJECT__72
10
14.800000
20
21.386999
30
-14.730000
70
192
0
VERTEX
8
OBJECT__72
10
14.800000
20
16.872999
30
-20.108999
70
192
0
VERTEX
8
OBJECT__72
10
6.151000
20
12.199000
30
-23.243000
70
192
0
VERTEX
8
OBJECT__72
10
14.800000
20
8.978000
30
-24.667000
70
192
0
VERTEX
8
OBJECT__72
10
14.800000
20
12.010000
30
-22.916000
70
192
0
VERTEX
8
OBJECT__72
10
0
20
0
30
0
70
128
71
1
72
2
73
3
0
VERTEX
8
OBJECT__72
10
0
20
0
30
0
70
128
71
3
72
4
73
1
0
VERTEX
8
OBJECT__72
10
0
20
0
30
0
70
128
71
5
72
4
73
6
0
VERTEX
8
OBJECT__72
10
0
20
0
30
0
70
128
71
4
72
7
73
6
0
VERTEX
8
OBJECT__72
10
0
20
0
30
0
70
128
71
8
72
5
73
9
0
VERTEX
8
OBJECT__72
10
0
20
0
30
0
70
128
71
9
72
10
73
8
0
VERTEX
8
OBJECT__72
10
0
20
0
30
0
70
128
71
5
72
11
73
9
0
VERTEX
8
OBJECT__72
10
0
20
0
30
0
70
128
71
8
72
12
73
13
0
VERTEX
8
OBJECT__72
10
0
20
0
30
0
70
128
71
13
72
14
73
8
0
VERTEX
8
OBJECT__72
10
0
20
0
30
0
70
128
71
15
72
14
73
16
0
VERTEX
8
OBJECT__72
10
0
20
0
30
0
70
128
71
14
72
17
73
16
0
VERTEX
8
OBJECT__72
10
0
20
0
30
0
70
128
71
15
72
18
73
19
0
VERTEX
8
OBJECT__72
10
0
20
0
30
0
70
128
71
15
72
20
73
18
0
VERTEX
8
OBJECT__72
10
0
20
0
30
0
70
128
71
19
72
21
73
15
0
VERTEX
8
OBJECT__72
10
0
20
0
30
0
70
128
71
22
72
23
73
24
0
VERTEX
8
OBJECT__72
10
0
20
0
30
0
70
128
71
22
72
21
73
25
0
VERTEX
8
OBJECT__72
10
0
20
0
30
0
70
128
71
25
72
23
73
22
0
VERTEX
8
OBJECT__72
10
0
20
0
30
0
70
128
71
26
72
27
73
28
0
VERTEX
8
OBJECT__72
10
0
20
0
30
0
70
128
71
28
72
29
73
26
0
VERTEX
8
OBJECT__72
10
0
20
0
30
0
70
128
71
27
72
24
73
28
0
VERTEX
8
OBJECT__72
10
0
20
0
30
0
70
128
71
26
72
30
73
31
0
VERTEX
8
OBJECT__72
10
0
20
0
30
0
70
128
71
31
72
32
73
26
0
VERTEX
8
OBJECT__72
10
0
20
0
30
0
70
128
71
33
72
32
73
34
0
VERTEX
8
OBJECT__72
10
0
20
0
30
0
70
128
71
32
72
35
73
34
0
VERTEX
8
OBJECT__72
10
0
20
0
30
0
70
128
71
33
72
36
73
37
0
VERTEX
8
OBJECT__72
10
0
20
0
30
0
70
128
71
37
72
38
73
33
0
VERTEX
8
OBJECT__72
10
0
20
0
30
0
70
128
71
33
72
39
73
36
0
VERTEX
8
OBJECT__72
10
0
20
0
30
0
70
128
71
38
72
40
73
41
0
VERTEX
8
OBJECT__72
10
0
20
0
30
0
70
128
71
41
72
42
73
38
0
VERTEX
8
OBJECT__72
10
0
20
0
30
0
70
128
71
1
72
42
73
43
0
VERTEX
8
OBJECT__72
10
0
20
0
30
0
70
128
71
42
72
44
73
43
0
VERTEX
8
OBJECT__72
10
0
20
0
30
0
70
128
71
43
72
2
73
1
0
VERTEX
8
OBJECT__72
10
0
20
0
30
0
70
128
71
41
72
44
73
42
0
VERTEX
8
OBJECT__72
10
0
20
0
30
0
70
128
71
37
72
40
73
38
0
VERTEX
8
OBJECT__72
10
0
20
0
30
0
70
128
71
34
72
39
73
33
0
VERTEX
8
OBJECT__72
10
0
20
0
30
0
70
128
71
31
72
35
73
32
0
VERTEX
8
OBJECT__72
10
0
20
0
30
0
70
128
71
29
72
30
73
26
0
VERTEX
8
OBJECT__72
10
0
20
0
30
0
70
128
71
24
72
27
73
22
0
VERTEX
8
OBJECT__72
10
0
20
0
30
0
70
128
71
19
72
25
73
21
0
VERTEX
8
OBJECT__72
10
0
20
0
30
0
70
128
71
16
72
20
73
15
0
VERTEX
8
OBJECT__72
10
0
20
0
30
0
70
128
71
13
72
17
73
14
0
VERTEX
8
OBJECT__72
10
0
20
0
30
0
70
128
71
10
72
12
73
8
0
VERTEX
8
OBJECT__72
10
0
20
0
30
0
70
128
71
6
72
11
73
5
0
VERTEX
8
OBJECT__72
10
0
20
0
30
0
70
128
71
3
72
7
73
4
0
SEQEND
8
OBJECT__72
0
ENDSEC
0
EOF
