999
Converted by 3D Exploration 
999
XDimension Software, LLC
999
http://www.xdsoft.com/explorer/
0
SECTION
2
HEADER
9
$ACADVER
1
AC1008
9
$UCSORG
10
0.0
20
0.0
30
0.0
9
$UCSXDIR
10
1.0
20
0.0
30
0.0
9
$TILEMODE
70
1
9
$UCSYDIR
10
0.0
20
1.0
30
0.0
9
$EXTMIN
10
0.000000
20
-104.792999
30
-104.792999
9
$EXTMAX
10
75.099998
20
104.792999
30
104.171997
0
ENDSEC
0
SECTION
2
TABLES
0
TABLE
2
LTYPE
70
1
0
LTYPE
2
CONTINUOUS
70
64
3
Solid line
72
65
73
0
40
0.0
0
ENDTAB
0
TABLE
2
LAYER
70
117
0
LAYER
2
OBJECT__0
70
0
62
253
6
CONTINUOUS
0
LAYER
2
OBJECT__1
70
0
62
253
6
CONTINUOUS
0
LAYER
2
OBJECT__3
70
0
62
253
6
CONTINUOUS
0
LAYER
2
OBJECT__4
70
0
62
253
6
CONTINUOUS
0
LAYER
2
OBJECT__5
70
0
62
253
6
CONTINUOUS
0
LAYER
2
OBJECT__6
70
0
62
253
6
CONTINUOUS
0
LAYER
2
OBJECT__7
70
0
62
253
6
CONTINUOUS
0
LAYER
2
OBJECT__8
70
0
62
253
6
CONTINUOUS
0
LAYER
2
OBJECT__9
70
0
62
253
6
CONTINUOUS
0
LAYER
2
OBJECT__10
70
0
62
253
6
CONTINUOUS
0
LAYER
2
OBJECT__11
70
0
62
253
6
CONTINUOUS
0
LAYER
2
OBJECT__12
70
0
62
253
6
CONTINUOUS
0
LAYER
2
OBJECT__13
70
0
62
253
6
CONTINUOUS
0
LAYER
2
OBJECT__14
70
0
62
253
6
CONTINUOUS
0
LAYER
2
OBJECT__15
70
0
62
253
6
CONTINUOUS
0
LAYER
2
OBJECT__16
70
0
62
253
6
CONTINUOUS
0
LAYER
2
OBJECT__17
70
0
62
253
6
CONTINUOUS
0
LAYER
2
OBJECT__18
70
0
62
253
6
CONTINUOUS
0
LAYER
2
OBJECT__19
70
0
62
253
6
CONTINUOUS
0
LAYER
2
OBJECT__20
70
0
62
253
6
CONTINUOUS
0
LAYER
2
OBJECT__21
70
0
62
253
6
CONTINUOUS
0
LAYER
2
OBJECT__22
70
0
62
253
6
CONTINUOUS
0
LAYER
2
OBJECT__23
70
0
62
253
6
CONTINUOUS
0
LAYER
2
OBJECT__24
70
0
62
253
6
CONTINUOUS
0
LAYER
2
OBJECT__25
70
0
62
253
6
CONTINUOUS
0
LAYER
2
OBJECT__26
70
0
62
253
6
CONTINUOUS
0
LAYER
2
OBJECT__27
70
0
62
253
6
CONTINUOUS
0
LAYER
2
OBJECT__28
70
0
62
253
6
CONTINUOUS
0
LAYER
2
OBJECT__29
70
0
62
253
6
CONTINUOUS
0
LAYER
2
OBJECT__30
70
0
62
253
6
CONTINUOUS
0
LAYER
2
OBJECT__31
70
0
62
253
6
CONTINUOUS
0
LAYER
2
OBJECT__32
70
0
62
253
6
CONTINUOUS
0
LAYER
2
OBJECT__33
70
0
62
253
6
CONTINUOUS
0
LAYER
2
OBJECT__34
70
0
62
253
6
CONTINUOUS
0
LAYER
2
OBJECT__35
70
0
62
253
6
CONTINUOUS
0
LAYER
2
OBJECT__36
70
0
62
253
6
CONTINUOUS
0
LAYER
2
OBJECT__37
70
0
62
253
6
CONTINUOUS
0
LAYER
2
OBJECT__38
70
0
62
253
6
CONTINUOUS
0
LAYER
2
OBJECT__39
70
0
62
253
6
CONTINUOUS
0
LAYER
2
OBJECT__40
70
0
62
253
6
CONTINUOUS
0
LAYER
2
OBJECT__41
70
0
62
253
6
CONTINUOUS
0
LAYER
2
OBJECT__42
70
0
62
253
6
CONTINUOUS
0
LAYER
2
OBJECT__44
70
0
62
253
6
CONTINUOUS
0
LAYER
2
OBJECT__45
70
0
62
253
6
CONTINUOUS
0
LAYER
2
OBJECT__46
70
0
62
253
6
CONTINUOUS
0
LAYER
2
OBJECT__47
70
0
62
253
6
CONTINUOUS
0
LAYER
2
OBJECT__48
70
0
62
253
6
CONTINUOUS
0
LAYER
2
OBJECT__49
70
0
62
253
6
CONTINUOUS
0
LAYER
2
OBJECT__50
70
0
62
253
6
CONTINUOUS
0
LAYER
2
OBJECT__51
70
0
62
253
6
CONTINUOUS
0
LAYER
2
OBJECT__52
70
0
62
253
6
CONTINUOUS
0
LAYER
2
OBJECT__53
70
0
62
253
6
CONTINUOUS
0
LAYER
2
OBJECT__54
70
0
62
253
6
CONTINUOUS
0
LAYER
2
OBJECT__55
70
0
62
253
6
CONTINUOUS
0
LAYER
2
OBJECT__56
70
0
62
253
6
CONTINUOUS
0
LAYER
2
OBJECT__57
70
0
62
253
6
CONTINUOUS
0
LAYER
2
OBJECT__58
70
0
62
253
6
CONTINUOUS
0
LAYER
2
OBJECT__59
70
0
62
253
6
CONTINUOUS
0
LAYER
2
OBJECT__60
70
0
62
253
6
CONTINUOUS
0
LAYER
2
OBJECT__61
70
0
62
253
6
CONTINUOUS
0
LAYER
2
OBJECT__62
70
0
62
253
6
CONTINUOUS
0
LAYER
2
OBJECT__63
70
0
62
253
6
CONTINUOUS
0
LAYER
2
OBJECT__64
70
0
62
253
6
CONTINUOUS
0
LAYER
2
OBJECT__65
70
0
62
253
6
CONTINUOUS
0
LAYER
2
OBJECT__66
70
0
62
253
6
CONTINUOUS
0
LAYER
2
OBJECT__67
70
0
62
253
6
CONTINUOUS
0
LAYER
2
OBJECT__68
70
0
62
253
6
CONTINUOUS
0
LAYER
2
OBJECT__69
70
0
62
253
6
CONTINUOUS
0
LAYER
2
OBJECT__70
70
0
62
253
6
CONTINUOUS
0
LAYER
2
OBJECT__71
70
0
62
253
6
CONTINUOUS
0
LAYER
2
OBJECT__72
70
0
62
253
6
CONTINUOUS
0
LAYER
2
OBJECT__73
70
0
62
253
6
CONTINUOUS
0
LAYER
2
OBJECT__74
70
0
62
253
6
CONTINUOUS
0
LAYER
2
OBJECT__75
70
0
62
253
6
CONTINUOUS
0
LAYER
2
OBJECT__76
70
0
62
253
6
CONTINUOUS
0
LAYER
2
OBJECT__77
70
0
62
253
6
CONTINUOUS
0
LAYER
2
OBJECT__78
70
0
62
253
6
CONTINUOUS
0
LAYER
2
OBJECT__79
70
0
62
253
6
CONTINUOUS
0
LAYER
2
OBJECT__80
70
0
62
253
6
CONTINUOUS
0
LAYER
2
OBJECT__81
70
0
62
253
6
CONTINUOUS
0
LAYER
2
OBJECT__82
70
0
62
253
6
CONTINUOUS
0
LAYER
2
OBJECT__83
70
0
62
253
6
CONTINUOUS
0
LAYER
2
OBJECT__84
70
0
62
253
6
CONTINUOUS
0
LAYER
2
OBJECT__85
70
0
62
253
6
CONTINUOUS
0
LAYER
2
OBJECT__86
70
0
62
253
6
CONTINUOUS
0
LAYER
2
OBJECT__87
70
0
62
253
6
CONTINUOUS
0
LAYER
2
OBJECT__88
70
0
62
253
6
CONTINUOUS
0
LAYER
2
OBJECT__89
70
0
62
253
6
CONTINUOUS
0
LAYER
2
OBJECT__90
70
0
62
253
6
CONTINUOUS
0
LAYER
2
OBJECT__91
70
0
62
253
6
CONTINUOUS
0
LAYER
2
OBJECT__92
70
0
62
253
6
CONTINUOUS
0
LAYER
2
OBJECT__93
70
0
62
253
6
CONTINUOUS
0
LAYER
2
OBJECT__94
70
0
62
253
6
CONTINUOUS
0
LAYER
2
OBJECT__96
70
0
62
253
6
CONTINUOUS
0
LAYER
2
OBJECT__97
70
0
62
253
6
CONTINUOUS
0
LAYER
2
OBJECT__98
70
0
62
253
6
CONTINUOUS
0
LAYER
2
OBJECT__99
70
0
62
253
6
CONTINUOUS
0
LAYER
2
OBJECT__100
70
0
62
253
6
CONTINUOUS
0
LAYER
2
OBJECT__102
70
0
62
253
6
CONTINUOUS
0
LAYER
2
OBJECT__103
70
0
62
253
6
CONTINUOUS
0
LAYER
2
OBJECT__104
70
0
62
253
6
CONTINUOUS
0
LAYER
2
OBJECT__105
70
0
62
253
6
CONTINUOUS
0
LAYER
2
OBJECT__107
70
0
62
253
6
CONTINUOUS
0
LAYER
2
OBJECT__108
70
0
62
253
6
CONTINUOUS
0
LAYER
2
OBJECT__109
70
0
62
253
6
CONTINUOUS
0
LAYER
2
OBJECT__110
70
0
62
253
6
CONTINUOUS
0
LAYER
2
OBJECT__112
70
0
62
253
6
CONTINUOUS
0
LAYER
2
OBJECT__113
70
0
62
253
6
CONTINUOUS
0
LAYER
2
OBJECT__114
70
0
62
253
6
CONTINUOUS
0
LAYER
2
OBJECT__115
70
0
62
253
6
CONTINUOUS
0
LAYER
2
OBJECT__116
70
0
62
253
6
CONTINUOUS
0
ENDTAB
0
TABLE
2
STYLE
70
1
0
STYLE
2
STANDARD
70
0
40
0.0
41
1.0
50
0.0
71
0
42
0.2
3
txt
4
1
0
ENDTAB
0
TABLE
2
UCS
70
0
0
ENDTAB
0
ENDSEC
0
SECTION
2
ENTITIES
0
POLYLINE
8
OBJECT__0
66
1
70
64
71
12
72
10
62
253
0
VERTEX
8
OBJECT__0
10
75.099998
20
-26.250000
30
47.500000
70
192
0
VERTEX
8
OBJECT__0
10
75.099998
20
-22.733000
30
34.375000
70
192
0
VERTEX
8
OBJECT__0
10
75.099998
20
-13.125000
30
24.767000
70
192
0
VERTEX
8
OBJECT__0
10
75.099998
20
0.000000
30
73.750000
70
192
0
VERTEX
8
OBJECT__0
10
75.099998
20
22.733000
30
34.375000
70
192
0
VERTEX
8
OBJECT__0
10
75.099998
20
26.250000
30
47.500000
70
192
0
VERTEX
8
OBJECT__0
10
75.099998
20
0.000000
30
21.250000
70
192
0
VERTEX
8
OBJECT__0
10
75.099998
20
-22.733000
30
60.625000
70
192
0
VERTEX
8
OBJECT__0
10
75.099998
20
-13.125000
30
70.233002
70
192
0
VERTEX
8
OBJECT__0
10
75.099998
20
22.733000
30
60.625000
70
192
0
VERTEX
8
OBJECT__0
10
75.099998
20
13.125000
30
24.767000
70
192
0
VERTEX
8
OBJECT__0
10
75.099998
20
13.125000
30
70.233002
70
192
0
VERTEX
8
OBJECT__0
10
0
20
0
30
0
70
128
71
1
72
2
73
3
0
VERTEX
8
OBJECT__0
10
0
20
0
30
0
70
128
71
4
72
5
73
6
0
VERTEX
8
OBJECT__0
10
0
20
0
30
0
70
128
71
7
72
8
73
1
0
VERTEX
8
OBJECT__0
10
0
20
0
30
0
70
128
71
7
72
4
73
9
0
VERTEX
8
OBJECT__0
10
0
20
0
30
0
70
128
71
6
72
10
73
4
0
VERTEX
8
OBJECT__0
10
0
20
0
30
0
70
128
71
4
72
7
73
11
0
VERTEX
8
OBJECT__0
10
0
20
0
30
0
70
128
71
9
72
8
73
7
0
VERTEX
8
OBJECT__0
10
0
20
0
30
0
70
128
71
11
72
5
73
4
0
VERTEX
8
OBJECT__0
10
0
20
0
30
0
70
128
71
10
72
12
73
4
0
VERTEX
8
OBJECT__0
10
0
20
0
30
0
70
128
71
3
72
7
73
1
0
SEQEND
8
OBJECT__0
0
POLYLINE
8
OBJECT__1
66
1
70
64
71
64
72
66
62
253
0
VERTEX
8
OBJECT__1
10
75.099998
20
13.125000
30
70.233002
70
192
0
VERTEX
8
OBJECT__1
10
18.100000
20
13.125000
30
70.233002
70
192
0
VERTEX
8
OBJECT__1
10
18.100000
20
0.000000
30
73.750000
70
192
0
VERTEX
8
OBJECT__1
10
18.100000
20
22.733000
30
60.625000
70
192
0
VERTEX
8
OBJECT__1
10
18.100000
20
26.250000
30
47.500000
70
192
0
VERTEX
8
OBJECT__1
10
75.099998
20
22.733000
30
60.625000
70
192
0
VERTEX
8
OBJECT__1
10
75.099998
20
22.733000
30
34.375000
70
192
0
VERTEX
8
OBJECT__1
10
18.100000
20
22.733000
30
34.375000
70
192
0
VERTEX
8
OBJECT__1
10
18.100000
20
13.125000
30
24.767000
70
192
0
VERTEX
8
OBJECT__1
10
75.099998
20
-22.733000
30
34.375000
70
192
0
VERTEX
8
OBJECT__1
10
18.100000
20
-22.733000
30
34.375000
70
192
0
VERTEX
8
OBJECT__1
10
18.100000
20
-13.125000
30
24.767000
70
192
0
VERTEX
8
OBJECT__1
10
75.099998
20
-26.250000
30
47.500000
70
192
0
VERTEX
8
OBJECT__1
10
18.100000
20
-26.250000
30
47.500000
70
192
0
VERTEX
8
OBJECT__1
10
18.100000
20
-22.733000
30
60.625000
70
192
0
VERTEX
8
OBJECT__1
10
75.099998
20
-13.125000
30
70.233002
70
192
0
VERTEX
8
OBJECT__1
10
18.100000
20
-13.125000
30
70.233002
70
192
0
VERTEX
8
OBJECT__1
10
75.099998
20
-13.125000
30
24.767000
70
192
0
VERTEX
8
OBJECT__1
10
64.598000
20
-2.554000
30
21.375000
70
192
0
VERTEX
8
OBJECT__1
10
64.966003
20
-1.726000
30
21.306999
70
192
0
VERTEX
8
OBJECT__1
10
63.532001
20
-3.894000
30
21.540001
70
192
0
VERTEX
8
OBJECT__1
10
64.077003
20
-3.326000
30
21.462000
70
192
0
VERTEX
8
OBJECT__1
10
62.852001
20
-4.398000
30
21.621000
70
192
0
VERTEX
8
OBJECT__1
10
61.487000
20
-4.994000
30
21.729000
70
192
0
VERTEX
8
OBJECT__1
10
62.076000
20
-4.792000
30
21.691000
70
192
0
VERTEX
8
OBJECT__1
10
60.887001
20
-5.127000
30
21.754999
70
192
0
VERTEX
8
OBJECT__1
10
32.099998
20
-5.192000
30
21.768999
70
192
0
VERTEX
8
OBJECT__1
10
51.541000
20
-5.192000
30
21.768999
70
192
0
VERTEX
8
OBJECT__1
10
31.473000
20
-5.150000
30
21.760000
70
192
0
VERTEX
8
OBJECT__1
10
60.099998
20
-5.192000
30
21.768999
70
192
0
VERTEX
8
OBJECT__1
10
30.865000
20
-5.035000
30
21.737000
70
192
0
VERTEX
8
OBJECT__1
10
30.124001
20
-4.792000
30
21.691000
70
192
0
VERTEX
8
OBJECT__1
10
29.351999
20
-4.401000
30
21.621000
70
192
0
VERTEX
8
OBJECT__1
10
28.122000
20
-3.326000
30
21.461000
70
192
0
VERTEX
8
OBJECT__1
10
28.674999
20
-3.900000
30
21.541000
70
192
0
VERTEX
8
OBJECT__1
10
27.603001
20
-2.556000
30
21.375000
70
192
0
VERTEX
8
OBJECT__1
10
18.100000
20
0.000000
30
21.250000
70
192
0
VERTEX
8
OBJECT__1
10
27.236000
20
-1.730000
30
21.306999
70
192
0
VERTEX
8
OBJECT__1
10
75.099998
20
0.000000
30
21.250000
70
192
0
VERTEX
8
OBJECT__1
10
26.951000
20
0.000000
30
21.250000
70
192
0
VERTEX
8
OBJECT__1
10
27.278000
20
1.847000
30
21.315001
70
192
0
VERTEX
8
OBJECT__1
10
27.035000
20
0.955000
30
21.267000
70
192
0
VERTEX
8
OBJECT__1
10
28.122999
20
3.326000
30
21.462000
70
192
0
VERTEX
8
OBJECT__1
10
29.334999
20
4.391000
30
21.620001
70
192
0
VERTEX
8
OBJECT__1
10
28.694000
20
3.917000
30
21.544001
70
192
0
VERTEX
8
OBJECT__1
10
30.124001
20
4.792000
30
21.691000
70
192
0
VERTEX
8
OBJECT__1
10
31.313999
20
5.127000
30
21.756001
70
192
0
VERTEX
8
OBJECT__1
10
30.712999
20
4.994000
30
21.729000
70
192
0
VERTEX
8
OBJECT__1
10
75.099998
20
13.125000
30
24.767000
70
192
0
VERTEX
8
OBJECT__1
10
60.099998
20
5.192000
30
21.768999
70
192
0
VERTEX
8
OBJECT__1
10
40.659000
20
5.192000
30
21.768999
70
192
0
VERTEX
8
OBJECT__1
10
60.723999
20
5.151000
30
21.760000
70
192
0
VERTEX
8
OBJECT__1
10
32.099998
20
5.192000
30
21.768999
70
192
0
VERTEX
8
OBJECT__1
10
61.328999
20
5.036000
30
21.738001
70
192
0
VERTEX
8
OBJECT__1
10
62.076000
20
4.792000
30
21.691000
70
192
0
VERTEX
8
OBJECT__1
10
62.837002
20
4.408000
30
21.622999
70
192
0
VERTEX
8
OBJECT__1
10
63.506001
20
3.917000
30
21.544001
70
192
0
VERTEX
8
OBJECT__1
10
64.078003
20
3.326000
30
21.462000
70
192
0
VERTEX
8
OBJECT__1
10
64.924004
20
1.843000
30
21.315001
70
192
0
VERTEX
8
OBJECT__1
10
65.166000
20
0.953000
30
21.267000
70
192
0
VERTEX
8
OBJECT__1
10
65.249001
20
0.000000
30
21.250000
70
192
0
VERTEX
8
OBJECT__1
10
75.099998
20
0.000000
30
73.750000
70
192
0
VERTEX
8
OBJECT__1
10
75.099998
20
-22.733000
30
60.625000
70
192
0
VERTEX
8
OBJECT__1
10
75.099998
20
26.250000
30
47.500000
70
192
0
VERTEX
8
OBJECT__1
10
0
20
0
30
0
70
128
71
1
72
2
73
3
0
VERTEX
8
OBJECT__1
10
0
20
0
30
0
70
128
71
4
72
2
73
1
0
VERTEX
8
OBJECT__1
10
0
20
0
30
0
70
128
71
5
72
4
73
6
0
VERTEX
8
OBJECT__1
10
0
20
0
30
0
70
128
71
7
72
8
73
5
0
VERTEX
8
OBJECT__1
10
0
20
0
30
0
70
128
71
9
72
8
73
7
0
VERTEX
8
OBJECT__1
10
0
20
0
30
0
70
128
71
10
72
11
73
12
0
VERTEX
8
OBJECT__1
10
0
20
0
30
0
70
128
71
13
72
14
73
11
0
VERTEX
8
OBJECT__1
10
0
20
0
30
0
70
128
71
15
72
14
73
13
0
VERTEX
8
OBJECT__1
10
0
20
0
30
0
70
128
71
16
72
17
73
15
0
VERTEX
8
OBJECT__1
10
0
20
0
30
0
70
128
71
3
72
17
73
16
0
VERTEX
8
OBJECT__1
10
0
20
0
30
0
70
128
71
18
72
19
73
20
0
VERTEX
8
OBJECT__1
10
0
20
0
30
0
70
128
71
18
72
21
73
22
0
VERTEX
8
OBJECT__1
10
0
20
0
30
0
70
128
71
18
72
23
73
21
0
VERTEX
8
OBJECT__1
10
0
20
0
30
0
70
128
71
18
72
24
73
25
0
VERTEX
8
OBJECT__1
10
0
20
0
30
0
70
128
71
18
72
26
73
24
0
VERTEX
8
OBJECT__1
10
0
20
0
30
0
70
128
71
12
72
27
73
28
0
VERTEX
8
OBJECT__1
10
0
20
0
30
0
70
128
71
28
72
18
73
12
0
VERTEX
8
OBJECT__1
10
0
20
0
30
0
70
128
71
12
72
29
73
27
0
VERTEX
8
OBJECT__1
10
0
20
0
30
0
70
128
71
28
72
30
73
18
0
VERTEX
8
OBJECT__1
10
0
20
0
30
0
70
128
71
12
72
31
73
29
0
VERTEX
8
OBJECT__1
10
0
20
0
30
0
70
128
71
32
72
31
73
12
0
VERTEX
8
OBJECT__1
10
0
20
0
30
0
70
128
71
30
72
26
73
18
0
VERTEX
8
OBJECT__1
10
0
20
0
30
0
70
128
71
12
72
33
73
32
0
VERTEX
8
OBJECT__1
10
0
20
0
30
0
70
128
71
34
72
35
73
12
0
VERTEX
8
OBJECT__1
10
0
20
0
30
0
70
128
71
35
72
33
73
12
0
VERTEX
8
OBJECT__1
10
0
20
0
30
0
70
128
71
25
72
23
73
18
0
VERTEX
8
OBJECT__1
10
0
20
0
30
0
70
128
71
12
72
36
73
34
0
VERTEX
8
OBJECT__1
10
0
20
0
30
0
70
128
71
12
72
37
73
38
0
VERTEX
8
OBJECT__1
10
0
20
0
30
0
70
128
71
38
72
36
73
12
0
VERTEX
8
OBJECT__1
10
0
20
0
30
0
70
128
71
22
72
19
73
18
0
VERTEX
8
OBJECT__1
10
0
20
0
30
0
70
128
71
20
72
39
73
18
0
VERTEX
8
OBJECT__1
10
0
20
0
30
0
70
128
71
37
72
40
73
38
0
VERTEX
8
OBJECT__1
10
0
20
0
30
0
70
128
71
37
72
9
73
41
0
VERTEX
8
OBJECT__1
10
0
20
0
30
0
70
128
71
41
72
42
73
37
0
VERTEX
8
OBJECT__1
10
0
20
0
30
0
70
128
71
9
72
44
73
45
0
VERTEX
8
OBJECT__1
10
0
20
0
30
0
70
128
71
9
72
47
73
48
0
VERTEX
8
OBJECT__1
10
0
20
0
30
0
70
128
71
49
72
50
73
51
0
VERTEX
8
OBJECT__1
10
0
20
0
30
0
70
128
71
51
72
9
73
49
0
VERTEX
8
OBJECT__1
10
0
20
0
30
0
70
128
71
49
72
52
73
50
0
VERTEX
8
OBJECT__1
10
0
20
0
30
0
70
128
71
51
72
53
73
9
0
VERTEX
8
OBJECT__1
10
0
20
0
30
0
70
128
71
49
72
54
73
52
0
VERTEX
8
OBJECT__1
10
0
20
0
30
0
70
128
71
49
72
55
73
54
0
VERTEX
8
OBJECT__1
10
0
20
0
30
0
70
128
71
53
72
47
73
9
0
VERTEX
8
OBJECT__1
10
0
20
0
30
0
70
128
71
48
72
46
73
9
0
VERTEX
8
OBJECT__1
10
0
20
0
30
0
70
128
71
49
72
56
73
55
0
VERTEX
8
OBJECT__1
10
0
20
0
30
0
70
128
71
49
72
57
73
56
0
VERTEX
8
OBJECT__1
10
0
20
0
30
0
70
128
71
46
72
44
73
9
0
VERTEX
8
OBJECT__1
10
0
20
0
30
0
70
128
71
49
72
58
73
57
0
VERTEX
8
OBJECT__1
10
0
20
0
30
0
70
128
71
45
72
43
73
9
0
VERTEX
8
OBJECT__1
10
0
20
0
30
0
70
128
71
49
72
59
73
58
0
VERTEX
8
OBJECT__1
10
0
20
0
30
0
70
128
71
43
72
41
73
9
0
VERTEX
8
OBJECT__1
10
0
20
0
30
0
70
128
71
39
72
60
73
59
0
VERTEX
8
OBJECT__1
10
0
20
0
30
0
70
128
71
39
72
61
73
60
0
VERTEX
8
OBJECT__1
10
0
20
0
30
0
70
128
71
59
72
49
73
39
0
VERTEX
8
OBJECT__1
10
0
20
0
30
0
70
128
71
42
72
40
73
37
0
VERTEX
8
OBJECT__1
10
0
20
0
30
0
70
128
71
20
72
61
73
39
0
VERTEX
8
OBJECT__1
10
0
20
0
30
0
70
128
71
16
72
62
73
3
0
VERTEX
8
OBJECT__1
10
0
20
0
30
0
70
128
71
15
72
63
73
16
0
VERTEX
8
OBJECT__1
10
0
20
0
30
0
70
128
71
13
72
63
73
15
0
VERTEX
8
OBJECT__1
10
0
20
0
30
0
70
128
71
11
72
10
73
13
0
VERTEX
8
OBJECT__1
10
0
20
0
30
0
70
128
71
12
72
18
73
10
0
VERTEX
8
OBJECT__1
10
0
20
0
30
0
70
128
71
7
72
49
73
9
0
VERTEX
8
OBJECT__1
10
0
20
0
30
0
70
128
71
5
72
64
73
7
0
VERTEX
8
OBJECT__1
10
0
20
0
30
0
70
128
71
6
72
64
73
5
0
VERTEX
8
OBJECT__1
10
0
20
0
30
0
70
128
71
1
72
6
73
4
0
VERTEX
8
OBJECT__1
10
0
20
0
30
0
70
128
71
3
72
62
73
1
0
SEQEND
8
OBJECT__1
0
POLYLINE
8
OBJECT__3
66
1
70
64
71
8
72
6
62
253
0
VERTEX
8
OBJECT__3
10
62.076000
20
4.792000
30
21.691000
70
192
0
VERTEX
8
OBJECT__3
10
61.948002
20
4.461000
30
21.763000
70
192
0
VERTEX
8
OBJECT__3
10
61.248001
20
4.693000
30
21.802000
70
192
0
VERTEX
8
OBJECT__3
10
60.723999
20
5.151000
30
21.760000
70
192
0
VERTEX
8
OBJECT__3
10
61.328999
20
5.036000
30
21.738001
70
192
0
VERTEX
8
OBJECT__3
10
60.099998
20
5.192000
30
21.768999
70
192
0
VERTEX
8
OBJECT__3
10
60.680000
20
4.797000
30
21.823000
70
192
0
VERTEX
8
OBJECT__3
10
60.099998
20
4.831000
30
21.833000
70
192
0
VERTEX
8
OBJECT__3
10
0
20
0
30
0
70
128
71
1
72
2
73
3
0
VERTEX
8
OBJECT__3
10
0
20
0
30
0
70
128
71
4
72
5
73
3
0
VERTEX
8
OBJECT__3
10
0
20
0
30
0
70
128
71
6
72
4
73
7
0
VERTEX
8
OBJECT__3
10
0
20
0
30
0
70
128
71
7
72
8
73
6
0
VERTEX
8
OBJECT__3
10
0
20
0
30
0
70
128
71
3
72
7
73
4
0
VERTEX
8
OBJECT__3
10
0
20
0
30
0
70
128
71
3
72
5
73
1
0
SEQEND
8
OBJECT__3
0
POLYLINE
8
OBJECT__4
66
1
70
64
71
8
72
6
62
253
0
VERTEX
8
OBJECT__4
10
64.078003
20
3.326000
30
21.462000
70
192
0
VERTEX
8
OBJECT__4
10
63.806000
20
3.084000
30
21.577999
70
192
0
VERTEX
8
OBJECT__4
10
63.276001
20
3.633000
30
21.646999
70
192
0
VERTEX
8
OBJECT__4
10
63.506001
20
3.917000
30
21.544001
70
192
0
VERTEX
8
OBJECT__4
10
62.658001
20
4.096000
30
21.708000
70
192
0
VERTEX
8
OBJECT__4
10
62.837002
20
4.408000
30
21.622999
70
192
0
VERTEX
8
OBJECT__4
10
61.948002
20
4.461000
30
21.763000
70
192
0
VERTEX
8
OBJECT__4
10
62.076000
20
4.792000
30
21.691000
70
192
0
VERTEX
8
OBJECT__4
10
0
20
0
30
0
70
128
71
1
72
2
73
3
0
VERTEX
8
OBJECT__4
10
0
20
0
30
0
70
128
71
4
72
3
73
5
0
VERTEX
8
OBJECT__4
10
0
20
0
30
0
70
128
71
6
72
5
73
7
0
VERTEX
8
OBJECT__4
10
0
20
0
30
0
70
128
71
7
72
8
73
6
0
VERTEX
8
OBJECT__4
10
0
20
0
30
0
70
128
71
5
72
6
73
4
0
VERTEX
8
OBJECT__4
10
0
20
0
30
0
70
128
71
3
72
4
73
1
0
SEQEND
8
OBJECT__4
0
POLYLINE
8
OBJECT__5
66
1
70
64
71
6
72
4
62
253
0
VERTEX
8
OBJECT__5
10
40.659000
20
5.192000
30
21.768999
70
192
0
VERTEX
8
OBJECT__5
10
60.099998
20
5.192000
30
21.768999
70
192
0
VERTEX
8
OBJECT__5
10
60.099998
20
4.831000
30
21.833000
70
192
0
VERTEX
8
OBJECT__5
10
32.099998
20
5.192000
30
21.768999
70
192
0
VERTEX
8
OBJECT__5
10
40.659000
20
4.831000
30
21.833000
70
192
0
VERTEX
8
OBJECT__5
10
32.099998
20
4.831000
30
21.833000
70
192
0
VERTEX
8
OBJECT__5
10
0
20
0
30
0
70
128
71
1
72
2
73
3
0
VERTEX
8
OBJECT__5
10
0
20
0
30
0
70
128
71
4
72
1
73
5
0
VERTEX
8
OBJECT__5
10
0
20
0
30
0
70
128
71
5
72
6
73
4
0
VERTEX
8
OBJECT__5
10
0
20
0
30
0
70
128
71
3
72
5
73
1
0
SEQEND
8
OBJECT__5
0
POLYLINE
8
OBJECT__6
66
1
70
64
71
8
72
6
62
253
0
VERTEX
8
OBJECT__6
10
65.166000
20
0.953000
30
21.267000
70
192
0
VERTEX
8
OBJECT__6
10
64.828003
20
0.887000
30
21.400999
70
192
0
VERTEX
8
OBJECT__6
10
64.599998
20
1.712000
30
21.445000
70
192
0
VERTEX
8
OBJECT__6
10
65.249001
20
0.000000
30
21.250000
70
192
0
VERTEX
8
OBJECT__6
10
64.910004
20
0.000000
30
21.382999
70
192
0
VERTEX
8
OBJECT__6
10
64.924004
20
1.843000
30
21.315001
70
192
0
VERTEX
8
OBJECT__6
10
63.806000
20
3.084000
30
21.577999
70
192
0
VERTEX
8
OBJECT__6
10
64.078003
20
3.326000
30
21.462000
70
192
0
VERTEX
8
OBJECT__6
10
0
20
0
30
0
70
128
71
1
72
2
73
3
0
VERTEX
8
OBJECT__6
10
0
20
0
30
0
70
128
71
1
72
4
73
5
0
VERTEX
8
OBJECT__6
10
0
20
0
30
0
70
128
71
6
72
3
73
7
0
VERTEX
8
OBJECT__6
10
0
20
0
30
0
70
128
71
7
72
8
73
6
0
VERTEX
8
OBJECT__6
10
0
20
0
30
0
70
128
71
5
72
2
73
1
0
VERTEX
8
OBJECT__6
10
0
20
0
30
0
70
128
71
3
72
6
73
1
0
SEQEND
8
OBJECT__6
0
POLYLINE
8
OBJECT__7
66
1
70
64
71
8
72
6
62
253
0
VERTEX
8
OBJECT__7
10
32.099998
20
5.192000
30
21.768999
70
192
0
VERTEX
8
OBJECT__7
10
32.099998
20
4.831000
30
21.833000
70
192
0
VERTEX
8
OBJECT__7
10
31.368000
20
4.776000
30
21.818001
70
192
0
VERTEX
8
OBJECT__7
10
30.712999
20
4.994000
30
21.729000
70
192
0
VERTEX
8
OBJECT__7
10
31.313999
20
5.127000
30
21.756001
70
192
0
VERTEX
8
OBJECT__7
10
30.124001
20
4.792000
30
21.691000
70
192
0
VERTEX
8
OBJECT__7
10
30.802999
20
4.653000
30
21.794001
70
192
0
VERTEX
8
OBJECT__7
10
30.252001
20
4.461000
30
21.763000
70
192
0
VERTEX
8
OBJECT__7
10
0
20
0
30
0
70
128
71
1
72
2
73
3
0
VERTEX
8
OBJECT__7
10
0
20
0
30
0
70
128
71
4
72
5
73
3
0
VERTEX
8
OBJECT__7
10
0
20
0
30
0
70
128
71
6
72
4
73
7
0
VERTEX
8
OBJECT__7
10
0
20
0
30
0
70
128
71
7
72
8
73
6
0
VERTEX
8
OBJECT__7
10
0
20
0
30
0
70
128
71
3
72
7
73
4
0
VERTEX
8
OBJECT__7
10
0
20
0
30
0
70
128
71
3
72
5
73
1
0
SEQEND
8
OBJECT__7
0
POLYLINE
8
OBJECT__8
66
1
70
64
71
8
72
6
62
253
0
VERTEX
8
OBJECT__8
10
65.249001
20
0.000000
30
21.250000
70
192
0
VERTEX
8
OBJECT__8
10
64.966003
20
-1.726000
30
21.306999
70
192
0
VERTEX
8
OBJECT__8
10
64.639000
20
-1.603000
30
21.437000
70
192
0
VERTEX
8
OBJECT__8
10
64.598000
20
-2.554000
30
21.375000
70
192
0
VERTEX
8
OBJECT__8
10
64.294998
20
-2.371000
30
21.497999
70
192
0
VERTEX
8
OBJECT__8
10
64.077003
20
-3.326000
30
21.462000
70
192
0
VERTEX
8
OBJECT__8
10
63.805000
20
-3.085000
30
21.577000
70
192
0
VERTEX
8
OBJECT__8
10
64.910004
20
0.000000
30
21.382999
70
192
0
VERTEX
8
OBJECT__8
10
0
20
0
30
0
70
128
71
1
72
2
73
3
0
VERTEX
8
OBJECT__8
10
0
20
0
30
0
70
128
71
2
72
4
73
5
0
VERTEX
8
OBJECT__8
10
0
20
0
30
0
70
128
71
4
72
6
73
7
0
VERTEX
8
OBJECT__8
10
0
20
0
30
0
70
128
71
7
72
5
73
4
0
VERTEX
8
OBJECT__8
10
0
20
0
30
0
70
128
71
5
72
3
73
2
0
VERTEX
8
OBJECT__8
10
0
20
0
30
0
70
128
71
3
72
8
73
1
0
SEQEND
8
OBJECT__8
0
POLYLINE
8
OBJECT__9
66
1
70
64
71
8
72
6
62
253
0
VERTEX
8
OBJECT__9
10
28.694000
20
3.917000
30
21.544001
70
192
0
VERTEX
8
OBJECT__9
10
29.334999
20
4.391000
30
21.620001
70
192
0
VERTEX
8
OBJECT__9
10
29.516001
20
4.079000
30
21.705999
70
192
0
VERTEX
8
OBJECT__9
10
28.122999
20
3.326000
30
21.462000
70
192
0
VERTEX
8
OBJECT__9
10
28.924000
20
3.633000
30
21.646999
70
192
0
VERTEX
8
OBJECT__9
10
30.124001
20
4.792000
30
21.691000
70
192
0
VERTEX
8
OBJECT__9
10
30.252001
20
4.461000
30
21.763000
70
192
0
VERTEX
8
OBJECT__9
10
28.395000
20
3.085000
30
21.577000
70
192
0
VERTEX
8
OBJECT__9
10
0
20
0
30
0
70
128
71
1
72
2
73
3
0
VERTEX
8
OBJECT__9
10
0
20
0
30
0
70
128
71
4
72
1
73
5
0
VERTEX
8
OBJECT__9
10
0
20
0
30
0
70
128
71
2
72
6
73
7
0
VERTEX
8
OBJECT__9
10
0
20
0
30
0
70
128
71
7
72
3
73
2
0
VERTEX
8
OBJECT__9
10
0
20
0
30
0
70
128
71
5
72
8
73
4
0
VERTEX
8
OBJECT__9
10
0
20
0
30
0
70
128
71
3
72
5
73
1
0
SEQEND
8
OBJECT__9
0
POLYLINE
8
OBJECT__10
66
1
70
64
71
8
72
6
62
253
0
VERTEX
8
OBJECT__10
10
64.077003
20
-3.326000
30
21.462000
70
192
0
VERTEX
8
OBJECT__10
10
63.532001
20
-3.894000
30
21.540001
70
192
0
VERTEX
8
OBJECT__10
10
63.299999
20
-3.611000
30
21.643999
70
192
0
VERTEX
8
OBJECT__10
10
62.852001
20
-4.398000
30
21.621000
70
192
0
VERTEX
8
OBJECT__10
10
62.673000
20
-4.086000
30
21.707001
70
192
0
VERTEX
8
OBJECT__10
10
62.076000
20
-4.792000
30
21.691000
70
192
0
VERTEX
8
OBJECT__10
10
61.948002
20
-4.461000
30
21.763000
70
192
0
VERTEX
8
OBJECT__10
10
63.805000
20
-3.085000
30
21.577000
70
192
0
VERTEX
8
OBJECT__10
10
0
20
0
30
0
70
128
71
1
72
2
73
3
0
VERTEX
8
OBJECT__10
10
0
20
0
30
0
70
128
71
2
72
4
73
5
0
VERTEX
8
OBJECT__10
10
0
20
0
30
0
70
128
71
4
72
6
73
7
0
VERTEX
8
OBJECT__10
10
0
20
0
30
0
70
128
71
7
72
5
73
4
0
VERTEX
8
OBJECT__10
10
0
20
0
30
0
70
128
71
5
72
3
73
2
0
VERTEX
8
OBJECT__10
10
0
20
0
30
0
70
128
71
3
72
8
73
1
0
SEQEND
8
OBJECT__10
0
POLYLINE
8
OBJECT__11
66
1
70
64
71
8
72
6
62
253
0
VERTEX
8
OBJECT__11
10
27.035000
20
0.955000
30
21.267000
70
192
0
VERTEX
8
OBJECT__11
10
27.278000
20
1.847000
30
21.315001
70
192
0
VERTEX
8
OBJECT__11
10
27.601000
20
1.715000
30
21.445000
70
192
0
VERTEX
8
OBJECT__11
10
27.372000
20
0.889000
30
21.400999
70
192
0
VERTEX
8
OBJECT__11
10
27.290001
20
0.000000
30
21.382999
70
192
0
VERTEX
8
OBJECT__11
10
28.395000
20
3.085000
30
21.577000
70
192
0
VERTEX
8
OBJECT__11
10
28.122999
20
3.326000
30
21.462000
70
192
0
VERTEX
8
OBJECT__11
10
26.951000
20
0.000000
30
21.250000
70
192
0
VERTEX
8
OBJECT__11
10
0
20
0
30
0
70
128
71
1
72
2
73
3
0
VERTEX
8
OBJECT__11
10
0
20
0
30
0
70
128
71
1
72
4
73
5
0
VERTEX
8
OBJECT__11
10
0
20
0
30
0
70
128
71
2
72
7
73
6
0
VERTEX
8
OBJECT__11
10
0
20
0
30
0
70
128
71
6
72
3
73
2
0
VERTEX
8
OBJECT__11
10
0
20
0
30
0
70
128
71
5
72
8
73
1
0
VERTEX
8
OBJECT__11
10
0
20
0
30
0
70
128
71
3
72
4
73
1
0
SEQEND
8
OBJECT__11
0
POLYLINE
8
OBJECT__12
66
1
70
64
71
8
72
6
62
253
0
VERTEX
8
OBJECT__12
10
60.099998
20
-5.192000
30
21.768999
70
192
0
VERTEX
8
OBJECT__12
10
60.099998
20
-4.831000
30
21.833000
70
192
0
VERTEX
8
OBJECT__12
10
60.833000
20
-4.776000
30
21.818001
70
192
0
VERTEX
8
OBJECT__12
10
61.487000
20
-4.994000
30
21.729000
70
192
0
VERTEX
8
OBJECT__12
10
60.887001
20
-5.127000
30
21.754999
70
192
0
VERTEX
8
OBJECT__12
10
62.076000
20
-4.792000
30
21.691000
70
192
0
VERTEX
8
OBJECT__12
10
61.396999
20
-4.653000
30
21.794001
70
192
0
VERTEX
8
OBJECT__12
10
61.948002
20
-4.461000
30
21.763000
70
192
0
VERTEX
8
OBJECT__12
10
0
20
0
30
0
70
128
71
1
72
2
73
3
0
VERTEX
8
OBJECT__12
10
0
20
0
30
0
70
128
71
4
72
5
73
3
0
VERTEX
8
OBJECT__12
10
0
20
0
30
0
70
128
71
6
72
4
73
7
0
VERTEX
8
OBJECT__12
10
0
20
0
30
0
70
128
71
7
72
8
73
6
0
VERTEX
8
OBJECT__12
10
0
20
0
30
0
70
128
71
3
72
7
73
4
0
VERTEX
8
OBJECT__12
10
0
20
0
30
0
70
128
71
3
72
5
73
1
0
SEQEND
8
OBJECT__12
0
POLYLINE
8
OBJECT__13
66
1
70
64
71
8
72
6
62
253
0
VERTEX
8
OBJECT__13
10
26.951000
20
0.000000
30
21.250000
70
192
0
VERTEX
8
OBJECT__13
10
27.290001
20
0.000000
30
21.382999
70
192
0
VERTEX
8
OBJECT__13
10
27.562000
20
-1.607000
30
21.438000
70
192
0
VERTEX
8
OBJECT__13
10
27.236000
20
-1.730000
30
21.306999
70
192
0
VERTEX
8
OBJECT__13
10
27.906000
20
-2.373000
30
21.499001
70
192
0
VERTEX
8
OBJECT__13
10
27.603001
20
-2.556000
30
21.375000
70
192
0
VERTEX
8
OBJECT__13
10
28.393999
20
-3.084000
30
21.577999
70
192
0
VERTEX
8
OBJECT__13
10
28.122000
20
-3.326000
30
21.461000
70
192
0
VERTEX
8
OBJECT__13
10
0
20
0
30
0
70
128
71
1
72
2
73
3
0
VERTEX
8
OBJECT__13
10
0
20
0
30
0
70
128
71
4
72
3
73
5
0
VERTEX
8
OBJECT__13
10
0
20
0
30
0
70
128
71
6
72
5
73
7
0
VERTEX
8
OBJECT__13
10
0
20
0
30
0
70
128
71
7
72
8
73
6
0
VERTEX
8
OBJECT__13
10
0
20
0
30
0
70
128
71
5
72
6
73
4
0
VERTEX
8
OBJECT__13
10
0
20
0
30
0
70
128
71
3
72
4
73
1
0
SEQEND
8
OBJECT__13
0
POLYLINE
8
OBJECT__14
66
1
70
64
71
6
72
4
62
253
0
VERTEX
8
OBJECT__14
10
32.099998
20
-5.192000
30
21.768999
70
192
0
VERTEX
8
OBJECT__14
10
32.099998
20
-4.831000
30
21.833000
70
192
0
VERTEX
8
OBJECT__14
10
51.541000
20
-4.831000
30
21.833000
70
192
0
VERTEX
8
OBJECT__14
10
60.099998
20
-5.192000
30
21.768999
70
192
0
VERTEX
8
OBJECT__14
10
51.541000
20
-5.192000
30
21.768999
70
192
0
VERTEX
8
OBJECT__14
10
60.099998
20
-4.831000
30
21.833000
70
192
0
VERTEX
8
OBJECT__14
10
0
20
0
30
0
70
128
71
1
72
2
73
3
0
VERTEX
8
OBJECT__14
10
0
20
0
30
0
70
128
71
4
72
5
73
3
0
VERTEX
8
OBJECT__14
10
0
20
0
30
0
70
128
71
3
72
6
73
4
0
VERTEX
8
OBJECT__14
10
0
20
0
30
0
70
128
71
3
72
5
73
1
0
SEQEND
8
OBJECT__14
0
POLYLINE
8
OBJECT__15
66
1
70
64
71
8
72
6
62
253
0
VERTEX
8
OBJECT__15
10
28.122999
20
-3.326000
30
21.462000
70
192
0
VERTEX
8
OBJECT__15
10
28.393999
20
-3.084000
30
21.577999
70
192
0
VERTEX
8
OBJECT__15
10
28.906000
20
-3.617000
30
21.645000
70
192
0
VERTEX
8
OBJECT__15
10
28.674999
20
-3.900000
30
21.541000
70
192
0
VERTEX
8
OBJECT__15
10
29.531000
20
-4.089000
30
21.707001
70
192
0
VERTEX
8
OBJECT__15
10
29.351999
20
-4.401000
30
21.621000
70
192
0
VERTEX
8
OBJECT__15
10
30.252001
20
-4.461000
30
21.763000
70
192
0
VERTEX
8
OBJECT__15
10
30.124001
20
-4.792000
30
21.691000
70
192
0
VERTEX
8
OBJECT__15
10
0
20
0
30
0
70
128
71
1
72
2
73
3
0
VERTEX
8
OBJECT__15
10
0
20
0
30
0
70
128
71
4
72
3
73
5
0
VERTEX
8
OBJECT__15
10
0
20
0
30
0
70
128
71
6
72
5
73
7
0
VERTEX
8
OBJECT__15
10
0
20
0
30
0
70
128
71
7
72
8
73
6
0
VERTEX
8
OBJECT__15
10
0
20
0
30
0
70
128
71
5
72
6
73
4
0
VERTEX
8
OBJECT__15
10
0
20
0
30
0
70
128
71
3
72
4
73
1
0
SEQEND
8
OBJECT__15
0
POLYLINE
8
OBJECT__16
66
1
70
64
71
8
72
6
62
253
0
VERTEX
8
OBJECT__16
10
30.124001
20
-4.792000
30
21.691000
70
192
0
VERTEX
8
OBJECT__16
10
30.252001
20
-4.461000
30
21.763000
70
192
0
VERTEX
8
OBJECT__16
10
30.945999
20
-4.691000
30
21.801001
70
192
0
VERTEX
8
OBJECT__16
10
31.473000
20
-5.150000
30
21.760000
70
192
0
VERTEX
8
OBJECT__16
10
30.865000
20
-5.035000
30
21.737000
70
192
0
VERTEX
8
OBJECT__16
10
32.099998
20
-5.192000
30
21.768999
70
192
0
VERTEX
8
OBJECT__16
10
31.517000
20
-4.796000
30
21.823000
70
192
0
VERTEX
8
OBJECT__16
10
32.099998
20
-4.831000
30
21.833000
70
192
0
VERTEX
8
OBJECT__16
10
0
20
0
30
0
70
128
71
1
72
2
73
3
0
VERTEX
8
OBJECT__16
10
0
20
0
30
0
70
128
71
4
72
5
73
3
0
VERTEX
8
OBJECT__16
10
0
20
0
30
0
70
128
71
6
72
4
73
7
0
VERTEX
8
OBJECT__16
10
0
20
0
30
0
70
128
71
7
72
8
73
6
0
VERTEX
8
OBJECT__16
10
0
20
0
30
0
70
128
71
3
72
7
73
4
0
VERTEX
8
OBJECT__16
10
0
20
0
30
0
70
128
71
3
72
5
73
1
0
SEQEND
8
OBJECT__16
0
POLYLINE
8
OBJECT__17
66
1
70
64
71
5
72
3
62
253
0
VERTEX
8
OBJECT__17
10
32.099998
20
-2.442000
30
22.871000
70
192
0
VERTEX
8
OBJECT__17
10
60.099998
20
-2.442000
30
22.871000
70
192
0
VERTEX
8
OBJECT__17
10
51.541000
20
-4.831000
30
21.833000
70
192
0
VERTEX
8
OBJECT__17
10
60.099998
20
-4.831000
30
21.833000
70
192
0
VERTEX
8
OBJECT__17
10
32.099998
20
-4.831000
30
21.833000
70
192
0
VERTEX
8
OBJECT__17
10
0
20
0
30
0
70
128
71
1
72
2
73
3
0
VERTEX
8
OBJECT__17
10
0
20
0
30
0
70
128
71
2
72
4
73
3
0
VERTEX
8
OBJECT__17
10
0
20
0
30
0
70
128
71
3
72
5
73
1
0
SEQEND
8
OBJECT__17
0
POLYLINE
8
OBJECT__18
66
1
70
64
71
11
72
9
62
253
0
VERTEX
8
OBJECT__18
10
60.099998
20
2.442000
30
22.871000
70
192
0
VERTEX
8
OBJECT__18
10
62.553001
20
-0.444000
30
22.754000
70
192
0
VERTEX
8
OBJECT__18
10
62.247002
20
-1.219000
30
22.780001
70
192
0
VERTEX
8
OBJECT__18
10
60.820000
20
2.326000
30
22.860001
70
192
0
VERTEX
8
OBJECT__18
10
62.601002
20
0.000000
30
22.750000
70
192
0
VERTEX
8
OBJECT__18
10
60.099998
20
-2.442000
30
22.871000
70
192
0
VERTEX
8
OBJECT__18
10
32.099998
20
-2.442000
30
22.871000
70
192
0
VERTEX
8
OBJECT__18
10
31.381001
20
2.326000
30
22.860001
70
192
0
VERTEX
8
OBJECT__18
10
29.957001
20
-1.226000
30
22.780001
70
192
0
VERTEX
8
OBJECT__18
10
29.599001
20
0.000000
30
22.750000
70
192
0
VERTEX
8
OBJECT__18
10
32.099998
20
2.442000
30
22.871000
70
192
0
VERTEX
8
OBJECT__18
10
0
20
0
30
0
70
128
71
1
72
2
73
3
0
VERTEX
8
OBJECT__18
10
0
20
0
30
0
70
128
71
2
72
1
73
4
0
VERTEX
8
OBJECT__18
10
0
20
0
30
0
70
128
71
4
72
5
73
2
0
VERTEX
8
OBJECT__18
10
0
20
0
30
0
70
128
71
1
72
6
73
7
0
VERTEX
8
OBJECT__18
10
0
20
0
30
0
70
128
71
8
72
7
73
9
0
VERTEX
8
OBJECT__18
10
0
20
0
30
0
70
128
71
9
72
10
73
8
0
VERTEX
8
OBJECT__18
10
0
20
0
30
0
70
128
71
8
72
11
73
7
0
VERTEX
8
OBJECT__18
10
0
20
0
30
0
70
128
71
7
72
11
73
1
0
VERTEX
8
OBJECT__18
10
0
20
0
30
0
70
128
71
3
72
6
73
1
0
SEQEND
8
OBJECT__18
0
POLYLINE
8
OBJECT__19
66
1
70
64
71
5
72
3
62
253
0
VERTEX
8
OBJECT__19
10
60.099998
20
2.442000
30
22.871000
70
192
0
VERTEX
8
OBJECT__19
10
32.099998
20
2.442000
30
22.871000
70
192
0
VERTEX
8
OBJECT__19
10
40.659000
20
4.831000
30
21.833000
70
192
0
VERTEX
8
OBJECT__19
10
32.099998
20
4.831000
30
21.833000
70
192
0
VERTEX
8
OBJECT__19
10
60.099998
20
4.831000
30
21.833000
70
192
0
VERTEX
8
OBJECT__19
10
0
20
0
30
0
70
128
71
1
72
2
73
3
0
VERTEX
8
OBJECT__19
10
0
20
0
30
0
70
128
71
2
72
4
73
3
0
VERTEX
8
OBJECT__19
10
0
20
0
30
0
70
128
71
3
72
5
73
1
0
SEQEND
8
OBJECT__19
0
POLYLINE
8
OBJECT__20
66
1
70
64
71
9
72
7
62
253
0
VERTEX
8
OBJECT__20
10
29.750999
20
2.912000
30
22.305000
70
192
0
VERTEX
8
OBJECT__20
10
31.381001
20
2.326000
30
22.860001
70
192
0
VERTEX
8
OBJECT__20
10
29.599001
20
0.000000
30
22.750000
70
192
0
VERTEX
8
OBJECT__20
10
29.407000
20
0.000000
30
22.677999
70
192
0
VERTEX
8
OBJECT__20
10
31.368000
20
4.776000
30
21.818001
70
192
0
VERTEX
8
OBJECT__20
10
32.099998
20
4.831000
30
21.833000
70
192
0
VERTEX
8
OBJECT__20
10
32.099998
20
2.442000
30
22.871000
70
192
0
VERTEX
8
OBJECT__20
10
30.802999
20
4.653000
30
21.794001
70
192
0
VERTEX
8
OBJECT__20
10
30.252001
20
4.461000
30
21.763000
70
192
0
VERTEX
8
OBJECT__20
10
0
20
0
30
0
70
128
71
1
72
2
73
3
0
VERTEX
8
OBJECT__20
10
0
20
0
30
0
70
128
71
3
72
4
73
1
0
VERTEX
8
OBJECT__20
10
0
20
0
30
0
70
128
71
5
72
6
73
7
0
VERTEX
8
OBJECT__20
10
0
20
0
30
0
70
128
71
2
72
8
73
5
0
VERTEX
8
OBJECT__20
10
0
20
0
30
0
70
128
71
2
72
9
73
8
0
VERTEX
8
OBJECT__20
10
0
20
0
30
0
70
128
71
7
72
2
73
5
0
VERTEX
8
OBJECT__20
10
0
20
0
30
0
70
128
71
1
72
9
73
2
0
SEQEND
8
OBJECT__20
0
POLYLINE
8
OBJECT__21
66
1
70
64
71
6
72
4
62
253
0
VERTEX
8
OBJECT__21
10
28.177999
20
0.000000
30
22.056999
70
192
0
VERTEX
8
OBJECT__21
10
27.372000
20
0.889000
30
21.400999
70
192
0
VERTEX
8
OBJECT__21
10
27.601000
20
1.715000
30
21.445000
70
192
0
VERTEX
8
OBJECT__21
10
28.559999
20
2.151000
30
22.007999
70
192
0
VERTEX
8
OBJECT__21
10
27.290001
20
0.000000
30
21.382999
70
192
0
VERTEX
8
OBJECT__21
10
28.395000
20
3.085000
30
21.577000
70
192
0
VERTEX
8
OBJECT__21
10
0
20
0
30
0
70
128
71
1
72
2
73
3
0
VERTEX
8
OBJECT__21
10
0
20
0
30
0
70
128
71
3
72
4
73
1
0
VERTEX
8
OBJECT__21
10
0
20
0
30
0
70
128
71
1
72
5
73
2
0
VERTEX
8
OBJECT__21
10
0
20
0
30
0
70
128
71
3
72
6
73
4
0
SEQEND
8
OBJECT__21
0
POLYLINE
8
OBJECT__22
66
1
70
64
71
6
72
4
62
253
0
VERTEX
8
OBJECT__22
10
29.750999
20
2.912000
30
22.305000
70
192
0
VERTEX
8
OBJECT__22
10
28.924000
20
3.633000
30
21.646999
70
192
0
VERTEX
8
OBJECT__22
10
29.516001
20
4.079000
30
21.705999
70
192
0
VERTEX
8
OBJECT__22
10
28.559999
20
2.151000
30
22.007999
70
192
0
VERTEX
8
OBJECT__22
10
28.395000
20
3.085000
30
21.577000
70
192
0
VERTEX
8
OBJECT__22
10
30.252001
20
4.461000
30
21.763000
70
192
0
VERTEX
8
OBJECT__22
10
0
20
0
30
0
70
128
71
1
72
2
73
3
0
VERTEX
8
OBJECT__22
10
0
20
0
30
0
70
128
71
1
72
4
73
5
0
VERTEX
8
OBJECT__22
10
0
20
0
30
0
70
128
71
5
72
2
73
1
0
VERTEX
8
OBJECT__22
10
0
20
0
30
0
70
128
71
3
72
6
73
1
0
SEQEND
8
OBJECT__22
0
POLYLINE
8
OBJECT__23
66
1
70
64
71
9
72
7
62
253
0
VERTEX
8
OBJECT__23
10
30.252001
20
-4.461000
30
21.763000
70
192
0
VERTEX
8
OBJECT__23
10
29.750999
20
-2.912000
30
22.305000
70
192
0
VERTEX
8
OBJECT__23
10
32.099998
20
-2.442000
30
22.871000
70
192
0
VERTEX
8
OBJECT__23
10
30.945999
20
-4.691000
30
21.801001
70
192
0
VERTEX
8
OBJECT__23
10
31.517000
20
-4.796000
30
21.823000
70
192
0
VERTEX
8
OBJECT__23
10
32.099998
20
-4.831000
30
21.833000
70
192
0
VERTEX
8
OBJECT__23
10
29.957001
20
-1.226000
30
22.780001
70
192
0
VERTEX
8
OBJECT__23
10
29.407000
20
0.000000
30
22.677999
70
192
0
VERTEX
8
OBJECT__23
10
29.599001
20
0.000000
30
22.750000
70
192
0
VERTEX
8
OBJECT__23
10
0
20
0
30
0
70
128
71
3
72
4
73
1
0
VERTEX
8
OBJECT__23
10
0
20
0
30
0
70
128
71
3
72
5
73
4
0
VERTEX
8
OBJECT__23
10
0
20
0
30
0
70
128
71
3
72
6
73
5
0
VERTEX
8
OBJECT__23
10
0
20
0
30
0
70
128
71
1
72
7
73
3
0
VERTEX
8
OBJECT__23
10
0
20
0
30
0
70
128
71
8
72
9
73
7
0
VERTEX
8
OBJECT__23
10
0
20
0
30
0
70
128
71
7
72
2
73
8
0
VERTEX
8
OBJECT__23
10
0
20
0
30
0
70
128
71
2
72
7
73
1
0
SEQEND
8
OBJECT__23
0
POLYLINE
8
OBJECT__24
66
1
70
64
71
6
72
4
62
253
0
VERTEX
8
OBJECT__24
10
28.177999
20
0.000000
30
22.056999
70
192
0
VERTEX
8
OBJECT__24
10
28.558001
20
-2.153000
30
22.007000
70
192
0
VERTEX
8
OBJECT__24
10
27.562000
20
-1.607000
30
21.438000
70
192
0
VERTEX
8
OBJECT__24
10
27.906000
20
-2.373000
30
21.499001
70
192
0
VERTEX
8
OBJECT__24
10
28.393999
20
-3.084000
30
21.577999
70
192
0
VERTEX
8
OBJECT__24
10
27.290001
20
0.000000
30
21.382999
70
192
0
VERTEX
8
OBJECT__24
10
0
20
0
30
0
70
128
71
1
72
2
73
3
0
VERTEX
8
OBJECT__24
10
0
20
0
30
0
70
128
71
2
72
4
73
3
0
VERTEX
8
OBJECT__24
10
0
20
0
30
0
70
128
71
2
72
5
73
4
0
VERTEX
8
OBJECT__24
10
0
20
0
30
0
70
128
71
3
72
6
73
1
0
SEQEND
8
OBJECT__24
0
POLYLINE
8
OBJECT__25
66
1
70
64
71
4
72
2
62
253
0
VERTEX
8
OBJECT__25
10
29.407000
20
0.000000
30
22.677999
70
192
0
VERTEX
8
OBJECT__25
10
28.177999
20
0.000000
30
22.056999
70
192
0
VERTEX
8
OBJECT__25
10
28.559999
20
2.151000
30
22.007999
70
192
0
VERTEX
8
OBJECT__25
10
29.750999
20
2.912000
30
22.305000
70
192
0
VERTEX
8
OBJECT__25
10
0
20
0
30
0
70
128
71
1
72
2
73
3
0
VERTEX
8
OBJECT__25
10
0
20
0
30
0
70
128
71
3
72
4
73
1
0
SEQEND
8
OBJECT__25
0
POLYLINE
8
OBJECT__26
66
1
70
64
71
4
72
2
62
253
0
VERTEX
8
OBJECT__26
10
29.407000
20
0.000000
30
22.677999
70
192
0
VERTEX
8
OBJECT__26
10
29.750999
20
-2.912000
30
22.305000
70
192
0
VERTEX
8
OBJECT__26
10
28.558001
20
-2.153000
30
22.007000
70
192
0
VERTEX
8
OBJECT__26
10
28.177999
20
0.000000
30
22.056999
70
192
0
VERTEX
8
OBJECT__26
10
0
20
0
30
0
70
128
71
1
72
2
73
3
0
VERTEX
8
OBJECT__26
10
0
20
0
30
0
70
128
71
3
72
4
73
1
0
SEQEND
8
OBJECT__26
0
POLYLINE
8
OBJECT__27
66
1
70
64
71
6
72
4
62
253
0
VERTEX
8
OBJECT__27
10
29.750999
20
-2.912000
30
22.305000
70
192
0
VERTEX
8
OBJECT__27
10
28.906000
20
-3.617000
30
21.645000
70
192
0
VERTEX
8
OBJECT__27
10
28.393999
20
-3.084000
30
21.577999
70
192
0
VERTEX
8
OBJECT__27
10
30.252001
20
-4.461000
30
21.763000
70
192
0
VERTEX
8
OBJECT__27
10
29.531000
20
-4.089000
30
21.707001
70
192
0
VERTEX
8
OBJECT__27
10
28.558001
20
-2.153000
30
22.007000
70
192
0
VERTEX
8
OBJECT__27
10
0
20
0
30
0
70
128
71
1
72
2
73
3
0
VERTEX
8
OBJECT__27
10
0
20
0
30
0
70
128
71
1
72
4
73
5
0
VERTEX
8
OBJECT__27
10
0
20
0
30
0
70
128
71
5
72
2
73
1
0
VERTEX
8
OBJECT__27
10
0
20
0
30
0
70
128
71
3
72
6
73
1
0
SEQEND
8
OBJECT__27
0
POLYLINE
8
OBJECT__28
66
1
70
64
71
9
72
7
62
253
0
VERTEX
8
OBJECT__28
10
60.820000
20
2.326000
30
22.860001
70
192
0
VERTEX
8
OBJECT__28
10
60.099998
20
2.442000
30
22.871000
70
192
0
VERTEX
8
OBJECT__28
10
60.680000
20
4.797000
30
21.823000
70
192
0
VERTEX
8
OBJECT__28
10
61.248001
20
4.693000
30
21.802000
70
192
0
VERTEX
8
OBJECT__28
10
60.099998
20
4.831000
30
21.833000
70
192
0
VERTEX
8
OBJECT__28
10
62.449001
20
2.912000
30
22.305000
70
192
0
VERTEX
8
OBJECT__28
10
62.792999
20
0.000000
30
22.677999
70
192
0
VERTEX
8
OBJECT__28
10
62.601002
20
0.000000
30
22.750000
70
192
0
VERTEX
8
OBJECT__28
10
61.948002
20
4.461000
30
21.763000
70
192
0
VERTEX
8
OBJECT__28
10
0
20
0
30
0
70
128
71
1
72
2
73
3
0
VERTEX
8
OBJECT__28
10
0
20
0
30
0
70
128
71
3
72
4
73
1
0
VERTEX
8
OBJECT__28
10
0
20
0
30
0
70
128
71
2
72
5
73
3
0
VERTEX
8
OBJECT__28
10
0
20
0
30
0
70
128
71
6
72
7
73
8
0
VERTEX
8
OBJECT__28
10
0
20
0
30
0
70
128
71
1
72
9
73
6
0
VERTEX
8
OBJECT__28
10
0
20
0
30
0
70
128
71
8
72
1
73
6
0
VERTEX
8
OBJECT__28
10
0
20
0
30
0
70
128
71
4
72
9
73
1
0
SEQEND
8
OBJECT__28
0
POLYLINE
8
OBJECT__29
66
1
70
64
71
6
72
4
62
253
0
VERTEX
8
OBJECT__29
10
64.022003
20
0.000000
30
22.056999
70
192
0
VERTEX
8
OBJECT__29
10
63.641998
20
2.153000
30
22.007000
70
192
0
VERTEX
8
OBJECT__29
10
64.599998
20
1.712000
30
21.445000
70
192
0
VERTEX
8
OBJECT__29
10
63.806000
20
3.084000
30
21.577999
70
192
0
VERTEX
8
OBJECT__29
10
64.828003
20
0.887000
30
21.400999
70
192
0
VERTEX
8
OBJECT__29
10
64.910004
20
0.000000
30
21.382999
70
192
0
VERTEX
8
OBJECT__29
10
0
20
0
30
0
70
128
71
1
72
2
73
3
0
VERTEX
8
OBJECT__29
10
0
20
0
30
0
70
128
71
2
72
4
73
3
0
VERTEX
8
OBJECT__29
10
0
20
0
30
0
70
128
71
3
72
5
73
1
0
VERTEX
8
OBJECT__29
10
0
20
0
30
0
70
128
71
5
72
6
73
1
0
SEQEND
8
OBJECT__29
0
POLYLINE
8
OBJECT__30
66
1
70
64
71
6
72
4
62
253
0
VERTEX
8
OBJECT__30
10
62.449001
20
2.912000
30
22.305000
70
192
0
VERTEX
8
OBJECT__30
10
63.276001
20
3.633000
30
21.646999
70
192
0
VERTEX
8
OBJECT__30
10
63.806000
20
3.084000
30
21.577999
70
192
0
VERTEX
8
OBJECT__30
10
61.948002
20
4.461000
30
21.763000
70
192
0
VERTEX
8
OBJECT__30
10
62.658001
20
4.096000
30
21.708000
70
192
0
VERTEX
8
OBJECT__30
10
63.641998
20
2.153000
30
22.007000
70
192
0
VERTEX
8
OBJECT__30
10
0
20
0
30
0
70
128
71
1
72
2
73
3
0
VERTEX
8
OBJECT__30
10
0
20
0
30
0
70
128
71
1
72
4
73
5
0
VERTEX
8
OBJECT__30
10
0
20
0
30
0
70
128
71
5
72
2
73
1
0
VERTEX
8
OBJECT__30
10
0
20
0
30
0
70
128
71
3
72
6
73
1
0
SEQEND
8
OBJECT__30
0
POLYLINE
8
OBJECT__31
66
1
70
64
71
10
72
8
62
253
0
VERTEX
8
OBJECT__31
10
62.449001
20
-2.912000
30
22.305000
70
192
0
VERTEX
8
OBJECT__31
10
62.247002
20
-1.219000
30
22.780001
70
192
0
VERTEX
8
OBJECT__31
10
62.553001
20
-0.444000
30
22.754000
70
192
0
VERTEX
8
OBJECT__31
10
62.792999
20
0.000000
30
22.677999
70
192
0
VERTEX
8
OBJECT__31
10
60.099998
20
-2.442000
30
22.871000
70
192
0
VERTEX
8
OBJECT__31
10
61.396999
20
-4.653000
30
21.794001
70
192
0
VERTEX
8
OBJECT__31
10
60.833000
20
-4.776000
30
21.818001
70
192
0
VERTEX
8
OBJECT__31
10
61.948002
20
-4.461000
30
21.763000
70
192
0
VERTEX
8
OBJECT__31
10
60.099998
20
-4.831000
30
21.833000
70
192
0
VERTEX
8
OBJECT__31
10
62.601002
20
0.000000
30
22.750000
70
192
0
VERTEX
8
OBJECT__31
10
0
20
0
30
0
70
128
71
1
72
2
73
3
0
VERTEX
8
OBJECT__31
10
0
20
0
30
0
70
128
71
3
72
4
73
1
0
VERTEX
8
OBJECT__31
10
0
20
0
30
0
70
128
71
5
72
6
73
7
0
VERTEX
8
OBJECT__31
10
0
20
0
30
0
70
128
71
5
72
2
73
8
0
VERTEX
8
OBJECT__31
10
0
20
0
30
0
70
128
71
8
72
6
73
5
0
VERTEX
8
OBJECT__31
10
0
20
0
30
0
70
128
71
8
72
2
73
1
0
VERTEX
8
OBJECT__31
10
0
20
0
30
0
70
128
71
7
72
9
73
5
0
VERTEX
8
OBJECT__31
10
0
20
0
30
0
70
128
71
3
72
10
73
4
0
SEQEND
8
OBJECT__31
0
POLYLINE
8
OBJECT__32
66
1
70
64
71
6
72
4
62
253
0
VERTEX
8
OBJECT__32
10
64.022003
20
0.000000
30
22.056999
70
192
0
VERTEX
8
OBJECT__32
10
64.910004
20
0.000000
30
21.382999
70
192
0
VERTEX
8
OBJECT__32
10
64.639000
20
-1.603000
30
21.437000
70
192
0
VERTEX
8
OBJECT__32
10
63.639999
20
-2.151000
30
22.007999
70
192
0
VERTEX
8
OBJECT__32
10
64.294998
20
-2.371000
30
21.497999
70
192
0
VERTEX
8
OBJECT__32
10
63.805000
20
-3.085000
30
21.577000
70
192
0
VERTEX
8
OBJECT__32
10
0
20
0
30
0
70
128
71
1
72
2
73
3
0
VERTEX
8
OBJECT__32
10
0
20
0
30
0
70
128
71
3
72
4
73
1
0
VERTEX
8
OBJECT__32
10
0
20
0
30
0
70
128
71
3
72
5
73
4
0
VERTEX
8
OBJECT__32
10
0
20
0
30
0
70
128
71
5
72
6
73
4
0
SEQEND
8
OBJECT__32
0
POLYLINE
8
OBJECT__33
66
1
70
64
71
4
72
2
62
253
0
VERTEX
8
OBJECT__33
10
62.792999
20
0.000000
30
22.677999
70
192
0
VERTEX
8
OBJECT__33
10
62.449001
20
2.912000
30
22.305000
70
192
0
VERTEX
8
OBJECT__33
10
63.641998
20
2.153000
30
22.007000
70
192
0
VERTEX
8
OBJECT__33
10
64.022003
20
0.000000
30
22.056999
70
192
0
VERTEX
8
OBJECT__33
10
0
20
0
30
0
70
128
71
1
72
2
73
3
0
VERTEX
8
OBJECT__33
10
0
20
0
30
0
70
128
71
3
72
4
73
1
0
SEQEND
8
OBJECT__33
0
POLYLINE
8
OBJECT__34
66
1
70
64
71
6
72
4
62
253
0
VERTEX
8
OBJECT__34
10
62.449001
20
-2.912000
30
22.305000
70
192
0
VERTEX
8
OBJECT__34
10
63.299999
20
-3.611000
30
21.643999
70
192
0
VERTEX
8
OBJECT__34
10
62.673000
20
-4.086000
30
21.707001
70
192
0
VERTEX
8
OBJECT__34
10
63.639999
20
-2.151000
30
22.007999
70
192
0
VERTEX
8
OBJECT__34
10
63.805000
20
-3.085000
30
21.577000
70
192
0
VERTEX
8
OBJECT__34
10
61.948002
20
-4.461000
30
21.763000
70
192
0
VERTEX
8
OBJECT__34
10
0
20
0
30
0
70
128
71
1
72
2
73
3
0
VERTEX
8
OBJECT__34
10
0
20
0
30
0
70
128
71
1
72
4
73
5
0
VERTEX
8
OBJECT__34
10
0
20
0
30
0
70
128
71
5
72
2
73
1
0
VERTEX
8
OBJECT__34
10
0
20
0
30
0
70
128
71
3
72
6
73
1
0
SEQEND
8
OBJECT__34
0
POLYLINE
8
OBJECT__35
66
1
70
64
71
4
72
2
62
253
0
VERTEX
8
OBJECT__35
10
62.792999
20
0.000000
30
22.677999
70
192
0
VERTEX
8
OBJECT__35
10
64.022003
20
0.000000
30
22.056999
70
192
0
VERTEX
8
OBJECT__35
10
63.639999
20
-2.151000
30
22.007999
70
192
0
VERTEX
8
OBJECT__35
10
62.449001
20
-2.912000
30
22.305000
70
192
0
VERTEX
8
OBJECT__35
10
0
20
0
30
0
70
128
71
1
72
2
73
3
0
VERTEX
8
OBJECT__35
10
0
20
0
30
0
70
128
71
3
72
4
73
1
0
SEQEND
8
OBJECT__35
0
POLYLINE
8
OBJECT__36
66
1
70
64
71
31
72
31
62
253
0
VERTEX
8
OBJECT__36
10
18.100000
20
13.125000
30
24.767000
70
192
0
VERTEX
8
OBJECT__36
10
18.100000
20
7.431000
30
24.941999
70
192
0
VERTEX
8
OBJECT__36
10
18.100000
20
18.062000
30
32.078999
70
192
0
VERTEX
8
OBJECT__36
10
18.100000
20
0.000000
30
21.250000
70
192
0
VERTEX
8
OBJECT__36
10
18.100000
20
7.362000
30
24.927999
70
192
0
VERTEX
8
OBJECT__36
10
18.100000
20
-4.239000
30
25.729000
70
192
0
VERTEX
8
OBJECT__36
10
18.100000
20
6.120000
30
26.181000
70
192
0
VERTEX
8
OBJECT__36
10
18.100000
20
-13.125000
30
70.233002
70
192
0
VERTEX
8
OBJECT__36
10
18.100000
20
0.000000
30
73.750000
70
192
0
VERTEX
8
OBJECT__36
10
18.100000
20
-1.036000
30
71.226997
70
192
0
VERTEX
8
OBJECT__36
10
18.100000
20
13.125000
30
70.233002
70
192
0
VERTEX
8
OBJECT__36
10
18.100000
20
12.142000
30
67.911003
70
192
0
VERTEX
8
OBJECT__36
10
18.100000
20
22.733000
30
34.375000
70
192
0
VERTEX
8
OBJECT__36
10
18.100000
20
23.561001
30
44.506001
70
192
0
VERTEX
8
OBJECT__36
10
18.100000
20
-4.560000
30
25.416000
70
192
0
VERTEX
8
OBJECT__36
10
18.100000
20
22.733000
30
60.625000
70
192
0
VERTEX
8
OBJECT__36
10
18.100000
20
21.346001
30
57.912998
70
192
0
VERTEX
8
OBJECT__36
10
18.100000
20
26.250000
30
47.500000
70
192
0
VERTEX
8
OBJECT__36
10
18.100000
20
-5.090000
30
24.559999
70
192
0
VERTEX
8
OBJECT__36
10
18.100000
20
-26.250000
30
47.500000
70
192
0
VERTEX
8
OBJECT__36
10
18.100000
20
-22.733000
30
60.625000
70
192
0
VERTEX
8
OBJECT__36
10
18.100000
20
-22.172001
30
56.013000
70
192
0
VERTEX
8
OBJECT__36
10
18.100000
20
-13.875000
30
66.775002
70
192
0
VERTEX
8
OBJECT__36
10
18.100000
20
6.612000
30
25.750000
70
192
0
VERTEX
8
OBJECT__36
10
18.100000
20
-5.098000
30
24.542000
70
192
0
VERTEX
8
OBJECT__36
10
18.100000
20
7.070000
30
25.091000
70
192
0
VERTEX
8
OBJECT__36
10
18.100000
20
-22.733000
30
34.375000
70
192
0
VERTEX
8
OBJECT__36
10
18.100000
20
-23.209999
30
42.464001
70
192
0
VERTEX
8
OBJECT__36
10
18.100000
20
-13.125000
30
24.767000
70
192
0
VERTEX
8
OBJECT__36
10
18.100000
20
-16.649000
30
30.563000
70
192
0
VERTEX
8
OBJECT__36
10
18.100000
20
-5.437000
30
24.381001
70
192
0
VERTEX
8
OBJECT__36
10
0
20
0
30
0
70
128
71
1
72
2
73
3
0
VERTEX
8
OBJECT__36
10
0
20
0
30
0
70
128
71
4
72
5
73
2
0
VERTEX
8
OBJECT__36
10
0
20
0
30
0
70
128
71
4
72
6
73
7
0
VERTEX
8
OBJECT__36
10
0
20
0
30
0
70
128
71
8
72
9
73
10
0
VERTEX
8
OBJECT__36
10
0
20
0
30
0
70
128
71
9
72
11
73
12
0
VERTEX
8
OBJECT__36
10
0
20
0
30
0
70
128
71
13
72
3
73
14
0
VERTEX
8
OBJECT__36
10
0
20
0
30
0
70
128
71
2
72
1
73
4
0
VERTEX
8
OBJECT__36
10
0
20
0
30
0
70
128
71
4
72
15
73
6
0
VERTEX
8
OBJECT__36
10
0
20
0
30
0
70
128
71
12
72
10
73
9
0
VERTEX
8
OBJECT__36
10
0
20
0
30
0
70
128
71
16
72
17
73
12
0
VERTEX
8
OBJECT__36
10
0
20
0
30
0
70
128
71
18
72
14
73
17
0
VERTEX
8
OBJECT__36
10
0
20
0
30
0
70
128
71
3
72
13
73
1
0
VERTEX
8
OBJECT__36
10
0
20
0
30
0
70
128
71
4
72
19
73
15
0
VERTEX
8
OBJECT__36
10
0
20
0
30
0
70
128
71
20
72
21
73
22
0
VERTEX
8
OBJECT__36
10
0
20
0
30
0
70
128
71
21
72
8
73
23
0
VERTEX
8
OBJECT__36
10
0
20
0
30
0
70
128
71
12
72
11
73
16
0
VERTEX
8
OBJECT__36
10
0
20
0
30
0
70
128
71
14
72
18
73
13
0
VERTEX
8
OBJECT__36
10
0
20
0
30
0
70
128
71
7
72
24
73
4
0
VERTEX
8
OBJECT__36
10
0
20
0
30
0
70
128
71
23
72
22
73
21
0
VERTEX
8
OBJECT__36
10
0
20
0
30
0
70
128
71
17
72
16
73
18
0
VERTEX
8
OBJECT__36
10
0
20
0
30
0
70
128
71
4
72
25
73
19
0
VERTEX
8
OBJECT__36
10
0
20
0
30
0
70
128
71
10
72
23
73
8
0
VERTEX
8
OBJECT__36
10
0
20
0
30
0
70
128
71
24
72
26
73
4
0
VERTEX
8
OBJECT__36
10
0
20
0
30
0
70
128
71
27
72
20
73
28
0
VERTEX
8
OBJECT__36
10
0
20
0
30
0
70
128
71
26
72
5
73
4
0
VERTEX
8
OBJECT__36
10
0
20
0
30
0
70
128
71
29
72
30
73
31
0
VERTEX
8
OBJECT__36
10
0
20
0
30
0
70
128
71
28
72
30
73
27
0
VERTEX
8
OBJECT__36
10
0
20
0
30
0
70
128
71
4
72
31
73
25
0
VERTEX
8
OBJECT__36
10
0
20
0
30
0
70
128
71
30
72
29
73
27
0
VERTEX
8
OBJECT__36
10
0
20
0
30
0
70
128
71
31
72
4
73
29
0
VERTEX
8
OBJECT__36
10
0
20
0
30
0
70
128
71
22
72
28
73
20
0
SEQEND
8
OBJECT__36
0
POLYLINE
8
OBJECT__37
66
1
70
64
71
10
72
8
62
253
0
VERTEX
8
OBJECT__37
10
21.277000
20
-5.103000
30
24.580000
70
192
0
VERTEX
8
OBJECT__37
10
24.450001
20
-5.115000
30
24.599001
70
192
0
VERTEX
8
OBJECT__37
10
24.450001
20
-2.849000
30
26.423000
70
192
0
VERTEX
8
OBJECT__37
10
21.278999
20
-2.036000
30
26.434999
70
192
0
VERTEX
8
OBJECT__37
10
18.100000
20
-4.560000
30
25.416000
70
192
0
VERTEX
8
OBJECT__37
10
18.100000
20
-5.090000
30
24.559999
70
192
0
VERTEX
8
OBJECT__37
10
21.275000
20
-5.103000
30
24.580000
70
192
0
VERTEX
8
OBJECT__37
10
19.848000
20
-2.030000
30
26.427000
70
192
0
VERTEX
8
OBJECT__37
10
18.100000
20
-4.239000
30
25.729000
70
192
0
VERTEX
8
OBJECT__37
10
24.450001
20
-2.047000
30
26.452999
70
192
0
VERTEX
8
OBJECT__37
10
0
20
0
30
0
70
128
71
1
72
2
73
3
0
VERTEX
8
OBJECT__37
10
0
20
0
30
0
70
128
71
3
72
4
73
1
0
VERTEX
8
OBJECT__37
10
0
20
0
30
0
70
128
71
5
72
6
73
7
0
VERTEX
8
OBJECT__37
10
0
20
0
30
0
70
128
71
1
72
4
73
8
0
VERTEX
8
OBJECT__37
10
0
20
0
30
0
70
128
71
8
72
9
73
1
0
VERTEX
8
OBJECT__37
10
0
20
0
30
0
70
128
71
9
72
5
73
1
0
VERTEX
8
OBJECT__37
10
0
20
0
30
0
70
128
71
7
72
1
73
5
0
VERTEX
8
OBJECT__37
10
0
20
0
30
0
70
128
71
3
72
10
73
4
0
SEQEND
8
OBJECT__37
0
POLYLINE
8
OBJECT__38
66
1
70
64
71
9
72
7
62
253
0
VERTEX
8
OBJECT__38
10
21.277000
20
-5.103000
30
24.580000
70
192
0
VERTEX
8
OBJECT__38
10
21.275000
20
-5.449000
30
24.400999
70
192
0
VERTEX
8
OBJECT__38
10
24.450001
20
-5.392000
30
24.413000
70
192
0
VERTEX
8
OBJECT__38
10
24.450001
20
-5.115000
30
24.599001
70
192
0
VERTEX
8
OBJECT__38
10
24.450001
20
-5.462000
30
24.421000
70
192
0
VERTEX
8
OBJECT__38
10
21.275000
20
-5.103000
30
24.580000
70
192
0
VERTEX
8
OBJECT__38
10
18.100000
20
-5.098000
30
24.542000
70
192
0
VERTEX
8
OBJECT__38
10
18.100000
20
-5.090000
30
24.559999
70
192
0
VERTEX
8
OBJECT__38
10
18.100000
20
-5.437000
30
24.381001
70
192
0
VERTEX
8
OBJECT__38
10
0
20
0
30
0
70
128
71
1
72
2
73
3
0
VERTEX
8
OBJECT__38
10
0
20
0
30
0
70
128
71
3
72
4
73
1
0
VERTEX
8
OBJECT__38
10
0
20
0
30
0
70
128
71
2
72
5
73
3
0
VERTEX
8
OBJECT__38
10
0
20
0
30
0
70
128
71
2
72
6
73
7
0
VERTEX
8
OBJECT__38
10
0
20
0
30
0
70
128
71
6
72
8
73
7
0
VERTEX
8
OBJECT__38
10
0
20
0
30
0
70
128
71
7
72
9
73
2
0
VERTEX
8
OBJECT__38
10
0
20
0
30
0
70
128
71
1
72
6
73
2
0
SEQEND
8
OBJECT__38
0
POLYLINE
8
OBJECT__39
66
1
70
64
71
5
72
3
62
253
0
VERTEX
8
OBJECT__39
10
18.100000
20
-4.239000
30
25.729000
70
192
0
VERTEX
8
OBJECT__39
10
19.848000
20
-2.030000
30
26.427000
70
192
0
VERTEX
8
OBJECT__39
10
19.848000
20
3.859000
30
26.684000
70
192
0
VERTEX
8
OBJECT__39
10
18.100000
20
6.120000
30
26.181000
70
192
0
VERTEX
8
OBJECT__39
10
19.826000
20
4.115000
30
26.719999
70
192
0
VERTEX
8
OBJECT__39
10
0
20
0
30
0
70
128
71
1
72
2
73
3
0
VERTEX
8
OBJECT__39
10
0
20
0
30
0
70
128
71
3
72
4
73
1
0
VERTEX
8
OBJECT__39
10
0
20
0
30
0
70
128
71
3
72
5
73
4
0
SEQEND
8
OBJECT__39
0
POLYLINE
8
OBJECT__40
66
1
70
64
71
24
72
22
62
253
0
VERTEX
8
OBJECT__40
10
18.100000
20
-16.649000
30
30.563000
70
192
0
VERTEX
8
OBJECT__40
10
18.100000
20
-23.209999
30
42.464001
70
192
0
VERTEX
8
OBJECT__40
10
24.450001
20
-23.177000
30
42.471001
70
192
0
VERTEX
8
OBJECT__40
10
18.100000
20
-22.172001
30
56.013000
70
192
0
VERTEX
8
OBJECT__40
10
24.450001
20
-22.141001
30
56.000999
70
192
0
VERTEX
8
OBJECT__40
10
18.100000
20
-13.875000
30
66.775002
70
192
0
VERTEX
8
OBJECT__40
10
24.450001
20
-13.856000
30
66.748001
70
192
0
VERTEX
8
OBJECT__40
10
18.100000
20
-1.036000
30
71.226997
70
192
0
VERTEX
8
OBJECT__40
10
24.450001
20
-1.034000
30
71.194000
70
192
0
VERTEX
8
OBJECT__40
10
18.100000
20
12.142000
30
67.911003
70
192
0
VERTEX
8
OBJECT__40
10
24.450001
20
12.125000
30
67.883003
70
192
0
VERTEX
8
OBJECT__40
10
18.100000
20
21.346001
30
57.912998
70
192
0
VERTEX
8
OBJECT__40
10
24.450001
20
21.316000
30
57.897999
70
192
0
VERTEX
8
OBJECT__40
10
18.100000
20
23.561001
30
44.506001
70
192
0
VERTEX
8
OBJECT__40
10
24.450001
20
23.528000
30
44.509998
70
192
0
VERTEX
8
OBJECT__40
10
18.100000
20
18.062000
30
32.078999
70
192
0
VERTEX
8
OBJECT__40
10
24.450001
20
18.037001
30
32.099998
70
192
0
VERTEX
8
OBJECT__40
10
21.100000
20
7.441000
30
24.962000
70
192
0
VERTEX
8
OBJECT__40
10
18.100000
20
7.431000
30
24.941999
70
192
0
VERTEX
8
OBJECT__40
10
24.450001
20
-16.625999
30
30.587000
70
192
0
VERTEX
8
OBJECT__40
10
24.450001
20
-5.462000
30
24.421000
70
192
0
VERTEX
8
OBJECT__40
10
21.275000
20
-5.449000
30
24.400999
70
192
0
VERTEX
8
OBJECT__40
10
18.100000
20
-5.437000
30
24.381001
70
192
0
VERTEX
8
OBJECT__40
10
24.450001
20
7.453000
30
24.985001
70
192
0
VERTEX
8
OBJECT__40
10
0
20
0
30
0
70
128
71
1
72
2
73
3
0
VERTEX
8
OBJECT__40
10
0
20
0
30
0
70
128
71
2
72
4
73
5
0
VERTEX
8
OBJECT__40
10
0
20
0
30
0
70
128
71
6
72
7
73
5
0
VERTEX
8
OBJECT__40
10
0
20
0
30
0
70
128
71
8
72
9
73
7
0
VERTEX
8
OBJECT__40
10
0
20
0
30
0
70
128
71
8
72
10
73
11
0
VERTEX
8
OBJECT__40
10
0
20
0
30
0
70
128
71
10
72
12
73
13
0
VERTEX
8
OBJECT__40
10
0
20
0
30
0
70
128
71
12
72
14
73
15
0
VERTEX
8
OBJECT__40
10
0
20
0
30
0
70
128
71
14
72
16
73
17
0
VERTEX
8
OBJECT__40
10
0
20
0
30
0
70
128
71
17
72
16
73
18
0
VERTEX
8
OBJECT__40
10
0
20
0
30
0
70
128
71
16
72
19
73
18
0
VERTEX
8
OBJECT__40
10
0
20
0
30
0
70
128
71
20
72
21
73
22
0
VERTEX
8
OBJECT__40
10
0
20
0
30
0
70
128
71
22
72
1
73
20
0
VERTEX
8
OBJECT__40
10
0
20
0
30
0
70
128
71
22
72
23
73
1
0
VERTEX
8
OBJECT__40
10
0
20
0
30
0
70
128
71
18
72
24
73
17
0
VERTEX
8
OBJECT__40
10
0
20
0
30
0
70
128
71
17
72
15
73
14
0
VERTEX
8
OBJECT__40
10
0
20
0
30
0
70
128
71
15
72
13
73
12
0
VERTEX
8
OBJECT__40
10
0
20
0
30
0
70
128
71
13
72
11
73
10
0
VERTEX
8
OBJECT__40
10
0
20
0
30
0
70
128
71
11
72
9
73
8
0
VERTEX
8
OBJECT__40
10
0
20
0
30
0
70
128
71
7
72
6
73
8
0
VERTEX
8
OBJECT__40
10
0
20
0
30
0
70
128
71
5
72
4
73
6
0
VERTEX
8
OBJECT__40
10
0
20
0
30
0
70
128
71
5
72
3
73
2
0
VERTEX
8
OBJECT__40
10
0
20
0
30
0
70
128
71
3
72
20
73
1
0
SEQEND
8
OBJECT__40
0
POLYLINE
8
OBJECT__41
66
1
70
64
71
14
72
12
62
253
0
VERTEX
8
OBJECT__41
10
17.700001
20
24.544001
30
-46.807999
70
192
0
VERTEX
8
OBJECT__41
10
17.700001
20
-6.282000
30
-62.987000
70
192
0
VERTEX
8
OBJECT__41
10
17.700001
20
-17.407000
30
-57.147999
70
192
0
VERTEX
8
OBJECT__41
10
17.700001
20
-12.199000
30
-14.257000
70
192
0
VERTEX
8
OBJECT__41
10
17.700001
20
0.000000
30
-11.250000
70
192
0
VERTEX
8
OBJECT__41
10
17.700001
20
12.199000
30
-14.257000
70
192
0
VERTEX
8
OBJECT__41
10
17.700001
20
21.603001
30
-22.587999
70
192
0
VERTEX
8
OBJECT__41
10
17.700001
20
-26.059000
30
-34.335999
70
192
0
VERTEX
8
OBJECT__41
10
17.700001
20
-21.603001
30
-22.587999
70
192
0
VERTEX
8
OBJECT__41
10
17.700001
20
-24.544001
30
-46.807999
70
192
0
VERTEX
8
OBJECT__41
10
17.700001
20
17.407000
30
-57.147999
70
192
0
VERTEX
8
OBJECT__41
10
17.700001
20
6.282000
30
-62.987000
70
192
0
VERTEX
8
OBJECT__41
10
17.700001
20
26.250000
30
-37.500000
70
192
0
VERTEX
8
OBJECT__41
10
17.700001
20
26.059000
30
-34.335999
70
192
0
VERTEX
8
OBJECT__41
10
0
20
0
30
0
70
128
71
1
72
2
73
3
0
VERTEX
8
OBJECT__41
10
0
20
0
30
0
70
128
71
4
72
5
73
6
0
VERTEX
8
OBJECT__41
10
0
20
0
30
0
70
128
71
7
72
8
73
9
0
VERTEX
8
OBJECT__41
10
0
20
0
30
0
70
128
71
3
72
10
73
1
0
VERTEX
8
OBJECT__41
10
0
20
0
30
0
70
128
71
2
72
1
73
11
0
VERTEX
8
OBJECT__41
10
0
20
0
30
0
70
128
71
9
72
4
73
7
0
VERTEX
8
OBJECT__41
10
0
20
0
30
0
70
128
71
11
72
12
73
2
0
VERTEX
8
OBJECT__41
10
0
20
0
30
0
70
128
71
6
72
7
73
4
0
VERTEX
8
OBJECT__41
10
0
20
0
30
0
70
128
71
8
72
13
73
1
0
VERTEX
8
OBJECT__41
10
0
20
0
30
0
70
128
71
7
72
14
73
8
0
VERTEX
8
OBJECT__41
10
0
20
0
30
0
70
128
71
14
72
13
73
8
0
VERTEX
8
OBJECT__41
10
0
20
0
30
0
70
128
71
10
72
8
73
1
0
SEQEND
8
OBJECT__41
0
POLYLINE
8
OBJECT__42
66
1
70
64
71
90
72
94
62
253
0
VERTEX
8
OBJECT__42
10
74.699997
20
21.603001
30
-22.587999
70
192
0
VERTEX
8
OBJECT__42
10
17.700001
20
21.603001
30
-22.587999
70
192
0
VERTEX
8
OBJECT__42
10
17.700001
20
12.199000
30
-14.257000
70
192
0
VERTEX
8
OBJECT__42
10
17.700001
20
26.059000
30
-34.335999
70
192
0
VERTEX
8
OBJECT__42
10
74.699997
20
26.250000
30
-37.500000
70
192
0
VERTEX
8
OBJECT__42
10
74.699997
20
24.544001
30
-46.807999
70
192
0
VERTEX
8
OBJECT__42
10
17.700001
20
24.544001
30
-46.807999
70
192
0
VERTEX
8
OBJECT__42
10
17.700001
20
26.250000
30
-37.500000
70
192
0
VERTEX
8
OBJECT__42
10
74.699997
20
26.059000
30
-34.335999
70
192
0
VERTEX
8
OBJECT__42
10
17.700001
20
17.407000
30
-57.147999
70
192
0
VERTEX
8
OBJECT__42
10
74.699997
20
6.282000
30
-62.987000
70
192
0
VERTEX
8
OBJECT__42
10
17.700001
20
6.282000
30
-62.987000
70
192
0
VERTEX
8
OBJECT__42
10
59.700001
20
5.192000
30
-63.230999
70
192
0
VERTEX
8
OBJECT__42
10
60.324001
20
5.151000
30
-63.240002
70
192
0
VERTEX
8
OBJECT__42
10
60.929001
20
5.036000
30
-63.262001
70
192
0
VERTEX
8
OBJECT__42
10
61.675999
20
4.792000
30
-63.308998
70
192
0
VERTEX
8
OBJECT__42
10
62.437000
20
4.408000
30
-63.376999
70
192
0
VERTEX
8
OBJECT__42
10
63.105999
20
3.917000
30
-63.456001
70
192
0
VERTEX
8
OBJECT__42
10
63.678001
20
3.326000
30
-63.539001
70
192
0
VERTEX
8
OBJECT__42
10
64.524002
20
1.843000
30
-63.685001
70
192
0
VERTEX
8
OBJECT__42
10
74.699997
20
-6.282000
30
-62.987000
70
192
0
VERTEX
8
OBJECT__42
10
64.848999
20
0.000000
30
-63.750000
70
192
0
VERTEX
8
OBJECT__42
10
64.765999
20
0.953000
30
-63.733002
70
192
0
VERTEX
8
OBJECT__42
10
64.566002
20
-1.726000
30
-63.693001
70
192
0
VERTEX
8
OBJECT__42
10
63.676998
20
-3.326000
30
-63.537998
70
192
0
VERTEX
8
OBJECT__42
10
62.452000
20
-4.398000
30
-63.379002
70
192
0
VERTEX
8
OBJECT__42
10
63.132000
20
-3.894000
30
-63.459999
70
192
0
VERTEX
8
OBJECT__42
10
61.675999
20
-4.792000
30
-63.308998
70
192
0
VERTEX
8
OBJECT__42
10
60.487000
20
-5.127000
30
-63.244999
70
192
0
VERTEX
8
OBJECT__42
10
61.087002
20
-4.994000
30
-63.271000
70
192
0
VERTEX
8
OBJECT__42
10
17.700001
20
-6.282000
30
-62.987000
70
192
0
VERTEX
8
OBJECT__42
10
31.700001
20
-5.192000
30
-63.230999
70
192
0
VERTEX
8
OBJECT__42
10
59.700001
20
-5.192000
30
-63.230999
70
192
0
VERTEX
8
OBJECT__42
10
31.073000
20
-5.150000
30
-63.240002
70
192
0
VERTEX
8
OBJECT__42
10
30.465000
20
-5.035000
30
-63.263000
70
192
0
VERTEX
8
OBJECT__42
10
29.724001
20
-4.792000
30
-63.308998
70
192
0
VERTEX
8
OBJECT__42
10
28.952000
20
-4.401000
30
-63.379002
70
192
0
VERTEX
8
OBJECT__42
10
27.723000
20
-3.326000
30
-63.537998
70
192
0
VERTEX
8
OBJECT__42
10
28.275000
20
-3.900000
30
-63.459000
70
192
0
VERTEX
8
OBJECT__42
10
27.202999
20
-2.556000
30
-63.625000
70
192
0
VERTEX
8
OBJECT__42
10
26.836000
20
-1.730000
30
-63.693001
70
192
0
VERTEX
8
OBJECT__42
10
64.197998
20
-2.554000
30
-63.625000
70
192
0
VERTEX
8
OBJECT__42
10
26.635000
20
0.955000
30
-63.733002
70
192
0
VERTEX
8
OBJECT__42
10
26.551001
20
0.000000
30
-63.750000
70
192
0
VERTEX
8
OBJECT__42
10
26.878000
20
1.847000
30
-63.685001
70
192
0
VERTEX
8
OBJECT__42
10
28.294001
20
3.917000
30
-63.456001
70
192
0
VERTEX
8
OBJECT__42
10
27.723000
20
3.326000
30
-63.537998
70
192
0
VERTEX
8
OBJECT__42
10
28.934999
20
4.391000
30
-63.380001
70
192
0
VERTEX
8
OBJECT__42
10
30.313000
20
4.994000
30
-63.271000
70
192
0
VERTEX
8
OBJECT__42
10
29.724001
20
4.792000
30
-63.308998
70
192
0
VERTEX
8
OBJECT__42
10
30.914000
20
5.127000
30
-63.243999
70
192
0
VERTEX
8
OBJECT__42
10
31.700001
20
5.192000
30
-63.230999
70
192
0
VERTEX
8
OBJECT__42
10
17.700001
20
-17.407000
30
-57.147999
70
192
0
VERTEX
8
OBJECT__42
10
17.700001
20
-24.544001
30
-46.807999
70
192
0
VERTEX
8
OBJECT__42
10
74.699997
20
-17.407000
30
-57.147999
70
192
0
VERTEX
8
OBJECT__42
10
74.699997
20
-26.059000
30
-34.335999
70
192
0
VERTEX
8
OBJECT__42
10
17.700001
20
-26.059000
30
-34.335999
70
192
0
VERTEX
8
OBJECT__42
10
17.700001
20
-21.603001
30
-22.587999
70
192
0
VERTEX
8
OBJECT__42
10
74.699997
20
-12.199000
30
-14.257000
70
192
0
VERTEX
8
OBJECT__42
10
17.700001
20
-12.199000
30
-14.257000
70
192
0
VERTEX
8
OBJECT__42
10
74.699997
20
0.000000
30
-11.250000
70
192
0
VERTEX
8
OBJECT__42
10
74.699997
20
12.199000
30
-14.257000
70
192
0
VERTEX
8
OBJECT__42
10
64.500999
20
2.815000
30
-11.401000
70
192
0
VERTEX
8
OBJECT__42
10
61.199001
20
7.595000
30
-12.373000
70
192
0
VERTEX
8
OBJECT__42
10
63.139999
20
5.584000
30
-11.851000
70
192
0
VERTEX
8
OBJECT__42
10
58.568001
20
9.006000
30
-12.843000
70
192
0
VERTEX
8
OBJECT__42
10
64.918999
20
0.000000
30
-11.250000
70
192
0
VERTEX
8
OBJECT__42
10
35.700001
20
9.500000
30
-13.030000
70
192
0
VERTEX
8
OBJECT__42
10
55.599998
20
9.500000
30
-13.030000
70
192
0
VERTEX
8
OBJECT__42
10
32.731998
20
9.006000
30
-12.843000
70
192
0
VERTEX
8
OBJECT__42
10
26.799000
20
2.815000
30
-11.401000
70
192
0
VERTEX
8
OBJECT__42
10
28.160000
20
5.584000
30
-11.851000
70
192
0
VERTEX
8
OBJECT__42
10
26.381001
20
0.000000
30
-11.250000
70
192
0
VERTEX
8
OBJECT__42
10
30.101000
20
7.595000
30
-12.373000
70
192
0
VERTEX
8
OBJECT__42
10
17.700001
20
0.000000
30
-11.250000
70
192
0
VERTEX
8
OBJECT__42
10
26.868999
20
-3.034000
30
-11.426000
70
192
0
VERTEX
8
OBJECT__42
10
28.160999
20
-5.584000
30
-11.851000
70
192
0
VERTEX
8
OBJECT__42
10
31.389999
20
-8.423000
30
-12.638000
70
192
0
VERTEX
8
OBJECT__42
10
30.429001
20
-7.834000
30
-12.446000
70
192
0
VERTEX
8
OBJECT__42
10
34.221001
20
-9.380000
30
-12.983000
70
192
0
VERTEX
8
OBJECT__42
10
55.599998
20
-9.500000
30
-13.029000
70
192
0
VERTEX
8
OBJECT__42
10
57.078999
20
-9.380000
30
-12.983000
70
192
0
VERTEX
8
OBJECT__42
10
35.700001
20
-9.500000
30
-13.029000
70
192
0
VERTEX
8
OBJECT__42
10
63.139000
20
-5.584000
30
-11.851000
70
192
0
VERTEX
8
OBJECT__42
10
60.870998
20
-7.834000
30
-12.446000
70
192
0
VERTEX
8
OBJECT__42
10
59.910000
20
-8.423000
30
-12.638000
70
192
0
VERTEX
8
OBJECT__42
10
64.431000
20
-3.034000
30
-11.426000
70
192
0
VERTEX
8
OBJECT__42
10
74.699997
20
-21.603001
30
-22.587999
70
192
0
VERTEX
8
OBJECT__42
10
74.699997
20
-24.544001
30
-46.807999
70
192
0
VERTEX
8
OBJECT__42
10
74.699997
20
17.407000
30
-57.147999
70
192
0
VERTEX
8
OBJECT__42
10
0
20
0
30
0
70
128
71
1
72
2
73
3
0
VERTEX
8
OBJECT__42
10
0
20
0
30
0
70
128
71
4
72
2
73
1
0
VERTEX
8
OBJECT__42
10
0
20
0
30
0
70
128
71
5
72
6
73
7
0
VERTEX
8
OBJECT__42
10
0
20
0
30
0
70
128
71
5
72
8
73
4
0
VERTEX
8
OBJECT__42
10
0
20
0
30
0
70
128
71
4
72
9
73
5
0
VERTEX
8
OBJECT__42
10
0
20
0
30
0
70
128
71
10
72
7
73
6
0
VERTEX
8
OBJECT__42
10
0
20
0
30
0
70
128
71
11
72
12
73
10
0
VERTEX
8
OBJECT__42
10
0
20
0
30
0
70
128
71
12
72
11
73
13
0
VERTEX
8
OBJECT__42
10
0
20
0
30
0
70
128
71
11
72
14
73
13
0
VERTEX
8
OBJECT__42
10
0
20
0
30
0
70
128
71
11
72
15
73
14
0
VERTEX
8
OBJECT__42
10
0
20
0
30
0
70
128
71
16
72
15
73
11
0
VERTEX
8
OBJECT__42
10
0
20
0
30
0
70
128
71
11
72
17
73
16
0
VERTEX
8
OBJECT__42
10
0
20
0
30
0
70
128
71
11
72
18
73
17
0
VERTEX
8
OBJECT__42
10
0
20
0
30
0
70
128
71
19
72
18
73
11
0
VERTEX
8
OBJECT__42
10
0
20
0
30
0
70
128
71
11
72
20
73
19
0
VERTEX
8
OBJECT__42
10
0
20
0
30
0
70
128
71
11
72
21
73
22
0
VERTEX
8
OBJECT__42
10
0
20
0
30
0
70
128
71
22
72
23
73
11
0
VERTEX
8
OBJECT__42
10
0
20
0
30
0
70
128
71
21
72
24
73
22
0
VERTEX
8
OBJECT__42
10
0
20
0
30
0
70
128
71
23
72
20
73
11
0
VERTEX
8
OBJECT__42
10
0
20
0
30
0
70
128
71
21
72
26
73
27
0
VERTEX
8
OBJECT__42
10
0
20
0
30
0
70
128
71
27
72
25
73
21
0
VERTEX
8
OBJECT__42
10
0
20
0
30
0
70
128
71
21
72
29
73
30
0
VERTEX
8
OBJECT__42
10
0
20
0
30
0
70
128
71
31
72
32
73
33
0
VERTEX
8
OBJECT__42
10
0
20
0
30
0
70
128
71
31
72
34
73
32
0
VERTEX
8
OBJECT__42
10
0
20
0
30
0
70
128
71
33
72
21
73
31
0
VERTEX
8
OBJECT__42
10
0
20
0
30
0
70
128
71
31
72
35
73
34
0
VERTEX
8
OBJECT__42
10
0
20
0
30
0
70
128
71
31
72
36
73
35
0
VERTEX
8
OBJECT__42
10
0
20
0
30
0
70
128
71
33
72
29
73
21
0
VERTEX
8
OBJECT__42
10
0
20
0
30
0
70
128
71
30
72
28
73
21
0
VERTEX
8
OBJECT__42
10
0
20
0
30
0
70
128
71
31
72
37
73
36
0
VERTEX
8
OBJECT__42
10
0
20
0
30
0
70
128
71
31
72
38
73
39
0
VERTEX
8
OBJECT__42
10
0
20
0
30
0
70
128
71
39
72
37
73
31
0
VERTEX
8
OBJECT__42
10
0
20
0
30
0
70
128
71
28
72
26
73
21
0
VERTEX
8
OBJECT__42
10
0
20
0
30
0
70
128
71
31
72
40
73
38
0
VERTEX
8
OBJECT__42
10
0
20
0
30
0
70
128
71
31
72
41
73
40
0
VERTEX
8
OBJECT__42
10
0
20
0
30
0
70
128
71
25
72
42
73
21
0
VERTEX
8
OBJECT__42
10
0
20
0
30
0
70
128
71
42
72
24
73
21
0
VERTEX
8
OBJECT__42
10
0
20
0
30
0
70
128
71
12
72
43
73
44
0
VERTEX
8
OBJECT__42
10
0
20
0
30
0
70
128
71
12
72
45
73
43
0
VERTEX
8
OBJECT__42
10
0
20
0
30
0
70
128
71
12
72
46
73
47
0
VERTEX
8
OBJECT__42
10
0
20
0
30
0
70
128
71
12
72
48
73
46
0
VERTEX
8
OBJECT__42
10
0
20
0
30
0
70
128
71
12
72
49
73
50
0
VERTEX
8
OBJECT__42
10
0
20
0
30
0
70
128
71
12
72
51
73
49
0
VERTEX
8
OBJECT__42
10
0
20
0
30
0
70
128
71
12
72
52
73
51
0
VERTEX
8
OBJECT__42
10
0
20
0
30
0
70
128
71
50
72
48
73
12
0
VERTEX
8
OBJECT__42
10
0
20
0
30
0
70
128
71
47
72
45
73
12
0
VERTEX
8
OBJECT__42
10
0
20
0
30
0
70
128
71
44
72
31
73
12
0
VERTEX
8
OBJECT__42
10
0
20
0
30
0
70
128
71
44
72
41
73
31
0
VERTEX
8
OBJECT__42
10
0
20
0
30
0
70
128
71
53
72
31
73
21
0
VERTEX
8
OBJECT__42
10
0
20
0
30
0
70
128
71
54
72
53
73
55
0
VERTEX
8
OBJECT__42
10
0
20
0
30
0
70
128
71
56
72
57
73
54
0
VERTEX
8
OBJECT__42
10
0
20
0
30
0
70
128
71
58
72
57
73
56
0
VERTEX
8
OBJECT__42
10
0
20
0
30
0
70
128
71
59
72
60
73
58
0
VERTEX
8
OBJECT__42
10
0
20
0
30
0
70
128
71
61
72
62
73
63
0
VERTEX
8
OBJECT__42
10
0
20
0
30
0
70
128
71
62
72
64
73
65
0
VERTEX
8
OBJECT__42
10
0
20
0
30
0
70
128
71
65
72
63
73
62
0
VERTEX
8
OBJECT__42
10
0
20
0
30
0
70
128
71
62
72
66
73
64
0
VERTEX
8
OBJECT__42
10
0
20
0
30
0
70
128
71
63
72
67
73
61
0
VERTEX
8
OBJECT__42
10
0
20
0
30
0
70
128
71
62
72
68
73
69
0
VERTEX
8
OBJECT__42
10
0
20
0
30
0
70
128
71
69
72
66
73
62
0
VERTEX
8
OBJECT__42
10
0
20
0
30
0
70
128
71
3
72
70
73
68
0
VERTEX
8
OBJECT__42
10
0
20
0
30
0
70
128
71
68
72
62
73
3
0
VERTEX
8
OBJECT__42
10
0
20
0
30
0
70
128
71
3
72
71
73
72
0
VERTEX
8
OBJECT__42
10
0
20
0
30
0
70
128
71
3
72
73
73
71
0
VERTEX
8
OBJECT__42
10
0
20
0
30
0
70
128
71
72
72
74
73
3
0
VERTEX
8
OBJECT__42
10
0
20
0
30
0
70
128
71
73
72
3
73
75
0
VERTEX
8
OBJECT__42
10
0
20
0
30
0
70
128
71
74
72
70
73
3
0
VERTEX
8
OBJECT__42
10
0
20
0
30
0
70
128
71
75
72
60
73
76
0
VERTEX
8
OBJECT__42
10
0
20
0
30
0
70
128
71
60
72
77
73
76
0
VERTEX
8
OBJECT__42
10
0
20
0
30
0
70
128
71
60
72
78
73
79
0
VERTEX
8
OBJECT__42
10
0
20
0
30
0
70
128
71
60
72
80
73
78
0
VERTEX
8
OBJECT__42
10
0
20
0
30
0
70
128
71
60
72
59
73
81
0
VERTEX
8
OBJECT__42
10
0
20
0
30
0
70
128
71
59
72
82
73
81
0
VERTEX
8
OBJECT__42
10
0
20
0
30
0
70
128
71
81
72
83
73
60
0
VERTEX
8
OBJECT__42
10
0
20
0
30
0
70
128
71
83
72
80
73
60
0
VERTEX
8
OBJECT__42
10
0
20
0
30
0
70
128
71
59
72
84
73
85
0
VERTEX
8
OBJECT__42
10
0
20
0
30
0
70
128
71
85
72
86
73
59
0
VERTEX
8
OBJECT__42
10
0
20
0
30
0
70
128
71
86
72
82
73
59
0
VERTEX
8
OBJECT__42
10
0
20
0
30
0
70
128
71
79
72
77
73
60
0
VERTEX
8
OBJECT__42
10
0
20
0
30
0
70
128
71
61
72
67
73
87
0
VERTEX
8
OBJECT__42
10
0
20
0
30
0
70
128
71
87
72
59
73
61
0
VERTEX
8
OBJECT__42
10
0
20
0
30
0
70
128
71
87
72
84
73
59
0
VERTEX
8
OBJECT__42
10
0
20
0
30
0
70
128
71
76
72
73
73
75
0
VERTEX
8
OBJECT__42
10
0
20
0
30
0
70
128
71
58
72
88
73
59
0
VERTEX
8
OBJECT__42
10
0
20
0
30
0
70
128
71
56
72
88
73
58
0
VERTEX
8
OBJECT__42
10
0
20
0
30
0
70
128
71
54
72
89
73
56
0
VERTEX
8
OBJECT__42
10
0
20
0
30
0
70
128
71
55
72
89
73
54
0
VERTEX
8
OBJECT__42
10
0
20
0
30
0
70
128
71
21
72
55
73
53
0
VERTEX
8
OBJECT__42
10
0
20
0
30
0
70
128
71
13
72
52
73
12
0
VERTEX
8
OBJECT__42
10
0
20
0
30
0
70
128
71
10
72
90
73
11
0
VERTEX
8
OBJECT__42
10
0
20
0
30
0
70
128
71
6
72
90
73
10
0
VERTEX
8
OBJECT__42
10
0
20
0
30
0
70
128
71
7
72
8
73
5
0
VERTEX
8
OBJECT__42
10
0
20
0
30
0
70
128
71
1
72
9
73
4
0
VERTEX
8
OBJECT__42
10
0
20
0
30
0
70
128
71
3
72
62
73
1
0
SEQEND
8
OBJECT__42
0
POLYLINE
8
OBJECT__44
66
1
70
64
71
7
72
5
62
253
0
VERTEX
8
OBJECT__44
10
35.700001
20
9.046000
30
-13.077000
70
192
0
VERTEX
8
OBJECT__44
10
35.700001
20
8.820000
30
-13.467000
70
192
0
VERTEX
8
OBJECT__44
10
55.445000
20
8.820000
30
-13.467000
70
192
0
VERTEX
8
OBJECT__44
10
55.599998
20
9.046000
30
-13.077000
70
192
0
VERTEX
8
OBJECT__44
10
55.599998
20
9.500000
30
-13.030000
70
192
0
VERTEX
8
OBJECT__44
10
35.700001
20
9.500000
30
-13.030000
70
192
0
VERTEX
8
OBJECT__44
10
55.599998
20
8.820000
30
-13.467000
70
192
0
VERTEX
8
OBJECT__44
10
0
20
0
30
0
70
128
71
1
72
2
73
3
0
VERTEX
8
OBJECT__44
10
0
20
0
30
0
70
128
71
3
72
4
73
1
0
VERTEX
8
OBJECT__44
10
0
20
0
30
0
70
128
71
5
72
6
73
1
0
VERTEX
8
OBJECT__44
10
0
20
0
30
0
70
128
71
1
72
4
73
5
0
VERTEX
8
OBJECT__44
10
0
20
0
30
0
70
128
71
3
72
7
73
4
0
SEQEND
8
OBJECT__44
0
POLYLINE
8
OBJECT__45
66
1
70
64
71
14
72
12
62
253
0
VERTEX
8
OBJECT__45
10
74.699997
20
-26.059000
30
-34.335999
70
192
0
VERTEX
8
OBJECT__45
10
74.699997
20
12.199000
30
-14.257000
70
192
0
VERTEX
8
OBJECT__45
10
74.699997
20
0.000000
30
-11.250000
70
192
0
VERTEX
8
OBJECT__45
10
74.699997
20
-12.199000
30
-14.257000
70
192
0
VERTEX
8
OBJECT__45
10
74.699997
20
6.282000
30
-62.987000
70
192
0
VERTEX
8
OBJECT__45
10
74.699997
20
17.407000
30
-57.147999
70
192
0
VERTEX
8
OBJECT__45
10
74.699997
20
21.603001
30
-22.587999
70
192
0
VERTEX
8
OBJECT__45
10
74.699997
20
-6.282000
30
-62.987000
70
192
0
VERTEX
8
OBJECT__45
10
74.699997
20
-24.544001
30
-46.807999
70
192
0
VERTEX
8
OBJECT__45
10
74.699997
20
-17.407000
30
-57.147999
70
192
0
VERTEX
8
OBJECT__45
10
74.699997
20
26.059000
30
-34.335999
70
192
0
VERTEX
8
OBJECT__45
10
74.699997
20
26.250000
30
-37.500000
70
192
0
VERTEX
8
OBJECT__45
10
74.699997
20
24.544001
30
-46.807999
70
192
0
VERTEX
8
OBJECT__45
10
74.699997
20
-21.603001
30
-22.587999
70
192
0
VERTEX
8
OBJECT__45
10
0
20
0
30
0
70
128
71
1
72
2
73
3
0
VERTEX
8
OBJECT__45
10
0
20
0
30
0
70
128
71
3
72
4
73
1
0
VERTEX
8
OBJECT__45
10
0
20
0
30
0
70
128
71
1
72
5
73
6
0
VERTEX
8
OBJECT__45
10
0
20
0
30
0
70
128
71
1
72
7
73
2
0
VERTEX
8
OBJECT__45
10
0
20
0
30
0
70
128
71
1
72
8
73
5
0
VERTEX
8
OBJECT__45
10
0
20
0
30
0
70
128
71
1
72
9
73
10
0
VERTEX
8
OBJECT__45
10
0
20
0
30
0
70
128
71
1
72
11
73
7
0
VERTEX
8
OBJECT__45
10
0
20
0
30
0
70
128
71
10
72
8
73
1
0
VERTEX
8
OBJECT__45
10
0
20
0
30
0
70
128
71
1
72
12
73
11
0
VERTEX
8
OBJECT__45
10
0
20
0
30
0
70
128
71
6
72
13
73
1
0
VERTEX
8
OBJECT__45
10
0
20
0
30
0
70
128
71
13
72
12
73
1
0
VERTEX
8
OBJECT__45
10
0
20
0
30
0
70
128
71
4
72
14
73
1
0
SEQEND
8
OBJECT__45
0
POLYLINE
8
OBJECT__46
66
1
70
64
71
13
72
11
62
253
0
VERTEX
8
OBJECT__46
10
28.160000
20
5.584000
30
-11.851000
70
192
0
VERTEX
8
OBJECT__46
10
28.566999
20
5.188000
30
-12.315000
70
192
0
VERTEX
8
OBJECT__46
10
30.195999
20
6.408000
30
-12.688000
70
192
0
VERTEX
8
OBJECT__46
10
30.101000
20
7.595000
30
-12.373000
70
192
0
VERTEX
8
OBJECT__46
10
30.645000
20
6.744000
30
-12.791000
70
192
0
VERTEX
8
OBJECT__46
10
32.727001
20
8.304000
30
-13.268000
70
192
0
VERTEX
8
OBJECT__46
10
32.731998
20
9.006000
30
-12.843000
70
192
0
VERTEX
8
OBJECT__46
10
32.897999
20
8.341000
30
-13.283000
70
192
0
VERTEX
8
OBJECT__46
10
34.983002
20
8.791000
30
-13.464000
70
192
0
VERTEX
8
OBJECT__46
10
35.700001
20
9.046000
30
-13.077000
70
192
0
VERTEX
8
OBJECT__46
10
35.700001
20
8.820000
30
-13.477000
70
192
0
VERTEX
8
OBJECT__46
10
35.700001
20
8.820000
30
-13.467000
70
192
0
VERTEX
8
OBJECT__46
10
35.700001
20
9.500000
30
-13.030000
70
192
0
VERTEX
8
OBJECT__46
10
0
20
0
30
0
70
128
71
1
72
2
73
3
0
VERTEX
8
OBJECT__46
10
0
20
0
30
0
70
128
71
3
72
4
73
1
0
VERTEX
8
OBJECT__46
10
0
20
0
30
0
70
128
71
4
72
5
73
6
0
VERTEX
8
OBJECT__46
10
0
20
0
30
0
70
128
71
6
72
7
73
4
0
VERTEX
8
OBJECT__46
10
0
20
0
30
0
70
128
71
7
72
8
73
9
0
VERTEX
8
OBJECT__46
10
0
20
0
30
0
70
128
71
9
72
10
73
7
0
VERTEX
8
OBJECT__46
10
0
20
0
30
0
70
128
71
9
72
11
73
12
0
VERTEX
8
OBJECT__46
10
0
20
0
30
0
70
128
71
9
72
12
73
10
0
VERTEX
8
OBJECT__46
10
0
20
0
30
0
70
128
71
10
72
13
73
7
0
VERTEX
8
OBJECT__46
10
0
20
0
30
0
70
128
71
6
72
8
73
7
0
VERTEX
8
OBJECT__46
10
0
20
0
30
0
70
128
71
3
72
5
73
4
0
SEQEND
8
OBJECT__46
0
POLYLINE
8
OBJECT__47
66
1
70
64
71
9
72
7
62
253
0
VERTEX
8
OBJECT__47
10
28.160000
20
5.584000
30
-11.851000
70
192
0
VERTEX
8
OBJECT__47
10
26.799000
20
2.815000
30
-11.401000
70
192
0
VERTEX
8
OBJECT__47
10
27.695000
20
3.703000
30
-12.024000
70
192
0
VERTEX
8
OBJECT__47
10
27.381001
20
2.583000
30
-11.909000
70
192
0
VERTEX
8
OBJECT__47
10
26.381001
20
0.000000
30
-11.250000
70
192
0
VERTEX
8
OBJECT__47
10
26.937000
20
1.000000
30
-11.746000
70
192
0
VERTEX
8
OBJECT__47
10
26.493000
20
0.000000
30
-11.357000
70
192
0
VERTEX
8
OBJECT__47
10
26.879999
20
0.000000
30
-11.724000
70
192
0
VERTEX
8
OBJECT__47
10
28.566999
20
5.188000
30
-12.315000
70
192
0
VERTEX
8
OBJECT__47
10
0
20
0
30
0
70
128
71
1
72
2
73
3
0
VERTEX
8
OBJECT__47
10
0
20
0
30
0
70
128
71
2
72
4
73
3
0
VERTEX
8
OBJECT__47
10
0
20
0
30
0
70
128
71
2
72
5
73
6
0
VERTEX
8
OBJECT__47
10
0
20
0
30
0
70
128
71
6
72
5
73
7
0
VERTEX
8
OBJECT__47
10
0
20
0
30
0
70
128
71
8
72
6
73
7
0
VERTEX
8
OBJECT__47
10
0
20
0
30
0
70
128
71
6
72
4
73
2
0
VERTEX
8
OBJECT__47
10
0
20
0
30
0
70
128
71
3
72
9
73
1
0
SEQEND
8
OBJECT__47
0
POLYLINE
8
OBJECT__48
66
1
70
64
71
9
72
7
62
253
0
VERTEX
8
OBJECT__48
10
26.868999
20
-3.034000
30
-11.426000
70
192
0
VERTEX
8
OBJECT__48
10
28.160999
20
-5.584000
30
-11.851000
70
192
0
VERTEX
8
OBJECT__48
10
28.033001
20
-4.359000
30
-12.137000
70
192
0
VERTEX
8
OBJECT__48
10
28.566999
20
-5.188000
30
-12.312000
70
192
0
VERTEX
8
OBJECT__48
10
26.493000
20
0.000000
30
-11.357000
70
192
0
VERTEX
8
OBJECT__48
10
27.035000
20
-1.645000
30
-11.781000
70
192
0
VERTEX
8
OBJECT__48
10
26.879999
20
0.000000
30
-11.724000
70
192
0
VERTEX
8
OBJECT__48
10
27.450001
20
-2.775000
30
-11.929000
70
192
0
VERTEX
8
OBJECT__48
10
26.381001
20
0.000000
30
-11.250000
70
192
0
VERTEX
8
OBJECT__48
10
0
20
0
30
0
70
128
71
1
72
2
73
3
0
VERTEX
8
OBJECT__48
10
0
20
0
30
0
70
128
71
2
72
4
73
3
0
VERTEX
8
OBJECT__48
10
0
20
0
30
0
70
128
71
5
72
1
73
6
0
VERTEX
8
OBJECT__48
10
0
20
0
30
0
70
128
71
6
72
7
73
5
0
VERTEX
8
OBJECT__48
10
0
20
0
30
0
70
128
71
1
72
8
73
6
0
VERTEX
8
OBJECT__48
10
0
20
0
30
0
70
128
71
5
72
9
73
1
0
VERTEX
8
OBJECT__48
10
0
20
0
30
0
70
128
71
3
72
8
73
1
0
SEQEND
8
OBJECT__48
0
POLYLINE
8
OBJECT__49
66
1
70
64
71
9
72
7
62
253
0
VERTEX
8
OBJECT__49
10
28.160999
20
-5.584000
30
-11.851000
70
192
0
VERTEX
8
OBJECT__49
10
30.429001
20
-7.834000
30
-12.446000
70
192
0
VERTEX
8
OBJECT__49
10
30.054001
20
-6.621000
30
-12.714000
70
192
0
VERTEX
8
OBJECT__49
10
30.724001
20
-7.267000
30
-12.895000
70
192
0
VERTEX
8
OBJECT__49
10
31.389999
20
-8.423000
30
-12.638000
70
192
0
VERTEX
8
OBJECT__49
10
31.625000
20
-7.822000
30
-13.080000
70
192
0
VERTEX
8
OBJECT__49
10
30.777000
20
-7.318000
30
-12.909000
70
192
0
VERTEX
8
OBJECT__49
10
31.625000
20
-7.822000
30
-13.083000
70
192
0
VERTEX
8
OBJECT__49
10
28.566999
20
-5.188000
30
-12.312000
70
192
0
VERTEX
8
OBJECT__49
10
0
20
0
30
0
70
128
71
1
72
2
73
3
0
VERTEX
8
OBJECT__49
10
0
20
0
30
0
70
128
71
2
72
4
73
3
0
VERTEX
8
OBJECT__49
10
0
20
0
30
0
70
128
71
5
72
6
73
7
0
VERTEX
8
OBJECT__49
10
0
20
0
30
0
70
128
71
7
72
2
73
5
0
VERTEX
8
OBJECT__49
10
0
20
0
30
0
70
128
71
6
72
8
73
7
0
VERTEX
8
OBJECT__49
10
0
20
0
30
0
70
128
71
7
72
4
73
2
0
VERTEX
8
OBJECT__49
10
0
20
0
30
0
70
128
71
3
72
9
73
1
0
SEQEND
8
OBJECT__49
0
POLYLINE
8
OBJECT__50
66
1
70
64
71
8
72
6
62
253
0
VERTEX
8
OBJECT__50
10
34.327000
20
-8.584000
30
-13.371000
70
192
0
VERTEX
8
OBJECT__50
10
34.221001
20
-9.380000
30
-12.983000
70
192
0
VERTEX
8
OBJECT__50
10
35.700001
20
-9.156000
30
-13.249000
70
192
0
VERTEX
8
OBJECT__50
10
35.700001
20
-9.500000
30
-13.029000
70
192
0
VERTEX
8
OBJECT__50
10
32.758999
20
-8.315000
30
-13.264000
70
192
0
VERTEX
8
OBJECT__50
10
31.389999
20
-8.423000
30
-12.638000
70
192
0
VERTEX
8
OBJECT__50
10
31.625000
20
-7.822000
30
-13.080000
70
192
0
VERTEX
8
OBJECT__50
10
35.700001
20
-8.820000
30
-13.464000
70
192
0
VERTEX
8
OBJECT__50
10
0
20
0
30
0
70
128
71
1
72
2
73
3
0
VERTEX
8
OBJECT__50
10
0
20
0
30
0
70
128
71
2
72
4
73
3
0
VERTEX
8
OBJECT__50
10
0
20
0
30
0
70
128
71
2
72
1
73
5
0
VERTEX
8
OBJECT__50
10
0
20
0
30
0
70
128
71
5
72
6
73
2
0
VERTEX
8
OBJECT__50
10
0
20
0
30
0
70
128
71
5
72
7
73
6
0
VERTEX
8
OBJECT__50
10
0
20
0
30
0
70
128
71
3
72
8
73
1
0
SEQEND
8
OBJECT__50
0
POLYLINE
8
OBJECT__51
66
1
70
64
71
39
72
37
62
253
0
VERTEX
8
OBJECT__51
10
30.645000
20
6.744000
30
-12.791000
70
192
0
VERTEX
8
OBJECT__51
10
30.047001
20
6.613000
30
-13.188000
70
192
0
VERTEX
8
OBJECT__51
10
31.407000
20
7.705000
30
-13.493000
70
192
0
VERTEX
8
OBJECT__51
10
32.727001
20
8.304000
30
-13.268000
70
192
0
VERTEX
8
OBJECT__51
10
34.264000
20
8.702000
30
-13.836000
70
192
0
VERTEX
8
OBJECT__51
10
32.897999
20
8.341000
30
-13.283000
70
192
0
VERTEX
8
OBJECT__51
10
34.983002
20
8.791000
30
-13.464000
70
192
0
VERTEX
8
OBJECT__51
10
35.700001
20
8.820000
30
-13.880000
70
192
0
VERTEX
8
OBJECT__51
10
35.700001
20
8.820000
30
-13.477000
70
192
0
VERTEX
8
OBJECT__51
10
30.195999
20
6.408000
30
-12.688000
70
192
0
VERTEX
8
OBJECT__51
10
28.566999
20
5.188000
30
-12.315000
70
192
0
VERTEX
8
OBJECT__51
10
29.106001
20
5.858000
30
-12.977000
70
192
0
VERTEX
8
OBJECT__51
10
27.597000
20
3.484000
30
-12.528000
70
192
0
VERTEX
8
OBJECT__51
10
27.695000
20
3.703000
30
-12.024000
70
192
0
VERTEX
8
OBJECT__51
10
26.914000
20
0.769000
30
-12.298000
70
192
0
VERTEX
8
OBJECT__51
10
27.381001
20
2.583000
30
-11.909000
70
192
0
VERTEX
8
OBJECT__51
10
26.937000
20
1.000000
30
-11.746000
70
192
0
VERTEX
8
OBJECT__51
10
26.879999
20
0.000000
30
-11.724000
70
192
0
VERTEX
8
OBJECT__51
10
26.974001
20
0.008000
30
-12.319000
70
192
0
VERTEX
8
OBJECT__51
10
26.979000
20
-0.053000
30
-12.321000
70
192
0
VERTEX
8
OBJECT__51
10
27.035000
20
-1.645000
30
-11.781000
70
192
0
VERTEX
8
OBJECT__51
10
27.146999
20
-2.155000
30
-12.379000
70
192
0
VERTEX
8
OBJECT__51
10
27.450001
20
-2.775000
30
-11.929000
70
192
0
VERTEX
8
OBJECT__51
10
28.033001
20
-4.359000
30
-12.137000
70
192
0
VERTEX
8
OBJECT__51
10
28.379000
20
-4.919000
30
-12.771000
70
192
0
VERTEX
8
OBJECT__51
10
30.024000
20
-6.657000
30
-13.196000
70
192
0
VERTEX
8
OBJECT__51
10
28.566999
20
-5.188000
30
-12.312000
70
192
0
VERTEX
8
OBJECT__51
10
30.054001
20
-6.621000
30
-12.714000
70
192
0
VERTEX
8
OBJECT__51
10
35.700001
20
-8.820000
30
-13.467000
70
192
0
VERTEX
8
OBJECT__51
10
32.883999
20
-8.358000
30
-13.712000
70
192
0
VERTEX
8
OBJECT__51
10
34.327000
20
-8.584000
30
-13.371000
70
192
0
VERTEX
8
OBJECT__51
10
32.758999
20
-8.315000
30
-13.264000
70
192
0
VERTEX
8
OBJECT__51
10
35.700001
20
-8.820000
30
-13.464000
70
192
0
VERTEX
8
OBJECT__51
10
35.700001
20
-8.820000
30
-13.880000
70
192
0
VERTEX
8
OBJECT__51
10
31.625000
20
-7.822000
30
-13.083000
70
192
0
VERTEX
8
OBJECT__51
10
31.625000
20
-7.822000
30
-13.080000
70
192
0
VERTEX
8
OBJECT__51
10
30.386999
20
-7.040000
30
-13.289000
70
192
0
VERTEX
8
OBJECT__51
10
30.777000
20
-7.318000
30
-12.909000
70
192
0
VERTEX
8
OBJECT__51
10
30.724001
20
-7.267000
30
-12.895000
70
192
0
VERTEX
8
OBJECT__51
10
0
20
0
30
0
70
128
71
1
72
2
73
3
0
VERTEX
8
OBJECT__51
10
0
20
0
30
0
70
128
71
3
72
4
73
1
0
VERTEX
8
OBJECT__51
10
0
20
0
30
0
70
128
71
5
72
6
73
4
0
VERTEX
8
OBJECT__51
10
0
20
0
30
0
70
128
71
5
72
7
73
6
0
VERTEX
8
OBJECT__51
10
0
20
0
30
0
70
128
71
8
72
9
73
7
0
VERTEX
8
OBJECT__51
10
0
20
0
30
0
70
128
71
7
72
5
73
8
0
VERTEX
8
OBJECT__51
10
0
20
0
30
0
70
128
71
4
72
3
73
5
0
VERTEX
8
OBJECT__51
10
0
20
0
30
0
70
128
71
10
72
11
73
12
0
VERTEX
8
OBJECT__51
10
0
20
0
30
0
70
128
71
13
72
12
73
11
0
VERTEX
8
OBJECT__51
10
0
20
0
30
0
70
128
71
11
72
14
73
13
0
VERTEX
8
OBJECT__51
10
0
20
0
30
0
70
128
71
15
72
13
73
16
0
VERTEX
8
OBJECT__51
10
0
20
0
30
0
70
128
71
13
72
14
73
16
0
VERTEX
8
OBJECT__51
10
0
20
0
30
0
70
128
71
16
72
17
73
15
0
VERTEX
8
OBJECT__51
10
0
20
0
30
0
70
128
71
18
72
19
73
15
0
VERTEX
8
OBJECT__51
10
0
20
0
30
0
70
128
71
15
72
17
73
18
0
VERTEX
8
OBJECT__51
10
0
20
0
30
0
70
128
71
20
72
18
73
21
0
VERTEX
8
OBJECT__51
10
0
20
0
30
0
70
128
71
21
72
22
73
20
0
VERTEX
8
OBJECT__51
10
0
20
0
30
0
70
128
71
22
72
23
73
24
0
VERTEX
8
OBJECT__51
10
0
20
0
30
0
70
128
71
24
72
25
73
22
0
VERTEX
8
OBJECT__51
10
0
20
0
30
0
70
128
71
22
72
21
73
23
0
VERTEX
8
OBJECT__51
10
0
20
0
30
0
70
128
71
26
72
25
73
27
0
VERTEX
8
OBJECT__51
10
0
20
0
30
0
70
128
71
27
72
28
73
26
0
VERTEX
8
OBJECT__51
10
0
20
0
30
0
70
128
71
24
72
27
73
25
0
VERTEX
8
OBJECT__51
10
0
20
0
30
0
70
128
71
29
72
30
73
31
0
VERTEX
8
OBJECT__51
10
0
20
0
30
0
70
128
71
30
72
32
73
31
0
VERTEX
8
OBJECT__51
10
0
20
0
30
0
70
128
71
31
72
33
73
29
0
VERTEX
8
OBJECT__51
10
0
20
0
30
0
70
128
71
29
72
34
73
30
0
VERTEX
8
OBJECT__51
10
0
20
0
30
0
70
128
71
35
72
36
73
32
0
VERTEX
8
OBJECT__51
10
0
20
0
30
0
70
128
71
32
72
30
73
35
0
VERTEX
8
OBJECT__51
10
0
20
0
30
0
70
128
71
37
72
38
73
35
0
VERTEX
8
OBJECT__51
10
0
20
0
30
0
70
128
71
28
72
39
73
37
0
VERTEX
8
OBJECT__51
10
0
20
0
30
0
70
128
71
37
72
26
73
28
0
VERTEX
8
OBJECT__51
10
0
20
0
30
0
70
128
71
39
72
38
73
37
0
VERTEX
8
OBJECT__51
10
0
20
0
30
0
70
128
71
35
72
30
73
37
0
VERTEX
8
OBJECT__51
10
0
20
0
30
0
70
128
71
18
72
20
73
19
0
VERTEX
8
OBJECT__51
10
0
20
0
30
0
70
128
71
12
72
2
73
10
0
VERTEX
8
OBJECT__51
10
0
20
0
30
0
70
128
71
1
72
10
73
2
0
SEQEND
8
OBJECT__51
0
POLYLINE
8
OBJECT__52
66
1
70
64
71
9
72
7
62
253
0
VERTEX
8
OBJECT__52
10
55.599998
20
-9.500000
30
-13.029000
70
192
0
VERTEX
8
OBJECT__52
10
55.599998
20
-9.156000
30
-13.249000
70
192
0
VERTEX
8
OBJECT__52
10
35.700001
20
-9.156000
30
-13.249000
70
192
0
VERTEX
8
OBJECT__52
10
35.700001
20
-8.820000
30
-13.464000
70
192
0
VERTEX
8
OBJECT__52
10
50.445000
20
-8.820000
30
-13.467000
70
192
0
VERTEX
8
OBJECT__52
10
55.599998
20
-8.820000
30
-13.464000
70
192
0
VERTEX
8
OBJECT__52
10
35.700001
20
-8.820000
30
-13.467000
70
192
0
VERTEX
8
OBJECT__52
10
55.599998
20
-8.820000
30
-13.467000
70
192
0
VERTEX
8
OBJECT__52
10
35.700001
20
-9.500000
30
-13.029000
70
192
0
VERTEX
8
OBJECT__52
10
0
20
0
30
0
70
128
71
1
72
2
73
3
0
VERTEX
8
OBJECT__52
10
0
20
0
30
0
70
128
71
4
72
2
73
5
0
VERTEX
8
OBJECT__52
10
0
20
0
30
0
70
128
71
2
72
6
73
5
0
VERTEX
8
OBJECT__52
10
0
20
0
30
0
70
128
71
5
72
7
73
4
0
VERTEX
8
OBJECT__52
10
0
20
0
30
0
70
128
71
6
72
8
73
5
0
VERTEX
8
OBJECT__52
10
0
20
0
30
0
70
128
71
4
72
3
73
2
0
VERTEX
8
OBJECT__52
10
0
20
0
30
0
70
128
71
3
72
9
73
1
0
SEQEND
8
OBJECT__52
0
POLYLINE
8
OBJECT__53
66
1
70
64
71
39
72
37
62
253
0
VERTEX
8
OBJECT__53
10
59.893002
20
-7.705000
30
-13.493000
70
192
0
VERTEX
8
OBJECT__53
10
59.674999
20
-7.822000
30
-13.083000
70
192
0
VERTEX
8
OBJECT__53
10
60.568001
20
-7.251000
30
-12.891000
70
192
0
VERTEX
8
OBJECT__53
10
61.252998
20
-6.613000
30
-13.188000
70
192
0
VERTEX
8
OBJECT__53
10
57.035999
20
-8.702000
30
-13.836000
70
192
0
VERTEX
8
OBJECT__53
10
60.994999
20
-6.978000
30
-12.799000
70
192
0
VERTEX
8
OBJECT__53
10
56.959999
20
-8.592000
30
-13.376000
70
192
0
VERTEX
8
OBJECT__53
10
59.674999
20
-7.822000
30
-13.080000
70
192
0
VERTEX
8
OBJECT__53
10
55.599998
20
-8.820000
30
-13.880000
70
192
0
VERTEX
8
OBJECT__53
10
56.240002
20
-8.797000
30
-13.455000
70
192
0
VERTEX
8
OBJECT__53
10
55.599998
20
-8.820000
30
-13.467000
70
192
0
VERTEX
8
OBJECT__53
10
55.599998
20
-8.820000
30
-13.464000
70
192
0
VERTEX
8
OBJECT__53
10
61.292000
20
-6.672000
30
-12.716000
70
192
0
VERTEX
8
OBJECT__53
10
62.733002
20
-5.188000
30
-12.312000
70
192
0
VERTEX
8
OBJECT__53
10
62.194000
20
-5.858000
30
-12.977000
70
192
0
VERTEX
8
OBJECT__53
10
63.702999
20
-3.484000
30
-12.528000
70
192
0
VERTEX
8
OBJECT__53
10
63.619999
20
-3.671000
30
-12.015000
70
192
0
VERTEX
8
OBJECT__53
10
64.386002
20
-0.769000
30
-12.298000
70
192
0
VERTEX
8
OBJECT__53
10
63.862999
20
-2.790000
30
-11.927000
70
192
0
VERTEX
8
OBJECT__53
10
64.366997
20
-0.966000
30
-11.742000
70
192
0
VERTEX
8
OBJECT__53
10
64.419998
20
0.000000
30
-11.724000
70
192
0
VERTEX
8
OBJECT__53
10
64.329002
20
-0.055000
30
-12.318000
70
192
0
VERTEX
8
OBJECT__53
10
64.325996
20
-0.008000
30
-12.319000
70
192
0
VERTEX
8
OBJECT__53
10
64.264999
20
1.644000
30
-11.783000
70
192
0
VERTEX
8
OBJECT__53
10
64.153000
20
2.155000
30
-12.379000
70
192
0
VERTEX
8
OBJECT__53
10
63.923000
20
2.575000
30
-11.906000
70
192
0
VERTEX
8
OBJECT__53
10
63.268002
20
4.359000
30
-12.141000
70
192
0
VERTEX
8
OBJECT__53
10
62.921001
20
4.919000
30
-12.771000
70
192
0
VERTEX
8
OBJECT__53
10
61.276001
20
6.657000
30
-13.196000
70
192
0
VERTEX
8
OBJECT__53
10
62.733002
20
5.188000
30
-12.315000
70
192
0
VERTEX
8
OBJECT__53
10
61.305000
20
6.685000
30
-12.719000
70
192
0
VERTEX
8
OBJECT__53
10
55.599998
20
8.820000
30
-13.477000
70
192
0
VERTEX
8
OBJECT__53
10
55.599998
20
8.820000
30
-13.880000
70
192
0
VERTEX
8
OBJECT__53
10
58.416000
20
8.358000
30
-13.712000
70
192
0
VERTEX
8
OBJECT__53
10
59.000999
20
8.138000
30
-13.205000
70
192
0
VERTEX
8
OBJECT__53
10
58.383999
20
8.262000
30
-13.254000
70
192
0
VERTEX
8
OBJECT__53
10
60.912998
20
7.040000
30
-13.289000
70
192
0
VERTEX
8
OBJECT__53
10
60.876999
20
7.024000
30
-12.822000
70
192
0
VERTEX
8
OBJECT__53
10
61.119999
20
6.879000
30
-12.772000
70
192
0
VERTEX
8
OBJECT__53
10
0
20
0
30
0
70
128
71
1
72
2
73
3
0
VERTEX
8
OBJECT__53
10
0
20
0
30
0
70
128
71
3
72
4
73
1
0
VERTEX
8
OBJECT__53
10
0
20
0
30
0
70
128
71
1
72
5
73
2
0
VERTEX
8
OBJECT__53
10
0
20
0
30
0
70
128
71
3
72
6
73
4
0
VERTEX
8
OBJECT__53
10
0
20
0
30
0
70
128
71
7
72
8
73
2
0
VERTEX
8
OBJECT__53
10
0
20
0
30
0
70
128
71
5
72
9
73
10
0
VERTEX
8
OBJECT__53
10
0
20
0
30
0
70
128
71
10
72
7
73
5
0
VERTEX
8
OBJECT__53
10
0
20
0
30
0
70
128
71
10
72
9
73
11
0
VERTEX
8
OBJECT__53
10
0
20
0
30
0
70
128
71
11
72
12
73
10
0
VERTEX
8
OBJECT__53
10
0
20
0
30
0
70
128
71
2
72
5
73
7
0
VERTEX
8
OBJECT__53
10
0
20
0
30
0
70
128
71
13
72
14
73
15
0
VERTEX
8
OBJECT__53
10
0
20
0
30
0
70
128
71
16
72
15
73
14
0
VERTEX
8
OBJECT__53
10
0
20
0
30
0
70
128
71
14
72
17
73
16
0
VERTEX
8
OBJECT__53
10
0
20
0
30
0
70
128
71
18
72
16
73
19
0
VERTEX
8
OBJECT__53
10
0
20
0
30
0
70
128
71
16
72
17
73
19
0
VERTEX
8
OBJECT__53
10
0
20
0
30
0
70
128
71
19
72
20
73
18
0
VERTEX
8
OBJECT__53
10
0
20
0
30
0
70
128
71
21
72
22
73
18
0
VERTEX
8
OBJECT__53
10
0
20
0
30
0
70
128
71
21
72
23
73
22
0
VERTEX
8
OBJECT__53
10
0
20
0
30
0
70
128
71
18
72
20
73
21
0
VERTEX
8
OBJECT__53
10
0
20
0
30
0
70
128
71
23
72
21
73
24
0
VERTEX
8
OBJECT__53
10
0
20
0
30
0
70
128
71
24
72
25
73
23
0
VERTEX
8
OBJECT__53
10
0
20
0
30
0
70
128
71
25
72
26
73
27
0
VERTEX
8
OBJECT__53
10
0
20
0
30
0
70
128
71
27
72
28
73
25
0
VERTEX
8
OBJECT__53
10
0
20
0
30
0
70
128
71
29
72
28
73
30
0
VERTEX
8
OBJECT__53
10
0
20
0
30
0
70
128
71
30
72
31
73
29
0
VERTEX
8
OBJECT__53
10
0
20
0
30
0
70
128
71
27
72
30
73
28
0
VERTEX
8
OBJECT__53
10
0
20
0
30
0
70
128
71
32
72
33
73
34
0
VERTEX
8
OBJECT__53
10
0
20
0
30
0
70
128
71
34
72
35
73
36
0
VERTEX
8
OBJECT__53
10
0
20
0
30
0
70
128
71
37
72
38
73
35
0
VERTEX
8
OBJECT__53
10
0
20
0
30
0
70
128
71
37
72
29
73
39
0
VERTEX
8
OBJECT__53
10
0
20
0
30
0
70
128
71
39
72
38
73
37
0
VERTEX
8
OBJECT__53
10
0
20
0
30
0
70
128
71
29
72
31
73
39
0
VERTEX
8
OBJECT__53
10
0
20
0
30
0
70
128
71
35
72
34
73
37
0
VERTEX
8
OBJECT__53
10
0
20
0
30
0
70
128
71
34
72
36
73
32
0
VERTEX
8
OBJECT__53
10
0
20
0
30
0
70
128
71
24
72
26
73
25
0
VERTEX
8
OBJECT__53
10
0
20
0
30
0
70
128
71
15
72
4
73
13
0
VERTEX
8
OBJECT__53
10
0
20
0
30
0
70
128
71
6
72
13
73
4
0
SEQEND
8
OBJECT__53
0
POLYLINE
8
OBJECT__54
66
1
70
64
71
21
72
27
62
253
0
VERTEX
8
OBJECT__54
10
61.199001
20
7.595000
30
-12.373000
70
192
0
VERTEX
8
OBJECT__54
10
58.568001
20
9.006000
30
-12.843000
70
192
0
VERTEX
8
OBJECT__54
10
59.000999
20
8.138000
30
-13.205000
70
192
0
VERTEX
8
OBJECT__54
10
58.383999
20
8.262000
30
-13.254000
70
192
0
VERTEX
8
OBJECT__54
10
63.139999
20
5.584000
30
-11.851000
70
192
0
VERTEX
8
OBJECT__54
10
61.305000
20
6.685000
30
-12.719000
70
192
0
VERTEX
8
OBJECT__54
10
61.119999
20
6.879000
30
-12.772000
70
192
0
VERTEX
8
OBJECT__54
10
60.876999
20
7.024000
30
-12.822000
70
192
0
VERTEX
8
OBJECT__54
10
55.599998
20
8.895000
30
-13.231000
70
192
0
VERTEX
8
OBJECT__54
10
55.599998
20
8.891000
30
-13.238000
70
192
0
VERTEX
8
OBJECT__54
10
55.599998
20
8.890000
30
-13.241000
70
192
0
VERTEX
8
OBJECT__54
10
55.599998
20
8.888000
30
-13.244000
70
192
0
VERTEX
8
OBJECT__54
10
55.599998
20
8.903000
30
-13.219000
70
192
0
VERTEX
8
OBJECT__54
10
55.599998
20
8.920000
30
-13.195000
70
192
0
VERTEX
8
OBJECT__54
10
55.599998
20
8.958000
30
-13.150000
70
192
0
VERTEX
8
OBJECT__54
10
55.599998
20
9.049000
30
-13.075000
70
192
0
VERTEX
8
OBJECT__54
10
55.599998
20
8.820000
30
-13.467000
70
192
0
VERTEX
8
OBJECT__54
10
55.599998
20
9.500000
30
-13.030000
70
192
0
VERTEX
8
OBJECT__54
10
55.599998
20
9.046000
30
-13.077000
70
192
0
VERTEX
8
OBJECT__54
10
55.599998
20
8.820000
30
-13.477000
70
192
0
VERTEX
8
OBJECT__54
10
62.733002
20
5.188000
30
-12.315000
70
192
0
VERTEX
8
OBJECT__54
10
0
20
0
30
0
70
128
71
1
72
2
73
3
0
VERTEX
8
OBJECT__54
10
0
20
0
30
0
70
128
71
2
72
4
73
3
0
VERTEX
8
OBJECT__54
10
0
20
0
30
0
70
128
71
5
72
1
73
6
0
VERTEX
8
OBJECT__54
10
0
20
0
30
0
70
128
71
1
72
7
73
6
0
VERTEX
8
OBJECT__54
10
0
20
0
30
0
70
128
71
1
72
8
73
7
0
VERTEX
8
OBJECT__54
10
0
20
0
30
0
70
128
71
4
72
9
73
10
0
VERTEX
8
OBJECT__54
10
0
20
0
30
0
70
128
71
11
72
12
73
4
0
VERTEX
8
OBJECT__54
10
0
20
0
30
0
70
128
71
10
72
11
73
4
0
VERTEX
8
OBJECT__54
10
0
20
0
30
0
70
128
71
2
72
13
73
9
0
VERTEX
8
OBJECT__54
10
0
20
0
30
0
70
128
71
9
72
4
73
2
0
VERTEX
8
OBJECT__54
10
0
20
0
30
0
70
128
71
2
72
14
73
13
0
VERTEX
8
OBJECT__54
10
0
20
0
30
0
70
128
71
2
72
15
73
14
0
VERTEX
8
OBJECT__54
10
0
20
0
30
0
70
128
71
2
72
16
73
15
0
VERTEX
8
OBJECT__54
10
0
20
0
30
0
70
128
71
12
72
17
73
4
0
VERTEX
8
OBJECT__54
10
0
20
0
30
0
70
128
71
2
72
18
73
16
0
VERTEX
8
OBJECT__54
10
0
20
0
30
0
70
128
71
19
72
17
73
15
0
VERTEX
8
OBJECT__54
10
0
20
0
30
0
70
128
71
15
72
16
73
19
0
VERTEX
8
OBJECT__54
10
0
20
0
30
0
70
128
71
17
72
11
73
10
0
VERTEX
8
OBJECT__54
10
0
20
0
30
0
70
128
71
10
72
9
73
17
0
VERTEX
8
OBJECT__54
10
0
20
0
30
0
70
128
71
9
72
13
73
17
0
VERTEX
8
OBJECT__54
10
0
20
0
30
0
70
128
71
13
72
14
73
17
0
VERTEX
8
OBJECT__54
10
0
20
0
30
0
70
128
71
14
72
15
73
17
0
VERTEX
8
OBJECT__54
10
0
20
0
30
0
70
128
71
17
72
12
73
11
0
VERTEX
8
OBJECT__54
10
0
20
0
30
0
70
128
71
18
72
19
73
16
0
VERTEX
8
OBJECT__54
10
0
20
0
30
0
70
128
71
17
72
20
73
4
0
VERTEX
8
OBJECT__54
10
0
20
0
30
0
70
128
71
6
72
21
73
5
0
VERTEX
8
OBJECT__54
10
0
20
0
30
0
70
128
71
3
72
8
73
1
0
SEQEND
8
OBJECT__54
0
POLYLINE
8
OBJECT__55
66
1
70
64
71
8
72
6
62
253
0
VERTEX
8
OBJECT__55
10
64.918999
20
0.000000
30
-11.250000
70
192
0
VERTEX
8
OBJECT__55
10
64.500999
20
2.815000
30
-11.401000
70
192
0
VERTEX
8
OBJECT__55
10
64.264999
20
1.644000
30
-11.783000
70
192
0
VERTEX
8
OBJECT__55
10
63.923000
20
2.575000
30
-11.906000
70
192
0
VERTEX
8
OBJECT__55
10
63.139999
20
5.584000
30
-11.851000
70
192
0
VERTEX
8
OBJECT__55
10
63.268002
20
4.359000
30
-12.141000
70
192
0
VERTEX
8
OBJECT__55
10
62.733002
20
5.188000
30
-12.315000
70
192
0
VERTEX
8
OBJECT__55
10
64.419998
20
0.000000
30
-11.724000
70
192
0
VERTEX
8
OBJECT__55
10
0
20
0
30
0
70
128
71
1
72
2
73
3
0
VERTEX
8
OBJECT__55
10
0
20
0
30
0
70
128
71
2
72
4
73
3
0
VERTEX
8
OBJECT__55
10
0
20
0
30
0
70
128
71
2
72
5
73
6
0
VERTEX
8
OBJECT__55
10
0
20
0
30
0
70
128
71
5
72
7
73
6
0
VERTEX
8
OBJECT__55
10
0
20
0
30
0
70
128
71
6
72
4
73
2
0
VERTEX
8
OBJECT__55
10
0
20
0
30
0
70
128
71
3
72
8
73
1
0
SEQEND
8
OBJECT__55
0
POLYLINE
8
OBJECT__56
66
1
70
64
71
8
72
6
62
253
0
VERTEX
8
OBJECT__56
10
64.431000
20
-3.034000
30
-11.426000
70
192
0
VERTEX
8
OBJECT__56
10
64.918999
20
0.000000
30
-11.250000
70
192
0
VERTEX
8
OBJECT__56
10
64.366997
20
-0.966000
30
-11.742000
70
192
0
VERTEX
8
OBJECT__56
10
64.419998
20
0.000000
30
-11.724000
70
192
0
VERTEX
8
OBJECT__56
10
63.139000
20
-5.584000
30
-11.851000
70
192
0
VERTEX
8
OBJECT__56
10
63.619999
20
-3.671000
30
-12.015000
70
192
0
VERTEX
8
OBJECT__56
10
63.862999
20
-2.790000
30
-11.927000
70
192
0
VERTEX
8
OBJECT__56
10
62.733002
20
-5.188000
30
-12.312000
70
192
0
VERTEX
8
OBJECT__56
10
0
20
0
30
0
70
128
71
1
72
2
73
3
0
VERTEX
8
OBJECT__56
10
0
20
0
30
0
70
128
71
2
72
4
73
3
0
VERTEX
8
OBJECT__56
10
0
20
0
30
0
70
128
71
5
72
1
73
6
0
VERTEX
8
OBJECT__56
10
0
20
0
30
0
70
128
71
1
72
7
73
6
0
VERTEX
8
OBJECT__56
10
0
20
0
30
0
70
128
71
6
72
8
73
5
0
VERTEX
8
OBJECT__56
10
0
20
0
30
0
70
128
71
3
72
7
73
1
0
SEQEND
8
OBJECT__56
0
POLYLINE
8
OBJECT__57
66
1
70
64
71
9
72
7
62
253
0
VERTEX
8
OBJECT__57
10
60.568001
20
-7.251000
30
-12.891000
70
192
0
VERTEX
8
OBJECT__57
10
59.674999
20
-7.822000
30
-13.083000
70
192
0
VERTEX
8
OBJECT__57
10
59.674999
20
-7.822000
30
-13.080000
70
192
0
VERTEX
8
OBJECT__57
10
60.870998
20
-7.834000
30
-12.446000
70
192
0
VERTEX
8
OBJECT__57
10
59.910000
20
-8.423000
30
-12.638000
70
192
0
VERTEX
8
OBJECT__57
10
63.139000
20
-5.584000
30
-11.851000
70
192
0
VERTEX
8
OBJECT__57
10
62.733002
20
-5.188000
30
-12.312000
70
192
0
VERTEX
8
OBJECT__57
10
61.292000
20
-6.672000
30
-12.716000
70
192
0
VERTEX
8
OBJECT__57
10
60.994999
20
-6.978000
30
-12.799000
70
192
0
VERTEX
8
OBJECT__57
10
0
20
0
30
0
70
128
71
1
72
2
73
3
0
VERTEX
8
OBJECT__57
10
0
20
0
30
0
70
128
71
3
72
4
73
1
0
VERTEX
8
OBJECT__57
10
0
20
0
30
0
70
128
71
3
72
5
73
4
0
VERTEX
8
OBJECT__57
10
0
20
0
30
0
70
128
71
6
72
7
73
8
0
VERTEX
8
OBJECT__57
10
0
20
0
30
0
70
128
71
8
72
4
73
6
0
VERTEX
8
OBJECT__57
10
0
20
0
30
0
70
128
71
8
72
9
73
4
0
VERTEX
8
OBJECT__57
10
0
20
0
30
0
70
128
71
9
72
1
73
4
0
SEQEND
8
OBJECT__57
0
POLYLINE
8
OBJECT__58
66
1
70
64
71
8
72
6
62
253
0
VERTEX
8
OBJECT__58
10
57.078999
20
-9.380000
30
-12.983000
70
192
0
VERTEX
8
OBJECT__58
10
59.910000
20
-8.423000
30
-12.638000
70
192
0
VERTEX
8
OBJECT__58
10
59.674999
20
-7.822000
30
-13.080000
70
192
0
VERTEX
8
OBJECT__58
10
56.240002
20
-8.797000
30
-13.455000
70
192
0
VERTEX
8
OBJECT__58
10
55.599998
20
-8.820000
30
-13.464000
70
192
0
VERTEX
8
OBJECT__58
10
55.599998
20
-9.156000
30
-13.249000
70
192
0
VERTEX
8
OBJECT__58
10
56.959999
20
-8.592000
30
-13.376000
70
192
0
VERTEX
8
OBJECT__58
10
55.599998
20
-9.500000
30
-13.029000
70
192
0
VERTEX
8
OBJECT__58
10
0
20
0
30
0
70
128
71
1
72
2
73
3
0
VERTEX
8
OBJECT__58
10
0
20
0
30
0
70
128
71
4
72
5
73
6
0
VERTEX
8
OBJECT__58
10
0
20
0
30
0
70
128
71
1
72
7
73
4
0
VERTEX
8
OBJECT__58
10
0
20
0
30
0
70
128
71
4
72
8
73
1
0
VERTEX
8
OBJECT__58
10
0
20
0
30
0
70
128
71
6
72
8
73
4
0
VERTEX
8
OBJECT__58
10
0
20
0
30
0
70
128
71
3
72
7
73
1
0
SEQEND
8
OBJECT__58
0
POLYLINE
8
OBJECT__59
66
1
70
64
71
33
72
34
62
253
0
VERTEX
8
OBJECT__59
10
64.329002
20
-0.055000
30
-12.318000
70
192
0
VERTEX
8
OBJECT__59
10
27.597000
20
3.484000
30
-12.528000
70
192
0
VERTEX
8
OBJECT__59
10
26.914000
20
0.769000
30
-12.298000
70
192
0
VERTEX
8
OBJECT__59
10
30.047001
20
6.613000
30
-13.188000
70
192
0
VERTEX
8
OBJECT__59
10
29.106001
20
5.858000
30
-12.977000
70
192
0
VERTEX
8
OBJECT__59
10
26.974001
20
0.008000
30
-12.319000
70
192
0
VERTEX
8
OBJECT__59
10
32.874001
20
7.727000
30
-13.500000
70
192
0
VERTEX
8
OBJECT__59
10
35.700001
20
8.820000
30
-13.880000
70
192
0
VERTEX
8
OBJECT__59
10
34.264000
20
8.702000
30
-13.836000
70
192
0
VERTEX
8
OBJECT__59
10
31.407000
20
7.705000
30
-13.493000
70
192
0
VERTEX
8
OBJECT__59
10
61.276001
20
6.657000
30
-13.196000
70
192
0
VERTEX
8
OBJECT__59
10
55.599998
20
8.820000
30
-13.880000
70
192
0
VERTEX
8
OBJECT__59
10
60.912998
20
7.040000
30
-13.289000
70
192
0
VERTEX
8
OBJECT__59
10
58.416000
20
8.358000
30
-13.712000
70
192
0
VERTEX
8
OBJECT__59
10
64.153000
20
2.155000
30
-12.379000
70
192
0
VERTEX
8
OBJECT__59
10
62.921001
20
4.919000
30
-12.771000
70
192
0
VERTEX
8
OBJECT__59
10
63.623001
20
2.468000
30
-12.408000
70
192
0
VERTEX
8
OBJECT__59
10
64.325996
20
-0.008000
30
-12.319000
70
192
0
VERTEX
8
OBJECT__59
10
30.024000
20
-6.657000
30
-13.196000
70
192
0
VERTEX
8
OBJECT__59
10
63.702999
20
-3.484000
30
-12.528000
70
192
0
VERTEX
8
OBJECT__59
10
64.386002
20
-0.769000
30
-12.298000
70
192
0
VERTEX
8
OBJECT__59
10
61.252998
20
-6.613000
30
-13.188000
70
192
0
VERTEX
8
OBJECT__59
10
62.194000
20
-5.858000
30
-12.977000
70
192
0
VERTEX
8
OBJECT__59
10
58.425999
20
-7.727000
30
-13.500000
70
192
0
VERTEX
8
OBJECT__59
10
55.599998
20
-8.820000
30
-13.880000
70
192
0
VERTEX
8
OBJECT__59
10
57.035999
20
-8.702000
30
-13.836000
70
192
0
VERTEX
8
OBJECT__59
10
59.893002
20
-7.705000
30
-13.493000
70
192
0
VERTEX
8
OBJECT__59
10
35.700001
20
-8.820000
30
-13.880000
70
192
0
VERTEX
8
OBJECT__59
10
30.386999
20
-7.040000
30
-13.289000
70
192
0
VERTEX
8
OBJECT__59
10
32.883999
20
-8.358000
30
-13.712000
70
192
0
VERTEX
8
OBJECT__59
10
26.979000
20
-0.053000
30
-12.321000
70
192
0
VERTEX
8
OBJECT__59
10
27.146999
20
-2.155000
30
-12.379000
70
192
0
VERTEX
8
OBJECT__59
10
28.379000
20
-4.919000
30
-12.771000
70
192
0
VERTEX
8
OBJECT__59
10
0
20
0
30
0
70
128
71
1
72
2
73
3
0
VERTEX
8
OBJECT__59
10
0
20
0
30
0
70
128
71
1
72
4
73
5
0
VERTEX
8
OBJECT__59
10
0
20
0
30
0
70
128
71
5
72
2
73
1
0
VERTEX
8
OBJECT__59
10
0
20
0
30
0
70
128
71
3
72
6
73
1
0
VERTEX
8
OBJECT__59
10
0
20
0
30
0
70
128
71
7
72
8
73
9
0
VERTEX
8
OBJECT__59
10
0
20
0
30
0
70
128
71
10
72
4
73
7
0
VERTEX
8
OBJECT__59
10
0
20
0
30
0
70
128
71
7
72
11
73
12
0
VERTEX
8
OBJECT__59
10
0
20
0
30
0
70
128
71
12
72
11
73
13
0
VERTEX
8
OBJECT__59
10
0
20
0
30
0
70
128
71
13
72
14
73
12
0
VERTEX
8
OBJECT__59
10
0
20
0
30
0
70
128
71
12
72
8
73
7
0
VERTEX
8
OBJECT__59
10
0
20
0
30
0
70
128
71
7
72
4
73
11
0
VERTEX
8
OBJECT__59
10
0
20
0
30
0
70
128
71
15
72
16
73
17
0
VERTEX
8
OBJECT__59
10
0
20
0
30
0
70
128
71
4
72
17
73
16
0
VERTEX
8
OBJECT__59
10
0
20
0
30
0
70
128
71
4
72
1
73
18
0
VERTEX
8
OBJECT__59
10
0
20
0
30
0
70
128
71
18
72
17
73
4
0
VERTEX
8
OBJECT__59
10
0
20
0
30
0
70
128
71
16
72
11
73
4
0
VERTEX
8
OBJECT__59
10
0
20
0
30
0
70
128
71
17
72
18
73
15
0
VERTEX
8
OBJECT__59
10
0
20
0
30
0
70
128
71
9
72
10
73
7
0
VERTEX
8
OBJECT__59
10
0
20
0
30
0
70
128
71
19
72
20
73
21
0
VERTEX
8
OBJECT__59
10
0
20
0
30
0
70
128
71
19
72
22
73
23
0
VERTEX
8
OBJECT__59
10
0
20
0
30
0
70
128
71
23
72
20
73
19
0
VERTEX
8
OBJECT__59
10
0
20
0
30
0
70
128
71
24
72
25
73
26
0
VERTEX
8
OBJECT__59
10
0
20
0
30
0
70
128
71
27
72
22
73
24
0
VERTEX
8
OBJECT__59
10
0
20
0
30
0
70
128
71
24
72
19
73
28
0
VERTEX
8
OBJECT__59
10
0
20
0
30
0
70
128
71
28
72
19
73
29
0
VERTEX
8
OBJECT__59
10
0
20
0
30
0
70
128
71
29
72
30
73
28
0
VERTEX
8
OBJECT__59
10
0
20
0
30
0
70
128
71
28
72
25
73
24
0
VERTEX
8
OBJECT__59
10
0
20
0
30
0
70
128
71
24
72
22
73
19
0
VERTEX
8
OBJECT__59
10
0
20
0
30
0
70
128
71
26
72
27
73
24
0
VERTEX
8
OBJECT__59
10
0
20
0
30
0
70
128
71
1
72
31
73
32
0
VERTEX
8
OBJECT__59
10
0
20
0
30
0
70
128
71
32
72
33
73
1
0
VERTEX
8
OBJECT__59
10
0
20
0
30
0
70
128
71
33
72
19
73
1
0
VERTEX
8
OBJECT__59
10
0
20
0
30
0
70
128
71
21
72
1
73
19
0
VERTEX
8
OBJECT__59
10
0
20
0
30
0
70
128
71
6
72
31
73
1
0
SEQEND
8
OBJECT__59
0
POLYLINE
8
OBJECT__60
66
1
70
64
71
4
72
2
62
253
0
VERTEX
8
OBJECT__60
10
59.700001
20
-4.831000
30
-63.167000
70
192
0
VERTEX
8
OBJECT__60
10
59.700001
20
-5.192000
30
-63.230999
70
192
0
VERTEX
8
OBJECT__60
10
31.700001
20
-5.192000
30
-63.230999
70
192
0
VERTEX
8
OBJECT__60
10
31.700001
20
-4.831000
30
-63.167000
70
192
0
VERTEX
8
OBJECT__60
10
0
20
0
30
0
70
128
71
1
72
2
73
3
0
VERTEX
8
OBJECT__60
10
0
20
0
30
0
70
128
71
3
72
4
73
1
0
SEQEND
8
OBJECT__60
0
POLYLINE
8
OBJECT__61
66
1
70
64
71
8
72
6
62
253
0
VERTEX
8
OBJECT__61
10
29.724001
20
-4.792000
30
-63.308998
70
192
0
VERTEX
8
OBJECT__61
10
29.851999
20
-4.461000
30
-63.237000
70
192
0
VERTEX
8
OBJECT__61
10
30.546000
20
-4.691000
30
-63.199001
70
192
0
VERTEX
8
OBJECT__61
10
31.073000
20
-5.150000
30
-63.240002
70
192
0
VERTEX
8
OBJECT__61
10
30.465000
20
-5.035000
30
-63.263000
70
192
0
VERTEX
8
OBJECT__61
10
31.700001
20
-5.192000
30
-63.230999
70
192
0
VERTEX
8
OBJECT__61
10
31.117001
20
-4.796000
30
-63.176998
70
192
0
VERTEX
8
OBJECT__61
10
31.700001
20
-4.831000
30
-63.167000
70
192
0
VERTEX
8
OBJECT__61
10
0
20
0
30
0
70
128
71
1
72
2
73
3
0
VERTEX
8
OBJECT__61
10
0
20
0
30
0
70
128
71
4
72
5
73
3
0
VERTEX
8
OBJECT__61
10
0
20
0
30
0
70
128
71
6
72
4
73
7
0
VERTEX
8
OBJECT__61
10
0
20
0
30
0
70
128
71
7
72
8
73
6
0
VERTEX
8
OBJECT__61
10
0
20
0
30
0
70
128
71
3
72
7
73
4
0
VERTEX
8
OBJECT__61
10
0
20
0
30
0
70
128
71
3
72
5
73
1
0
SEQEND
8
OBJECT__61
0
POLYLINE
8
OBJECT__62
66
1
70
64
71
8
72
6
62
253
0
VERTEX
8
OBJECT__62
10
59.700001
20
-5.192000
30
-63.230999
70
192
0
VERTEX
8
OBJECT__62
10
59.700001
20
-4.831000
30
-63.167000
70
192
0
VERTEX
8
OBJECT__62
10
60.432999
20
-4.776000
30
-63.181999
70
192
0
VERTEX
8
OBJECT__62
10
61.087002
20
-4.994000
30
-63.271000
70
192
0
VERTEX
8
OBJECT__62
10
60.487000
20
-5.127000
30
-63.244999
70
192
0
VERTEX
8
OBJECT__62
10
61.675999
20
-4.792000
30
-63.308998
70
192
0
VERTEX
8
OBJECT__62
10
60.997002
20
-4.653000
30
-63.206001
70
192
0
VERTEX
8
OBJECT__62
10
61.548000
20
-4.461000
30
-63.237000
70
192
0
VERTEX
8
OBJECT__62
10
0
20
0
30
0
70
128
71
1
72
2
73
3
0
VERTEX
8
OBJECT__62
10
0
20
0
30
0
70
128
71
4
72
5
73
3
0
VERTEX
8
OBJECT__62
10
0
20
0
30
0
70
128
71
6
72
4
73
7
0
VERTEX
8
OBJECT__62
10
0
20
0
30
0
70
128
71
7
72
8
73
6
0
VERTEX
8
OBJECT__62
10
0
20
0
30
0
70
128
71
3
72
7
73
4
0
VERTEX
8
OBJECT__62
10
0
20
0
30
0
70
128
71
3
72
5
73
1
0
SEQEND
8
OBJECT__62
0
POLYLINE
8
OBJECT__63
66
1
70
64
71
8
72
6
62
253
0
VERTEX
8
OBJECT__63
10
27.723000
20
-3.326000
30
-63.537998
70
192
0
VERTEX
8
OBJECT__63
10
27.993999
20
-3.084000
30
-63.422001
70
192
0
VERTEX
8
OBJECT__63
10
28.506001
20
-3.617000
30
-63.355000
70
192
0
VERTEX
8
OBJECT__63
10
28.275000
20
-3.900000
30
-63.459000
70
192
0
VERTEX
8
OBJECT__63
10
29.131001
20
-4.089000
30
-63.292999
70
192
0
VERTEX
8
OBJECT__63
10
28.952000
20
-4.401000
30
-63.379002
70
192
0
VERTEX
8
OBJECT__63
10
29.851999
20
-4.461000
30
-63.237000
70
192
0
VERTEX
8
OBJECT__63
10
29.724001
20
-4.792000
30
-63.308998
70
192
0
VERTEX
8
OBJECT__63
10
0
20
0
30
0
70
128
71
1
72
2
73
3
0
VERTEX
8
OBJECT__63
10
0
20
0
30
0
70
128
71
4
72
3
73
5
0
VERTEX
8
OBJECT__63
10
0
20
0
30
0
70
128
71
6
72
5
73
7
0
VERTEX
8
OBJECT__63
10
0
20
0
30
0
70
128
71
7
72
8
73
6
0
VERTEX
8
OBJECT__63
10
0
20
0
30
0
70
128
71
5
72
6
73
4
0
VERTEX
8
OBJECT__63
10
0
20
0
30
0
70
128
71
3
72
4
73
1
0
SEQEND
8
OBJECT__63
0
POLYLINE
8
OBJECT__64
66
1
70
64
71
8
72
6
62
253
0
VERTEX
8
OBJECT__64
10
63.676998
20
-3.326000
30
-63.537998
70
192
0
VERTEX
8
OBJECT__64
10
63.132000
20
-3.894000
30
-63.459999
70
192
0
VERTEX
8
OBJECT__64
10
62.900002
20
-3.611000
30
-63.355999
70
192
0
VERTEX
8
OBJECT__64
10
62.452000
20
-4.398000
30
-63.379002
70
192
0
VERTEX
8
OBJECT__64
10
62.272999
20
-4.086000
30
-63.292999
70
192
0
VERTEX
8
OBJECT__64
10
61.675999
20
-4.792000
30
-63.308998
70
192
0
VERTEX
8
OBJECT__64
10
61.548000
20
-4.461000
30
-63.237000
70
192
0
VERTEX
8
OBJECT__64
10
63.404999
20
-3.085000
30
-63.423000
70
192
0
VERTEX
8
OBJECT__64
10
0
20
0
30
0
70
128
71
1
72
2
73
3
0
VERTEX
8
OBJECT__64
10
0
20
0
30
0
70
128
71
2
72
4
73
5
0
VERTEX
8
OBJECT__64
10
0
20
0
30
0
70
128
71
4
72
6
73
7
0
VERTEX
8
OBJECT__64
10
0
20
0
30
0
70
128
71
7
72
5
73
4
0
VERTEX
8
OBJECT__64
10
0
20
0
30
0
70
128
71
5
72
3
73
2
0
VERTEX
8
OBJECT__64
10
0
20
0
30
0
70
128
71
3
72
8
73
1
0
SEQEND
8
OBJECT__64
0
POLYLINE
8
OBJECT__65
66
1
70
64
71
8
72
6
62
253
0
VERTEX
8
OBJECT__65
10
26.551001
20
0.000000
30
-63.750000
70
192
0
VERTEX
8
OBJECT__65
10
26.889999
20
0.000000
30
-63.617001
70
192
0
VERTEX
8
OBJECT__65
10
27.162001
20
-1.607000
30
-63.562000
70
192
0
VERTEX
8
OBJECT__65
10
26.836000
20
-1.730000
30
-63.693001
70
192
0
VERTEX
8
OBJECT__65
10
27.506001
20
-2.373000
30
-63.500999
70
192
0
VERTEX
8
OBJECT__65
10
27.202999
20
-2.556000
30
-63.625000
70
192
0
VERTEX
8
OBJECT__65
10
27.993999
20
-3.084000
30
-63.422001
70
192
0
VERTEX
8
OBJECT__65
10
27.723000
20
-3.326000
30
-63.537998
70
192
0
VERTEX
8
OBJECT__65
10
0
20
0
30
0
70
128
71
1
72
2
73
3
0
VERTEX
8
OBJECT__65
10
0
20
0
30
0
70
128
71
4
72
3
73
5
0
VERTEX
8
OBJECT__65
10
0
20
0
30
0
70
128
71
6
72
5
73
7
0
VERTEX
8
OBJECT__65
10
0
20
0
30
0
70
128
71
7
72
8
73
6
0
VERTEX
8
OBJECT__65
10
0
20
0
30
0
70
128
71
5
72
6
73
4
0
VERTEX
8
OBJECT__65
10
0
20
0
30
0
70
128
71
3
72
4
73
1
0
SEQEND
8
OBJECT__65
0
POLYLINE
8
OBJECT__66
66
1
70
64
71
8
72
6
62
253
0
VERTEX
8
OBJECT__66
10
64.848999
20
0.000000
30
-63.750000
70
192
0
VERTEX
8
OBJECT__66
10
64.566002
20
-1.726000
30
-63.693001
70
192
0
VERTEX
8
OBJECT__66
10
64.238998
20
-1.603000
30
-63.563000
70
192
0
VERTEX
8
OBJECT__66
10
64.197998
20
-2.554000
30
-63.625000
70
192
0
VERTEX
8
OBJECT__66
10
63.895000
20
-2.371000
30
-63.501999
70
192
0
VERTEX
8
OBJECT__66
10
63.404999
20
-3.085000
30
-63.423000
70
192
0
VERTEX
8
OBJECT__66
10
63.676998
20
-3.326000
30
-63.537998
70
192
0
VERTEX
8
OBJECT__66
10
64.510002
20
0.000000
30
-63.617001
70
192
0
VERTEX
8
OBJECT__66
10
0
20
0
30
0
70
128
71
1
72
2
73
3
0
VERTEX
8
OBJECT__66
10
0
20
0
30
0
70
128
71
2
72
4
73
5
0
VERTEX
8
OBJECT__66
10
0
20
0
30
0
70
128
71
4
72
7
73
6
0
VERTEX
8
OBJECT__66
10
0
20
0
30
0
70
128
71
6
72
5
73
4
0
VERTEX
8
OBJECT__66
10
0
20
0
30
0
70
128
71
5
72
3
73
2
0
VERTEX
8
OBJECT__66
10
0
20
0
30
0
70
128
71
3
72
8
73
1
0
SEQEND
8
OBJECT__66
0
POLYLINE
8
OBJECT__67
66
1
70
64
71
8
72
6
62
253
0
VERTEX
8
OBJECT__67
10
26.635000
20
0.955000
30
-63.733002
70
192
0
VERTEX
8
OBJECT__67
10
26.878000
20
1.847000
30
-63.685001
70
192
0
VERTEX
8
OBJECT__67
10
27.201000
20
1.715000
30
-63.555000
70
192
0
VERTEX
8
OBJECT__67
10
26.972000
20
0.889000
30
-63.598999
70
192
0
VERTEX
8
OBJECT__67
10
26.889999
20
0.000000
30
-63.617001
70
192
0
VERTEX
8
OBJECT__67
10
27.723000
20
3.326000
30
-63.537998
70
192
0
VERTEX
8
OBJECT__67
10
27.995001
20
3.085000
30
-63.423000
70
192
0
VERTEX
8
OBJECT__67
10
26.551001
20
0.000000
30
-63.750000
70
192
0
VERTEX
8
OBJECT__67
10
0
20
0
30
0
70
128
71
1
72
2
73
3
0
VERTEX
8
OBJECT__67
10
0
20
0
30
0
70
128
71
1
72
4
73
5
0
VERTEX
8
OBJECT__67
10
0
20
0
30
0
70
128
71
2
72
6
73
7
0
VERTEX
8
OBJECT__67
10
0
20
0
30
0
70
128
71
7
72
3
73
2
0
VERTEX
8
OBJECT__67
10
0
20
0
30
0
70
128
71
5
72
8
73
1
0
VERTEX
8
OBJECT__67
10
0
20
0
30
0
70
128
71
3
72
4
73
1
0
SEQEND
8
OBJECT__67
0
POLYLINE
8
OBJECT__68
66
1
70
64
71
8
72
6
62
253
0
VERTEX
8
OBJECT__68
10
64.765999
20
0.953000
30
-63.733002
70
192
0
VERTEX
8
OBJECT__68
10
64.428001
20
0.887000
30
-63.598999
70
192
0
VERTEX
8
OBJECT__68
10
64.199997
20
1.712000
30
-63.555000
70
192
0
VERTEX
8
OBJECT__68
10
64.848999
20
0.000000
30
-63.750000
70
192
0
VERTEX
8
OBJECT__68
10
64.510002
20
0.000000
30
-63.617001
70
192
0
VERTEX
8
OBJECT__68
10
64.524002
20
1.843000
30
-63.685001
70
192
0
VERTEX
8
OBJECT__68
10
63.405998
20
3.084000
30
-63.422001
70
192
0
VERTEX
8
OBJECT__68
10
63.678001
20
3.326000
30
-63.539001
70
192
0
VERTEX
8
OBJECT__68
10
0
20
0
30
0
70
128
71
1
72
2
73
3
0
VERTEX
8
OBJECT__68
10
0
20
0
30
0
70
128
71
1
72
4
73
5
0
VERTEX
8
OBJECT__68
10
0
20
0
30
0
70
128
71
6
72
3
73
7
0
VERTEX
8
OBJECT__68
10
0
20
0
30
0
70
128
71
7
72
8
73
6
0
VERTEX
8
OBJECT__68
10
0
20
0
30
0
70
128
71
5
72
2
73
1
0
VERTEX
8
OBJECT__68
10
0
20
0
30
0
70
128
71
3
72
6
73
1
0
SEQEND
8
OBJECT__68
0
POLYLINE
8
OBJECT__69
66
1
70
64
71
8
72
6
62
253
0
VERTEX
8
OBJECT__69
10
28.294001
20
3.917000
30
-63.456001
70
192
0
VERTEX
8
OBJECT__69
10
28.934999
20
4.391000
30
-63.380001
70
192
0
VERTEX
8
OBJECT__69
10
29.115999
20
4.079000
30
-63.293999
70
192
0
VERTEX
8
OBJECT__69
10
27.723000
20
3.326000
30
-63.537998
70
192
0
VERTEX
8
OBJECT__69
10
28.524000
20
3.633000
30
-63.353001
70
192
0
VERTEX
8
OBJECT__69
10
29.724001
20
4.792000
30
-63.308998
70
192
0
VERTEX
8
OBJECT__69
10
29.851999
20
4.461000
30
-63.237000
70
192
0
VERTEX
8
OBJECT__69
10
27.995001
20
3.085000
30
-63.423000
70
192
0
VERTEX
8
OBJECT__69
10
0
20
0
30
0
70
128
71
1
72
2
73
3
0
VERTEX
8
OBJECT__69
10
0
20
0
30
0
70
128
71
4
72
1
73
5
0
VERTEX
8
OBJECT__69
10
0
20
0
30
0
70
128
71
2
72
6
73
7
0
VERTEX
8
OBJECT__69
10
0
20
0
30
0
70
128
71
7
72
3
73
2
0
VERTEX
8
OBJECT__69
10
0
20
0
30
0
70
128
71
5
72
8
73
4
0
VERTEX
8
OBJECT__69
10
0
20
0
30
0
70
128
71
3
72
5
73
1
0
SEQEND
8
OBJECT__69
0
POLYLINE
8
OBJECT__70
66
1
70
64
71
8
72
6
62
253
0
VERTEX
8
OBJECT__70
10
63.676998
20
3.326000
30
-63.537998
70
192
0
VERTEX
8
OBJECT__70
10
63.405998
20
3.084000
30
-63.422001
70
192
0
VERTEX
8
OBJECT__70
10
62.875999
20
3.633000
30
-63.353001
70
192
0
VERTEX
8
OBJECT__70
10
63.105999
20
3.917000
30
-63.456001
70
192
0
VERTEX
8
OBJECT__70
10
62.257999
20
4.096000
30
-63.292000
70
192
0
VERTEX
8
OBJECT__70
10
62.437000
20
4.408000
30
-63.376999
70
192
0
VERTEX
8
OBJECT__70
10
61.548000
20
4.461000
30
-63.237000
70
192
0
VERTEX
8
OBJECT__70
10
61.675999
20
4.792000
30
-63.308998
70
192
0
VERTEX
8
OBJECT__70
10
0
20
0
30
0
70
128
71
1
72
2
73
3
0
VERTEX
8
OBJECT__70
10
0
20
0
30
0
70
128
71
4
72
3
73
5
0
VERTEX
8
OBJECT__70
10
0
20
0
30
0
70
128
71
6
72
5
73
7
0
VERTEX
8
OBJECT__70
10
0
20
0
30
0
70
128
71
7
72
8
73
6
0
VERTEX
8
OBJECT__70
10
0
20
0
30
0
70
128
71
5
72
6
73
4
0
VERTEX
8
OBJECT__70
10
0
20
0
30
0
70
128
71
3
72
4
73
1
0
SEQEND
8
OBJECT__70
0
POLYLINE
8
OBJECT__71
66
1
70
64
71
8
72
6
62
253
0
VERTEX
8
OBJECT__71
10
31.700001
20
5.192000
30
-63.230999
70
192
0
VERTEX
8
OBJECT__71
10
31.700001
20
4.831000
30
-63.167000
70
192
0
VERTEX
8
OBJECT__71
10
30.968000
20
4.776000
30
-63.181999
70
192
0
VERTEX
8
OBJECT__71
10
30.313000
20
4.994000
30
-63.271000
70
192
0
VERTEX
8
OBJECT__71
10
30.914000
20
5.127000
30
-63.243999
70
192
0
VERTEX
8
OBJECT__71
10
29.724001
20
4.792000
30
-63.308998
70
192
0
VERTEX
8
OBJECT__71
10
30.403000
20
4.653000
30
-63.206001
70
192
0
VERTEX
8
OBJECT__71
10
29.851999
20
4.461000
30
-63.237000
70
192
0
VERTEX
8
OBJECT__71
10
0
20
0
30
0
70
128
71
1
72
2
73
3
0
VERTEX
8
OBJECT__71
10
0
20
0
30
0
70
128
71
4
72
5
73
3
0
VERTEX
8
OBJECT__71
10
0
20
0
30
0
70
128
71
6
72
4
73
7
0
VERTEX
8
OBJECT__71
10
0
20
0
30
0
70
128
71
7
72
8
73
6
0
VERTEX
8
OBJECT__71
10
0
20
0
30
0
70
128
71
3
72
7
73
4
0
VERTEX
8
OBJECT__71
10
0
20
0
30
0
70
128
71
3
72
5
73
1
0
SEQEND
8
OBJECT__71
0
POLYLINE
8
OBJECT__72
66
1
70
64
71
8
72
6
62
253
0
VERTEX
8
OBJECT__72
10
61.675999
20
4.792000
30
-63.308998
70
192
0
VERTEX
8
OBJECT__72
10
61.548000
20
4.461000
30
-63.237000
70
192
0
VERTEX
8
OBJECT__72
10
60.848000
20
4.693000
30
-63.198002
70
192
0
VERTEX
8
OBJECT__72
10
60.324001
20
5.151000
30
-63.240002
70
192
0
VERTEX
8
OBJECT__72
10
60.929001
20
5.036000
30
-63.262001
70
192
0
VERTEX
8
OBJECT__72
10
59.700001
20
5.192000
30
-63.230999
70
192
0
VERTEX
8
OBJECT__72
10
60.279999
20
4.797000
30
-63.176998
70
192
0
VERTEX
8
OBJECT__72
10
59.700001
20
4.831000
30
-63.167000
70
192
0
VERTEX
8
OBJECT__72
10
0
20
0
30
0
70
128
71
1
72
2
73
3
0
VERTEX
8
OBJECT__72
10
0
20
0
30
0
70
128
71
4
72
5
73
3
0
VERTEX
8
OBJECT__72
10
0
20
0
30
0
70
128
71
6
72
4
73
7
0
VERTEX
8
OBJECT__72
10
0
20
0
30
0
70
128
71
7
72
8
73
6
0
VERTEX
8
OBJECT__72
10
0
20
0
30
0
70
128
71
3
72
7
73
4
0
VERTEX
8
OBJECT__72
10
0
20
0
30
0
70
128
71
3
72
5
73
1
0
SEQEND
8
OBJECT__72
0
POLYLINE
8
OBJECT__73
66
1
70
64
71
4
72
2
62
253
0
VERTEX
8
OBJECT__73
10
31.700001
20
5.192000
30
-63.230999
70
192
0
VERTEX
8
OBJECT__73
10
59.700001
20
5.192000
30
-63.230999
70
192
0
VERTEX
8
OBJECT__73
10
59.700001
20
4.831000
30
-63.167000
70
192
0
VERTEX
8
OBJECT__73
10
31.700001
20
4.831000
30
-63.167000
70
192
0
VERTEX
8
OBJECT__73
10
0
20
0
30
0
70
128
71
1
72
2
73
3
0
VERTEX
8
OBJECT__73
10
0
20
0
30
0
70
128
71
3
72
4
73
1
0
SEQEND
8
OBJECT__73
0
POLYLINE
8
OBJECT__74
66
1
70
64
71
4
72
2
62
253
0
VERTEX
8
OBJECT__74
10
31.700001
20
3.462000
30
-62.474998
70
192
0
VERTEX
8
OBJECT__74
10
31.700001
20
4.831000
30
-63.167000
70
192
0
VERTEX
8
OBJECT__74
10
59.700001
20
4.831000
30
-63.167000
70
192
0
VERTEX
8
OBJECT__74
10
59.700001
20
3.462000
30
-62.474998
70
192
0
VERTEX
8
OBJECT__74
10
0
20
0
30
0
70
128
71
1
72
2
73
3
0
VERTEX
8
OBJECT__74
10
0
20
0
30
0
70
128
71
3
72
4
73
1
0
SEQEND
8
OBJECT__74
0
POLYLINE
8
OBJECT__75
66
1
70
64
71
4
72
2
62
253
0
VERTEX
8
OBJECT__75
10
31.700001
20
-4.831000
30
-63.167000
70
192
0
VERTEX
8
OBJECT__75
10
31.700001
20
-3.462000
30
-62.474998
70
192
0
VERTEX
8
OBJECT__75
10
59.700001
20
-3.462000
30
-62.474998
70
192
0
VERTEX
8
OBJECT__75
10
59.700001
20
-4.831000
30
-63.167000
70
192
0
VERTEX
8
OBJECT__75
10
0
20
0
30
0
70
128
71
1
72
2
73
3
0
VERTEX
8
OBJECT__75
10
0
20
0
30
0
70
128
71
3
72
4
73
1
0
SEQEND
8
OBJECT__75
0
POLYLINE
8
OBJECT__76
66
1
70
64
71
8
72
6
62
253
0
VERTEX
8
OBJECT__76
10
31.316000
20
3.434000
30
-62.478001
70
192
0
VERTEX
8
OBJECT__76
10
29.254999
20
2.483000
30
-62.591000
70
192
0
VERTEX
8
OBJECT__76
10
29.851999
20
4.461000
30
-63.237000
70
192
0
VERTEX
8
OBJECT__76
10
30.403000
20
4.653000
30
-63.206001
70
192
0
VERTEX
8
OBJECT__76
10
29.351000
20
2.912000
30
-62.695000
70
192
0
VERTEX
8
OBJECT__76
10
31.700001
20
4.831000
30
-63.167000
70
192
0
VERTEX
8
OBJECT__76
10
31.700001
20
3.462000
30
-62.474998
70
192
0
VERTEX
8
OBJECT__76
10
30.968000
20
4.776000
30
-63.181999
70
192
0
VERTEX
8
OBJECT__76
10
0
20
0
30
0
70
128
71
1
72
2
73
3
0
VERTEX
8
OBJECT__76
10
0
20
0
30
0
70
128
71
3
72
4
73
1
0
VERTEX
8
OBJECT__76
10
0
20
0
30
0
70
128
71
3
72
2
73
5
0
VERTEX
8
OBJECT__76
10
0
20
0
30
0
70
128
71
6
72
7
73
1
0
VERTEX
8
OBJECT__76
10
0
20
0
30
0
70
128
71
1
72
8
73
6
0
VERTEX
8
OBJECT__76
10
0
20
0
30
0
70
128
71
4
72
8
73
1
0
SEQEND
8
OBJECT__76
0
POLYLINE
8
OBJECT__77
66
1
70
64
71
6
72
4
62
253
0
VERTEX
8
OBJECT__77
10
27.778000
20
0.000000
30
-62.943001
70
192
0
VERTEX
8
OBJECT__77
10
26.972000
20
0.889000
30
-63.598999
70
192
0
VERTEX
8
OBJECT__77
10
27.201000
20
1.715000
30
-63.555000
70
192
0
VERTEX
8
OBJECT__77
10
28.160000
20
2.151000
30
-62.992001
70
192
0
VERTEX
8
OBJECT__77
10
26.889999
20
0.000000
30
-63.617001
70
192
0
VERTEX
8
OBJECT__77
10
27.995001
20
3.085000
30
-63.423000
70
192
0
VERTEX
8
OBJECT__77
10
0
20
0
30
0
70
128
71
1
72
2
73
3
0
VERTEX
8
OBJECT__77
10
0
20
0
30
0
70
128
71
3
72
4
73
1
0
VERTEX
8
OBJECT__77
10
0
20
0
30
0
70
128
71
1
72
5
73
2
0
VERTEX
8
OBJECT__77
10
0
20
0
30
0
70
128
71
3
72
6
73
4
0
SEQEND
8
OBJECT__77
0
POLYLINE
8
OBJECT__78
66
1
70
64
71
6
72
4
62
253
0
VERTEX
8
OBJECT__78
10
29.351000
20
2.912000
30
-62.695000
70
192
0
VERTEX
8
OBJECT__78
10
28.524000
20
3.633000
30
-63.353001
70
192
0
VERTEX
8
OBJECT__78
10
29.115999
20
4.079000
30
-63.293999
70
192
0
VERTEX
8
OBJECT__78
10
27.995001
20
3.085000
30
-63.423000
70
192
0
VERTEX
8
OBJECT__78
10
28.160000
20
2.151000
30
-62.992001
70
192
0
VERTEX
8
OBJECT__78
10
29.851999
20
4.461000
30
-63.237000
70
192
0
VERTEX
8
OBJECT__78
10
0
20
0
30
0
70
128
71
1
72
2
73
3
0
VERTEX
8
OBJECT__78
10
0
20
0
30
0
70
128
71
1
72
4
73
2
0
VERTEX
8
OBJECT__78
10
0
20
0
30
0
70
128
71
4
72
1
73
5
0
VERTEX
8
OBJECT__78
10
0
20
0
30
0
70
128
71
3
72
6
73
1
0
SEQEND
8
OBJECT__78
0
POLYLINE
8
OBJECT__79
66
1
70
64
71
6
72
4
62
253
0
VERTEX
8
OBJECT__79
10
27.778000
20
0.000000
30
-62.943001
70
192
0
VERTEX
8
OBJECT__79
10
28.160000
20
2.151000
30
-62.992001
70
192
0
VERTEX
8
OBJECT__79
10
28.270000
20
0.884000
30
-62.698002
70
192
0
VERTEX
8
OBJECT__79
10
29.351000
20
2.912000
30
-62.695000
70
192
0
VERTEX
8
OBJECT__79
10
29.254999
20
2.483000
30
-62.591000
70
192
0
VERTEX
8
OBJECT__79
10
28.160000
20
0.000000
30
-62.713001
70
192
0
VERTEX
8
OBJECT__79
10
0
20
0
30
0
70
128
71
1
72
2
73
3
0
VERTEX
8
OBJECT__79
10
0
20
0
30
0
70
128
71
2
72
4
73
5
0
VERTEX
8
OBJECT__79
10
0
20
0
30
0
70
128
71
5
72
3
73
2
0
VERTEX
8
OBJECT__79
10
0
20
0
30
0
70
128
71
3
72
6
73
1
0
SEQEND
8
OBJECT__79
0
POLYLINE
8
OBJECT__80
66
1
70
64
71
6
72
4
62
253
0
VERTEX
8
OBJECT__80
10
28.158001
20
-2.153000
30
-62.993000
70
192
0
VERTEX
8
OBJECT__80
10
28.843000
20
-2.024000
30
-62.632000
70
192
0
VERTEX
8
OBJECT__80
10
29.254999
20
-2.483000
30
-62.591000
70
192
0
VERTEX
8
OBJECT__80
10
27.778000
20
0.000000
30
-62.943001
70
192
0
VERTEX
8
OBJECT__80
10
28.160000
20
0.000000
30
-62.713001
70
192
0
VERTEX
8
OBJECT__80
10
29.351000
20
-2.912000
30
-62.695000
70
192
0
VERTEX
8
OBJECT__80
10
0
20
0
30
0
70
128
71
1
72
2
73
3
0
VERTEX
8
OBJECT__80
10
0
20
0
30
0
70
128
71
1
72
4
73
5
0
VERTEX
8
OBJECT__80
10
0
20
0
30
0
70
128
71
5
72
2
73
1
0
VERTEX
8
OBJECT__80
10
0
20
0
30
0
70
128
71
3
72
6
73
1
0
SEQEND
8
OBJECT__80
0
POLYLINE
8
OBJECT__81
66
1
70
64
71
7
72
5
62
253
0
VERTEX
8
OBJECT__81
10
31.700001
20
-3.462000
30
-62.474998
70
192
0
VERTEX
8
OBJECT__81
10
30.546000
20
-4.691000
30
-63.199001
70
192
0
VERTEX
8
OBJECT__81
10
29.851999
20
-4.461000
30
-63.237000
70
192
0
VERTEX
8
OBJECT__81
10
31.117001
20
-4.796000
30
-63.176998
70
192
0
VERTEX
8
OBJECT__81
10
31.700001
20
-4.831000
30
-63.167000
70
192
0
VERTEX
8
OBJECT__81
10
29.351000
20
-2.912000
30
-62.695000
70
192
0
VERTEX
8
OBJECT__81
10
29.254999
20
-2.483000
30
-62.591000
70
192
0
VERTEX
8
OBJECT__81
10
0
20
0
30
0
70
128
71
1
72
2
73
3
0
VERTEX
8
OBJECT__81
10
0
20
0
30
0
70
128
71
1
72
4
73
2
0
VERTEX
8
OBJECT__81
10
0
20
0
30
0
70
128
71
1
72
5
73
4
0
VERTEX
8
OBJECT__81
10
0
20
0
30
0
70
128
71
3
72
6
73
1
0
VERTEX
8
OBJECT__81
10
0
20
0
30
0
70
128
71
6
72
7
73
1
0
SEQEND
8
OBJECT__81
0
POLYLINE
8
OBJECT__82
66
1
70
64
71
6
72
4
62
253
0
VERTEX
8
OBJECT__82
10
27.778000
20
0.000000
30
-62.943001
70
192
0
VERTEX
8
OBJECT__82
10
28.158001
20
-2.153000
30
-62.993000
70
192
0
VERTEX
8
OBJECT__82
10
27.162001
20
-1.607000
30
-63.562000
70
192
0
VERTEX
8
OBJECT__82
10
27.506001
20
-2.373000
30
-63.500999
70
192
0
VERTEX
8
OBJECT__82
10
27.993999
20
-3.084000
30
-63.422001
70
192
0
VERTEX
8
OBJECT__82
10
26.889999
20
0.000000
30
-63.617001
70
192
0
VERTEX
8
OBJECT__82
10
0
20
0
30
0
70
128
71
1
72
2
73
3
0
VERTEX
8
OBJECT__82
10
0
20
0
30
0
70
128
71
2
72
4
73
3
0
VERTEX
8
OBJECT__82
10
0
20
0
30
0
70
128
71
2
72
5
73
4
0
VERTEX
8
OBJECT__82
10
0
20
0
30
0
70
128
71
3
72
6
73
1
0
SEQEND
8
OBJECT__82
0
POLYLINE
8
OBJECT__83
66
1
70
64
71
6
72
4
62
253
0
VERTEX
8
OBJECT__83
10
28.158001
20
-2.153000
30
-62.993000
70
192
0
VERTEX
8
OBJECT__83
10
29.851999
20
-4.461000
30
-63.237000
70
192
0
VERTEX
8
OBJECT__83
10
29.131001
20
-4.089000
30
-63.292999
70
192
0
VERTEX
8
OBJECT__83
10
28.506001
20
-3.617000
30
-63.355000
70
192
0
VERTEX
8
OBJECT__83
10
29.351000
20
-2.912000
30
-62.695000
70
192
0
VERTEX
8
OBJECT__83
10
27.993999
20
-3.084000
30
-63.422001
70
192
0
VERTEX
8
OBJECT__83
10
0
20
0
30
0
70
128
71
1
72
2
73
3
0
VERTEX
8
OBJECT__83
10
0
20
0
30
0
70
128
71
3
72
4
73
1
0
VERTEX
8
OBJECT__83
10
0
20
0
30
0
70
128
71
2
72
1
73
5
0
VERTEX
8
OBJECT__83
10
0
20
0
30
0
70
128
71
4
72
6
73
1
0
SEQEND
8
OBJECT__83
0
POLYLINE
8
OBJECT__84
66
1
70
64
71
7
72
5
62
253
0
VERTEX
8
OBJECT__84
10
61.548000
20
4.461000
30
-63.237000
70
192
0
VERTEX
8
OBJECT__84
10
62.049000
20
2.912000
30
-62.695000
70
192
0
VERTEX
8
OBJECT__84
10
59.700001
20
3.462000
30
-62.474998
70
192
0
VERTEX
8
OBJECT__84
10
60.848000
20
4.693000
30
-63.198002
70
192
0
VERTEX
8
OBJECT__84
10
60.279999
20
4.797000
30
-63.176998
70
192
0
VERTEX
8
OBJECT__84
10
59.700001
20
4.831000
30
-63.167000
70
192
0
VERTEX
8
OBJECT__84
10
62.145000
20
2.483000
30
-62.591000
70
192
0
VERTEX
8
OBJECT__84
10
0
20
0
30
0
70
128
71
3
72
4
73
1
0
VERTEX
8
OBJECT__84
10
0
20
0
30
0
70
128
71
3
72
5
73
4
0
VERTEX
8
OBJECT__84
10
0
20
0
30
0
70
128
71
3
72
6
73
5
0
VERTEX
8
OBJECT__84
10
0
20
0
30
0
70
128
71
1
72
7
73
3
0
VERTEX
8
OBJECT__84
10
0
20
0
30
0
70
128
71
2
72
7
73
1
0
SEQEND
8
OBJECT__84
0
POLYLINE
8
OBJECT__85
66
1
70
64
71
6
72
4
62
253
0
VERTEX
8
OBJECT__85
10
63.622002
20
0.000000
30
-62.943001
70
192
0
VERTEX
8
OBJECT__85
10
63.242001
20
2.153000
30
-62.993000
70
192
0
VERTEX
8
OBJECT__85
10
64.199997
20
1.712000
30
-63.555000
70
192
0
VERTEX
8
OBJECT__85
10
63.405998
20
3.084000
30
-63.422001
70
192
0
VERTEX
8
OBJECT__85
10
64.428001
20
0.887000
30
-63.598999
70
192
0
VERTEX
8
OBJECT__85
10
64.510002
20
0.000000
30
-63.617001
70
192
0
VERTEX
8
OBJECT__85
10
0
20
0
30
0
70
128
71
1
72
2
73
3
0
VERTEX
8
OBJECT__85
10
0
20
0
30
0
70
128
71
2
72
4
73
3
0
VERTEX
8
OBJECT__85
10
0
20
0
30
0
70
128
71
3
72
5
73
1
0
VERTEX
8
OBJECT__85
10
0
20
0
30
0
70
128
71
5
72
6
73
1
0
SEQEND
8
OBJECT__85
0
POLYLINE
8
OBJECT__86
66
1
70
64
71
6
72
4
62
253
0
VERTEX
8
OBJECT__86
10
62.049000
20
2.912000
30
-62.695000
70
192
0
VERTEX
8
OBJECT__86
10
62.875999
20
3.633000
30
-63.353001
70
192
0
VERTEX
8
OBJECT__86
10
63.405998
20
3.084000
30
-63.422001
70
192
0
VERTEX
8
OBJECT__86
10
61.548000
20
4.461000
30
-63.237000
70
192
0
VERTEX
8
OBJECT__86
10
62.257999
20
4.096000
30
-63.292000
70
192
0
VERTEX
8
OBJECT__86
10
63.242001
20
2.153000
30
-62.993000
70
192
0
VERTEX
8
OBJECT__86
10
0
20
0
30
0
70
128
71
1
72
2
73
3
0
VERTEX
8
OBJECT__86
10
0
20
0
30
0
70
128
71
1
72
4
73
5
0
VERTEX
8
OBJECT__86
10
0
20
0
30
0
70
128
71
5
72
2
73
1
0
VERTEX
8
OBJECT__86
10
0
20
0
30
0
70
128
71
3
72
6
73
1
0
SEQEND
8
OBJECT__86
0
POLYLINE
8
OBJECT__87
66
1
70
64
71
15
72
13
62
253
0
VERTEX
8
OBJECT__87
10
31.700001
20
-3.462000
30
-62.474998
70
192
0
VERTEX
8
OBJECT__87
10
31.700001
20
3.462000
30
-62.474998
70
192
0
VERTEX
8
OBJECT__87
10
59.700001
20
3.462000
30
-62.474998
70
192
0
VERTEX
8
OBJECT__87
10
62.555000
20
-2.026000
30
-62.632000
70
192
0
VERTEX
8
OBJECT__87
10
62.145000
20
-2.483000
30
-62.591000
70
192
0
VERTEX
8
OBJECT__87
10
63.130001
20
0.883000
30
-62.698002
70
192
0
VERTEX
8
OBJECT__87
10
63.240002
20
0.000000
30
-62.713001
70
192
0
VERTEX
8
OBJECT__87
10
62.145000
20
2.483000
30
-62.591000
70
192
0
VERTEX
8
OBJECT__87
10
59.700001
20
-3.462000
30
-62.474998
70
192
0
VERTEX
8
OBJECT__87
10
31.316000
20
3.434000
30
-62.478001
70
192
0
VERTEX
8
OBJECT__87
10
28.843000
20
-2.024000
30
-62.632000
70
192
0
VERTEX
8
OBJECT__87
10
28.160000
20
0.000000
30
-62.713001
70
192
0
VERTEX
8
OBJECT__87
10
28.270000
20
0.884000
30
-62.698002
70
192
0
VERTEX
8
OBJECT__87
10
29.254999
20
-2.483000
30
-62.591000
70
192
0
VERTEX
8
OBJECT__87
10
29.254999
20
2.483000
30
-62.591000
70
192
0
VERTEX
8
OBJECT__87
10
0
20
0
30
0
70
128
71
1
72
2
73
3
0
VERTEX
8
OBJECT__87
10
0
20
0
30
0
70
128
71
3
72
4
73
5
0
VERTEX
8
OBJECT__87
10
0
20
0
30
0
70
128
71
3
72
6
73
7
0
VERTEX
8
OBJECT__87
10
0
20
0
30
0
70
128
71
3
72
8
73
6
0
VERTEX
8
OBJECT__87
10
0
20
0
30
0
70
128
71
7
72
4
73
3
0
VERTEX
8
OBJECT__87
10
0
20
0
30
0
70
128
71
5
72
9
73
3
0
VERTEX
8
OBJECT__87
10
0
20
0
30
0
70
128
71
10
72
11
73
12
0
VERTEX
8
OBJECT__87
10
0
20
0
30
0
70
128
71
12
72
13
73
10
0
VERTEX
8
OBJECT__87
10
0
20
0
30
0
70
128
71
10
72
1
73
14
0
VERTEX
8
OBJECT__87
10
0
20
0
30
0
70
128
71
14
72
11
73
10
0
VERTEX
8
OBJECT__87
10
0
20
0
30
0
70
128
71
13
72
15
73
10
0
VERTEX
8
OBJECT__87
10
0
20
0
30
0
70
128
71
10
72
2
73
1
0
VERTEX
8
OBJECT__87
10
0
20
0
30
0
70
128
71
3
72
9
73
1
0
SEQEND
8
OBJECT__87
0
POLYLINE
8
OBJECT__88
66
1
70
64
71
6
72
4
62
253
0
VERTEX
8
OBJECT__88
10
63.242001
20
2.153000
30
-62.993000
70
192
0
VERTEX
8
OBJECT__88
10
63.130001
20
0.883000
30
-62.698002
70
192
0
VERTEX
8
OBJECT__88
10
62.145000
20
2.483000
30
-62.591000
70
192
0
VERTEX
8
OBJECT__88
10
63.622002
20
0.000000
30
-62.943001
70
192
0
VERTEX
8
OBJECT__88
10
63.240002
20
0.000000
30
-62.713001
70
192
0
VERTEX
8
OBJECT__88
10
62.049000
20
2.912000
30
-62.695000
70
192
0
VERTEX
8
OBJECT__88
10
0
20
0
30
0
70
128
71
1
72
2
73
3
0
VERTEX
8
OBJECT__88
10
0
20
0
30
0
70
128
71
4
72
5
73
2
0
VERTEX
8
OBJECT__88
10
0
20
0
30
0
70
128
71
2
72
1
73
4
0
VERTEX
8
OBJECT__88
10
0
20
0
30
0
70
128
71
3
72
6
73
1
0
SEQEND
8
OBJECT__88
0
POLYLINE
8
OBJECT__89
66
1
70
64
71
6
72
4
62
253
0
VERTEX
8
OBJECT__89
10
63.240002
20
-2.151000
30
-62.992001
70
192
0
VERTEX
8
OBJECT__89
10
62.555000
20
-2.026000
30
-62.632000
70
192
0
VERTEX
8
OBJECT__89
10
63.240002
20
0.000000
30
-62.713001
70
192
0
VERTEX
8
OBJECT__89
10
62.049000
20
-2.912000
30
-62.695000
70
192
0
VERTEX
8
OBJECT__89
10
62.145000
20
-2.483000
30
-62.591000
70
192
0
VERTEX
8
OBJECT__89
10
63.622002
20
0.000000
30
-62.943001
70
192
0
VERTEX
8
OBJECT__89
10
0
20
0
30
0
70
128
71
1
72
2
73
3
0
VERTEX
8
OBJECT__89
10
0
20
0
30
0
70
128
71
1
72
4
73
5
0
VERTEX
8
OBJECT__89
10
0
20
0
30
0
70
128
71
5
72
2
73
1
0
VERTEX
8
OBJECT__89
10
0
20
0
30
0
70
128
71
3
72
6
73
1
0
SEQEND
8
OBJECT__89
0
POLYLINE
8
OBJECT__90
66
1
70
64
71
7
72
5
62
253
0
VERTEX
8
OBJECT__90
10
59.700001
20
-3.462000
30
-62.474998
70
192
0
VERTEX
8
OBJECT__90
10
60.997002
20
-4.653000
30
-63.206001
70
192
0
VERTEX
8
OBJECT__90
10
60.432999
20
-4.776000
30
-63.181999
70
192
0
VERTEX
8
OBJECT__90
10
62.049000
20
-2.912000
30
-62.695000
70
192
0
VERTEX
8
OBJECT__90
10
61.548000
20
-4.461000
30
-63.237000
70
192
0
VERTEX
8
OBJECT__90
10
62.145000
20
-2.483000
30
-62.591000
70
192
0
VERTEX
8
OBJECT__90
10
59.700001
20
-4.831000
30
-63.167000
70
192
0
VERTEX
8
OBJECT__90
10
0
20
0
30
0
70
128
71
1
72
2
73
3
0
VERTEX
8
OBJECT__90
10
0
20
0
30
0
70
128
71
1
72
4
73
5
0
VERTEX
8
OBJECT__90
10
0
20
0
30
0
70
128
71
5
72
2
73
1
0
VERTEX
8
OBJECT__90
10
0
20
0
30
0
70
128
71
1
72
6
73
4
0
VERTEX
8
OBJECT__90
10
0
20
0
30
0
70
128
71
3
72
7
73
1
0
SEQEND
8
OBJECT__90
0
POLYLINE
8
OBJECT__91
66
1
70
64
71
6
72
4
62
253
0
VERTEX
8
OBJECT__91
10
63.622002
20
0.000000
30
-62.943001
70
192
0
VERTEX
8
OBJECT__91
10
64.510002
20
0.000000
30
-63.617001
70
192
0
VERTEX
8
OBJECT__91
10
64.238998
20
-1.603000
30
-63.563000
70
192
0
VERTEX
8
OBJECT__91
10
63.240002
20
-2.151000
30
-62.992001
70
192
0
VERTEX
8
OBJECT__91
10
63.895000
20
-2.371000
30
-63.501999
70
192
0
VERTEX
8
OBJECT__91
10
63.404999
20
-3.085000
30
-63.423000
70
192
0
VERTEX
8
OBJECT__91
10
0
20
0
30
0
70
128
71
1
72
2
73
3
0
VERTEX
8
OBJECT__91
10
0
20
0
30
0
70
128
71
3
72
4
73
1
0
VERTEX
8
OBJECT__91
10
0
20
0
30
0
70
128
71
3
72
5
73
4
0
VERTEX
8
OBJECT__91
10
0
20
0
30
0
70
128
71
5
72
6
73
4
0
SEQEND
8
OBJECT__91
0
POLYLINE
8
OBJECT__92
66
1
70
64
71
6
72
4
62
253
0
VERTEX
8
OBJECT__92
10
62.049000
20
-2.912000
30
-62.695000
70
192
0
VERTEX
8
OBJECT__92
10
62.900002
20
-3.611000
30
-63.355999
70
192
0
VERTEX
8
OBJECT__92
10
62.272999
20
-4.086000
30
-63.292999
70
192
0
VERTEX
8
OBJECT__92
10
63.240002
20
-2.151000
30
-62.992001
70
192
0
VERTEX
8
OBJECT__92
10
63.404999
20
-3.085000
30
-63.423000
70
192
0
VERTEX
8
OBJECT__92
10
61.548000
20
-4.461000
30
-63.237000
70
192
0
VERTEX
8
OBJECT__92
10
0
20
0
30
0
70
128
71
1
72
2
73
3
0
VERTEX
8
OBJECT__92
10
0
20
0
30
0
70
128
71
1
72
4
73
5
0
VERTEX
8
OBJECT__92
10
0
20
0
30
0
70
128
71
5
72
2
73
1
0
VERTEX
8
OBJECT__92
10
0
20
0
30
0
70
128
71
3
72
6
73
1
0
SEQEND
8
OBJECT__92
0
POLYLINE
8
OBJECT__93
66
1
70
64
71
19
72
17
62
253
0
VERTEX
8
OBJECT__93
10
55.584000
20
8.500000
30
-15.100000
70
192
0
VERTEX
8
OBJECT__93
10
55.599998
20
8.500000
30
-14.079000
70
192
0
VERTEX
8
OBJECT__93
10
55.599998
20
8.500000
30
-14.162000
70
192
0
VERTEX
8
OBJECT__93
10
55.599998
20
8.500000
30
-14.299000
70
192
0
VERTEX
8
OBJECT__93
10
55.599998
20
8.500000
30
-14.377000
70
192
0
VERTEX
8
OBJECT__93
10
55.599998
20
8.500000
30
-14.237000
70
192
0
VERTEX
8
OBJECT__93
10
55.599998
20
8.500000
30
-14.268000
70
192
0
VERTEX
8
OBJECT__93
10
55.599998
20
8.500000
30
-14.486000
70
192
0
VERTEX
8
OBJECT__93
10
55.599998
20
8.500000
30
-14.512000
70
192
0
VERTEX
8
OBJECT__93
10
55.599998
20
8.500000
30
-14.283000
70
192
0
VERTEX
8
OBJECT__93
10
55.599998
20
8.500000
30
-13.971000
70
192
0
VERTEX
8
OBJECT__93
10
55.599998
20
8.500000
30
-13.978000
70
192
0
VERTEX
8
OBJECT__93
10
55.599998
20
8.500000
30
-15.100000
70
192
0
VERTEX
8
OBJECT__93
10
35.692001
20
8.500000
30
-12.664000
70
192
0
VERTEX
8
OBJECT__93
10
55.599998
20
8.500000
30
-13.931000
70
192
0
VERTEX
8
OBJECT__93
10
55.599998
20
8.500000
30
-13.373000
70
192
0
VERTEX
8
OBJECT__93
10
35.700001
20
8.500000
30
-15.500000
70
192
0
VERTEX
8
OBJECT__93
10
55.599998
20
8.500000
30
-12.664000
70
192
0
VERTEX
8
OBJECT__93
10
55.584000
20
8.500000
30
-15.500000
70
192
0
VERTEX
8
OBJECT__93
10
0
20
0
30
0
70
128
71
1
72
2
73
3
0
VERTEX
8
OBJECT__93
10
0
20
0
30
0
70
128
71
1
72
4
73
5
0
VERTEX
8
OBJECT__93
10
0
20
0
30
0
70
128
71
6
72
7
73
1
0
VERTEX
8
OBJECT__93
10
0
20
0
30
0
70
128
71
3
72
6
73
1
0
VERTEX
8
OBJECT__93
10
0
20
0
30
0
70
128
71
1
72
8
73
9
0
VERTEX
8
OBJECT__93
10
0
20
0
30
0
70
128
71
5
72
8
73
1
0
VERTEX
8
OBJECT__93
10
0
20
0
30
0
70
128
71
1
72
10
73
4
0
VERTEX
8
OBJECT__93
10
0
20
0
30
0
70
128
71
1
72
11
73
12
0
VERTEX
8
OBJECT__93
10
0
20
0
30
0
70
128
71
7
72
10
73
1
0
VERTEX
8
OBJECT__93
10
0
20
0
30
0
70
128
71
9
72
13
73
1
0
VERTEX
8
OBJECT__93
10
0
20
0
30
0
70
128
71
12
72
2
73
1
0
VERTEX
8
OBJECT__93
10
0
20
0
30
0
70
128
71
14
72
15
73
11
0
VERTEX
8
OBJECT__93
10
0
20
0
30
0
70
128
71
11
72
1
73
14
0
VERTEX
8
OBJECT__93
10
0
20
0
30
0
70
128
71
14
72
16
73
15
0
VERTEX
8
OBJECT__93
10
0
20
0
30
0
70
128
71
17
72
14
73
1
0
VERTEX
8
OBJECT__93
10
0
20
0
30
0
70
128
71
14
72
18
73
16
0
VERTEX
8
OBJECT__93
10
0
20
0
30
0
70
128
71
1
72
19
73
17
0
SEQEND
8
OBJECT__93
0
POLYLINE
8
OBJECT__94
66
1
70
64
71
34
72
36
62
253
0
VERTEX
8
OBJECT__94
10
61.041000
20
6.382000
30
-12.053000
70
192
0
VERTEX
8
OBJECT__94
10
27.913000
20
3.407000
30
-11.472000
70
192
0
VERTEX
8
OBJECT__94
10
27.235001
20
0.775000
30
-11.261000
70
192
0
VERTEX
8
OBJECT__94
10
30.222000
20
6.352000
30
-12.045000
70
192
0
VERTEX
8
OBJECT__94
10
29.396000
20
5.702000
30
-11.877000
70
192
0
VERTEX
8
OBJECT__94
10
35.692001
20
8.500000
30
-12.664000
70
192
0
VERTEX
8
OBJECT__94
10
34.384998
20
8.398000
30
-12.629000
70
192
0
VERTEX
8
OBJECT__94
10
58.320000
20
7.449000
30
-12.329000
70
192
0
VERTEX
8
OBJECT__94
10
55.599998
20
8.500000
30
-12.664000
70
192
0
VERTEX
8
OBJECT__94
10
59.666000
20
7.464000
30
-12.334000
70
192
0
VERTEX
8
OBJECT__94
10
56.915001
20
8.398000
30
-12.629000
70
192
0
VERTEX
8
OBJECT__94
10
31.634001
20
7.464000
30
-12.334000
70
192
0
VERTEX
8
OBJECT__94
10
64.065002
20
0.775000
30
-11.261000
70
192
0
VERTEX
8
OBJECT__94
10
63.387001
20
3.407000
30
-11.472000
70
192
0
VERTEX
8
OBJECT__94
10
63.696999
20
1.715000
30
-11.306000
70
192
0
VERTEX
8
OBJECT__94
10
27.294001
20
0.001000
30
-11.280000
70
192
0
VERTEX
8
OBJECT__94
10
61.903999
20
5.702000
30
-11.877000
70
192
0
VERTEX
8
OBJECT__94
10
64.005997
20
0.001000
30
-11.280000
70
192
0
VERTEX
8
OBJECT__94
10
64.007004
20
0.015000
30
-11.280000
70
192
0
VERTEX
8
OBJECT__94
10
27.450001
20
-2.046000
30
-11.330000
70
192
0
VERTEX
8
OBJECT__94
10
28.622000
20
-4.706000
30
-11.675000
70
192
0
VERTEX
8
OBJECT__94
10
27.961000
20
-2.399000
30
-11.360000
70
192
0
VERTEX
8
OBJECT__94
10
62.678001
20
-4.706000
30
-11.675000
70
192
0
VERTEX
8
OBJECT__94
10
63.849998
20
-2.046000
30
-11.330000
70
192
0
VERTEX
8
OBJECT__94
10
61.075001
20
-6.416000
30
-12.058000
70
192
0
VERTEX
8
OBJECT__94
10
55.599998
20
-8.500000
30
-12.664000
70
192
0
VERTEX
8
OBJECT__94
10
58.328999
20
-8.050000
30
-12.515000
70
192
0
VERTEX
8
OBJECT__94
10
60.748001
20
-6.764000
30
-12.136000
70
192
0
VERTEX
8
OBJECT__94
10
33.006001
20
-7.511000
30
-12.348000
70
192
0
VERTEX
8
OBJECT__94
10
35.700001
20
-8.500000
30
-12.664000
70
192
0
VERTEX
8
OBJECT__94
10
30.312000
20
-6.508000
30
-12.079000
70
192
0
VERTEX
8
OBJECT__94
10
30.552000
20
-6.764000
30
-12.136000
70
192
0
VERTEX
8
OBJECT__94
10
32.971001
20
-8.050000
30
-12.515000
70
192
0
VERTEX
8
OBJECT__94
10
27.299999
20
-0.073000
30
-11.282000
70
192
0
VERTEX
8
OBJECT__94
10
0
20
0
30
0
70
128
71
1
72
2
73
3
0
VERTEX
8
OBJECT__94
10
0
20
0
30
0
70
128
71
1
72
4
73
5
0
VERTEX
8
OBJECT__94
10
0
20
0
30
0
70
128
71
5
72
2
73
1
0
VERTEX
8
OBJECT__94
10
0
20
0
30
0
70
128
71
4
72
6
73
7
0
VERTEX
8
OBJECT__94
10
0
20
0
30
0
70
128
71
4
72
8
73
9
0
VERTEX
8
OBJECT__94
10
0
20
0
30
0
70
128
71
9
72
6
73
4
0
VERTEX
8
OBJECT__94
10
0
20
0
30
0
70
128
71
4
72
1
73
8
0
VERTEX
8
OBJECT__94
10
0
20
0
30
0
70
128
71
8
72
10
73
11
0
VERTEX
8
OBJECT__94
10
0
20
0
30
0
70
128
71
11
72
9
73
8
0
VERTEX
8
OBJECT__94
10
0
20
0
30
0
70
128
71
8
72
1
73
10
0
VERTEX
8
OBJECT__94
10
0
20
0
30
0
70
128
71
7
72
12
73
4
0
VERTEX
8
OBJECT__94
10
0
20
0
30
0
70
128
71
13
72
14
73
15
0
VERTEX
8
OBJECT__94
10
0
20
0
30
0
70
128
71
16
72
15
73
14
0
VERTEX
8
OBJECT__94
10
0
20
0
30
0
70
128
71
14
72
17
73
16
0
VERTEX
8
OBJECT__94
10
0
20
0
30
0
70
128
71
16
72
18
73
19
0
VERTEX
8
OBJECT__94
10
0
20
0
30
0
70
128
71
19
72
15
73
16
0
VERTEX
8
OBJECT__94
10
0
20
0
30
0
70
128
71
17
72
1
73
16
0
VERTEX
8
OBJECT__94
10
0
20
0
30
0
70
128
71
15
72
19
73
13
0
VERTEX
8
OBJECT__94
10
0
20
0
30
0
70
128
71
20
72
21
73
22
0
VERTEX
8
OBJECT__94
10
0
20
0
30
0
70
128
71
22
72
23
73
24
0
VERTEX
8
OBJECT__94
10
0
20
0
30
0
70
128
71
22
72
25
73
23
0
VERTEX
8
OBJECT__94
10
0
20
0
30
0
70
128
71
26
72
27
73
28
0
VERTEX
8
OBJECT__94
10
0
20
0
30
0
70
128
71
25
72
29
73
30
0
VERTEX
8
OBJECT__94
10
0
20
0
30
0
70
128
71
30
72
26
73
25
0
VERTEX
8
OBJECT__94
10
0
20
0
30
0
70
128
71
25
72
31
73
29
0
VERTEX
8
OBJECT__94
10
0
20
0
30
0
70
128
71
29
72
31
73
32
0
VERTEX
8
OBJECT__94
10
0
20
0
30
0
70
128
71
33
72
30
73
29
0
VERTEX
8
OBJECT__94
10
0
20
0
30
0
70
128
71
32
72
33
73
29
0
VERTEX
8
OBJECT__94
10
0
20
0
30
0
70
128
71
25
72
22
73
21
0
VERTEX
8
OBJECT__94
10
0
20
0
30
0
70
128
71
21
72
31
73
25
0
VERTEX
8
OBJECT__94
10
0
20
0
30
0
70
128
71
28
72
25
73
26
0
VERTEX
8
OBJECT__94
10
0
20
0
30
0
70
128
71
18
72
16
73
34
0
VERTEX
8
OBJECT__94
10
0
20
0
30
0
70
128
71
34
72
22
73
18
0
VERTEX
8
OBJECT__94
10
0
20
0
30
0
70
128
71
24
72
18
73
22
0
VERTEX
8
OBJECT__94
10
0
20
0
30
0
70
128
71
22
72
34
73
20
0
VERTEX
8
OBJECT__94
10
0
20
0
30
0
70
128
71
3
72
16
73
1
0
SEQEND
8
OBJECT__94
0
POLYLINE
8
OBJECT__96
66
1
70
64
71
36
72
35
62
253
0
VERTEX
8
OBJECT__96
10
61.111000
20
6.471000
30
-15.500000
70
192
0
VERTEX
8
OBJECT__96
10
55.599998
20
8.500000
30
-15.100000
70
192
0
VERTEX
8
OBJECT__96
10
56.915001
20
8.398000
30
-12.629000
70
192
0
VERTEX
8
OBJECT__96
10
55.599998
20
8.500000
30
-13.931000
70
192
0
VERTEX
8
OBJECT__96
10
55.599998
20
8.500000
30
-13.373000
70
192
0
VERTEX
8
OBJECT__96
10
55.599998
20
8.500000
30
-13.978000
70
192
0
VERTEX
8
OBJECT__96
10
55.599998
20
8.500000
30
-13.971000
70
192
0
VERTEX
8
OBJECT__96
10
55.599998
20
8.500000
30
-12.664000
70
192
0
VERTEX
8
OBJECT__96
10
55.599998
20
8.500000
30
-14.079000
70
192
0
VERTEX
8
OBJECT__96
10
55.599998
20
8.500000
30
-14.162000
70
192
0
VERTEX
8
OBJECT__96
10
55.599998
20
8.500000
30
-14.237000
70
192
0
VERTEX
8
OBJECT__96
10
55.599998
20
8.500000
30
-14.268000
70
192
0
VERTEX
8
OBJECT__96
10
55.599998
20
8.500000
30
-14.299000
70
192
0
VERTEX
8
OBJECT__96
10
55.599998
20
8.500000
30
-14.283000
70
192
0
VERTEX
8
OBJECT__96
10
55.599998
20
8.500000
30
-14.377000
70
192
0
VERTEX
8
OBJECT__96
10
55.599998
20
8.500000
30
-14.486000
70
192
0
VERTEX
8
OBJECT__96
10
55.599998
20
8.500000
30
-14.512000
70
192
0
VERTEX
8
OBJECT__96
10
59.666000
20
7.464000
30
-12.334000
70
192
0
VERTEX
8
OBJECT__96
10
55.584000
20
8.500000
30
-15.500000
70
192
0
VERTEX
8
OBJECT__96
10
55.584000
20
8.500000
30
-15.100000
70
192
0
VERTEX
8
OBJECT__96
10
64.099998
20
0.008000
30
-15.500000
70
192
0
VERTEX
8
OBJECT__96
10
63.387001
20
3.407000
30
-11.472000
70
192
0
VERTEX
8
OBJECT__96
10
64.065002
20
0.775000
30
-11.261000
70
192
0
VERTEX
8
OBJECT__96
10
61.903999
20
5.702000
30
-11.877000
70
192
0
VERTEX
8
OBJECT__96
10
61.041000
20
6.382000
30
-12.053000
70
192
0
VERTEX
8
OBJECT__96
10
63.849998
20
-2.046000
30
-11.330000
70
192
0
VERTEX
8
OBJECT__96
10
62.678001
20
-4.706000
30
-11.675000
70
192
0
VERTEX
8
OBJECT__96
10
63.737000
20
-2.458000
30
-11.478000
70
192
0
VERTEX
8
OBJECT__96
10
61.123001
20
-6.461000
30
-15.500000
70
192
0
VERTEX
8
OBJECT__96
10
64.007004
20
0.015000
30
-11.280000
70
192
0
VERTEX
8
OBJECT__96
10
64.005997
20
0.001000
30
-11.280000
70
192
0
VERTEX
8
OBJECT__96
10
61.075001
20
-6.416000
30
-12.058000
70
192
0
VERTEX
8
OBJECT__96
10
55.599998
20
-8.500000
30
-15.500000
70
192
0
VERTEX
8
OBJECT__96
10
58.328999
20
-8.050000
30
-12.515000
70
192
0
VERTEX
8
OBJECT__96
10
60.748001
20
-6.764000
30
-12.136000
70
192
0
VERTEX
8
OBJECT__96
10
55.599998
20
-8.500000
30
-12.664000
70
192
0
VERTEX
8
OBJECT__96
10
0
20
0
30
0
70
128
71
1
72
2
73
3
0
VERTEX
8
OBJECT__96
10
0
20
0
30
0
70
128
71
3
72
4
73
5
0
VERTEX
8
OBJECT__96
10
0
20
0
30
0
70
128
71
3
72
6
73
7
0
VERTEX
8
OBJECT__96
10
0
20
0
30
0
70
128
71
7
72
4
73
3
0
VERTEX
8
OBJECT__96
10
0
20
0
30
0
70
128
71
5
72
8
73
3
0
VERTEX
8
OBJECT__96
10
0
20
0
30
0
70
128
71
3
72
9
73
6
0
VERTEX
8
OBJECT__96
10
0
20
0
30
0
70
128
71
3
72
10
73
9
0
VERTEX
8
OBJECT__96
10
0
20
0
30
0
70
128
71
3
72
11
73
10
0
VERTEX
8
OBJECT__96
10
0
20
0
30
0
70
128
71
3
72
12
73
11
0
VERTEX
8
OBJECT__96
10
0
20
0
30
0
70
128
71
3
72
13
73
14
0
VERTEX
8
OBJECT__96
10
0
20
0
30
0
70
128
71
14
72
12
73
3
0
VERTEX
8
OBJECT__96
10
0
20
0
30
0
70
128
71
3
72
15
73
13
0
VERTEX
8
OBJECT__96
10
0
20
0
30
0
70
128
71
3
72
16
73
15
0
VERTEX
8
OBJECT__96
10
0
20
0
30
0
70
128
71
3
72
17
73
16
0
VERTEX
8
OBJECT__96
10
0
20
0
30
0
70
128
71
3
72
2
73
17
0
VERTEX
8
OBJECT__96
10
0
20
0
30
0
70
128
71
3
72
18
73
1
0
VERTEX
8
OBJECT__96
10
0
20
0
30
0
70
128
71
19
72
20
73
2
0
VERTEX
8
OBJECT__96
10
0
20
0
30
0
70
128
71
2
72
1
73
19
0
VERTEX
8
OBJECT__96
10
0
20
0
30
0
70
128
71
21
72
22
73
23
0
VERTEX
8
OBJECT__96
10
0
20
0
30
0
70
128
71
1
72
24
73
22
0
VERTEX
8
OBJECT__96
10
0
20
0
30
0
70
128
71
22
72
21
73
1
0
VERTEX
8
OBJECT__96
10
0
20
0
30
0
70
128
71
1
72
25
73
24
0
VERTEX
8
OBJECT__96
10
0
20
0
30
0
70
128
71
26
72
27
73
28
0
VERTEX
8
OBJECT__96
10
0
20
0
30
0
70
128
71
21
72
28
73
27
0
VERTEX
8
OBJECT__96
10
0
20
0
30
0
70
128
71
27
72
29
73
21
0
VERTEX
8
OBJECT__96
10
0
20
0
30
0
70
128
71
21
72
30
73
31
0
VERTEX
8
OBJECT__96
10
0
20
0
30
0
70
128
71
31
72
28
73
21
0
VERTEX
8
OBJECT__96
10
0
20
0
30
0
70
128
71
27
72
32
73
29
0
VERTEX
8
OBJECT__96
10
0
20
0
30
0
70
128
71
28
72
31
73
26
0
VERTEX
8
OBJECT__96
10
0
20
0
30
0
70
128
71
33
72
29
73
34
0
VERTEX
8
OBJECT__96
10
0
20
0
30
0
70
128
71
29
72
32
73
35
0
VERTEX
8
OBJECT__96
10
0
20
0
30
0
70
128
71
35
72
34
73
29
0
VERTEX
8
OBJECT__96
10
0
20
0
30
0
70
128
71
34
72
36
73
33
0
VERTEX
8
OBJECT__96
10
0
20
0
30
0
70
128
71
23
72
30
73
21
0
VERTEX
8
OBJECT__96
10
0
20
0
30
0
70
128
71
18
72
25
73
1
0
SEQEND
8
OBJECT__96
0
POLYLINE
8
OBJECT__97
66
1
70
64
71
20
72
18
62
253
0
VERTEX
8
OBJECT__97
10
30.275000
20
-6.543000
30
-15.500000
70
192
0
VERTEX
8
OBJECT__97
10
32.971001
20
-8.050000
30
-12.515000
70
192
0
VERTEX
8
OBJECT__97
10
30.552000
20
-6.764000
30
-12.136000
70
192
0
VERTEX
8
OBJECT__97
10
35.700001
20
-8.500000
30
-15.500000
70
192
0
VERTEX
8
OBJECT__97
10
35.700001
20
-8.500000
30
-12.664000
70
192
0
VERTEX
8
OBJECT__97
10
27.200001
20
-0.080000
30
-15.500000
70
192
0
VERTEX
8
OBJECT__97
10
28.622000
20
-4.706000
30
-11.675000
70
192
0
VERTEX
8
OBJECT__97
10
27.450001
20
-2.046000
30
-11.330000
70
192
0
VERTEX
8
OBJECT__97
10
30.312000
20
-6.508000
30
-12.079000
70
192
0
VERTEX
8
OBJECT__97
10
30.152000
20
6.440000
30
-15.500000
70
192
0
VERTEX
8
OBJECT__97
10
27.913000
20
3.407000
30
-11.472000
70
192
0
VERTEX
8
OBJECT__97
10
27.294001
20
0.001000
30
-11.280000
70
192
0
VERTEX
8
OBJECT__97
10
27.235001
20
0.775000
30
-11.261000
70
192
0
VERTEX
8
OBJECT__97
10
29.396000
20
5.702000
30
-11.877000
70
192
0
VERTEX
8
OBJECT__97
10
27.299999
20
-0.073000
30
-11.282000
70
192
0
VERTEX
8
OBJECT__97
10
31.634001
20
7.464000
30
-12.334000
70
192
0
VERTEX
8
OBJECT__97
10
34.384998
20
8.398000
30
-12.629000
70
192
0
VERTEX
8
OBJECT__97
10
30.222000
20
6.352000
30
-12.045000
70
192
0
VERTEX
8
OBJECT__97
10
35.700001
20
8.500000
30
-15.500000
70
192
0
VERTEX
8
OBJECT__97
10
35.692001
20
8.500000
30
-12.664000
70
192
0
VERTEX
8
OBJECT__97
10
0
20
0
30
0
70
128
71
1
72
2
73
3
0
VERTEX
8
OBJECT__97
10
0
20
0
30
0
70
128
71
4
72
5
73
2
0
VERTEX
8
OBJECT__97
10
0
20
0
30
0
70
128
71
2
72
1
73
4
0
VERTEX
8
OBJECT__97
10
0
20
0
30
0
70
128
71
6
72
1
73
7
0
VERTEX
8
OBJECT__97
10
0
20
0
30
0
70
128
71
7
72
8
73
6
0
VERTEX
8
OBJECT__97
10
0
20
0
30
0
70
128
71
1
72
9
73
7
0
VERTEX
8
OBJECT__97
10
0
20
0
30
0
70
128
71
10
72
6
73
11
0
VERTEX
8
OBJECT__97
10
0
20
0
30
0
70
128
71
6
72
12
73
13
0
VERTEX
8
OBJECT__97
10
0
20
0
30
0
70
128
71
13
72
11
73
6
0
VERTEX
8
OBJECT__97
10
0
20
0
30
0
70
128
71
11
72
14
73
10
0
VERTEX
8
OBJECT__97
10
0
20
0
30
0
70
128
71
6
72
15
73
12
0
VERTEX
8
OBJECT__97
10
0
20
0
30
0
70
128
71
10
72
16
73
17
0
VERTEX
8
OBJECT__97
10
0
20
0
30
0
70
128
71
10
72
18
73
16
0
VERTEX
8
OBJECT__97
10
0
20
0
30
0
70
128
71
17
72
19
73
10
0
VERTEX
8
OBJECT__97
10
0
20
0
30
0
70
128
71
17
72
20
73
19
0
VERTEX
8
OBJECT__97
10
0
20
0
30
0
70
128
71
14
72
18
73
10
0
VERTEX
8
OBJECT__97
10
0
20
0
30
0
70
128
71
8
72
15
73
6
0
VERTEX
8
OBJECT__97
10
0
20
0
30
0
70
128
71
3
72
9
73
1
0
SEQEND
8
OBJECT__97
0
POLYLINE
8
OBJECT__98
66
1
70
64
71
4
72
2
62
253
0
VERTEX
8
OBJECT__98
10
55.599998
20
-8.500000
30
-15.500000
70
192
0
VERTEX
8
OBJECT__98
10
55.599998
20
-8.500000
30
-12.664000
70
192
0
VERTEX
8
OBJECT__98
10
35.700001
20
-8.500000
30
-12.664000
70
192
0
VERTEX
8
OBJECT__98
10
35.700001
20
-8.500000
30
-15.500000
70
192
0
VERTEX
8
OBJECT__98
10
0
20
0
30
0
70
128
71
1
72
2
73
3
0
VERTEX
8
OBJECT__98
10
0
20
0
30
0
70
128
71
3
72
4
73
1
0
SEQEND
8
OBJECT__98
0
POLYLINE
8
OBJECT__99
66
1
70
64
71
24
72
24
62
253
0
VERTEX
8
OBJECT__99
10
45.375000
20
-9.923000
30
-52.941002
70
192
0
VERTEX
8
OBJECT__99
10
16.799999
20
-9.923000
30
-52.941002
70
192
0
VERTEX
8
OBJECT__99
10
16.799999
20
0.000000
30
-55.854000
70
192
0
VERTEX
8
OBJECT__99
10
45.375000
20
-16.695999
30
-45.125000
70
192
0
VERTEX
8
OBJECT__99
10
16.799999
20
-16.695999
30
-45.125000
70
192
0
VERTEX
8
OBJECT__99
10
45.375000
20
-18.167999
30
-34.888000
70
192
0
VERTEX
8
OBJECT__99
10
16.799999
20
-18.167999
30
-34.888000
70
192
0
VERTEX
8
OBJECT__99
10
45.375000
20
-13.871000
30
-25.480000
70
192
0
VERTEX
8
OBJECT__99
10
16.799999
20
-13.871000
30
-25.480000
70
192
0
VERTEX
8
OBJECT__99
10
45.375000
20
-5.171000
30
-19.889000
70
192
0
VERTEX
8
OBJECT__99
10
16.799999
20
-5.171000
30
-19.889000
70
192
0
VERTEX
8
OBJECT__99
10
45.375000
20
5.171000
30
-19.889000
70
192
0
VERTEX
8
OBJECT__99
10
16.799999
20
0.000000
30
-19.146000
70
192
0
VERTEX
8
OBJECT__99
10
16.799999
20
5.171000
30
-19.889000
70
192
0
VERTEX
8
OBJECT__99
10
16.799999
20
13.871000
30
-25.480000
70
192
0
VERTEX
8
OBJECT__99
10
16.799999
20
18.167999
30
-34.888000
70
192
0
VERTEX
8
OBJECT__99
10
45.375000
20
13.871000
30
-25.480000
70
192
0
VERTEX
8
OBJECT__99
10
16.799999
20
16.695999
30
-45.125000
70
192
0
VERTEX
8
OBJECT__99
10
45.375000
20
18.354000
30
-37.500000
70
192
0
VERTEX
8
OBJECT__99
10
45.375000
20
18.167999
30
-34.888000
70
192
0
VERTEX
8
OBJECT__99
10
16.799999
20
9.923000
30
-52.941002
70
192
0
VERTEX
8
OBJECT__99
10
45.375000
20
16.695999
30
-45.125000
70
192
0
VERTEX
8
OBJECT__99
10
45.375000
20
9.923000
30
-52.941002
70
192
0
VERTEX
8
OBJECT__99
10
45.375000
20
0.000000
30
-55.854000
70
192
0
VERTEX
8
OBJECT__99
10
0
20
0
30
0
70
128
71
1
72
2
73
3
0
VERTEX
8
OBJECT__99
10
0
20
0
30
0
70
128
71
4
72
5
73
2
0
VERTEX
8
OBJECT__99
10
0
20
0
30
0
70
128
71
6
72
7
73
5
0
VERTEX
8
OBJECT__99
10
0
20
0
30
0
70
128
71
8
72
9
73
7
0
VERTEX
8
OBJECT__99
10
0
20
0
30
0
70
128
71
10
72
11
73
9
0
VERTEX
8
OBJECT__99
10
0
20
0
30
0
70
128
71
10
72
12
73
13
0
VERTEX
8
OBJECT__99
10
0
20
0
30
0
70
128
71
12
72
14
73
13
0
VERTEX
8
OBJECT__99
10
0
20
0
30
0
70
128
71
15
72
14
73
12
0
VERTEX
8
OBJECT__99
10
0
20
0
30
0
70
128
71
16
72
15
73
17
0
VERTEX
8
OBJECT__99
10
0
20
0
30
0
70
128
71
18
72
16
73
19
0
VERTEX
8
OBJECT__99
10
0
20
0
30
0
70
128
71
16
72
20
73
19
0
VERTEX
8
OBJECT__99
10
0
20
0
30
0
70
128
71
21
72
18
73
22
0
VERTEX
8
OBJECT__99
10
0
20
0
30
0
70
128
71
3
72
21
73
23
0
VERTEX
8
OBJECT__99
10
0
20
0
30
0
70
128
71
23
72
24
73
3
0
VERTEX
8
OBJECT__99
10
0
20
0
30
0
70
128
71
22
72
23
73
21
0
VERTEX
8
OBJECT__99
10
0
20
0
30
0
70
128
71
19
72
22
73
18
0
VERTEX
8
OBJECT__99
10
0
20
0
30
0
70
128
71
17
72
20
73
16
0
VERTEX
8
OBJECT__99
10
0
20
0
30
0
70
128
71
12
72
17
73
15
0
VERTEX
8
OBJECT__99
10
0
20
0
30
0
70
128
71
13
72
11
73
10
0
VERTEX
8
OBJECT__99
10
0
20
0
30
0
70
128
71
9
72
8
73
10
0
VERTEX
8
OBJECT__99
10
0
20
0
30
0
70
128
71
7
72
6
73
8
0
VERTEX
8
OBJECT__99
10
0
20
0
30
0
70
128
71
5
72
4
73
6
0
VERTEX
8
OBJECT__99
10
0
20
0
30
0
70
128
71
2
72
1
73
4
0
VERTEX
8
OBJECT__99
10
0
20
0
30
0
70
128
71
3
72
24
73
1
0
SEQEND
8
OBJECT__99
0
POLYLINE
8
OBJECT__100
66
1
70
64
71
30
72
30
62
253
0
VERTEX
8
OBJECT__100
10
16.799999
20
0.000000
30
-13.250000
70
192
0
VERTEX
8
OBJECT__100
10
16.799999
20
0.000000
30
-19.146000
70
192
0
VERTEX
8
OBJECT__100
10
16.799999
20
5.171000
30
-19.889000
70
192
0
VERTEX
8
OBJECT__100
10
16.799999
20
-8.294000
30
-14.712000
70
192
0
VERTEX
8
OBJECT__100
10
16.799999
20
-5.171000
30
-19.889000
70
192
0
VERTEX
8
OBJECT__100
10
16.799999
20
13.871000
30
-25.480000
70
192
0
VERTEX
8
OBJECT__100
10
16.799999
20
15.588000
30
-18.923000
70
192
0
VERTEX
8
OBJECT__100
10
16.799999
20
8.294000
30
-14.712000
70
192
0
VERTEX
8
OBJECT__100
10
16.799999
20
-15.588000
30
-18.923000
70
192
0
VERTEX
8
OBJECT__100
10
16.799999
20
-18.167999
30
-34.888000
70
192
0
VERTEX
8
OBJECT__100
10
16.799999
20
-13.871000
30
-25.480000
70
192
0
VERTEX
8
OBJECT__100
10
16.799999
20
-21.000999
30
-25.375000
70
192
0
VERTEX
8
OBJECT__100
10
16.799999
20
18.167999
30
-34.888000
70
192
0
VERTEX
8
OBJECT__100
10
16.799999
20
16.695999
30
-45.125000
70
192
0
VERTEX
8
OBJECT__100
10
16.799999
20
23.882000
30
-41.710999
70
192
0
VERTEX
8
OBJECT__100
10
16.799999
20
23.882000
30
-33.289001
70
192
0
VERTEX
8
OBJECT__100
10
16.799999
20
21.000999
30
-25.375000
70
192
0
VERTEX
8
OBJECT__100
10
16.799999
20
-23.882000
30
-33.289001
70
192
0
VERTEX
8
OBJECT__100
10
16.799999
20
-23.882000
30
-41.710999
70
192
0
VERTEX
8
OBJECT__100
10
16.799999
20
21.000999
30
-49.625000
70
192
0
VERTEX
8
OBJECT__100
10
16.799999
20
-16.695999
30
-45.125000
70
192
0
VERTEX
8
OBJECT__100
10
16.799999
20
0.000000
30
-55.854000
70
192
0
VERTEX
8
OBJECT__100
10
16.799999
20
0.000000
30
-61.750000
70
192
0
VERTEX
8
OBJECT__100
10
16.799999
20
8.294000
30
-60.287998
70
192
0
VERTEX
8
OBJECT__100
10
16.799999
20
9.923000
30
-52.941002
70
192
0
VERTEX
8
OBJECT__100
10
16.799999
20
15.588000
30
-56.077000
70
192
0
VERTEX
8
OBJECT__100
10
16.799999
20
-21.000999
30
-49.625000
70
192
0
VERTEX
8
OBJECT__100
10
16.799999
20
-15.588000
30
-56.077000
70
192
0
VERTEX
8
OBJECT__100
10
16.799999
20
-9.923000
30
-52.941002
70
192
0
VERTEX
8
OBJECT__100
10
16.799999
20
-8.294000
30
-60.287998
70
192
0
VERTEX
8
OBJECT__100
10
0
20
0
30
0
70
128
71
1
72
2
73
3
0
VERTEX
8
OBJECT__100
10
0
20
0
30
0
70
128
71
1
72
4
73
5
0
VERTEX
8
OBJECT__100
10
0
20
0
30
0
70
128
71
3
72
6
73
7
0
VERTEX
8
OBJECT__100
10
0
20
0
30
0
70
128
71
5
72
2
73
1
0
VERTEX
8
OBJECT__100
10
0
20
0
30
0
70
128
71
3
72
8
73
1
0
VERTEX
8
OBJECT__100
10
0
20
0
30
0
70
128
71
5
72
4
73
9
0
VERTEX
8
OBJECT__100
10
0
20
0
30
0
70
128
71
10
72
11
73
12
0
VERTEX
8
OBJECT__100
10
0
20
0
30
0
70
128
71
13
72
14
73
15
0
VERTEX
8
OBJECT__100
10
0
20
0
30
0
70
128
71
13
72
16
73
17
0
VERTEX
8
OBJECT__100
10
0
20
0
30
0
70
128
71
9
72
11
73
5
0
VERTEX
8
OBJECT__100
10
0
20
0
30
0
70
128
71
11
72
9
73
12
0
VERTEX
8
OBJECT__100
10
0
20
0
30
0
70
128
71
10
72
18
73
19
0
VERTEX
8
OBJECT__100
10
0
20
0
30
0
70
128
71
14
72
20
73
15
0
VERTEX
8
OBJECT__100
10
0
20
0
30
0
70
128
71
17
72
6
73
13
0
VERTEX
8
OBJECT__100
10
0
20
0
30
0
70
128
71
12
72
18
73
10
0
VERTEX
8
OBJECT__100
10
0
20
0
30
0
70
128
71
19
72
21
73
10
0
VERTEX
8
OBJECT__100
10
0
20
0
30
0
70
128
71
22
72
23
73
24
0
VERTEX
8
OBJECT__100
10
0
20
0
30
0
70
128
71
14
72
25
73
26
0
VERTEX
8
OBJECT__100
10
0
20
0
30
0
70
128
71
17
72
7
73
6
0
VERTEX
8
OBJECT__100
10
0
20
0
30
0
70
128
71
19
72
27
73
21
0
VERTEX
8
OBJECT__100
10
0
20
0
30
0
70
128
71
21
72
27
73
28
0
VERTEX
8
OBJECT__100
10
0
20
0
30
0
70
128
71
22
72
29
73
30
0
VERTEX
8
OBJECT__100
10
0
20
0
30
0
70
128
71
24
72
25
73
22
0
VERTEX
8
OBJECT__100
10
0
20
0
30
0
70
128
71
15
72
16
73
13
0
VERTEX
8
OBJECT__100
10
0
20
0
30
0
70
128
71
28
72
29
73
21
0
VERTEX
8
OBJECT__100
10
0
20
0
30
0
70
128
71
29
72
28
73
30
0
VERTEX
8
OBJECT__100
10
0
20
0
30
0
70
128
71
26
72
20
73
14
0
VERTEX
8
OBJECT__100
10
0
20
0
30
0
70
128
71
30
72
23
73
22
0
VERTEX
8
OBJECT__100
10
0
20
0
30
0
70
128
71
7
72
8
73
3
0
VERTEX
8
OBJECT__100
10
0
20
0
30
0
70
128
71
24
72
26
73
25
0
SEQEND
8
OBJECT__100
0
POLYLINE
8
OBJECT__102
66
1
70
64
71
66
72
84
62
253
0
VERTEX
8
OBJECT__102
10
16.214001
20
0.000000
30
-11.836000
70
192
0
VERTEX
8
OBJECT__102
10
14.800000
20
0.000000
30
-11.250000
70
192
0
VERTEX
8
OBJECT__102
10
14.800000
20
-6.223000
30
-12.347000
70
192
0
VERTEX
8
OBJECT__102
10
16.214001
20
-8.778000
30
-13.384000
70
192
0
VERTEX
8
OBJECT__102
10
14.800000
20
-16.872999
30
-17.391001
70
192
0
VERTEX
8
OBJECT__102
10
16.214001
20
-16.497000
30
-17.840000
70
192
0
VERTEX
8
OBJECT__102
10
16.214001
20
-22.226000
30
-24.667999
70
192
0
VERTEX
8
OBJECT__102
10
14.800000
20
-17.320000
30
-17.924000
70
192
0
VERTEX
8
OBJECT__102
10
16.214001
20
-25.274000
30
-33.042999
70
192
0
VERTEX
8
OBJECT__102
10
14.800000
20
-24.172001
30
-28.327000
70
192
0
VERTEX
8
OBJECT__102
10
14.800000
20
-22.733000
30
-24.375000
70
192
0
VERTEX
8
OBJECT__102
10
14.800000
20
-25.851000
30
-32.942001
70
192
0
VERTEX
8
OBJECT__102
10
14.800000
20
-25.851000
30
-40.664001
70
192
0
VERTEX
8
OBJECT__102
10
16.214001
20
-25.274000
30
-41.957001
70
192
0
VERTEX
8
OBJECT__102
10
14.800000
20
-22.733000
30
-50.625000
70
192
0
VERTEX
8
OBJECT__102
10
16.214001
20
-22.226000
30
-50.332001
70
192
0
VERTEX
8
OBJECT__102
10
16.214001
20
-16.497000
30
-57.160000
70
192
0
VERTEX
8
OBJECT__102
10
14.800000
20
-21.386999
30
-52.230000
70
192
0
VERTEX
8
OBJECT__102
10
14.800000
20
-16.872999
30
-57.609001
70
192
0
VERTEX
8
OBJECT__102
10
14.800000
20
-12.010000
30
-60.416000
70
192
0
VERTEX
8
OBJECT__102
10
16.214001
20
-8.778000
30
-61.616001
70
192
0
VERTEX
8
OBJECT__102
10
14.800000
20
0.000000
30
-63.750000
70
192
0
VERTEX
8
OBJECT__102
10
16.214001
20
0.000000
30
-63.164001
70
192
0
VERTEX
8
OBJECT__102
10
14.800000
20
8.978000
30
-62.167000
70
192
0
VERTEX
8
OBJECT__102
10
16.214001
20
8.778000
30
-61.616001
70
192
0
VERTEX
8
OBJECT__102
10
16.214001
20
16.497000
30
-57.160000
70
192
0
VERTEX
8
OBJECT__102
10
14.800000
20
12.010000
30
-60.416000
70
192
0
VERTEX
8
OBJECT__102
10
14.800000
20
16.872999
30
-57.609001
70
192
0
VERTEX
8
OBJECT__102
10
14.800000
20
21.386999
30
-52.230000
70
192
0
VERTEX
8
OBJECT__102
10
16.214001
20
22.226000
30
-50.332001
70
192
0
VERTEX
8
OBJECT__102
10
14.800000
20
25.851000
30
-42.057999
70
192
0
VERTEX
8
OBJECT__102
10
16.214001
20
25.274000
30
-41.957001
70
192
0
VERTEX
8
OBJECT__102
10
16.214001
20
25.274000
30
-33.042999
70
192
0
VERTEX
8
OBJECT__102
10
14.800000
20
25.851000
30
-40.664001
70
192
0
VERTEX
8
OBJECT__102
10
14.800000
20
25.851000
30
-32.942001
70
192
0
VERTEX
8
OBJECT__102
10
14.800000
20
24.172001
30
-28.327000
70
192
0
VERTEX
8
OBJECT__102
10
16.214001
20
22.226000
30
-24.667999
70
192
0
VERTEX
8
OBJECT__102
10
14.800000
20
22.733000
30
-24.375000
70
192
0
VERTEX
8
OBJECT__102
10
14.800000
20
17.320000
30
-17.924000
70
192
0
VERTEX
8
OBJECT__102
10
16.214001
20
16.497000
30
-17.840000
70
192
0
VERTEX
8
OBJECT__102
10
14.800000
20
8.978000
30
-12.833000
70
192
0
VERTEX
8
OBJECT__102
10
16.214001
20
8.778000
30
-13.384000
70
192
0
VERTEX
8
OBJECT__102
10
14.800000
20
6.223000
30
-12.347000
70
192
0
VERTEX
8
OBJECT__102
10
16.799999
20
-8.294000
30
-14.712000
70
192
0
VERTEX
8
OBJECT__102
10
16.799999
20
-15.588000
30
-18.923000
70
192
0
VERTEX
8
OBJECT__102
10
16.799999
20
-21.000999
30
-25.375000
70
192
0
VERTEX
8
OBJECT__102
10
16.799999
20
-23.882000
30
-33.289001
70
192
0
VERTEX
8
OBJECT__102
10
16.799999
20
-23.882000
30
-41.710999
70
192
0
VERTEX
8
OBJECT__102
10
16.799999
20
-21.000999
30
-49.625000
70
192
0
VERTEX
8
OBJECT__102
10
16.799999
20
-15.588000
30
-56.077000
70
192
0
VERTEX
8
OBJECT__102
10
16.799999
20
-8.294000
30
-60.287998
70
192
0
VERTEX
8
OBJECT__102
10
16.799999
20
0.000000
30
-61.750000
70
192
0
VERTEX
8
OBJECT__102
10
16.799999
20
8.294000
30
-60.287998
70
192
0
VERTEX
8
OBJECT__102
10
16.799999
20
15.588000
30
-56.077000
70
192
0
VERTEX
8
OBJECT__102
10
16.799999
20
21.000999
30
-49.625000
70
192
0
VERTEX
8
OBJECT__102
10
16.799999
20
23.882000
30
-41.710999
70
192
0
VERTEX
8
OBJECT__102
10
16.799999
20
23.882000
30
-33.289001
70
192
0
VERTEX
8
OBJECT__102
10
16.799999
20
21.000999
30
-25.375000
70
192
0
VERTEX
8
OBJECT__102
10
16.799999
20
15.588000
30
-18.923000
70
192
0
VERTEX
8
OBJECT__102
10
16.799999
20
8.294000
30
-14.712000
70
192
0
VERTEX
8
OBJECT__102
10
16.799999
20
0.000000
30
-13.250000
70
192
0
VERTEX
8
OBJECT__102
10
14.800000
20
16.872999
30
-17.391001
70
192
0
VERTEX
8
OBJECT__102
10
14.800000
20
22.733000
30
-50.625000
70
192
0
VERTEX
8
OBJECT__102
10
14.800000
20
-8.978000
30
-62.167000
70
192
0
VERTEX
8
OBJECT__102
10
14.800000
20
-25.851000
30
-42.057999
70
192
0
VERTEX
8
OBJECT__102
10
14.800000
20
-8.978000
30
-12.833000
70
192
0
VERTEX
8
OBJECT__102
10
0
20
0
30
0
70
128
71
1
72
2
73
3
0
VERTEX
8
OBJECT__102
10
0
20
0
30
0
70
128
71
3
72
4
73
1
0
VERTEX
8
OBJECT__102
10
0
20
0
30
0
70
128
71
5
72
6
73
4
0
VERTEX
8
OBJECT__102
10
0
20
0
30
0
70
128
71
7
72
6
73
8
0
VERTEX
8
OBJECT__102
10
0
20
0
30
0
70
128
71
6
72
5
73
8
0
VERTEX
8
OBJECT__102
10
0
20
0
30
0
70
128
71
9
72
7
73
10
0
VERTEX
8
OBJECT__102
10
0
20
0
30
0
70
128
71
7
72
11
73
10
0
VERTEX
8
OBJECT__102
10
0
20
0
30
0
70
128
71
9
72
12
73
13
0
VERTEX
8
OBJECT__102
10
0
20
0
30
0
70
128
71
13
72
14
73
9
0
VERTEX
8
OBJECT__102
10
0
20
0
30
0
70
128
71
15
72
16
73
14
0
VERTEX
8
OBJECT__102
10
0
20
0
30
0
70
128
71
17
72
16
73
18
0
VERTEX
8
OBJECT__102
10
0
20
0
30
0
70
128
71
16
72
15
73
18
0
VERTEX
8
OBJECT__102
10
0
20
0
30
0
70
128
71
17
72
19
73
20
0
VERTEX
8
OBJECT__102
10
0
20
0
30
0
70
128
71
20
72
21
73
17
0
VERTEX
8
OBJECT__102
10
0
20
0
30
0
70
128
71
22
72
23
73
21
0
VERTEX
8
OBJECT__102
10
0
20
0
30
0
70
128
71
22
72
24
73
25
0
VERTEX
8
OBJECT__102
10
0
20
0
30
0
70
128
71
26
72
25
73
27
0
VERTEX
8
OBJECT__102
10
0
20
0
30
0
70
128
71
25
72
24
73
27
0
VERTEX
8
OBJECT__102
10
0
20
0
30
0
70
128
71
26
72
28
73
29
0
VERTEX
8
OBJECT__102
10
0
20
0
30
0
70
128
71
29
72
30
73
26
0
VERTEX
8
OBJECT__102
10
0
20
0
30
0
70
128
71
31
72
32
73
30
0
VERTEX
8
OBJECT__102
10
0
20
0
30
0
70
128
71
33
72
32
73
34
0
VERTEX
8
OBJECT__102
10
0
20
0
30
0
70
128
71
32
72
31
73
34
0
VERTEX
8
OBJECT__102
10
0
20
0
30
0
70
128
71
33
72
35
73
36
0
VERTEX
8
OBJECT__102
10
0
20
0
30
0
70
128
71
36
72
37
73
33
0
VERTEX
8
OBJECT__102
10
0
20
0
30
0
70
128
71
37
72
38
73
39
0
VERTEX
8
OBJECT__102
10
0
20
0
30
0
70
128
71
39
72
40
73
37
0
VERTEX
8
OBJECT__102
10
0
20
0
30
0
70
128
71
41
72
42
73
40
0
VERTEX
8
OBJECT__102
10
0
20
0
30
0
70
128
71
1
72
42
73
43
0
VERTEX
8
OBJECT__102
10
0
20
0
30
0
70
128
71
42
72
41
73
43
0
VERTEX
8
OBJECT__102
10
0
20
0
30
0
70
128
71
1
72
4
73
44
0
VERTEX
8
OBJECT__102
10
0
20
0
30
0
70
128
71
4
72
6
73
45
0
VERTEX
8
OBJECT__102
10
0
20
0
30
0
70
128
71
6
72
7
73
46
0
VERTEX
8
OBJECT__102
10
0
20
0
30
0
70
128
71
7
72
9
73
47
0
VERTEX
8
OBJECT__102
10
0
20
0
30
0
70
128
71
9
72
14
73
48
0
VERTEX
8
OBJECT__102
10
0
20
0
30
0
70
128
71
14
72
16
73
49
0
VERTEX
8
OBJECT__102
10
0
20
0
30
0
70
128
71
16
72
17
73
50
0
VERTEX
8
OBJECT__102
10
0
20
0
30
0
70
128
71
17
72
21
73
51
0
VERTEX
8
OBJECT__102
10
0
20
0
30
0
70
128
71
23
72
52
73
51
0
VERTEX
8
OBJECT__102
10
0
20
0
30
0
70
128
71
25
72
53
73
52
0
VERTEX
8
OBJECT__102
10
0
20
0
30
0
70
128
71
25
72
26
73
54
0
VERTEX
8
OBJECT__102
10
0
20
0
30
0
70
128
71
26
72
30
73
55
0
VERTEX
8
OBJECT__102
10
0
20
0
30
0
70
128
71
30
72
32
73
56
0
VERTEX
8
OBJECT__102
10
0
20
0
30
0
70
128
71
32
72
33
73
57
0
VERTEX
8
OBJECT__102
10
0
20
0
30
0
70
128
71
33
72
37
73
58
0
VERTEX
8
OBJECT__102
10
0
20
0
30
0
70
128
71
40
72
59
73
58
0
VERTEX
8
OBJECT__102
10
0
20
0
30
0
70
128
71
40
72
42
73
60
0
VERTEX
8
OBJECT__102
10
0
20
0
30
0
70
128
71
1
72
61
73
60
0
VERTEX
8
OBJECT__102
10
0
20
0
30
0
70
128
71
60
72
42
73
1
0
VERTEX
8
OBJECT__102
10
0
20
0
30
0
70
128
71
60
72
59
73
40
0
VERTEX
8
OBJECT__102
10
0
20
0
30
0
70
128
71
58
72
37
73
40
0
VERTEX
8
OBJECT__102
10
0
20
0
30
0
70
128
71
58
72
57
73
33
0
VERTEX
8
OBJECT__102
10
0
20
0
30
0
70
128
71
57
72
56
73
32
0
VERTEX
8
OBJECT__102
10
0
20
0
30
0
70
128
71
56
72
55
73
30
0
VERTEX
8
OBJECT__102
10
0
20
0
30
0
70
128
71
55
72
54
73
26
0
VERTEX
8
OBJECT__102
10
0
20
0
30
0
70
128
71
54
72
53
73
25
0
VERTEX
8
OBJECT__102
10
0
20
0
30
0
70
128
71
52
72
23
73
25
0
VERTEX
8
OBJECT__102
10
0
20
0
30
0
70
128
71
51
72
21
73
23
0
VERTEX
8
OBJECT__102
10
0
20
0
30
0
70
128
71
51
72
50
73
17
0
VERTEX
8
OBJECT__102
10
0
20
0
30
0
70
128
71
50
72
49
73
16
0
VERTEX
8
OBJECT__102
10
0
20
0
30
0
70
128
71
49
72
48
73
14
0
VERTEX
8
OBJECT__102
10
0
20
0
30
0
70
128
71
48
72
47
73
9
0
VERTEX
8
OBJECT__102
10
0
20
0
30
0
70
128
71
47
72
46
73
7
0
VERTEX
8
OBJECT__102
10
0
20
0
30
0
70
128
71
46
72
45
73
6
0
VERTEX
8
OBJECT__102
10
0
20
0
30
0
70
128
71
45
72
44
73
4
0
VERTEX
8
OBJECT__102
10
0
20
0
30
0
70
128
71
44
72
61
73
1
0
VERTEX
8
OBJECT__102
10
0
20
0
30
0
70
128
71
43
72
2
73
1
0
VERTEX
8
OBJECT__102
10
0
20
0
30
0
70
128
71
40
72
62
73
41
0
VERTEX
8
OBJECT__102
10
0
20
0
30
0
70
128
71
39
72
62
73
40
0
VERTEX
8
OBJECT__102
10
0
20
0
30
0
70
128
71
36
72
38
73
37
0
VERTEX
8
OBJECT__102
10
0
20
0
30
0
70
128
71
34
72
35
73
33
0
VERTEX
8
OBJECT__102
10
0
20
0
30
0
70
128
71
30
72
63
73
31
0
VERTEX
8
OBJECT__102
10
0
20
0
30
0
70
128
71
29
72
63
73
30
0
VERTEX
8
OBJECT__102
10
0
20
0
30
0
70
128
71
27
72
28
73
26
0
VERTEX
8
OBJECT__102
10
0
20
0
30
0
70
128
71
25
72
23
73
22
0
VERTEX
8
OBJECT__102
10
0
20
0
30
0
70
128
71
21
72
64
73
22
0
VERTEX
8
OBJECT__102
10
0
20
0
30
0
70
128
71
20
72
64
73
21
0
VERTEX
8
OBJECT__102
10
0
20
0
30
0
70
128
71
18
72
19
73
17
0
VERTEX
8
OBJECT__102
10
0
20
0
30
0
70
128
71
14
72
65
73
15
0
VERTEX
8
OBJECT__102
10
0
20
0
30
0
70
128
71
13
72
65
73
14
0
VERTEX
8
OBJECT__102
10
0
20
0
30
0
70
128
71
10
72
12
73
9
0
VERTEX
8
OBJECT__102
10
0
20
0
30
0
70
128
71
8
72
11
73
7
0
VERTEX
8
OBJECT__102
10
0
20
0
30
0
70
128
71
4
72
66
73
5
0
VERTEX
8
OBJECT__102
10
0
20
0
30
0
70
128
71
3
72
66
73
4
0
SEQEND
8
OBJECT__102
0
POLYLINE
8
OBJECT__103
66
1
70
64
71
44
72
44
62
253
0
VERTEX
8
OBJECT__103
10
6.151000
20
0.000000
30
-63.750000
70
192
0
VERTEX
8
OBJECT__103
10
14.800000
20
0.000000
30
-63.750000
70
192
0
VERTEX
8
OBJECT__103
10
14.800000
20
-8.978000
30
-62.167000
70
192
0
VERTEX
8
OBJECT__103
10
6.151000
20
-12.199000
30
-60.743000
70
192
0
VERTEX
8
OBJECT__103
10
6.151000
20
-21.603001
30
-52.411999
70
192
0
VERTEX
8
OBJECT__103
10
14.800000
20
-16.872999
30
-57.609001
70
192
0
VERTEX
8
OBJECT__103
10
14.800000
20
-12.010000
30
-60.416000
70
192
0
VERTEX
8
OBJECT__103
10
6.151000
20
-26.059000
30
-40.664001
70
192
0
VERTEX
8
OBJECT__103
10
14.800000
20
-22.733000
30
-50.625000
70
192
0
VERTEX
8
OBJECT__103
10
14.800000
20
-25.851000
30
-42.057999
70
192
0
VERTEX
8
OBJECT__103
10
14.800000
20
-21.386999
30
-52.230000
70
192
0
VERTEX
8
OBJECT__103
10
14.800000
20
-25.851000
30
-40.664001
70
192
0
VERTEX
8
OBJECT__103
10
14.800000
20
-25.851000
30
-32.942001
70
192
0
VERTEX
8
OBJECT__103
10
6.151000
20
-24.544001
30
-28.191999
70
192
0
VERTEX
8
OBJECT__103
10
6.151000
20
-17.407000
30
-17.851999
70
192
0
VERTEX
8
OBJECT__103
10
14.800000
20
-22.733000
30
-24.375000
70
192
0
VERTEX
8
OBJECT__103
10
14.800000
20
-24.172001
30
-28.327000
70
192
0
VERTEX
8
OBJECT__103
10
14.800000
20
-16.872999
30
-17.391001
70
192
0
VERTEX
8
OBJECT__103
10
14.800000
20
-8.978000
30
-12.833000
70
192
0
VERTEX
8
OBJECT__103
10
14.800000
20
-17.320000
30
-17.924000
70
192
0
VERTEX
8
OBJECT__103
10
6.151000
20
-6.282000
30
-12.013000
70
192
0
VERTEX
8
OBJECT__103
10
6.151000
20
0.000000
30
-11.250000
70
192
0
VERTEX
8
OBJECT__103
10
14.800000
20
0.000000
30
-11.250000
70
192
0
VERTEX
8
OBJECT__103
10
14.800000
20
6.223000
30
-12.347000
70
192
0
VERTEX
8
OBJECT__103
10
14.800000
20
-6.223000
30
-12.347000
70
192
0
VERTEX
8
OBJECT__103
10
6.151000
20
17.407000
30
-17.851999
70
192
0
VERTEX
8
OBJECT__103
10
6.151000
20
6.282000
30
-12.013000
70
192
0
VERTEX
8
OBJECT__103
10
14.800000
20
8.978000
30
-12.833000
70
192
0
VERTEX
8
OBJECT__103
10
14.800000
20
16.872999
30
-17.391001
70
192
0
VERTEX
8
OBJECT__103
10
14.800000
20
17.320000
30
-17.924000
70
192
0
VERTEX
8
OBJECT__103
10
14.800000
20
22.733000
30
-24.375000
70
192
0
VERTEX
8
OBJECT__103
10
6.151000
20
24.544001
30
-28.191999
70
192
0
VERTEX
8
OBJECT__103
10
6.151000
20
26.059000
30
-40.664001
70
192
0
VERTEX
8
OBJECT__103
10
14.800000
20
25.851000
30
-32.942001
70
192
0
VERTEX
8
OBJECT__103
10
14.800000
20
24.172001
30
-28.327000
70
192
0
VERTEX
8
OBJECT__103
10
14.800000
20
25.851000
30
-42.057999
70
192
0
VERTEX
8
OBJECT__103
10
14.800000
20
22.733000
30
-50.625000
70
192
0
VERTEX
8
OBJECT__103
10
6.151000
20
21.603001
30
-52.411999
70
192
0
VERTEX
8
OBJECT__103
10
14.800000
20
25.851000
30
-40.664001
70
192
0
VERTEX
8
OBJECT__103
10
14.800000
20
21.386999
30
-52.230000
70
192
0
VERTEX
8
OBJECT__103
10
14.800000
20
16.872999
30
-57.609001
70
192
0
VERTEX
8
OBJECT__103
10
6.151000
20
12.199000
30
-60.743000
70
192
0
VERTEX
8
OBJECT__103
10
14.800000
20
8.978000
30
-62.167000
70
192
0
VERTEX
8
OBJECT__103
10
14.800000
20
12.010000
30
-60.416000
70
192
0
VERTEX
8
OBJECT__103
10
0
20
0
30
0
70
128
71
1
72
2
73
3
0
VERTEX
8
OBJECT__103
10
0
20
0
30
0
70
128
71
3
72
4
73
1
0
VERTEX
8
OBJECT__103
10
0
20
0
30
0
70
128
71
5
72
4
73
6
0
VERTEX
8
OBJECT__103
10
0
20
0
30
0
70
128
71
4
72
7
73
6
0
VERTEX
8
OBJECT__103
10
0
20
0
30
0
70
128
71
8
72
5
73
9
0
VERTEX
8
OBJECT__103
10
0
20
0
30
0
70
128
71
9
72
10
73
8
0
VERTEX
8
OBJECT__103
10
0
20
0
30
0
70
128
71
5
72
11
73
9
0
VERTEX
8
OBJECT__103
10
0
20
0
30
0
70
128
71
8
72
12
73
13
0
VERTEX
8
OBJECT__103
10
0
20
0
30
0
70
128
71
13
72
14
73
8
0
VERTEX
8
OBJECT__103
10
0
20
0
30
0
70
128
71
15
72
14
73
16
0
VERTEX
8
OBJECT__103
10
0
20
0
30
0
70
128
71
14
72
17
73
16
0
VERTEX
8
OBJECT__103
10
0
20
0
30
0
70
128
71
15
72
18
73
19
0
VERTEX
8
OBJECT__103
10
0
20
0
30
0
70
128
71
15
72
20
73
18
0
VERTEX
8
OBJECT__103
10
0
20
0
30
0
70
128
71
19
72
21
73
15
0
VERTEX
8
OBJECT__103
10
0
20
0
30
0
70
128
71
22
72
23
73
24
0
VERTEX
8
OBJECT__103
10
0
20
0
30
0
70
128
71
22
72
21
73
25
0
VERTEX
8
OBJECT__103
10
0
20
0
30
0
70
128
71
25
72
23
73
22
0
VERTEX
8
OBJECT__103
10
0
20
0
30
0
70
128
71
26
72
27
73
28
0
VERTEX
8
OBJECT__103
10
0
20
0
30
0
70
128
71
28
72
29
73
26
0
VERTEX
8
OBJECT__103
10
0
20
0
30
0
70
128
71
27
72
24
73
28
0
VERTEX
8
OBJECT__103
10
0
20
0
30
0
70
128
71
26
72
30
73
31
0
VERTEX
8
OBJECT__103
10
0
20
0
30
0
70
128
71
31
72
32
73
26
0
VERTEX
8
OBJECT__103
10
0
20
0
30
0
70
128
71
33
72
32
73
34
0
VERTEX
8
OBJECT__103
10
0
20
0
30
0
70
128
71
32
72
35
73
34
0
VERTEX
8
OBJECT__103
10
0
20
0
30
0
70
128
71
33
72
36
73
37
0
VERTEX
8
OBJECT__103
10
0
20
0
30
0
70
128
71
37
72
38
73
33
0
VERTEX
8
OBJECT__103
10
0
20
0
30
0
70
128
71
33
72
39
73
36
0
VERTEX
8
OBJECT__103
10
0
20
0
30
0
70
128
71
38
72
40
73
41
0
VERTEX
8
OBJECT__103
10
0
20
0
30
0
70
128
71
41
72
42
73
38
0
VERTEX
8
OBJECT__103
10
0
20
0
30
0
70
128
71
1
72
42
73
43
0
VERTEX
8
OBJECT__103
10
0
20
0
30
0
70
128
71
42
72
44
73
43
0
VERTEX
8
OBJECT__103
10
0
20
0
30
0
70
128
71
43
72
2
73
1
0
VERTEX
8
OBJECT__103
10
0
20
0
30
0
70
128
71
41
72
44
73
42
0
VERTEX
8
OBJECT__103
10
0
20
0
30
0
70
128
71
37
72
40
73
38
0
VERTEX
8
OBJECT__103
10
0
20
0
30
0
70
128
71
34
72
39
73
33
0
VERTEX
8
OBJECT__103
10
0
20
0
30
0
70
128
71
31
72
35
73
32
0
VERTEX
8
OBJECT__103
10
0
20
0
30
0
70
128
71
29
72
30
73
26
0
VERTEX
8
OBJECT__103
10
0
20
0
30
0
70
128
71
24
72
27
73
22
0
VERTEX
8
OBJECT__103
10
0
20
0
30
0
70
128
71
19
72
25
73
21
0
VERTEX
8
OBJECT__103
10
0
20
0
30
0
70
128
71
16
72
20
73
15
0
VERTEX
8
OBJECT__103
10
0
20
0
30
0
70
128
71
13
72
17
73
14
0
VERTEX
8
OBJECT__103
10
0
20
0
30
0
70
128
71
10
72
12
73
8
0
VERTEX
8
OBJECT__103
10
0
20
0
30
0
70
128
71
6
72
11
73
5
0
VERTEX
8
OBJECT__103
10
0
20
0
30
0
70
128
71
3
72
7
73
4
0
SEQEND
8
OBJECT__103
0
POLYLINE
8
OBJECT__104
66
1
70
64
71
24
72
24
62
253
0
VERTEX
8
OBJECT__104
10
45.424999
20
9.923000
30
62.941002
70
192
0
VERTEX
8
OBJECT__104
10
16.850000
20
9.923000
30
62.941002
70
192
0
VERTEX
8
OBJECT__104
10
16.850000
20
0.000000
30
65.853996
70
192
0
VERTEX
8
OBJECT__104
10
45.424999
20
16.695999
30
55.125000
70
192
0
VERTEX
8
OBJECT__104
10
45.424999
20
18.167999
30
44.888000
70
192
0
VERTEX
8
OBJECT__104
10
16.850000
20
18.167999
30
44.888000
70
192
0
VERTEX
8
OBJECT__104
10
16.850000
20
16.695999
30
55.125000
70
192
0
VERTEX
8
OBJECT__104
10
16.850000
20
13.871000
30
35.480000
70
192
0
VERTEX
8
OBJECT__104
10
16.850000
20
5.171000
30
29.889000
70
192
0
VERTEX
8
OBJECT__104
10
45.424999
20
13.871000
30
35.480000
70
192
0
VERTEX
8
OBJECT__104
10
45.424999
20
-5.171000
30
29.889000
70
192
0
VERTEX
8
OBJECT__104
10
16.850000
20
-5.171000
30
29.889000
70
192
0
VERTEX
8
OBJECT__104
10
16.850000
20
0.000000
30
29.146000
70
192
0
VERTEX
8
OBJECT__104
10
45.424999
20
5.171000
30
29.889000
70
192
0
VERTEX
8
OBJECT__104
10
16.850000
20
-13.871000
30
35.480000
70
192
0
VERTEX
8
OBJECT__104
10
45.424999
20
-13.871000
30
35.480000
70
192
0
VERTEX
8
OBJECT__104
10
45.424999
20
-18.167999
30
44.888000
70
192
0
VERTEX
8
OBJECT__104
10
16.850000
20
-18.167999
30
44.888000
70
192
0
VERTEX
8
OBJECT__104
10
16.850000
20
-16.695999
30
55.125000
70
192
0
VERTEX
8
OBJECT__104
10
45.424999
20
-18.354000
30
47.500000
70
192
0
VERTEX
8
OBJECT__104
10
45.424999
20
-9.923000
30
62.941002
70
192
0
VERTEX
8
OBJECT__104
10
16.850000
20
-9.923000
30
62.941002
70
192
0
VERTEX
8
OBJECT__104
10
45.424999
20
0.000000
30
65.853996
70
192
0
VERTEX
8
OBJECT__104
10
45.424999
20
-16.695999
30
55.125000
70
192
0
VERTEX
8
OBJECT__104
10
0
20
0
30
0
70
128
71
1
72
2
73
3
0
VERTEX
8
OBJECT__104
10
0
20
0
30
0
70
128
71
2
72
1
73
4
0
VERTEX
8
OBJECT__104
10
0
20
0
30
0
70
128
71
5
72
6
73
7
0
VERTEX
8
OBJECT__104
10
0
20
0
30
0
70
128
71
8
72
6
73
5
0
VERTEX
8
OBJECT__104
10
0
20
0
30
0
70
128
71
9
72
8
73
10
0
VERTEX
8
OBJECT__104
10
0
20
0
30
0
70
128
71
11
72
12
73
13
0
VERTEX
8
OBJECT__104
10
0
20
0
30
0
70
128
71
13
72
14
73
11
0
VERTEX
8
OBJECT__104
10
0
20
0
30
0
70
128
71
15
72
12
73
11
0
VERTEX
8
OBJECT__104
10
0
20
0
30
0
70
128
71
16
72
17
73
18
0
VERTEX
8
OBJECT__104
10
0
20
0
30
0
70
128
71
19
72
18
73
20
0
VERTEX
8
OBJECT__104
10
0
20
0
30
0
70
128
71
18
72
17
73
20
0
VERTEX
8
OBJECT__104
10
0
20
0
30
0
70
128
71
21
72
22
73
19
0
VERTEX
8
OBJECT__104
10
0
20
0
30
0
70
128
71
23
72
3
73
22
0
VERTEX
8
OBJECT__104
10
0
20
0
30
0
70
128
71
22
72
21
73
23
0
VERTEX
8
OBJECT__104
10
0
20
0
30
0
70
128
71
19
72
24
73
21
0
VERTEX
8
OBJECT__104
10
0
20
0
30
0
70
128
71
20
72
24
73
19
0
VERTEX
8
OBJECT__104
10
0
20
0
30
0
70
128
71
18
72
15
73
16
0
VERTEX
8
OBJECT__104
10
0
20
0
30
0
70
128
71
11
72
16
73
15
0
VERTEX
8
OBJECT__104
10
0
20
0
30
0
70
128
71
13
72
9
73
14
0
VERTEX
8
OBJECT__104
10
0
20
0
30
0
70
128
71
10
72
14
73
9
0
VERTEX
8
OBJECT__104
10
0
20
0
30
0
70
128
71
5
72
10
73
8
0
VERTEX
8
OBJECT__104
10
0
20
0
30
0
70
128
71
7
72
4
73
5
0
VERTEX
8
OBJECT__104
10
0
20
0
30
0
70
128
71
4
72
7
73
2
0
VERTEX
8
OBJECT__104
10
0
20
0
30
0
70
128
71
3
72
23
73
1
0
SEQEND
8
OBJECT__104
0
POLYLINE
8
OBJECT__105
66
1
70
64
71
30
72
30
62
253
0
VERTEX
8
OBJECT__105
10
16.850000
20
0.000000
30
23.250000
70
192
0
VERTEX
8
OBJECT__105
10
16.850000
20
0.000000
30
29.146000
70
192
0
VERTEX
8
OBJECT__105
10
16.850000
20
-5.171000
30
29.889000
70
192
0
VERTEX
8
OBJECT__105
10
16.850000
20
8.294000
30
24.712000
70
192
0
VERTEX
8
OBJECT__105
10
16.850000
20
5.171000
30
29.889000
70
192
0
VERTEX
8
OBJECT__105
10
16.850000
20
15.588000
30
28.923000
70
192
0
VERTEX
8
OBJECT__105
10
16.850000
20
-18.167999
30
44.888000
70
192
0
VERTEX
8
OBJECT__105
10
16.850000
20
-23.882000
30
43.289001
70
192
0
VERTEX
8
OBJECT__105
10
16.850000
20
-21.000999
30
35.375000
70
192
0
VERTEX
8
OBJECT__105
10
16.850000
20
-13.871000
30
35.480000
70
192
0
VERTEX
8
OBJECT__105
10
16.850000
20
-15.588000
30
28.923000
70
192
0
VERTEX
8
OBJECT__105
10
16.850000
20
13.871000
30
35.480000
70
192
0
VERTEX
8
OBJECT__105
10
16.850000
20
-8.294000
30
24.712000
70
192
0
VERTEX
8
OBJECT__105
10
16.850000
20
18.167999
30
44.888000
70
192
0
VERTEX
8
OBJECT__105
10
16.850000
20
21.000999
30
35.375000
70
192
0
VERTEX
8
OBJECT__105
10
16.850000
20
23.882000
30
43.289001
70
192
0
VERTEX
8
OBJECT__105
10
16.850000
20
23.882000
30
51.710999
70
192
0
VERTEX
8
OBJECT__105
10
16.850000
20
0.000000
30
65.853996
70
192
0
VERTEX
8
OBJECT__105
10
16.850000
20
9.923000
30
62.941002
70
192
0
VERTEX
8
OBJECT__105
10
16.850000
20
8.294000
30
70.288002
70
192
0
VERTEX
8
OBJECT__105
10
16.850000
20
0.000000
30
71.750000
70
192
0
VERTEX
8
OBJECT__105
10
16.850000
20
-8.294000
30
70.288002
70
192
0
VERTEX
8
OBJECT__105
10
16.850000
20
-16.695999
30
55.125000
70
192
0
VERTEX
8
OBJECT__105
10
16.850000
20
-23.882000
30
51.710999
70
192
0
VERTEX
8
OBJECT__105
10
16.850000
20
16.695999
30
55.125000
70
192
0
VERTEX
8
OBJECT__105
10
16.850000
20
21.000999
30
59.625000
70
192
0
VERTEX
8
OBJECT__105
10
16.850000
20
15.588000
30
66.077003
70
192
0
VERTEX
8
OBJECT__105
10
16.850000
20
-9.923000
30
62.941002
70
192
0
VERTEX
8
OBJECT__105
10
16.850000
20
-21.000999
30
59.625000
70
192
0
VERTEX
8
OBJECT__105
10
16.850000
20
-15.588000
30
66.077003
70
192
0
VERTEX
8
OBJECT__105
10
0
20
0
30
0
70
128
71
1
72
2
73
3
0
VERTEX
8
OBJECT__105
10
0
20
0
30
0
70
128
71
1
72
4
73
5
0
VERTEX
8
OBJECT__105
10
0
20
0
30
0
70
128
71
5
72
2
73
1
0
VERTEX
8
OBJECT__105
10
0
20
0
30
0
70
128
71
5
72
4
73
6
0
VERTEX
8
OBJECT__105
10
0
20
0
30
0
70
128
71
7
72
8
73
9
0
VERTEX
8
OBJECT__105
10
0
20
0
30
0
70
128
71
3
72
10
73
11
0
VERTEX
8
OBJECT__105
10
0
20
0
30
0
70
128
71
6
72
12
73
5
0
VERTEX
8
OBJECT__105
10
0
20
0
30
0
70
128
71
9
72
10
73
7
0
VERTEX
8
OBJECT__105
10
0
20
0
30
0
70
128
71
3
72
13
73
1
0
VERTEX
8
OBJECT__105
10
0
20
0
30
0
70
128
71
14
72
12
73
15
0
VERTEX
8
OBJECT__105
10
0
20
0
30
0
70
128
71
14
72
16
73
17
0
VERTEX
8
OBJECT__105
10
0
20
0
30
0
70
128
71
18
72
19
73
20
0
VERTEX
8
OBJECT__105
10
0
20
0
30
0
70
128
71
18
72
21
73
22
0
VERTEX
8
OBJECT__105
10
0
20
0
30
0
70
128
71
7
72
23
73
24
0
VERTEX
8
OBJECT__105
10
0
20
0
30
0
70
128
71
11
72
13
73
3
0
VERTEX
8
OBJECT__105
10
0
20
0
30
0
70
128
71
12
72
6
73
15
0
VERTEX
8
OBJECT__105
10
0
20
0
30
0
70
128
71
17
72
25
73
14
0
VERTEX
8
OBJECT__105
10
0
20
0
30
0
70
128
71
25
72
26
73
27
0
VERTEX
8
OBJECT__105
10
0
20
0
30
0
70
128
71
19
72
27
73
20
0
VERTEX
8
OBJECT__105
10
0
20
0
30
0
70
128
71
22
72
28
73
18
0
VERTEX
8
OBJECT__105
10
0
20
0
30
0
70
128
71
23
72
29
73
24
0
VERTEX
8
OBJECT__105
10
0
20
0
30
0
70
128
71
15
72
16
73
14
0
VERTEX
8
OBJECT__105
10
0
20
0
30
0
70
128
71
27
72
19
73
25
0
VERTEX
8
OBJECT__105
10
0
20
0
30
0
70
128
71
22
72
30
73
28
0
VERTEX
8
OBJECT__105
10
0
20
0
30
0
70
128
71
23
72
28
73
30
0
VERTEX
8
OBJECT__105
10
0
20
0
30
0
70
128
71
9
72
11
73
10
0
VERTEX
8
OBJECT__105
10
0
20
0
30
0
70
128
71
20
72
21
73
18
0
VERTEX
8
OBJECT__105
10
0
20
0
30
0
70
128
71
24
72
8
73
7
0
VERTEX
8
OBJECT__105
10
0
20
0
30
0
70
128
71
30
72
29
73
23
0
VERTEX
8
OBJECT__105
10
0
20
0
30
0
70
128
71
17
72
26
73
25
0
SEQEND
8
OBJECT__105
0
POLYLINE
8
OBJECT__107
66
1
70
64
71
66
72
84
62
253
0
VERTEX
8
OBJECT__107
10
16.264000
20
0.000000
30
21.836000
70
192
0
VERTEX
8
OBJECT__107
10
14.850000
20
0.000000
30
21.250000
70
192
0
VERTEX
8
OBJECT__107
10
14.850000
20
6.223000
30
22.347000
70
192
0
VERTEX
8
OBJECT__107
10
16.264000
20
8.778000
30
23.384001
70
192
0
VERTEX
8
OBJECT__107
10
14.850000
20
16.872999
30
27.391001
70
192
0
VERTEX
8
OBJECT__107
10
16.264000
20
16.497000
30
27.840000
70
192
0
VERTEX
8
OBJECT__107
10
16.264000
20
22.226000
30
34.667999
70
192
0
VERTEX
8
OBJECT__107
10
14.850000
20
17.320000
30
27.924000
70
192
0
VERTEX
8
OBJECT__107
10
16.264000
20
25.274000
30
43.042999
70
192
0
VERTEX
8
OBJECT__107
10
14.850000
20
24.172001
30
38.327000
70
192
0
VERTEX
8
OBJECT__107
10
14.850000
20
22.733000
30
34.375000
70
192
0
VERTEX
8
OBJECT__107
10
14.850000
20
25.851000
30
42.942001
70
192
0
VERTEX
8
OBJECT__107
10
14.850000
20
25.851000
30
50.664001
70
192
0
VERTEX
8
OBJECT__107
10
16.264000
20
25.274000
30
51.957001
70
192
0
VERTEX
8
OBJECT__107
10
14.850000
20
25.851000
30
52.057999
70
192
0
VERTEX
8
OBJECT__107
10
14.850000
20
22.733000
30
60.625000
70
192
0
VERTEX
8
OBJECT__107
10
16.264000
20
22.226000
30
60.332001
70
192
0
VERTEX
8
OBJECT__107
10
16.264000
20
16.497000
30
67.160004
70
192
0
VERTEX
8
OBJECT__107
10
14.850000
20
21.386999
30
62.230000
70
192
0
VERTEX
8
OBJECT__107
10
14.850000
20
16.872999
30
67.609001
70
192
0
VERTEX
8
OBJECT__107
10
14.850000
20
12.010000
30
70.416000
70
192
0
VERTEX
8
OBJECT__107
10
16.264000
20
8.778000
30
71.615997
70
192
0
VERTEX
8
OBJECT__107
10
14.850000
20
0.000000
30
73.750000
70
192
0
VERTEX
8
OBJECT__107
10
16.264000
20
0.000000
30
73.164001
70
192
0
VERTEX
8
OBJECT__107
10
14.850000
20
-8.978000
30
72.167000
70
192
0
VERTEX
8
OBJECT__107
10
16.264000
20
-8.778000
30
71.615997
70
192
0
VERTEX
8
OBJECT__107
10
16.264000
20
-16.497000
30
67.160004
70
192
0
VERTEX
8
OBJECT__107
10
14.850000
20
-12.010000
30
70.416000
70
192
0
VERTEX
8
OBJECT__107
10
14.850000
20
-16.872999
30
67.609001
70
192
0
VERTEX
8
OBJECT__107
10
14.850000
20
-21.386999
30
62.230000
70
192
0
VERTEX
8
OBJECT__107
10
16.264000
20
-22.226000
30
60.332001
70
192
0
VERTEX
8
OBJECT__107
10
14.850000
20
-22.733000
30
60.625000
70
192
0
VERTEX
8
OBJECT__107
10
14.850000
20
-25.851000
30
52.057999
70
192
0
VERTEX
8
OBJECT__107
10
16.264000
20
-25.274000
30
51.957001
70
192
0
VERTEX
8
OBJECT__107
10
16.264000
20
-25.274000
30
43.042999
70
192
0
VERTEX
8
OBJECT__107
10
14.850000
20
-25.851000
30
50.664001
70
192
0
VERTEX
8
OBJECT__107
10
14.850000
20
-25.851000
30
42.942001
70
192
0
VERTEX
8
OBJECT__107
10
14.850000
20
-24.172001
30
38.327000
70
192
0
VERTEX
8
OBJECT__107
10
16.264000
20
-22.226000
30
34.667999
70
192
0
VERTEX
8
OBJECT__107
10
14.850000
20
-22.733000
30
34.375000
70
192
0
VERTEX
8
OBJECT__107
10
14.850000
20
-17.320000
30
27.924000
70
192
0
VERTEX
8
OBJECT__107
10
16.264000
20
-16.497000
30
27.840000
70
192
0
VERTEX
8
OBJECT__107
10
14.850000
20
-8.978000
30
22.833000
70
192
0
VERTEX
8
OBJECT__107
10
16.264000
20
-8.778000
30
23.384001
70
192
0
VERTEX
8
OBJECT__107
10
14.850000
20
-6.223000
30
22.347000
70
192
0
VERTEX
8
OBJECT__107
10
16.850000
20
8.294000
30
24.712000
70
192
0
VERTEX
8
OBJECT__107
10
16.850000
20
15.588000
30
28.923000
70
192
0
VERTEX
8
OBJECT__107
10
16.850000
20
21.000999
30
35.375000
70
192
0
VERTEX
8
OBJECT__107
10
16.850000
20
23.882000
30
43.289001
70
192
0
VERTEX
8
OBJECT__107
10
16.850000
20
23.882000
30
51.710999
70
192
0
VERTEX
8
OBJECT__107
10
16.850000
20
21.000999
30
59.625000
70
192
0
VERTEX
8
OBJECT__107
10
16.850000
20
15.588000
30
66.077003
70
192
0
VERTEX
8
OBJECT__107
10
16.850000
20
8.294000
30
70.288002
70
192
0
VERTEX
8
OBJECT__107
10
16.850000
20
0.000000
30
71.750000
70
192
0
VERTEX
8
OBJECT__107
10
16.850000
20
-8.294000
30
70.288002
70
192
0
VERTEX
8
OBJECT__107
10
16.850000
20
-15.588000
30
66.077003
70
192
0
VERTEX
8
OBJECT__107
10
16.850000
20
-21.000999
30
59.625000
70
192
0
VERTEX
8
OBJECT__107
10
16.850000
20
-23.882000
30
51.710999
70
192
0
VERTEX
8
OBJECT__107
10
16.850000
20
-23.882000
30
43.289001
70
192
0
VERTEX
8
OBJECT__107
10
16.850000
20
-21.000999
30
35.375000
70
192
0
VERTEX
8
OBJECT__107
10
16.850000
20
-15.588000
30
28.923000
70
192
0
VERTEX
8
OBJECT__107
10
16.850000
20
-8.294000
30
24.712000
70
192
0
VERTEX
8
OBJECT__107
10
16.850000
20
0.000000
30
23.250000
70
192
0
VERTEX
8
OBJECT__107
10
14.850000
20
-16.872999
30
27.391001
70
192
0
VERTEX
8
OBJECT__107
10
14.850000
20
8.978000
30
72.167000
70
192
0
VERTEX
8
OBJECT__107
10
14.850000
20
8.978000
30
22.833000
70
192
0
VERTEX
8
OBJECT__107
10
0
20
0
30
0
70
128
71
1
72
2
73
3
0
VERTEX
8
OBJECT__107
10
0
20
0
30
0
70
128
71
3
72
4
73
1
0
VERTEX
8
OBJECT__107
10
0
20
0
30
0
70
128
71
5
72
6
73
4
0
VERTEX
8
OBJECT__107
10
0
20
0
30
0
70
128
71
7
72
6
73
8
0
VERTEX
8
OBJECT__107
10
0
20
0
30
0
70
128
71
6
72
5
73
8
0
VERTEX
8
OBJECT__107
10
0
20
0
30
0
70
128
71
9
72
7
73
10
0
VERTEX
8
OBJECT__107
10
0
20
0
30
0
70
128
71
7
72
11
73
10
0
VERTEX
8
OBJECT__107
10
0
20
0
30
0
70
128
71
9
72
12
73
13
0
VERTEX
8
OBJECT__107
10
0
20
0
30
0
70
128
71
13
72
14
73
9
0
VERTEX
8
OBJECT__107
10
0
20
0
30
0
70
128
71
15
72
16
73
17
0
VERTEX
8
OBJECT__107
10
0
20
0
30
0
70
128
71
18
72
17
73
19
0
VERTEX
8
OBJECT__107
10
0
20
0
30
0
70
128
71
17
72
16
73
19
0
VERTEX
8
OBJECT__107
10
0
20
0
30
0
70
128
71
18
72
20
73
21
0
VERTEX
8
OBJECT__107
10
0
20
0
30
0
70
128
71
21
72
22
73
18
0
VERTEX
8
OBJECT__107
10
0
20
0
30
0
70
128
71
23
72
24
73
22
0
VERTEX
8
OBJECT__107
10
0
20
0
30
0
70
128
71
23
72
25
73
26
0
VERTEX
8
OBJECT__107
10
0
20
0
30
0
70
128
71
27
72
26
73
28
0
VERTEX
8
OBJECT__107
10
0
20
0
30
0
70
128
71
26
72
25
73
28
0
VERTEX
8
OBJECT__107
10
0
20
0
30
0
70
128
71
27
72
29
73
30
0
VERTEX
8
OBJECT__107
10
0
20
0
30
0
70
128
71
30
72
31
73
27
0
VERTEX
8
OBJECT__107
10
0
20
0
30
0
70
128
71
32
72
33
73
34
0
VERTEX
8
OBJECT__107
10
0
20
0
30
0
70
128
71
35
72
34
73
36
0
VERTEX
8
OBJECT__107
10
0
20
0
30
0
70
128
71
34
72
33
73
36
0
VERTEX
8
OBJECT__107
10
0
20
0
30
0
70
128
71
35
72
37
73
38
0
VERTEX
8
OBJECT__107
10
0
20
0
30
0
70
128
71
38
72
39
73
35
0
VERTEX
8
OBJECT__107
10
0
20
0
30
0
70
128
71
39
72
40
73
41
0
VERTEX
8
OBJECT__107
10
0
20
0
30
0
70
128
71
41
72
42
73
39
0
VERTEX
8
OBJECT__107
10
0
20
0
30
0
70
128
71
43
72
44
73
42
0
VERTEX
8
OBJECT__107
10
0
20
0
30
0
70
128
71
1
72
44
73
45
0
VERTEX
8
OBJECT__107
10
0
20
0
30
0
70
128
71
44
72
43
73
45
0
VERTEX
8
OBJECT__107
10
0
20
0
30
0
70
128
71
1
72
4
73
46
0
VERTEX
8
OBJECT__107
10
0
20
0
30
0
70
128
71
4
72
6
73
47
0
VERTEX
8
OBJECT__107
10
0
20
0
30
0
70
128
71
6
72
7
73
48
0
VERTEX
8
OBJECT__107
10
0
20
0
30
0
70
128
71
7
72
9
73
49
0
VERTEX
8
OBJECT__107
10
0
20
0
30
0
70
128
71
14
72
50
73
49
0
VERTEX
8
OBJECT__107
10
0
20
0
30
0
70
128
71
17
72
51
73
50
0
VERTEX
8
OBJECT__107
10
0
20
0
30
0
70
128
71
17
72
18
73
52
0
VERTEX
8
OBJECT__107
10
0
20
0
30
0
70
128
71
18
72
22
73
53
0
VERTEX
8
OBJECT__107
10
0
20
0
30
0
70
128
71
24
72
54
73
53
0
VERTEX
8
OBJECT__107
10
0
20
0
30
0
70
128
71
26
72
55
73
54
0
VERTEX
8
OBJECT__107
10
0
20
0
30
0
70
128
71
27
72
56
73
55
0
VERTEX
8
OBJECT__107
10
0
20
0
30
0
70
128
71
31
72
57
73
56
0
VERTEX
8
OBJECT__107
10
0
20
0
30
0
70
128
71
31
72
34
73
58
0
VERTEX
8
OBJECT__107
10
0
20
0
30
0
70
128
71
34
72
35
73
59
0
VERTEX
8
OBJECT__107
10
0
20
0
30
0
70
128
71
39
72
60
73
59
0
VERTEX
8
OBJECT__107
10
0
20
0
30
0
70
128
71
42
72
61
73
60
0
VERTEX
8
OBJECT__107
10
0
20
0
30
0
70
128
71
42
72
44
73
62
0
VERTEX
8
OBJECT__107
10
0
20
0
30
0
70
128
71
1
72
63
73
62
0
VERTEX
8
OBJECT__107
10
0
20
0
30
0
70
128
71
62
72
44
73
1
0
VERTEX
8
OBJECT__107
10
0
20
0
30
0
70
128
71
62
72
61
73
42
0
VERTEX
8
OBJECT__107
10
0
20
0
30
0
70
128
71
60
72
39
73
42
0
VERTEX
8
OBJECT__107
10
0
20
0
30
0
70
128
71
59
72
35
73
39
0
VERTEX
8
OBJECT__107
10
0
20
0
30
0
70
128
71
59
72
58
73
34
0
VERTEX
8
OBJECT__107
10
0
20
0
30
0
70
128
71
58
72
57
73
31
0
VERTEX
8
OBJECT__107
10
0
20
0
30
0
70
128
71
56
72
27
73
31
0
VERTEX
8
OBJECT__107
10
0
20
0
30
0
70
128
71
55
72
26
73
27
0
VERTEX
8
OBJECT__107
10
0
20
0
30
0
70
128
71
54
72
24
73
26
0
VERTEX
8
OBJECT__107
10
0
20
0
30
0
70
128
71
53
72
22
73
24
0
VERTEX
8
OBJECT__107
10
0
20
0
30
0
70
128
71
53
72
52
73
18
0
VERTEX
8
OBJECT__107
10
0
20
0
30
0
70
128
71
52
72
51
73
17
0
VERTEX
8
OBJECT__107
10
0
20
0
30
0
70
128
71
50
72
14
73
17
0
VERTEX
8
OBJECT__107
10
0
20
0
30
0
70
128
71
49
72
9
73
14
0
VERTEX
8
OBJECT__107
10
0
20
0
30
0
70
128
71
49
72
48
73
7
0
VERTEX
8
OBJECT__107
10
0
20
0
30
0
70
128
71
48
72
47
73
6
0
VERTEX
8
OBJECT__107
10
0
20
0
30
0
70
128
71
47
72
46
73
4
0
VERTEX
8
OBJECT__107
10
0
20
0
30
0
70
128
71
46
72
63
73
1
0
VERTEX
8
OBJECT__107
10
0
20
0
30
0
70
128
71
45
72
2
73
1
0
VERTEX
8
OBJECT__107
10
0
20
0
30
0
70
128
71
42
72
64
73
43
0
VERTEX
8
OBJECT__107
10
0
20
0
30
0
70
128
71
41
72
64
73
42
0
VERTEX
8
OBJECT__107
10
0
20
0
30
0
70
128
71
38
72
40
73
39
0
VERTEX
8
OBJECT__107
10
0
20
0
30
0
70
128
71
36
72
37
73
35
0
VERTEX
8
OBJECT__107
10
0
20
0
30
0
70
128
71
34
72
31
73
32
0
VERTEX
8
OBJECT__107
10
0
20
0
30
0
70
128
71
30
72
32
73
31
0
VERTEX
8
OBJECT__107
10
0
20
0
30
0
70
128
71
28
72
29
73
27
0
VERTEX
8
OBJECT__107
10
0
20
0
30
0
70
128
71
26
72
24
73
23
0
VERTEX
8
OBJECT__107
10
0
20
0
30
0
70
128
71
22
72
65
73
23
0
VERTEX
8
OBJECT__107
10
0
20
0
30
0
70
128
71
21
72
65
73
22
0
VERTEX
8
OBJECT__107
10
0
20
0
30
0
70
128
71
19
72
20
73
18
0
VERTEX
8
OBJECT__107
10
0
20
0
30
0
70
128
71
17
72
14
73
15
0
VERTEX
8
OBJECT__107
10
0
20
0
30
0
70
128
71
13
72
15
73
14
0
VERTEX
8
OBJECT__107
10
0
20
0
30
0
70
128
71
10
72
12
73
9
0
VERTEX
8
OBJECT__107
10
0
20
0
30
0
70
128
71
8
72
11
73
7
0
VERTEX
8
OBJECT__107
10
0
20
0
30
0
70
128
71
4
72
66
73
5
0
VERTEX
8
OBJECT__107
10
0
20
0
30
0
70
128
71
3
72
66
73
4
0
SEQEND
8
OBJECT__107
0
POLYLINE
8
OBJECT__108
66
1
70
64
71
44
72
44
62
253
0
VERTEX
8
OBJECT__108
10
6.201000
20
0.000000
30
73.750000
70
192
0
VERTEX
8
OBJECT__108
10
14.850000
20
0.000000
30
73.750000
70
192
0
VERTEX
8
OBJECT__108
10
14.850000
20
8.978000
30
72.167000
70
192
0
VERTEX
8
OBJECT__108
10
6.201000
20
12.199000
30
70.742996
70
192
0
VERTEX
8
OBJECT__108
10
6.201000
20
21.603001
30
62.411999
70
192
0
VERTEX
8
OBJECT__108
10
14.850000
20
16.872999
30
67.609001
70
192
0
VERTEX
8
OBJECT__108
10
14.850000
20
12.010000
30
70.416000
70
192
0
VERTEX
8
OBJECT__108
10
6.201000
20
26.059000
30
50.664001
70
192
0
VERTEX
8
OBJECT__108
10
14.850000
20
22.733000
30
60.625000
70
192
0
VERTEX
8
OBJECT__108
10
14.850000
20
25.851000
30
52.057999
70
192
0
VERTEX
8
OBJECT__108
10
14.850000
20
21.386999
30
62.230000
70
192
0
VERTEX
8
OBJECT__108
10
14.850000
20
25.851000
30
50.664001
70
192
0
VERTEX
8
OBJECT__108
10
14.850000
20
25.851000
30
42.942001
70
192
0
VERTEX
8
OBJECT__108
10
6.201000
20
24.544001
30
38.192001
70
192
0
VERTEX
8
OBJECT__108
10
6.201000
20
17.407000
30
27.851999
70
192
0
VERTEX
8
OBJECT__108
10
14.850000
20
22.733000
30
34.375000
70
192
0
VERTEX
8
OBJECT__108
10
14.850000
20
24.172001
30
38.327000
70
192
0
VERTEX
8
OBJECT__108
10
14.850000
20
16.872999
30
27.391001
70
192
0
VERTEX
8
OBJECT__108
10
14.850000
20
8.978000
30
22.833000
70
192
0
VERTEX
8
OBJECT__108
10
6.201000
20
6.282000
30
22.013000
70
192
0
VERTEX
8
OBJECT__108
10
14.850000
20
17.320000
30
27.924000
70
192
0
VERTEX
8
OBJECT__108
10
6.201000
20
0.000000
30
21.250000
70
192
0
VERTEX
8
OBJECT__108
10
14.850000
20
0.000000
30
21.250000
70
192
0
VERTEX
8
OBJECT__108
10
14.850000
20
-6.223000
30
22.347000
70
192
0
VERTEX
8
OBJECT__108
10
14.850000
20
6.223000
30
22.347000
70
192
0
VERTEX
8
OBJECT__108
10
6.201000
20
-17.407000
30
27.851999
70
192
0
VERTEX
8
OBJECT__108
10
6.201000
20
-6.282000
30
22.013000
70
192
0
VERTEX
8
OBJECT__108
10
14.850000
20
-8.978000
30
22.833000
70
192
0
VERTEX
8
OBJECT__108
10
14.850000
20
-16.872999
30
27.391001
70
192
0
VERTEX
8
OBJECT__108
10
14.850000
20
-17.320000
30
27.924000
70
192
0
VERTEX
8
OBJECT__108
10
14.850000
20
-22.733000
30
34.375000
70
192
0
VERTEX
8
OBJECT__108
10
6.201000
20
-24.544001
30
38.192001
70
192
0
VERTEX
8
OBJECT__108
10
6.201000
20
-26.059000
30
50.664001
70
192
0
VERTEX
8
OBJECT__108
10
14.850000
20
-25.851000
30
42.942001
70
192
0
VERTEX
8
OBJECT__108
10
14.850000
20
-24.172001
30
38.327000
70
192
0
VERTEX
8
OBJECT__108
10
14.850000
20
-25.851000
30
52.057999
70
192
0
VERTEX
8
OBJECT__108
10
14.850000
20
-22.733000
30
60.625000
70
192
0
VERTEX
8
OBJECT__108
10
6.201000
20
-21.603001
30
62.411999
70
192
0
VERTEX
8
OBJECT__108
10
14.850000
20
-25.851000
30
50.664001
70
192
0
VERTEX
8
OBJECT__108
10
14.850000
20
-21.386999
30
62.230000
70
192
0
VERTEX
8
OBJECT__108
10
14.850000
20
-16.872999
30
67.609001
70
192
0
VERTEX
8
OBJECT__108
10
6.201000
20
-12.199000
30
70.742996
70
192
0
VERTEX
8
OBJECT__108
10
14.850000
20
-8.978000
30
72.167000
70
192
0
VERTEX
8
OBJECT__108
10
14.850000
20
-12.010000
30
70.416000
70
192
0
VERTEX
8
OBJECT__108
10
0
20
0
30
0
70
128
71
1
72
2
73
3
0
VERTEX
8
OBJECT__108
10
0
20
0
30
0
70
128
71
3
72
4
73
1
0
VERTEX
8
OBJECT__108
10
0
20
0
30
0
70
128
71
5
72
4
73
6
0
VERTEX
8
OBJECT__108
10
0
20
0
30
0
70
128
71
4
72
7
73
6
0
VERTEX
8
OBJECT__108
10
0
20
0
30
0
70
128
71
8
72
5
73
9
0
VERTEX
8
OBJECT__108
10
0
20
0
30
0
70
128
71
9
72
10
73
8
0
VERTEX
8
OBJECT__108
10
0
20
0
30
0
70
128
71
5
72
11
73
9
0
VERTEX
8
OBJECT__108
10
0
20
0
30
0
70
128
71
8
72
12
73
13
0
VERTEX
8
OBJECT__108
10
0
20
0
30
0
70
128
71
13
72
14
73
8
0
VERTEX
8
OBJECT__108
10
0
20
0
30
0
70
128
71
15
72
14
73
16
0
VERTEX
8
OBJECT__108
10
0
20
0
30
0
70
128
71
14
72
17
73
16
0
VERTEX
8
OBJECT__108
10
0
20
0
30
0
70
128
71
15
72
18
73
19
0
VERTEX
8
OBJECT__108
10
0
20
0
30
0
70
128
71
19
72
20
73
15
0
VERTEX
8
OBJECT__108
10
0
20
0
30
0
70
128
71
15
72
21
73
18
0
VERTEX
8
OBJECT__108
10
0
20
0
30
0
70
128
71
22
72
23
73
24
0
VERTEX
8
OBJECT__108
10
0
20
0
30
0
70
128
71
22
72
20
73
25
0
VERTEX
8
OBJECT__108
10
0
20
0
30
0
70
128
71
25
72
23
73
22
0
VERTEX
8
OBJECT__108
10
0
20
0
30
0
70
128
71
26
72
27
73
28
0
VERTEX
8
OBJECT__108
10
0
20
0
30
0
70
128
71
28
72
29
73
26
0
VERTEX
8
OBJECT__108
10
0
20
0
30
0
70
128
71
27
72
24
73
28
0
VERTEX
8
OBJECT__108
10
0
20
0
30
0
70
128
71
26
72
30
73
31
0
VERTEX
8
OBJECT__108
10
0
20
0
30
0
70
128
71
31
72
32
73
26
0
VERTEX
8
OBJECT__108
10
0
20
0
30
0
70
128
71
33
72
32
73
34
0
VERTEX
8
OBJECT__108
10
0
20
0
30
0
70
128
71
32
72
35
73
34
0
VERTEX
8
OBJECT__108
10
0
20
0
30
0
70
128
71
33
72
36
73
37
0
VERTEX
8
OBJECT__108
10
0
20
0
30
0
70
128
71
37
72
38
73
33
0
VERTEX
8
OBJECT__108
10
0
20
0
30
0
70
128
71
33
72
39
73
36
0
VERTEX
8
OBJECT__108
10
0
20
0
30
0
70
128
71
38
72
40
73
41
0
VERTEX
8
OBJECT__108
10
0
20
0
30
0
70
128
71
41
72
42
73
38
0
VERTEX
8
OBJECT__108
10
0
20
0
30
0
70
128
71
1
72
42
73
43
0
VERTEX
8
OBJECT__108
10
0
20
0
30
0
70
128
71
42
72
44
73
43
0
VERTEX
8
OBJECT__108
10
0
20
0
30
0
70
128
71
43
72
2
73
1
0
VERTEX
8
OBJECT__108
10
0
20
0
30
0
70
128
71
41
72
44
73
42
0
VERTEX
8
OBJECT__108
10
0
20
0
30
0
70
128
71
37
72
40
73
38
0
VERTEX
8
OBJECT__108
10
0
20
0
30
0
70
128
71
34
72
39
73
33
0
VERTEX
8
OBJECT__108
10
0
20
0
30
0
70
128
71
31
72
35
73
32
0
VERTEX
8
OBJECT__108
10
0
20
0
30
0
70
128
71
29
72
30
73
26
0
VERTEX
8
OBJECT__108
10
0
20
0
30
0
70
128
71
24
72
27
73
22
0
VERTEX
8
OBJECT__108
10
0
20
0
30
0
70
128
71
19
72
25
73
20
0
VERTEX
8
OBJECT__108
10
0
20
0
30
0
70
128
71
16
72
21
73
15
0
VERTEX
8
OBJECT__108
10
0
20
0
30
0
70
128
71
13
72
17
73
14
0
VERTEX
8
OBJECT__108
10
0
20
0
30
0
70
128
71
10
72
12
73
8
0
VERTEX
8
OBJECT__108
10
0
20
0
30
0
70
128
71
6
72
11
73
5
0
VERTEX
8
OBJECT__108
10
0
20
0
30
0
70
128
71
3
72
7
73
4
0
SEQEND
8
OBJECT__108
0
POLYLINE
8
OBJECT__109
66
1
70
64
71
25
72
23
62
253
0
VERTEX
8
OBJECT__109
10
0.000000
20
-103.139999
30
19.674999
70
192
0
VERTEX
8
OBJECT__109
10
0.000000
20
-61.716999
30
84.946999
70
192
0
VERTEX
8
OBJECT__109
10
0.000000
20
-38.653000
30
97.626999
70
192
0
VERTEX
8
OBJECT__109
10
0.000000
20
-95.007004
30
44.707001
70
192
0
VERTEX
8
OBJECT__109
10
0.000000
20
-80.903999
30
66.930000
70
192
0
VERTEX
8
OBJECT__109
10
0.000000
20
95.007004
30
44.707001
70
192
0
VERTEX
8
OBJECT__109
10
0.000000
20
99.861000
30
-32.446999
70
192
0
VERTEX
8
OBJECT__109
10
0.000000
20
88.653999
30
-56.262001
70
192
0
VERTEX
8
OBJECT__109
10
0.000000
20
103.139999
30
19.674999
70
192
0
VERTEX
8
OBJECT__109
10
0.000000
20
-13.160000
30
104.171997
70
192
0
VERTEX
8
OBJECT__109
10
0.000000
20
-99.861000
30
-32.446999
70
192
0
VERTEX
8
OBJECT__109
10
0.000000
20
-104.792999
30
-6.593000
70
192
0
VERTEX
8
OBJECT__109
10
0.000000
20
104.792999
30
-6.593000
70
192
0
VERTEX
8
OBJECT__109
10
0.000000
20
71.876999
30
-76.542000
70
192
0
VERTEX
8
OBJECT__109
10
0.000000
20
61.716999
30
84.946999
70
192
0
VERTEX
8
OBJECT__109
10
0.000000
20
80.903999
30
66.930000
70
192
0
VERTEX
8
OBJECT__109
10
0.000000
20
13.160000
30
104.171997
70
192
0
VERTEX
8
OBJECT__109
10
0.000000
20
38.653000
30
97.626999
70
192
0
VERTEX
8
OBJECT__109
10
0.000000
20
-71.876999
30
-76.542000
70
192
0
VERTEX
8
OBJECT__109
10
0.000000
20
-88.653999
30
-56.262001
70
192
0
VERTEX
8
OBJECT__109
10
0.000000
20
50.584000
30
-92.012001
70
192
0
VERTEX
8
OBJECT__109
10
0.000000
20
-26.112000
30
-101.700996
70
192
0
VERTEX
8
OBJECT__109
10
0.000000
20
-50.584000
30
-92.012001
70
192
0
VERTEX
8
OBJECT__109
10
0.000000
20
26.112000
30
-101.700996
70
192
0
VERTEX
8
OBJECT__109
10
0.000000
20
0.000000
30
-105.000000
70
192
0
VERTEX
8
OBJECT__109
10
0
20
0
30
0
70
128
71
1
72
2
73
3
0
VERTEX
8
OBJECT__109
10
0
20
0
30
0
70
128
71
1
72
4
73
5
0
VERTEX
8
OBJECT__109
10
0
20
0
30
0
70
128
71
6
72
7
73
8
0
VERTEX
8
OBJECT__109
10
0
20
0
30
0
70
128
71
7
72
6
73
9
0
VERTEX
8
OBJECT__109
10
0
20
0
30
0
70
128
71
5
72
2
73
1
0
VERTEX
8
OBJECT__109
10
0
20
0
30
0
70
128
71
10
72
11
73
12
0
VERTEX
8
OBJECT__109
10
0
20
0
30
0
70
128
71
9
72
13
73
7
0
VERTEX
8
OBJECT__109
10
0
20
0
30
0
70
128
71
14
72
15
73
16
0
VERTEX
8
OBJECT__109
10
0
20
0
30
0
70
128
71
11
72
10
73
17
0
VERTEX
8
OBJECT__109
10
0
20
0
30
0
70
128
71
12
72
1
73
10
0
VERTEX
8
OBJECT__109
10
0
20
0
30
0
70
128
71
16
72
6
73
14
0
VERTEX
8
OBJECT__109
10
0
20
0
30
0
70
128
71
3
72
10
73
1
0
VERTEX
8
OBJECT__109
10
0
20
0
30
0
70
128
71
18
72
19
73
20
0
VERTEX
8
OBJECT__109
10
0
20
0
30
0
70
128
71
18
72
14
73
21
0
VERTEX
8
OBJECT__109
10
0
20
0
30
0
70
128
71
14
72
18
73
15
0
VERTEX
8
OBJECT__109
10
0
20
0
30
0
70
128
71
20
72
11
73
18
0
VERTEX
8
OBJECT__109
10
0
20
0
30
0
70
128
71
18
72
22
73
23
0
VERTEX
8
OBJECT__109
10
0
20
0
30
0
70
128
71
18
72
24
73
25
0
VERTEX
8
OBJECT__109
10
0
20
0
30
0
70
128
71
8
72
14
73
6
0
VERTEX
8
OBJECT__109
10
0
20
0
30
0
70
128
71
23
72
19
73
18
0
VERTEX
8
OBJECT__109
10
0
20
0
30
0
70
128
71
21
72
24
73
18
0
VERTEX
8
OBJECT__109
10
0
20
0
30
0
70
128
71
25
72
22
73
18
0
VERTEX
8
OBJECT__109
10
0
20
0
30
0
70
128
71
17
72
18
73
11
0
SEQEND
8
OBJECT__109
0
POLYLINE
8
OBJECT__110
66
1
70
64
71
50
72
50
62
253
0
VERTEX
8
OBJECT__110
10
13.700000
20
-26.112000
30
-101.700996
70
192
0
VERTEX
8
OBJECT__110
10
0.000000
20
-26.112000
30
-101.700996
70
192
0
VERTEX
8
OBJECT__110
10
0.000000
20
0.000000
30
-105.000000
70
192
0
VERTEX
8
OBJECT__110
10
13.700000
20
-50.584000
30
-92.012001
70
192
0
VERTEX
8
OBJECT__110
10
13.700000
20
-71.876999
30
-76.542000
70
192
0
VERTEX
8
OBJECT__110
10
0.000000
20
-71.876999
30
-76.542000
70
192
0
VERTEX
8
OBJECT__110
10
0.000000
20
-50.584000
30
-92.012001
70
192
0
VERTEX
8
OBJECT__110
10
13.700000
20
-88.653999
30
-56.262001
70
192
0
VERTEX
8
OBJECT__110
10
0.000000
20
-88.653999
30
-56.262001
70
192
0
VERTEX
8
OBJECT__110
10
13.700000
20
-99.861000
30
-32.446999
70
192
0
VERTEX
8
OBJECT__110
10
0.000000
20
-99.861000
30
-32.446999
70
192
0
VERTEX
8
OBJECT__110
10
13.700000
20
-104.792999
30
-6.593000
70
192
0
VERTEX
8
OBJECT__110
10
0.000000
20
-104.792999
30
-6.593000
70
192
0
VERTEX
8
OBJECT__110
10
13.700000
20
-103.139999
30
19.674999
70
192
0
VERTEX
8
OBJECT__110
10
0.000000
20
-103.139999
30
19.674999
70
192
0
VERTEX
8
OBJECT__110
10
0.000000
20
-95.007004
30
44.707001
70
192
0
VERTEX
8
OBJECT__110
10
0.000000
20
-80.903999
30
66.930000
70
192
0
VERTEX
8
OBJECT__110
10
13.700000
20
-95.007004
30
44.707001
70
192
0
VERTEX
8
OBJECT__110
10
0.000000
20
-61.716999
30
84.946999
70
192
0
VERTEX
8
OBJECT__110
10
13.700000
20
-80.903999
30
66.930000
70
192
0
VERTEX
8
OBJECT__110
10
0.000000
20
-38.653000
30
97.626999
70
192
0
VERTEX
8
OBJECT__110
10
13.700000
20
-61.716999
30
84.946999
70
192
0
VERTEX
8
OBJECT__110
10
0.000000
20
-13.160000
30
104.171997
70
192
0
VERTEX
8
OBJECT__110
10
13.700000
20
-38.653000
30
97.626999
70
192
0
VERTEX
8
OBJECT__110
10
13.700000
20
13.160000
30
104.171997
70
192
0
VERTEX
8
OBJECT__110
10
0.000000
20
13.160000
30
104.171997
70
192
0
VERTEX
8
OBJECT__110
10
13.700000
20
38.653000
30
97.626999
70
192
0
VERTEX
8
OBJECT__110
10
0.000000
20
38.653000
30
97.626999
70
192
0
VERTEX
8
OBJECT__110
10
0.000000
20
61.716999
30
84.946999
70
192
0
VERTEX
8
OBJECT__110
10
0.000000
20
80.903999
30
66.930000
70
192
0
VERTEX
8
OBJECT__110
10
13.700000
20
61.716999
30
84.946999
70
192
0
VERTEX
8
OBJECT__110
10
0.000000
20
95.007004
30
44.707001
70
192
0
VERTEX
8
OBJECT__110
10
13.700000
20
80.903999
30
66.930000
70
192
0
VERTEX
8
OBJECT__110
10
0.000000
20
103.139999
30
19.674999
70
192
0
VERTEX
8
OBJECT__110
10
13.700000
20
95.007004
30
44.707001
70
192
0
VERTEX
8
OBJECT__110
10
0.000000
20
104.792999
30
-6.593000
70
192
0
VERTEX
8
OBJECT__110
10
13.700000
20
103.139999
30
19.674999
70
192
0
VERTEX
8
OBJECT__110
10
13.700000
20
99.861000
30
-32.446999
70
192
0
VERTEX
8
OBJECT__110
10
0.000000
20
99.861000
30
-32.446999
70
192
0
VERTEX
8
OBJECT__110
10
13.700000
20
88.653999
30
-56.262001
70
192
0
VERTEX
8
OBJECT__110
10
0.000000
20
88.653999
30
-56.262001
70
192
0
VERTEX
8
OBJECT__110
10
13.700000
20
71.876999
30
-76.542000
70
192
0
VERTEX
8
OBJECT__110
10
0.000000
20
71.876999
30
-76.542000
70
192
0
VERTEX
8
OBJECT__110
10
13.700000
20
50.584000
30
-92.012001
70
192
0
VERTEX
8
OBJECT__110
10
0.000000
20
50.584000
30
-92.012001
70
192
0
VERTEX
8
OBJECT__110
10
13.700000
20
26.112000
30
-101.700996
70
192
0
VERTEX
8
OBJECT__110
10
0.000000
20
26.112000
30
-101.700996
70
192
0
VERTEX
8
OBJECT__110
10
13.700000
20
0.000000
30
-105.000000
70
192
0
VERTEX
8
OBJECT__110
10
13.700000
20
104.792999
30
-6.593000
70
192
0
VERTEX
8
OBJECT__110
10
13.700000
20
-13.160000
30
104.171997
70
192
0
VERTEX
8
OBJECT__110
10
0
20
0
30
0
70
128
71
1
72
2
73
3
0
VERTEX
8
OBJECT__110
10
0
20
0
30
0
70
128
71
2
72
1
73
4
0
VERTEX
8
OBJECT__110
10
0
20
0
30
0
70
128
71
5
72
6
73
7
0
VERTEX
8
OBJECT__110
10
0
20
0
30
0
70
128
71
8
72
9
73
6
0
VERTEX
8
OBJECT__110
10
0
20
0
30
0
70
128
71
10
72
11
73
9
0
VERTEX
8
OBJECT__110
10
0
20
0
30
0
70
128
71
12
72
13
73
11
0
VERTEX
8
OBJECT__110
10
0
20
0
30
0
70
128
71
14
72
15
73
13
0
VERTEX
8
OBJECT__110
10
0
20
0
30
0
70
128
71
16
72
15
73
14
0
VERTEX
8
OBJECT__110
10
0
20
0
30
0
70
128
71
17
72
16
73
18
0
VERTEX
8
OBJECT__110
10
0
20
0
30
0
70
128
71
19
72
17
73
20
0
VERTEX
8
OBJECT__110
10
0
20
0
30
0
70
128
71
21
72
19
73
22
0
VERTEX
8
OBJECT__110
10
0
20
0
30
0
70
128
71
23
72
21
73
24
0
VERTEX
8
OBJECT__110
10
0
20
0
30
0
70
128
71
25
72
26
73
23
0
VERTEX
8
OBJECT__110
10
0
20
0
30
0
70
128
71
25
72
27
73
28
0
VERTEX
8
OBJECT__110
10
0
20
0
30
0
70
128
71
29
72
28
73
27
0
VERTEX
8
OBJECT__110
10
0
20
0
30
0
70
128
71
30
72
29
73
31
0
VERTEX
8
OBJECT__110
10
0
20
0
30
0
70
128
71
32
72
30
73
33
0
VERTEX
8
OBJECT__110
10
0
20
0
30
0
70
128
71
34
72
32
73
35
0
VERTEX
8
OBJECT__110
10
0
20
0
30
0
70
128
71
36
72
34
73
37
0
VERTEX
8
OBJECT__110
10
0
20
0
30
0
70
128
71
38
72
39
73
36
0
VERTEX
8
OBJECT__110
10
0
20
0
30
0
70
128
71
40
72
41
73
39
0
VERTEX
8
OBJECT__110
10
0
20
0
30
0
70
128
71
42
72
43
73
41
0
VERTEX
8
OBJECT__110
10
0
20
0
30
0
70
128
71
44
72
45
73
43
0
VERTEX
8
OBJECT__110
10
0
20
0
30
0
70
128
71
46
72
47
73
45
0
VERTEX
8
OBJECT__110
10
0
20
0
30
0
70
128
71
48
72
3
73
47
0
VERTEX
8
OBJECT__110
10
0
20
0
30
0
70
128
71
47
72
46
73
48
0
VERTEX
8
OBJECT__110
10
0
20
0
30
0
70
128
71
45
72
44
73
46
0
VERTEX
8
OBJECT__110
10
0
20
0
30
0
70
128
71
43
72
42
73
44
0
VERTEX
8
OBJECT__110
10
0
20
0
30
0
70
128
71
41
72
40
73
42
0
VERTEX
8
OBJECT__110
10
0
20
0
30
0
70
128
71
39
72
38
73
40
0
VERTEX
8
OBJECT__110
10
0
20
0
30
0
70
128
71
36
72
49
73
38
0
VERTEX
8
OBJECT__110
10
0
20
0
30
0
70
128
71
37
72
49
73
36
0
VERTEX
8
OBJECT__110
10
0
20
0
30
0
70
128
71
35
72
37
73
34
0
VERTEX
8
OBJECT__110
10
0
20
0
30
0
70
128
71
33
72
35
73
32
0
VERTEX
8
OBJECT__110
10
0
20
0
30
0
70
128
71
31
72
33
73
30
0
VERTEX
8
OBJECT__110
10
0
20
0
30
0
70
128
71
27
72
31
73
29
0
VERTEX
8
OBJECT__110
10
0
20
0
30
0
70
128
71
28
72
26
73
25
0
VERTEX
8
OBJECT__110
10
0
20
0
30
0
70
128
71
23
72
50
73
25
0
VERTEX
8
OBJECT__110
10
0
20
0
30
0
70
128
71
24
72
50
73
23
0
VERTEX
8
OBJECT__110
10
0
20
0
30
0
70
128
71
22
72
24
73
21
0
VERTEX
8
OBJECT__110
10
0
20
0
30
0
70
128
71
20
72
22
73
19
0
VERTEX
8
OBJECT__110
10
0
20
0
30
0
70
128
71
18
72
20
73
17
0
VERTEX
8
OBJECT__110
10
0
20
0
30
0
70
128
71
14
72
18
73
16
0
VERTEX
8
OBJECT__110
10
0
20
0
30
0
70
128
71
13
72
12
73
14
0
VERTEX
8
OBJECT__110
10
0
20
0
30
0
70
128
71
11
72
10
73
12
0
VERTEX
8
OBJECT__110
10
0
20
0
30
0
70
128
71
9
72
8
73
10
0
VERTEX
8
OBJECT__110
10
0
20
0
30
0
70
128
71
6
72
5
73
8
0
VERTEX
8
OBJECT__110
10
0
20
0
30
0
70
128
71
7
72
4
73
5
0
VERTEX
8
OBJECT__110
10
0
20
0
30
0
70
128
71
4
72
7
73
2
0
VERTEX
8
OBJECT__110
10
0
20
0
30
0
70
128
71
3
72
48
73
1
0
SEQEND
8
OBJECT__110
0
POLYLINE
8
OBJECT__112
66
1
70
64
71
52
72
54
62
253
0
VERTEX
8
OBJECT__112
10
13.700000
20
-61.716999
30
84.946999
70
192
0
VERTEX
8
OBJECT__112
10
13.700000
20
-25.011999
30
56.986000
70
192
0
VERTEX
8
OBJECT__112
10
13.700000
20
-17.739000
30
67.523003
70
192
0
VERTEX
8
OBJECT__112
10
13.700000
20
61.716999
30
84.946999
70
192
0
VERTEX
8
OBJECT__112
10
13.700000
20
38.653000
30
97.626999
70
192
0
VERTEX
8
OBJECT__112
10
13.700000
20
17.739000
30
67.523003
70
192
0
VERTEX
8
OBJECT__112
10
13.700000
20
-38.653000
30
97.626999
70
192
0
VERTEX
8
OBJECT__112
10
13.700000
20
-6.402000
30
73.473000
70
192
0
VERTEX
8
OBJECT__112
10
13.700000
20
-22.014999
30
32.304001
70
192
0
VERTEX
8
OBJECT__112
10
13.700000
20
-103.139999
30
19.674999
70
192
0
VERTEX
8
OBJECT__112
10
13.700000
20
-104.792999
30
-6.593000
70
192
0
VERTEX
8
OBJECT__112
10
13.700000
20
-26.555000
30
44.276001
70
192
0
VERTEX
8
OBJECT__112
10
13.700000
20
-99.861000
30
-32.446999
70
192
0
VERTEX
8
OBJECT__112
10
13.700000
20
-25.011999
30
-28.014000
70
192
0
VERTEX
8
OBJECT__112
10
13.700000
20
-12.431000
30
23.813999
70
192
0
VERTEX
8
OBJECT__112
10
13.700000
20
-88.653999
30
-56.262001
70
192
0
VERTEX
8
OBJECT__112
10
13.700000
20
-26.555000
30
-40.723999
70
192
0
VERTEX
8
OBJECT__112
10
13.700000
20
26.555000
30
44.276001
70
192
0
VERTEX
8
OBJECT__112
10
13.700000
20
95.007004
30
44.707001
70
192
0
VERTEX
8
OBJECT__112
10
13.700000
20
80.903999
30
66.930000
70
192
0
VERTEX
8
OBJECT__112
10
13.700000
20
25.011999
30
56.986000
70
192
0
VERTEX
8
OBJECT__112
10
13.700000
20
13.160000
30
104.171997
70
192
0
VERTEX
8
OBJECT__112
10
13.700000
20
6.402000
30
73.473000
70
192
0
VERTEX
8
OBJECT__112
10
13.700000
20
-13.160000
30
104.171997
70
192
0
VERTEX
8
OBJECT__112
10
13.700000
20
-80.903999
30
66.930000
70
192
0
VERTEX
8
OBJECT__112
10
13.700000
20
-95.007004
30
44.707001
70
192
0
VERTEX
8
OBJECT__112
10
13.700000
20
6.402000
30
-11.527000
70
192
0
VERTEX
8
OBJECT__112
10
13.700000
20
12.431000
30
23.813999
70
192
0
VERTEX
8
OBJECT__112
10
13.700000
20
0.000000
30
20.750000
70
192
0
VERTEX
8
OBJECT__112
10
13.700000
20
-6.402000
30
-11.527000
70
192
0
VERTEX
8
OBJECT__112
10
13.700000
20
0.000000
30
-10.750000
70
192
0
VERTEX
8
OBJECT__112
10
13.700000
20
99.861000
30
-32.446999
70
192
0
VERTEX
8
OBJECT__112
10
13.700000
20
25.011999
30
-28.014000
70
192
0
VERTEX
8
OBJECT__112
10
13.700000
20
26.555000
30
-40.723999
70
192
0
VERTEX
8
OBJECT__112
10
13.700000
20
22.014999
30
32.304001
70
192
0
VERTEX
8
OBJECT__112
10
13.700000
20
103.139999
30
19.674999
70
192
0
VERTEX
8
OBJECT__112
10
13.700000
20
-17.739000
30
-17.476999
70
192
0
VERTEX
8
OBJECT__112
10
13.700000
20
17.739000
30
-17.476999
70
192
0
VERTEX
8
OBJECT__112
10
13.700000
20
104.792999
30
-6.593000
70
192
0
VERTEX
8
OBJECT__112
10
13.700000
20
-50.584000
30
-92.012001
70
192
0
VERTEX
8
OBJECT__112
10
13.700000
20
-26.112000
30
-101.700996
70
192
0
VERTEX
8
OBJECT__112
10
13.700000
20
-12.431000
30
-61.186001
70
192
0
VERTEX
8
OBJECT__112
10
13.700000
20
88.653999
30
-56.262001
70
192
0
VERTEX
8
OBJECT__112
10
13.700000
20
-22.014999
30
-52.695999
70
192
0
VERTEX
8
OBJECT__112
10
13.700000
20
-71.876999
30
-76.542000
70
192
0
VERTEX
8
OBJECT__112
10
13.700000
20
0.000000
30
-105.000000
70
192
0
VERTEX
8
OBJECT__112
10
13.700000
20
0.000000
30
-64.250000
70
192
0
VERTEX
8
OBJECT__112
10
13.700000
20
50.584000
30
-92.012001
70
192
0
VERTEX
8
OBJECT__112
10
13.700000
20
22.014999
30
-52.695999
70
192
0
VERTEX
8
OBJECT__112
10
13.700000
20
12.431000
30
-61.186001
70
192
0
VERTEX
8
OBJECT__112
10
13.700000
20
26.112000
30
-101.700996
70
192
0
VERTEX
8
OBJECT__112
10
13.700000
20
71.876999
30
-76.542000
70
192
0
VERTEX
8
OBJECT__112
10
0
20
0
30
0
70
128
71
1
72
2
73
3
0
VERTEX
8
OBJECT__112
10
0
20
0
30
0
70
128
71
4
72
5
73
6
0
VERTEX
8
OBJECT__112
10
0
20
0
30
0
70
128
71
7
72
3
73
8
0
VERTEX
8
OBJECT__112
10
0
20
0
30
0
70
128
71
3
72
7
73
1
0
VERTEX
8
OBJECT__112
10
0
20
0
30
0
70
128
71
9
72
10
73
11
0
VERTEX
8
OBJECT__112
10
0
20
0
30
0
70
128
71
10
72
9
73
12
0
VERTEX
8
OBJECT__112
10
0
20
0
30
0
70
128
71
13
72
14
73
15
0
VERTEX
8
OBJECT__112
10
0
20
0
30
0
70
128
71
13
72
16
73
17
0
VERTEX
8
OBJECT__112
10
0
20
0
30
0
70
128
71
18
72
19
73
20
0
VERTEX
8
OBJECT__112
10
0
20
0
30
0
70
128
71
21
72
20
73
4
0
VERTEX
8
OBJECT__112
10
0
20
0
30
0
70
128
71
5
72
22
73
23
0
VERTEX
8
OBJECT__112
10
0
20
0
30
0
70
128
71
22
72
24
73
8
0
VERTEX
8
OBJECT__112
10
0
20
0
30
0
70
128
71
1
72
25
73
2
0
VERTEX
8
OBJECT__112
10
0
20
0
30
0
70
128
71
12
72
2
73
25
0
VERTEX
8
OBJECT__112
10
0
20
0
30
0
70
128
71
12
72
26
73
10
0
VERTEX
8
OBJECT__112
10
0
20
0
30
0
70
128
71
17
72
14
73
13
0
VERTEX
8
OBJECT__112
10
0
20
0
30
0
70
128
71
27
72
28
73
29
0
VERTEX
8
OBJECT__112
10
0
20
0
30
0
70
128
71
6
72
21
73
4
0
VERTEX
8
OBJECT__112
10
0
20
0
30
0
70
128
71
8
72
23
73
22
0
VERTEX
8
OBJECT__112
10
0
20
0
30
0
70
128
71
25
72
26
73
12
0
VERTEX
8
OBJECT__112
10
0
20
0
30
0
70
128
71
15
72
9
73
13
0
VERTEX
8
OBJECT__112
10
0
20
0
30
0
70
128
71
30
72
31
73
29
0
VERTEX
8
OBJECT__112
10
0
20
0
30
0
70
128
71
29
72
31
73
27
0
VERTEX
8
OBJECT__112
10
0
20
0
30
0
70
128
71
32
72
33
73
34
0
VERTEX
8
OBJECT__112
10
0
20
0
30
0
70
128
71
32
72
35
73
28
0
VERTEX
8
OBJECT__112
10
0
20
0
30
0
70
128
71
36
72
19
73
18
0
VERTEX
8
OBJECT__112
10
0
20
0
30
0
70
128
71
23
72
6
73
5
0
VERTEX
8
OBJECT__112
10
0
20
0
30
0
70
128
71
11
72
13
73
9
0
VERTEX
8
OBJECT__112
10
0
20
0
30
0
70
128
71
15
72
37
73
30
0
VERTEX
8
OBJECT__112
10
0
20
0
30
0
70
128
71
27
72
38
73
28
0
VERTEX
8
OBJECT__112
10
0
20
0
30
0
70
128
71
28
72
33
73
32
0
VERTEX
8
OBJECT__112
10
0
20
0
30
0
70
128
71
35
72
39
73
36
0
VERTEX
8
OBJECT__112
10
0
20
0
30
0
70
128
71
40
72
41
73
42
0
VERTEX
8
OBJECT__112
10
0
20
0
30
0
70
128
71
8
72
24
73
7
0
VERTEX
8
OBJECT__112
10
0
20
0
30
0
70
128
71
15
72
14
73
37
0
VERTEX
8
OBJECT__112
10
0
20
0
30
0
70
128
71
34
72
43
73
32
0
VERTEX
8
OBJECT__112
10
0
20
0
30
0
70
128
71
35
72
32
73
39
0
VERTEX
8
OBJECT__112
10
0
20
0
30
0
70
128
71
44
72
45
73
40
0
VERTEX
8
OBJECT__112
10
0
20
0
30
0
70
128
71
41
72
46
73
47
0
VERTEX
8
OBJECT__112
10
0
20
0
30
0
70
128
71
48
72
49
73
50
0
VERTEX
8
OBJECT__112
10
0
20
0
30
0
70
128
71
29
72
15
73
30
0
VERTEX
8
OBJECT__112
10
0
20
0
30
0
70
128
71
18
72
35
73
36
0
VERTEX
8
OBJECT__112
10
0
20
0
30
0
70
128
71
17
72
16
73
45
0
VERTEX
8
OBJECT__112
10
0
20
0
30
0
70
128
71
47
72
42
73
41
0
VERTEX
8
OBJECT__112
10
0
20
0
30
0
70
128
71
51
72
50
73
47
0
VERTEX
8
OBJECT__112
10
0
20
0
30
0
70
128
71
50
72
51
73
48
0
VERTEX
8
OBJECT__112
10
0
20
0
30
0
70
128
71
38
72
33
73
28
0
VERTEX
8
OBJECT__112
10
0
20
0
30
0
70
128
71
42
72
44
73
40
0
VERTEX
8
OBJECT__112
10
0
20
0
30
0
70
128
71
48
72
52
73
49
0
VERTEX
8
OBJECT__112
10
0
20
0
30
0
70
128
71
34
72
49
73
52
0
VERTEX
8
OBJECT__112
10
0
20
0
30
0
70
128
71
45
72
44
73
17
0
VERTEX
8
OBJECT__112
10
0
20
0
30
0
70
128
71
52
72
43
73
34
0
VERTEX
8
OBJECT__112
10
0
20
0
30
0
70
128
71
47
72
46
73
51
0
VERTEX
8
OBJECT__112
10
0
20
0
30
0
70
128
71
20
72
21
73
18
0
SEQEND
8
OBJECT__112
0
POLYLINE
8
OBJECT__113
66
1
70
64
71
27
72
27
62
253
0
VERTEX
8
OBJECT__113
10
8.000000
20
12.431000
30
23.813999
70
192
0
VERTEX
8
OBJECT__113
10
8.000000
20
0.000000
30
20.750000
70
192
0
VERTEX
8
OBJECT__113
10
13.700000
20
0.000000
30
20.750000
70
192
0
VERTEX
8
OBJECT__113
10
13.700000
20
12.431000
30
23.813999
70
192
0
VERTEX
8
OBJECT__113
10
13.700000
20
22.014999
30
32.304001
70
192
0
VERTEX
8
OBJECT__113
10
8.000000
20
22.014999
30
32.304001
70
192
0
VERTEX
8
OBJECT__113
10
8.000000
20
26.555000
30
44.276001
70
192
0
VERTEX
8
OBJECT__113
10
8.000000
20
25.011999
30
56.986000
70
192
0
VERTEX
8
OBJECT__113
10
13.700000
20
26.555000
30
44.276001
70
192
0
VERTEX
8
OBJECT__113
10
13.700000
20
25.011999
30
56.986000
70
192
0
VERTEX
8
OBJECT__113
10
13.700000
20
17.739000
30
67.523003
70
192
0
VERTEX
8
OBJECT__113
10
8.000000
20
17.739000
30
67.523003
70
192
0
VERTEX
8
OBJECT__113
10
8.000000
20
6.402000
30
73.473000
70
192
0
VERTEX
8
OBJECT__113
10
13.700000
20
-6.402000
30
73.473000
70
192
0
VERTEX
8
OBJECT__113
10
8.000000
20
-6.402000
30
73.473000
70
192
0
VERTEX
8
OBJECT__113
10
8.000000
20
0.000000
30
74.250000
70
192
0
VERTEX
8
OBJECT__113
10
13.700000
20
6.402000
30
73.473000
70
192
0
VERTEX
8
OBJECT__113
10
13.700000
20
-17.739000
30
67.523003
70
192
0
VERTEX
8
OBJECT__113
10
13.700000
20
-25.011999
30
56.986000
70
192
0
VERTEX
8
OBJECT__113
10
8.000000
20
-25.011999
30
56.986000
70
192
0
VERTEX
8
OBJECT__113
10
8.000000
20
-17.739000
30
67.523003
70
192
0
VERTEX
8
OBJECT__113
10
13.700000
20
-26.555000
30
44.276001
70
192
0
VERTEX
8
OBJECT__113
10
8.000000
20
-26.555000
30
44.276001
70
192
0
VERTEX
8
OBJECT__113
10
13.700000
20
-22.014999
30
32.304001
70
192
0
VERTEX
8
OBJECT__113
10
8.000000
20
-22.014999
30
32.304001
70
192
0
VERTEX
8
OBJECT__113
10
13.700000
20
-12.431000
30
23.813999
70
192
0
VERTEX
8
OBJECT__113
10
8.000000
20
-12.431000
30
23.813999
70
192
0
VERTEX
8
OBJECT__113
10
0
20
0
30
0
70
128
71
1
72
2
73
3
0
VERTEX
8
OBJECT__113
10
0
20
0
30
0
70
128
71
4
72
5
73
6
0
VERTEX
8
OBJECT__113
10
0
20
0
30
0
70
128
71
7
72
6
73
5
0
VERTEX
8
OBJECT__113
10
0
20
0
30
0
70
128
71
8
72
7
73
9
0
VERTEX
8
OBJECT__113
10
0
20
0
30
0
70
128
71
10
72
11
73
12
0
VERTEX
8
OBJECT__113
10
0
20
0
30
0
70
128
71
13
72
12
73
11
0
VERTEX
8
OBJECT__113
10
0
20
0
30
0
70
128
71
14
72
15
73
16
0
VERTEX
8
OBJECT__113
10
0
20
0
30
0
70
128
71
16
72
17
73
14
0
VERTEX
8
OBJECT__113
10
0
20
0
30
0
70
128
71
15
72
14
73
18
0
VERTEX
8
OBJECT__113
10
0
20
0
30
0
70
128
71
19
72
20
73
21
0
VERTEX
8
OBJECT__113
10
0
20
0
30
0
70
128
71
22
72
23
73
20
0
VERTEX
8
OBJECT__113
10
0
20
0
30
0
70
128
71
24
72
25
73
23
0
VERTEX
8
OBJECT__113
10
0
20
0
30
0
70
128
71
25
72
24
73
26
0
VERTEX
8
OBJECT__113
10
0
20
0
30
0
70
128
71
3
72
2
73
27
0
VERTEX
8
OBJECT__113
10
0
20
0
30
0
70
128
71
27
72
26
73
3
0
VERTEX
8
OBJECT__113
10
0
20
0
30
0
70
128
71
26
72
27
73
25
0
VERTEX
8
OBJECT__113
10
0
20
0
30
0
70
128
71
23
72
22
73
24
0
VERTEX
8
OBJECT__113
10
0
20
0
30
0
70
128
71
20
72
19
73
22
0
VERTEX
8
OBJECT__113
10
0
20
0
30
0
70
128
71
21
72
18
73
19
0
VERTEX
8
OBJECT__113
10
0
20
0
30
0
70
128
71
18
72
21
73
15
0
VERTEX
8
OBJECT__113
10
0
20
0
30
0
70
128
71
16
72
13
73
17
0
VERTEX
8
OBJECT__113
10
0
20
0
30
0
70
128
71
11
72
17
73
13
0
VERTEX
8
OBJECT__113
10
0
20
0
30
0
70
128
71
12
72
8
73
10
0
VERTEX
8
OBJECT__113
10
0
20
0
30
0
70
128
71
9
72
10
73
8
0
VERTEX
8
OBJECT__113
10
0
20
0
30
0
70
128
71
5
72
9
73
7
0
VERTEX
8
OBJECT__113
10
0
20
0
30
0
70
128
71
6
72
1
73
4
0
VERTEX
8
OBJECT__113
10
0
20
0
30
0
70
128
71
3
72
4
73
1
0
SEQEND
8
OBJECT__113
0
POLYLINE
8
OBJECT__114
66
1
70
64
71
14
72
12
62
253
0
VERTEX
8
OBJECT__114
10
8.000000
20
-25.011999
30
56.986000
70
192
0
VERTEX
8
OBJECT__114
10
8.000000
20
-22.014999
30
32.304001
70
192
0
VERTEX
8
OBJECT__114
10
8.000000
20
-12.431000
30
23.813999
70
192
0
VERTEX
8
OBJECT__114
10
8.000000
20
0.000000
30
20.750000
70
192
0
VERTEX
8
OBJECT__114
10
8.000000
20
26.555000
30
44.276001
70
192
0
VERTEX
8
OBJECT__114
10
8.000000
20
25.011999
30
56.986000
70
192
0
VERTEX
8
OBJECT__114
10
8.000000
20
12.431000
30
23.813999
70
192
0
VERTEX
8
OBJECT__114
10
8.000000
20
22.014999
30
32.304001
70
192
0
VERTEX
8
OBJECT__114
10
8.000000
20
-26.555000
30
44.276001
70
192
0
VERTEX
8
OBJECT__114
10
8.000000
20
-6.402000
30
73.473000
70
192
0
VERTEX
8
OBJECT__114
10
8.000000
20
-17.739000
30
67.523003
70
192
0
VERTEX
8
OBJECT__114
10
8.000000
20
17.739000
30
67.523003
70
192
0
VERTEX
8
OBJECT__114
10
8.000000
20
0.000000
30
74.250000
70
192
0
VERTEX
8
OBJECT__114
10
8.000000
20
6.402000
30
73.473000
70
192
0
VERTEX
8
OBJECT__114
10
0
20
0
30
0
70
128
71
1
72
2
73
3
0
VERTEX
8
OBJECT__114
10
0
20
0
30
0
70
128
71
4
72
5
73
6
0
VERTEX
8
OBJECT__114
10
0
20
0
30
0
70
128
71
4
72
7
73
8
0
VERTEX
8
OBJECT__114
10
0
20
0
30
0
70
128
71
1
72
9
73
2
0
VERTEX
8
OBJECT__114
10
0
20
0
30
0
70
128
71
4
72
10
73
11
0
VERTEX
8
OBJECT__114
10
0
20
0
30
0
70
128
71
8
72
5
73
4
0
VERTEX
8
OBJECT__114
10
0
20
0
30
0
70
128
71
11
72
1
73
4
0
VERTEX
8
OBJECT__114
10
0
20
0
30
0
70
128
71
6
72
12
73
4
0
VERTEX
8
OBJECT__114
10
0
20
0
30
0
70
128
71
4
72
13
73
10
0
VERTEX
8
OBJECT__114
10
0
20
0
30
0
70
128
71
12
72
14
73
4
0
VERTEX
8
OBJECT__114
10
0
20
0
30
0
70
128
71
14
72
13
73
4
0
VERTEX
8
OBJECT__114
10
0
20
0
30
0
70
128
71
3
72
4
73
1
0
SEQEND
8
OBJECT__114
0
POLYLINE
8
OBJECT__115
66
1
70
64
71
28
72
28
62
253
0
VERTEX
8
OBJECT__115
10
13.700000
20
12.431000
30
-61.186001
70
192
0
VERTEX
8
OBJECT__115
10
8.000000
20
12.431000
30
-61.186001
70
192
0
VERTEX
8
OBJECT__115
10
8.000000
20
0.000000
30
-64.250000
70
192
0
VERTEX
8
OBJECT__115
10
13.700000
20
22.014999
30
-52.695999
70
192
0
VERTEX
8
OBJECT__115
10
8.000000
20
22.014999
30
-52.695999
70
192
0
VERTEX
8
OBJECT__115
10
8.000000
20
26.555000
30
-40.723999
70
192
0
VERTEX
8
OBJECT__115
10
13.700000
20
25.011999
30
-28.014000
70
192
0
VERTEX
8
OBJECT__115
10
8.000000
20
25.011999
30
-28.014000
70
192
0
VERTEX
8
OBJECT__115
10
13.700000
20
17.739000
30
-17.476999
70
192
0
VERTEX
8
OBJECT__115
10
8.000000
20
17.739000
30
-17.476999
70
192
0
VERTEX
8
OBJECT__115
10
13.700000
20
6.402000
30
-11.527000
70
192
0
VERTEX
8
OBJECT__115
10
8.000000
20
6.402000
30
-11.527000
70
192
0
VERTEX
8
OBJECT__115
10
13.700000
20
-6.402000
30
-11.527000
70
192
0
VERTEX
8
OBJECT__115
10
8.000000
20
-6.402000
30
-11.527000
70
192
0
VERTEX
8
OBJECT__115
10
8.000000
20
0.000000
30
-10.750000
70
192
0
VERTEX
8
OBJECT__115
10
13.700000
20
0.000000
30
-10.750000
70
192
0
VERTEX
8
OBJECT__115
10
13.700000
20
-17.739000
30
-17.476999
70
192
0
VERTEX
8
OBJECT__115
10
13.700000
20
-25.011999
30
-28.014000
70
192
0
VERTEX
8
OBJECT__115
10
8.000000
20
-25.011999
30
-28.014000
70
192
0
VERTEX
8
OBJECT__115
10
8.000000
20
-17.739000
30
-17.476999
70
192
0
VERTEX
8
OBJECT__115
10
13.700000
20
-26.555000
30
-40.723999
70
192
0
VERTEX
8
OBJECT__115
10
8.000000
20
-26.555000
30
-40.723999
70
192
0
VERTEX
8
OBJECT__115
10
8.000000
20
-22.014999
30
-52.695999
70
192
0
VERTEX
8
OBJECT__115
10
8.000000
20
-12.431000
30
-61.186001
70
192
0
VERTEX
8
OBJECT__115
10
13.700000
20
-22.014999
30
-52.695999
70
192
0
VERTEX
8
OBJECT__115
10
13.700000
20
0.000000
30
-64.250000
70
192
0
VERTEX
8
OBJECT__115
10
13.700000
20
-12.431000
30
-61.186001
70
192
0
VERTEX
8
OBJECT__115
10
13.700000
20
26.555000
30
-40.723999
70
192
0
VERTEX
8
OBJECT__115
10
0
20
0
30
0
70
128
71
1
72
2
73
3
0
VERTEX
8
OBJECT__115
10
0
20
0
30
0
70
128
71
4
72
5
73
2
0
VERTEX
8
OBJECT__115
10
0
20
0
30
0
70
128
71
6
72
5
73
4
0
VERTEX
8
OBJECT__115
10
0
20
0
30
0
70
128
71
7
72
8
73
6
0
VERTEX
8
OBJECT__115
10
0
20
0
30
0
70
128
71
9
72
10
73
8
0
VERTEX
8
OBJECT__115
10
0
20
0
30
0
70
128
71
11
72
12
73
10
0
VERTEX
8
OBJECT__115
10
0
20
0
30
0
70
128
71
13
72
14
73
15
0
VERTEX
8
OBJECT__115
10
0
20
0
30
0
70
128
71
12
72
11
73
16
0
VERTEX
8
OBJECT__115
10
0
20
0
30
0
70
128
71
16
72
15
73
12
0
VERTEX
8
OBJECT__115
10
0
20
0
30
0
70
128
71
14
72
13
73
17
0
VERTEX
8
OBJECT__115
10
0
20
0
30
0
70
128
71
18
72
19
73
20
0
VERTEX
8
OBJECT__115
10
0
20
0
30
0
70
128
71
21
72
22
73
19
0
VERTEX
8
OBJECT__115
10
0
20
0
30
0
70
128
71
23
72
22
73
21
0
VERTEX
8
OBJECT__115
10
0
20
0
30
0
70
128
71
24
72
23
73
25
0
VERTEX
8
OBJECT__115
10
0
20
0
30
0
70
128
71
26
72
3
73
24
0
VERTEX
8
OBJECT__115
10
0
20
0
30
0
70
128
71
24
72
27
73
26
0
VERTEX
8
OBJECT__115
10
0
20
0
30
0
70
128
71
25
72
27
73
24
0
VERTEX
8
OBJECT__115
10
0
20
0
30
0
70
128
71
21
72
25
73
23
0
VERTEX
8
OBJECT__115
10
0
20
0
30
0
70
128
71
19
72
18
73
21
0
VERTEX
8
OBJECT__115
10
0
20
0
30
0
70
128
71
20
72
17
73
18
0
VERTEX
8
OBJECT__115
10
0
20
0
30
0
70
128
71
17
72
20
73
14
0
VERTEX
8
OBJECT__115
10
0
20
0
30
0
70
128
71
15
72
16
73
13
0
VERTEX
8
OBJECT__115
10
0
20
0
30
0
70
128
71
10
72
9
73
11
0
VERTEX
8
OBJECT__115
10
0
20
0
30
0
70
128
71
8
72
7
73
9
0
VERTEX
8
OBJECT__115
10
0
20
0
30
0
70
128
71
6
72
28
73
7
0
VERTEX
8
OBJECT__115
10
0
20
0
30
0
70
128
71
4
72
28
73
6
0
VERTEX
8
OBJECT__115
10
0
20
0
30
0
70
128
71
2
72
1
73
4
0
VERTEX
8
OBJECT__115
10
0
20
0
30
0
70
128
71
3
72
26
73
1
0
SEQEND
8
OBJECT__115
0
POLYLINE
8
OBJECT__116
66
1
70
64
71
14
72
12
62
253
0
VERTEX
8
OBJECT__116
10
8.000000
20
-22.014999
30
-52.695999
70
192
0
VERTEX
8
OBJECT__116
10
8.000000
20
-17.739000
30
-17.476999
70
192
0
VERTEX
8
OBJECT__116
10
8.000000
20
-25.011999
30
-28.014000
70
192
0
VERTEX
8
OBJECT__116
10
8.000000
20
6.402000
30
-11.527000
70
192
0
VERTEX
8
OBJECT__116
10
8.000000
20
26.555000
30
-40.723999
70
192
0
VERTEX
8
OBJECT__116
10
8.000000
20
25.011999
30
-28.014000
70
192
0
VERTEX
8
OBJECT__116
10
8.000000
20
-6.402000
30
-11.527000
70
192
0
VERTEX
8
OBJECT__116
10
8.000000
20
-12.431000
30
-61.186001
70
192
0
VERTEX
8
OBJECT__116
10
8.000000
20
22.014999
30
-52.695999
70
192
0
VERTEX
8
OBJECT__116
10
8.000000
20
0.000000
30
-64.250000
70
192
0
VERTEX
8
OBJECT__116
10
8.000000
20
12.431000
30
-61.186001
70
192
0
VERTEX
8
OBJECT__116
10
8.000000
20
-26.555000
30
-40.723999
70
192
0
VERTEX
8
OBJECT__116
10
8.000000
20
0.000000
30
-10.750000
70
192
0
VERTEX
8
OBJECT__116
10
8.000000
20
17.739000
30
-17.476999
70
192
0
VERTEX
8
OBJECT__116
10
0
20
0
30
0
70
128
71
1
72
2
73
3
0
VERTEX
8
OBJECT__116
10
0
20
0
30
0
70
128
71
4
72
5
73
6
0
VERTEX
8
OBJECT__116
10
0
20
0
30
0
70
128
71
7
72
1
73
8
0
VERTEX
8
OBJECT__116
10
0
20
0
30
0
70
128
71
1
72
7
73
2
0
VERTEX
8
OBJECT__116
10
0
20
0
30
0
70
128
71
4
72
9
73
5
0
VERTEX
8
OBJECT__116
10
0
20
0
30
0
70
128
71
4
72
10
73
11
0
VERTEX
8
OBJECT__116
10
0
20
0
30
0
70
128
71
3
72
12
73
1
0
VERTEX
8
OBJECT__116
10
0
20
0
30
0
70
128
71
11
72
9
73
4
0
VERTEX
8
OBJECT__116
10
0
20
0
30
0
70
128
71
10
72
13
73
7
0
VERTEX
8
OBJECT__116
10
0
20
0
30
0
70
128
71
6
72
14
73
4
0
VERTEX
8
OBJECT__116
10
0
20
0
30
0
70
128
71
4
72
13
73
10
0
VERTEX
8
OBJECT__116
10
0
20
0
30
0
70
128
71
8
72
10
73
7
0
SEQEND
8
OBJECT__116
0
ENDSEC
0
EOF
