999
Converted by 3D Exploration 
999
XDimension Software, LLC
999
http://www.xdsoft.com/explorer/
0
SECTION
2
HEADER
9
$ACADVER
1
AC1008
9
$UCSORG
10
0.0
20
0.0
30
0.0
9
$UCSXDIR
10
1.0
20
0.0
30
0.0
9
$TILEMODE
70
1
9
$UCSYDIR
10
0.0
20
1.0
30
0.0
9
$EXTMIN
10
-32.500000
20
-32.500000
30
-32.500000
9
$EXTMAX
10
32.500000
20
32.500000
30
0.000000
0
ENDSEC
0
SECTION
2
TABLES
0
TABLE
2
LTYPE
70
1
0
LTYPE
2
CONTINUOUS
70
64
3
Solid line
72
65
73
0
40
0.0
0
ENDTAB
0
TABLE
2
LAYER
70
13
0
LAYER
2
OBJECT__0
70
0
62
253
6
CONTINUOUS
0
LAYER
2
OBJECT__1
70
0
62
253
6
CONTINUOUS
0
LAYER
2
OBJECT__3
70
0
62
253
6
CONTINUOUS
0
LAYER
2
OBJECT__4
70
0
62
253
6
CONTINUOUS
0
LAYER
2
OBJECT__5
70
0
62
253
6
CONTINUOUS
0
LAYER
2
OBJECT__6
70
0
62
253
6
CONTINUOUS
0
LAYER
2
OBJECT__7
70
0
62
253
6
CONTINUOUS
0
LAYER
2
OBJECT__8
70
0
62
253
6
CONTINUOUS
0
LAYER
2
OBJECT__9
70
0
62
253
6
CONTINUOUS
0
LAYER
2
OBJECT__10
70
0
62
253
6
CONTINUOUS
0
LAYER
2
OBJECT__12
70
0
62
253
6
CONTINUOUS
0
ENDTAB
0
TABLE
2
STYLE
70
1
0
STYLE
2
STANDARD
70
0
40
0.0
41
1.0
50
0.0
71
0
42
0.2
3
txt
4
1
0
ENDTAB
0
TABLE
2
UCS
70
0
0
ENDTAB
0
ENDSEC
0
SECTION
2
ENTITIES
0
POLYLINE
8
OBJECT__0
66
1
70
64
71
16
72
16
62
253
0
VERTEX
8
OBJECT__0
10
-7.409000
20
7.409000
30
-3.422000
70
192
0
VERTEX
8
OBJECT__0
10
-7.409000
20
7.409000
30
-9.000000
70
192
0
VERTEX
8
OBJECT__0
10
-10.478000
20
0.000000
30
-9.000000
70
192
0
VERTEX
8
OBJECT__0
10
0.000000
20
10.478000
30
-3.422000
70
192
0
VERTEX
8
OBJECT__0
10
0.000000
20
10.478000
30
-9.000000
70
192
0
VERTEX
8
OBJECT__0
10
7.409000
20
7.409000
30
-3.422000
70
192
0
VERTEX
8
OBJECT__0
10
7.409000
20
7.409000
30
-9.000000
70
192
0
VERTEX
8
OBJECT__0
10
10.478000
20
0.000000
30
-3.422000
70
192
0
VERTEX
8
OBJECT__0
10
10.478000
20
0.000000
30
-9.000000
70
192
0
VERTEX
8
OBJECT__0
10
7.409000
20
-7.409000
30
-3.422000
70
192
0
VERTEX
8
OBJECT__0
10
7.409000
20
-7.409000
30
-9.000000
70
192
0
VERTEX
8
OBJECT__0
10
0.000000
20
-10.478000
30
-3.422000
70
192
0
VERTEX
8
OBJECT__0
10
0.000000
20
-10.478000
30
-9.000000
70
192
0
VERTEX
8
OBJECT__0
10
-7.409000
20
-7.409000
30
-3.422000
70
192
0
VERTEX
8
OBJECT__0
10
-7.409000
20
-7.409000
30
-9.000000
70
192
0
VERTEX
8
OBJECT__0
10
-10.478000
20
0.000000
30
-3.422000
70
192
0
VERTEX
8
OBJECT__0
10
0
20
0
30
0
70
128
71
1
72
2
73
3
0
VERTEX
8
OBJECT__0
10
0
20
0
30
0
70
128
71
4
72
5
73
2
0
VERTEX
8
OBJECT__0
10
0
20
0
30
0
70
128
71
6
72
7
73
5
0
VERTEX
8
OBJECT__0
10
0
20
0
30
0
70
128
71
8
72
9
73
7
0
VERTEX
8
OBJECT__0
10
0
20
0
30
0
70
128
71
10
72
11
73
9
0
VERTEX
8
OBJECT__0
10
0
20
0
30
0
70
128
71
12
72
13
73
11
0
VERTEX
8
OBJECT__0
10
0
20
0
30
0
70
128
71
14
72
15
73
13
0
VERTEX
8
OBJECT__0
10
0
20
0
30
0
70
128
71
16
72
3
73
15
0
VERTEX
8
OBJECT__0
10
0
20
0
30
0
70
128
71
15
72
14
73
16
0
VERTEX
8
OBJECT__0
10
0
20
0
30
0
70
128
71
13
72
12
73
14
0
VERTEX
8
OBJECT__0
10
0
20
0
30
0
70
128
71
11
72
10
73
12
0
VERTEX
8
OBJECT__0
10
0
20
0
30
0
70
128
71
9
72
8
73
10
0
VERTEX
8
OBJECT__0
10
0
20
0
30
0
70
128
71
7
72
6
73
8
0
VERTEX
8
OBJECT__0
10
0
20
0
30
0
70
128
71
5
72
4
73
6
0
VERTEX
8
OBJECT__0
10
0
20
0
30
0
70
128
71
2
72
1
73
4
0
VERTEX
8
OBJECT__0
10
0
20
0
30
0
70
128
71
3
72
16
73
1
0
SEQEND
8
OBJECT__0
0
POLYLINE
8
OBJECT__1
66
1
70
64
71
51
72
51
62
253
0
VERTEX
8
OBJECT__1
10
-10.500000
20
0.000000
30
-9.000000
70
192
0
VERTEX
8
OBJECT__1
10
-10.048000
20
3.048000
30
-286.500000
70
192
0
VERTEX
8
OBJECT__1
10
-10.298000
20
2.048000
30
-286.500000
70
192
0
VERTEX
8
OBJECT__1
10
-10.449000
20
1.029000
30
-286.500000
70
192
0
VERTEX
8
OBJECT__1
10
-10.500000
20
0.000000
30
-286.500000
70
192
0
VERTEX
8
OBJECT__1
10
-7.425000
20
7.425000
30
-9.000000
70
192
0
VERTEX
8
OBJECT__1
10
-9.701000
20
4.018000
30
-286.500000
70
192
0
VERTEX
8
OBJECT__1
10
-7.425000
20
7.425000
30
-286.500000
70
192
0
VERTEX
8
OBJECT__1
10
-5.833000
20
8.730000
30
-286.500000
70
192
0
VERTEX
8
OBJECT__1
10
-6.661000
20
8.117000
30
-286.500000
70
192
0
VERTEX
8
OBJECT__1
10
0.000000
20
10.500000
30
-9.000000
70
192
0
VERTEX
8
OBJECT__1
10
-4.018000
20
9.701000
30
-286.500000
70
192
0
VERTEX
8
OBJECT__1
10
0.000000
20
10.500000
30
-286.500000
70
192
0
VERTEX
8
OBJECT__1
10
6.661000
20
8.117000
30
-286.500000
70
192
0
VERTEX
8
OBJECT__1
10
5.833000
20
8.730000
30
-286.500000
70
192
0
VERTEX
8
OBJECT__1
10
4.018000
20
9.701000
30
-286.500000
70
192
0
VERTEX
8
OBJECT__1
10
7.425000
20
7.425000
30
-9.000000
70
192
0
VERTEX
8
OBJECT__1
10
7.425000
20
7.425000
30
-286.500000
70
192
0
VERTEX
8
OBJECT__1
10
9.260000
20
4.950000
30
-286.500000
70
192
0
VERTEX
8
OBJECT__1
10
8.730000
20
5.833000
30
-286.500000
70
192
0
VERTEX
8
OBJECT__1
10
8.117000
20
6.661000
30
-286.500000
70
192
0
VERTEX
8
OBJECT__1
10
10.048000
20
3.048000
30
-286.500000
70
192
0
VERTEX
8
OBJECT__1
10
9.701000
20
4.018000
30
-286.500000
70
192
0
VERTEX
8
OBJECT__1
10
10.500000
20
0.000000
30
-9.000000
70
192
0
VERTEX
8
OBJECT__1
10
10.298000
20
2.048000
30
-286.500000
70
192
0
VERTEX
8
OBJECT__1
10
10.500000
20
0.000000
30
-286.500000
70
192
0
VERTEX
8
OBJECT__1
10
10.048000
20
-3.048000
30
-286.500000
70
192
0
VERTEX
8
OBJECT__1
10
10.298000
20
-2.048000
30
-286.500000
70
192
0
VERTEX
8
OBJECT__1
10
10.449000
20
-1.029000
30
-286.500000
70
192
0
VERTEX
8
OBJECT__1
10
9.260000
20
-4.950000
30
-286.500000
70
192
0
VERTEX
8
OBJECT__1
10
9.701000
20
-4.018000
30
-286.500000
70
192
0
VERTEX
8
OBJECT__1
10
8.117000
20
-6.661000
30
-286.500000
70
192
0
VERTEX
8
OBJECT__1
10
8.730000
20
-5.833000
30
-286.500000
70
192
0
VERTEX
8
OBJECT__1
10
7.425000
20
-7.425000
30
-9.000000
70
192
0
VERTEX
8
OBJECT__1
10
7.425000
20
-7.425000
30
-286.500000
70
192
0
VERTEX
8
OBJECT__1
10
5.833000
20
-8.730000
30
-286.500000
70
192
0
VERTEX
8
OBJECT__1
10
6.661000
20
-8.117000
30
-286.500000
70
192
0
VERTEX
8
OBJECT__1
10
0.000000
20
-10.500000
30
-9.000000
70
192
0
VERTEX
8
OBJECT__1
10
4.018000
20
-9.701000
30
-286.500000
70
192
0
VERTEX
8
OBJECT__1
10
0.000000
20
-10.500000
30
-286.500000
70
192
0
VERTEX
8
OBJECT__1
10
-6.661000
20
-8.117000
30
-286.500000
70
192
0
VERTEX
8
OBJECT__1
10
-5.833000
20
-8.730000
30
-286.500000
70
192
0
VERTEX
8
OBJECT__1
10
-4.018000
20
-9.701000
30
-286.500000
70
192
0
VERTEX
8
OBJECT__1
10
-7.425000
20
-7.425000
30
-9.000000
70
192
0
VERTEX
8
OBJECT__1
10
-7.425000
20
-7.425000
30
-286.500000
70
192
0
VERTEX
8
OBJECT__1
10
-9.260000
20
-4.950000
30
-286.500000
70
192
0
VERTEX
8
OBJECT__1
10
-8.730000
20
-5.833000
30
-286.500000
70
192
0
VERTEX
8
OBJECT__1
10
-8.117000
20
-6.661000
30
-286.500000
70
192
0
VERTEX
8
OBJECT__1
10
-10.048000
20
-3.048000
30
-286.500000
70
192
0
VERTEX
8
OBJECT__1
10
-9.701000
20
-4.018000
30
-286.500000
70
192
0
VERTEX
8
OBJECT__1
10
-10.298000
20
-2.048000
30
-286.500000
70
192
0
VERTEX
8
OBJECT__1
10
0
20
0
30
0
70
128
71
1
72
2
73
3
0
VERTEX
8
OBJECT__1
10
0
20
0
30
0
70
128
71
3
72
4
73
1
0
VERTEX
8
OBJECT__1
10
0
20
0
30
0
70
128
71
4
72
5
73
1
0
VERTEX
8
OBJECT__1
10
0
20
0
30
0
70
128
71
1
72
6
73
7
0
VERTEX
8
OBJECT__1
10
0
20
0
30
0
70
128
71
7
72
2
73
1
0
VERTEX
8
OBJECT__1
10
0
20
0
30
0
70
128
71
6
72
8
73
7
0
VERTEX
8
OBJECT__1
10
0
20
0
30
0
70
128
71
6
72
9
73
10
0
VERTEX
8
OBJECT__1
10
0
20
0
30
0
70
128
71
6
72
11
73
12
0
VERTEX
8
OBJECT__1
10
0
20
0
30
0
70
128
71
12
72
9
73
6
0
VERTEX
8
OBJECT__1
10
0
20
0
30
0
70
128
71
11
72
13
73
12
0
VERTEX
8
OBJECT__1
10
0
20
0
30
0
70
128
71
11
72
14
73
15
0
VERTEX
8
OBJECT__1
10
0
20
0
30
0
70
128
71
15
72
16
73
11
0
VERTEX
8
OBJECT__1
10
0
20
0
30
0
70
128
71
16
72
13
73
11
0
VERTEX
8
OBJECT__1
10
0
20
0
30
0
70
128
71
17
72
18
73
14
0
VERTEX
8
OBJECT__1
10
0
20
0
30
0
70
128
71
14
72
11
73
17
0
VERTEX
8
OBJECT__1
10
0
20
0
30
0
70
128
71
17
72
19
73
20
0
VERTEX
8
OBJECT__1
10
0
20
0
30
0
70
128
71
20
72
21
73
17
0
VERTEX
8
OBJECT__1
10
0
20
0
30
0
70
128
71
21
72
18
73
17
0
VERTEX
8
OBJECT__1
10
0
20
0
30
0
70
128
71
17
72
22
73
23
0
VERTEX
8
OBJECT__1
10
0
20
0
30
0
70
128
71
23
72
19
73
17
0
VERTEX
8
OBJECT__1
10
0
20
0
30
0
70
128
71
24
72
25
73
22
0
VERTEX
8
OBJECT__1
10
0
20
0
30
0
70
128
71
22
72
17
73
24
0
VERTEX
8
OBJECT__1
10
0
20
0
30
0
70
128
71
24
72
26
73
25
0
VERTEX
8
OBJECT__1
10
0
20
0
30
0
70
128
71
24
72
27
73
28
0
VERTEX
8
OBJECT__1
10
0
20
0
30
0
70
128
71
28
72
29
73
24
0
VERTEX
8
OBJECT__1
10
0
20
0
30
0
70
128
71
29
72
26
73
24
0
VERTEX
8
OBJECT__1
10
0
20
0
30
0
70
128
71
24
72
30
73
31
0
VERTEX
8
OBJECT__1
10
0
20
0
30
0
70
128
71
31
72
27
73
24
0
VERTEX
8
OBJECT__1
10
0
20
0
30
0
70
128
71
24
72
32
73
33
0
VERTEX
8
OBJECT__1
10
0
20
0
30
0
70
128
71
33
72
30
73
24
0
VERTEX
8
OBJECT__1
10
0
20
0
30
0
70
128
71
34
72
35
73
32
0
VERTEX
8
OBJECT__1
10
0
20
0
30
0
70
128
71
32
72
24
73
34
0
VERTEX
8
OBJECT__1
10
0
20
0
30
0
70
128
71
34
72
36
73
37
0
VERTEX
8
OBJECT__1
10
0
20
0
30
0
70
128
71
34
72
38
73
39
0
VERTEX
8
OBJECT__1
10
0
20
0
30
0
70
128
71
39
72
36
73
34
0
VERTEX
8
OBJECT__1
10
0
20
0
30
0
70
128
71
38
72
40
73
39
0
VERTEX
8
OBJECT__1
10
0
20
0
30
0
70
128
71
38
72
41
73
42
0
VERTEX
8
OBJECT__1
10
0
20
0
30
0
70
128
71
42
72
43
73
38
0
VERTEX
8
OBJECT__1
10
0
20
0
30
0
70
128
71
43
72
40
73
38
0
VERTEX
8
OBJECT__1
10
0
20
0
30
0
70
128
71
44
72
45
73
41
0
VERTEX
8
OBJECT__1
10
0
20
0
30
0
70
128
71
41
72
38
73
44
0
VERTEX
8
OBJECT__1
10
0
20
0
30
0
70
128
71
44
72
46
73
47
0
VERTEX
8
OBJECT__1
10
0
20
0
30
0
70
128
71
47
72
48
73
44
0
VERTEX
8
OBJECT__1
10
0
20
0
30
0
70
128
71
48
72
45
73
44
0
VERTEX
8
OBJECT__1
10
0
20
0
30
0
70
128
71
44
72
49
73
50
0
VERTEX
8
OBJECT__1
10
0
20
0
30
0
70
128
71
50
72
46
73
44
0
VERTEX
8
OBJECT__1
10
0
20
0
30
0
70
128
71
1
72
51
73
49
0
VERTEX
8
OBJECT__1
10
0
20
0
30
0
70
128
71
49
72
44
73
1
0
VERTEX
8
OBJECT__1
10
0
20
0
30
0
70
128
71
1
72
5
73
51
0
VERTEX
8
OBJECT__1
10
0
20
0
30
0
70
128
71
37
72
35
73
34
0
VERTEX
8
OBJECT__1
10
0
20
0
30
0
70
128
71
10
72
8
73
6
0
SEQEND
8
OBJECT__1
0
POLYLINE
8
OBJECT__3
66
1
70
64
71
86
72
86
62
253
0
VERTEX
8
OBJECT__3
10
7.425000
20
7.425000
30
-286.500000
70
192
0
VERTEX
8
OBJECT__3
10
7.672000
20
7.135000
30
-286.500000
70
192
0
VERTEX
8
OBJECT__3
10
7.530000
20
7.285000
30
-286.500000
70
192
0
VERTEX
8
OBJECT__3
10
8.117000
20
6.661000
30
-286.500000
70
192
0
VERTEX
8
OBJECT__3
10
7.948000
20
6.827000
30
-286.500000
70
192
0
VERTEX
8
OBJECT__3
10
10.449000
20
-1.029000
30
-286.500000
70
192
0
VERTEX
8
OBJECT__3
10
10.298000
20
-2.048000
30
-286.500000
70
192
0
VERTEX
8
OBJECT__3
10
10.347000
20
-1.646000
30
-286.500000
70
192
0
VERTEX
8
OBJECT__3
10
9.701000
20
-4.018000
30
-286.500000
70
192
0
VERTEX
8
OBJECT__3
10
9.674000
20
-4.025000
30
-286.500000
70
192
0
VERTEX
8
OBJECT__3
10
9.961000
20
-3.250000
30
-286.500000
70
192
0
VERTEX
8
OBJECT__3
10
9.260000
20
-4.950000
30
-286.500000
70
192
0
VERTEX
8
OBJECT__3
10
9.326000
20
-4.775000
30
-286.500000
70
192
0
VERTEX
8
OBJECT__3
10
-7.425000
20
-7.425000
30
-286.500000
70
192
0
VERTEX
8
OBJECT__3
10
-7.672000
20
-7.135000
30
-286.500000
70
192
0
VERTEX
8
OBJECT__3
10
-7.530000
20
-7.285000
30
-286.500000
70
192
0
VERTEX
8
OBJECT__3
10
-8.117000
20
-6.661000
30
-286.500000
70
192
0
VERTEX
8
OBJECT__3
10
-7.948000
20
-6.827000
30
-286.500000
70
192
0
VERTEX
8
OBJECT__3
10
7.385000
20
7.432000
30
-286.500000
70
192
0
VERTEX
8
OBJECT__3
10
6.777000
20
7.991000
30
-286.500000
70
192
0
VERTEX
8
OBJECT__3
10
10.500000
20
0.000000
30
-286.500000
70
192
0
VERTEX
8
OBJECT__3
10
10.445000
20
-0.825000
30
-286.500000
70
192
0
VERTEX
8
OBJECT__3
10
10.186000
20
-2.456000
30
-286.500000
70
192
0
VERTEX
8
OBJECT__3
10
10.048000
20
-3.048000
30
-286.500000
70
192
0
VERTEX
8
OBJECT__3
10
-7.385000
20
-7.432000
30
-286.500000
70
192
0
VERTEX
8
OBJECT__3
10
-6.777000
20
-7.991000
30
-286.500000
70
192
0
VERTEX
8
OBJECT__3
10
8.730000
20
5.833000
30
-286.500000
70
192
0
VERTEX
8
OBJECT__3
10
8.461000
20
6.180000
30
-286.500000
70
192
0
VERTEX
8
OBJECT__3
10
8.730000
20
-5.833000
30
-286.500000
70
192
0
VERTEX
8
OBJECT__3
10
8.921000
20
-5.494000
30
-286.500000
70
192
0
VERTEX
8
OBJECT__3
10
8.117000
20
-6.661000
30
-286.500000
70
192
0
VERTEX
8
OBJECT__3
10
8.461000
20
-6.180000
30
-286.500000
70
192
0
VERTEX
8
OBJECT__3
10
-8.730000
20
-5.833000
30
-286.500000
70
192
0
VERTEX
8
OBJECT__3
10
-8.461000
20
-6.180000
30
-286.500000
70
192
0
VERTEX
8
OBJECT__3
10
-9.260000
20
-4.950000
30
-286.500000
70
192
0
VERTEX
8
OBJECT__3
10
-9.326000
20
-4.775000
30
-286.500000
70
192
0
VERTEX
8
OBJECT__3
10
-8.921000
20
-5.494000
30
-286.500000
70
192
0
VERTEX
8
OBJECT__3
10
-9.701000
20
-4.018000
30
-286.500000
70
192
0
VERTEX
8
OBJECT__3
10
-9.674000
20
-4.025000
30
-286.500000
70
192
0
VERTEX
8
OBJECT__3
10
-10.048000
20
-3.048000
30
-286.500000
70
192
0
VERTEX
8
OBJECT__3
10
-9.961000
20
-3.250000
30
-286.500000
70
192
0
VERTEX
8
OBJECT__3
10
8.921000
20
5.494000
30
-286.500000
70
192
0
VERTEX
8
OBJECT__3
10
9.260000
20
4.950000
30
-286.500000
70
192
0
VERTEX
8
OBJECT__3
10
9.326000
20
4.775000
30
-286.500000
70
192
0
VERTEX
8
OBJECT__3
10
9.701000
20
4.018000
30
-286.500000
70
192
0
VERTEX
8
OBJECT__3
10
9.674000
20
4.025000
30
-286.500000
70
192
0
VERTEX
8
OBJECT__3
10
10.048000
20
3.048000
30
-286.500000
70
192
0
VERTEX
8
OBJECT__3
10
9.961000
20
3.250000
30
-286.500000
70
192
0
VERTEX
8
OBJECT__3
10
7.385000
20
-7.432000
30
-286.500000
70
192
0
VERTEX
8
OBJECT__3
10
7.425000
20
-7.425000
30
-286.500000
70
192
0
VERTEX
8
OBJECT__3
10
6.661000
20
-8.117000
30
-286.500000
70
192
0
VERTEX
8
OBJECT__3
10
6.777000
20
-7.991000
30
-286.500000
70
192
0
VERTEX
8
OBJECT__3
10
5.833000
20
-8.730000
30
-286.500000
70
192
0
VERTEX
8
OBJECT__3
10
6.126000
20
-8.500000
30
-286.500000
70
192
0
VERTEX
8
OBJECT__3
10
4.018000
20
-9.701000
30
-286.500000
70
192
0
VERTEX
8
OBJECT__3
10
0.000000
20
-10.500000
30
-286.500000
70
192
0
VERTEX
8
OBJECT__3
10
-4.018000
20
-9.701000
30
-286.500000
70
192
0
VERTEX
8
OBJECT__3
10
10.478000
20
0.000000
30
-286.500000
70
192
0
VERTEX
8
OBJECT__3
10
10.298000
20
2.048000
30
-286.500000
70
192
0
VERTEX
8
OBJECT__3
10
-5.833000
20
-8.730000
30
-286.500000
70
192
0
VERTEX
8
OBJECT__3
10
-6.661000
20
-8.117000
30
-286.500000
70
192
0
VERTEX
8
OBJECT__3
10
-6.126000
20
-8.500000
30
-286.500000
70
192
0
VERTEX
8
OBJECT__3
10
-10.478000
20
0.000000
30
-286.500000
70
192
0
VERTEX
8
OBJECT__3
10
-10.298000
20
-2.048000
30
-286.500000
70
192
0
VERTEX
8
OBJECT__3
10
-10.449000
20
1.029000
30
-286.500000
70
192
0
VERTEX
8
OBJECT__3
10
-10.298000
20
2.048000
30
-286.500000
70
192
0
VERTEX
8
OBJECT__3
10
-10.347000
20
1.646000
30
-286.500000
70
192
0
VERTEX
8
OBJECT__3
10
-4.595000
20
8.500000
30
-286.500000
70
192
0
VERTEX
8
OBJECT__3
10
-6.126000
20
8.500000
30
-286.500000
70
192
0
VERTEX
8
OBJECT__3
10
-5.833000
20
8.730000
30
-286.500000
70
192
0
VERTEX
8
OBJECT__3
10
6.661000
20
8.117000
30
-286.500000
70
192
0
VERTEX
8
OBJECT__3
10
6.126000
20
8.500000
30
-286.500000
70
192
0
VERTEX
8
OBJECT__3
10
-10.500000
20
0.000000
30
-286.500000
70
192
0
VERTEX
8
OBJECT__3
10
-10.445000
20
0.825000
30
-286.500000
70
192
0
VERTEX
8
OBJECT__3
10
-10.186000
20
2.456000
30
-286.500000
70
192
0
VERTEX
8
OBJECT__3
10
-10.048000
20
3.048000
30
-286.500000
70
192
0
VERTEX
8
OBJECT__3
10
-9.961000
20
3.250000
30
-286.500000
70
192
0
VERTEX
8
OBJECT__3
10
-9.701000
20
4.018000
30
-286.500000
70
192
0
VERTEX
8
OBJECT__3
10
-7.425000
20
7.425000
30
-286.500000
70
192
0
VERTEX
8
OBJECT__3
10
-4.018000
20
9.701000
30
-286.500000
70
192
0
VERTEX
8
OBJECT__3
10
-3.063000
20
8.500000
30
-286.500000
70
192
0
VERTEX
8
OBJECT__3
10
0.000000
20
10.500000
30
-286.500000
70
192
0
VERTEX
8
OBJECT__3
10
0.000000
20
8.500000
30
-286.500000
70
192
0
VERTEX
8
OBJECT__3
10
4.018000
20
9.701000
30
-286.500000
70
192
0
VERTEX
8
OBJECT__3
10
-6.661000
20
8.117000
30
-286.500000
70
192
0
VERTEX
8
OBJECT__3
10
5.833000
20
8.730000
30
-286.500000
70
192
0
VERTEX
8
OBJECT__3
10
0
20
0
30
0
70
128
71
1
72
2
73
3
0
VERTEX
8
OBJECT__3
10
0
20
0
30
0
70
128
71
4
72
5
73
2
0
VERTEX
8
OBJECT__3
10
0
20
0
30
0
70
128
71
6
72
7
73
8
0
VERTEX
8
OBJECT__3
10
0
20
0
30
0
70
128
71
9
72
10
73
11
0
VERTEX
8
OBJECT__3
10
0
20
0
30
0
70
128
71
9
72
12
73
13
0
VERTEX
8
OBJECT__3
10
0
20
0
30
0
70
128
71
14
72
15
73
16
0
VERTEX
8
OBJECT__3
10
0
20
0
30
0
70
128
71
17
72
18
73
15
0
VERTEX
8
OBJECT__3
10
0
20
0
30
0
70
128
71
1
72
19
73
20
0
VERTEX
8
OBJECT__3
10
0
20
0
30
0
70
128
71
2
72
1
73
4
0
VERTEX
8
OBJECT__3
10
0
20
0
30
0
70
128
71
21
72
6
73
22
0
VERTEX
8
OBJECT__3
10
0
20
0
30
0
70
128
71
7
72
23
73
8
0
VERTEX
8
OBJECT__3
10
0
20
0
30
0
70
128
71
24
72
11
73
23
0
VERTEX
8
OBJECT__3
10
0
20
0
30
0
70
128
71
13
72
10
73
9
0
VERTEX
8
OBJECT__3
10
0
20
0
30
0
70
128
71
14
72
25
73
26
0
VERTEX
8
OBJECT__3
10
0
20
0
30
0
70
128
71
15
72
14
73
17
0
VERTEX
8
OBJECT__3
10
0
20
0
30
0
70
128
71
3
72
19
73
1
0
VERTEX
8
OBJECT__3
10
0
20
0
30
0
70
128
71
4
72
27
73
28
0
VERTEX
8
OBJECT__3
10
0
20
0
30
0
70
128
71
8
72
22
73
6
0
VERTEX
8
OBJECT__3
10
0
20
0
30
0
70
128
71
11
72
24
73
9
0
VERTEX
8
OBJECT__3
10
0
20
0
30
0
70
128
71
12
72
29
73
30
0
VERTEX
8
OBJECT__3
10
0
20
0
30
0
70
128
71
29
72
31
73
32
0
VERTEX
8
OBJECT__3
10
0
20
0
30
0
70
128
71
16
72
25
73
14
0
VERTEX
8
OBJECT__3
10
0
20
0
30
0
70
128
71
17
72
33
73
34
0
VERTEX
8
OBJECT__3
10
0
20
0
30
0
70
128
71
35
72
36
73
37
0
VERTEX
8
OBJECT__3
10
0
20
0
30
0
70
128
71
28
72
5
73
4
0
VERTEX
8
OBJECT__3
10
0
20
0
30
0
70
128
71
23
72
7
73
24
0
VERTEX
8
OBJECT__3
10
0
20
0
30
0
70
128
71
32
72
30
73
29
0
VERTEX
8
OBJECT__3
10
0
20
0
30
0
70
128
71
34
72
18
73
17
0
VERTEX
8
OBJECT__3
10
0
20
0
30
0
70
128
71
37
72
33
73
35
0
VERTEX
8
OBJECT__3
10
0
20
0
30
0
70
128
71
38
72
39
73
36
0
VERTEX
8
OBJECT__3
10
0
20
0
30
0
70
128
71
38
72
40
73
41
0
VERTEX
8
OBJECT__3
10
0
20
0
30
0
70
128
71
27
72
42
73
28
0
VERTEX
8
OBJECT__3
10
0
20
0
30
0
70
128
71
43
72
44
73
42
0
VERTEX
8
OBJECT__3
10
0
20
0
30
0
70
128
71
45
72
46
73
44
0
VERTEX
8
OBJECT__3
10
0
20
0
30
0
70
128
71
45
72
47
73
48
0
VERTEX
8
OBJECT__3
10
0
20
0
30
0
70
128
71
30
72
13
73
12
0
VERTEX
8
OBJECT__3
10
0
20
0
30
0
70
128
71
49
72
32
73
31
0
VERTEX
8
OBJECT__3
10
0
20
0
30
0
70
128
71
50
72
51
73
52
0
VERTEX
8
OBJECT__3
10
0
20
0
30
0
70
128
71
51
72
53
73
54
0
VERTEX
8
OBJECT__3
10
0
20
0
30
0
70
128
71
55
72
56
73
57
0
VERTEX
8
OBJECT__3
10
0
20
0
30
0
70
128
71
37
72
34
73
33
0
VERTEX
8
OBJECT__3
10
0
20
0
30
0
70
128
71
41
72
39
73
38
0
VERTEX
8
OBJECT__3
10
0
20
0
30
0
70
128
71
42
72
27
73
43
0
VERTEX
8
OBJECT__3
10
0
20
0
30
0
70
128
71
48
72
46
73
45
0
VERTEX
8
OBJECT__3
10
0
20
0
30
0
70
128
71
58
72
48
73
59
0
VERTEX
8
OBJECT__3
10
0
20
0
30
0
70
128
71
31
72
50
73
49
0
VERTEX
8
OBJECT__3
10
0
20
0
30
0
70
128
71
54
72
52
73
51
0
VERTEX
8
OBJECT__3
10
0
20
0
30
0
70
128
71
60
72
53
73
55
0
VERTEX
8
OBJECT__3
10
0
20
0
30
0
70
128
71
61
72
26
73
62
0
VERTEX
8
OBJECT__3
10
0
20
0
30
0
70
128
71
36
72
35
73
38
0
VERTEX
8
OBJECT__3
10
0
20
0
30
0
70
128
71
63
72
41
73
64
0
VERTEX
8
OBJECT__3
10
0
20
0
30
0
70
128
71
65
72
66
73
67
0
VERTEX
8
OBJECT__3
10
0
20
0
30
0
70
128
71
68
72
69
73
70
0
VERTEX
8
OBJECT__3
10
0
20
0
30
0
70
128
71
71
72
20
73
72
0
VERTEX
8
OBJECT__3
10
0
20
0
30
0
70
128
71
44
72
43
73
45
0
VERTEX
8
OBJECT__3
10
0
20
0
30
0
70
128
71
48
72
47
73
59
0
VERTEX
8
OBJECT__3
10
0
20
0
30
0
70
128
71
52
72
49
73
50
0
VERTEX
8
OBJECT__3
10
0
20
0
30
0
70
128
71
60
72
54
73
53
0
VERTEX
8
OBJECT__3
10
0
20
0
30
0
70
128
71
26
72
61
73
14
0
VERTEX
8
OBJECT__3
10
0
20
0
30
0
70
128
71
41
72
40
73
64
0
VERTEX
8
OBJECT__3
10
0
20
0
30
0
70
128
71
73
72
65
73
74
0
VERTEX
8
OBJECT__3
10
0
20
0
30
0
70
128
71
66
72
75
73
67
0
VERTEX
8
OBJECT__3
10
0
20
0
30
0
70
128
71
76
72
77
73
75
0
VERTEX
8
OBJECT__3
10
0
20
0
30
0
70
128
71
77
72
78
73
79
0
VERTEX
8
OBJECT__3
10
0
20
0
30
0
70
128
71
80
72
81
73
68
0
VERTEX
8
OBJECT__3
10
0
20
0
30
0
70
128
71
82
72
83
73
81
0
VERTEX
8
OBJECT__3
10
0
20
0
30
0
70
128
71
83
72
82
73
84
0
VERTEX
8
OBJECT__3
10
0
20
0
30
0
70
128
71
20
72
71
73
1
0
VERTEX
8
OBJECT__3
10
0
20
0
30
0
70
128
71
22
72
58
73
21
0
VERTEX
8
OBJECT__3
10
0
20
0
30
0
70
128
71
57
72
60
73
55
0
VERTEX
8
OBJECT__3
10
0
20
0
30
0
70
128
71
64
72
73
73
63
0
VERTEX
8
OBJECT__3
10
0
20
0
30
0
70
128
71
67
72
74
73
65
0
VERTEX
8
OBJECT__3
10
0
20
0
30
0
70
128
71
76
72
78
73
77
0
VERTEX
8
OBJECT__3
10
0
20
0
30
0
70
128
71
79
72
85
73
77
0
VERTEX
8
OBJECT__3
10
0
20
0
30
0
70
128
71
81
72
80
73
82
0
VERTEX
8
OBJECT__3
10
0
20
0
30
0
70
128
71
84
72
86
73
83
0
VERTEX
8
OBJECT__3
10
0
20
0
30
0
70
128
71
59
72
21
73
58
0
VERTEX
8
OBJECT__3
10
0
20
0
30
0
70
128
71
62
72
60
73
61
0
VERTEX
8
OBJECT__3
10
0
20
0
30
0
70
128
71
75
72
66
73
76
0
VERTEX
8
OBJECT__3
10
0
20
0
30
0
70
128
71
85
72
70
73
69
0
VERTEX
8
OBJECT__3
10
0
20
0
30
0
70
128
71
86
72
72
73
83
0
VERTEX
8
OBJECT__3
10
0
20
0
30
0
70
128
71
60
72
62
73
54
0
VERTEX
8
OBJECT__3
10
0
20
0
30
0
70
128
71
85
72
69
73
77
0
VERTEX
8
OBJECT__3
10
0
20
0
30
0
70
128
71
72
72
86
73
71
0
VERTEX
8
OBJECT__3
10
0
20
0
30
0
70
128
71
70
72
80
73
68
0
VERTEX
8
OBJECT__3
10
0
20
0
30
0
70
128
71
74
72
63
73
73
0
SEQEND
8
OBJECT__3
0
POLYLINE
8
OBJECT__4
66
1
70
64
71
7
72
5
62
253
0
VERTEX
8
OBJECT__4
10
6.126000
20
8.500000
30
-296.000000
70
192
0
VERTEX
8
OBJECT__4
10
-6.126000
20
8.500000
30
-296.000000
70
192
0
VERTEX
8
OBJECT__4
10
0.000000
20
8.500000
30
-286.500000
70
192
0
VERTEX
8
OBJECT__4
10
-3.063000
20
8.500000
30
-286.500000
70
192
0
VERTEX
8
OBJECT__4
10
-4.595000
20
8.500000
30
-286.500000
70
192
0
VERTEX
8
OBJECT__4
10
-6.126000
20
8.500000
30
-286.500000
70
192
0
VERTEX
8
OBJECT__4
10
6.126000
20
8.500000
30
-286.500000
70
192
0
VERTEX
8
OBJECT__4
10
0
20
0
30
0
70
128
71
1
72
2
73
3
0
VERTEX
8
OBJECT__4
10
0
20
0
30
0
70
128
71
2
72
4
73
3
0
VERTEX
8
OBJECT__4
10
0
20
0
30
0
70
128
71
2
72
5
73
4
0
VERTEX
8
OBJECT__4
10
0
20
0
30
0
70
128
71
2
72
6
73
5
0
VERTEX
8
OBJECT__4
10
0
20
0
30
0
70
128
71
3
72
7
73
1
0
SEQEND
8
OBJECT__4
0
POLYLINE
8
OBJECT__5
66
1
70
64
71
27
72
25
62
253
0
VERTEX
8
OBJECT__5
10
9.961000
20
3.250000
30
-296.000000
70
192
0
VERTEX
8
OBJECT__5
10
9.326000
20
4.775000
30
-286.500000
70
192
0
VERTEX
8
OBJECT__5
10
9.674000
20
4.025000
30
-286.500000
70
192
0
VERTEX
8
OBJECT__5
10
8.921000
20
5.494000
30
-286.500000
70
192
0
VERTEX
8
OBJECT__5
10
8.461000
20
6.180000
30
-286.500000
70
192
0
VERTEX
8
OBJECT__5
10
6.126000
20
8.500000
30
-296.000000
70
192
0
VERTEX
8
OBJECT__5
10
7.948000
20
6.827000
30
-286.500000
70
192
0
VERTEX
8
OBJECT__5
10
7.672000
20
7.135000
30
-286.500000
70
192
0
VERTEX
8
OBJECT__5
10
7.530000
20
7.285000
30
-286.500000
70
192
0
VERTEX
8
OBJECT__5
10
7.385000
20
7.432000
30
-286.500000
70
192
0
VERTEX
8
OBJECT__5
10
6.777000
20
7.991000
30
-286.500000
70
192
0
VERTEX
8
OBJECT__5
10
6.126000
20
8.500000
30
-286.500000
70
192
0
VERTEX
8
OBJECT__5
10
9.961000
20
-3.250000
30
-296.000000
70
192
0
VERTEX
8
OBJECT__5
10
10.347000
20
-1.646000
30
-286.500000
70
192
0
VERTEX
8
OBJECT__5
10
10.186000
20
-2.456000
30
-286.500000
70
192
0
VERTEX
8
OBJECT__5
10
10.445000
20
-0.825000
30
-286.500000
70
192
0
VERTEX
8
OBJECT__5
10
10.478000
20
0.000000
30
-286.500000
70
192
0
VERTEX
8
OBJECT__5
10
9.961000
20
3.250000
30
-286.500000
70
192
0
VERTEX
8
OBJECT__5
10
6.126000
20
-8.500000
30
-296.000000
70
192
0
VERTEX
8
OBJECT__5
10
7.385000
20
-7.432000
30
-286.500000
70
192
0
VERTEX
8
OBJECT__5
10
6.777000
20
-7.991000
30
-286.500000
70
192
0
VERTEX
8
OBJECT__5
10
8.461000
20
-6.180000
30
-286.500000
70
192
0
VERTEX
8
OBJECT__5
10
8.921000
20
-5.494000
30
-286.500000
70
192
0
VERTEX
8
OBJECT__5
10
9.326000
20
-4.775000
30
-286.500000
70
192
0
VERTEX
8
OBJECT__5
10
9.674000
20
-4.025000
30
-286.500000
70
192
0
VERTEX
8
OBJECT__5
10
9.961000
20
-3.250000
30
-286.500000
70
192
0
VERTEX
8
OBJECT__5
10
6.126000
20
-8.500000
30
-286.500000
70
192
0
VERTEX
8
OBJECT__5
10
0
20
0
30
0
70
128
71
1
72
2
73
3
0
VERTEX
8
OBJECT__5
10
0
20
0
30
0
70
128
71
1
72
4
73
2
0
VERTEX
8
OBJECT__5
10
0
20
0
30
0
70
128
71
1
72
5
73
4
0
VERTEX
8
OBJECT__5
10
0
20
0
30
0
70
128
71
6
72
7
73
5
0
VERTEX
8
OBJECT__5
10
0
20
0
30
0
70
128
71
5
72
1
73
6
0
VERTEX
8
OBJECT__5
10
0
20
0
30
0
70
128
71
6
72
8
73
7
0
VERTEX
8
OBJECT__5
10
0
20
0
30
0
70
128
71
6
72
9
73
8
0
VERTEX
8
OBJECT__5
10
0
20
0
30
0
70
128
71
6
72
10
73
9
0
VERTEX
8
OBJECT__5
10
0
20
0
30
0
70
128
71
6
72
11
73
10
0
VERTEX
8
OBJECT__5
10
0
20
0
30
0
70
128
71
6
72
12
73
11
0
VERTEX
8
OBJECT__5
10
0
20
0
30
0
70
128
71
13
72
14
73
15
0
VERTEX
8
OBJECT__5
10
0
20
0
30
0
70
128
71
13
72
16
73
14
0
VERTEX
8
OBJECT__5
10
0
20
0
30
0
70
128
71
13
72
1
73
17
0
VERTEX
8
OBJECT__5
10
0
20
0
30
0
70
128
71
17
72
16
73
13
0
VERTEX
8
OBJECT__5
10
0
20
0
30
0
70
128
71
1
72
18
73
17
0
VERTEX
8
OBJECT__5
10
0
20
0
30
0
70
128
71
19
72
20
73
21
0
VERTEX
8
OBJECT__5
10
0
20
0
30
0
70
128
71
19
72
22
73
20
0
VERTEX
8
OBJECT__5
10
0
20
0
30
0
70
128
71
13
72
23
73
22
0
VERTEX
8
OBJECT__5
10
0
20
0
30
0
70
128
71
22
72
19
73
13
0
VERTEX
8
OBJECT__5
10
0
20
0
30
0
70
128
71
13
72
24
73
23
0
VERTEX
8
OBJECT__5
10
0
20
0
30
0
70
128
71
13
72
25
73
24
0
VERTEX
8
OBJECT__5
10
0
20
0
30
0
70
128
71
13
72
26
73
25
0
VERTEX
8
OBJECT__5
10
0
20
0
30
0
70
128
71
21
72
27
73
19
0
VERTEX
8
OBJECT__5
10
0
20
0
30
0
70
128
71
15
72
26
73
13
0
VERTEX
8
OBJECT__5
10
0
20
0
30
0
70
128
71
3
72
18
73
1
0
SEQEND
8
OBJECT__5
0
POLYLINE
8
OBJECT__6
66
1
70
64
71
4
72
2
62
253
0
VERTEX
8
OBJECT__6
10
-6.126000
20
-8.500000
30
-286.500000
70
192
0
VERTEX
8
OBJECT__6
10
-6.126000
20
-8.500000
30
-296.000000
70
192
0
VERTEX
8
OBJECT__6
10
6.126000
20
-8.500000
30
-296.000000
70
192
0
VERTEX
8
OBJECT__6
10
6.126000
20
-8.500000
30
-286.500000
70
192
0
VERTEX
8
OBJECT__6
10
0
20
0
30
0
70
128
71
1
72
2
73
3
0
VERTEX
8
OBJECT__6
10
0
20
0
30
0
70
128
71
3
72
4
73
1
0
SEQEND
8
OBJECT__6
0
POLYLINE
8
OBJECT__7
66
1
70
64
71
21
72
19
62
253
0
VERTEX
8
OBJECT__7
10
-9.961000
20
-3.250000
30
-296.000000
70
192
0
VERTEX
8
OBJECT__7
10
-9.326000
20
-4.775000
30
-286.500000
70
192
0
VERTEX
8
OBJECT__7
10
-9.674000
20
-4.025000
30
-286.500000
70
192
0
VERTEX
8
OBJECT__7
10
-8.921000
20
-5.494000
30
-286.500000
70
192
0
VERTEX
8
OBJECT__7
10
-8.461000
20
-6.180000
30
-286.500000
70
192
0
VERTEX
8
OBJECT__7
10
-6.126000
20
-8.500000
30
-296.000000
70
192
0
VERTEX
8
OBJECT__7
10
-7.948000
20
-6.827000
30
-286.500000
70
192
0
VERTEX
8
OBJECT__7
10
-7.672000
20
-7.135000
30
-286.500000
70
192
0
VERTEX
8
OBJECT__7
10
-7.530000
20
-7.285000
30
-286.500000
70
192
0
VERTEX
8
OBJECT__7
10
-7.385000
20
-7.432000
30
-286.500000
70
192
0
VERTEX
8
OBJECT__7
10
-6.777000
20
-7.991000
30
-286.500000
70
192
0
VERTEX
8
OBJECT__7
10
-6.126000
20
-8.500000
30
-286.500000
70
192
0
VERTEX
8
OBJECT__7
10
-9.961000
20
3.250000
30
-296.000000
70
192
0
VERTEX
8
OBJECT__7
10
-10.347000
20
1.646000
30
-286.500000
70
192
0
VERTEX
8
OBJECT__7
10
-10.186000
20
2.456000
30
-286.500000
70
192
0
VERTEX
8
OBJECT__7
10
-10.445000
20
0.825000
30
-286.500000
70
192
0
VERTEX
8
OBJECT__7
10
-10.478000
20
0.000000
30
-286.500000
70
192
0
VERTEX
8
OBJECT__7
10
-9.961000
20
-3.250000
30
-286.500000
70
192
0
VERTEX
8
OBJECT__7
10
-6.126000
20
8.500000
30
-286.500000
70
192
0
VERTEX
8
OBJECT__7
10
-6.126000
20
8.500000
30
-296.000000
70
192
0
VERTEX
8
OBJECT__7
10
-9.961000
20
3.250000
30
-286.500000
70
192
0
VERTEX
8
OBJECT__7
10
0
20
0
30
0
70
128
71
1
72
2
73
3
0
VERTEX
8
OBJECT__7
10
0
20
0
30
0
70
128
71
1
72
4
73
2
0
VERTEX
8
OBJECT__7
10
0
20
0
30
0
70
128
71
1
72
5
73
4
0
VERTEX
8
OBJECT__7
10
0
20
0
30
0
70
128
71
6
72
7
73
5
0
VERTEX
8
OBJECT__7
10
0
20
0
30
0
70
128
71
5
72
1
73
6
0
VERTEX
8
OBJECT__7
10
0
20
0
30
0
70
128
71
6
72
8
73
7
0
VERTEX
8
OBJECT__7
10
0
20
0
30
0
70
128
71
6
72
9
73
8
0
VERTEX
8
OBJECT__7
10
0
20
0
30
0
70
128
71
6
72
10
73
9
0
VERTEX
8
OBJECT__7
10
0
20
0
30
0
70
128
71
6
72
11
73
10
0
VERTEX
8
OBJECT__7
10
0
20
0
30
0
70
128
71
6
72
12
73
11
0
VERTEX
8
OBJECT__7
10
0
20
0
30
0
70
128
71
13
72
14
73
15
0
VERTEX
8
OBJECT__7
10
0
20
0
30
0
70
128
71
13
72
16
73
14
0
VERTEX
8
OBJECT__7
10
0
20
0
30
0
70
128
71
13
72
1
73
17
0
VERTEX
8
OBJECT__7
10
0
20
0
30
0
70
128
71
17
72
16
73
13
0
VERTEX
8
OBJECT__7
10
0
20
0
30
0
70
128
71
1
72
18
73
17
0
VERTEX
8
OBJECT__7
10
0
20
0
30
0
70
128
71
19
72
20
73
13
0
VERTEX
8
OBJECT__7
10
0
20
0
30
0
70
128
71
13
72
21
73
19
0
VERTEX
8
OBJECT__7
10
0
20
0
30
0
70
128
71
15
72
21
73
13
0
VERTEX
8
OBJECT__7
10
0
20
0
30
0
70
128
71
3
72
18
73
1
0
SEQEND
8
OBJECT__7
0
POLYLINE
8
OBJECT__8
66
1
70
64
71
8
72
6
62
253
0
VERTEX
8
OBJECT__8
10
9.961000
20
-3.250000
30
-296.000000
70
192
0
VERTEX
8
OBJECT__8
10
6.126000
20
-8.500000
30
-296.000000
70
192
0
VERTEX
8
OBJECT__8
10
-6.126000
20
-8.500000
30
-296.000000
70
192
0
VERTEX
8
OBJECT__8
10
9.961000
20
3.250000
30
-296.000000
70
192
0
VERTEX
8
OBJECT__8
10
-9.961000
20
3.250000
30
-296.000000
70
192
0
VERTEX
8
OBJECT__8
10
-6.126000
20
8.500000
30
-296.000000
70
192
0
VERTEX
8
OBJECT__8
10
-9.961000
20
-3.250000
30
-296.000000
70
192
0
VERTEX
8
OBJECT__8
10
6.126000
20
8.500000
30
-296.000000
70
192
0
VERTEX
8
OBJECT__8
10
0
20
0
30
0
70
128
71
1
72
2
73
3
0
VERTEX
8
OBJECT__8
10
0
20
0
30
0
70
128
71
4
72
5
73
6
0
VERTEX
8
OBJECT__8
10
0
20
0
30
0
70
128
71
7
72
4
73
1
0
VERTEX
8
OBJECT__8
10
0
20
0
30
0
70
128
71
4
72
7
73
5
0
VERTEX
8
OBJECT__8
10
0
20
0
30
0
70
128
71
6
72
8
73
4
0
VERTEX
8
OBJECT__8
10
0
20
0
30
0
70
128
71
3
72
7
73
1
0
SEQEND
8
OBJECT__8
0
POLYLINE
8
OBJECT__9
66
1
70
64
71
12
72
10
62
253
0
VERTEX
8
OBJECT__9
10
32.500000
20
0.000000
30
0.000000
70
192
0
VERTEX
8
OBJECT__9
10
-16.250000
20
28.146000
30
0.000000
70
192
0
VERTEX
8
OBJECT__9
10
-28.146000
20
16.250000
30
0.000000
70
192
0
VERTEX
8
OBJECT__9
10
16.250000
20
-28.146000
30
0.000000
70
192
0
VERTEX
8
OBJECT__9
10
-28.146000
20
-16.250000
30
0.000000
70
192
0
VERTEX
8
OBJECT__9
10
-16.250000
20
-28.146000
30
0.000000
70
192
0
VERTEX
8
OBJECT__9
10
0.000000
20
32.500000
30
0.000000
70
192
0
VERTEX
8
OBJECT__9
10
28.146000
20
16.250000
30
0.000000
70
192
0
VERTEX
8
OBJECT__9
10
-32.500000
20
0.000000
30
0.000000
70
192
0
VERTEX
8
OBJECT__9
10
28.146000
20
-16.250000
30
0.000000
70
192
0
VERTEX
8
OBJECT__9
10
16.250000
20
28.146000
30
0.000000
70
192
0
VERTEX
8
OBJECT__9
10
0.000000
20
-32.500000
30
0.000000
70
192
0
VERTEX
8
OBJECT__9
10
0
20
0
30
0
70
128
71
1
72
2
73
3
0
VERTEX
8
OBJECT__9
10
0
20
0
30
0
70
128
71
4
72
5
73
6
0
VERTEX
8
OBJECT__9
10
0
20
0
30
0
70
128
71
1
72
7
73
2
0
VERTEX
8
OBJECT__9
10
0
20
0
30
0
70
128
71
7
72
1
73
8
0
VERTEX
8
OBJECT__9
10
0
20
0
30
0
70
128
71
9
72
4
73
10
0
VERTEX
8
OBJECT__9
10
0
20
0
30
0
70
128
71
4
72
9
73
5
0
VERTEX
8
OBJECT__9
10
0
20
0
30
0
70
128
71
8
72
11
73
7
0
VERTEX
8
OBJECT__9
10
0
20
0
30
0
70
128
71
6
72
12
73
4
0
VERTEX
8
OBJECT__9
10
0
20
0
30
0
70
128
71
10
72
1
73
9
0
VERTEX
8
OBJECT__9
10
0
20
0
30
0
70
128
71
3
72
9
73
1
0
SEQEND
8
OBJECT__9
0
POLYLINE
8
OBJECT__10
66
1
70
64
71
36
72
36
62
253
0
VERTEX
8
OBJECT__10
10
32.500000
20
0.000000
30
0.000000
70
192
0
VERTEX
8
OBJECT__10
10
32.167000
20
0.000000
30
-9.543000
70
192
0
VERTEX
8
OBJECT__10
10
29.718000
20
12.310000
30
-9.543000
70
192
0
VERTEX
8
OBJECT__10
10
28.146000
20
16.250000
30
0.000000
70
192
0
VERTEX
8
OBJECT__10
10
16.250000
20
28.146000
30
0.000000
70
192
0
VERTEX
8
OBJECT__10
10
22.745001
20
22.745001
30
-9.543000
70
192
0
VERTEX
8
OBJECT__10
10
27.400999
20
15.778000
30
-9.543000
70
192
0
VERTEX
8
OBJECT__10
10
0.000000
20
32.500000
30
0.000000
70
192
0
VERTEX
8
OBJECT__10
10
12.310000
20
29.718000
30
-9.543000
70
192
0
VERTEX
8
OBJECT__10
10
15.778000
20
27.400999
30
-9.543000
70
192
0
VERTEX
8
OBJECT__10
10
0.000000
20
32.167000
30
-9.543000
70
192
0
VERTEX
8
OBJECT__10
10
-12.310000
20
29.718000
30
-9.543000
70
192
0
VERTEX
8
OBJECT__10
10
-16.250000
20
28.146000
30
0.000000
70
192
0
VERTEX
8
OBJECT__10
10
-15.778000
20
27.400999
30
-9.543000
70
192
0
VERTEX
8
OBJECT__10
10
-22.745001
20
22.745001
30
-9.543000
70
192
0
VERTEX
8
OBJECT__10
10
-28.146000
20
16.250000
30
0.000000
70
192
0
VERTEX
8
OBJECT__10
10
-32.500000
20
0.000000
30
0.000000
70
192
0
VERTEX
8
OBJECT__10
10
-29.718000
20
12.310000
30
-9.543000
70
192
0
VERTEX
8
OBJECT__10
10
-27.400999
20
15.778000
30
-9.543000
70
192
0
VERTEX
8
OBJECT__10
10
-32.167000
20
0.000000
30
-9.543000
70
192
0
VERTEX
8
OBJECT__10
10
-29.718000
20
-12.310000
30
-9.543000
70
192
0
VERTEX
8
OBJECT__10
10
-28.146000
20
-16.250000
30
0.000000
70
192
0
VERTEX
8
OBJECT__10
10
-27.400999
20
-15.778000
30
-9.543000
70
192
0
VERTEX
8
OBJECT__10
10
-22.745001
20
-22.745001
30
-9.543000
70
192
0
VERTEX
8
OBJECT__10
10
-16.250000
20
-28.146000
30
0.000000
70
192
0
VERTEX
8
OBJECT__10
10
0.000000
20
-32.500000
30
0.000000
70
192
0
VERTEX
8
OBJECT__10
10
-12.310000
20
-29.718000
30
-9.543000
70
192
0
VERTEX
8
OBJECT__10
10
-15.778000
20
-27.400999
30
-9.543000
70
192
0
VERTEX
8
OBJECT__10
10
0.000000
20
-32.167000
30
-9.543000
70
192
0
VERTEX
8
OBJECT__10
10
12.310000
20
-29.718000
30
-9.543000
70
192
0
VERTEX
8
OBJECT__10
10
16.250000
20
-28.146000
30
0.000000
70
192
0
VERTEX
8
OBJECT__10
10
15.778000
20
-27.400999
30
-9.543000
70
192
0
VERTEX
8
OBJECT__10
10
22.745001
20
-22.745001
30
-9.543000
70
192
0
VERTEX
8
OBJECT__10
10
28.146000
20
-16.250000
30
0.000000
70
192
0
VERTEX
8
OBJECT__10
10
29.718000
20
-12.310000
30
-9.543000
70
192
0
VERTEX
8
OBJECT__10
10
27.400999
20
-15.778000
30
-9.543000
70
192
0
VERTEX
8
OBJECT__10
10
0
20
0
30
0
70
128
71
1
72
2
73
3
0
VERTEX
8
OBJECT__10
10
0
20
0
30
0
70
128
71
3
72
4
73
1
0
VERTEX
8
OBJECT__10
10
0
20
0
30
0
70
128
71
5
72
4
73
6
0
VERTEX
8
OBJECT__10
10
0
20
0
30
0
70
128
71
4
72
7
73
6
0
VERTEX
8
OBJECT__10
10
0
20
0
30
0
70
128
71
8
72
5
73
9
0
VERTEX
8
OBJECT__10
10
0
20
0
30
0
70
128
71
5
72
10
73
9
0
VERTEX
8
OBJECT__10
10
0
20
0
30
0
70
128
71
8
72
11
73
12
0
VERTEX
8
OBJECT__10
10
0
20
0
30
0
70
128
71
12
72
13
73
8
0
VERTEX
8
OBJECT__10
10
0
20
0
30
0
70
128
71
13
72
14
73
15
0
VERTEX
8
OBJECT__10
10
0
20
0
30
0
70
128
71
15
72
16
73
13
0
VERTEX
8
OBJECT__10
10
0
20
0
30
0
70
128
71
17
72
16
73
18
0
VERTEX
8
OBJECT__10
10
0
20
0
30
0
70
128
71
16
72
19
73
18
0
VERTEX
8
OBJECT__10
10
0
20
0
30
0
70
128
71
17
72
20
73
21
0
VERTEX
8
OBJECT__10
10
0
20
0
30
0
70
128
71
21
72
22
73
17
0
VERTEX
8
OBJECT__10
10
0
20
0
30
0
70
128
71
22
72
23
73
24
0
VERTEX
8
OBJECT__10
10
0
20
0
30
0
70
128
71
24
72
25
73
22
0
VERTEX
8
OBJECT__10
10
0
20
0
30
0
70
128
71
26
72
25
73
27
0
VERTEX
8
OBJECT__10
10
0
20
0
30
0
70
128
71
25
72
28
73
27
0
VERTEX
8
OBJECT__10
10
0
20
0
30
0
70
128
71
26
72
29
73
30
0
VERTEX
8
OBJECT__10
10
0
20
0
30
0
70
128
71
30
72
31
73
26
0
VERTEX
8
OBJECT__10
10
0
20
0
30
0
70
128
71
31
72
32
73
33
0
VERTEX
8
OBJECT__10
10
0
20
0
30
0
70
128
71
33
72
34
73
31
0
VERTEX
8
OBJECT__10
10
0
20
0
30
0
70
128
71
1
72
34
73
35
0
VERTEX
8
OBJECT__10
10
0
20
0
30
0
70
128
71
34
72
36
73
35
0
VERTEX
8
OBJECT__10
10
0
20
0
30
0
70
128
71
35
72
2
73
1
0
VERTEX
8
OBJECT__10
10
0
20
0
30
0
70
128
71
33
72
36
73
34
0
VERTEX
8
OBJECT__10
10
0
20
0
30
0
70
128
71
30
72
32
73
31
0
VERTEX
8
OBJECT__10
10
0
20
0
30
0
70
128
71
27
72
29
73
26
0
VERTEX
8
OBJECT__10
10
0
20
0
30
0
70
128
71
24
72
28
73
25
0
VERTEX
8
OBJECT__10
10
0
20
0
30
0
70
128
71
21
72
23
73
22
0
VERTEX
8
OBJECT__10
10
0
20
0
30
0
70
128
71
18
72
20
73
17
0
VERTEX
8
OBJECT__10
10
0
20
0
30
0
70
128
71
15
72
19
73
16
0
VERTEX
8
OBJECT__10
10
0
20
0
30
0
70
128
71
12
72
14
73
13
0
VERTEX
8
OBJECT__10
10
0
20
0
30
0
70
128
71
9
72
11
73
8
0
VERTEX
8
OBJECT__10
10
0
20
0
30
0
70
128
71
6
72
10
73
5
0
VERTEX
8
OBJECT__10
10
0
20
0
30
0
70
128
71
3
72
7
73
4
0
SEQEND
8
OBJECT__10
0
POLYLINE
8
OBJECT__12
66
1
70
64
71
40
72
40
62
253
0
VERTEX
8
OBJECT__12
10
32.167000
20
0.000000
30
-9.543000
70
192
0
VERTEX
8
OBJECT__12
10
10.800000
20
0.000000
30
-10.000000
70
192
0
VERTEX
8
OBJECT__12
10
9.978000
20
4.133000
30
-10.000000
70
192
0
VERTEX
8
OBJECT__12
10
27.400999
20
15.778000
30
-9.543000
70
192
0
VERTEX
8
OBJECT__12
10
7.637000
20
7.637000
30
-10.000000
70
192
0
VERTEX
8
OBJECT__12
10
22.745001
20
22.745001
30
-9.543000
70
192
0
VERTEX
8
OBJECT__12
10
15.778000
20
27.400999
30
-9.543000
70
192
0
VERTEX
8
OBJECT__12
10
4.133000
20
9.978000
30
-10.000000
70
192
0
VERTEX
8
OBJECT__12
10
12.310000
20
29.718000
30
-9.543000
70
192
0
VERTEX
8
OBJECT__12
10
0.000000
20
10.800000
30
-10.000000
70
192
0
VERTEX
8
OBJECT__12
10
0.000000
20
32.167000
30
-9.543000
70
192
0
VERTEX
8
OBJECT__12
10
-4.133000
20
9.978000
30
-10.000000
70
192
0
VERTEX
8
OBJECT__12
10
-15.778000
20
27.400999
30
-9.543000
70
192
0
VERTEX
8
OBJECT__12
10
-7.637000
20
7.637000
30
-10.000000
70
192
0
VERTEX
8
OBJECT__12
10
-22.745001
20
22.745001
30
-9.543000
70
192
0
VERTEX
8
OBJECT__12
10
-27.400999
20
15.778000
30
-9.543000
70
192
0
VERTEX
8
OBJECT__12
10
-9.978000
20
4.133000
30
-10.000000
70
192
0
VERTEX
8
OBJECT__12
10
-29.718000
20
12.310000
30
-9.543000
70
192
0
VERTEX
8
OBJECT__12
10
-32.167000
20
0.000000
30
-9.543000
70
192
0
VERTEX
8
OBJECT__12
10
-29.718000
20
-12.310000
30
-9.543000
70
192
0
VERTEX
8
OBJECT__12
10
-10.800000
20
0.000000
30
-10.000000
70
192
0
VERTEX
8
OBJECT__12
10
-27.400999
20
-15.778000
30
-9.543000
70
192
0
VERTEX
8
OBJECT__12
10
-9.978000
20
-4.133000
30
-10.000000
70
192
0
VERTEX
8
OBJECT__12
10
-7.637000
20
-7.637000
30
-10.000000
70
192
0
VERTEX
8
OBJECT__12
10
-22.745001
20
-22.745001
30
-9.543000
70
192
0
VERTEX
8
OBJECT__12
10
-15.778000
20
-27.400999
30
-9.543000
70
192
0
VERTEX
8
OBJECT__12
10
-4.133000
20
-9.978000
30
-10.000000
70
192
0
VERTEX
8
OBJECT__12
10
-12.310000
20
-29.718000
30
-9.543000
70
192
0
VERTEX
8
OBJECT__12
10
0.000000
20
-32.167000
30
-9.543000
70
192
0
VERTEX
8
OBJECT__12
10
12.310000
20
-29.718000
30
-9.543000
70
192
0
VERTEX
8
OBJECT__12
10
0.000000
20
-10.800000
30
-10.000000
70
192
0
VERTEX
8
OBJECT__12
10
15.778000
20
-27.400999
30
-9.543000
70
192
0
VERTEX
8
OBJECT__12
10
4.133000
20
-9.978000
30
-10.000000
70
192
0
VERTEX
8
OBJECT__12
10
7.637000
20
-7.637000
30
-10.000000
70
192
0
VERTEX
8
OBJECT__12
10
22.745001
20
-22.745001
30
-9.543000
70
192
0
VERTEX
8
OBJECT__12
10
27.400999
20
-15.778000
30
-9.543000
70
192
0
VERTEX
8
OBJECT__12
10
9.978000
20
-4.133000
30
-10.000000
70
192
0
VERTEX
8
OBJECT__12
10
29.718000
20
-12.310000
30
-9.543000
70
192
0
VERTEX
8
OBJECT__12
10
-12.310000
20
29.718000
30
-9.543000
70
192
0
VERTEX
8
OBJECT__12
10
29.718000
20
12.310000
30
-9.543000
70
192
0
VERTEX
8
OBJECT__12
10
0
20
0
30
0
70
128
71
1
72
2
73
3
0
VERTEX
8
OBJECT__12
10
0
20
0
30
0
70
128
71
4
72
3
73
5
0
VERTEX
8
OBJECT__12
10
0
20
0
30
0
70
128
71
5
72
6
73
4
0
VERTEX
8
OBJECT__12
10
0
20
0
30
0
70
128
71
7
72
6
73
5
0
VERTEX
8
OBJECT__12
10
0
20
0
30
0
70
128
71
8
72
9
73
7
0
VERTEX
8
OBJECT__12
10
0
20
0
30
0
70
128
71
9
72
8
73
10
0
VERTEX
8
OBJECT__12
10
0
20
0
30
0
70
128
71
11
72
10
73
12
0
VERTEX
8
OBJECT__12
10
0
20
0
30
0
70
128
71
13
72
12
73
14
0
VERTEX
8
OBJECT__12
10
0
20
0
30
0
70
128
71
14
72
15
73
13
0
VERTEX
8
OBJECT__12
10
0
20
0
30
0
70
128
71
16
72
15
73
14
0
VERTEX
8
OBJECT__12
10
0
20
0
30
0
70
128
71
17
72
18
73
16
0
VERTEX
8
OBJECT__12
10
0
20
0
30
0
70
128
71
19
72
18
73
17
0
VERTEX
8
OBJECT__12
10
0
20
0
30
0
70
128
71
20
72
19
73
21
0
VERTEX
8
OBJECT__12
10
0
20
0
30
0
70
128
71
22
72
23
73
24
0
VERTEX
8
OBJECT__12
10
0
20
0
30
0
70
128
71
24
72
25
73
22
0
VERTEX
8
OBJECT__12
10
0
20
0
30
0
70
128
71
26
72
25
73
24
0
VERTEX
8
OBJECT__12
10
0
20
0
30
0
70
128
71
27
72
28
73
26
0
VERTEX
8
OBJECT__12
10
0
20
0
30
0
70
128
71
29
72
28
73
27
0
VERTEX
8
OBJECT__12
10
0
20
0
30
0
70
128
71
30
72
29
73
31
0
VERTEX
8
OBJECT__12
10
0
20
0
30
0
70
128
71
32
72
33
73
34
0
VERTEX
8
OBJECT__12
10
0
20
0
30
0
70
128
71
34
72
35
73
32
0
VERTEX
8
OBJECT__12
10
0
20
0
30
0
70
128
71
36
72
35
73
34
0
VERTEX
8
OBJECT__12
10
0
20
0
30
0
70
128
71
37
72
38
73
36
0
VERTEX
8
OBJECT__12
10
0
20
0
30
0
70
128
71
38
72
37
73
2
0
VERTEX
8
OBJECT__12
10
0
20
0
30
0
70
128
71
2
72
1
73
38
0
VERTEX
8
OBJECT__12
10
0
20
0
30
0
70
128
71
34
72
37
73
36
0
VERTEX
8
OBJECT__12
10
0
20
0
30
0
70
128
71
32
72
30
73
33
0
VERTEX
8
OBJECT__12
10
0
20
0
30
0
70
128
71
31
72
33
73
30
0
VERTEX
8
OBJECT__12
10
0
20
0
30
0
70
128
71
27
72
31
73
29
0
VERTEX
8
OBJECT__12
10
0
20
0
30
0
70
128
71
24
72
27
73
26
0
VERTEX
8
OBJECT__12
10
0
20
0
30
0
70
128
71
22
72
20
73
23
0
VERTEX
8
OBJECT__12
10
0
20
0
30
0
70
128
71
21
72
23
73
20
0
VERTEX
8
OBJECT__12
10
0
20
0
30
0
70
128
71
17
72
21
73
19
0
VERTEX
8
OBJECT__12
10
0
20
0
30
0
70
128
71
14
72
17
73
16
0
VERTEX
8
OBJECT__12
10
0
20
0
30
0
70
128
71
13
72
39
73
12
0
VERTEX
8
OBJECT__12
10
0
20
0
30
0
70
128
71
12
72
39
73
11
0
VERTEX
8
OBJECT__12
10
0
20
0
30
0
70
128
71
10
72
11
73
9
0
VERTEX
8
OBJECT__12
10
0
20
0
30
0
70
128
71
5
72
8
73
7
0
VERTEX
8
OBJECT__12
10
0
20
0
30
0
70
128
71
4
72
40
73
3
0
VERTEX
8
OBJECT__12
10
0
20
0
30
0
70
128
71
3
72
40
73
1
0
SEQEND
8
OBJECT__12
0
ENDSEC
0
EOF
