999
Converted by 3D Exploration 
999
XDimension Software, LLC
999
http://www.xdsoft.com/explorer/
0
SECTION
2
HEADER
9
$ACADVER
1
AC1008
9
$UCSORG
10
0.0
20
0.0
30
0.0
9
$UCSXDIR
10
1.0
20
0.0
30
0.0
9
$TILEMODE
70
1
9
$UCSYDIR
10
0.0
20
1.0
30
0.0
9
$EXTMIN
10
-12.015000
20
-24.082001
30
-24.082001
9
$EXTMAX
10
42.348999
20
24.080999
30
240.108994
0
ENDSEC
0
SECTION
2
TABLES
0
TABLE
2
LTYPE
70
1
0
LTYPE
2
CONTINUOUS
70
64
3
Solid line
72
65
73
0
40
0.0
0
ENDTAB
0
TABLE
2
LAYER
70
58
0
LAYER
2
OBJECT__0
70
0
62
253
6
CONTINUOUS
0
LAYER
2
OBJECT__1
70
0
62
253
6
CONTINUOUS
0
LAYER
2
OBJECT__3
70
0
62
253
6
CONTINUOUS
0
LAYER
2
OBJECT__4
70
0
62
253
6
CONTINUOUS
0
LAYER
2
OBJECT__5
70
0
62
253
6
CONTINUOUS
0
LAYER
2
OBJECT__6
70
0
62
253
6
CONTINUOUS
0
LAYER
2
OBJECT__7
70
0
62
253
6
CONTINUOUS
0
LAYER
2
OBJECT__8
70
0
62
253
6
CONTINUOUS
0
LAYER
2
OBJECT__9
70
0
62
253
6
CONTINUOUS
0
LAYER
2
OBJECT__10
70
0
62
253
6
CONTINUOUS
0
LAYER
2
OBJECT__11
70
0
62
253
6
CONTINUOUS
0
LAYER
2
OBJECT__12
70
0
62
253
6
CONTINUOUS
0
LAYER
2
OBJECT__14
70
0
62
253
6
CONTINUOUS
0
LAYER
2
OBJECT__15
70
0
62
253
6
CONTINUOUS
0
LAYER
2
OBJECT__16
70
0
62
253
6
CONTINUOUS
0
LAYER
2
OBJECT__17
70
0
62
253
6
CONTINUOUS
0
LAYER
2
OBJECT__18
70
0
62
253
6
CONTINUOUS
0
LAYER
2
OBJECT__19
70
0
62
253
6
CONTINUOUS
0
LAYER
2
OBJECT__20
70
0
62
253
6
CONTINUOUS
0
LAYER
2
OBJECT__21
70
0
62
253
6
CONTINUOUS
0
LAYER
2
OBJECT__22
70
0
62
253
6
CONTINUOUS
0
LAYER
2
OBJECT__23
70
0
62
253
6
CONTINUOUS
0
LAYER
2
OBJECT__24
70
0
62
253
6
CONTINUOUS
0
LAYER
2
OBJECT__25
70
0
62
253
6
CONTINUOUS
0
LAYER
2
OBJECT__26
70
0
62
253
6
CONTINUOUS
0
LAYER
2
OBJECT__27
70
0
62
253
6
CONTINUOUS
0
LAYER
2
OBJECT__28
70
0
62
253
6
CONTINUOUS
0
LAYER
2
OBJECT__29
70
0
62
253
6
CONTINUOUS
0
LAYER
2
OBJECT__30
70
0
62
253
6
CONTINUOUS
0
LAYER
2
OBJECT__31
70
0
62
253
6
CONTINUOUS
0
LAYER
2
OBJECT__32
70
0
62
253
6
CONTINUOUS
0
LAYER
2
OBJECT__33
70
0
62
253
6
CONTINUOUS
0
LAYER
2
OBJECT__34
70
0
62
253
6
CONTINUOUS
0
LAYER
2
OBJECT__35
70
0
62
253
6
CONTINUOUS
0
LAYER
2
OBJECT__36
70
0
62
253
6
CONTINUOUS
0
LAYER
2
OBJECT__37
70
0
62
253
6
CONTINUOUS
0
LAYER
2
OBJECT__38
70
0
62
253
6
CONTINUOUS
0
LAYER
2
OBJECT__39
70
0
62
253
6
CONTINUOUS
0
LAYER
2
OBJECT__40
70
0
62
253
6
CONTINUOUS
0
LAYER
2
OBJECT__41
70
0
62
253
6
CONTINUOUS
0
LAYER
2
OBJECT__42
70
0
62
253
6
CONTINUOUS
0
LAYER
2
OBJECT__43
70
0
62
253
6
CONTINUOUS
0
LAYER
2
OBJECT__44
70
0
62
253
6
CONTINUOUS
0
LAYER
2
OBJECT__45
70
0
62
253
6
CONTINUOUS
0
LAYER
2
OBJECT__46
70
0
62
253
6
CONTINUOUS
0
LAYER
2
OBJECT__47
70
0
62
253
6
CONTINUOUS
0
LAYER
2
OBJECT__48
70
0
62
253
6
CONTINUOUS
0
LAYER
2
OBJECT__49
70
0
62
253
6
CONTINUOUS
0
LAYER
2
OBJECT__50
70
0
62
253
6
CONTINUOUS
0
LAYER
2
OBJECT__51
70
0
62
253
6
CONTINUOUS
0
LAYER
2
OBJECT__52
70
0
62
253
6
CONTINUOUS
0
LAYER
2
OBJECT__53
70
0
62
253
6
CONTINUOUS
0
LAYER
2
OBJECT__54
70
0
62
253
6
CONTINUOUS
0
LAYER
2
OBJECT__55
70
0
62
253
6
CONTINUOUS
0
LAYER
2
OBJECT__56
70
0
62
253
6
CONTINUOUS
0
LAYER
2
OBJECT__57
70
0
62
253
6
CONTINUOUS
0
ENDTAB
0
TABLE
2
STYLE
70
1
0
STYLE
2
STANDARD
70
0
40
0.0
41
1.0
50
0.0
71
0
42
0.2
3
txt
4
1
0
ENDTAB
0
TABLE
2
UCS
70
0
0
ENDTAB
0
ENDSEC
0
SECTION
2
ENTITIES
0
POLYLINE
8
OBJECT__0
66
1
70
64
71
7
72
5
62
253
0
VERTEX
8
OBJECT__0
10
7.193000
20
-5.736000
30
0.000000
70
192
0
VERTEX
8
OBJECT__0
10
-8.969000
20
2.047000
30
0.000000
70
192
0
VERTEX
8
OBJECT__0
10
-3.992000
20
8.289000
30
0.000000
70
192
0
VERTEX
8
OBJECT__0
10
3.992000
20
8.289000
30
0.000000
70
192
0
VERTEX
8
OBJECT__0
10
0.000000
20
-9.200000
30
0.000000
70
192
0
VERTEX
8
OBJECT__0
10
-7.193000
20
-5.736000
30
0.000000
70
192
0
VERTEX
8
OBJECT__0
10
8.969000
20
2.047000
30
0.000000
70
192
0
VERTEX
8
OBJECT__0
10
0
20
0
30
0
70
128
71
1
72
2
73
3
0
VERTEX
8
OBJECT__0
10
0
20
0
30
0
70
128
71
3
72
4
73
1
0
VERTEX
8
OBJECT__0
10
0
20
0
30
0
70
128
71
1
72
5
73
6
0
VERTEX
8
OBJECT__0
10
0
20
0
30
0
70
128
71
6
72
2
73
1
0
VERTEX
8
OBJECT__0
10
0
20
0
30
0
70
128
71
4
72
7
73
1
0
SEQEND
8
OBJECT__0
0
POLYLINE
8
OBJECT__1
66
1
70
64
71
21
72
21
62
253
0
VERTEX
8
OBJECT__1
10
0.000000
20
-9.200000
30
0.000000
70
192
0
VERTEX
8
OBJECT__1
10
0.000000
20
-9.200000
30
1.200000
70
192
0
VERTEX
8
OBJECT__1
10
-6.505000
20
-6.505000
30
1.200000
70
192
0
VERTEX
8
OBJECT__1
10
-7.193000
20
-5.736000
30
0.000000
70
192
0
VERTEX
8
OBJECT__1
10
-6.878000
20
-5.606000
30
1.200000
70
192
0
VERTEX
8
OBJECT__1
10
-9.200000
20
0.000000
30
1.200000
70
192
0
VERTEX
8
OBJECT__1
10
-8.969000
20
2.047000
30
0.000000
70
192
0
VERTEX
8
OBJECT__1
10
-8.442000
20
1.829000
30
1.200000
70
192
0
VERTEX
8
OBJECT__1
10
-6.505000
20
6.505000
30
1.200000
70
192
0
VERTEX
8
OBJECT__1
10
-3.992000
20
8.289000
30
0.000000
70
192
0
VERTEX
8
OBJECT__1
10
-3.729000
20
7.655000
30
1.200000
70
192
0
VERTEX
8
OBJECT__1
10
0.000000
20
9.200000
30
1.200000
70
192
0
VERTEX
8
OBJECT__1
10
3.992000
20
8.289000
30
0.000000
70
192
0
VERTEX
8
OBJECT__1
10
8.969000
20
2.047000
30
0.000000
70
192
0
VERTEX
8
OBJECT__1
10
6.505000
20
6.505000
30
1.200000
70
192
0
VERTEX
8
OBJECT__1
10
3.729000
20
7.655000
30
1.200000
70
192
0
VERTEX
8
OBJECT__1
10
7.193000
20
-5.736000
30
0.000000
70
192
0
VERTEX
8
OBJECT__1
10
9.200000
20
0.000000
30
1.200000
70
192
0
VERTEX
8
OBJECT__1
10
8.442000
20
1.829000
30
1.200000
70
192
0
VERTEX
8
OBJECT__1
10
6.505000
20
-6.505000
30
1.200000
70
192
0
VERTEX
8
OBJECT__1
10
6.878000
20
-5.606000
30
1.200000
70
192
0
VERTEX
8
OBJECT__1
10
0
20
0
30
0
70
128
71
1
72
2
73
3
0
VERTEX
8
OBJECT__1
10
0
20
0
30
0
70
128
71
3
72
4
73
1
0
VERTEX
8
OBJECT__1
10
0
20
0
30
0
70
128
71
4
72
5
73
6
0
VERTEX
8
OBJECT__1
10
0
20
0
30
0
70
128
71
6
72
7
73
4
0
VERTEX
8
OBJECT__1
10
0
20
0
30
0
70
128
71
7
72
8
73
9
0
VERTEX
8
OBJECT__1
10
0
20
0
30
0
70
128
71
9
72
10
73
7
0
VERTEX
8
OBJECT__1
10
0
20
0
30
0
70
128
71
10
72
11
73
12
0
VERTEX
8
OBJECT__1
10
0
20
0
30
0
70
128
71
12
72
13
73
10
0
VERTEX
8
OBJECT__1
10
0
20
0
30
0
70
128
71
14
72
13
73
15
0
VERTEX
8
OBJECT__1
10
0
20
0
30
0
70
128
71
13
72
16
73
15
0
VERTEX
8
OBJECT__1
10
0
20
0
30
0
70
128
71
17
72
14
73
18
0
VERTEX
8
OBJECT__1
10
0
20
0
30
0
70
128
71
14
72
19
73
18
0
VERTEX
8
OBJECT__1
10
0
20
0
30
0
70
128
71
1
72
17
73
20
0
VERTEX
8
OBJECT__1
10
0
20
0
30
0
70
128
71
17
72
21
73
20
0
VERTEX
8
OBJECT__1
10
0
20
0
30
0
70
128
71
20
72
2
73
1
0
VERTEX
8
OBJECT__1
10
0
20
0
30
0
70
128
71
18
72
21
73
17
0
VERTEX
8
OBJECT__1
10
0
20
0
30
0
70
128
71
15
72
19
73
14
0
VERTEX
8
OBJECT__1
10
0
20
0
30
0
70
128
71
12
72
16
73
13
0
VERTEX
8
OBJECT__1
10
0
20
0
30
0
70
128
71
9
72
11
73
10
0
VERTEX
8
OBJECT__1
10
0
20
0
30
0
70
128
71
6
72
8
73
7
0
VERTEX
8
OBJECT__1
10
0
20
0
30
0
70
128
71
3
72
5
73
4
0
SEQEND
8
OBJECT__1
0
POLYLINE
8
OBJECT__3
66
1
70
64
71
22
72
22
62
253
0
VERTEX
8
OBJECT__3
10
0.000000
20
10.477000
30
2.477000
70
192
0
VERTEX
8
OBJECT__3
10
0.000000
20
9.200000
30
1.200000
70
192
0
VERTEX
8
OBJECT__3
10
-3.729000
20
7.655000
30
1.200000
70
192
0
VERTEX
8
OBJECT__3
10
-7.409000
20
7.409000
30
2.477000
70
192
0
VERTEX
8
OBJECT__3
10
-6.505000
20
6.505000
30
1.200000
70
192
0
VERTEX
8
OBJECT__3
10
-8.442000
20
1.829000
30
1.200000
70
192
0
VERTEX
8
OBJECT__3
10
-10.477000
20
0.000000
30
2.477000
70
192
0
VERTEX
8
OBJECT__3
10
-9.200000
20
0.000000
30
1.200000
70
192
0
VERTEX
8
OBJECT__3
10
-6.878000
20
-5.606000
30
1.200000
70
192
0
VERTEX
8
OBJECT__3
10
-7.409000
20
-7.409000
30
2.477000
70
192
0
VERTEX
8
OBJECT__3
10
0.000000
20
-10.478000
30
2.477000
70
192
0
VERTEX
8
OBJECT__3
10
-6.505000
20
-6.505000
30
1.200000
70
192
0
VERTEX
8
OBJECT__3
10
7.409000
20
-7.409000
30
2.477000
70
192
0
VERTEX
8
OBJECT__3
10
0.000000
20
-9.200000
30
1.200000
70
192
0
VERTEX
8
OBJECT__3
10
10.478000
20
0.000000
30
2.477000
70
192
0
VERTEX
8
OBJECT__3
10
6.878000
20
-5.606000
30
1.200000
70
192
0
VERTEX
8
OBJECT__3
10
6.505000
20
-6.505000
30
1.200000
70
192
0
VERTEX
8
OBJECT__3
10
7.409000
20
7.409000
30
2.477000
70
192
0
VERTEX
8
OBJECT__3
10
8.442000
20
1.829000
30
1.200000
70
192
0
VERTEX
8
OBJECT__3
10
9.200000
20
0.000000
30
1.200000
70
192
0
VERTEX
8
OBJECT__3
10
3.729000
20
7.655000
30
1.200000
70
192
0
VERTEX
8
OBJECT__3
10
6.505000
20
6.505000
30
1.200000
70
192
0
VERTEX
8
OBJECT__3
10
0
20
0
30
0
70
128
71
1
72
2
73
3
0
VERTEX
8
OBJECT__3
10
0
20
0
30
0
70
128
71
3
72
4
73
1
0
VERTEX
8
OBJECT__3
10
0
20
0
30
0
70
128
71
4
72
5
73
6
0
VERTEX
8
OBJECT__3
10
0
20
0
30
0
70
128
71
6
72
7
73
4
0
VERTEX
8
OBJECT__3
10
0
20
0
30
0
70
128
71
7
72
8
73
9
0
VERTEX
8
OBJECT__3
10
0
20
0
30
0
70
128
71
9
72
10
73
7
0
VERTEX
8
OBJECT__3
10
0
20
0
30
0
70
128
71
11
72
10
73
12
0
VERTEX
8
OBJECT__3
10
0
20
0
30
0
70
128
71
13
72
11
73
14
0
VERTEX
8
OBJECT__3
10
0
20
0
30
0
70
128
71
15
72
13
73
16
0
VERTEX
8
OBJECT__3
10
0
20
0
30
0
70
128
71
13
72
17
73
16
0
VERTEX
8
OBJECT__3
10
0
20
0
30
0
70
128
71
18
72
15
73
19
0
VERTEX
8
OBJECT__3
10
0
20
0
30
0
70
128
71
15
72
20
73
19
0
VERTEX
8
OBJECT__3
10
0
20
0
30
0
70
128
71
1
72
18
73
21
0
VERTEX
8
OBJECT__3
10
0
20
0
30
0
70
128
71
18
72
22
73
21
0
VERTEX
8
OBJECT__3
10
0
20
0
30
0
70
128
71
21
72
2
73
1
0
VERTEX
8
OBJECT__3
10
0
20
0
30
0
70
128
71
19
72
22
73
18
0
VERTEX
8
OBJECT__3
10
0
20
0
30
0
70
128
71
16
72
20
73
15
0
VERTEX
8
OBJECT__3
10
0
20
0
30
0
70
128
71
14
72
17
73
13
0
VERTEX
8
OBJECT__3
10
0
20
0
30
0
70
128
71
12
72
14
73
11
0
VERTEX
8
OBJECT__3
10
0
20
0
30
0
70
128
71
9
72
12
73
10
0
VERTEX
8
OBJECT__3
10
0
20
0
30
0
70
128
71
6
72
8
73
7
0
VERTEX
8
OBJECT__3
10
0
20
0
30
0
70
128
71
3
72
5
73
4
0
SEQEND
8
OBJECT__3
0
POLYLINE
8
OBJECT__4
66
1
70
64
71
16
72
16
62
253
0
VERTEX
8
OBJECT__4
10
-7.409000
20
7.409000
30
2.478000
70
192
0
VERTEX
8
OBJECT__4
10
-7.409000
20
7.409000
30
8.300000
70
192
0
VERTEX
8
OBJECT__4
10
0.000000
20
10.477000
30
8.300000
70
192
0
VERTEX
8
OBJECT__4
10
-10.477000
20
0.000000
30
2.478000
70
192
0
VERTEX
8
OBJECT__4
10
-10.477000
20
0.000000
30
8.300000
70
192
0
VERTEX
8
OBJECT__4
10
-7.409000
20
-7.409000
30
2.478000
70
192
0
VERTEX
8
OBJECT__4
10
-7.409000
20
-7.409000
30
8.300000
70
192
0
VERTEX
8
OBJECT__4
10
0.000000
20
-10.478000
30
2.478000
70
192
0
VERTEX
8
OBJECT__4
10
0.000000
20
-10.478000
30
8.300000
70
192
0
VERTEX
8
OBJECT__4
10
7.409000
20
-7.409000
30
2.478000
70
192
0
VERTEX
8
OBJECT__4
10
7.409000
20
-7.409000
30
8.300000
70
192
0
VERTEX
8
OBJECT__4
10
10.478000
20
0.000000
30
2.478000
70
192
0
VERTEX
8
OBJECT__4
10
10.478000
20
0.000000
30
8.300000
70
192
0
VERTEX
8
OBJECT__4
10
7.409000
20
7.409000
30
2.478000
70
192
0
VERTEX
8
OBJECT__4
10
7.409000
20
7.409000
30
8.300000
70
192
0
VERTEX
8
OBJECT__4
10
0.000000
20
10.477000
30
2.478000
70
192
0
VERTEX
8
OBJECT__4
10
0
20
0
30
0
70
128
71
1
72
2
73
3
0
VERTEX
8
OBJECT__4
10
0
20
0
30
0
70
128
71
4
72
5
73
2
0
VERTEX
8
OBJECT__4
10
0
20
0
30
0
70
128
71
6
72
7
73
5
0
VERTEX
8
OBJECT__4
10
0
20
0
30
0
70
128
71
8
72
9
73
7
0
VERTEX
8
OBJECT__4
10
0
20
0
30
0
70
128
71
10
72
11
73
9
0
VERTEX
8
OBJECT__4
10
0
20
0
30
0
70
128
71
12
72
13
73
11
0
VERTEX
8
OBJECT__4
10
0
20
0
30
0
70
128
71
14
72
15
73
13
0
VERTEX
8
OBJECT__4
10
0
20
0
30
0
70
128
71
16
72
3
73
15
0
VERTEX
8
OBJECT__4
10
0
20
0
30
0
70
128
71
15
72
14
73
16
0
VERTEX
8
OBJECT__4
10
0
20
0
30
0
70
128
71
13
72
12
73
14
0
VERTEX
8
OBJECT__4
10
0
20
0
30
0
70
128
71
11
72
10
73
12
0
VERTEX
8
OBJECT__4
10
0
20
0
30
0
70
128
71
9
72
8
73
10
0
VERTEX
8
OBJECT__4
10
0
20
0
30
0
70
128
71
7
72
6
73
8
0
VERTEX
8
OBJECT__4
10
0
20
0
30
0
70
128
71
5
72
4
73
6
0
VERTEX
8
OBJECT__4
10
0
20
0
30
0
70
128
71
2
72
1
73
4
0
VERTEX
8
OBJECT__4
10
0
20
0
30
0
70
128
71
3
72
16
73
1
0
SEQEND
8
OBJECT__4
0
POLYLINE
8
OBJECT__5
66
1
70
64
71
18
72
18
62
253
0
VERTEX
8
OBJECT__5
10
-7.409000
20
7.409000
30
8.300000
70
192
0
VERTEX
8
OBJECT__5
10
-10.477000
20
0.000000
30
8.300000
70
192
0
VERTEX
8
OBJECT__5
10
-9.225000
20
2.997000
30
8.300000
70
192
0
VERTEX
8
OBJECT__5
10
-7.409000
20
-7.409000
30
8.300000
70
192
0
VERTEX
8
OBJECT__5
10
-9.225000
20
-2.997000
30
8.300000
70
192
0
VERTEX
8
OBJECT__5
10
0.000000
20
10.477000
30
8.300000
70
192
0
VERTEX
8
OBJECT__5
10
-5.702000
20
7.847000
30
8.300000
70
192
0
VERTEX
8
OBJECT__5
10
0.000000
20
-10.478000
30
8.300000
70
192
0
VERTEX
8
OBJECT__5
10
0.000000
20
-9.700000
30
8.300000
70
192
0
VERTEX
8
OBJECT__5
10
-5.702000
20
-7.847000
30
8.300000
70
192
0
VERTEX
8
OBJECT__5
10
7.409000
20
-7.409000
30
8.300000
70
192
0
VERTEX
8
OBJECT__5
10
5.702000
20
-7.847000
30
8.300000
70
192
0
VERTEX
8
OBJECT__5
10
0.000000
20
9.700000
30
8.300000
70
192
0
VERTEX
8
OBJECT__5
10
10.478000
20
0.000000
30
8.300000
70
192
0
VERTEX
8
OBJECT__5
10
9.225000
20
-2.997000
30
8.300000
70
192
0
VERTEX
8
OBJECT__5
10
7.409000
20
7.409000
30
8.300000
70
192
0
VERTEX
8
OBJECT__5
10
9.225000
20
2.997000
30
8.300000
70
192
0
VERTEX
8
OBJECT__5
10
5.702000
20
7.847000
30
8.300000
70
192
0
VERTEX
8
OBJECT__5
10
0
20
0
30
0
70
128
71
1
72
2
73
3
0
VERTEX
8
OBJECT__5
10
0
20
0
30
0
70
128
71
2
72
4
73
5
0
VERTEX
8
OBJECT__5
10
0
20
0
30
0
70
128
71
6
72
1
73
7
0
VERTEX
8
OBJECT__5
10
0
20
0
30
0
70
128
71
5
72
3
73
2
0
VERTEX
8
OBJECT__5
10
0
20
0
30
0
70
128
71
3
72
7
73
1
0
VERTEX
8
OBJECT__5
10
0
20
0
30
0
70
128
71
8
72
9
73
10
0
VERTEX
8
OBJECT__5
10
0
20
0
30
0
70
128
71
8
72
11
73
12
0
VERTEX
8
OBJECT__5
10
0
20
0
30
0
70
128
71
4
72
10
73
5
0
VERTEX
8
OBJECT__5
10
0
20
0
30
0
70
128
71
7
72
13
73
6
0
VERTEX
8
OBJECT__5
10
0
20
0
30
0
70
128
71
12
72
9
73
8
0
VERTEX
8
OBJECT__5
10
0
20
0
30
0
70
128
71
11
72
14
73
15
0
VERTEX
8
OBJECT__5
10
0
20
0
30
0
70
128
71
14
72
16
73
17
0
VERTEX
8
OBJECT__5
10
0
20
0
30
0
70
128
71
6
72
13
73
18
0
VERTEX
8
OBJECT__5
10
0
20
0
30
0
70
128
71
10
72
4
73
8
0
VERTEX
8
OBJECT__5
10
0
20
0
30
0
70
128
71
17
72
15
73
14
0
VERTEX
8
OBJECT__5
10
0
20
0
30
0
70
128
71
18
72
16
73
6
0
VERTEX
8
OBJECT__5
10
0
20
0
30
0
70
128
71
15
72
12
73
11
0
VERTEX
8
OBJECT__5
10
0
20
0
30
0
70
128
71
18
72
17
73
16
0
SEQEND
8
OBJECT__5
0
POLYLINE
8
OBJECT__6
66
1
70
64
71
26
72
26
62
253
0
VERTEX
8
OBJECT__6
10
0.000000
20
9.700000
30
8.300000
70
192
0
VERTEX
8
OBJECT__6
10
-5.702000
20
7.847000
30
8.300000
70
192
0
VERTEX
8
OBJECT__6
10
-5.408000
20
7.443000
30
8.800000
70
192
0
VERTEX
8
OBJECT__6
10
-9.225000
20
2.997000
30
8.300000
70
192
0
VERTEX
8
OBJECT__6
10
-8.750000
20
2.843000
30
8.800000
70
192
0
VERTEX
8
OBJECT__6
10
-6.836000
20
5.477000
30
8.800000
70
192
0
VERTEX
8
OBJECT__6
10
-9.225000
20
-2.997000
30
8.300000
70
192
0
VERTEX
8
OBJECT__6
10
-8.750000
20
-2.047000
30
8.800000
70
192
0
VERTEX
8
OBJECT__6
10
-8.750000
20
-2.843000
30
8.800000
70
192
0
VERTEX
8
OBJECT__6
10
-5.702000
20
-7.847000
30
8.300000
70
192
0
VERTEX
8
OBJECT__6
10
-5.408000
20
-7.443000
30
8.800000
70
192
0
VERTEX
8
OBJECT__6
10
0.000000
20
-9.700000
30
8.300000
70
192
0
VERTEX
8
OBJECT__6
10
0.000000
20
-9.200000
30
8.800000
70
192
0
VERTEX
8
OBJECT__6
10
-3.878000
20
-7.940000
30
8.800000
70
192
0
VERTEX
8
OBJECT__6
10
5.702000
20
-7.847000
30
8.300000
70
192
0
VERTEX
8
OBJECT__6
10
3.878000
20
-7.940000
30
8.800000
70
192
0
VERTEX
8
OBJECT__6
10
5.408000
20
-7.443000
30
8.800000
70
192
0
VERTEX
8
OBJECT__6
10
9.225000
20
-2.997000
30
8.300000
70
192
0
VERTEX
8
OBJECT__6
10
8.750000
20
-2.843000
30
8.800000
70
192
0
VERTEX
8
OBJECT__6
10
9.225000
20
2.997000
30
8.300000
70
192
0
VERTEX
8
OBJECT__6
10
8.750000
20
2.843000
30
8.800000
70
192
0
VERTEX
8
OBJECT__6
10
8.750000
20
-2.047000
30
8.800000
70
192
0
VERTEX
8
OBJECT__6
10
5.702000
20
7.847000
30
8.300000
70
192
0
VERTEX
8
OBJECT__6
10
6.836000
20
5.477000
30
8.800000
70
192
0
VERTEX
8
OBJECT__6
10
5.408000
20
7.443000
30
8.800000
70
192
0
VERTEX
8
OBJECT__6
10
0.000000
20
9.200000
30
8.800000
70
192
0
VERTEX
8
OBJECT__6
10
0
20
0
30
0
70
128
71
1
72
2
73
3
0
VERTEX
8
OBJECT__6
10
0
20
0
30
0
70
128
71
4
72
5
73
6
0
VERTEX
8
OBJECT__6
10
0
20
0
30
0
70
128
71
6
72
2
73
4
0
VERTEX
8
OBJECT__6
10
0
20
0
30
0
70
128
71
4
72
7
73
8
0
VERTEX
8
OBJECT__6
10
0
20
0
30
0
70
128
71
7
72
9
73
8
0
VERTEX
8
OBJECT__6
10
0
20
0
30
0
70
128
71
7
72
10
73
11
0
VERTEX
8
OBJECT__6
10
0
20
0
30
0
70
128
71
12
72
13
73
14
0
VERTEX
8
OBJECT__6
10
0
20
0
30
0
70
128
71
14
72
10
73
12
0
VERTEX
8
OBJECT__6
10
0
20
0
30
0
70
128
71
12
72
15
73
16
0
VERTEX
8
OBJECT__6
10
0
20
0
30
0
70
128
71
15
72
17
73
16
0
VERTEX
8
OBJECT__6
10
0
20
0
30
0
70
128
71
15
72
18
73
19
0
VERTEX
8
OBJECT__6
10
0
20
0
30
0
70
128
71
20
72
21
73
22
0
VERTEX
8
OBJECT__6
10
0
20
0
30
0
70
128
71
22
72
18
73
20
0
VERTEX
8
OBJECT__6
10
0
20
0
30
0
70
128
71
20
72
23
73
24
0
VERTEX
8
OBJECT__6
10
0
20
0
30
0
70
128
71
23
72
25
73
24
0
VERTEX
8
OBJECT__6
10
0
20
0
30
0
70
128
71
1
72
26
73
25
0
VERTEX
8
OBJECT__6
10
0
20
0
30
0
70
128
71
25
72
23
73
1
0
VERTEX
8
OBJECT__6
10
0
20
0
30
0
70
128
71
24
72
21
73
20
0
VERTEX
8
OBJECT__6
10
0
20
0
30
0
70
128
71
22
72
19
73
18
0
VERTEX
8
OBJECT__6
10
0
20
0
30
0
70
128
71
19
72
17
73
15
0
VERTEX
8
OBJECT__6
10
0
20
0
30
0
70
128
71
16
72
13
73
12
0
VERTEX
8
OBJECT__6
10
0
20
0
30
0
70
128
71
14
72
11
73
10
0
VERTEX
8
OBJECT__6
10
0
20
0
30
0
70
128
71
11
72
9
73
7
0
VERTEX
8
OBJECT__6
10
0
20
0
30
0
70
128
71
8
72
5
73
4
0
VERTEX
8
OBJECT__6
10
0
20
0
30
0
70
128
71
6
72
3
73
2
0
VERTEX
8
OBJECT__6
10
0
20
0
30
0
70
128
71
3
72
26
73
1
0
SEQEND
8
OBJECT__6
0
POLYLINE
8
OBJECT__7
66
1
70
64
71
32
72
32
62
253
0
VERTEX
8
OBJECT__7
10
-5.408000
20
7.443000
30
9.500000
70
192
0
VERTEX
8
OBJECT__7
10
-5.408000
20
7.443000
30
8.800000
70
192
0
VERTEX
8
OBJECT__7
10
-6.836000
20
5.477000
30
8.800000
70
192
0
VERTEX
8
OBJECT__7
10
0.000000
20
9.200000
30
8.800000
70
192
0
VERTEX
8
OBJECT__7
10
0.000000
20
9.200000
30
9.500000
70
192
0
VERTEX
8
OBJECT__7
10
-8.750000
20
2.843000
30
9.500000
70
192
0
VERTEX
8
OBJECT__7
10
-8.750000
20
2.843000
30
8.800000
70
192
0
VERTEX
8
OBJECT__7
10
-8.750000
20
-2.047000
30
8.800000
70
192
0
VERTEX
8
OBJECT__7
10
-6.836000
20
5.477000
30
9.500000
70
192
0
VERTEX
8
OBJECT__7
10
-3.878000
20
-7.940000
30
9.500000
70
192
0
VERTEX
8
OBJECT__7
10
-5.408000
20
-7.443000
30
9.500000
70
192
0
VERTEX
8
OBJECT__7
10
-5.408000
20
-7.443000
30
8.800000
70
192
0
VERTEX
8
OBJECT__7
10
-8.750000
20
-2.843000
30
8.800000
70
192
0
VERTEX
8
OBJECT__7
10
-8.750000
20
-2.843000
30
9.500000
70
192
0
VERTEX
8
OBJECT__7
10
-8.750000
20
-2.047000
30
9.500000
70
192
0
VERTEX
8
OBJECT__7
10
0.000000
20
-9.200000
30
9.500000
70
192
0
VERTEX
8
OBJECT__7
10
0.000000
20
-9.200000
30
8.800000
70
192
0
VERTEX
8
OBJECT__7
10
3.878000
20
-7.940000
30
8.800000
70
192
0
VERTEX
8
OBJECT__7
10
-3.878000
20
-7.940000
30
8.800000
70
192
0
VERTEX
8
OBJECT__7
10
8.750000
20
-2.843000
30
9.500000
70
192
0
VERTEX
8
OBJECT__7
10
8.750000
20
-2.843000
30
8.800000
70
192
0
VERTEX
8
OBJECT__7
10
8.750000
20
-2.047000
30
8.800000
70
192
0
VERTEX
8
OBJECT__7
10
5.408000
20
-7.443000
30
8.800000
70
192
0
VERTEX
8
OBJECT__7
10
5.408000
20
-7.443000
30
9.500000
70
192
0
VERTEX
8
OBJECT__7
10
3.878000
20
-7.940000
30
9.500000
70
192
0
VERTEX
8
OBJECT__7
10
8.750000
20
2.843000
30
8.800000
70
192
0
VERTEX
8
OBJECT__7
10
6.836000
20
5.477000
30
8.800000
70
192
0
VERTEX
8
OBJECT__7
10
6.836000
20
5.477000
30
9.500000
70
192
0
VERTEX
8
OBJECT__7
10
8.750000
20
2.843000
30
9.500000
70
192
0
VERTEX
8
OBJECT__7
10
8.750000
20
-2.047000
30
9.500000
70
192
0
VERTEX
8
OBJECT__7
10
5.408000
20
7.443000
30
9.500000
70
192
0
VERTEX
8
OBJECT__7
10
5.408000
20
7.443000
30
8.800000
70
192
0
VERTEX
8
OBJECT__7
10
0
20
0
30
0
70
128
71
1
72
2
73
3
0
VERTEX
8
OBJECT__7
10
0
20
0
30
0
70
128
71
4
72
2
73
1
0
VERTEX
8
OBJECT__7
10
0
20
0
30
0
70
128
71
1
72
5
73
4
0
VERTEX
8
OBJECT__7
10
0
20
0
30
0
70
128
71
6
72
7
73
8
0
VERTEX
8
OBJECT__7
10
0
20
0
30
0
70
128
71
7
72
6
73
9
0
VERTEX
8
OBJECT__7
10
0
20
0
30
0
70
128
71
9
72
3
73
7
0
VERTEX
8
OBJECT__7
10
0
20
0
30
0
70
128
71
10
72
11
73
12
0
VERTEX
8
OBJECT__7
10
0
20
0
30
0
70
128
71
13
72
12
73
11
0
VERTEX
8
OBJECT__7
10
0
20
0
30
0
70
128
71
11
72
14
73
13
0
VERTEX
8
OBJECT__7
10
0
20
0
30
0
70
128
71
13
72
14
73
15
0
VERTEX
8
OBJECT__7
10
0
20
0
30
0
70
128
71
15
72
8
73
13
0
VERTEX
8
OBJECT__7
10
0
20
0
30
0
70
128
71
16
72
17
73
18
0
VERTEX
8
OBJECT__7
10
0
20
0
30
0
70
128
71
19
72
17
73
16
0
VERTEX
8
OBJECT__7
10
0
20
0
30
0
70
128
71
16
72
10
73
19
0
VERTEX
8
OBJECT__7
10
0
20
0
30
0
70
128
71
20
72
21
73
22
0
VERTEX
8
OBJECT__7
10
0
20
0
30
0
70
128
71
23
72
21
73
20
0
VERTEX
8
OBJECT__7
10
0
20
0
30
0
70
128
71
20
72
24
73
23
0
VERTEX
8
OBJECT__7
10
0
20
0
30
0
70
128
71
23
72
24
73
25
0
VERTEX
8
OBJECT__7
10
0
20
0
30
0
70
128
71
25
72
18
73
23
0
VERTEX
8
OBJECT__7
10
0
20
0
30
0
70
128
71
26
72
27
73
28
0
VERTEX
8
OBJECT__7
10
0
20
0
30
0
70
128
71
26
72
29
73
30
0
VERTEX
8
OBJECT__7
10
0
20
0
30
0
70
128
71
30
72
22
73
26
0
VERTEX
8
OBJECT__7
10
0
20
0
30
0
70
128
71
5
72
31
73
32
0
VERTEX
8
OBJECT__7
10
0
20
0
30
0
70
128
71
31
72
28
73
27
0
VERTEX
8
OBJECT__7
10
0
20
0
30
0
70
128
71
27
72
32
73
31
0
VERTEX
8
OBJECT__7
10
0
20
0
30
0
70
128
71
32
72
4
73
5
0
VERTEX
8
OBJECT__7
10
0
20
0
30
0
70
128
71
28
72
29
73
26
0
VERTEX
8
OBJECT__7
10
0
20
0
30
0
70
128
71
22
72
30
73
20
0
VERTEX
8
OBJECT__7
10
0
20
0
30
0
70
128
71
18
72
25
73
16
0
VERTEX
8
OBJECT__7
10
0
20
0
30
0
70
128
71
12
72
19
73
10
0
VERTEX
8
OBJECT__7
10
0
20
0
30
0
70
128
71
8
72
15
73
6
0
VERTEX
8
OBJECT__7
10
0
20
0
30
0
70
128
71
3
72
9
73
1
0
SEQEND
8
OBJECT__7
0
POLYLINE
8
OBJECT__8
66
1
70
64
71
32
72
32
62
253
0
VERTEX
8
OBJECT__8
10
-5.408000
20
7.443000
30
9.500000
70
192
0
VERTEX
8
OBJECT__8
10
-5.702000
20
7.847000
30
10.000000
70
192
0
VERTEX
8
OBJECT__8
10
-2.997000
20
9.225000
30
10.000000
70
192
0
VERTEX
8
OBJECT__8
10
0.000000
20
9.200000
30
9.500000
70
192
0
VERTEX
8
OBJECT__8
10
-9.225000
20
2.997000
30
10.000000
70
192
0
VERTEX
8
OBJECT__8
10
-6.836000
20
5.477000
30
9.500000
70
192
0
VERTEX
8
OBJECT__8
10
-8.750000
20
2.843000
30
9.500000
70
192
0
VERTEX
8
OBJECT__8
10
-8.750000
20
-2.047000
30
9.500000
70
192
0
VERTEX
8
OBJECT__8
10
-9.700000
20
0.000000
30
10.000000
70
192
0
VERTEX
8
OBJECT__8
10
-9.225000
20
-2.997000
30
10.000000
70
192
0
VERTEX
8
OBJECT__8
10
-5.408000
20
-7.443000
30
9.500000
70
192
0
VERTEX
8
OBJECT__8
10
-5.702000
20
-7.847000
30
10.000000
70
192
0
VERTEX
8
OBJECT__8
10
-7.847000
20
-5.702000
30
10.000000
70
192
0
VERTEX
8
OBJECT__8
10
-8.750000
20
-2.843000
30
9.500000
70
192
0
VERTEX
8
OBJECT__8
10
0.000000
20
-9.700000
30
10.000000
70
192
0
VERTEX
8
OBJECT__8
10
-3.878000
20
-7.940000
30
9.500000
70
192
0
VERTEX
8
OBJECT__8
10
5.702000
20
-7.847000
30
10.000000
70
192
0
VERTEX
8
OBJECT__8
10
2.997000
20
-9.225000
30
10.000000
70
192
0
VERTEX
8
OBJECT__8
10
3.878000
20
-7.940000
30
9.500000
70
192
0
VERTEX
8
OBJECT__8
10
0.000000
20
-9.200000
30
9.500000
70
192
0
VERTEX
8
OBJECT__8
10
8.750000
20
-2.843000
30
9.500000
70
192
0
VERTEX
8
OBJECT__8
10
9.225000
20
-2.997000
30
10.000000
70
192
0
VERTEX
8
OBJECT__8
10
7.847000
20
-5.702000
30
10.000000
70
192
0
VERTEX
8
OBJECT__8
10
5.408000
20
-7.443000
30
9.500000
70
192
0
VERTEX
8
OBJECT__8
10
8.750000
20
2.843000
30
9.500000
70
192
0
VERTEX
8
OBJECT__8
10
9.225000
20
2.997000
30
10.000000
70
192
0
VERTEX
8
OBJECT__8
10
9.700000
20
0.000000
30
10.000000
70
192
0
VERTEX
8
OBJECT__8
10
8.750000
20
-2.047000
30
9.500000
70
192
0
VERTEX
8
OBJECT__8
10
6.836000
20
5.477000
30
9.500000
70
192
0
VERTEX
8
OBJECT__8
10
5.702000
20
7.847000
30
10.000000
70
192
0
VERTEX
8
OBJECT__8
10
0.000000
20
9.700000
30
10.000000
70
192
0
VERTEX
8
OBJECT__8
10
5.408000
20
7.443000
30
9.500000
70
192
0
VERTEX
8
OBJECT__8
10
0
20
0
30
0
70
128
71
1
72
2
73
3
0
VERTEX
8
OBJECT__8
10
0
20
0
30
0
70
128
71
3
72
4
73
1
0
VERTEX
8
OBJECT__8
10
0
20
0
30
0
70
128
71
5
72
2
73
6
0
VERTEX
8
OBJECT__8
10
0
20
0
30
0
70
128
71
2
72
1
73
6
0
VERTEX
8
OBJECT__8
10
0
20
0
30
0
70
128
71
7
72
8
73
9
0
VERTEX
8
OBJECT__8
10
0
20
0
30
0
70
128
71
8
72
10
73
9
0
VERTEX
8
OBJECT__8
10
0
20
0
30
0
70
128
71
9
72
5
73
7
0
VERTEX
8
OBJECT__8
10
0
20
0
30
0
70
128
71
11
72
12
73
13
0
VERTEX
8
OBJECT__8
10
0
20
0
30
0
70
128
71
13
72
14
73
11
0
VERTEX
8
OBJECT__8
10
0
20
0
30
0
70
128
71
15
72
12
73
16
0
VERTEX
8
OBJECT__8
10
0
20
0
30
0
70
128
71
12
72
11
73
16
0
VERTEX
8
OBJECT__8
10
0
20
0
30
0
70
128
71
17
72
18
73
19
0
VERTEX
8
OBJECT__8
10
0
20
0
30
0
70
128
71
20
72
19
73
18
0
VERTEX
8
OBJECT__8
10
0
20
0
30
0
70
128
71
18
72
15
73
20
0
VERTEX
8
OBJECT__8
10
0
20
0
30
0
70
128
71
21
72
22
73
23
0
VERTEX
8
OBJECT__8
10
0
20
0
30
0
70
128
71
23
72
24
73
21
0
VERTEX
8
OBJECT__8
10
0
20
0
30
0
70
128
71
25
72
26
73
27
0
VERTEX
8
OBJECT__8
10
0
20
0
30
0
70
128
71
27
72
28
73
25
0
VERTEX
8
OBJECT__8
10
0
20
0
30
0
70
128
71
22
72
21
73
28
0
VERTEX
8
OBJECT__8
10
0
20
0
30
0
70
128
71
26
72
25
73
29
0
VERTEX
8
OBJECT__8
10
0
20
0
30
0
70
128
71
29
72
30
73
26
0
VERTEX
8
OBJECT__8
10
0
20
0
30
0
70
128
71
31
72
30
73
32
0
VERTEX
8
OBJECT__8
10
0
20
0
30
0
70
128
71
32
72
4
73
31
0
VERTEX
8
OBJECT__8
10
0
20
0
30
0
70
128
71
29
72
32
73
30
0
VERTEX
8
OBJECT__8
10
0
20
0
30
0
70
128
71
27
72
22
73
28
0
VERTEX
8
OBJECT__8
10
0
20
0
30
0
70
128
71
23
72
17
73
24
0
VERTEX
8
OBJECT__8
10
0
20
0
30
0
70
128
71
19
72
24
73
17
0
VERTEX
8
OBJECT__8
10
0
20
0
30
0
70
128
71
16
72
20
73
15
0
VERTEX
8
OBJECT__8
10
0
20
0
30
0
70
128
71
13
72
10
73
14
0
VERTEX
8
OBJECT__8
10
0
20
0
30
0
70
128
71
8
72
14
73
10
0
VERTEX
8
OBJECT__8
10
0
20
0
30
0
70
128
71
6
72
7
73
5
0
VERTEX
8
OBJECT__8
10
0
20
0
30
0
70
128
71
3
72
31
73
4
0
SEQEND
8
OBJECT__8
0
POLYLINE
8
OBJECT__9
66
1
70
64
71
30
72
30
62
253
0
VERTEX
8
OBJECT__9
10
7.818000
20
-6.235000
30
10.000000
70
192
0
VERTEX
8
OBJECT__9
10
7.847000
20
-5.702000
30
10.000000
70
192
0
VERTEX
8
OBJECT__9
10
9.225000
20
-2.997000
30
10.000000
70
192
0
VERTEX
8
OBJECT__9
10
9.749000
20
-2.225000
30
10.000000
70
192
0
VERTEX
8
OBJECT__9
10
4.339000
20
-9.010000
30
10.000000
70
192
0
VERTEX
8
OBJECT__9
10
5.702000
20
-7.847000
30
10.000000
70
192
0
VERTEX
8
OBJECT__9
10
9.749000
20
2.225000
30
10.000000
70
192
0
VERTEX
8
OBJECT__9
10
9.700000
20
0.000000
30
10.000000
70
192
0
VERTEX
8
OBJECT__9
10
0.000000
20
-10.000000
30
10.000000
70
192
0
VERTEX
8
OBJECT__9
10
0.000000
20
-9.700000
30
10.000000
70
192
0
VERTEX
8
OBJECT__9
10
2.997000
20
-9.225000
30
10.000000
70
192
0
VERTEX
8
OBJECT__9
10
-7.818000
20
6.235000
30
10.000000
70
192
0
VERTEX
8
OBJECT__9
10
-5.702000
20
7.847000
30
10.000000
70
192
0
VERTEX
8
OBJECT__9
10
-9.225000
20
2.997000
30
10.000000
70
192
0
VERTEX
8
OBJECT__9
10
-4.339000
20
9.010000
30
10.000000
70
192
0
VERTEX
8
OBJECT__9
10
-2.997000
20
9.225000
30
10.000000
70
192
0
VERTEX
8
OBJECT__9
10
0.000000
20
10.000000
30
10.000000
70
192
0
VERTEX
8
OBJECT__9
10
0.000000
20
9.700000
30
10.000000
70
192
0
VERTEX
8
OBJECT__9
10
7.818000
20
6.235000
30
10.000000
70
192
0
VERTEX
8
OBJECT__9
10
9.225000
20
2.997000
30
10.000000
70
192
0
VERTEX
8
OBJECT__9
10
-4.339000
20
-9.010000
30
10.000000
70
192
0
VERTEX
8
OBJECT__9
10
-7.818000
20
-6.235000
30
10.000000
70
192
0
VERTEX
8
OBJECT__9
10
-7.847000
20
-5.702000
30
10.000000
70
192
0
VERTEX
8
OBJECT__9
10
-5.702000
20
-7.847000
30
10.000000
70
192
0
VERTEX
8
OBJECT__9
10
-9.749000
20
-2.225000
30
10.000000
70
192
0
VERTEX
8
OBJECT__9
10
-9.225000
20
-2.997000
30
10.000000
70
192
0
VERTEX
8
OBJECT__9
10
-9.749000
20
2.225000
30
10.000000
70
192
0
VERTEX
8
OBJECT__9
10
5.702000
20
7.847000
30
10.000000
70
192
0
VERTEX
8
OBJECT__9
10
-9.700000
20
0.000000
30
10.000000
70
192
0
VERTEX
8
OBJECT__9
10
4.339000
20
9.010000
30
10.000000
70
192
0
VERTEX
8
OBJECT__9
10
0
20
0
30
0
70
128
71
1
72
2
73
3
0
VERTEX
8
OBJECT__9
10
0
20
0
30
0
70
128
71
3
72
4
73
1
0
VERTEX
8
OBJECT__9
10
0
20
0
30
0
70
128
71
1
72
5
73
6
0
VERTEX
8
OBJECT__9
10
0
20
0
30
0
70
128
71
7
72
4
73
8
0
VERTEX
8
OBJECT__9
10
0
20
0
30
0
70
128
71
6
72
2
73
1
0
VERTEX
8
OBJECT__9
10
0
20
0
30
0
70
128
71
9
72
10
73
11
0
VERTEX
8
OBJECT__9
10
0
20
0
30
0
70
128
71
3
72
8
73
4
0
VERTEX
8
OBJECT__9
10
0
20
0
30
0
70
128
71
11
72
5
73
9
0
VERTEX
8
OBJECT__9
10
0
20
0
30
0
70
128
71
12
72
13
73
14
0
VERTEX
8
OBJECT__9
10
0
20
0
30
0
70
128
71
15
72
16
73
13
0
VERTEX
8
OBJECT__9
10
0
20
0
30
0
70
128
71
17
72
18
73
16
0
VERTEX
8
OBJECT__9
10
0
20
0
30
0
70
128
71
19
72
7
73
20
0
VERTEX
8
OBJECT__9
10
0
20
0
30
0
70
128
71
11
72
6
73
5
0
VERTEX
8
OBJECT__9
10
0
20
0
30
0
70
128
71
10
72
9
73
21
0
VERTEX
8
OBJECT__9
10
0
20
0
30
0
70
128
71
22
72
23
73
24
0
VERTEX
8
OBJECT__9
10
0
20
0
30
0
70
128
71
22
72
25
73
26
0
VERTEX
8
OBJECT__9
10
0
20
0
30
0
70
128
71
14
72
27
73
12
0
VERTEX
8
OBJECT__9
10
0
20
0
30
0
70
128
71
16
72
15
73
17
0
VERTEX
8
OBJECT__9
10
0
20
0
30
0
70
128
71
20
72
28
73
19
0
VERTEX
8
OBJECT__9
10
0
20
0
30
0
70
128
71
21
72
24
73
10
0
VERTEX
8
OBJECT__9
10
0
20
0
30
0
70
128
71
26
72
23
73
22
0
VERTEX
8
OBJECT__9
10
0
20
0
30
0
70
128
71
25
72
27
73
29
0
VERTEX
8
OBJECT__9
10
0
20
0
30
0
70
128
71
13
72
12
73
15
0
VERTEX
8
OBJECT__9
10
0
20
0
30
0
70
128
71
18
72
17
73
30
0
VERTEX
8
OBJECT__9
10
0
20
0
30
0
70
128
71
8
72
20
73
7
0
VERTEX
8
OBJECT__9
10
0
20
0
30
0
70
128
71
29
72
26
73
25
0
VERTEX
8
OBJECT__9
10
0
20
0
30
0
70
128
71
30
72
28
73
18
0
VERTEX
8
OBJECT__9
10
0
20
0
30
0
70
128
71
24
72
21
73
22
0
VERTEX
8
OBJECT__9
10
0
20
0
30
0
70
128
71
28
72
30
73
19
0
VERTEX
8
OBJECT__9
10
0
20
0
30
0
70
128
71
14
72
29
73
27
0
SEQEND
8
OBJECT__9
0
POLYLINE
8
OBJECT__10
66
1
70
64
71
22
72
22
62
253
0
VERTEX
8
OBJECT__10
10
0.000000
20
-10.000000
30
14.500000
70
192
0
VERTEX
8
OBJECT__10
10
-7.818000
20
-6.235000
30
14.500000
70
192
0
VERTEX
8
OBJECT__10
10
-4.339000
20
-9.010000
30
10.000000
70
192
0
VERTEX
8
OBJECT__10
10
-7.818000
20
-6.235000
30
10.000000
70
192
0
VERTEX
8
OBJECT__10
10
-9.749000
20
2.225000
30
14.500000
70
192
0
VERTEX
8
OBJECT__10
10
-9.749000
20
-2.225000
30
10.000000
70
192
0
VERTEX
8
OBJECT__10
10
-9.749000
20
2.225000
30
10.000000
70
192
0
VERTEX
8
OBJECT__10
10
-4.339000
20
9.010000
30
14.500000
70
192
0
VERTEX
8
OBJECT__10
10
-7.818000
20
6.235000
30
10.000000
70
192
0
VERTEX
8
OBJECT__10
10
-4.339000
20
9.010000
30
10.000000
70
192
0
VERTEX
8
OBJECT__10
10
4.339000
20
9.010000
30
14.500000
70
192
0
VERTEX
8
OBJECT__10
10
4.339000
20
9.010000
30
10.000000
70
192
0
VERTEX
8
OBJECT__10
10
0.000000
20
10.000000
30
10.000000
70
192
0
VERTEX
8
OBJECT__10
10
0.000000
20
10.000000
30
14.500000
70
192
0
VERTEX
8
OBJECT__10
10
9.749000
20
2.225000
30
14.500000
70
192
0
VERTEX
8
OBJECT__10
10
9.749000
20
2.225000
30
10.000000
70
192
0
VERTEX
8
OBJECT__10
10
7.818000
20
6.235000
30
10.000000
70
192
0
VERTEX
8
OBJECT__10
10
7.818000
20
-6.235000
30
14.500000
70
192
0
VERTEX
8
OBJECT__10
10
7.818000
20
-6.235000
30
10.000000
70
192
0
VERTEX
8
OBJECT__10
10
9.749000
20
-2.225000
30
10.000000
70
192
0
VERTEX
8
OBJECT__10
10
4.339000
20
-9.010000
30
10.000000
70
192
0
VERTEX
8
OBJECT__10
10
0.000000
20
-10.000000
30
10.000000
70
192
0
VERTEX
8
OBJECT__10
10
0
20
0
30
0
70
128
71
1
72
2
73
3
0
VERTEX
8
OBJECT__10
10
0
20
0
30
0
70
128
71
2
72
4
73
3
0
VERTEX
8
OBJECT__10
10
0
20
0
30
0
70
128
71
2
72
5
73
6
0
VERTEX
8
OBJECT__10
10
0
20
0
30
0
70
128
71
5
72
7
73
6
0
VERTEX
8
OBJECT__10
10
0
20
0
30
0
70
128
71
5
72
8
73
9
0
VERTEX
8
OBJECT__10
10
0
20
0
30
0
70
128
71
8
72
10
73
9
0
VERTEX
8
OBJECT__10
10
0
20
0
30
0
70
128
71
11
72
12
73
13
0
VERTEX
8
OBJECT__10
10
0
20
0
30
0
70
128
71
10
72
8
73
14
0
VERTEX
8
OBJECT__10
10
0
20
0
30
0
70
128
71
14
72
13
73
10
0
VERTEX
8
OBJECT__10
10
0
20
0
30
0
70
128
71
15
72
16
73
17
0
VERTEX
8
OBJECT__10
10
0
20
0
30
0
70
128
71
17
72
11
73
15
0
VERTEX
8
OBJECT__10
10
0
20
0
30
0
70
128
71
18
72
19
73
20
0
VERTEX
8
OBJECT__10
10
0
20
0
30
0
70
128
71
20
72
15
73
18
0
VERTEX
8
OBJECT__10
10
0
20
0
30
0
70
128
71
18
72
1
73
21
0
VERTEX
8
OBJECT__10
10
0
20
0
30
0
70
128
71
1
72
22
73
21
0
VERTEX
8
OBJECT__10
10
0
20
0
30
0
70
128
71
21
72
19
73
18
0
VERTEX
8
OBJECT__10
10
0
20
0
30
0
70
128
71
20
72
16
73
15
0
VERTEX
8
OBJECT__10
10
0
20
0
30
0
70
128
71
17
72
12
73
11
0
VERTEX
8
OBJECT__10
10
0
20
0
30
0
70
128
71
13
72
14
73
11
0
VERTEX
8
OBJECT__10
10
0
20
0
30
0
70
128
71
9
72
7
73
5
0
VERTEX
8
OBJECT__10
10
0
20
0
30
0
70
128
71
6
72
4
73
2
0
VERTEX
8
OBJECT__10
10
0
20
0
30
0
70
128
71
3
72
22
73
1
0
SEQEND
8
OBJECT__10
0
POLYLINE
8
OBJECT__11
66
1
70
64
71
43
72
45
62
253
0
VERTEX
8
OBJECT__11
10
42.193001
20
0.004000
30
230.824997
70
192
0
VERTEX
8
OBJECT__11
10
35.019001
20
0.004000
30
240.067993
70
192
0
VERTEX
8
OBJECT__11
10
38.599998
20
-6.199000
30
235.487000
70
192
0
VERTEX
8
OBJECT__11
10
35.012001
20
-7.505000
30
240.007996
70
192
0
VERTEX
8
OBJECT__11
10
38.598999
20
-7.119000
30
235.440002
70
192
0
VERTEX
8
OBJECT__11
10
35.006001
20
-8.471000
30
239.916000
70
192
0
VERTEX
8
OBJECT__11
10
34.963001
20
-15.271000
30
239.268997
70
192
0
VERTEX
8
OBJECT__11
10
37.931999
20
-18.301001
30
235.173004
70
192
0
VERTEX
8
OBJECT__11
10
41.588001
20
-18.315001
30
230.488998
70
192
0
VERTEX
8
OBJECT__11
10
41.623001
20
-18.086000
30
230.479004
70
192
0
VERTEX
8
OBJECT__11
10
42.235001
20
-5.756000
30
230.854996
70
192
0
VERTEX
8
OBJECT__11
10
40.874001
20
-21.320999
30
230.932999
70
192
0
VERTEX
8
OBJECT__11
10
41.221001
20
-20.726999
30
230.589005
70
192
0
VERTEX
8
OBJECT__11
10
42.229000
20
-4.882000
30
230.850006
70
192
0
VERTEX
8
OBJECT__11
10
34.942001
20
-18.670000
30
238.945999
70
192
0
VERTEX
8
OBJECT__11
10
35.160000
20
-21.114000
30
238.283997
70
192
0
VERTEX
8
OBJECT__11
10
35.481998
20
-21.687000
30
237.772003
70
192
0
VERTEX
8
OBJECT__11
10
39.110001
20
-23.096001
30
232.882004
70
192
0
VERTEX
8
OBJECT__11
10
40.345001
20
-22.228001
30
231.457001
70
192
0
VERTEX
8
OBJECT__11
10
37.344002
20
-23.375999
30
235.091995
70
192
0
VERTEX
8
OBJECT__11
10
38.863998
20
-23.268999
30
233.166000
70
192
0
VERTEX
8
OBJECT__11
10
37.118000
20
-23.238001
30
235.406006
70
192
0
VERTEX
8
OBJECT__11
10
35.956001
20
-22.528999
30
237.022003
70
192
0
VERTEX
8
OBJECT__11
10
38.820000
20
15.098000
30
234.457993
70
192
0
VERTEX
8
OBJECT__11
10
34.966000
20
18.503000
30
238.921005
70
192
0
VERTEX
8
OBJECT__11
10
34.953999
20
14.796000
30
239.442001
70
192
0
VERTEX
8
OBJECT__11
10
35.345001
20
21.612000
30
237.962997
70
192
0
VERTEX
8
OBJECT__11
10
35.330002
20
21.593000
30
237.985001
70
192
0
VERTEX
8
OBJECT__11
10
34.970001
20
19.775999
30
238.742996
70
192
0
VERTEX
8
OBJECT__11
10
35.023998
20
5.187000
30
240.108994
70
192
0
VERTEX
8
OBJECT__11
10
42.132000
20
8.583000
30
230.779999
70
192
0
VERTEX
8
OBJECT__11
10
36.977001
20
23.141001
30
235.604996
70
192
0
VERTEX
8
OBJECT__11
10
36.305000
20
22.844999
30
236.518997
70
192
0
VERTEX
8
OBJECT__11
10
38.949001
20
23.141001
30
233.080002
70
192
0
VERTEX
8
OBJECT__11
10
37.646999
20
23.437000
30
234.692993
70
192
0
VERTEX
8
OBJECT__11
10
40.761002
20
21.605000
30
231.029999
70
192
0
VERTEX
8
OBJECT__11
10
40.652000
20
21.855000
30
231.128006
70
192
0
VERTEX
8
OBJECT__11
10
39.299999
20
23.061001
30
232.645996
70
192
0
VERTEX
8
OBJECT__11
10
41.513000
20
18.645000
30
230.522995
70
192
0
VERTEX
8
OBJECT__11
10
41.342999
20
20.268999
30
230.507004
70
192
0
VERTEX
8
OBJECT__11
10
41.817001
20
15.301000
30
230.576996
70
192
0
VERTEX
8
OBJECT__11
10
41.771000
20
16.191999
30
230.546005
70
192
0
VERTEX
8
OBJECT__11
10
42.125999
20
9.432000
30
230.774994
70
192
0
VERTEX
8
OBJECT__11
10
0
20
0
30
0
70
128
71
1
72
2
73
3
0
VERTEX
8
OBJECT__11
10
0
20
0
30
0
70
128
71
2
72
4
73
3
0
VERTEX
8
OBJECT__11
10
0
20
0
30
0
70
128
71
5
72
6
73
7
0
VERTEX
8
OBJECT__11
10
0
20
0
30
0
70
128
71
7
72
8
73
5
0
VERTEX
8
OBJECT__11
10
0
20
0
30
0
70
128
71
5
72
9
73
10
0
VERTEX
8
OBJECT__11
10
0
20
0
30
0
70
128
71
10
72
11
73
5
0
VERTEX
8
OBJECT__11
10
0
20
0
30
0
70
128
71
8
72
12
73
13
0
VERTEX
8
OBJECT__11
10
0
20
0
30
0
70
128
71
13
72
9
73
8
0
VERTEX
8
OBJECT__11
10
0
20
0
30
0
70
128
71
3
72
5
73
11
0
VERTEX
8
OBJECT__11
10
0
20
0
30
0
70
128
71
4
72
6
73
5
0
VERTEX
8
OBJECT__11
10
0
20
0
30
0
70
128
71
5
72
3
73
4
0
VERTEX
8
OBJECT__11
10
0
20
0
30
0
70
128
71
11
72
14
73
3
0
VERTEX
8
OBJECT__11
10
0
20
0
30
0
70
128
71
8
72
9
73
5
0
VERTEX
8
OBJECT__11
10
0
20
0
30
0
70
128
71
8
72
15
73
16
0
VERTEX
8
OBJECT__11
10
0
20
0
30
0
70
128
71
8
72
7
73
15
0
VERTEX
8
OBJECT__11
10
0
20
0
30
0
70
128
71
16
72
17
73
8
0
VERTEX
8
OBJECT__11
10
0
20
0
30
0
70
128
71
8
72
18
73
19
0
VERTEX
8
OBJECT__11
10
0
20
0
30
0
70
128
71
8
72
20
73
21
0
VERTEX
8
OBJECT__11
10
0
20
0
30
0
70
128
71
8
72
22
73
20
0
VERTEX
8
OBJECT__11
10
0
20
0
30
0
70
128
71
21
72
18
73
8
0
VERTEX
8
OBJECT__11
10
0
20
0
30
0
70
128
71
8
72
23
73
22
0
VERTEX
8
OBJECT__11
10
0
20
0
30
0
70
128
71
19
72
12
73
8
0
VERTEX
8
OBJECT__11
10
0
20
0
30
0
70
128
71
17
72
23
73
8
0
VERTEX
8
OBJECT__11
10
0
20
0
30
0
70
128
71
24
72
25
73
26
0
VERTEX
8
OBJECT__11
10
0
20
0
30
0
70
128
71
24
72
27
73
28
0
VERTEX
8
OBJECT__11
10
0
20
0
30
0
70
128
71
28
72
29
73
24
0
VERTEX
8
OBJECT__11
10
0
20
0
30
0
70
128
71
29
72
25
73
24
0
VERTEX
8
OBJECT__11
10
0
20
0
30
0
70
128
71
30
72
1
73
31
0
VERTEX
8
OBJECT__11
10
0
20
0
30
0
70
128
71
31
72
24
73
30
0
VERTEX
8
OBJECT__11
10
0
20
0
30
0
70
128
71
30
72
2
73
1
0
VERTEX
8
OBJECT__11
10
0
20
0
30
0
70
128
71
24
72
32
73
33
0
VERTEX
8
OBJECT__11
10
0
20
0
30
0
70
128
71
24
72
34
73
35
0
VERTEX
8
OBJECT__11
10
0
20
0
30
0
70
128
71
24
72
36
73
37
0
VERTEX
8
OBJECT__11
10
0
20
0
30
0
70
128
71
37
72
38
73
24
0
VERTEX
8
OBJECT__11
10
0
20
0
30
0
70
128
71
38
72
34
73
24
0
VERTEX
8
OBJECT__11
10
0
20
0
30
0
70
128
71
35
72
32
73
24
0
VERTEX
8
OBJECT__11
10
0
20
0
30
0
70
128
71
24
72
39
73
40
0
VERTEX
8
OBJECT__11
10
0
20
0
30
0
70
128
71
24
72
41
73
42
0
VERTEX
8
OBJECT__11
10
0
20
0
30
0
70
128
71
42
72
39
73
24
0
VERTEX
8
OBJECT__11
10
0
20
0
30
0
70
128
71
24
72
31
73
43
0
VERTEX
8
OBJECT__11
10
0
20
0
30
0
70
128
71
43
72
41
73
24
0
VERTEX
8
OBJECT__11
10
0
20
0
30
0
70
128
71
40
72
36
73
24
0
VERTEX
8
OBJECT__11
10
0
20
0
30
0
70
128
71
33
72
27
73
24
0
VERTEX
8
OBJECT__11
10
0
20
0
30
0
70
128
71
26
72
30
73
24
0
VERTEX
8
OBJECT__11
10
0
20
0
30
0
70
128
71
3
72
14
73
1
0
SEQEND
8
OBJECT__11
0
POLYLINE
8
OBJECT__12
66
1
70
64
71
97
72
97
62
253
0
VERTEX
8
OBJECT__12
10
42.341999
20
-4.870000
30
229.841995
70
192
0
VERTEX
8
OBJECT__12
10
42.229000
20
-4.882000
30
230.850006
70
192
0
VERTEX
8
OBJECT__12
10
42.235001
20
-5.756000
30
230.854996
70
192
0
VERTEX
8
OBJECT__12
10
41.623001
20
-18.086000
30
230.479004
70
192
0
VERTEX
8
OBJECT__12
10
41.958000
20
-15.306000
30
229.585999
70
192
0
VERTEX
8
OBJECT__12
10
41.917999
20
-15.753000
30
229.576004
70
192
0
VERTEX
8
OBJECT__12
10
41.688999
20
-18.296000
30
229.514999
70
192
0
VERTEX
8
OBJECT__12
10
42.348999
20
-6.533000
30
229.847000
70
192
0
VERTEX
8
OBJECT__12
10
34.966000
20
18.503000
30
238.921005
70
192
0
VERTEX
8
OBJECT__12
10
33.960999
20
17.349001
30
238.973999
70
192
0
VERTEX
8
OBJECT__12
10
33.952999
20
16.259001
30
239.141006
70
192
0
VERTEX
8
OBJECT__12
10
33.969002
20
18.488001
30
238.798996
70
192
0
VERTEX
8
OBJECT__12
10
34.032001
20
5.178000
30
239.985001
70
192
0
VERTEX
8
OBJECT__12
10
35.023998
20
5.187000
30
240.108994
70
192
0
VERTEX
8
OBJECT__12
10
34.953999
20
14.796000
30
239.442001
70
192
0
VERTEX
8
OBJECT__12
10
34.942001
20
-18.670000
30
238.945999
70
192
0
VERTEX
8
OBJECT__12
10
33.999001
20
-18.639999
30
238.740005
70
192
0
VERTEX
8
OBJECT__12
10
34.064999
20
-20.719000
30
238.339005
70
192
0
VERTEX
8
OBJECT__12
10
35.160000
20
-21.114000
30
238.283997
70
192
0
VERTEX
8
OBJECT__12
10
34.532001
20
-22.031000
30
237.584000
70
192
0
VERTEX
8
OBJECT__12
10
35.481998
20
-21.687000
30
237.772003
70
192
0
VERTEX
8
OBJECT__12
10
34.071999
20
-20.740000
30
238.326996
70
192
0
VERTEX
8
OBJECT__12
10
40.874001
20
-21.320999
30
230.932999
70
192
0
VERTEX
8
OBJECT__12
10
40.838001
20
-21.806999
30
230.029007
70
192
0
VERTEX
8
OBJECT__12
10
41.098999
20
-21.459000
30
229.783997
70
192
0
VERTEX
8
OBJECT__12
10
41.588001
20
-18.315001
30
230.488998
70
192
0
VERTEX
8
OBJECT__12
10
41.221001
20
-20.726999
30
230.589005
70
192
0
VERTEX
8
OBJECT__12
10
41.547001
20
-19.882000
30
229.477005
70
192
0
VERTEX
8
OBJECT__12
10
41.528000
20
-19.990999
30
229.483994
70
192
0
VERTEX
8
OBJECT__12
10
41.470001
20
-20.291000
30
229.511002
70
192
0
VERTEX
8
OBJECT__12
10
39.110001
20
-23.096001
30
232.882004
70
192
0
VERTEX
8
OBJECT__12
10
38.674999
20
-23.745001
30
232.276001
70
192
0
VERTEX
8
OBJECT__12
10
39.446999
20
-23.285999
30
231.423004
70
192
0
VERTEX
8
OBJECT__12
10
40.345001
20
-22.228001
30
231.457001
70
192
0
VERTEX
8
OBJECT__12
10
39.959000
20
-22.982000
30
230.858002
70
192
0
VERTEX
8
OBJECT__12
10
34.008999
20
-8.453000
30
239.738998
70
192
0
VERTEX
8
OBJECT__12
10
35.006001
20
-8.471000
30
239.916000
70
192
0
VERTEX
8
OBJECT__12
10
35.012001
20
-7.505000
30
240.007996
70
192
0
VERTEX
8
OBJECT__12
10
35.019001
20
0.004000
30
240.067993
70
192
0
VERTEX
8
OBJECT__12
10
34.029999
20
0.000000
30
239.975006
70
192
0
VERTEX
8
OBJECT__12
10
34.028999
20
-5.681000
30
239.964005
70
192
0
VERTEX
8
OBJECT__12
10
34.963001
20
-15.271000
30
239.268997
70
192
0
VERTEX
8
OBJECT__12
10
33.950001
20
-17.098000
30
239.037003
70
192
0
VERTEX
8
OBJECT__12
10
33.958000
20
-17.350000
30
238.988007
70
192
0
VERTEX
8
OBJECT__12
10
33.962002
20
-15.254000
30
239.186005
70
192
0
VERTEX
8
OBJECT__12
10
41.342999
20
20.268999
30
230.507004
70
192
0
VERTEX
8
OBJECT__12
10
41.513000
20
18.645000
30
230.522995
70
192
0
VERTEX
8
OBJECT__12
10
41.647999
20
19.160000
30
229.466003
70
192
0
VERTEX
8
OBJECT__12
10
41.679001
20
18.636000
30
229.483002
70
192
0
VERTEX
8
OBJECT__12
10
41.438999
20
20.434000
30
229.528000
70
192
0
VERTEX
8
OBJECT__12
10
40.988998
20
21.452999
30
229.897995
70
192
0
VERTEX
8
OBJECT__12
10
40.761002
20
21.605000
30
231.029999
70
192
0
VERTEX
8
OBJECT__12
10
40.681000
20
22.150999
30
230.151001
70
192
0
VERTEX
8
OBJECT__12
10
35.330002
20
21.593000
30
237.985001
70
192
0
VERTEX
8
OBJECT__12
10
34.398998
20
21.885000
30
237.776001
70
192
0
VERTEX
8
OBJECT__12
10
34.155998
20
20.700001
30
238.248993
70
192
0
VERTEX
8
OBJECT__12
10
34.970001
20
19.775999
30
238.742996
70
192
0
VERTEX
8
OBJECT__12
10
33.979000
20
19.839001
30
238.593002
70
192
0
VERTEX
8
OBJECT__12
10
38.949001
20
23.141001
30
233.080002
70
192
0
VERTEX
8
OBJECT__12
10
38.480000
20
23.795000
30
232.501999
70
192
0
VERTEX
8
OBJECT__12
10
37.685001
20
24.080999
30
233.410004
70
192
0
VERTEX
8
OBJECT__12
10
37.646999
20
23.437000
30
234.692993
70
192
0
VERTEX
8
OBJECT__12
10
37.264999
20
24.080000
30
233.917007
70
192
0
VERTEX
8
OBJECT__12
10
36.224998
20
23.677999
30
235.250000
70
192
0
VERTEX
8
OBJECT__12
10
36.977001
20
23.141001
30
235.604996
70
192
0
VERTEX
8
OBJECT__12
10
37.226002
20
24.080000
30
233.964005
70
192
0
VERTEX
8
OBJECT__12
10
35.612000
20
23.431000
30
236.037994
70
192
0
VERTEX
8
OBJECT__12
10
35.345001
20
21.612000
30
237.962997
70
192
0
VERTEX
8
OBJECT__12
10
36.305000
20
22.844999
30
236.518997
70
192
0
VERTEX
8
OBJECT__12
10
35.275002
20
23.004999
30
236.520004
70
192
0
VERTEX
8
OBJECT__12
10
34.402000
20
21.898001
30
237.770996
70
192
0
VERTEX
8
OBJECT__12
10
40.652000
20
21.855000
30
231.128006
70
192
0
VERTEX
8
OBJECT__12
10
40.654999
20
22.211000
30
230.173004
70
192
0
VERTEX
8
OBJECT__12
10
39.528000
20
23.264999
30
231.332993
70
192
0
VERTEX
8
OBJECT__12
10
39.299999
20
23.061001
30
232.645996
70
192
0
VERTEX
8
OBJECT__12
10
39.262001
20
23.514000
30
231.606995
70
192
0
VERTEX
8
OBJECT__12
10
42.323002
20
-0.094000
30
229.828003
70
192
0
VERTEX
8
OBJECT__12
10
42.289001
20
8.521000
30
229.804001
70
192
0
VERTEX
8
OBJECT__12
10
42.132000
20
8.583000
30
230.779999
70
192
0
VERTEX
8
OBJECT__12
10
42.193001
20
0.004000
30
230.824997
70
192
0
VERTEX
8
OBJECT__12
10
41.882000
20
15.269000
30
229.589005
70
192
0
VERTEX
8
OBJECT__12
10
41.817001
20
15.301000
30
230.576996
70
192
0
VERTEX
8
OBJECT__12
10
42.125999
20
9.432000
30
230.774994
70
192
0
VERTEX
8
OBJECT__12
10
42.286999
20
8.564000
30
229.802002
70
192
0
VERTEX
8
OBJECT__12
10
41.862000
20
15.601000
30
229.578995
70
192
0
VERTEX
8
OBJECT__12
10
41.771000
20
16.191999
30
230.546005
70
192
0
VERTEX
8
OBJECT__12
10
34.659000
20
-22.388000
30
237.378006
70
192
0
VERTEX
8
OBJECT__12
10
35.270000
20
-22.996000
30
236.528000
70
192
0
VERTEX
8
OBJECT__12
10
35.956001
20
-22.528999
30
237.022003
70
192
0
VERTEX
8
OBJECT__12
10
35.915001
20
-23.636000
30
235.632996
70
192
0
VERTEX
8
OBJECT__12
10
37.118000
20
-23.238001
30
235.406006
70
192
0
VERTEX
8
OBJECT__12
10
36.382999
20
-23.754000
30
235.046005
70
192
0
VERTEX
8
OBJECT__12
10
38.863998
20
-23.268999
30
233.166000
70
192
0
VERTEX
8
OBJECT__12
10
37.344002
20
-23.375999
30
235.091995
70
192
0
VERTEX
8
OBJECT__12
10
37.283001
20
-23.980000
30
233.917007
70
192
0
VERTEX
8
OBJECT__12
10
37.685001
20
-24.082001
30
233.412994
70
192
0
VERTEX
8
OBJECT__12
10
38.320000
20
-23.955999
30
232.669006
70
192
0
VERTEX
8
OBJECT__12
10
0
20
0
30
0
70
128
71
1
72
2
73
3
0
VERTEX
8
OBJECT__12
10
0
20
0
30
0
70
128
71
3
72
4
73
5
0
VERTEX
8
OBJECT__12
10
0
20
0
30
0
70
128
71
4
72
6
73
5
0
VERTEX
8
OBJECT__12
10
0
20
0
30
0
70
128
71
4
72
7
73
6
0
VERTEX
8
OBJECT__12
10
0
20
0
30
0
70
128
71
5
72
8
73
3
0
VERTEX
8
OBJECT__12
10
0
20
0
30
0
70
128
71
3
72
8
73
1
0
VERTEX
8
OBJECT__12
10
0
20
0
30
0
70
128
71
9
72
10
73
11
0
VERTEX
8
OBJECT__12
10
0
20
0
30
0
70
128
71
9
72
12
73
10
0
VERTEX
8
OBJECT__12
10
0
20
0
30
0
70
128
71
13
72
14
73
15
0
VERTEX
8
OBJECT__12
10
0
20
0
30
0
70
128
71
15
72
11
73
13
0
VERTEX
8
OBJECT__12
10
0
20
0
30
0
70
128
71
16
72
17
73
18
0
VERTEX
8
OBJECT__12
10
0
20
0
30
0
70
128
71
18
72
19
73
16
0
VERTEX
8
OBJECT__12
10
0
20
0
30
0
70
128
71
20
72
21
73
19
0
VERTEX
8
OBJECT__12
10
0
20
0
30
0
70
128
71
19
72
22
73
20
0
VERTEX
8
OBJECT__12
10
0
20
0
30
0
70
128
71
23
72
24
73
25
0
VERTEX
8
OBJECT__12
10
0
20
0
30
0
70
128
71
26
72
27
73
28
0
VERTEX
8
OBJECT__12
10
0
20
0
30
0
70
128
71
27
72
29
73
28
0
VERTEX
8
OBJECT__12
10
0
20
0
30
0
70
128
71
27
72
25
73
30
0
VERTEX
8
OBJECT__12
10
0
20
0
30
0
70
128
71
30
72
29
73
27
0
VERTEX
8
OBJECT__12
10
0
20
0
30
0
70
128
71
28
72
7
73
26
0
VERTEX
8
OBJECT__12
10
0
20
0
30
0
70
128
71
31
72
32
73
33
0
VERTEX
8
OBJECT__12
10
0
20
0
30
0
70
128
71
33
72
34
73
31
0
VERTEX
8
OBJECT__12
10
0
20
0
30
0
70
128
71
24
72
23
73
34
0
VERTEX
8
OBJECT__12
10
0
20
0
30
0
70
128
71
34
72
35
73
24
0
VERTEX
8
OBJECT__12
10
0
20
0
30
0
70
128
71
36
72
37
73
38
0
VERTEX
8
OBJECT__12
10
0
20
0
30
0
70
128
71
39
72
14
73
13
0
VERTEX
8
OBJECT__12
10
0
20
0
30
0
70
128
71
39
72
40
73
41
0
VERTEX
8
OBJECT__12
10
0
20
0
30
0
70
128
71
41
72
38
73
39
0
VERTEX
8
OBJECT__12
10
0
20
0
30
0
70
128
71
13
72
40
73
39
0
VERTEX
8
OBJECT__12
10
0
20
0
30
0
70
128
71
42
72
37
73
36
0
VERTEX
8
OBJECT__12
10
0
20
0
30
0
70
128
71
16
72
43
73
44
0
VERTEX
8
OBJECT__12
10
0
20
0
30
0
70
128
71
42
72
45
73
43
0
VERTEX
8
OBJECT__12
10
0
20
0
30
0
70
128
71
43
72
16
73
42
0
VERTEX
8
OBJECT__12
10
0
20
0
30
0
70
128
71
46
72
47
73
48
0
VERTEX
8
OBJECT__12
10
0
20
0
30
0
70
128
71
47
72
49
73
48
0
VERTEX
8
OBJECT__12
10
0
20
0
30
0
70
128
71
46
72
50
73
51
0
VERTEX
8
OBJECT__12
10
0
20
0
30
0
70
128
71
51
72
52
73
46
0
VERTEX
8
OBJECT__12
10
0
20
0
30
0
70
128
71
51
72
53
73
52
0
VERTEX
8
OBJECT__12
10
0
20
0
30
0
70
128
71
54
72
55
73
56
0
VERTEX
8
OBJECT__12
10
0
20
0
30
0
70
128
71
56
72
57
73
54
0
VERTEX
8
OBJECT__12
10
0
20
0
30
0
70
128
71
12
72
9
73
57
0
VERTEX
8
OBJECT__12
10
0
20
0
30
0
70
128
71
57
72
58
73
12
0
VERTEX
8
OBJECT__12
10
0
20
0
30
0
70
128
71
56
72
58
73
57
0
VERTEX
8
OBJECT__12
10
0
20
0
30
0
70
128
71
59
72
60
73
61
0
VERTEX
8
OBJECT__12
10
0
20
0
30
0
70
128
71
61
72
62
73
59
0
VERTEX
8
OBJECT__12
10
0
20
0
30
0
70
128
71
61
72
63
73
62
0
VERTEX
8
OBJECT__12
10
0
20
0
30
0
70
128
71
64
72
65
73
62
0
VERTEX
8
OBJECT__12
10
0
20
0
30
0
70
128
71
62
72
66
73
64
0
VERTEX
8
OBJECT__12
10
0
20
0
30
0
70
128
71
65
72
64
73
67
0
VERTEX
8
OBJECT__12
10
0
20
0
30
0
70
128
71
68
72
69
73
70
0
VERTEX
8
OBJECT__12
10
0
20
0
30
0
70
128
71
70
72
71
73
68
0
VERTEX
8
OBJECT__12
10
0
20
0
30
0
70
128
71
69
72
67
73
70
0
VERTEX
8
OBJECT__12
10
0
20
0
30
0
70
128
71
71
72
55
73
68
0
VERTEX
8
OBJECT__12
10
0
20
0
30
0
70
128
71
72
72
52
73
53
0
VERTEX
8
OBJECT__12
10
0
20
0
30
0
70
128
71
72
72
73
73
74
0
VERTEX
8
OBJECT__12
10
0
20
0
30
0
70
128
71
74
72
75
73
72
0
VERTEX
8
OBJECT__12
10
0
20
0
30
0
70
128
71
60
72
59
73
75
0
VERTEX
8
OBJECT__12
10
0
20
0
30
0
70
128
71
75
72
76
73
60
0
VERTEX
8
OBJECT__12
10
0
20
0
30
0
70
128
71
74
72
76
73
75
0
VERTEX
8
OBJECT__12
10
0
20
0
30
0
70
128
71
2
72
1
73
77
0
VERTEX
8
OBJECT__12
10
0
20
0
30
0
70
128
71
78
72
79
73
80
0
VERTEX
8
OBJECT__12
10
0
20
0
30
0
70
128
71
80
72
77
73
78
0
VERTEX
8
OBJECT__12
10
0
20
0
30
0
70
128
71
77
72
80
73
2
0
VERTEX
8
OBJECT__12
10
0
20
0
30
0
70
128
71
81
72
82
73
83
0
VERTEX
8
OBJECT__12
10
0
20
0
30
0
70
128
71
83
72
84
73
81
0
VERTEX
8
OBJECT__12
10
0
20
0
30
0
70
128
71
82
72
81
73
85
0
VERTEX
8
OBJECT__12
10
0
20
0
30
0
70
128
71
49
72
47
73
86
0
VERTEX
8
OBJECT__12
10
0
20
0
30
0
70
128
71
86
72
85
73
49
0
VERTEX
8
OBJECT__12
10
0
20
0
30
0
70
128
71
87
72
88
73
89
0
VERTEX
8
OBJECT__12
10
0
20
0
30
0
70
128
71
21
72
20
73
87
0
VERTEX
8
OBJECT__12
10
0
20
0
30
0
70
128
71
89
72
88
73
90
0
VERTEX
8
OBJECT__12
10
0
20
0
30
0
70
128
71
90
72
91
73
89
0
VERTEX
8
OBJECT__12
10
0
20
0
30
0
70
128
71
90
72
92
73
91
0
VERTEX
8
OBJECT__12
10
0
20
0
30
0
70
128
71
93
72
94
73
95
0
VERTEX
8
OBJECT__12
10
0
20
0
30
0
70
128
71
95
72
96
73
93
0
VERTEX
8
OBJECT__12
10
0
20
0
30
0
70
128
71
94
72
92
73
95
0
VERTEX
8
OBJECT__12
10
0
20
0
30
0
70
128
71
32
72
31
73
93
0
VERTEX
8
OBJECT__12
10
0
20
0
30
0
70
128
71
93
72
97
73
32
0
VERTEX
8
OBJECT__12
10
0
20
0
30
0
70
128
71
96
72
97
73
93
0
VERTEX
8
OBJECT__12
10
0
20
0
30
0
70
128
71
94
72
91
73
92
0
VERTEX
8
OBJECT__12
10
0
20
0
30
0
70
128
71
89
72
21
73
87
0
VERTEX
8
OBJECT__12
10
0
20
0
30
0
70
128
71
85
72
86
73
82
0
VERTEX
8
OBJECT__12
10
0
20
0
30
0
70
128
71
83
72
79
73
84
0
VERTEX
8
OBJECT__12
10
0
20
0
30
0
70
128
71
78
72
84
73
79
0
VERTEX
8
OBJECT__12
10
0
20
0
30
0
70
128
71
53
72
73
73
72
0
VERTEX
8
OBJECT__12
10
0
20
0
30
0
70
128
71
67
72
69
73
65
0
VERTEX
8
OBJECT__12
10
0
20
0
30
0
70
128
71
63
72
66
73
62
0
VERTEX
8
OBJECT__12
10
0
20
0
30
0
70
128
71
54
72
68
73
55
0
VERTEX
8
OBJECT__12
10
0
20
0
30
0
70
128
71
48
72
50
73
46
0
VERTEX
8
OBJECT__12
10
0
20
0
30
0
70
128
71
44
72
17
73
16
0
VERTEX
8
OBJECT__12
10
0
20
0
30
0
70
128
71
36
72
45
73
42
0
VERTEX
8
OBJECT__12
10
0
20
0
30
0
70
128
71
38
72
41
73
36
0
VERTEX
8
OBJECT__12
10
0
20
0
30
0
70
128
71
33
72
35
73
34
0
VERTEX
8
OBJECT__12
10
0
20
0
30
0
70
128
71
25
72
27
73
23
0
VERTEX
8
OBJECT__12
10
0
20
0
30
0
70
128
71
18
72
22
73
19
0
VERTEX
8
OBJECT__12
10
0
20
0
30
0
70
128
71
11
72
15
73
9
0
VERTEX
8
OBJECT__12
10
0
20
0
30
0
70
128
71
4
72
26
73
7
0
SEQEND
8
OBJECT__12
0
POLYLINE
8
OBJECT__14
66
1
70
64
71
57
72
55
62
253
0
VERTEX
8
OBJECT__14
10
37.685001
20
-24.082001
30
233.412994
70
192
0
VERTEX
8
OBJECT__14
10
37.283001
20
-23.980000
30
233.917007
70
192
0
VERTEX
8
OBJECT__14
10
35.716999
20
-23.788000
30
230.240005
70
192
0
VERTEX
8
OBJECT__14
10
35.874001
20
-23.832001
30
230.039993
70
192
0
VERTEX
8
OBJECT__14
10
36.037998
20
-23.827999
30
229.841003
70
192
0
VERTEX
8
OBJECT__14
10
33.717999
20
-22.811001
30
232.860001
70
192
0
VERTEX
8
OBJECT__14
10
36.382999
20
-23.754000
30
235.046005
70
192
0
VERTEX
8
OBJECT__14
10
35.915001
20
-23.636000
30
235.632996
70
192
0
VERTEX
8
OBJECT__14
10
34.452999
20
-23.441999
30
231.848999
70
192
0
VERTEX
8
OBJECT__14
10
35.270000
20
-22.996000
30
236.528000
70
192
0
VERTEX
8
OBJECT__14
10
32.743999
20
-21.445999
30
234.268997
70
192
0
VERTEX
8
OBJECT__14
10
33.297001
20
-22.448999
30
233.438995
70
192
0
VERTEX
8
OBJECT__14
10
34.659000
20
-22.388000
30
237.378006
70
192
0
VERTEX
8
OBJECT__14
10
34.532001
20
-22.031000
30
237.584000
70
192
0
VERTEX
8
OBJECT__14
10
32.560001
20
-20.589001
30
234.625000
70
192
0
VERTEX
8
OBJECT__14
10
34.071999
20
-20.740000
30
238.326996
70
192
0
VERTEX
8
OBJECT__14
10
34.064999
20
-20.719000
30
238.339005
70
192
0
VERTEX
8
OBJECT__14
10
33.999001
20
-18.639999
30
238.740005
70
192
0
VERTEX
8
OBJECT__14
10
32.393002
20
-18.113001
30
235.205002
70
192
0
VERTEX
8
OBJECT__14
10
32.469002
20
-20.169001
30
234.800003
70
192
0
VERTEX
8
OBJECT__14
10
33.958000
20
-17.350000
30
238.988007
70
192
0
VERTEX
8
OBJECT__14
10
32.396000
20
-17.277000
30
235.304001
70
192
0
VERTEX
8
OBJECT__14
10
33.950001
20
-17.098000
30
239.037003
70
192
0
VERTEX
8
OBJECT__14
10
33.962002
20
-15.254000
30
239.186005
70
192
0
VERTEX
8
OBJECT__14
10
34.008999
20
-8.453000
30
239.738998
70
192
0
VERTEX
8
OBJECT__14
10
32.439999
20
-5.993000
30
236.324005
70
192
0
VERTEX
8
OBJECT__14
10
32.410000
20
-12.064000
30
235.919998
70
192
0
VERTEX
8
OBJECT__14
10
32.451000
20
0.000000
30
236.451996
70
192
0
VERTEX
8
OBJECT__14
10
34.028999
20
-5.681000
30
239.964005
70
192
0
VERTEX
8
OBJECT__14
10
34.029999
20
0.000000
30
239.975006
70
192
0
VERTEX
8
OBJECT__14
10
32.396000
20
14.683000
30
235.654999
70
192
0
VERTEX
8
OBJECT__14
10
32.452000
20
0.090000
30
236.453995
70
192
0
VERTEX
8
OBJECT__14
10
34.032001
20
5.178000
30
239.985001
70
192
0
VERTEX
8
OBJECT__14
10
33.952999
20
16.259001
30
239.141006
70
192
0
VERTEX
8
OBJECT__14
10
32.428001
20
17.270000
30
235.255997
70
192
0
VERTEX
8
OBJECT__14
10
33.960999
20
17.349001
30
238.973999
70
192
0
VERTEX
8
OBJECT__14
10
33.969002
20
18.488001
30
238.798996
70
192
0
VERTEX
8
OBJECT__14
10
33.979000
20
19.839001
30
238.593002
70
192
0
VERTEX
8
OBJECT__14
10
32.463001
20
20.104000
30
234.817993
70
192
0
VERTEX
8
OBJECT__14
10
34.155998
20
20.700001
30
238.248993
70
192
0
VERTEX
8
OBJECT__14
10
32.562000
20
20.589001
30
234.623001
70
192
0
VERTEX
8
OBJECT__14
10
34.398998
20
21.885000
30
237.776001
70
192
0
VERTEX
8
OBJECT__14
10
34.402000
20
21.898001
30
237.770996
70
192
0
VERTEX
8
OBJECT__14
10
35.275002
20
23.004999
30
236.520004
70
192
0
VERTEX
8
OBJECT__14
10
33.273998
20
22.419001
30
233.472000
70
192
0
VERTEX
8
OBJECT__14
10
32.728001
20
21.400999
30
234.296005
70
192
0
VERTEX
8
OBJECT__14
10
33.723999
20
22.795000
30
232.854004
70
192
0
VERTEX
8
OBJECT__14
10
37.226002
20
24.080000
30
233.964005
70
192
0
VERTEX
8
OBJECT__14
10
34.574001
20
23.504999
30
231.690002
70
192
0
VERTEX
8
OBJECT__14
10
35.612000
20
23.431000
30
236.037994
70
192
0
VERTEX
8
OBJECT__14
10
36.224998
20
23.677999
30
235.250000
70
192
0
VERTEX
8
OBJECT__14
10
37.264999
20
24.080000
30
233.917007
70
192
0
VERTEX
8
OBJECT__14
10
35.721001
20
23.757999
30
230.240997
70
192
0
VERTEX
8
OBJECT__14
10
37.685001
20
24.080999
30
233.410004
70
192
0
VERTEX
8
OBJECT__14
10
36.037998
20
23.827999
30
229.841003
70
192
0
VERTEX
8
OBJECT__14
10
36.122002
20
23.822001
30
229.729004
70
192
0
VERTEX
8
OBJECT__14
10
36.122002
20
-23.822001
30
229.729004
70
192
0
VERTEX
8
OBJECT__14
10
0
20
0
30
0
70
128
71
1
72
2
73
3
0
VERTEX
8
OBJECT__14
10
0
20
0
30
0
70
128
71
3
72
4
73
1
0
VERTEX
8
OBJECT__14
10
0
20
0
30
0
70
128
71
4
72
5
73
1
0
VERTEX
8
OBJECT__14
10
0
20
0
30
0
70
128
71
6
72
7
73
8
0
VERTEX
8
OBJECT__14
10
0
20
0
30
0
70
128
71
7
72
6
73
9
0
VERTEX
8
OBJECT__14
10
0
20
0
30
0
70
128
71
9
72
2
73
7
0
VERTEX
8
OBJECT__14
10
0
20
0
30
0
70
128
71
8
72
10
73
6
0
VERTEX
8
OBJECT__14
10
0
20
0
30
0
70
128
71
11
72
12
73
10
0
VERTEX
8
OBJECT__14
10
0
20
0
30
0
70
128
71
10
72
13
73
11
0
VERTEX
8
OBJECT__14
10
0
20
0
30
0
70
128
71
11
72
13
73
14
0
VERTEX
8
OBJECT__14
10
0
20
0
30
0
70
128
71
14
72
15
73
11
0
VERTEX
8
OBJECT__14
10
0
20
0
30
0
70
128
71
14
72
16
73
15
0
VERTEX
8
OBJECT__14
10
0
20
0
30
0
70
128
71
17
72
18
73
19
0
VERTEX
8
OBJECT__14
10
0
20
0
30
0
70
128
71
20
72
16
73
17
0
VERTEX
8
OBJECT__14
10
0
20
0
30
0
70
128
71
18
72
21
73
22
0
VERTEX
8
OBJECT__14
10
0
20
0
30
0
70
128
71
22
72
19
73
18
0
VERTEX
8
OBJECT__14
10
0
20
0
30
0
70
128
71
19
72
20
73
17
0
VERTEX
8
OBJECT__14
10
0
20
0
30
0
70
128
71
22
72
23
73
24
0
VERTEX
8
OBJECT__14
10
0
20
0
30
0
70
128
71
22
72
21
73
23
0
VERTEX
8
OBJECT__14
10
0
20
0
30
0
70
128
71
25
72
26
73
27
0
VERTEX
8
OBJECT__14
10
0
20
0
30
0
70
128
71
27
72
24
73
25
0
VERTEX
8
OBJECT__14
10
0
20
0
30
0
70
128
71
28
72
26
73
29
0
VERTEX
8
OBJECT__14
10
0
20
0
30
0
70
128
71
29
72
30
73
28
0
VERTEX
8
OBJECT__14
10
0
20
0
30
0
70
128
71
25
72
29
73
26
0
VERTEX
8
OBJECT__14
10
0
20
0
30
0
70
128
71
31
72
32
73
33
0
VERTEX
8
OBJECT__14
10
0
20
0
30
0
70
128
71
32
72
30
73
33
0
VERTEX
8
OBJECT__14
10
0
20
0
30
0
70
128
71
33
72
34
73
31
0
VERTEX
8
OBJECT__14
10
0
20
0
30
0
70
128
71
35
72
31
73
34
0
VERTEX
8
OBJECT__14
10
0
20
0
30
0
70
128
71
34
72
36
73
35
0
VERTEX
8
OBJECT__14
10
0
20
0
30
0
70
128
71
35
72
37
73
38
0
VERTEX
8
OBJECT__14
10
0
20
0
30
0
70
128
71
38
72
39
73
35
0
VERTEX
8
OBJECT__14
10
0
20
0
30
0
70
128
71
35
72
36
73
37
0
VERTEX
8
OBJECT__14
10
0
20
0
30
0
70
128
71
40
72
41
73
39
0
VERTEX
8
OBJECT__14
10
0
20
0
30
0
70
128
71
41
72
42
73
43
0
VERTEX
8
OBJECT__14
10
0
20
0
30
0
70
128
71
41
72
40
73
42
0
VERTEX
8
OBJECT__14
10
0
20
0
30
0
70
128
71
44
72
45
73
46
0
VERTEX
8
OBJECT__14
10
0
20
0
30
0
70
128
71
46
72
43
73
44
0
VERTEX
8
OBJECT__14
10
0
20
0
30
0
70
128
71
44
72
47
73
45
0
VERTEX
8
OBJECT__14
10
0
20
0
30
0
70
128
71
48
72
49
73
47
0
VERTEX
8
OBJECT__14
10
0
20
0
30
0
70
128
71
47
72
44
73
50
0
VERTEX
8
OBJECT__14
10
0
20
0
30
0
70
128
71
50
72
51
73
47
0
VERTEX
8
OBJECT__14
10
0
20
0
30
0
70
128
71
49
72
48
73
52
0
VERTEX
8
OBJECT__14
10
0
20
0
30
0
70
128
71
52
72
53
73
49
0
VERTEX
8
OBJECT__14
10
0
20
0
30
0
70
128
71
54
72
55
73
53
0
VERTEX
8
OBJECT__14
10
0
20
0
30
0
70
128
71
54
72
56
73
55
0
VERTEX
8
OBJECT__14
10
0
20
0
30
0
70
128
71
53
72
52
73
54
0
VERTEX
8
OBJECT__14
10
0
20
0
30
0
70
128
71
47
72
51
73
48
0
VERTEX
8
OBJECT__14
10
0
20
0
30
0
70
128
71
43
72
46
73
41
0
VERTEX
8
OBJECT__14
10
0
20
0
30
0
70
128
71
38
72
40
73
39
0
VERTEX
8
OBJECT__14
10
0
20
0
30
0
70
128
71
32
72
28
73
30
0
VERTEX
8
OBJECT__14
10
0
20
0
30
0
70
128
71
24
72
27
73
22
0
VERTEX
8
OBJECT__14
10
0
20
0
30
0
70
128
71
20
72
15
73
16
0
VERTEX
8
OBJECT__14
10
0
20
0
30
0
70
128
71
12
72
6
73
10
0
VERTEX
8
OBJECT__14
10
0
20
0
30
0
70
128
71
9
72
3
73
2
0
VERTEX
8
OBJECT__14
10
0
20
0
30
0
70
128
71
5
72
57
73
1
0
SEQEND
8
OBJECT__14
0
POLYLINE
8
OBJECT__15
66
1
70
64
71
42
72
40
62
253
0
VERTEX
8
OBJECT__15
10
34.445000
20
23.191000
30
231.479996
70
192
0
VERTEX
8
OBJECT__15
10
34.574001
20
23.504999
30
231.690002
70
192
0
VERTEX
8
OBJECT__15
10
35.721001
20
23.757999
30
230.240997
70
192
0
VERTEX
8
OBJECT__15
10
35.810001
20
23.493999
30
229.675995
70
192
0
VERTEX
8
OBJECT__15
10
33.231998
20
22.167000
30
233.220001
70
192
0
VERTEX
8
OBJECT__15
10
33.723999
20
22.795000
30
232.854004
70
192
0
VERTEX
8
OBJECT__15
10
33.273998
20
22.419001
30
233.472000
70
192
0
VERTEX
8
OBJECT__15
10
32.737999
20
21.226000
30
234.016006
70
192
0
VERTEX
8
OBJECT__15
10
32.500000
20
20.016001
30
234.522995
70
192
0
VERTEX
8
OBJECT__15
10
32.562000
20
20.589001
30
234.623001
70
192
0
VERTEX
8
OBJECT__15
10
32.463001
20
20.104000
30
234.817993
70
192
0
VERTEX
8
OBJECT__15
10
32.436001
20
14.649000
30
235.352997
70
192
0
VERTEX
8
OBJECT__15
10
32.428001
20
17.270000
30
235.255997
70
192
0
VERTEX
8
OBJECT__15
10
32.396000
20
14.683000
30
235.654999
70
192
0
VERTEX
8
OBJECT__15
10
32.452000
20
0.090000
30
236.453995
70
192
0
VERTEX
8
OBJECT__15
10
32.439999
20
-5.993000
30
236.324005
70
192
0
VERTEX
8
OBJECT__15
10
32.451000
20
0.000000
30
236.451996
70
192
0
VERTEX
8
OBJECT__15
10
32.490002
20
-0.004000
30
236.147003
70
192
0
VERTEX
8
OBJECT__15
10
32.490002
20
0.089000
30
236.149002
70
192
0
VERTEX
8
OBJECT__15
10
32.478001
20
-5.980000
30
236.020004
70
192
0
VERTEX
8
OBJECT__15
10
32.450001
20
-12.037000
30
235.617004
70
192
0
VERTEX
8
OBJECT__15
10
32.433998
20
-18.066999
30
234.906006
70
192
0
VERTEX
8
OBJECT__15
10
32.396000
20
-17.277000
30
235.304001
70
192
0
VERTEX
8
OBJECT__15
10
32.393002
20
-18.113001
30
235.205002
70
192
0
VERTEX
8
OBJECT__15
10
32.506001
20
-20.079000
30
234.505005
70
192
0
VERTEX
8
OBJECT__15
10
32.752998
20
-21.268000
30
233.990005
70
192
0
VERTEX
8
OBJECT__15
10
32.743999
20
-21.445999
30
234.268997
70
192
0
VERTEX
8
OBJECT__15
10
32.560001
20
-20.589001
30
234.625000
70
192
0
VERTEX
8
OBJECT__15
10
33.297001
20
-22.448999
30
233.438995
70
192
0
VERTEX
8
OBJECT__15
10
34.331001
20
-23.131001
30
231.636993
70
192
0
VERTEX
8
OBJECT__15
10
34.452999
20
-23.441999
30
231.848999
70
192
0
VERTEX
8
OBJECT__15
10
33.717999
20
-22.811001
30
232.860001
70
192
0
VERTEX
8
OBJECT__15
10
33.252998
20
-22.195000
30
233.188004
70
192
0
VERTEX
8
OBJECT__15
10
35.658001
20
-23.497999
30
229.869003
70
192
0
VERTEX
8
OBJECT__15
10
35.716999
20
-23.788000
30
230.240005
70
192
0
VERTEX
8
OBJECT__15
10
35.874001
20
-23.832001
30
230.039993
70
192
0
VERTEX
8
OBJECT__15
10
35.810001
20
-23.493999
30
229.675995
70
192
0
VERTEX
8
OBJECT__15
10
36.037998
20
-23.827999
30
229.841003
70
192
0
VERTEX
8
OBJECT__15
10
32.469002
20
-20.169001
30
234.800003
70
192
0
VERTEX
8
OBJECT__15
10
32.410000
20
-12.064000
30
235.919998
70
192
0
VERTEX
8
OBJECT__15
10
32.728001
20
21.400999
30
234.296005
70
192
0
VERTEX
8
OBJECT__15
10
36.037998
20
23.827999
30
229.841003
70
192
0
VERTEX
8
OBJECT__15
10
0
20
0
30
0
70
128
71
1
72
2
73
3
0
VERTEX
8
OBJECT__15
10
0
20
0
30
0
70
128
71
3
72
4
73
1
0
VERTEX
8
OBJECT__15
10
0
20
0
30
0
70
128
71
1
72
5
73
6
0
VERTEX
8
OBJECT__15
10
0
20
0
30
0
70
128
71
5
72
7
73
6
0
VERTEX
8
OBJECT__15
10
0
20
0
30
0
70
128
71
7
72
5
73
8
0
VERTEX
8
OBJECT__15
10
0
20
0
30
0
70
128
71
8
72
9
73
10
0
VERTEX
8
OBJECT__15
10
0
20
0
30
0
70
128
71
9
72
11
73
10
0
VERTEX
8
OBJECT__15
10
0
20
0
30
0
70
128
71
9
72
12
73
13
0
VERTEX
8
OBJECT__15
10
0
20
0
30
0
70
128
71
12
72
14
73
13
0
VERTEX
8
OBJECT__15
10
0
20
0
30
0
70
128
71
15
72
14
73
12
0
VERTEX
8
OBJECT__15
10
0
20
0
30
0
70
128
71
16
72
17
73
18
0
VERTEX
8
OBJECT__15
10
0
20
0
30
0
70
128
71
19
72
18
73
17
0
VERTEX
8
OBJECT__15
10
0
20
0
30
0
70
128
71
17
72
15
73
19
0
VERTEX
8
OBJECT__15
10
0
20
0
30
0
70
128
71
16
72
20
73
21
0
VERTEX
8
OBJECT__15
10
0
20
0
30
0
70
128
71
21
72
22
73
23
0
VERTEX
8
OBJECT__15
10
0
20
0
30
0
70
128
71
22
72
24
73
23
0
VERTEX
8
OBJECT__15
10
0
20
0
30
0
70
128
71
24
72
22
73
25
0
VERTEX
8
OBJECT__15
10
0
20
0
30
0
70
128
71
26
72
27
73
28
0
VERTEX
8
OBJECT__15
10
0
20
0
30
0
70
128
71
28
72
25
73
26
0
VERTEX
8
OBJECT__15
10
0
20
0
30
0
70
128
71
29
72
27
73
26
0
VERTEX
8
OBJECT__15
10
0
20
0
30
0
70
128
71
30
72
31
73
32
0
VERTEX
8
OBJECT__15
10
0
20
0
30
0
70
128
71
32
72
33
73
30
0
VERTEX
8
OBJECT__15
10
0
20
0
30
0
70
128
71
30
72
34
73
35
0
VERTEX
8
OBJECT__15
10
0
20
0
30
0
70
128
71
34
72
36
73
35
0
VERTEX
8
OBJECT__15
10
0
20
0
30
0
70
128
71
36
72
34
73
37
0
VERTEX
8
OBJECT__15
10
0
20
0
30
0
70
128
71
37
72
38
73
36
0
VERTEX
8
OBJECT__15
10
0
20
0
30
0
70
128
71
35
72
31
73
30
0
VERTEX
8
OBJECT__15
10
0
20
0
30
0
70
128
71
32
72
29
73
33
0
VERTEX
8
OBJECT__15
10
0
20
0
30
0
70
128
71
26
72
33
73
29
0
VERTEX
8
OBJECT__15
10
0
20
0
30
0
70
128
71
28
72
39
73
25
0
VERTEX
8
OBJECT__15
10
0
20
0
30
0
70
128
71
25
72
39
73
24
0
VERTEX
8
OBJECT__15
10
0
20
0
30
0
70
128
71
23
72
40
73
21
0
VERTEX
8
OBJECT__15
10
0
20
0
30
0
70
128
71
21
72
40
73
16
0
VERTEX
8
OBJECT__15
10
0
20
0
30
0
70
128
71
18
72
20
73
16
0
VERTEX
8
OBJECT__15
10
0
20
0
30
0
70
128
71
12
72
19
73
15
0
VERTEX
8
OBJECT__15
10
0
20
0
30
0
70
128
71
13
72
11
73
9
0
VERTEX
8
OBJECT__15
10
0
20
0
30
0
70
128
71
10
72
41
73
8
0
VERTEX
8
OBJECT__15
10
0
20
0
30
0
70
128
71
8
72
41
73
7
0
VERTEX
8
OBJECT__15
10
0
20
0
30
0
70
128
71
6
72
2
73
1
0
VERTEX
8
OBJECT__15
10
0
20
0
30
0
70
128
71
3
72
42
73
4
0
SEQEND
8
OBJECT__15
0
POLYLINE
8
OBJECT__16
66
1
70
64
71
10
72
8
62
253
0
VERTEX
8
OBJECT__16
10
36.348999
20
-23.740999
30
228.945007
70
192
0
VERTEX
8
OBJECT__16
10
36.023998
20
-23.431000
30
228.996994
70
192
0
VERTEX
8
OBJECT__16
10
35.946999
20
-23.407000
30
228.673004
70
192
0
VERTEX
8
OBJECT__16
10
36.300999
20
-23.785000
30
229.348007
70
192
0
VERTEX
8
OBJECT__16
10
35.993999
20
-23.462999
30
229.304001
70
192
0
VERTEX
8
OBJECT__16
10
36.122002
20
-23.822001
30
229.729004
70
192
0
VERTEX
8
OBJECT__16
10
35.868999
20
-23.490000
30
229.591995
70
192
0
VERTEX
8
OBJECT__16
10
36.037998
20
-23.827999
30
229.841003
70
192
0
VERTEX
8
OBJECT__16
10
35.810001
20
-23.493999
30
229.675995
70
192
0
VERTEX
8
OBJECT__16
10
36.254002
20
-23.702999
30
228.522995
70
192
0
VERTEX
8
OBJECT__16
10
0
20
0
30
0
70
128
71
1
72
2
73
3
0
VERTEX
8
OBJECT__16
10
0
20
0
30
0
70
128
71
4
72
5
73
2
0
VERTEX
8
OBJECT__16
10
0
20
0
30
0
70
128
71
4
72
6
73
7
0
VERTEX
8
OBJECT__16
10
0
20
0
30
0
70
128
71
8
72
9
73
7
0
VERTEX
8
OBJECT__16
10
0
20
0
30
0
70
128
71
7
72
6
73
8
0
VERTEX
8
OBJECT__16
10
0
20
0
30
0
70
128
71
7
72
5
73
4
0
VERTEX
8
OBJECT__16
10
0
20
0
30
0
70
128
71
2
72
1
73
4
0
VERTEX
8
OBJECT__16
10
0
20
0
30
0
70
128
71
3
72
10
73
1
0
SEQEND
8
OBJECT__16
0
POLYLINE
8
OBJECT__17
66
1
70
64
71
129
72
165
62
253
0
VERTEX
8
OBJECT__17
10
19.423000
20
18.773001
30
173.703003
70
192
0
VERTEX
8
OBJECT__17
10
29.045000
20
20.145000
30
200.697998
70
192
0
VERTEX
8
OBJECT__17
10
30.091000
20
15.048000
30
200.320007
70
192
0
VERTEX
8
OBJECT__17
10
13.201000
20
17.558001
30
151.584000
70
192
0
VERTEX
8
OBJECT__17
10
20.719999
20
14.310000
30
173.320007
70
192
0
VERTEX
8
OBJECT__17
10
9.329000
20
16.448000
30
132.485992
70
192
0
VERTEX
8
OBJECT__17
10
14.744000
20
13.518000
30
151.205002
70
192
0
VERTEX
8
OBJECT__17
10
21.622000
20
-0.087000
30
173.070999
70
192
0
VERTEX
8
OBJECT__17
10
15.907000
20
-0.082000
30
150.931000
70
192
0
VERTEX
8
OBJECT__17
10
30.704000
20
-0.091000
30
200.126999
70
192
0
VERTEX
8
OBJECT__17
10
12.554000
20
-0.078000
30
131.847000
70
192
0
VERTEX
8
OBJECT__17
10
11.132000
20
12.715000
30
132.121994
70
192
0
VERTEX
8
OBJECT__17
10
9.547000
20
6.031000
30
98.636002
70
192
0
VERTEX
8
OBJECT__17
10
10.052000
20
-0.068000
30
98.575996
70
192
0
VERTEX
8
OBJECT__17
10
5.715000
20
14.478000
30
99.108002
70
192
0
VERTEX
8
OBJECT__17
10
4.819000
20
12.933000
30
70.092003
70
192
0
VERTEX
8
OBJECT__17
10
8.084000
20
11.208000
30
98.810997
70
192
0
VERTEX
8
OBJECT__17
10
9.621000
20
5.374000
30
69.764000
70
192
0
VERTEX
8
OBJECT__17
10
7.752000
20
9.990000
30
69.887001
70
192
0
VERTEX
8
OBJECT__17
10
10.265000
20
-0.061000
30
69.722000
70
192
0
VERTEX
8
OBJECT__17
10
12.171000
20
-6.985000
30
131.921005
70
192
0
VERTEX
8
OBJECT__17
10
9.525000
20
-6.157000
30
98.639000
70
192
0
VERTEX
8
OBJECT__17
10
20.700001
20
-14.436000
30
173.326004
70
192
0
VERTEX
8
OBJECT__17
10
14.719000
20
-13.635000
30
151.210999
70
192
0
VERTEX
8
OBJECT__17
10
30.077999
20
-15.184000
30
200.324005
70
192
0
VERTEX
8
OBJECT__17
10
11.101000
20
-12.824000
30
132.128006
70
192
0
VERTEX
8
OBJECT__17
10
8.042000
20
-11.304000
30
98.816002
70
192
0
VERTEX
8
OBJECT__17
10
9.592000
20
-5.487000
30
69.765999
70
192
0
VERTEX
8
OBJECT__17
10
7.699000
20
-10.076000
30
69.890999
70
192
0
VERTEX
8
OBJECT__17
10
5.635000
20
-14.509000
30
99.120003
70
192
0
VERTEX
8
OBJECT__17
10
13.133000
20
-17.603001
30
151.602005
70
192
0
VERTEX
8
OBJECT__17
10
19.358999
20
-18.829000
30
173.723999
70
192
0
VERTEX
8
OBJECT__17
10
9.258000
20
-16.485001
30
132.501999
70
192
0
VERTEX
8
OBJECT__17
10
17.424999
20
-19.658001
30
174.345993
70
192
0
VERTEX
8
OBJECT__17
10
28.985001
20
-20.218000
30
200.720993
70
192
0
VERTEX
8
OBJECT__17
10
4.732000
20
-12.963000
30
70.099998
70
192
0
VERTEX
8
OBJECT__17
10
0.979000
20
13.426000
30
70.448997
70
192
0
VERTEX
8
OBJECT__17
10
1.590000
20
14.308000
30
89.448997
70
192
0
VERTEX
8
OBJECT__17
10
3.446000
20
15.715000
30
113.646004
70
192
0
VERTEX
8
OBJECT__17
10
4.899000
20
16.490000
30
125.691002
70
192
0
VERTEX
8
OBJECT__17
10
2.363000
20
14.983000
30
101.560997
70
192
0
VERTEX
8
OBJECT__17
10
2.242000
20
14.877000
30
99.660004
70
192
0
VERTEX
8
OBJECT__17
10
6.807000
20
17.294001
30
137.671005
70
192
0
VERTEX
8
OBJECT__17
10
6.103000
20
16.997000
30
133.250000
70
192
0
VERTEX
8
OBJECT__17
10
12.142000
20
18.941999
30
161.354004
70
192
0
VERTEX
8
OBJECT__17
10
15.510000
20
19.767000
30
173.005997
70
192
0
VERTEX
8
OBJECT__17
10
10.039000
20
18.320999
30
152.464005
70
192
0
VERTEX
8
OBJECT__17
10
11.180000
20
18.683001
30
157.686996
70
192
0
VERTEX
8
OBJECT__17
10
16.112000
20
19.892000
30
174.774994
70
192
0
VERTEX
8
OBJECT__17
10
27.184999
20
21.406000
30
201.419006
70
192
0
VERTEX
8
OBJECT__17
10
23.320999
20
21.399000
30
195.981003
70
192
0
VERTEX
8
OBJECT__17
10
25.646999
20
21.829000
30
202.033997
70
192
0
VERTEX
8
OBJECT__17
10
39.262001
20
23.514000
30
231.606995
70
192
0
VERTEX
8
OBJECT__17
10
36.307999
20
23.782000
30
229.322006
70
192
0
VERTEX
8
OBJECT__17
10
36.122002
20
23.822001
30
229.729004
70
192
0
VERTEX
8
OBJECT__17
10
37.685001
20
24.080999
30
233.410004
70
192
0
VERTEX
8
OBJECT__17
10
38.480000
20
23.795000
30
232.501999
70
192
0
VERTEX
8
OBJECT__17
10
39.528000
20
23.264999
30
231.332993
70
192
0
VERTEX
8
OBJECT__17
10
29.600000
20
22.558001
30
212.320007
70
192
0
VERTEX
8
OBJECT__17
10
36.254002
20
23.702999
30
228.522003
70
192
0
VERTEX
8
OBJECT__17
10
36.345001
20
23.735001
30
228.884003
70
192
0
VERTEX
8
OBJECT__17
10
40.654999
20
22.211000
30
230.173004
70
192
0
VERTEX
8
OBJECT__17
10
40.681000
20
22.150999
30
230.151001
70
192
0
VERTEX
8
OBJECT__17
10
40.988998
20
21.452999
30
229.897995
70
192
0
VERTEX
8
OBJECT__17
10
41.647999
20
19.160000
30
229.466003
70
192
0
VERTEX
8
OBJECT__17
10
41.679001
20
18.636000
30
229.483002
70
192
0
VERTEX
8
OBJECT__17
10
41.438999
20
20.434000
30
229.528000
70
192
0
VERTEX
8
OBJECT__17
10
42.286999
20
8.564000
30
229.802002
70
192
0
VERTEX
8
OBJECT__17
10
42.289001
20
8.521000
30
229.804001
70
192
0
VERTEX
8
OBJECT__17
10
41.882000
20
15.269000
30
229.589005
70
192
0
VERTEX
8
OBJECT__17
10
41.862000
20
15.601000
30
229.578995
70
192
0
VERTEX
8
OBJECT__17
10
42.348999
20
-6.533000
30
229.847000
70
192
0
VERTEX
8
OBJECT__17
10
42.341999
20
-4.870000
30
229.841995
70
192
0
VERTEX
8
OBJECT__17
10
41.958000
20
-15.306000
30
229.585999
70
192
0
VERTEX
8
OBJECT__17
10
42.323002
20
-0.094000
30
229.828003
70
192
0
VERTEX
8
OBJECT__17
10
41.547001
20
-19.882000
30
229.477005
70
192
0
VERTEX
8
OBJECT__17
10
41.528000
20
-19.990999
30
229.483994
70
192
0
VERTEX
8
OBJECT__17
10
41.688999
20
-18.296000
30
229.514999
70
192
0
VERTEX
8
OBJECT__17
10
41.917999
20
-15.753000
30
229.576004
70
192
0
VERTEX
8
OBJECT__17
10
41.470001
20
-20.291000
30
229.511002
70
192
0
VERTEX
8
OBJECT__17
10
27.089001
20
-21.443001
30
201.457001
70
192
0
VERTEX
8
OBJECT__17
10
41.098999
20
-21.459000
30
229.783997
70
192
0
VERTEX
8
OBJECT__17
10
40.838001
20
-21.806999
30
230.029007
70
192
0
VERTEX
8
OBJECT__17
10
39.959000
20
-22.982000
30
230.858002
70
192
0
VERTEX
8
OBJECT__17
10
39.446999
20
-23.285999
30
231.423004
70
192
0
VERTEX
8
OBJECT__17
10
33.915001
20
-23.308001
30
222.927002
70
192
0
VERTEX
8
OBJECT__17
10
36.254002
20
-23.702999
30
228.522995
70
192
0
VERTEX
8
OBJECT__17
10
36.348999
20
-23.740999
30
228.945007
70
192
0
VERTEX
8
OBJECT__17
10
38.674999
20
-23.745001
30
232.276001
70
192
0
VERTEX
8
OBJECT__17
10
36.122002
20
-23.822001
30
229.729004
70
192
0
VERTEX
8
OBJECT__17
10
36.300999
20
-23.785000
30
229.348007
70
192
0
VERTEX
8
OBJECT__17
10
38.320000
20
-23.955999
30
232.669006
70
192
0
VERTEX
8
OBJECT__17
10
37.685001
20
-24.082001
30
233.412994
70
192
0
VERTEX
8
OBJECT__17
10
20.799999
20
-20.902000
30
188.985001
70
192
0
VERTEX
8
OBJECT__17
10
24.959999
20
-21.711000
30
200.378006
70
192
0
VERTEX
8
OBJECT__17
10
25.622000
20
-21.829000
30
202.044006
70
192
0
VERTEX
8
OBJECT__17
10
16.233999
20
-19.889999
30
174.737000
70
192
0
VERTEX
8
OBJECT__17
10
13.396000
20
-19.261000
30
165.876999
70
192
0
VERTEX
8
OBJECT__17
10
10.055000
20
-18.320000
30
152.455994
70
192
0
VERTEX
8
OBJECT__17
10
7.681000
20
-17.610001
30
142.285995
70
192
0
VERTEX
8
OBJECT__17
10
8.408000
20
-17.855000
30
145.837006
70
192
0
VERTEX
8
OBJECT__17
10
3.958000
20
-16.009001
30
118.294998
70
192
0
VERTEX
8
OBJECT__17
10
6.224000
20
-17.002001
30
133.231003
70
192
0
VERTEX
8
OBJECT__17
10
4.375000
20
-16.231001
30
121.733002
70
192
0
VERTEX
8
OBJECT__17
10
1.853000
20
-14.560000
30
94.110001
70
192
0
VERTEX
8
OBJECT__17
10
1.251000
20
-13.927000
30
81.986000
70
192
0
VERTEX
8
OBJECT__17
10
2.335000
20
-14.892000
30
99.652000
70
192
0
VERTEX
8
OBJECT__17
10
2.513000
20
-11.750000
30
10.500000
70
192
0
VERTEX
8
OBJECT__17
10
0.718000
20
-12.903000
30
57.702000
70
192
0
VERTEX
8
OBJECT__17
10
0.998000
20
-13.441000
30
70.448997
70
192
0
VERTEX
8
OBJECT__17
10
0.564000
20
-12.002000
30
10.500000
70
192
0
VERTEX
8
OBJECT__17
10
4.451000
20
-10.977000
30
10.500000
70
192
0
VERTEX
8
OBJECT__17
10
6.259000
20
-10.256000
30
10.500000
70
192
0
VERTEX
8
OBJECT__17
10
8.344000
20
-8.440000
30
10.500000
70
192
0
VERTEX
8
OBJECT__17
10
9.302000
20
-7.605000
30
10.500000
70
192
0
VERTEX
8
OBJECT__17
10
11.295000
20
-4.098000
30
10.500000
70
192
0
VERTEX
8
OBJECT__17
10
11.001000
20
-4.615000
30
10.500000
70
192
0
VERTEX
8
OBJECT__17
10
12.015000
20
-0.129000
30
10.500000
70
192
0
VERTEX
8
OBJECT__17
10
11.380000
20
3.857000
30
10.500000
70
192
0
VERTEX
8
OBJECT__17
10
9.463000
20
7.405000
30
10.500000
70
192
0
VERTEX
8
OBJECT__17
10
11.025000
20
4.513000
30
10.500000
70
192
0
VERTEX
8
OBJECT__17
10
4.544000
20
10.939000
30
10.500000
70
192
0
VERTEX
8
OBJECT__17
10
8.409000
20
8.362000
30
10.500000
70
192
0
VERTEX
8
OBJECT__17
10
6.477000
20
10.120000
30
10.500000
70
192
0
VERTEX
8
OBJECT__17
10
0.624000
20
12.409000
30
40.881001
70
192
0
VERTEX
8
OBJECT__17
10
0.810000
20
13.181000
30
65.176003
70
192
0
VERTEX
8
OBJECT__17
10
2.763000
20
11.693000
30
10.500000
70
192
0
VERTEX
8
OBJECT__17
10
0.567000
20
12.019000
30
16.576000
70
192
0
VERTEX
8
OBJECT__17
10
0.564000
20
12.002000
30
10.500000
70
192
0
VERTEX
8
OBJECT__17
10
0
20
0
30
0
70
128
71
1
72
2
73
3
0
VERTEX
8
OBJECT__17
10
0
20
0
30
0
70
128
71
4
72
1
73
5
0
VERTEX
8
OBJECT__17
10
0
20
0
30
0
70
128
71
6
72
4
73
7
0
VERTEX
8
OBJECT__17
10
0
20
0
30
0
70
128
71
8
72
9
73
7
0
VERTEX
8
OBJECT__17
10
0
20
0
30
0
70
128
71
10
72
8
73
5
0
VERTEX
8
OBJECT__17
10
0
20
0
30
0
70
128
71
9
72
11
73
12
0
VERTEX
8
OBJECT__17
10
0
20
0
30
0
70
128
71
12
72
11
73
13
0
VERTEX
8
OBJECT__17
10
0
20
0
30
0
70
128
71
11
72
14
73
13
0
VERTEX
8
OBJECT__17
10
0
20
0
30
0
70
128
71
15
72
6
73
12
0
VERTEX
8
OBJECT__17
10
0
20
0
30
0
70
128
71
16
72
15
73
17
0
VERTEX
8
OBJECT__17
10
0
20
0
30
0
70
128
71
13
72
18
73
19
0
VERTEX
8
OBJECT__17
10
0
20
0
30
0
70
128
71
14
72
20
73
18
0
VERTEX
8
OBJECT__17
10
0
20
0
30
0
70
128
71
11
72
21
73
22
0
VERTEX
8
OBJECT__17
10
0
20
0
30
0
70
128
71
8
72
23
73
24
0
VERTEX
8
OBJECT__17
10
0
20
0
30
0
70
128
71
10
72
25
73
23
0
VERTEX
8
OBJECT__17
10
0
20
0
30
0
70
128
71
9
72
24
73
21
0
VERTEX
8
OBJECT__17
10
0
20
0
30
0
70
128
71
24
72
26
73
21
0
VERTEX
8
OBJECT__17
10
0
20
0
30
0
70
128
71
21
72
26
73
27
0
VERTEX
8
OBJECT__17
10
0
20
0
30
0
70
128
71
14
72
22
73
28
0
VERTEX
8
OBJECT__17
10
0
20
0
30
0
70
128
71
22
72
27
73
29
0
VERTEX
8
OBJECT__17
10
0
20
0
30
0
70
128
71
30
72
27
73
26
0
VERTEX
8
OBJECT__17
10
0
20
0
30
0
70
128
71
31
72
24
73
23
0
VERTEX
8
OBJECT__17
10
0
20
0
30
0
70
128
71
32
72
23
73
25
0
VERTEX
8
OBJECT__17
10
0
20
0
30
0
70
128
71
33
72
26
73
24
0
VERTEX
8
OBJECT__17
10
0
20
0
30
0
70
128
71
34
72
32
73
35
0
VERTEX
8
OBJECT__17
10
0
20
0
30
0
70
128
71
36
72
29
73
27
0
VERTEX
8
OBJECT__17
10
0
20
0
30
0
70
128
71
16
72
37
73
38
0
VERTEX
8
OBJECT__17
10
0
20
0
30
0
70
128
71
38
72
15
73
16
0
VERTEX
8
OBJECT__17
10
0
20
0
30
0
70
128
71
6
72
15
73
39
0
VERTEX
8
OBJECT__17
10
0
20
0
30
0
70
128
71
39
72
40
73
6
0
VERTEX
8
OBJECT__17
10
0
20
0
30
0
70
128
71
15
72
41
73
39
0
VERTEX
8
OBJECT__17
10
0
20
0
30
0
70
128
71
15
72
42
73
41
0
VERTEX
8
OBJECT__17
10
0
20
0
30
0
70
128
71
4
72
6
73
43
0
VERTEX
8
OBJECT__17
10
0
20
0
30
0
70
128
71
6
72
44
73
43
0
VERTEX
8
OBJECT__17
10
0
20
0
30
0
70
128
71
1
72
4
73
45
0
VERTEX
8
OBJECT__17
10
0
20
0
30
0
70
128
71
45
72
46
73
1
0
VERTEX
8
OBJECT__17
10
0
20
0
30
0
70
128
71
4
72
47
73
48
0
VERTEX
8
OBJECT__17
10
0
20
0
30
0
70
128
71
48
72
45
73
4
0
VERTEX
8
OBJECT__17
10
0
20
0
30
0
70
128
71
49
72
50
73
2
0
VERTEX
8
OBJECT__17
10
0
20
0
30
0
70
128
71
50
72
49
73
51
0
VERTEX
8
OBJECT__17
10
0
20
0
30
0
70
128
71
51
72
52
73
50
0
VERTEX
8
OBJECT__17
10
0
20
0
30
0
70
128
71
53
72
54
73
55
0
VERTEX
8
OBJECT__17
10
0
20
0
30
0
70
128
71
55
72
56
73
57
0
VERTEX
8
OBJECT__17
10
0
20
0
30
0
70
128
71
55
72
57
73
53
0
VERTEX
8
OBJECT__17
10
0
20
0
30
0
70
128
71
58
72
50
73
59
0
VERTEX
8
OBJECT__17
10
0
20
0
30
0
70
128
71
50
72
52
73
59
0
VERTEX
8
OBJECT__17
10
0
20
0
30
0
70
128
71
59
72
60
73
58
0
VERTEX
8
OBJECT__17
10
0
20
0
30
0
70
128
71
60
72
61
73
58
0
VERTEX
8
OBJECT__17
10
0
20
0
30
0
70
128
71
61
72
54
73
58
0
VERTEX
8
OBJECT__17
10
0
20
0
30
0
70
128
71
50
72
62
73
63
0
VERTEX
8
OBJECT__17
10
0
20
0
30
0
70
128
71
63
72
2
73
50
0
VERTEX
8
OBJECT__17
10
0
20
0
30
0
70
128
71
63
72
64
73
2
0
VERTEX
8
OBJECT__17
10
0
20
0
30
0
70
128
71
50
72
58
73
62
0
VERTEX
8
OBJECT__17
10
0
20
0
30
0
70
128
71
3
72
2
73
65
0
VERTEX
8
OBJECT__17
10
0
20
0
30
0
70
128
71
65
72
66
73
3
0
VERTEX
8
OBJECT__17
10
0
20
0
30
0
70
128
71
2
72
67
73
65
0
VERTEX
8
OBJECT__17
10
0
20
0
30
0
70
128
71
2
72
64
73
67
0
VERTEX
8
OBJECT__17
10
0
20
0
30
0
70
128
71
10
72
68
73
69
0
VERTEX
8
OBJECT__17
10
0
20
0
30
0
70
128
71
3
72
70
73
68
0
VERTEX
8
OBJECT__17
10
0
20
0
30
0
70
128
71
3
72
71
73
70
0
VERTEX
8
OBJECT__17
10
0
20
0
30
0
70
128
71
68
72
10
73
3
0
VERTEX
8
OBJECT__17
10
0
20
0
30
0
70
128
71
25
72
10
73
72
0
VERTEX
8
OBJECT__17
10
0
20
0
30
0
70
128
71
10
72
73
73
72
0
VERTEX
8
OBJECT__17
10
0
20
0
30
0
70
128
71
72
72
74
73
25
0
VERTEX
8
OBJECT__17
10
0
20
0
30
0
70
128
71
10
72
75
73
73
0
VERTEX
8
OBJECT__17
10
0
20
0
30
0
70
128
71
35
72
76
73
77
0
VERTEX
8
OBJECT__17
10
0
20
0
30
0
70
128
71
25
72
78
73
76
0
VERTEX
8
OBJECT__17
10
0
20
0
30
0
70
128
71
25
72
79
73
78
0
VERTEX
8
OBJECT__17
10
0
20
0
30
0
70
128
71
76
72
35
73
25
0
VERTEX
8
OBJECT__17
10
0
20
0
30
0
70
128
71
77
72
80
73
35
0
VERTEX
8
OBJECT__17
10
0
20
0
30
0
70
128
71
81
72
35
73
82
0
VERTEX
8
OBJECT__17
10
0
20
0
30
0
70
128
71
82
72
83
73
81
0
VERTEX
8
OBJECT__17
10
0
20
0
30
0
70
128
71
83
72
84
73
81
0
VERTEX
8
OBJECT__17
10
0
20
0
30
0
70
128
71
81
72
85
73
86
0
VERTEX
8
OBJECT__17
10
0
20
0
30
0
70
128
71
85
72
87
73
86
0
VERTEX
8
OBJECT__17
10
0
20
0
30
0
70
128
71
85
72
88
73
87
0
VERTEX
8
OBJECT__17
10
0
20
0
30
0
70
128
71
85
72
89
73
90
0
VERTEX
8
OBJECT__17
10
0
20
0
30
0
70
128
71
90
72
91
73
85
0
VERTEX
8
OBJECT__17
10
0
20
0
30
0
70
128
71
89
72
92
73
90
0
VERTEX
8
OBJECT__17
10
0
20
0
30
0
70
128
71
92
72
93
73
90
0
VERTEX
8
OBJECT__17
10
0
20
0
30
0
70
128
71
91
72
88
73
85
0
VERTEX
8
OBJECT__17
10
0
20
0
30
0
70
128
71
34
72
81
73
94
0
VERTEX
8
OBJECT__17
10
0
20
0
30
0
70
128
71
81
72
95
73
94
0
VERTEX
8
OBJECT__17
10
0
20
0
30
0
70
128
71
81
72
96
73
95
0
VERTEX
8
OBJECT__17
10
0
20
0
30
0
70
128
71
34
72
97
73
98
0
VERTEX
8
OBJECT__17
10
0
20
0
30
0
70
128
71
99
72
31
73
32
0
VERTEX
8
OBJECT__17
10
0
20
0
30
0
70
128
71
32
72
34
73
99
0
VERTEX
8
OBJECT__17
10
0
20
0
30
0
70
128
71
33
72
31
73
100
0
VERTEX
8
OBJECT__17
10
0
20
0
30
0
70
128
71
31
72
101
73
100
0
VERTEX
8
OBJECT__17
10
0
20
0
30
0
70
128
71
31
72
99
73
101
0
VERTEX
8
OBJECT__17
10
0
20
0
30
0
70
128
71
30
72
33
73
102
0
VERTEX
8
OBJECT__17
10
0
20
0
30
0
70
128
71
33
72
103
73
104
0
VERTEX
8
OBJECT__17
10
0
20
0
30
0
70
128
71
104
72
102
73
33
0
VERTEX
8
OBJECT__17
10
0
20
0
30
0
70
128
71
30
72
105
73
106
0
VERTEX
8
OBJECT__17
10
0
20
0
30
0
70
128
71
30
72
107
73
105
0
VERTEX
8
OBJECT__17
10
0
20
0
30
0
70
128
71
106
72
36
73
30
0
VERTEX
8
OBJECT__17
10
0
20
0
30
0
70
128
71
108
72
36
73
109
0
VERTEX
8
OBJECT__17
10
0
20
0
30
0
70
128
71
36
72
110
73
109
0
VERTEX
8
OBJECT__17
10
0
20
0
30
0
70
128
71
109
72
111
73
108
0
VERTEX
8
OBJECT__17
10
0
20
0
30
0
70
128
71
112
72
113
73
29
0
VERTEX
8
OBJECT__17
10
0
20
0
30
0
70
128
71
29
72
36
73
112
0
VERTEX
8
OBJECT__17
10
0
20
0
30
0
70
128
71
29
72
114
73
115
0
VERTEX
8
OBJECT__17
10
0
20
0
30
0
70
128
71
115
72
28
73
29
0
VERTEX
8
OBJECT__17
10
0
20
0
30
0
70
128
71
20
72
28
73
116
0
VERTEX
8
OBJECT__17
10
0
20
0
30
0
70
128
71
28
72
117
73
116
0
VERTEX
8
OBJECT__17
10
0
20
0
30
0
70
128
71
20
72
118
73
119
0
VERTEX
8
OBJECT__17
10
0
20
0
30
0
70
128
71
119
72
18
73
20
0
VERTEX
8
OBJECT__17
10
0
20
0
30
0
70
128
71
19
72
18
73
120
0
VERTEX
8
OBJECT__17
10
0
20
0
30
0
70
128
71
18
72
121
73
120
0
VERTEX
8
OBJECT__17
10
0
20
0
30
0
70
128
71
122
72
16
73
19
0
VERTEX
8
OBJECT__17
10
0
20
0
30
0
70
128
71
19
72
123
73
124
0
VERTEX
8
OBJECT__17
10
0
20
0
30
0
70
128
71
16
72
125
73
126
0
VERTEX
8
OBJECT__17
10
0
20
0
30
0
70
128
71
127
72
128
73
125
0
VERTEX
8
OBJECT__17
10
0
20
0
30
0
70
128
71
125
72
16
73
127
0
VERTEX
8
OBJECT__17
10
0
20
0
30
0
70
128
71
127
72
129
73
128
0
VERTEX
8
OBJECT__17
10
0
20
0
30
0
70
128
71
16
72
122
73
127
0
VERTEX
8
OBJECT__17
10
0
20
0
30
0
70
128
71
126
72
37
73
16
0
VERTEX
8
OBJECT__17
10
0
20
0
30
0
70
128
71
19
72
124
73
122
0
VERTEX
8
OBJECT__17
10
0
20
0
30
0
70
128
71
120
72
123
73
19
0
VERTEX
8
OBJECT__17
10
0
20
0
30
0
70
128
71
119
72
121
73
18
0
VERTEX
8
OBJECT__17
10
0
20
0
30
0
70
128
71
116
72
118
73
20
0
VERTEX
8
OBJECT__17
10
0
20
0
30
0
70
128
71
115
72
117
73
28
0
VERTEX
8
OBJECT__17
10
0
20
0
30
0
70
128
71
113
72
114
73
29
0
VERTEX
8
OBJECT__17
10
0
20
0
30
0
70
128
71
108
72
112
73
36
0
VERTEX
8
OBJECT__17
10
0
20
0
30
0
70
128
71
106
72
110
73
36
0
VERTEX
8
OBJECT__17
10
0
20
0
30
0
70
128
71
102
72
107
73
30
0
VERTEX
8
OBJECT__17
10
0
20
0
30
0
70
128
71
100
72
103
73
33
0
VERTEX
8
OBJECT__17
10
0
20
0
30
0
70
128
71
98
72
99
73
34
0
VERTEX
8
OBJECT__17
10
0
20
0
30
0
70
128
71
94
72
97
73
34
0
VERTEX
8
OBJECT__17
10
0
20
0
30
0
70
128
71
86
72
96
73
81
0
VERTEX
8
OBJECT__17
10
0
20
0
30
0
70
128
71
84
72
85
73
81
0
VERTEX
8
OBJECT__17
10
0
20
0
30
0
70
128
71
80
72
82
73
35
0
VERTEX
8
OBJECT__17
10
0
20
0
30
0
70
128
71
74
72
79
73
25
0
VERTEX
8
OBJECT__17
10
0
20
0
30
0
70
128
71
69
72
75
73
10
0
VERTEX
8
OBJECT__17
10
0
20
0
30
0
70
128
71
66
72
71
73
3
0
VERTEX
8
OBJECT__17
10
0
20
0
30
0
70
128
71
53
72
58
73
54
0
VERTEX
8
OBJECT__17
10
0
20
0
30
0
70
128
71
2
72
1
73
49
0
VERTEX
8
OBJECT__17
10
0
20
0
30
0
70
128
71
46
72
49
73
1
0
VERTEX
8
OBJECT__17
10
0
20
0
30
0
70
128
71
43
72
47
73
4
0
VERTEX
8
OBJECT__17
10
0
20
0
30
0
70
128
71
40
72
44
73
6
0
VERTEX
8
OBJECT__17
10
0
20
0
30
0
70
128
71
38
72
42
73
15
0
VERTEX
8
OBJECT__17
10
0
20
0
30
0
70
128
71
27
72
30
73
36
0
VERTEX
8
OBJECT__17
10
0
20
0
30
0
70
128
71
35
72
81
73
34
0
VERTEX
8
OBJECT__17
10
0
20
0
30
0
70
128
71
24
72
31
73
33
0
VERTEX
8
OBJECT__17
10
0
20
0
30
0
70
128
71
25
72
35
73
32
0
VERTEX
8
OBJECT__17
10
0
20
0
30
0
70
128
71
23
72
32
73
31
0
VERTEX
8
OBJECT__17
10
0
20
0
30
0
70
128
71
26
72
33
73
30
0
VERTEX
8
OBJECT__17
10
0
20
0
30
0
70
128
71
29
72
28
73
22
0
VERTEX
8
OBJECT__17
10
0
20
0
30
0
70
128
71
28
72
20
73
14
0
VERTEX
8
OBJECT__17
10
0
20
0
30
0
70
128
71
27
72
22
73
21
0
VERTEX
8
OBJECT__17
10
0
20
0
30
0
70
128
71
21
72
11
73
9
0
VERTEX
8
OBJECT__17
10
0
20
0
30
0
70
128
71
23
72
8
73
10
0
VERTEX
8
OBJECT__17
10
0
20
0
30
0
70
128
71
24
72
9
73
8
0
VERTEX
8
OBJECT__17
10
0
20
0
30
0
70
128
71
22
72
14
73
11
0
VERTEX
8
OBJECT__17
10
0
20
0
30
0
70
128
71
18
72
13
73
14
0
VERTEX
8
OBJECT__17
10
0
20
0
30
0
70
128
71
19
72
17
73
13
0
VERTEX
8
OBJECT__17
10
0
20
0
30
0
70
128
71
17
72
19
73
16
0
VERTEX
8
OBJECT__17
10
0
20
0
30
0
70
128
71
12
72
17
73
15
0
VERTEX
8
OBJECT__17
10
0
20
0
30
0
70
128
71
13
72
17
73
12
0
VERTEX
8
OBJECT__17
10
0
20
0
30
0
70
128
71
12
72
7
73
9
0
VERTEX
8
OBJECT__17
10
0
20
0
30
0
70
128
71
5
72
3
73
10
0
VERTEX
8
OBJECT__17
10
0
20
0
30
0
70
128
71
7
72
5
73
8
0
VERTEX
8
OBJECT__17
10
0
20
0
30
0
70
128
71
7
72
12
73
6
0
VERTEX
8
OBJECT__17
10
0
20
0
30
0
70
128
71
5
72
7
73
4
0
VERTEX
8
OBJECT__17
10
0
20
0
30
0
70
128
71
3
72
5
73
1
0
SEQEND
8
OBJECT__17
0
POLYLINE
8
OBJECT__18
66
1
70
64
71
10
72
8
62
253
0
VERTEX
8
OBJECT__18
10
36.037998
20
23.827999
30
229.841003
70
192
0
VERTEX
8
OBJECT__18
10
36.122002
20
23.822001
30
229.729004
70
192
0
VERTEX
8
OBJECT__18
10
35.868999
20
23.490000
30
229.591995
70
192
0
VERTEX
8
OBJECT__18
10
36.307999
20
23.782000
30
229.322006
70
192
0
VERTEX
8
OBJECT__18
10
35.999001
20
23.461000
30
229.283997
70
192
0
VERTEX
8
OBJECT__18
10
36.345001
20
23.735001
30
228.884003
70
192
0
VERTEX
8
OBJECT__18
10
36.020000
20
23.426001
30
228.951004
70
192
0
VERTEX
8
OBJECT__18
10
36.254002
20
23.702999
30
228.522003
70
192
0
VERTEX
8
OBJECT__18
10
35.946999
20
23.407000
30
228.673004
70
192
0
VERTEX
8
OBJECT__18
10
35.810001
20
23.493999
30
229.675995
70
192
0
VERTEX
8
OBJECT__18
10
0
20
0
30
0
70
128
71
1
72
2
73
3
0
VERTEX
8
OBJECT__18
10
0
20
0
30
0
70
128
71
4
72
5
73
3
0
VERTEX
8
OBJECT__18
10
0
20
0
30
0
70
128
71
4
72
6
73
7
0
VERTEX
8
OBJECT__18
10
0
20
0
30
0
70
128
71
6
72
8
73
9
0
VERTEX
8
OBJECT__18
10
0
20
0
30
0
70
128
71
9
72
7
73
6
0
VERTEX
8
OBJECT__18
10
0
20
0
30
0
70
128
71
7
72
5
73
4
0
VERTEX
8
OBJECT__18
10
0
20
0
30
0
70
128
71
3
72
2
73
4
0
VERTEX
8
OBJECT__18
10
0
20
0
30
0
70
128
71
3
72
10
73
1
0
SEQEND
8
OBJECT__18
0
POLYLINE
8
OBJECT__19
66
1
70
64
71
36
72
34
62
253
0
VERTEX
8
OBJECT__19
10
35.821999
20
-23.266001
30
229.703995
70
192
0
VERTEX
8
OBJECT__19
10
35.810001
20
-23.493999
30
229.675995
70
192
0
VERTEX
8
OBJECT__19
10
35.658001
20
-23.497999
30
229.869003
70
192
0
VERTEX
8
OBJECT__19
10
34.331001
20
-23.131001
30
231.636993
70
192
0
VERTEX
8
OBJECT__19
10
34.570000
20
-22.618999
30
231.425003
70
192
0
VERTEX
8
OBJECT__19
10
35.834000
20
-23.023001
30
229.733002
70
192
0
VERTEX
8
OBJECT__19
10
33.252998
20
-22.195000
30
233.188004
70
192
0
VERTEX
8
OBJECT__19
10
33.660000
20
-21.774000
30
232.740997
70
192
0
VERTEX
8
OBJECT__19
10
32.752998
20
-21.268000
30
233.990005
70
192
0
VERTEX
8
OBJECT__19
10
33.249001
20
-20.965000
30
233.406006
70
192
0
VERTEX
8
OBJECT__19
10
32.506001
20
-20.079000
30
234.505005
70
192
0
VERTEX
8
OBJECT__19
10
33.054001
20
-19.934000
30
233.826004
70
192
0
VERTEX
8
OBJECT__19
10
32.433998
20
-18.066999
30
234.906006
70
192
0
VERTEX
8
OBJECT__19
10
32.988998
20
-15.164000
30
234.584000
70
192
0
VERTEX
8
OBJECT__19
10
32.450001
20
-12.037000
30
235.617004
70
192
0
VERTEX
8
OBJECT__19
10
32.478001
20
-5.980000
30
236.020004
70
192
0
VERTEX
8
OBJECT__19
10
33.039001
20
-1.571000
30
235.436996
70
192
0
VERTEX
8
OBJECT__19
10
32.490002
20
-0.004000
30
236.147003
70
192
0
VERTEX
8
OBJECT__19
10
33.037998
20
-0.005000
30
235.423004
70
192
0
VERTEX
8
OBJECT__19
10
32.490002
20
0.089000
30
236.149002
70
192
0
VERTEX
8
OBJECT__19
10
32.436001
20
14.649000
30
235.352997
70
192
0
VERTEX
8
OBJECT__19
10
33.011002
20
10.346000
30
235.050995
70
192
0
VERTEX
8
OBJECT__19
10
32.500000
20
20.016001
30
234.522995
70
192
0
VERTEX
8
OBJECT__19
10
32.988998
20
17.582001
30
234.264999
70
192
0
VERTEX
8
OBJECT__19
10
32.991001
20
14.656000
30
234.643005
70
192
0
VERTEX
8
OBJECT__19
10
33.035000
20
4.002000
30
235.388000
70
192
0
VERTEX
8
OBJECT__19
10
33.126999
20
20.472000
30
233.645996
70
192
0
VERTEX
8
OBJECT__19
10
32.737999
20
21.226000
30
234.016006
70
192
0
VERTEX
8
OBJECT__19
10
33.231998
20
22.167000
30
233.220001
70
192
0
VERTEX
8
OBJECT__19
10
33.417000
20
21.371000
30
233.123001
70
192
0
VERTEX
8
OBJECT__19
10
34.445000
20
23.191000
30
231.479996
70
192
0
VERTEX
8
OBJECT__19
10
35.314999
20
22.944000
30
230.412994
70
192
0
VERTEX
8
OBJECT__19
10
34.042000
20
22.212000
30
232.175003
70
192
0
VERTEX
8
OBJECT__19
10
35.821999
20
23.266001
30
229.703995
70
192
0
VERTEX
8
OBJECT__19
10
35.834000
20
23.023001
30
229.733002
70
192
0
VERTEX
8
OBJECT__19
10
35.810001
20
23.493999
30
229.675995
70
192
0
VERTEX
8
OBJECT__19
10
0
20
0
30
0
70
128
71
1
72
2
73
3
0
VERTEX
8
OBJECT__19
10
0
20
0
30
0
70
128
71
1
72
4
73
5
0
VERTEX
8
OBJECT__19
10
0
20
0
30
0
70
128
71
5
72
6
73
1
0
VERTEX
8
OBJECT__19
10
0
20
0
30
0
70
128
71
4
72
7
73
8
0
VERTEX
8
OBJECT__19
10
0
20
0
30
0
70
128
71
8
72
5
73
4
0
VERTEX
8
OBJECT__19
10
0
20
0
30
0
70
128
71
7
72
9
73
10
0
VERTEX
8
OBJECT__19
10
0
20
0
30
0
70
128
71
10
72
8
73
7
0
VERTEX
8
OBJECT__19
10
0
20
0
30
0
70
128
71
9
72
11
73
12
0
VERTEX
8
OBJECT__19
10
0
20
0
30
0
70
128
71
12
72
11
73
13
0
VERTEX
8
OBJECT__19
10
0
20
0
30
0
70
128
71
14
72
15
73
16
0
VERTEX
8
OBJECT__19
10
0
20
0
30
0
70
128
71
14
72
13
73
15
0
VERTEX
8
OBJECT__19
10
0
20
0
30
0
70
128
71
16
72
17
73
14
0
VERTEX
8
OBJECT__19
10
0
20
0
30
0
70
128
71
18
72
19
73
17
0
VERTEX
8
OBJECT__19
10
0
20
0
30
0
70
128
71
16
72
18
73
17
0
VERTEX
8
OBJECT__19
10
0
20
0
30
0
70
128
71
13
72
14
73
12
0
VERTEX
8
OBJECT__19
10
0
20
0
30
0
70
128
71
12
72
10
73
9
0
VERTEX
8
OBJECT__19
10
0
20
0
30
0
70
128
71
19
72
18
73
20
0
VERTEX
8
OBJECT__19
10
0
20
0
30
0
70
128
71
20
72
21
73
22
0
VERTEX
8
OBJECT__19
10
0
20
0
30
0
70
128
71
21
72
23
73
24
0
VERTEX
8
OBJECT__19
10
0
20
0
30
0
70
128
71
24
72
25
73
21
0
VERTEX
8
OBJECT__19
10
0
20
0
30
0
70
128
71
25
72
22
73
21
0
VERTEX
8
OBJECT__19
10
0
20
0
30
0
70
128
71
22
72
26
73
20
0
VERTEX
8
OBJECT__19
10
0
20
0
30
0
70
128
71
27
72
24
73
23
0
VERTEX
8
OBJECT__19
10
0
20
0
30
0
70
128
71
23
72
28
73
27
0
VERTEX
8
OBJECT__19
10
0
20
0
30
0
70
128
71
28
72
29
73
30
0
VERTEX
8
OBJECT__19
10
0
20
0
30
0
70
128
71
31
72
32
73
33
0
VERTEX
8
OBJECT__19
10
0
20
0
30
0
70
128
71
34
72
35
73
32
0
VERTEX
8
OBJECT__19
10
0
20
0
30
0
70
128
71
31
72
36
73
34
0
VERTEX
8
OBJECT__19
10
0
20
0
30
0
70
128
71
32
72
31
73
34
0
VERTEX
8
OBJECT__19
10
0
20
0
30
0
70
128
71
33
72
29
73
31
0
VERTEX
8
OBJECT__19
10
0
20
0
30
0
70
128
71
33
72
30
73
29
0
VERTEX
8
OBJECT__19
10
0
20
0
30
0
70
128
71
30
72
27
73
28
0
VERTEX
8
OBJECT__19
10
0
20
0
30
0
70
128
71
20
72
26
73
19
0
VERTEX
8
OBJECT__19
10
0
20
0
30
0
70
128
71
3
72
4
73
1
0
SEQEND
8
OBJECT__19
0
POLYLINE
8
OBJECT__20
66
1
70
64
71
37
72
35
62
253
0
VERTEX
8
OBJECT__20
10
35.946999
20
-23.407000
30
228.673004
70
192
0
VERTEX
8
OBJECT__20
10
33.608002
20
-23.011999
30
223.074997
70
192
0
VERTEX
8
OBJECT__20
10
33.915001
20
-23.308001
30
222.927002
70
192
0
VERTEX
8
OBJECT__20
10
24.653999
20
-21.414000
30
200.514999
70
192
0
VERTEX
8
OBJECT__20
10
25.622000
20
-21.829000
30
202.044006
70
192
0
VERTEX
8
OBJECT__20
10
24.959999
20
-21.711000
30
200.378006
70
192
0
VERTEX
8
OBJECT__20
10
20.875999
20
-20.679001
30
190.162994
70
192
0
VERTEX
8
OBJECT__20
10
20.799999
20
-20.902000
30
188.985001
70
192
0
VERTEX
8
OBJECT__20
10
20.493999
20
-20.604000
30
189.113998
70
192
0
VERTEX
8
OBJECT__20
10
13.091000
20
-18.962999
30
165.985001
70
192
0
VERTEX
8
OBJECT__20
10
16.233999
20
-19.889999
30
174.737000
70
192
0
VERTEX
8
OBJECT__20
10
13.396000
20
-19.261000
30
165.876999
70
192
0
VERTEX
8
OBJECT__20
10
9.192000
20
-17.863001
30
150.302002
70
192
0
VERTEX
8
OBJECT__20
10
10.055000
20
-18.320000
30
152.455994
70
192
0
VERTEX
8
OBJECT__20
10
8.408000
20
-17.855000
30
145.837006
70
192
0
VERTEX
8
OBJECT__20
10
8.103000
20
-17.556000
30
145.921997
70
192
0
VERTEX
8
OBJECT__20
10
7.376000
20
-17.311001
30
142.365997
70
192
0
VERTEX
8
OBJECT__20
10
7.681000
20
-17.610001
30
142.285995
70
192
0
VERTEX
8
OBJECT__20
10
4.071000
20
-15.932000
30
121.791000
70
192
0
VERTEX
8
OBJECT__20
10
4.375000
20
-16.231001
30
121.733002
70
192
0
VERTEX
8
OBJECT__20
10
6.224000
20
-17.002001
30
133.231003
70
192
0
VERTEX
8
OBJECT__20
10
3.654000
20
-15.710000
30
118.348999
70
192
0
VERTEX
8
OBJECT__20
10
3.958000
20
-16.009001
30
118.294998
70
192
0
VERTEX
8
OBJECT__20
10
3.330000
20
-15.487000
30
114.628998
70
192
0
VERTEX
8
OBJECT__20
10
1.549000
20
-14.260000
30
94.144997
70
192
0
VERTEX
8
OBJECT__20
10
2.335000
20
-14.892000
30
99.652000
70
192
0
VERTEX
8
OBJECT__20
10
1.853000
20
-14.560000
30
94.110001
70
192
0
VERTEX
8
OBJECT__20
10
1.251000
20
-13.927000
30
81.986000
70
192
0
VERTEX
8
OBJECT__20
10
1.335000
20
-14.035000
30
89.825996
70
192
0
VERTEX
8
OBJECT__20
10
0.411000
20
-12.604000
30
57.715000
70
192
0
VERTEX
8
OBJECT__20
10
0.718000
20
-12.903000
30
57.702000
70
192
0
VERTEX
8
OBJECT__20
10
0.998000
20
-13.441000
30
70.448997
70
192
0
VERTEX
8
OBJECT__20
10
0.946000
20
-13.628000
30
82.013000
70
192
0
VERTEX
8
OBJECT__20
10
0.328000
20
-12.137000
30
33.287998
70
192
0
VERTEX
8
OBJECT__20
10
0.564000
20
-12.002000
30
10.500000
70
192
0
VERTEX
8
OBJECT__20
10
0.250000
20
-11.702000
30
10.500000
70
192
0
VERTEX
8
OBJECT__20
10
36.254002
20
-23.702999
30
228.522995
70
192
0
VERTEX
8
OBJECT__20
10
0
20
0
30
0
70
128
71
1
72
2
73
3
0
VERTEX
8
OBJECT__20
10
0
20
0
30
0
70
128
71
2
72
4
73
5
0
VERTEX
8
OBJECT__20
10
0
20
0
30
0
70
128
71
4
72
6
73
5
0
VERTEX
8
OBJECT__20
10
0
20
0
30
0
70
128
71
6
72
4
73
7
0
VERTEX
8
OBJECT__20
10
0
20
0
30
0
70
128
71
7
72
8
73
6
0
VERTEX
8
OBJECT__20
10
0
20
0
30
0
70
128
71
9
72
10
73
11
0
VERTEX
8
OBJECT__20
10
0
20
0
30
0
70
128
71
10
72
12
73
11
0
VERTEX
8
OBJECT__20
10
0
20
0
30
0
70
128
71
10
72
13
73
14
0
VERTEX
8
OBJECT__20
10
0
20
0
30
0
70
128
71
15
72
14
73
13
0
VERTEX
8
OBJECT__20
10
0
20
0
30
0
70
128
71
13
72
16
73
15
0
VERTEX
8
OBJECT__20
10
0
20
0
30
0
70
128
71
16
72
17
73
18
0
VERTEX
8
OBJECT__20
10
0
20
0
30
0
70
128
71
19
72
20
73
21
0
VERTEX
8
OBJECT__20
10
0
20
0
30
0
70
128
71
21
72
17
73
19
0
VERTEX
8
OBJECT__20
10
0
20
0
30
0
70
128
71
19
72
22
73
23
0
VERTEX
8
OBJECT__20
10
0
20
0
30
0
70
128
71
24
72
25
73
26
0
VERTEX
8
OBJECT__20
10
0
20
0
30
0
70
128
71
23
72
22
73
24
0
VERTEX
8
OBJECT__20
10
0
20
0
30
0
70
128
71
25
72
27
73
26
0
VERTEX
8
OBJECT__20
10
0
20
0
30
0
70
128
71
28
72
27
73
29
0
VERTEX
8
OBJECT__20
10
0
20
0
30
0
70
128
71
27
72
25
73
29
0
VERTEX
8
OBJECT__20
10
0
20
0
30
0
70
128
71
30
72
31
73
32
0
VERTEX
8
OBJECT__20
10
0
20
0
30
0
70
128
71
32
72
33
73
30
0
VERTEX
8
OBJECT__20
10
0
20
0
30
0
70
128
71
31
72
30
73
34
0
VERTEX
8
OBJECT__20
10
0
20
0
30
0
70
128
71
34
72
35
73
31
0
VERTEX
8
OBJECT__20
10
0
20
0
30
0
70
128
71
34
72
36
73
35
0
VERTEX
8
OBJECT__20
10
0
20
0
30
0
70
128
71
32
72
28
73
33
0
VERTEX
8
OBJECT__20
10
0
20
0
30
0
70
128
71
29
72
33
73
28
0
VERTEX
8
OBJECT__20
10
0
20
0
30
0
70
128
71
26
72
23
73
24
0
VERTEX
8
OBJECT__20
10
0
20
0
30
0
70
128
71
23
72
20
73
19
0
VERTEX
8
OBJECT__20
10
0
20
0
30
0
70
128
71
21
72
18
73
17
0
VERTEX
8
OBJECT__20
10
0
20
0
30
0
70
128
71
18
72
15
73
16
0
VERTEX
8
OBJECT__20
10
0
20
0
30
0
70
128
71
14
72
12
73
10
0
VERTEX
8
OBJECT__20
10
0
20
0
30
0
70
128
71
11
72
8
73
9
0
VERTEX
8
OBJECT__20
10
0
20
0
30
0
70
128
71
7
72
9
73
8
0
VERTEX
8
OBJECT__20
10
0
20
0
30
0
70
128
71
5
72
3
73
2
0
VERTEX
8
OBJECT__20
10
0
20
0
30
0
70
128
71
3
72
37
73
1
0
SEQEND
8
OBJECT__20
0
POLYLINE
8
OBJECT__21
66
1
70
64
71
12
72
10
62
253
0
VERTEX
8
OBJECT__21
10
0.564000
20
-12.002000
30
10.500000
70
192
0
VERTEX
8
OBJECT__21
10
0.250000
20
-11.702000
30
10.500000
70
192
0
VERTEX
8
OBJECT__21
10
0.250000
20
-11.691000
30
10.434000
70
192
0
VERTEX
8
OBJECT__21
10
0.563000
20
-11.974000
30
10.335000
70
192
0
VERTEX
8
OBJECT__21
10
0.250000
20
-11.659000
30
10.375000
70
192
0
VERTEX
8
OBJECT__21
10
0.561000
20
-11.893000
30
10.188000
70
192
0
VERTEX
8
OBJECT__21
10
0.250000
20
-11.609000
30
10.331000
70
192
0
VERTEX
8
OBJECT__21
10
0.558000
20
-11.768000
30
10.076000
70
192
0
VERTEX
8
OBJECT__21
10
0.250000
20
-11.546000
30
10.305000
70
192
0
VERTEX
8
OBJECT__21
10
0.553000
20
-11.612000
30
10.012000
70
192
0
VERTEX
8
OBJECT__21
10
0.250000
20
-11.502000
30
10.300000
70
192
0
VERTEX
8
OBJECT__21
10
0.550000
20
-11.502000
30
10.000000
70
192
0
VERTEX
8
OBJECT__21
10
0
20
0
30
0
70
128
71
1
72
2
73
3
0
VERTEX
8
OBJECT__21
10
0
20
0
30
0
70
128
71
4
72
3
73
5
0
VERTEX
8
OBJECT__21
10
0
20
0
30
0
70
128
71
6
72
5
73
7
0
VERTEX
8
OBJECT__21
10
0
20
0
30
0
70
128
71
8
72
7
73
9
0
VERTEX
8
OBJECT__21
10
0
20
0
30
0
70
128
71
10
72
9
73
11
0
VERTEX
8
OBJECT__21
10
0
20
0
30
0
70
128
71
11
72
12
73
10
0
VERTEX
8
OBJECT__21
10
0
20
0
30
0
70
128
71
9
72
10
73
8
0
VERTEX
8
OBJECT__21
10
0
20
0
30
0
70
128
71
7
72
8
73
6
0
VERTEX
8
OBJECT__21
10
0
20
0
30
0
70
128
71
5
72
6
73
4
0
VERTEX
8
OBJECT__21
10
0
20
0
30
0
70
128
71
3
72
4
73
1
0
SEQEND
8
OBJECT__21
0
POLYLINE
8
OBJECT__22
66
1
70
64
71
12
72
10
62
253
0
VERTEX
8
OBJECT__22
10
35.821999
20
-23.266001
30
229.703995
70
192
0
VERTEX
8
OBJECT__22
10
36.009998
20
-23.010000
30
229.388000
70
192
0
VERTEX
8
OBJECT__22
10
36.047001
20
-22.986000
30
229.054001
70
192
0
VERTEX
8
OBJECT__22
10
35.960999
20
-23.150999
30
228.703995
70
192
0
VERTEX
8
OBJECT__22
10
35.865002
20
-23.023001
30
229.690994
70
192
0
VERTEX
8
OBJECT__22
10
35.834000
20
-23.023001
30
229.733002
70
192
0
VERTEX
8
OBJECT__22
10
35.993999
20
-23.462999
30
229.304001
70
192
0
VERTEX
8
OBJECT__22
10
35.868999
20
-23.490000
30
229.591995
70
192
0
VERTEX
8
OBJECT__22
10
36.023998
20
-23.431000
30
228.996994
70
192
0
VERTEX
8
OBJECT__22
10
35.946999
20
-23.407000
30
228.673004
70
192
0
VERTEX
8
OBJECT__22
10
35.810001
20
-23.493999
30
229.675995
70
192
0
VERTEX
8
OBJECT__22
10
35.970001
20
-22.957001
30
228.727005
70
192
0
VERTEX
8
OBJECT__22
10
0
20
0
30
0
70
128
71
1
72
2
73
3
0
VERTEX
8
OBJECT__22
10
0
20
0
30
0
70
128
71
3
72
4
73
1
0
VERTEX
8
OBJECT__22
10
0
20
0
30
0
70
128
71
1
72
5
73
2
0
VERTEX
8
OBJECT__22
10
0
20
0
30
0
70
128
71
1
72
6
73
5
0
VERTEX
8
OBJECT__22
10
0
20
0
30
0
70
128
71
1
72
7
73
8
0
VERTEX
8
OBJECT__22
10
0
20
0
30
0
70
128
71
4
72
9
73
7
0
VERTEX
8
OBJECT__22
10
0
20
0
30
0
70
128
71
7
72
1
73
4
0
VERTEX
8
OBJECT__22
10
0
20
0
30
0
70
128
71
4
72
10
73
9
0
VERTEX
8
OBJECT__22
10
0
20
0
30
0
70
128
71
8
72
11
73
1
0
VERTEX
8
OBJECT__22
10
0
20
0
30
0
70
128
71
3
72
12
73
4
0
SEQEND
8
OBJECT__22
0
POLYLINE
8
OBJECT__23
66
1
70
64
71
42
72
41
62
253
0
VERTEX
8
OBJECT__23
10
20.924000
20
-20.214001
30
190.145004
70
192
0
VERTEX
8
OBJECT__23
10
20.875999
20
-20.679001
30
190.162994
70
192
0
VERTEX
8
OBJECT__23
10
24.653999
20
-21.414000
30
200.514999
70
192
0
VERTEX
8
OBJECT__23
10
33.608002
20
-23.011999
30
223.074997
70
192
0
VERTEX
8
OBJECT__23
10
34.014999
20
-22.625999
30
224.054001
70
192
0
VERTEX
8
OBJECT__23
10
26.462999
20
-21.291000
30
205.251999
70
192
0
VERTEX
8
OBJECT__23
10
35.946999
20
-23.407000
30
228.673004
70
192
0
VERTEX
8
OBJECT__23
10
35.960999
20
-23.150999
30
228.703995
70
192
0
VERTEX
8
OBJECT__23
10
35.970001
20
-22.957001
30
228.727005
70
192
0
VERTEX
8
OBJECT__23
10
9.159000
20
-17.382999
30
150.309998
70
192
0
VERTEX
8
OBJECT__23
10
9.192000
20
-17.863001
30
150.302002
70
192
0
VERTEX
8
OBJECT__23
10
13.091000
20
-18.962999
30
165.985001
70
192
0
VERTEX
8
OBJECT__23
10
20.493999
20
-20.604000
30
189.113998
70
192
0
VERTEX
8
OBJECT__23
10
19.489000
20
-19.934000
30
186.231995
70
192
0
VERTEX
8
OBJECT__23
10
13.360000
20
-18.556000
30
166.925003
70
192
0
VERTEX
8
OBJECT__23
10
8.395000
20
-17.169001
30
147.287994
70
192
0
VERTEX
8
OBJECT__23
10
7.376000
20
-17.311001
30
142.365997
70
192
0
VERTEX
8
OBJECT__23
10
8.103000
20
-17.556000
30
145.921997
70
192
0
VERTEX
8
OBJECT__23
10
4.821000
20
-15.807000
30
127.347000
70
192
0
VERTEX
8
OBJECT__23
10
4.071000
20
-15.932000
30
121.791000
70
192
0
VERTEX
8
OBJECT__23
10
3.367000
20
-14.996000
30
114.623001
70
192
0
VERTEX
8
OBJECT__23
10
3.654000
20
-15.710000
30
118.348999
70
192
0
VERTEX
8
OBJECT__23
10
3.330000
20
-15.487000
30
114.628998
70
192
0
VERTEX
8
OBJECT__23
10
1.549000
20
-14.260000
30
94.144997
70
192
0
VERTEX
8
OBJECT__23
10
2.520000
20
-14.523000
30
107.214996
70
192
0
VERTEX
8
OBJECT__23
10
1.352000
20
-13.543000
30
89.824997
70
192
0
VERTEX
8
OBJECT__23
10
1.335000
20
-14.035000
30
89.825996
70
192
0
VERTEX
8
OBJECT__23
10
1.161000
20
-13.383000
30
86.987999
70
192
0
VERTEX
8
OBJECT__23
10
0.946000
20
-13.628000
30
82.013000
70
192
0
VERTEX
8
OBJECT__23
10
0.528000
20
-12.448000
30
66.712997
70
192
0
VERTEX
8
OBJECT__23
10
0.411000
20
-12.604000
30
57.715000
70
192
0
VERTEX
8
OBJECT__23
10
0.325000
20
-11.559000
30
33.286999
70
192
0
VERTEX
8
OBJECT__23
10
0.328000
20
-12.137000
30
33.287998
70
192
0
VERTEX
8
OBJECT__23
10
0.266000
20
-11.298000
30
23.478001
70
192
0
VERTEX
8
OBJECT__23
10
0.250000
20
-11.502000
30
10.300000
70
192
0
VERTEX
8
OBJECT__23
10
0.250000
20
-11.602000
30
10.400000
70
192
0
VERTEX
8
OBJECT__23
10
0.250000
20
-11.546000
30
10.305000
70
192
0
VERTEX
8
OBJECT__23
10
0.250000
20
-11.609000
30
10.331000
70
192
0
VERTEX
8
OBJECT__23
10
0.250000
20
-11.659000
30
10.375000
70
192
0
VERTEX
8
OBJECT__23
10
0.250000
20
-11.691000
30
10.434000
70
192
0
VERTEX
8
OBJECT__23
10
0.250000
20
-11.702000
30
10.500000
70
192
0
VERTEX
8
OBJECT__23
10
0.250000
20
-11.215000
30
10.300000
70
192
0
VERTEX
8
OBJECT__23
10
0
20
0
30
0
70
128
71
1
72
2
73
3
0
VERTEX
8
OBJECT__23
10
0
20
0
30
0
70
128
71
4
72
5
73
6
0
VERTEX
8
OBJECT__23
10
0
20
0
30
0
70
128
71
7
72
8
73
5
0
VERTEX
8
OBJECT__23
10
0
20
0
30
0
70
128
71
5
72
4
73
7
0
VERTEX
8
OBJECT__23
10
0
20
0
30
0
70
128
71
8
72
9
73
5
0
VERTEX
8
OBJECT__23
10
0
20
0
30
0
70
128
71
6
72
3
73
4
0
VERTEX
8
OBJECT__23
10
0
20
0
30
0
70
128
71
10
72
11
73
12
0
VERTEX
8
OBJECT__23
10
0
20
0
30
0
70
128
71
12
72
13
73
14
0
VERTEX
8
OBJECT__23
10
0
20
0
30
0
70
128
71
14
72
15
73
12
0
VERTEX
8
OBJECT__23
10
0
20
0
30
0
70
128
71
1
72
14
73
13
0
VERTEX
8
OBJECT__23
10
0
20
0
30
0
70
128
71
13
72
2
73
1
0
VERTEX
8
OBJECT__23
10
0
20
0
30
0
70
128
71
11
72
10
73
16
0
VERTEX
8
OBJECT__23
10
0
20
0
30
0
70
128
71
16
72
17
73
18
0
VERTEX
8
OBJECT__23
10
0
20
0
30
0
70
128
71
17
72
16
73
19
0
VERTEX
8
OBJECT__23
10
0
20
0
30
0
70
128
71
19
72
20
73
17
0
VERTEX
8
OBJECT__23
10
0
20
0
30
0
70
128
71
21
72
22
73
20
0
VERTEX
8
OBJECT__23
10
0
20
0
30
0
70
128
71
20
72
19
73
21
0
VERTEX
8
OBJECT__23
10
0
20
0
30
0
70
128
71
21
72
23
73
22
0
VERTEX
8
OBJECT__23
10
0
20
0
30
0
70
128
71
24
72
23
73
25
0
VERTEX
8
OBJECT__23
10
0
20
0
30
0
70
128
71
23
72
21
73
25
0
VERTEX
8
OBJECT__23
10
0
20
0
30
0
70
128
71
26
72
27
73
24
0
VERTEX
8
OBJECT__23
10
0
20
0
30
0
70
128
71
27
72
26
73
28
0
VERTEX
8
OBJECT__23
10
0
20
0
30
0
70
128
71
29
72
28
73
30
0
VERTEX
8
OBJECT__23
10
0
20
0
30
0
70
128
71
30
72
31
73
29
0
VERTEX
8
OBJECT__23
10
0
20
0
30
0
70
128
71
32
72
33
73
31
0
VERTEX
8
OBJECT__23
10
0
20
0
30
0
70
128
71
31
72
30
73
32
0
VERTEX
8
OBJECT__23
10
0
20
0
30
0
70
128
71
34
72
35
73
36
0
VERTEX
8
OBJECT__23
10
0
20
0
30
0
70
128
71
36
72
37
73
38
0
VERTEX
8
OBJECT__23
10
0
20
0
30
0
70
128
71
36
72
35
73
37
0
VERTEX
8
OBJECT__23
10
0
20
0
30
0
70
128
71
36
72
39
73
40
0
VERTEX
8
OBJECT__23
10
0
20
0
30
0
70
128
71
40
72
41
73
36
0
VERTEX
8
OBJECT__23
10
0
20
0
30
0
70
128
71
38
72
39
73
36
0
VERTEX
8
OBJECT__23
10
0
20
0
30
0
70
128
71
34
72
42
73
35
0
VERTEX
8
OBJECT__23
10
0
20
0
30
0
70
128
71
41
72
33
73
34
0
VERTEX
8
OBJECT__23
10
0
20
0
30
0
70
128
71
33
72
32
73
34
0
VERTEX
8
OBJECT__23
10
0
20
0
30
0
70
128
71
36
72
41
73
34
0
VERTEX
8
OBJECT__23
10
0
20
0
30
0
70
128
71
28
72
29
73
27
0
VERTEX
8
OBJECT__23
10
0
20
0
30
0
70
128
71
25
72
26
73
24
0
VERTEX
8
OBJECT__23
10
0
20
0
30
0
70
128
71
16
72
18
73
11
0
VERTEX
8
OBJECT__23
10
0
20
0
30
0
70
128
71
12
72
15
73
10
0
VERTEX
8
OBJECT__23
10
0
20
0
30
0
70
128
71
3
72
6
73
1
0
SEQEND
8
OBJECT__23
0
POLYLINE
8
OBJECT__24
66
1
70
64
71
10
72
8
62
253
0
VERTEX
8
OBJECT__24
10
35.970001
20
-22.957001
30
228.727005
70
192
0
VERTEX
8
OBJECT__24
10
36.047001
20
-22.986000
30
229.054001
70
192
0
VERTEX
8
OBJECT__24
10
35.751999
20
-22.673000
30
229.091995
70
192
0
VERTEX
8
OBJECT__24
10
36.009998
20
-23.010000
30
229.388000
70
192
0
VERTEX
8
OBJECT__24
10
35.734001
20
-22.687000
30
229.322998
70
192
0
VERTEX
8
OBJECT__24
10
35.865002
20
-23.023001
30
229.690994
70
192
0
VERTEX
8
OBJECT__24
10
35.644001
20
-22.691000
30
229.531998
70
192
0
VERTEX
8
OBJECT__24
10
35.834000
20
-23.023001
30
229.733002
70
192
0
VERTEX
8
OBJECT__24
10
35.624001
20
-22.690001
30
229.559998
70
192
0
VERTEX
8
OBJECT__24
10
35.695999
20
-22.658001
30
228.863998
70
192
0
VERTEX
8
OBJECT__24
10
0
20
0
30
0
70
128
71
1
72
2
73
3
0
VERTEX
8
OBJECT__24
10
0
20
0
30
0
70
128
71
2
72
4
73
5
0
VERTEX
8
OBJECT__24
10
0
20
0
30
0
70
128
71
4
72
6
73
7
0
VERTEX
8
OBJECT__24
10
0
20
0
30
0
70
128
71
6
72
8
73
9
0
VERTEX
8
OBJECT__24
10
0
20
0
30
0
70
128
71
9
72
7
73
6
0
VERTEX
8
OBJECT__24
10
0
20
0
30
0
70
128
71
7
72
5
73
4
0
VERTEX
8
OBJECT__24
10
0
20
0
30
0
70
128
71
5
72
3
73
2
0
VERTEX
8
OBJECT__24
10
0
20
0
30
0
70
128
71
3
72
10
73
1
0
SEQEND
8
OBJECT__24
0
POLYLINE
8
OBJECT__25
66
1
70
64
71
36
72
34
62
253
0
VERTEX
8
OBJECT__25
10
35.695999
20
-22.658001
30
228.863998
70
192
0
VERTEX
8
OBJECT__25
10
33.740002
20
-22.327000
30
224.190002
70
192
0
VERTEX
8
OBJECT__25
10
34.014999
20
-22.625999
30
224.054001
70
192
0
VERTEX
8
OBJECT__25
10
26.184000
20
-20.992001
30
205.380997
70
192
0
VERTEX
8
OBJECT__25
10
26.462999
20
-21.291000
30
205.251999
70
192
0
VERTEX
8
OBJECT__25
10
24.931000
20
-20.747999
30
201.962997
70
192
0
VERTEX
8
OBJECT__25
10
19.207001
20
-19.635000
30
186.350006
70
192
0
VERTEX
8
OBJECT__25
10
20.924000
20
-20.214001
30
190.145004
70
192
0
VERTEX
8
OBJECT__25
10
19.489000
20
-19.934000
30
186.231995
70
192
0
VERTEX
8
OBJECT__25
10
15.480000
20
-18.798000
30
174.612000
70
192
0
VERTEX
8
OBJECT__25
10
13.360000
20
-18.556000
30
166.925003
70
192
0
VERTEX
8
OBJECT__25
10
13.073000
20
-18.257000
30
167.029007
70
192
0
VERTEX
8
OBJECT__25
10
9.341000
20
-17.216000
30
152.268997
70
192
0
VERTEX
8
OBJECT__25
10
8.103000
20
-16.870001
30
147.371994
70
192
0
VERTEX
8
OBJECT__25
10
8.395000
20
-17.169001
30
147.287994
70
192
0
VERTEX
8
OBJECT__25
10
9.159000
20
-17.382999
30
150.309998
70
192
0
VERTEX
8
OBJECT__25
10
5.524000
20
-15.888000
30
132.985001
70
192
0
VERTEX
8
OBJECT__25
10
4.821000
20
-15.807000
30
127.347000
70
192
0
VERTEX
8
OBJECT__25
10
4.524000
20
-15.508000
30
127.410004
70
192
0
VERTEX
8
OBJECT__25
10
2.222000
20
-14.224000
30
107.259003
70
192
0
VERTEX
8
OBJECT__25
10
3.367000
20
-14.996000
30
114.623001
70
192
0
VERTEX
8
OBJECT__25
10
2.520000
20
-14.523000
30
107.214996
70
192
0
VERTEX
8
OBJECT__25
10
1.352000
20
-13.543000
30
89.824997
70
192
0
VERTEX
8
OBJECT__25
10
1.686000
20
-13.774000
30
99.278999
70
192
0
VERTEX
8
OBJECT__25
10
0.862000
20
-13.084000
30
87.016998
70
192
0
VERTEX
8
OBJECT__25
10
1.161000
20
-13.383000
30
86.987999
70
192
0
VERTEX
8
OBJECT__25
10
0.330000
20
-12.298000
30
69.974998
70
192
0
VERTEX
8
OBJECT__25
10
0.528000
20
-12.448000
30
66.712997
70
192
0
VERTEX
8
OBJECT__25
10
0.229000
20
-12.148000
30
66.730003
70
192
0
VERTEX
8
OBJECT__25
10
-0.012000
20
-11.090000
30
26.927000
70
192
0
VERTEX
8
OBJECT__25
10
0.325000
20
-11.559000
30
33.286999
70
192
0
VERTEX
8
OBJECT__25
10
0.266000
20
-11.298000
30
23.478001
70
192
0
VERTEX
8
OBJECT__25
10
-0.033000
20
-10.998000
30
23.483000
70
192
0
VERTEX
8
OBJECT__25
10
-0.049000
20
-10.915000
30
10.300000
70
192
0
VERTEX
8
OBJECT__25
10
0.250000
20
-11.215000
30
10.300000
70
192
0
VERTEX
8
OBJECT__25
10
35.970001
20
-22.957001
30
228.727005
70
192
0
VERTEX
8
OBJECT__25
10
0
20
0
30
0
70
128
71
1
72
2
73
3
0
VERTEX
8
OBJECT__25
10
0
20
0
30
0
70
128
71
2
72
4
73
5
0
VERTEX
8
OBJECT__25
10
0
20
0
30
0
70
128
71
6
72
7
73
8
0
VERTEX
8
OBJECT__25
10
0
20
0
30
0
70
128
71
5
72
4
73
6
0
VERTEX
8
OBJECT__25
10
0
20
0
30
0
70
128
71
7
72
9
73
8
0
VERTEX
8
OBJECT__25
10
0
20
0
30
0
70
128
71
9
72
7
73
10
0
VERTEX
8
OBJECT__25
10
0
20
0
30
0
70
128
71
10
72
11
73
9
0
VERTEX
8
OBJECT__25
10
0
20
0
30
0
70
128
71
11
72
12
73
13
0
VERTEX
8
OBJECT__25
10
0
20
0
30
0
70
128
71
14
72
15
73
16
0
VERTEX
8
OBJECT__25
10
0
20
0
30
0
70
128
71
16
72
13
73
14
0
VERTEX
8
OBJECT__25
10
0
20
0
30
0
70
128
71
15
72
14
73
17
0
VERTEX
8
OBJECT__25
10
0
20
0
30
0
70
128
71
17
72
18
73
15
0
VERTEX
8
OBJECT__25
10
0
20
0
30
0
70
128
71
19
72
20
73
21
0
VERTEX
8
OBJECT__25
10
0
20
0
30
0
70
128
71
20
72
22
73
21
0
VERTEX
8
OBJECT__25
10
0
20
0
30
0
70
128
71
23
72
22
73
24
0
VERTEX
8
OBJECT__25
10
0
20
0
30
0
70
128
71
25
72
26
73
23
0
VERTEX
8
OBJECT__25
10
0
20
0
30
0
70
128
71
22
72
20
73
24
0
VERTEX
8
OBJECT__25
10
0
20
0
30
0
70
128
71
26
72
25
73
27
0
VERTEX
8
OBJECT__25
10
0
20
0
30
0
70
128
71
27
72
28
73
26
0
VERTEX
8
OBJECT__25
10
0
20
0
30
0
70
128
71
29
72
30
73
31
0
VERTEX
8
OBJECT__25
10
0
20
0
30
0
70
128
71
32
72
31
73
30
0
VERTEX
8
OBJECT__25
10
0
20
0
30
0
70
128
71
30
72
33
73
32
0
VERTEX
8
OBJECT__25
10
0
20
0
30
0
70
128
71
33
72
34
73
35
0
VERTEX
8
OBJECT__25
10
0
20
0
30
0
70
128
71
35
72
32
73
33
0
VERTEX
8
OBJECT__25
10
0
20
0
30
0
70
128
71
31
72
28
73
29
0
VERTEX
8
OBJECT__25
10
0
20
0
30
0
70
128
71
27
72
29
73
28
0
VERTEX
8
OBJECT__25
10
0
20
0
30
0
70
128
71
24
72
25
73
23
0
VERTEX
8
OBJECT__25
10
0
20
0
30
0
70
128
71
21
72
18
73
19
0
VERTEX
8
OBJECT__25
10
0
20
0
30
0
70
128
71
17
72
19
73
18
0
VERTEX
8
OBJECT__25
10
0
20
0
30
0
70
128
71
13
72
16
73
11
0
VERTEX
8
OBJECT__25
10
0
20
0
30
0
70
128
71
10
72
12
73
11
0
VERTEX
8
OBJECT__25
10
0
20
0
30
0
70
128
71
8
72
5
73
6
0
VERTEX
8
OBJECT__25
10
0
20
0
30
0
70
128
71
5
72
3
73
2
0
VERTEX
8
OBJECT__25
10
0
20
0
30
0
70
128
71
3
72
36
73
1
0
SEQEND
8
OBJECT__25
0
POLYLINE
8
OBJECT__26
66
1
70
64
71
43
72
41
62
253
0
VERTEX
8
OBJECT__26
10
35.834000
20
-23.023001
30
229.733002
70
192
0
VERTEX
8
OBJECT__26
10
34.570000
20
-22.618999
30
231.425003
70
192
0
VERTEX
8
OBJECT__26
10
34.612999
20
-22.363001
30
230.988007
70
192
0
VERTEX
8
OBJECT__26
10
34.457001
20
-22.313000
30
231.209000
70
192
0
VERTEX
8
OBJECT__26
10
33.660000
20
-21.774000
30
232.740997
70
192
0
VERTEX
8
OBJECT__26
10
33.620998
20
-21.525999
30
232.488007
70
192
0
VERTEX
8
OBJECT__26
10
33.249001
20
-20.965000
30
233.406006
70
192
0
VERTEX
8
OBJECT__26
10
33.262001
20
-20.795000
30
233.126007
70
192
0
VERTEX
8
OBJECT__26
10
33.452000
20
-21.181999
30
232.787994
70
192
0
VERTEX
8
OBJECT__26
10
33.054001
20
-19.934000
30
233.826004
70
192
0
VERTEX
8
OBJECT__26
10
33.091000
20
-19.846001
30
233.531006
70
192
0
VERTEX
8
OBJECT__26
10
32.988998
20
-15.164000
30
234.584000
70
192
0
VERTEX
8
OBJECT__26
10
33.041000
20
-15.990000
30
234.145004
70
192
0
VERTEX
8
OBJECT__26
10
33.083000
20
-19.188000
30
233.636002
70
192
0
VERTEX
8
OBJECT__26
10
33.028999
20
-15.128000
30
234.283005
70
192
0
VERTEX
8
OBJECT__26
10
33.039001
20
-1.571000
30
235.436996
70
192
0
VERTEX
8
OBJECT__26
10
33.077000
20
-1.568000
30
235.132004
70
192
0
VERTEX
8
OBJECT__26
10
33.035000
20
4.002000
30
235.388000
70
192
0
VERTEX
8
OBJECT__26
10
33.073002
20
3.993000
30
235.082993
70
192
0
VERTEX
8
OBJECT__26
10
33.076000
20
-0.002000
30
235.117996
70
192
0
VERTEX
8
OBJECT__26
10
33.037998
20
-0.005000
30
235.423004
70
192
0
VERTEX
8
OBJECT__26
10
33.011002
20
10.346000
30
235.050995
70
192
0
VERTEX
8
OBJECT__26
10
33.056999
20
8.586000
30
234.839996
70
192
0
VERTEX
8
OBJECT__26
10
33.049999
20
10.323000
30
234.748001
70
192
0
VERTEX
8
OBJECT__26
10
32.991001
20
14.656000
30
234.643005
70
192
0
VERTEX
8
OBJECT__26
10
33.030998
20
14.622000
30
234.341003
70
192
0
VERTEX
8
OBJECT__26
10
32.988998
20
17.582001
30
234.264999
70
192
0
VERTEX
8
OBJECT__26
10
33.029999
20
17.538000
30
233.964996
70
192
0
VERTEX
8
OBJECT__26
10
33.029999
20
15.991000
30
234.164993
70
192
0
VERTEX
8
OBJECT__26
10
33.126999
20
20.472000
30
233.645996
70
192
0
VERTEX
8
OBJECT__26
10
33.104000
20
19.177000
30
233.610001
70
192
0
VERTEX
8
OBJECT__26
10
33.157001
20
20.350000
30
233.354996
70
192
0
VERTEX
8
OBJECT__26
10
33.417000
20
21.371000
30
233.123001
70
192
0
VERTEX
8
OBJECT__26
10
33.405998
20
21.159000
30
232.854996
70
192
0
VERTEX
8
OBJECT__26
10
34.042000
20
22.212000
30
232.175003
70
192
0
VERTEX
8
OBJECT__26
10
33.966999
20
21.931000
30
231.938995
70
192
0
VERTEX
8
OBJECT__26
10
33.432999
20
21.197001
30
232.809998
70
192
0
VERTEX
8
OBJECT__26
10
35.314999
20
22.944000
30
230.412994
70
192
0
VERTEX
8
OBJECT__26
10
34.631001
20
22.316999
30
230.973007
70
192
0
VERTEX
8
OBJECT__26
10
35.146999
20
22.618000
30
230.220993
70
192
0
VERTEX
8
OBJECT__26
10
35.834000
20
23.023001
30
229.733002
70
192
0
VERTEX
8
OBJECT__26
10
35.624001
20
22.690001
30
229.559998
70
192
0
VERTEX
8
OBJECT__26
10
35.624001
20
-22.690001
30
229.559998
70
192
0
VERTEX
8
OBJECT__26
10
0
20
0
30
0
70
128
71
1
72
2
73
3
0
VERTEX
8
OBJECT__26
10
0
20
0
30
0
70
128
71
2
72
4
73
3
0
VERTEX
8
OBJECT__26
10
0
20
0
30
0
70
128
71
2
72
5
73
6
0
VERTEX
8
OBJECT__26
10
0
20
0
30
0
70
128
71
7
72
8
73
9
0
VERTEX
8
OBJECT__26
10
0
20
0
30
0
70
128
71
9
72
5
73
7
0
VERTEX
8
OBJECT__26
10
0
20
0
30
0
70
128
71
7
72
10
73
11
0
VERTEX
8
OBJECT__26
10
0
20
0
30
0
70
128
71
10
72
12
73
13
0
VERTEX
8
OBJECT__26
10
0
20
0
30
0
70
128
71
13
72
14
73
10
0
VERTEX
8
OBJECT__26
10
0
20
0
30
0
70
128
71
12
72
15
73
13
0
VERTEX
8
OBJECT__26
10
0
20
0
30
0
70
128
71
16
72
17
73
15
0
VERTEX
8
OBJECT__26
10
0
20
0
30
0
70
128
71
18
72
19
73
20
0
VERTEX
8
OBJECT__26
10
0
20
0
30
0
70
128
71
17
72
16
73
21
0
VERTEX
8
OBJECT__26
10
0
20
0
30
0
70
128
71
21
72
20
73
17
0
VERTEX
8
OBJECT__26
10
0
20
0
30
0
70
128
71
18
72
22
73
23
0
VERTEX
8
OBJECT__26
10
0
20
0
30
0
70
128
71
22
72
24
73
23
0
VERTEX
8
OBJECT__26
10
0
20
0
30
0
70
128
71
22
72
25
73
26
0
VERTEX
8
OBJECT__26
10
0
20
0
30
0
70
128
71
27
72
28
73
29
0
VERTEX
8
OBJECT__26
10
0
20
0
30
0
70
128
71
29
72
25
73
27
0
VERTEX
8
OBJECT__26
10
0
20
0
30
0
70
128
71
27
72
30
73
31
0
VERTEX
8
OBJECT__26
10
0
20
0
30
0
70
128
71
30
72
32
73
31
0
VERTEX
8
OBJECT__26
10
0
20
0
30
0
70
128
71
33
72
34
73
32
0
VERTEX
8
OBJECT__26
10
0
20
0
30
0
70
128
71
35
72
36
73
37
0
VERTEX
8
OBJECT__26
10
0
20
0
30
0
70
128
71
37
72
33
73
35
0
VERTEX
8
OBJECT__26
10
0
20
0
30
0
70
128
71
35
72
38
73
39
0
VERTEX
8
OBJECT__26
10
0
20
0
30
0
70
128
71
38
72
40
73
39
0
VERTEX
8
OBJECT__26
10
0
20
0
30
0
70
128
71
41
72
42
73
40
0
VERTEX
8
OBJECT__26
10
0
20
0
30
0
70
128
71
40
72
38
73
41
0
VERTEX
8
OBJECT__26
10
0
20
0
30
0
70
128
71
39
72
36
73
35
0
VERTEX
8
OBJECT__26
10
0
20
0
30
0
70
128
71
37
72
34
73
33
0
VERTEX
8
OBJECT__26
10
0
20
0
30
0
70
128
71
32
72
30
73
33
0
VERTEX
8
OBJECT__26
10
0
20
0
30
0
70
128
71
31
72
28
73
27
0
VERTEX
8
OBJECT__26
10
0
20
0
30
0
70
128
71
29
72
26
73
25
0
VERTEX
8
OBJECT__26
10
0
20
0
30
0
70
128
71
26
72
24
73
22
0
VERTEX
8
OBJECT__26
10
0
20
0
30
0
70
128
71
23
72
19
73
18
0
VERTEX
8
OBJECT__26
10
0
20
0
30
0
70
128
71
20
72
21
73
18
0
VERTEX
8
OBJECT__26
10
0
20
0
30
0
70
128
71
15
72
12
73
16
0
VERTEX
8
OBJECT__26
10
0
20
0
30
0
70
128
71
14
72
11
73
10
0
VERTEX
8
OBJECT__26
10
0
20
0
30
0
70
128
71
11
72
8
73
7
0
VERTEX
8
OBJECT__26
10
0
20
0
30
0
70
128
71
9
72
6
73
5
0
VERTEX
8
OBJECT__26
10
0
20
0
30
0
70
128
71
6
72
4
73
2
0
VERTEX
8
OBJECT__26
10
0
20
0
30
0
70
128
71
3
72
43
73
1
0
SEQEND
8
OBJECT__26
0
POLYLINE
8
OBJECT__27
66
1
70
64
71
10
72
8
62
253
0
VERTEX
8
OBJECT__27
10
35.993999
20
23.013000
30
229.436996
70
192
0
VERTEX
8
OBJECT__27
10
35.723999
20
22.688000
30
229.356995
70
192
0
VERTEX
8
OBJECT__27
10
35.624001
20
22.690001
30
229.559998
70
192
0
VERTEX
8
OBJECT__27
10
36.048000
20
22.990000
30
229.106003
70
192
0
VERTEX
8
OBJECT__27
10
35.754002
20
22.676001
30
229.128006
70
192
0
VERTEX
8
OBJECT__27
10
35.988998
20
22.961000
30
228.776001
70
192
0
VERTEX
8
OBJECT__27
10
35.709000
20
22.660000
30
228.897995
70
192
0
VERTEX
8
OBJECT__27
10
35.970001
20
22.957001
30
228.727005
70
192
0
VERTEX
8
OBJECT__27
10
35.695999
20
22.658001
30
228.863998
70
192
0
VERTEX
8
OBJECT__27
10
35.834000
20
23.023001
30
229.733002
70
192
0
VERTEX
8
OBJECT__27
10
0
20
0
30
0
70
128
71
1
72
2
73
3
0
VERTEX
8
OBJECT__27
10
0
20
0
30
0
70
128
71
4
72
5
73
2
0
VERTEX
8
OBJECT__27
10
0
20
0
30
0
70
128
71
6
72
7
73
5
0
VERTEX
8
OBJECT__27
10
0
20
0
30
0
70
128
71
8
72
9
73
7
0
VERTEX
8
OBJECT__27
10
0
20
0
30
0
70
128
71
7
72
6
73
8
0
VERTEX
8
OBJECT__27
10
0
20
0
30
0
70
128
71
5
72
4
73
6
0
VERTEX
8
OBJECT__27
10
0
20
0
30
0
70
128
71
2
72
1
73
4
0
VERTEX
8
OBJECT__27
10
0
20
0
30
0
70
128
71
3
72
10
73
1
0
SEQEND
8
OBJECT__27
0
POLYLINE
8
OBJECT__28
66
1
70
64
71
147
72
145
62
253
0
VERTEX
8
OBJECT__28
10
-1.747000
20
10.774000
30
10.000000
70
192
0
VERTEX
8
OBJECT__28
10
-1.747000
20
10.793000
30
16.277000
70
192
0
VERTEX
8
OBJECT__28
10
-0.047000
20
10.925000
30
15.380000
70
192
0
VERTEX
8
OBJECT__28
10
-0.021000
20
11.082000
30
26.927999
70
192
0
VERTEX
8
OBJECT__28
10
-1.715000
20
11.010000
30
26.955999
70
192
0
VERTEX
8
OBJECT__28
10
-0.049000
20
10.915000
30
10.300000
70
192
0
VERTEX
8
OBJECT__28
10
-1.648000
20
11.467000
30
49.487999
70
192
0
VERTEX
8
OBJECT__28
10
0.096000
20
11.752000
30
56.004002
70
192
0
VERTEX
8
OBJECT__28
10
-0.002000
20
11.202000
30
35.695000
70
192
0
VERTEX
8
OBJECT__28
10
-1.524000
20
11.953000
30
63.348000
70
192
0
VERTEX
8
OBJECT__28
10
0.340000
20
12.308000
30
69.973999
70
192
0
VERTEX
8
OBJECT__28
10
-1.318000
20
12.268000
30
70.132004
70
192
0
VERTEX
8
OBJECT__28
10
-0.748000
20
13.137000
30
88.883003
70
192
0
VERTEX
8
OBJECT__28
10
1.402000
20
13.599000
30
96.571999
70
192
0
VERTEX
8
OBJECT__28
10
0.451000
20
12.561000
30
76.302002
70
192
0
VERTEX
8
OBJECT__28
10
-0.020000
20
13.739000
30
99.549004
70
192
0
VERTEX
8
OBJECT__28
10
1.639000
20
13.763000
30
99.280998
70
192
0
VERTEX
8
OBJECT__28
10
0.470000
20
14.145000
30
106.727997
70
192
0
VERTEX
8
OBJECT__28
10
2.407000
20
15.252000
30
124.507004
70
192
0
VERTEX
8
OBJECT__28
10
3.171000
20
14.816000
30
116.777000
70
192
0
VERTEX
8
OBJECT__28
10
4.442000
20
15.470000
30
126.834000
70
192
0
VERTEX
8
OBJECT__28
10
3.860000
20
15.834000
30
133.380005
70
192
0
VERTEX
8
OBJECT__28
10
5.532000
20
15.889000
30
132.983994
70
192
0
VERTEX
8
OBJECT__28
10
5.296000
20
16.410000
30
142.154999
70
192
0
VERTEX
8
OBJECT__28
10
7.721000
20
17.121000
30
152.718994
70
192
0
VERTEX
8
OBJECT__28
10
9.258000
20
17.216000
30
152.291000
70
192
0
VERTEX
8
OBJECT__28
10
7.980000
20
16.830999
30
146.802002
70
192
0
VERTEX
8
OBJECT__28
10
9.468000
20
17.632999
30
160.326996
70
192
0
VERTEX
8
OBJECT__28
10
10.279000
20
17.523001
30
156.671997
70
192
0
VERTEX
8
OBJECT__28
10
15.400000
20
18.799999
30
174.638000
70
192
0
VERTEX
8
OBJECT__28
10
13.782000
20
18.639999
30
175.160004
70
192
0
VERTEX
8
OBJECT__28
10
14.263000
20
18.753000
30
176.813004
70
192
0
VERTEX
8
OBJECT__28
10
15.837000
20
18.908001
30
176.171005
70
192
0
VERTEX
8
OBJECT__28
10
20.020000
20
19.906000
30
193.738998
70
192
0
VERTEX
8
OBJECT__28
10
23.365999
20
20.510000
30
202.580994
70
192
0
VERTEX
8
OBJECT__28
10
24.938000
20
20.747999
30
201.959000
70
192
0
VERTEX
8
OBJECT__28
10
22.407000
20
20.277000
30
195.348007
70
192
0
VERTEX
8
OBJECT__28
10
33.744999
20
22.292000
30
228.593994
70
192
0
VERTEX
8
OBJECT__28
10
35.624001
20
22.690001
30
229.559998
70
192
0
VERTEX
8
OBJECT__28
10
35.723999
20
22.688000
30
229.356995
70
192
0
VERTEX
8
OBJECT__28
10
35.754002
20
22.676001
30
229.128006
70
192
0
VERTEX
8
OBJECT__28
10
35.709000
20
22.660000
30
228.897995
70
192
0
VERTEX
8
OBJECT__28
10
33.724998
20
22.254999
30
228.876999
70
192
0
VERTEX
8
OBJECT__28
10
35.146999
20
22.618000
30
230.220993
70
192
0
VERTEX
8
OBJECT__28
10
34.631001
20
22.316999
30
230.973007
70
192
0
VERTEX
8
OBJECT__28
10
26.347000
20
21.048000
30
210.459000
70
192
0
VERTEX
8
OBJECT__28
10
28.850000
20
21.476000
30
212.179001
70
192
0
VERTEX
8
OBJECT__28
10
33.084000
20
22.184000
30
227.018005
70
192
0
VERTEX
8
OBJECT__28
10
35.695999
20
22.658001
30
228.863998
70
192
0
VERTEX
8
OBJECT__28
10
33.966999
20
21.931000
30
231.938995
70
192
0
VERTEX
8
OBJECT__28
10
32.778000
20
21.283001
30
230.852005
70
192
0
VERTEX
8
OBJECT__28
10
32.695000
20
21.091999
30
230.992004
70
192
0
VERTEX
8
OBJECT__28
10
33.618999
20
22.128000
30
229.626007
70
192
0
VERTEX
8
OBJECT__28
10
33.508999
20
22.051001
30
229.781006
70
192
0
VERTEX
8
OBJECT__28
10
33.680000
20
22.167999
30
229.531998
70
192
0
VERTEX
8
OBJECT__28
10
33.157001
20
20.350000
30
233.354996
70
192
0
VERTEX
8
OBJECT__28
10
32.375999
20
20.187000
30
231.552002
70
192
0
VERTEX
8
OBJECT__28
10
32.318001
20
19.122999
30
231.792007
70
192
0
VERTEX
8
OBJECT__28
10
33.405998
20
21.159000
30
232.854996
70
192
0
VERTEX
8
OBJECT__28
10
32.446999
20
20.524000
30
231.404999
70
192
0
VERTEX
8
OBJECT__28
10
33.432999
20
21.197001
30
232.809998
70
192
0
VERTEX
8
OBJECT__28
10
32.250999
20
15.957000
30
232.330002
70
192
0
VERTEX
8
OBJECT__28
10
33.029999
20
15.991000
30
234.164993
70
192
0
VERTEX
8
OBJECT__28
10
33.029999
20
17.538000
30
233.964996
70
192
0
VERTEX
8
OBJECT__28
10
33.104000
20
19.177000
30
233.610001
70
192
0
VERTEX
8
OBJECT__28
10
32.258999
20
18.044001
30
232.033997
70
192
0
VERTEX
8
OBJECT__28
10
32.269001
20
8.573000
30
233.014008
70
192
0
VERTEX
8
OBJECT__28
10
33.056999
20
8.586000
30
234.839996
70
192
0
VERTEX
8
OBJECT__28
10
33.049999
20
10.323000
30
234.748001
70
192
0
VERTEX
8
OBJECT__28
10
33.030998
20
14.622000
30
234.341003
70
192
0
VERTEX
8
OBJECT__28
10
32.249001
20
15.519000
30
232.391998
70
192
0
VERTEX
8
OBJECT__28
10
32.258999
20
11.703000
30
232.802002
70
192
0
VERTEX
8
OBJECT__28
10
32.283001
20
-0.002000
30
233.268005
70
192
0
VERTEX
8
OBJECT__28
10
33.076000
20
-0.002000
30
235.117996
70
192
0
VERTEX
8
OBJECT__28
10
33.073002
20
3.993000
30
235.082993
70
192
0
VERTEX
8
OBJECT__28
10
32.278000
20
5.979000
30
233.190002
70
192
0
VERTEX
8
OBJECT__28
10
33.028999
20
-15.128000
30
234.283005
70
192
0
VERTEX
8
OBJECT__28
10
33.077000
20
-1.568000
30
235.132004
70
192
0
VERTEX
8
OBJECT__28
10
32.278000
20
-5.961000
30
233.190002
70
192
0
VERTEX
8
OBJECT__28
10
32.251999
20
-15.959000
30
232.311996
70
192
0
VERTEX
8
OBJECT__28
10
33.041000
20
-15.990000
30
234.145004
70
192
0
VERTEX
8
OBJECT__28
10
32.285000
20
-2.482000
30
233.300995
70
192
0
VERTEX
8
OBJECT__28
10
33.083000
20
-19.188000
30
233.636002
70
192
0
VERTEX
8
OBJECT__28
10
32.250000
20
-16.457001
30
232.268005
70
192
0
VERTEX
8
OBJECT__28
10
32.340000
20
-19.938999
30
231.638000
70
192
0
VERTEX
8
OBJECT__28
10
32.563000
20
-20.871000
30
231.199005
70
192
0
VERTEX
8
OBJECT__28
10
33.452000
20
-21.181999
30
232.787994
70
192
0
VERTEX
8
OBJECT__28
10
33.091000
20
-19.846001
30
233.531006
70
192
0
VERTEX
8
OBJECT__28
10
32.319000
20
-19.125999
30
231.785004
70
192
0
VERTEX
8
OBJECT__28
10
33.262001
20
-20.795000
30
233.126007
70
192
0
VERTEX
8
OBJECT__28
10
32.983002
20
-21.562000
30
230.541000
70
192
0
VERTEX
8
OBJECT__28
10
33.618999
20
-22.128000
30
229.626007
70
192
0
VERTEX
8
OBJECT__28
10
34.612999
20
-22.363001
30
230.988007
70
192
0
VERTEX
8
OBJECT__28
10
33.620998
20
-21.525999
30
232.488007
70
192
0
VERTEX
8
OBJECT__28
10
32.695000
20
-21.087999
30
230.990997
70
192
0
VERTEX
8
OBJECT__28
10
34.457001
20
-22.313000
30
231.209000
70
192
0
VERTEX
8
OBJECT__28
10
35.695999
20
-22.658001
30
228.863998
70
192
0
VERTEX
8
OBJECT__28
10
33.744999
20
-22.292000
30
228.593994
70
192
0
VERTEX
8
OBJECT__28
10
33.084000
20
-22.184000
30
227.018005
70
192
0
VERTEX
8
OBJECT__28
10
33.740002
20
-22.327000
30
224.190002
70
192
0
VERTEX
8
OBJECT__28
10
26.347000
20
-21.048000
30
210.459000
70
192
0
VERTEX
8
OBJECT__28
10
26.184000
20
-20.992001
30
205.380997
70
192
0
VERTEX
8
OBJECT__28
10
24.722000
20
-20.763000
30
206.296005
70
192
0
VERTEX
8
OBJECT__28
10
33.759998
20
-22.295000
30
228.632996
70
192
0
VERTEX
8
OBJECT__28
10
23.350000
20
-20.510000
30
202.587006
70
192
0
VERTEX
8
OBJECT__28
10
24.931000
20
-20.747999
30
201.962997
70
192
0
VERTEX
8
OBJECT__28
10
35.624001
20
-22.690001
30
229.559998
70
192
0
VERTEX
8
OBJECT__28
10
33.726002
20
-22.254000
30
228.873001
70
192
0
VERTEX
8
OBJECT__28
10
35.751999
20
-22.673000
30
229.091995
70
192
0
VERTEX
8
OBJECT__28
10
35.734001
20
-22.687000
30
229.322998
70
192
0
VERTEX
8
OBJECT__28
10
35.644001
20
-22.691000
30
229.531998
70
192
0
VERTEX
8
OBJECT__28
10
18.520000
20
-19.618999
30
189.529007
70
192
0
VERTEX
8
OBJECT__28
10
13.795000
20
-18.639999
30
175.154007
70
192
0
VERTEX
8
OBJECT__28
10
15.480000
20
-18.798000
30
174.612000
70
192
0
VERTEX
8
OBJECT__28
10
19.207001
20
-19.635000
30
186.350006
70
192
0
VERTEX
8
OBJECT__28
10
12.937000
20
-18.462000
30
172.544998
70
192
0
VERTEX
8
OBJECT__28
10
8.192000
20
-17.294001
30
155.304993
70
192
0
VERTEX
8
OBJECT__28
10
9.341000
20
-17.216000
30
152.268997
70
192
0
VERTEX
8
OBJECT__28
10
13.073000
20
-18.257000
30
167.029007
70
192
0
VERTEX
8
OBJECT__28
10
7.648000
20
-17.122000
30
152.737000
70
192
0
VERTEX
8
OBJECT__28
10
4.483000
20
-16.122000
30
137.811996
70
192
0
VERTEX
8
OBJECT__28
10
5.524000
20
-15.888000
30
132.985001
70
192
0
VERTEX
8
OBJECT__28
10
8.103000
20
-16.870001
30
147.371994
70
192
0
VERTEX
8
OBJECT__28
10
3.760000
20
-15.831000
30
133.397003
70
192
0
VERTEX
8
OBJECT__28
10
3.040000
20
-15.542000
30
128.990997
70
192
0
VERTEX
8
OBJECT__28
10
2.222000
20
-14.224000
30
107.259003
70
192
0
VERTEX
8
OBJECT__28
10
4.524000
20
-15.508000
30
127.410004
70
192
0
VERTEX
8
OBJECT__28
10
1.851000
20
-14.973000
30
120.132004
70
192
0
VERTEX
8
OBJECT__28
10
1.686000
20
-13.774000
30
99.278999
70
192
0
VERTEX
8
OBJECT__28
10
0.110000
20
-13.886000
30
102.333000
70
192
0
VERTEX
8
OBJECT__28
10
-0.056000
20
-13.733000
30
99.552002
70
192
0
VERTEX
8
OBJECT__28
10
-0.955000
20
-12.908000
30
84.475998
70
192
0
VERTEX
8
OBJECT__28
10
0.862000
20
-13.084000
30
87.016998
70
192
0
VERTEX
8
OBJECT__28
10
0.330000
20
-12.298000
30
69.974998
70
192
0
VERTEX
8
OBJECT__28
10
-1.371000
20
-12.247000
30
70.135002
70
192
0
VERTEX
8
OBJECT__28
10
-1.474000
20
-12.084000
30
66.588997
70
192
0
VERTEX
8
OBJECT__28
10
0.229000
20
-12.148000
30
66.730003
70
192
0
VERTEX
8
OBJECT__28
10
-0.012000
20
-11.090000
30
26.927000
70
192
0
VERTEX
8
OBJECT__28
10
-1.653000
20
-11.443000
30
48.688000
70
192
0
VERTEX
8
OBJECT__28
10
-1.677000
20
-11.284000
30
43.133999
70
192
0
VERTEX
8
OBJECT__28
10
-1.712000
20
-11.035000
30
26.955000
70
192
0
VERTEX
8
OBJECT__28
10
-1.747000
20
-10.774000
30
10.000000
70
192
0
VERTEX
8
OBJECT__28
10
-0.049000
20
-10.915000
30
10.300000
70
192
0
VERTEX
8
OBJECT__28
10
-0.033000
20
-10.998000
30
23.483000
70
192
0
VERTEX
8
OBJECT__28
10
-0.039000
20
-10.915000
30
10.194000
70
192
0
VERTEX
8
OBJECT__28
10
0.030000
20
-10.915000
30
10.000000
70
192
0
VERTEX
8
OBJECT__28
10
0.030000
20
10.915000
30
10.000000
70
192
0
VERTEX
8
OBJECT__28
10
0
20
0
30
0
70
128
71
1
72
2
73
3
0
VERTEX
8
OBJECT__28
10
0
20
0
30
0
70
128
71
4
72
3
73
2
0
VERTEX
8
OBJECT__28
10
0
20
0
30
0
70
128
71
2
72
5
73
4
0
VERTEX
8
OBJECT__28
10
0
20
0
30
0
70
128
71
3
72
6
73
1
0
VERTEX
8
OBJECT__28
10
0
20
0
30
0
70
128
71
7
72
8
73
9
0
VERTEX
8
OBJECT__28
10
0
20
0
30
0
70
128
71
9
72
5
73
7
0
VERTEX
8
OBJECT__28
10
0
20
0
30
0
70
128
71
10
72
11
73
8
0
VERTEX
8
OBJECT__28
10
0
20
0
30
0
70
128
71
8
72
7
73
10
0
VERTEX
8
OBJECT__28
10
0
20
0
30
0
70
128
71
10
72
12
73
11
0
VERTEX
8
OBJECT__28
10
0
20
0
30
0
70
128
71
13
72
14
73
15
0
VERTEX
8
OBJECT__28
10
0
20
0
30
0
70
128
71
15
72
12
73
13
0
VERTEX
8
OBJECT__28
10
0
20
0
30
0
70
128
71
13
72
16
73
14
0
VERTEX
8
OBJECT__28
10
0
20
0
30
0
70
128
71
16
72
17
73
14
0
VERTEX
8
OBJECT__28
10
0
20
0
30
0
70
128
71
18
72
19
73
20
0
VERTEX
8
OBJECT__28
10
0
20
0
30
0
70
128
71
17
72
16
73
18
0
VERTEX
8
OBJECT__28
10
0
20
0
30
0
70
128
71
19
72
21
73
20
0
VERTEX
8
OBJECT__28
10
0
20
0
30
0
70
128
71
22
72
23
73
21
0
VERTEX
8
OBJECT__28
10
0
20
0
30
0
70
128
71
21
72
19
73
22
0
VERTEX
8
OBJECT__28
10
0
20
0
30
0
70
128
71
23
72
22
73
24
0
VERTEX
8
OBJECT__28
10
0
20
0
30
0
70
128
71
25
72
26
73
27
0
VERTEX
8
OBJECT__28
10
0
20
0
30
0
70
128
71
27
72
24
73
25
0
VERTEX
8
OBJECT__28
10
0
20
0
30
0
70
128
71
25
72
28
73
29
0
VERTEX
8
OBJECT__28
10
0
20
0
30
0
70
128
71
30
72
29
73
28
0
VERTEX
8
OBJECT__28
10
0
20
0
30
0
70
128
71
28
72
31
73
30
0
VERTEX
8
OBJECT__28
10
0
20
0
30
0
70
128
71
31
72
32
73
33
0
VERTEX
8
OBJECT__28
10
0
20
0
30
0
70
128
71
33
72
32
73
34
0
VERTEX
8
OBJECT__28
10
0
20
0
30
0
70
128
71
35
72
36
73
37
0
VERTEX
8
OBJECT__28
10
0
20
0
30
0
70
128
71
37
72
34
73
35
0
VERTEX
8
OBJECT__28
10
0
20
0
30
0
70
128
71
34
72
37
73
33
0
VERTEX
8
OBJECT__28
10
0
20
0
30
0
70
128
71
38
72
39
73
40
0
VERTEX
8
OBJECT__28
10
0
20
0
30
0
70
128
71
40
72
41
73
38
0
VERTEX
8
OBJECT__28
10
0
20
0
30
0
70
128
71
41
72
42
73
38
0
VERTEX
8
OBJECT__28
10
0
20
0
30
0
70
128
71
39
72
38
73
43
0
VERTEX
8
OBJECT__28
10
0
20
0
30
0
70
128
71
43
72
44
73
39
0
VERTEX
8
OBJECT__28
10
0
20
0
30
0
70
128
71
43
72
45
73
44
0
VERTEX
8
OBJECT__28
10
0
20
0
30
0
70
128
71
36
72
35
73
46
0
VERTEX
8
OBJECT__28
10
0
20
0
30
0
70
128
71
47
72
46
73
48
0
VERTEX
8
OBJECT__28
10
0
20
0
30
0
70
128
71
48
72
49
73
47
0
VERTEX
8
OBJECT__28
10
0
20
0
30
0
70
128
71
48
72
38
73
49
0
VERTEX
8
OBJECT__28
10
0
20
0
30
0
70
128
71
46
72
47
73
36
0
VERTEX
8
OBJECT__28
10
0
20
0
30
0
70
128
71
50
72
51
73
52
0
VERTEX
8
OBJECT__28
10
0
20
0
30
0
70
128
71
51
72
50
73
45
0
VERTEX
8
OBJECT__28
10
0
20
0
30
0
70
128
71
45
72
53
73
54
0
VERTEX
8
OBJECT__28
10
0
20
0
30
0
70
128
71
45
72
55
73
53
0
VERTEX
8
OBJECT__28
10
0
20
0
30
0
70
128
71
45
72
54
73
51
0
VERTEX
8
OBJECT__28
10
0
20
0
30
0
70
128
71
45
72
43
73
55
0
VERTEX
8
OBJECT__28
10
0
20
0
30
0
70
128
71
56
72
57
73
58
0
VERTEX
8
OBJECT__28
10
0
20
0
30
0
70
128
71
59
72
60
73
57
0
VERTEX
8
OBJECT__28
10
0
20
0
30
0
70
128
71
57
72
56
73
59
0
VERTEX
8
OBJECT__28
10
0
20
0
30
0
70
128
71
60
72
59
73
61
0
VERTEX
8
OBJECT__28
10
0
20
0
30
0
70
128
71
61
72
52
73
60
0
VERTEX
8
OBJECT__28
10
0
20
0
30
0
70
128
71
62
72
63
73
64
0
VERTEX
8
OBJECT__28
10
0
20
0
30
0
70
128
71
65
72
58
73
66
0
VERTEX
8
OBJECT__28
10
0
20
0
30
0
70
128
71
66
72
64
73
65
0
VERTEX
8
OBJECT__28
10
0
20
0
30
0
70
128
71
67
72
68
73
69
0
VERTEX
8
OBJECT__28
10
0
20
0
30
0
70
128
71
70
72
71
73
72
0
VERTEX
8
OBJECT__28
10
0
20
0
30
0
70
128
71
72
72
69
73
70
0
VERTEX
8
OBJECT__28
10
0
20
0
30
0
70
128
71
63
72
62
73
71
0
VERTEX
8
OBJECT__28
10
0
20
0
30
0
70
128
71
70
72
63
73
71
0
VERTEX
8
OBJECT__28
10
0
20
0
30
0
70
128
71
73
72
74
73
75
0
VERTEX
8
OBJECT__28
10
0
20
0
30
0
70
128
71
68
72
67
73
76
0
VERTEX
8
OBJECT__28
10
0
20
0
30
0
70
128
71
76
72
75
73
68
0
VERTEX
8
OBJECT__28
10
0
20
0
30
0
70
128
71
77
72
78
73
79
0
VERTEX
8
OBJECT__28
10
0
20
0
30
0
70
128
71
80
72
81
73
77
0
VERTEX
8
OBJECT__28
10
0
20
0
30
0
70
128
71
73
72
82
73
78
0
VERTEX
8
OBJECT__28
10
0
20
0
30
0
70
128
71
78
72
74
73
73
0
VERTEX
8
OBJECT__28
10
0
20
0
30
0
70
128
71
82
72
79
73
78
0
VERTEX
8
OBJECT__28
10
0
20
0
30
0
70
128
71
83
72
81
73
84
0
VERTEX
8
OBJECT__28
10
0
20
0
30
0
70
128
71
81
72
80
73
84
0
VERTEX
8
OBJECT__28
10
0
20
0
30
0
70
128
71
85
72
86
73
87
0
VERTEX
8
OBJECT__28
10
0
20
0
30
0
70
128
71
88
72
89
73
85
0
VERTEX
8
OBJECT__28
10
0
20
0
30
0
70
128
71
85
72
90
73
88
0
VERTEX
8
OBJECT__28
10
0
20
0
30
0
70
128
71
88
72
83
73
89
0
VERTEX
8
OBJECT__28
10
0
20
0
30
0
70
128
71
87
72
90
73
85
0
VERTEX
8
OBJECT__28
10
0
20
0
30
0
70
128
71
91
72
92
73
93
0
VERTEX
8
OBJECT__28
10
0
20
0
30
0
70
128
71
94
72
95
73
91
0
VERTEX
8
OBJECT__28
10
0
20
0
30
0
70
128
71
91
72
96
73
94
0
VERTEX
8
OBJECT__28
10
0
20
0
30
0
70
128
71
94
72
87
73
95
0
VERTEX
8
OBJECT__28
10
0
20
0
30
0
70
128
71
93
72
96
73
91
0
VERTEX
8
OBJECT__28
10
0
20
0
30
0
70
128
71
97
72
98
73
99
0
VERTEX
8
OBJECT__28
10
0
20
0
30
0
70
128
71
100
72
99
73
101
0
VERTEX
8
OBJECT__28
10
0
20
0
30
0
70
128
71
101
72
102
73
100
0
VERTEX
8
OBJECT__28
10
0
20
0
30
0
70
128
71
101
72
103
73
102
0
VERTEX
8
OBJECT__28
10
0
20
0
30
0
70
128
71
97
72
104
73
98
0
VERTEX
8
OBJECT__28
10
0
20
0
30
0
70
128
71
105
72
106
73
102
0
VERTEX
8
OBJECT__28
10
0
20
0
30
0
70
128
71
102
72
103
73
105
0
VERTEX
8
OBJECT__28
10
0
20
0
30
0
70
128
71
107
72
93
73
108
0
VERTEX
8
OBJECT__28
10
0
20
0
30
0
70
128
71
104
72
109
73
110
0
VERTEX
8
OBJECT__28
10
0
20
0
30
0
70
128
71
104
72
97
73
109
0
VERTEX
8
OBJECT__28
10
0
20
0
30
0
70
128
71
110
72
111
73
104
0
VERTEX
8
OBJECT__28
10
0
20
0
30
0
70
128
71
111
72
107
73
104
0
VERTEX
8
OBJECT__28
10
0
20
0
30
0
70
128
71
108
72
104
73
107
0
VERTEX
8
OBJECT__28
10
0
20
0
30
0
70
128
71
106
72
105
73
112
0
VERTEX
8
OBJECT__28
10
0
20
0
30
0
70
128
71
113
72
114
73
115
0
VERTEX
8
OBJECT__28
10
0
20
0
30
0
70
128
71
115
72
112
73
113
0
VERTEX
8
OBJECT__28
10
0
20
0
30
0
70
128
71
114
72
113
73
116
0
VERTEX
8
OBJECT__28
10
0
20
0
30
0
70
128
71
117
72
118
73
119
0
VERTEX
8
OBJECT__28
10
0
20
0
30
0
70
128
71
119
72
116
73
117
0
VERTEX
8
OBJECT__28
10
0
20
0
30
0
70
128
71
117
72
120
73
118
0
VERTEX
8
OBJECT__28
10
0
20
0
30
0
70
128
71
121
72
122
73
123
0
VERTEX
8
OBJECT__28
10
0
20
0
30
0
70
128
71
123
72
120
73
121
0
VERTEX
8
OBJECT__28
10
0
20
0
30
0
70
128
71
121
72
124
73
122
0
VERTEX
8
OBJECT__28
10
0
20
0
30
0
70
128
71
122
72
124
73
125
0
VERTEX
8
OBJECT__28
10
0
20
0
30
0
70
128
71
126
72
127
73
128
0
VERTEX
8
OBJECT__28
10
0
20
0
30
0
70
128
71
127
72
125
73
128
0
VERTEX
8
OBJECT__28
10
0
20
0
30
0
70
128
71
129
72
126
73
130
0
VERTEX
8
OBJECT__28
10
0
20
0
30
0
70
128
71
130
72
131
73
129
0
VERTEX
8
OBJECT__28
10
0
20
0
30
0
70
128
71
128
72
130
73
126
0
VERTEX
8
OBJECT__28
10
0
20
0
30
0
70
128
71
131
72
132
73
133
0
VERTEX
8
OBJECT__28
10
0
20
0
30
0
70
128
71
134
72
133
73
132
0
VERTEX
8
OBJECT__28
10
0
20
0
30
0
70
128
71
132
72
135
73
134
0
VERTEX
8
OBJECT__28
10
0
20
0
30
0
70
128
71
135
72
136
73
137
0
VERTEX
8
OBJECT__28
10
0
20
0
30
0
70
128
71
138
72
137
73
139
0
VERTEX
8
OBJECT__28
10
0
20
0
30
0
70
128
71
137
72
136
73
139
0
VERTEX
8
OBJECT__28
10
0
20
0
30
0
70
128
71
139
72
140
73
138
0
VERTEX
8
OBJECT__28
10
0
20
0
30
0
70
128
71
140
72
141
73
138
0
VERTEX
8
OBJECT__28
10
0
20
0
30
0
70
128
71
142
72
143
73
144
0
VERTEX
8
OBJECT__28
10
0
20
0
30
0
70
128
71
144
72
141
73
142
0
VERTEX
8
OBJECT__28
10
0
20
0
30
0
70
128
71
142
72
145
73
143
0
VERTEX
8
OBJECT__28
10
0
20
0
30
0
70
128
71
146
72
145
73
142
0
VERTEX
8
OBJECT__28
10
0
20
0
30
0
70
128
71
144
72
138
73
141
0
VERTEX
8
OBJECT__28
10
0
20
0
30
0
70
128
71
137
72
134
73
135
0
VERTEX
8
OBJECT__28
10
0
20
0
30
0
70
128
71
133
72
129
73
131
0
VERTEX
8
OBJECT__28
10
0
20
0
30
0
70
128
71
125
72
127
73
122
0
VERTEX
8
OBJECT__28
10
0
20
0
30
0
70
128
71
123
72
118
73
120
0
VERTEX
8
OBJECT__28
10
0
20
0
30
0
70
128
71
116
72
119
73
114
0
VERTEX
8
OBJECT__28
10
0
20
0
30
0
70
128
71
112
72
115
73
106
0
VERTEX
8
OBJECT__28
10
0
20
0
30
0
70
128
71
99
72
100
73
97
0
VERTEX
8
OBJECT__28
10
0
20
0
30
0
70
128
71
92
72
108
73
93
0
VERTEX
8
OBJECT__28
10
0
20
0
30
0
70
128
71
86
72
95
73
87
0
VERTEX
8
OBJECT__28
10
0
20
0
30
0
70
128
71
84
72
89
73
83
0
VERTEX
8
OBJECT__28
10
0
20
0
30
0
70
128
71
79
72
80
73
77
0
VERTEX
8
OBJECT__28
10
0
20
0
30
0
70
128
71
75
72
76
73
73
0
VERTEX
8
OBJECT__28
10
0
20
0
30
0
70
128
71
69
72
72
73
67
0
VERTEX
8
OBJECT__28
10
0
20
0
30
0
70
128
71
64
72
66
73
62
0
VERTEX
8
OBJECT__28
10
0
20
0
30
0
70
128
71
58
72
65
73
56
0
VERTEX
8
OBJECT__28
10
0
20
0
30
0
70
128
71
52
72
61
73
50
0
VERTEX
8
OBJECT__28
10
0
20
0
30
0
70
128
71
42
72
49
73
38
0
VERTEX
8
OBJECT__28
10
0
20
0
30
0
70
128
71
33
72
30
73
31
0
VERTEX
8
OBJECT__28
10
0
20
0
30
0
70
128
71
29
72
26
73
25
0
VERTEX
8
OBJECT__28
10
0
20
0
30
0
70
128
71
24
72
27
73
23
0
VERTEX
8
OBJECT__28
10
0
20
0
30
0
70
128
71
20
72
17
73
18
0
VERTEX
8
OBJECT__28
10
0
20
0
30
0
70
128
71
15
72
11
73
12
0
VERTEX
8
OBJECT__28
10
0
20
0
30
0
70
128
71
9
72
4
73
5
0
VERTEX
8
OBJECT__28
10
0
20
0
30
0
70
128
71
6
72
147
73
1
0
SEQEND
8
OBJECT__28
0
POLYLINE
8
OBJECT__29
66
1
70
64
71
12
72
10
62
253
0
VERTEX
8
OBJECT__29
10
35.821999
20
23.266001
30
229.703995
70
192
0
VERTEX
8
OBJECT__29
10
35.959999
20
23.150999
30
228.703995
70
192
0
VERTEX
8
OBJECT__29
10
36.048000
20
22.990000
30
229.106003
70
192
0
VERTEX
8
OBJECT__29
10
35.970001
20
22.957001
30
228.727005
70
192
0
VERTEX
8
OBJECT__29
10
35.988998
20
22.961000
30
228.776001
70
192
0
VERTEX
8
OBJECT__29
10
35.993999
20
23.013000
30
229.436996
70
192
0
VERTEX
8
OBJECT__29
10
35.999001
20
23.461000
30
229.283997
70
192
0
VERTEX
8
OBJECT__29
10
35.810001
20
23.493999
30
229.675995
70
192
0
VERTEX
8
OBJECT__29
10
35.868999
20
23.490000
30
229.591995
70
192
0
VERTEX
8
OBJECT__29
10
36.020000
20
23.426001
30
228.951004
70
192
0
VERTEX
8
OBJECT__29
10
35.946999
20
23.407000
30
228.673004
70
192
0
VERTEX
8
OBJECT__29
10
35.834000
20
23.023001
30
229.733002
70
192
0
VERTEX
8
OBJECT__29
10
0
20
0
30
0
70
128
71
1
72
2
73
3
0
VERTEX
8
OBJECT__29
10
0
20
0
30
0
70
128
71
2
72
4
73
5
0
VERTEX
8
OBJECT__29
10
0
20
0
30
0
70
128
71
5
72
3
73
2
0
VERTEX
8
OBJECT__29
10
0
20
0
30
0
70
128
71
3
72
6
73
1
0
VERTEX
8
OBJECT__29
10
0
20
0
30
0
70
128
71
2
72
1
73
7
0
VERTEX
8
OBJECT__29
10
0
20
0
30
0
70
128
71
1
72
8
73
9
0
VERTEX
8
OBJECT__29
10
0
20
0
30
0
70
128
71
9
72
7
73
1
0
VERTEX
8
OBJECT__29
10
0
20
0
30
0
70
128
71
7
72
10
73
2
0
VERTEX
8
OBJECT__29
10
0
20
0
30
0
70
128
71
10
72
11
73
2
0
VERTEX
8
OBJECT__29
10
0
20
0
30
0
70
128
71
6
72
12
73
1
0
SEQEND
8
OBJECT__29
0
POLYLINE
8
OBJECT__30
66
1
70
64
71
40
72
38
62
253
0
VERTEX
8
OBJECT__30
10
-0.049000
20
10.915000
30
10.300000
70
192
0
VERTEX
8
OBJECT__30
10
-0.047000
20
10.925000
30
15.380000
70
192
0
VERTEX
8
OBJECT__30
10
0.252000
20
11.225000
30
15.378000
70
192
0
VERTEX
8
OBJECT__30
10
-0.021000
20
11.082000
30
26.927999
70
192
0
VERTEX
8
OBJECT__30
10
0.292000
20
11.469000
30
33.289001
70
192
0
VERTEX
8
OBJECT__30
10
-0.002000
20
11.202000
30
35.695000
70
192
0
VERTEX
8
OBJECT__30
10
0.297000
20
11.502000
30
35.688000
70
192
0
VERTEX
8
OBJECT__30
10
0.096000
20
11.752000
30
56.004002
70
192
0
VERTEX
8
OBJECT__30
10
0.395000
20
12.051000
30
55.992001
70
192
0
VERTEX
8
OBJECT__30
10
0.340000
20
12.308000
30
69.973999
70
192
0
VERTEX
8
OBJECT__30
10
0.750000
20
12.860000
30
76.278999
70
192
0
VERTEX
8
OBJECT__30
10
0.451000
20
12.561000
30
76.302002
70
192
0
VERTEX
8
OBJECT__30
10
1.402000
20
13.599000
30
96.571999
70
192
0
VERTEX
8
OBJECT__30
10
1.386000
20
13.555000
30
89.824997
70
192
0
VERTEX
8
OBJECT__30
10
1.701000
20
13.899000
30
96.535004
70
192
0
VERTEX
8
OBJECT__30
10
3.286000
20
14.989000
30
114.633003
70
192
0
VERTEX
8
OBJECT__30
10
1.639000
20
13.763000
30
99.280998
70
192
0
VERTEX
8
OBJECT__30
10
3.171000
20
14.816000
30
116.777000
70
192
0
VERTEX
8
OBJECT__30
10
3.469000
20
15.115000
30
116.724998
70
192
0
VERTEX
8
OBJECT__30
10
4.442000
20
15.470000
30
126.834000
70
192
0
VERTEX
8
OBJECT__30
10
4.738000
20
15.769000
30
126.772003
70
192
0
VERTEX
8
OBJECT__30
10
8.273000
20
17.129999
30
146.718994
70
192
0
VERTEX
8
OBJECT__30
10
5.532000
20
15.889000
30
132.983994
70
192
0
VERTEX
8
OBJECT__30
10
7.980000
20
16.830999
30
146.802002
70
192
0
VERTEX
8
OBJECT__30
10
9.258000
20
17.216000
30
152.291000
70
192
0
VERTEX
8
OBJECT__30
10
9.112000
20
17.382999
30
150.322998
70
192
0
VERTEX
8
OBJECT__30
10
10.569000
20
17.822001
30
156.578003
70
192
0
VERTEX
8
OBJECT__30
10
10.279000
20
17.523001
30
156.671997
70
192
0
VERTEX
8
OBJECT__30
10
15.400000
20
18.799999
30
174.638000
70
192
0
VERTEX
8
OBJECT__30
10
16.122000
20
19.208000
30
176.059006
70
192
0
VERTEX
8
OBJECT__30
10
15.837000
20
18.908001
30
176.171005
70
192
0
VERTEX
8
OBJECT__30
10
22.407000
20
20.277000
30
195.348007
70
192
0
VERTEX
8
OBJECT__30
10
20.945999
20
20.212999
30
190.139008
70
192
0
VERTEX
8
OBJECT__30
10
22.688000
20
20.577000
30
195.223999
70
192
0
VERTEX
8
OBJECT__30
10
29.128000
20
21.775000
30
212.048004
70
192
0
VERTEX
8
OBJECT__30
10
24.938000
20
20.747999
30
201.959000
70
192
0
VERTEX
8
OBJECT__30
10
35.695999
20
22.658001
30
228.863998
70
192
0
VERTEX
8
OBJECT__30
10
35.970001
20
22.957001
30
228.727005
70
192
0
VERTEX
8
OBJECT__30
10
28.850000
20
21.476000
30
212.179001
70
192
0
VERTEX
8
OBJECT__30
10
0.250000
20
11.215000
30
10.300000
70
192
0
VERTEX
8
OBJECT__30
10
0
20
0
30
0
70
128
71
1
72
2
73
3
0
VERTEX
8
OBJECT__30
10
0
20
0
30
0
70
128
71
3
72
2
73
4
0
VERTEX
8
OBJECT__30
10
0
20
0
30
0
70
128
71
4
72
5
73
3
0
VERTEX
8
OBJECT__30
10
0
20
0
30
0
70
128
71
6
72
7
73
5
0
VERTEX
8
OBJECT__30
10
0
20
0
30
0
70
128
71
6
72
8
73
9
0
VERTEX
8
OBJECT__30
10
0
20
0
30
0
70
128
71
9
72
8
73
10
0
VERTEX
8
OBJECT__30
10
0
20
0
30
0
70
128
71
10
72
11
73
9
0
VERTEX
8
OBJECT__30
10
0
20
0
30
0
70
128
71
12
72
13
73
14
0
VERTEX
8
OBJECT__30
10
0
20
0
30
0
70
128
71
13
72
15
73
14
0
VERTEX
8
OBJECT__30
10
0
20
0
30
0
70
128
71
16
72
15
73
17
0
VERTEX
8
OBJECT__30
10
0
20
0
30
0
70
128
71
18
72
19
73
16
0
VERTEX
8
OBJECT__30
10
0
20
0
30
0
70
128
71
15
72
13
73
17
0
VERTEX
8
OBJECT__30
10
0
20
0
30
0
70
128
71
18
72
20
73
21
0
VERTEX
8
OBJECT__30
10
0
20
0
30
0
70
128
71
22
72
21
73
23
0
VERTEX
8
OBJECT__30
10
0
20
0
30
0
70
128
71
21
72
20
73
23
0
VERTEX
8
OBJECT__30
10
0
20
0
30
0
70
128
71
24
72
25
73
26
0
VERTEX
8
OBJECT__30
10
0
20
0
30
0
70
128
71
27
72
26
73
25
0
VERTEX
8
OBJECT__30
10
0
20
0
30
0
70
128
71
25
72
28
73
27
0
VERTEX
8
OBJECT__30
10
0
20
0
30
0
70
128
71
27
72
28
73
29
0
VERTEX
8
OBJECT__30
10
0
20
0
30
0
70
128
71
29
72
30
73
27
0
VERTEX
8
OBJECT__30
10
0
20
0
30
0
70
128
71
31
72
32
73
33
0
VERTEX
8
OBJECT__30
10
0
20
0
30
0
70
128
71
32
72
34
73
33
0
VERTEX
8
OBJECT__30
10
0
20
0
30
0
70
128
71
35
72
34
73
36
0
VERTEX
8
OBJECT__30
10
0
20
0
30
0
70
128
71
34
72
32
73
36
0
VERTEX
8
OBJECT__30
10
0
20
0
30
0
70
128
71
37
72
38
73
35
0
VERTEX
8
OBJECT__30
10
0
20
0
30
0
70
128
71
35
72
39
73
37
0
VERTEX
8
OBJECT__30
10
0
20
0
30
0
70
128
71
36
72
39
73
35
0
VERTEX
8
OBJECT__30
10
0
20
0
30
0
70
128
71
33
72
30
73
31
0
VERTEX
8
OBJECT__30
10
0
20
0
30
0
70
128
71
29
72
31
73
30
0
VERTEX
8
OBJECT__30
10
0
20
0
30
0
70
128
71
26
72
22
73
24
0
VERTEX
8
OBJECT__30
10
0
20
0
30
0
70
128
71
23
72
24
73
22
0
VERTEX
8
OBJECT__30
10
0
20
0
30
0
70
128
71
21
72
19
73
18
0
VERTEX
8
OBJECT__30
10
0
20
0
30
0
70
128
71
17
72
18
73
16
0
VERTEX
8
OBJECT__30
10
0
20
0
30
0
70
128
71
14
72
11
73
12
0
VERTEX
8
OBJECT__30
10
0
20
0
30
0
70
128
71
10
72
12
73
11
0
VERTEX
8
OBJECT__30
10
0
20
0
30
0
70
128
71
9
72
7
73
6
0
VERTEX
8
OBJECT__30
10
0
20
0
30
0
70
128
71
4
72
6
73
5
0
VERTEX
8
OBJECT__30
10
0
20
0
30
0
70
128
71
3
72
40
73
1
0
SEQEND
8
OBJECT__30
0
POLYLINE
8
OBJECT__31
66
1
70
64
71
41
72
39
62
253
0
VERTEX
8
OBJECT__31
10
0.250000
20
11.702000
30
10.500000
70
192
0
VERTEX
8
OBJECT__31
10
0.254000
20
11.719000
30
16.577999
70
192
0
VERTEX
8
OBJECT__31
10
0.567000
20
12.019000
30
16.576000
70
192
0
VERTEX
8
OBJECT__31
10
0.295000
20
11.987000
30
33.289001
70
192
0
VERTEX
8
OBJECT__31
10
0.624000
20
12.409000
30
40.881001
70
192
0
VERTEX
8
OBJECT__31
10
0.314000
20
12.109000
30
40.889000
70
192
0
VERTEX
8
OBJECT__31
10
0.503000
20
12.881000
30
65.193001
70
192
0
VERTEX
8
OBJECT__31
10
0.810000
20
13.181000
30
65.176003
70
192
0
VERTEX
8
OBJECT__31
10
1.285000
20
14.009000
30
89.481003
70
192
0
VERTEX
8
OBJECT__31
10
1.590000
20
14.308000
30
89.448997
70
192
0
VERTEX
8
OBJECT__31
10
0.979000
20
13.426000
30
70.448997
70
192
0
VERTEX
8
OBJECT__31
10
1.307000
20
14.028000
30
89.828003
70
192
0
VERTEX
8
OBJECT__31
10
2.060000
20
14.683000
30
101.601997
70
192
0
VERTEX
8
OBJECT__31
10
2.242000
20
14.877000
30
99.660004
70
192
0
VERTEX
8
OBJECT__31
10
2.363000
20
14.983000
30
101.560997
70
192
0
VERTEX
8
OBJECT__31
10
3.142000
20
15.416000
30
113.696999
70
192
0
VERTEX
8
OBJECT__31
10
3.446000
20
15.715000
30
113.646004
70
192
0
VERTEX
8
OBJECT__31
10
4.899000
20
16.490000
30
125.691002
70
192
0
VERTEX
8
OBJECT__31
10
3.255000
20
15.476000
30
114.635002
70
192
0
VERTEX
8
OBJECT__31
10
4.596000
20
16.191000
30
125.752998
70
192
0
VERTEX
8
OBJECT__31
10
6.503000
20
16.995001
30
137.746002
70
192
0
VERTEX
8
OBJECT__31
10
6.103000
20
16.997000
30
133.250000
70
192
0
VERTEX
8
OBJECT__31
10
6.807000
20
17.294001
30
137.671005
70
192
0
VERTEX
8
OBJECT__31
10
9.241000
20
17.865000
30
150.294998
70
192
0
VERTEX
8
OBJECT__31
10
10.875000
20
18.385000
30
157.785995
70
192
0
VERTEX
8
OBJECT__31
10
11.180000
20
18.683001
30
157.686996
70
192
0
VERTEX
8
OBJECT__31
10
10.039000
20
18.320999
30
152.464005
70
192
0
VERTEX
8
OBJECT__31
10
11.838000
20
18.643000
30
161.457001
70
192
0
VERTEX
8
OBJECT__31
10
12.142000
20
18.941999
30
161.354004
70
192
0
VERTEX
8
OBJECT__31
10
15.205000
20
19.468000
30
173.121994
70
192
0
VERTEX
8
OBJECT__31
10
15.510000
20
19.767000
30
173.005997
70
192
0
VERTEX
8
OBJECT__31
10
16.112000
20
19.892000
30
174.774994
70
192
0
VERTEX
8
OBJECT__31
10
20.981001
20
20.676001
30
190.126999
70
192
0
VERTEX
8
OBJECT__31
10
23.320999
20
21.399000
30
195.981003
70
192
0
VERTEX
8
OBJECT__31
10
23.014999
20
21.101999
30
196.115005
70
192
0
VERTEX
8
OBJECT__31
10
29.292999
20
22.261000
30
212.464005
70
192
0
VERTEX
8
OBJECT__31
10
29.600000
20
22.558001
30
212.320007
70
192
0
VERTEX
8
OBJECT__31
10
25.646999
20
21.829000
30
202.033997
70
192
0
VERTEX
8
OBJECT__31
10
35.946999
20
23.407000
30
228.673004
70
192
0
VERTEX
8
OBJECT__31
10
36.254002
20
23.702999
30
228.522003
70
192
0
VERTEX
8
OBJECT__31
10
0.564000
20
12.002000
30
10.500000
70
192
0
VERTEX
8
OBJECT__31
10
0
20
0
30
0
70
128
71
1
72
2
73
3
0
VERTEX
8
OBJECT__31
10
0
20
0
30
0
70
128
71
3
72
2
73
4
0
VERTEX
8
OBJECT__31
10
0
20
0
30
0
70
128
71
4
72
5
73
3
0
VERTEX
8
OBJECT__31
10
0
20
0
30
0
70
128
71
6
72
7
73
8
0
VERTEX
8
OBJECT__31
10
0
20
0
30
0
70
128
71
9
72
10
73
11
0
VERTEX
8
OBJECT__31
10
0
20
0
30
0
70
128
71
11
72
7
73
9
0
VERTEX
8
OBJECT__31
10
0
20
0
30
0
70
128
71
12
72
13
73
14
0
VERTEX
8
OBJECT__31
10
0
20
0
30
0
70
128
71
10
72
9
73
12
0
VERTEX
8
OBJECT__31
10
0
20
0
30
0
70
128
71
13
72
15
73
14
0
VERTEX
8
OBJECT__31
10
0
20
0
30
0
70
128
71
13
72
16
73
17
0
VERTEX
8
OBJECT__31
10
0
20
0
30
0
70
128
71
18
72
17
73
19
0
VERTEX
8
OBJECT__31
10
0
20
0
30
0
70
128
71
17
72
16
73
19
0
VERTEX
8
OBJECT__31
10
0
20
0
30
0
70
128
71
20
72
21
73
22
0
VERTEX
8
OBJECT__31
10
0
20
0
30
0
70
128
71
21
72
23
73
22
0
VERTEX
8
OBJECT__31
10
0
20
0
30
0
70
128
71
23
72
21
73
24
0
VERTEX
8
OBJECT__31
10
0
20
0
30
0
70
128
71
25
72
26
73
27
0
VERTEX
8
OBJECT__31
10
0
20
0
30
0
70
128
71
27
72
24
73
25
0
VERTEX
8
OBJECT__31
10
0
20
0
30
0
70
128
71
28
72
29
73
26
0
VERTEX
8
OBJECT__31
10
0
20
0
30
0
70
128
71
30
72
31
73
29
0
VERTEX
8
OBJECT__31
10
0
20
0
30
0
70
128
71
32
72
30
73
33
0
VERTEX
8
OBJECT__31
10
0
20
0
30
0
70
128
71
33
72
34
73
32
0
VERTEX
8
OBJECT__31
10
0
20
0
30
0
70
128
71
33
72
35
73
34
0
VERTEX
8
OBJECT__31
10
0
20
0
30
0
70
128
71
36
72
37
73
38
0
VERTEX
8
OBJECT__31
10
0
20
0
30
0
70
128
71
38
72
35
73
36
0
VERTEX
8
OBJECT__31
10
0
20
0
30
0
70
128
71
39
72
40
73
37
0
VERTEX
8
OBJECT__31
10
0
20
0
30
0
70
128
71
37
72
36
73
39
0
VERTEX
8
OBJECT__31
10
0
20
0
30
0
70
128
71
38
72
34
73
35
0
VERTEX
8
OBJECT__31
10
0
20
0
30
0
70
128
71
32
72
31
73
30
0
VERTEX
8
OBJECT__31
10
0
20
0
30
0
70
128
71
29
72
28
73
30
0
VERTEX
8
OBJECT__31
10
0
20
0
30
0
70
128
71
26
72
25
73
28
0
VERTEX
8
OBJECT__31
10
0
20
0
30
0
70
128
71
24
72
27
73
23
0
VERTEX
8
OBJECT__31
10
0
20
0
30
0
70
128
71
22
72
18
73
20
0
VERTEX
8
OBJECT__31
10
0
20
0
30
0
70
128
71
19
72
20
73
18
0
VERTEX
8
OBJECT__31
10
0
20
0
30
0
70
128
71
17
72
15
73
13
0
VERTEX
8
OBJECT__31
10
0
20
0
30
0
70
128
71
14
72
10
73
12
0
VERTEX
8
OBJECT__31
10
0
20
0
30
0
70
128
71
11
72
8
73
7
0
VERTEX
8
OBJECT__31
10
0
20
0
30
0
70
128
71
8
72
5
73
6
0
VERTEX
8
OBJECT__31
10
0
20
0
30
0
70
128
71
4
72
6
73
5
0
VERTEX
8
OBJECT__31
10
0
20
0
30
0
70
128
71
3
72
41
73
1
0
SEQEND
8
OBJECT__31
0
POLYLINE
8
OBJECT__32
66
1
70
64
71
46
72
45
62
253
0
VERTEX
8
OBJECT__32
10
35.959999
20
23.150999
30
228.703995
70
192
0
VERTEX
8
OBJECT__32
10
35.946999
20
23.407000
30
228.673004
70
192
0
VERTEX
8
OBJECT__32
10
29.292999
20
22.261000
30
212.464005
70
192
0
VERTEX
8
OBJECT__32
10
29.128000
20
21.775000
30
212.048004
70
192
0
VERTEX
8
OBJECT__32
10
35.970001
20
22.957001
30
228.727005
70
192
0
VERTEX
8
OBJECT__32
10
23.014999
20
21.101999
30
196.115005
70
192
0
VERTEX
8
OBJECT__32
10
22.688000
20
20.577000
30
195.223999
70
192
0
VERTEX
8
OBJECT__32
10
20.981001
20
20.676001
30
190.126999
70
192
0
VERTEX
8
OBJECT__32
10
20.945999
20
20.212999
30
190.139008
70
192
0
VERTEX
8
OBJECT__32
10
15.205000
20
19.468000
30
173.121994
70
192
0
VERTEX
8
OBJECT__32
10
16.122000
20
19.208000
30
176.059006
70
192
0
VERTEX
8
OBJECT__32
10
9.241000
20
17.865000
30
150.294998
70
192
0
VERTEX
8
OBJECT__32
10
9.112000
20
17.382999
30
150.322998
70
192
0
VERTEX
8
OBJECT__32
10
10.569000
20
17.822001
30
156.578003
70
192
0
VERTEX
8
OBJECT__32
10
11.838000
20
18.643000
30
161.457001
70
192
0
VERTEX
8
OBJECT__32
10
10.875000
20
18.385000
30
157.785995
70
192
0
VERTEX
8
OBJECT__32
10
4.596000
20
16.191000
30
125.752998
70
192
0
VERTEX
8
OBJECT__32
10
3.255000
20
15.476000
30
114.635002
70
192
0
VERTEX
8
OBJECT__32
10
3.469000
20
15.115000
30
116.724998
70
192
0
VERTEX
8
OBJECT__32
10
3.286000
20
14.989000
30
114.633003
70
192
0
VERTEX
8
OBJECT__32
10
4.738000
20
15.769000
30
126.772003
70
192
0
VERTEX
8
OBJECT__32
10
8.273000
20
17.129999
30
146.718994
70
192
0
VERTEX
8
OBJECT__32
10
6.503000
20
16.995001
30
137.746002
70
192
0
VERTEX
8
OBJECT__32
10
1.307000
20
14.028000
30
89.828003
70
192
0
VERTEX
8
OBJECT__32
10
1.386000
20
13.555000
30
89.824997
70
192
0
VERTEX
8
OBJECT__32
10
1.701000
20
13.899000
30
96.535004
70
192
0
VERTEX
8
OBJECT__32
10
3.142000
20
15.416000
30
113.696999
70
192
0
VERTEX
8
OBJECT__32
10
2.060000
20
14.683000
30
101.601997
70
192
0
VERTEX
8
OBJECT__32
10
0.295000
20
11.987000
30
33.289001
70
192
0
VERTEX
8
OBJECT__32
10
0.292000
20
11.469000
30
33.289001
70
192
0
VERTEX
8
OBJECT__32
10
0.297000
20
11.502000
30
35.688000
70
192
0
VERTEX
8
OBJECT__32
10
0.314000
20
12.109000
30
40.889000
70
192
0
VERTEX
8
OBJECT__32
10
0.395000
20
12.051000
30
55.992001
70
192
0
VERTEX
8
OBJECT__32
10
1.285000
20
14.009000
30
89.481003
70
192
0
VERTEX
8
OBJECT__32
10
0.503000
20
12.881000
30
65.193001
70
192
0
VERTEX
8
OBJECT__32
10
0.750000
20
12.860000
30
76.278999
70
192
0
VERTEX
8
OBJECT__32
10
0.250000
20
11.215000
30
10.300000
70
192
0
VERTEX
8
OBJECT__32
10
0.250000
20
11.702000
30
10.500000
70
192
0
VERTEX
8
OBJECT__32
10
0.250000
20
11.602000
30
10.400000
70
192
0
VERTEX
8
OBJECT__32
10
0.250000
20
11.698000
30
10.456000
70
192
0
VERTEX
8
OBJECT__32
10
0.250000
20
11.672000
30
10.394000
70
192
0
VERTEX
8
OBJECT__32
10
0.250000
20
11.627000
30
10.344000
70
192
0
VERTEX
8
OBJECT__32
10
0.250000
20
11.569000
30
10.311000
70
192
0
VERTEX
8
OBJECT__32
10
0.250000
20
11.502000
30
10.300000
70
192
0
VERTEX
8
OBJECT__32
10
0.252000
20
11.225000
30
15.378000
70
192
0
VERTEX
8
OBJECT__32
10
0.254000
20
11.719000
30
16.577999
70
192
0
VERTEX
8
OBJECT__32
10
0
20
0
30
0
70
128
71
1
72
2
73
3
0
VERTEX
8
OBJECT__32
10
0
20
0
30
0
70
128
71
4
72
5
73
1
0
VERTEX
8
OBJECT__32
10
0
20
0
30
0
70
128
71
4
72
3
73
6
0
VERTEX
8
OBJECT__32
10
0
20
0
30
0
70
128
71
6
72
7
73
4
0
VERTEX
8
OBJECT__32
10
0
20
0
30
0
70
128
71
8
72
9
73
7
0
VERTEX
8
OBJECT__32
10
0
20
0
30
0
70
128
71
7
72
6
73
8
0
VERTEX
8
OBJECT__32
10
0
20
0
30
0
70
128
71
8
72
10
73
11
0
VERTEX
8
OBJECT__32
10
0
20
0
30
0
70
128
71
12
72
13
73
14
0
VERTEX
8
OBJECT__32
10
0
20
0
30
0
70
128
71
11
72
10
73
15
0
VERTEX
8
OBJECT__32
10
0
20
0
30
0
70
128
71
15
72
14
73
11
0
VERTEX
8
OBJECT__32
10
0
20
0
30
0
70
128
71
15
72
16
73
14
0
VERTEX
8
OBJECT__32
10
0
20
0
30
0
70
128
71
14
72
16
73
12
0
VERTEX
8
OBJECT__32
10
0
20
0
30
0
70
128
71
17
72
18
73
19
0
VERTEX
8
OBJECT__32
10
0
20
0
30
0
70
128
71
18
72
20
73
19
0
VERTEX
8
OBJECT__32
10
0
20
0
30
0
70
128
71
21
72
22
73
23
0
VERTEX
8
OBJECT__32
10
0
20
0
30
0
70
128
71
12
72
23
73
22
0
VERTEX
8
OBJECT__32
10
0
20
0
30
0
70
128
71
22
72
13
73
12
0
VERTEX
8
OBJECT__32
10
0
20
0
30
0
70
128
71
23
72
17
73
21
0
VERTEX
8
OBJECT__32
10
0
20
0
30
0
70
128
71
24
72
25
73
26
0
VERTEX
8
OBJECT__32
10
0
20
0
30
0
70
128
71
20
72
27
73
28
0
VERTEX
8
OBJECT__32
10
0
20
0
30
0
70
128
71
20
72
18
73
27
0
VERTEX
8
OBJECT__32
10
0
20
0
30
0
70
128
71
28
72
26
73
20
0
VERTEX
8
OBJECT__32
10
0
20
0
30
0
70
128
71
29
72
30
73
31
0
VERTEX
8
OBJECT__32
10
0
20
0
30
0
70
128
71
32
72
31
73
33
0
VERTEX
8
OBJECT__32
10
0
20
0
30
0
70
128
71
34
72
35
73
36
0
VERTEX
8
OBJECT__32
10
0
20
0
30
0
70
128
71
35
72
33
73
36
0
VERTEX
8
OBJECT__32
10
0
20
0
30
0
70
128
71
25
72
24
73
34
0
VERTEX
8
OBJECT__32
10
0
20
0
30
0
70
128
71
36
72
25
73
34
0
VERTEX
8
OBJECT__32
10
0
20
0
30
0
70
128
71
33
72
35
73
32
0
VERTEX
8
OBJECT__32
10
0
20
0
30
0
70
128
71
37
72
38
73
39
0
VERTEX
8
OBJECT__32
10
0
20
0
30
0
70
128
71
39
72
40
73
41
0
VERTEX
8
OBJECT__32
10
0
20
0
30
0
70
128
71
39
72
38
73
40
0
VERTEX
8
OBJECT__32
10
0
20
0
30
0
70
128
71
39
72
42
73
43
0
VERTEX
8
OBJECT__32
10
0
20
0
30
0
70
128
71
43
72
44
73
39
0
VERTEX
8
OBJECT__32
10
0
20
0
30
0
70
128
71
41
72
42
73
39
0
VERTEX
8
OBJECT__32
10
0
20
0
30
0
70
128
71
38
72
37
73
45
0
VERTEX
8
OBJECT__32
10
0
20
0
30
0
70
128
71
45
72
46
73
38
0
VERTEX
8
OBJECT__32
10
0
20
0
30
0
70
128
71
30
72
29
73
46
0
VERTEX
8
OBJECT__32
10
0
20
0
30
0
70
128
71
46
72
45
73
30
0
VERTEX
8
OBJECT__32
10
0
20
0
30
0
70
128
71
39
72
44
73
37
0
VERTEX
8
OBJECT__32
10
0
20
0
30
0
70
128
71
31
72
32
73
29
0
VERTEX
8
OBJECT__32
10
0
20
0
30
0
70
128
71
26
72
28
73
24
0
VERTEX
8
OBJECT__32
10
0
20
0
30
0
70
128
71
19
72
21
73
17
0
VERTEX
8
OBJECT__32
10
0
20
0
30
0
70
128
71
11
72
9
73
8
0
VERTEX
8
OBJECT__32
10
0
20
0
30
0
70
128
71
3
72
4
73
1
0
SEQEND
8
OBJECT__32
0
POLYLINE
8
OBJECT__33
66
1
70
64
71
36
72
34
62
253
0
VERTEX
8
OBJECT__33
10
6.207000
20
9.699000
30
10.000000
70
192
0
VERTEX
8
OBJECT__33
10
2.648000
20
11.207000
30
10.000000
70
192
0
VERTEX
8
OBJECT__33
10
4.544000
20
10.939000
30
10.500000
70
192
0
VERTEX
8
OBJECT__33
10
2.763000
20
11.693000
30
10.500000
70
192
0
VERTEX
8
OBJECT__33
10
6.477000
20
10.120000
30
10.500000
70
192
0
VERTEX
8
OBJECT__33
10
8.409000
20
8.362000
30
10.500000
70
192
0
VERTEX
8
OBJECT__33
10
9.069000
20
7.096000
30
10.000000
70
192
0
VERTEX
8
OBJECT__33
10
9.463000
20
7.405000
30
10.500000
70
192
0
VERTEX
8
OBJECT__33
10
11.025000
20
4.513000
30
10.500000
70
192
0
VERTEX
8
OBJECT__33
10
10.906000
20
3.696000
30
10.000000
70
192
0
VERTEX
8
OBJECT__33
10
12.015000
20
-0.129000
30
10.500000
70
192
0
VERTEX
8
OBJECT__33
10
11.515000
20
-0.123000
30
10.000000
70
192
0
VERTEX
8
OBJECT__33
10
11.295000
20
-4.098000
30
10.500000
70
192
0
VERTEX
8
OBJECT__33
10
10.825000
20
-3.928000
30
10.000000
70
192
0
VERTEX
8
OBJECT__33
10
8.915000
20
-7.289000
30
10.000000
70
192
0
VERTEX
8
OBJECT__33
10
11.001000
20
-4.615000
30
10.500000
70
192
0
VERTEX
8
OBJECT__33
10
5.998000
20
-9.830000
30
10.000000
70
192
0
VERTEX
8
OBJECT__33
10
8.344000
20
-8.440000
30
10.500000
70
192
0
VERTEX
8
OBJECT__33
10
9.302000
20
-7.605000
30
10.500000
70
192
0
VERTEX
8
OBJECT__33
10
2.408000
20
-11.261000
30
10.000000
70
192
0
VERTEX
8
OBJECT__33
10
4.451000
20
-10.977000
30
10.500000
70
192
0
VERTEX
8
OBJECT__33
10
6.259000
20
-10.256000
30
10.500000
70
192
0
VERTEX
8
OBJECT__33
10
2.513000
20
-11.750000
30
10.500000
70
192
0
VERTEX
8
OBJECT__33
10
0.558000
20
-11.768000
30
10.076000
70
192
0
VERTEX
8
OBJECT__33
10
0.553000
20
-11.612000
30
10.012000
70
192
0
VERTEX
8
OBJECT__33
10
0.561000
20
-11.893000
30
10.188000
70
192
0
VERTEX
8
OBJECT__33
10
0.564000
20
-12.002000
30
10.500000
70
192
0
VERTEX
8
OBJECT__33
10
0.563000
20
-11.974000
30
10.335000
70
192
0
VERTEX
8
OBJECT__33
10
0.562000
20
11.926000
30
10.235000
70
192
0
VERTEX
8
OBJECT__33
10
0.564000
20
11.990000
30
10.391000
70
192
0
VERTEX
8
OBJECT__33
10
0.559000
20
11.815000
30
10.110000
70
192
0
VERTEX
8
OBJECT__33
10
0.550000
20
11.502000
30
10.000000
70
192
0
VERTEX
8
OBJECT__33
10
0.555000
20
11.668000
30
10.028000
70
192
0
VERTEX
8
OBJECT__33
10
0.564000
20
12.002000
30
10.500000
70
192
0
VERTEX
8
OBJECT__33
10
0.550000
20
-11.502000
30
10.000000
70
192
0
VERTEX
8
OBJECT__33
10
11.380000
20
3.857000
30
10.500000
70
192
0
VERTEX
8
OBJECT__33
10
0
20
0
30
0
70
128
71
1
72
2
73
3
0
VERTEX
8
OBJECT__33
10
0
20
0
30
0
70
128
71
2
72
4
73
3
0
VERTEX
8
OBJECT__33
10
0
20
0
30
0
70
128
71
1
72
5
73
6
0
VERTEX
8
OBJECT__33
10
0
20
0
30
0
70
128
71
6
72
7
73
1
0
VERTEX
8
OBJECT__33
10
0
20
0
30
0
70
128
71
7
72
8
73
9
0
VERTEX
8
OBJECT__33
10
0
20
0
30
0
70
128
71
9
72
10
73
7
0
VERTEX
8
OBJECT__33
10
0
20
0
30
0
70
128
71
11
72
12
73
10
0
VERTEX
8
OBJECT__33
10
0
20
0
30
0
70
128
71
11
72
13
73
14
0
VERTEX
8
OBJECT__33
10
0
20
0
30
0
70
128
71
15
72
14
73
16
0
VERTEX
8
OBJECT__33
10
0
20
0
30
0
70
128
71
14
72
13
73
16
0
VERTEX
8
OBJECT__33
10
0
20
0
30
0
70
128
71
17
72
15
73
18
0
VERTEX
8
OBJECT__33
10
0
20
0
30
0
70
128
71
15
72
19
73
18
0
VERTEX
8
OBJECT__33
10
0
20
0
30
0
70
128
71
20
72
17
73
21
0
VERTEX
8
OBJECT__33
10
0
20
0
30
0
70
128
71
17
72
22
73
21
0
VERTEX
8
OBJECT__33
10
0
20
0
30
0
70
128
71
23
72
24
73
25
0
VERTEX
8
OBJECT__33
10
0
20
0
30
0
70
128
71
25
72
20
73
23
0
VERTEX
8
OBJECT__33
10
0
20
0
30
0
70
128
71
23
72
26
73
24
0
VERTEX
8
OBJECT__33
10
0
20
0
30
0
70
128
71
23
72
27
73
28
0
VERTEX
8
OBJECT__33
10
0
20
0
30
0
70
128
71
28
72
26
73
23
0
VERTEX
8
OBJECT__33
10
0
20
0
30
0
70
128
71
4
72
29
73
30
0
VERTEX
8
OBJECT__33
10
0
20
0
30
0
70
128
71
4
72
31
73
29
0
VERTEX
8
OBJECT__33
10
0
20
0
30
0
70
128
71
4
72
2
73
32
0
VERTEX
8
OBJECT__33
10
0
20
0
30
0
70
128
71
32
72
33
73
4
0
VERTEX
8
OBJECT__33
10
0
20
0
30
0
70
128
71
33
72
31
73
4
0
VERTEX
8
OBJECT__33
10
0
20
0
30
0
70
128
71
30
72
34
73
4
0
VERTEX
8
OBJECT__33
10
0
20
0
30
0
70
128
71
25
72
35
73
20
0
VERTEX
8
OBJECT__33
10
0
20
0
30
0
70
128
71
21
72
23
73
20
0
VERTEX
8
OBJECT__33
10
0
20
0
30
0
70
128
71
18
72
22
73
17
0
VERTEX
8
OBJECT__33
10
0
20
0
30
0
70
128
71
16
72
19
73
15
0
VERTEX
8
OBJECT__33
10
0
20
0
30
0
70
128
71
14
72
12
73
11
0
VERTEX
8
OBJECT__33
10
0
20
0
30
0
70
128
71
10
72
36
73
11
0
VERTEX
8
OBJECT__33
10
0
20
0
30
0
70
128
71
9
72
36
73
10
0
VERTEX
8
OBJECT__33
10
0
20
0
30
0
70
128
71
6
72
8
73
7
0
VERTEX
8
OBJECT__33
10
0
20
0
30
0
70
128
71
3
72
5
73
1
0
SEQEND
8
OBJECT__33
0
POLYLINE
8
OBJECT__34
66
1
70
64
71
12
72
10
62
253
0
VERTEX
8
OBJECT__34
10
0.555000
20
11.668000
30
10.028000
70
192
0
VERTEX
8
OBJECT__34
10
0.550000
20
11.502000
30
10.000000
70
192
0
VERTEX
8
OBJECT__34
10
0.250000
20
11.502000
30
10.300000
70
192
0
VERTEX
8
OBJECT__34
10
0.559000
20
11.815000
30
10.110000
70
192
0
VERTEX
8
OBJECT__34
10
0.250000
20
11.569000
30
10.311000
70
192
0
VERTEX
8
OBJECT__34
10
0.562000
20
11.926000
30
10.235000
70
192
0
VERTEX
8
OBJECT__34
10
0.250000
20
11.627000
30
10.344000
70
192
0
VERTEX
8
OBJECT__34
10
0.564000
20
11.990000
30
10.391000
70
192
0
VERTEX
8
OBJECT__34
10
0.250000
20
11.672000
30
10.394000
70
192
0
VERTEX
8
OBJECT__34
10
0.564000
20
12.002000
30
10.500000
70
192
0
VERTEX
8
OBJECT__34
10
0.250000
20
11.698000
30
10.456000
70
192
0
VERTEX
8
OBJECT__34
10
0.250000
20
11.702000
30
10.500000
70
192
0
VERTEX
8
OBJECT__34
10
0
20
0
30
0
70
128
71
1
72
2
73
3
0
VERTEX
8
OBJECT__34
10
0
20
0
30
0
70
128
71
4
72
1
73
5
0
VERTEX
8
OBJECT__34
10
0
20
0
30
0
70
128
71
6
72
4
73
7
0
VERTEX
8
OBJECT__34
10
0
20
0
30
0
70
128
71
8
72
6
73
9
0
VERTEX
8
OBJECT__34
10
0
20
0
30
0
70
128
71
10
72
8
73
11
0
VERTEX
8
OBJECT__34
10
0
20
0
30
0
70
128
71
11
72
12
73
10
0
VERTEX
8
OBJECT__34
10
0
20
0
30
0
70
128
71
9
72
11
73
8
0
VERTEX
8
OBJECT__34
10
0
20
0
30
0
70
128
71
7
72
9
73
6
0
VERTEX
8
OBJECT__34
10
0
20
0
30
0
70
128
71
5
72
7
73
4
0
VERTEX
8
OBJECT__34
10
0
20
0
30
0
70
128
71
3
72
5
73
1
0
SEQEND
8
OBJECT__34
0
POLYLINE
8
OBJECT__35
66
1
70
64
71
29
72
27
62
253
0
VERTEX
8
OBJECT__35
10
-1.750000
20
-10.718000
30
10.000000
70
192
0
VERTEX
8
OBJECT__35
10
0.250000
20
-10.497000
30
10.000000
70
192
0
VERTEX
8
OBJECT__35
10
0.030000
20
-10.915000
30
10.000000
70
192
0
VERTEX
8
OBJECT__35
10
0.550000
20
11.202000
30
10.000000
70
192
0
VERTEX
8
OBJECT__35
10
9.069000
20
7.096000
30
10.000000
70
192
0
VERTEX
8
OBJECT__35
10
7.478000
20
7.371000
30
10.000000
70
192
0
VERTEX
8
OBJECT__35
10
0.547000
20
11.200000
30
10.000000
70
192
0
VERTEX
8
OBJECT__35
10
0.250000
20
10.497000
30
10.000000
70
192
0
VERTEX
8
OBJECT__35
10
-1.750000
20
10.718000
30
10.000000
70
192
0
VERTEX
8
OBJECT__35
10
-1.747000
20
10.774000
30
10.000000
70
192
0
VERTEX
8
OBJECT__35
10
0.030000
20
10.915000
30
10.000000
70
192
0
VERTEX
8
OBJECT__35
10
-1.747000
20
-10.774000
30
10.000000
70
192
0
VERTEX
8
OBJECT__35
10
0.547000
20
-11.200000
30
10.000000
70
192
0
VERTEX
8
OBJECT__35
10
0.180000
20
-10.942000
30
10.000000
70
192
0
VERTEX
8
OBJECT__35
10
0.550000
20
-11.202000
30
10.000000
70
192
0
VERTEX
8
OBJECT__35
10
7.478000
20
-7.371000
30
10.000000
70
192
0
VERTEX
8
OBJECT__35
10
-1.750000
20
10.497000
30
10.000000
70
192
0
VERTEX
8
OBJECT__35
10
10.906000
20
3.696000
30
10.000000
70
192
0
VERTEX
8
OBJECT__35
10
10.500000
20
0.000000
30
10.000000
70
192
0
VERTEX
8
OBJECT__35
10
10.825000
20
-3.928000
30
10.000000
70
192
0
VERTEX
8
OBJECT__35
10
8.915000
20
-7.289000
30
10.000000
70
192
0
VERTEX
8
OBJECT__35
10
11.515000
20
-0.123000
30
10.000000
70
192
0
VERTEX
8
OBJECT__35
10
-1.750000
20
-10.497000
30
10.000000
70
192
0
VERTEX
8
OBJECT__35
10
2.408000
20
-11.261000
30
10.000000
70
192
0
VERTEX
8
OBJECT__35
10
0.550000
20
11.502000
30
10.000000
70
192
0
VERTEX
8
OBJECT__35
10
2.648000
20
11.207000
30
10.000000
70
192
0
VERTEX
8
OBJECT__35
10
5.998000
20
-9.830000
30
10.000000
70
192
0
VERTEX
8
OBJECT__35
10
0.550000
20
-11.502000
30
10.000000
70
192
0
VERTEX
8
OBJECT__35
10
6.207000
20
9.699000
30
10.000000
70
192
0
VERTEX
8
OBJECT__35
10
0
20
0
30
0
70
128
71
1
72
2
73
3
0
VERTEX
8
OBJECT__35
10
0
20
0
30
0
70
128
71
4
72
5
73
6
0
VERTEX
8
OBJECT__35
10
0
20
0
30
0
70
128
71
7
72
6
73
8
0
VERTEX
8
OBJECT__35
10
0
20
0
30
0
70
128
71
9
72
10
73
11
0
VERTEX
8
OBJECT__35
10
0
20
0
30
0
70
128
71
3
72
12
73
1
0
VERTEX
8
OBJECT__35
10
0
20
0
30
0
70
128
71
13
72
14
73
2
0
VERTEX
8
OBJECT__35
10
0
20
0
30
0
70
128
71
15
72
13
73
16
0
VERTEX
8
OBJECT__35
10
0
20
0
30
0
70
128
71
8
72
11
73
7
0
VERTEX
8
OBJECT__35
10
0
20
0
30
0
70
128
71
8
72
17
73
9
0
VERTEX
8
OBJECT__35
10
0
20
0
30
0
70
128
71
6
72
5
73
18
0
VERTEX
8
OBJECT__35
10
0
20
0
30
0
70
128
71
16
72
19
73
20
0
VERTEX
8
OBJECT__35
10
0
20
0
30
0
70
128
71
2
72
14
73
3
0
VERTEX
8
OBJECT__35
10
0
20
0
30
0
70
128
71
16
72
21
73
15
0
VERTEX
8
OBJECT__35
10
0
20
0
30
0
70
128
71
11
72
8
73
9
0
VERTEX
8
OBJECT__35
10
0
20
0
30
0
70
128
71
18
72
19
73
6
0
VERTEX
8
OBJECT__35
10
0
20
0
30
0
70
128
71
19
72
22
73
20
0
VERTEX
8
OBJECT__35
10
0
20
0
30
0
70
128
71
2
72
16
73
13
0
VERTEX
8
OBJECT__35
10
0
20
0
30
0
70
128
71
18
72
22
73
19
0
VERTEX
8
OBJECT__35
10
0
20
0
30
0
70
128
71
1
72
23
73
2
0
VERTEX
8
OBJECT__35
10
0
20
0
30
0
70
128
71
15
72
21
73
24
0
VERTEX
8
OBJECT__35
10
0
20
0
30
0
70
128
71
4
72
25
73
26
0
VERTEX
8
OBJECT__35
10
0
20
0
30
0
70
128
71
20
72
21
73
16
0
VERTEX
8
OBJECT__35
10
0
20
0
30
0
70
128
71
21
72
27
73
24
0
VERTEX
8
OBJECT__35
10
0
20
0
30
0
70
128
71
26
72
5
73
4
0
VERTEX
8
OBJECT__35
10
0
20
0
30
0
70
128
71
24
72
28
73
15
0
VERTEX
8
OBJECT__35
10
0
20
0
30
0
70
128
71
6
72
7
73
4
0
VERTEX
8
OBJECT__35
10
0
20
0
30
0
70
128
71
26
72
29
73
5
0
SEQEND
8
OBJECT__35
0
POLYLINE
8
OBJECT__36
66
1
70
64
71
8
72
6
62
253
0
VERTEX
8
OBJECT__36
10
10.500000
20
0.000000
30
10.000000
70
192
0
VERTEX
8
OBJECT__36
10
10.500000
20
0.000000
30
15.000000
70
192
0
VERTEX
8
OBJECT__36
10
9.715000
20
3.983000
30
15.000000
70
192
0
VERTEX
8
OBJECT__36
10
7.478000
20
7.371000
30
10.000000
70
192
0
VERTEX
8
OBJECT__36
10
0.250000
20
10.497000
30
10.000000
70
192
0
VERTEX
8
OBJECT__36
10
4.169000
20
9.637000
30
15.000000
70
192
0
VERTEX
8
OBJECT__36
10
7.478000
20
7.371000
30
15.000000
70
192
0
VERTEX
8
OBJECT__36
10
0.252000
20
10.497000
30
15.000000
70
192
0
VERTEX
8
OBJECT__36
10
0
20
0
30
0
70
128
71
1
72
2
73
3
0
VERTEX
8
OBJECT__36
10
0
20
0
30
0
70
128
71
3
72
4
73
1
0
VERTEX
8
OBJECT__36
10
0
20
0
30
0
70
128
71
5
72
4
73
6
0
VERTEX
8
OBJECT__36
10
0
20
0
30
0
70
128
71
4
72
7
73
6
0
VERTEX
8
OBJECT__36
10
0
20
0
30
0
70
128
71
6
72
8
73
5
0
VERTEX
8
OBJECT__36
10
0
20
0
30
0
70
128
71
3
72
7
73
4
0
SEQEND
8
OBJECT__36
0
POLYLINE
8
OBJECT__37
66
1
70
64
71
8
72
6
62
253
0
VERTEX
8
OBJECT__37
10
7.478000
20
-7.371000
30
10.000000
70
192
0
VERTEX
8
OBJECT__37
10
7.478000
20
-7.371000
30
15.000000
70
192
0
VERTEX
8
OBJECT__37
10
9.715000
20
-3.983000
30
15.000000
70
192
0
VERTEX
8
OBJECT__37
10
10.500000
20
0.000000
30
10.000000
70
192
0
VERTEX
8
OBJECT__37
10
0.250000
20
-10.497000
30
10.000000
70
192
0
VERTEX
8
OBJECT__37
10
0.252000
20
-10.497000
30
15.000000
70
192
0
VERTEX
8
OBJECT__37
10
4.169000
20
-9.637000
30
15.000000
70
192
0
VERTEX
8
OBJECT__37
10
10.500000
20
0.000000
30
15.000000
70
192
0
VERTEX
8
OBJECT__37
10
0
20
0
30
0
70
128
71
1
72
2
73
3
0
VERTEX
8
OBJECT__37
10
0
20
0
30
0
70
128
71
3
72
4
73
1
0
VERTEX
8
OBJECT__37
10
0
20
0
30
0
70
128
71
5
72
6
73
7
0
VERTEX
8
OBJECT__37
10
0
20
0
30
0
70
128
71
7
72
1
73
5
0
VERTEX
8
OBJECT__37
10
0
20
0
30
0
70
128
71
7
72
2
73
1
0
VERTEX
8
OBJECT__37
10
0
20
0
30
0
70
128
71
3
72
8
73
4
0
SEQEND
8
OBJECT__37
0
POLYLINE
8
OBJECT__38
66
1
70
64
71
32
72
30
62
253
0
VERTEX
8
OBJECT__38
10
7.478000
20
7.371000
30
15.000000
70
192
0
VERTEX
8
OBJECT__38
10
6.058000
20
7.992000
30
15.000000
70
192
0
VERTEX
8
OBJECT__38
10
5.914000
20
8.102000
30
15.000000
70
192
0
VERTEX
8
OBJECT__38
10
6.969000
20
7.203000
30
15.000000
70
192
0
VERTEX
8
OBJECT__38
10
9.715000
20
3.983000
30
15.000000
70
192
0
VERTEX
8
OBJECT__38
10
10.500000
20
0.000000
30
15.000000
70
192
0
VERTEX
8
OBJECT__38
10
9.848000
20
1.696000
30
15.000000
70
192
0
VERTEX
8
OBJECT__38
10
9.848000
20
-1.696000
30
15.000000
70
192
0
VERTEX
8
OBJECT__38
10
9.991000
20
0.000000
30
15.000000
70
192
0
VERTEX
8
OBJECT__38
10
-1.748000
20
-10.020000
30
15.000000
70
192
0
VERTEX
8
OBJECT__38
10
0.252000
20
-10.020000
30
15.000000
70
192
0
VERTEX
8
OBJECT__38
10
0.252000
20
-10.497000
30
15.000000
70
192
0
VERTEX
8
OBJECT__38
10
7.778000
20
6.309000
30
15.000000
70
192
0
VERTEX
8
OBJECT__38
10
9.715000
20
-3.983000
30
15.000000
70
192
0
VERTEX
8
OBJECT__38
10
9.423000
20
-3.343000
30
15.000000
70
192
0
VERTEX
8
OBJECT__38
10
4.169000
20
-9.637000
30
15.000000
70
192
0
VERTEX
8
OBJECT__38
10
1.970000
20
-9.832000
30
15.000000
70
192
0
VERTEX
8
OBJECT__38
10
-1.748000
20
-10.497000
30
15.000000
70
192
0
VERTEX
8
OBJECT__38
10
-1.748000
20
10.020000
30
15.000000
70
192
0
VERTEX
8
OBJECT__38
10
-1.748000
20
10.497000
30
15.000000
70
192
0
VERTEX
8
OBJECT__38
10
0.252000
20
10.497000
30
15.000000
70
192
0
VERTEX
8
OBJECT__38
10
4.169000
20
9.637000
30
15.000000
70
192
0
VERTEX
8
OBJECT__38
10
9.423000
20
3.343000
30
15.000000
70
192
0
VERTEX
8
OBJECT__38
10
7.478000
20
-7.371000
30
15.000000
70
192
0
VERTEX
8
OBJECT__38
10
7.778000
20
-6.309000
30
15.000000
70
192
0
VERTEX
8
OBJECT__38
10
3.042000
20
-9.560000
30
15.000000
70
192
0
VERTEX
8
OBJECT__38
10
0.876000
20
-9.986000
30
15.000000
70
192
0
VERTEX
8
OBJECT__38
10
0.876000
20
9.986000
30
15.000000
70
192
0
VERTEX
8
OBJECT__38
10
0.252000
20
10.020000
30
15.000000
70
192
0
VERTEX
8
OBJECT__38
10
3.042000
20
9.560000
30
15.000000
70
192
0
VERTEX
8
OBJECT__38
10
3.213000
20
-9.505000
30
15.000000
70
192
0
VERTEX
8
OBJECT__38
10
6.058000
20
-7.992000
30
15.000000
70
192
0
VERTEX
8
OBJECT__38
10
0
20
0
30
0
70
128
71
1
72
2
73
3
0
VERTEX
8
OBJECT__38
10
0
20
0
30
0
70
128
71
1
72
4
73
2
0
VERTEX
8
OBJECT__38
10
0
20
0
30
0
70
128
71
5
72
6
73
7
0
VERTEX
8
OBJECT__38
10
0
20
0
30
0
70
128
71
6
72
8
73
9
0
VERTEX
8
OBJECT__38
10
0
20
0
30
0
70
128
71
10
72
11
73
12
0
VERTEX
8
OBJECT__38
10
0
20
0
30
0
70
128
71
1
72
13
73
4
0
VERTEX
8
OBJECT__38
10
0
20
0
30
0
70
128
71
9
72
7
73
6
0
VERTEX
8
OBJECT__38
10
0
20
0
30
0
70
128
71
14
72
15
73
8
0
VERTEX
8
OBJECT__38
10
0
20
0
30
0
70
128
71
16
72
12
73
17
0
VERTEX
8
OBJECT__38
10
0
20
0
30
0
70
128
71
12
72
18
73
10
0
VERTEX
8
OBJECT__38
10
0
20
0
30
0
70
128
71
19
72
20
73
21
0
VERTEX
8
OBJECT__38
10
0
20
0
30
0
70
128
71
3
72
22
73
1
0
VERTEX
8
OBJECT__38
10
0
20
0
30
0
70
128
71
5
72
23
73
13
0
VERTEX
8
OBJECT__38
10
0
20
0
30
0
70
128
71
8
72
6
73
14
0
VERTEX
8
OBJECT__38
10
0
20
0
30
0
70
128
71
14
72
24
73
25
0
VERTEX
8
OBJECT__38
10
0
20
0
30
0
70
128
71
17
72
26
73
16
0
VERTEX
8
OBJECT__38
10
0
20
0
30
0
70
128
71
11
72
27
73
12
0
VERTEX
8
OBJECT__38
10
0
20
0
30
0
70
128
71
21
72
28
73
29
0
VERTEX
8
OBJECT__38
10
0
20
0
30
0
70
128
71
21
72
22
73
30
0
VERTEX
8
OBJECT__38
10
0
20
0
30
0
70
128
71
13
72
1
73
5
0
VERTEX
8
OBJECT__38
10
0
20
0
30
0
70
128
71
25
72
15
73
14
0
VERTEX
8
OBJECT__38
10
0
20
0
30
0
70
128
71
16
72
31
73
32
0
VERTEX
8
OBJECT__38
10
0
20
0
30
0
70
128
71
27
72
17
73
12
0
VERTEX
8
OBJECT__38
10
0
20
0
30
0
70
128
71
30
72
28
73
21
0
VERTEX
8
OBJECT__38
10
0
20
0
30
0
70
128
71
7
72
23
73
5
0
VERTEX
8
OBJECT__38
10
0
20
0
30
0
70
128
71
26
72
31
73
16
0
VERTEX
8
OBJECT__38
10
0
20
0
30
0
70
128
71
3
72
30
73
22
0
VERTEX
8
OBJECT__38
10
0
20
0
30
0
70
128
71
32
72
24
73
16
0
VERTEX
8
OBJECT__38
10
0
20
0
30
0
70
128
71
32
72
25
73
24
0
VERTEX
8
OBJECT__38
10
0
20
0
30
0
70
128
71
21
72
29
73
19
0
SEQEND
8
OBJECT__38
0
POLYLINE
8
OBJECT__39
66
1
70
64
71
30
72
28
62
253
0
VERTEX
8
OBJECT__39
10
-1.750000
20
10.353000
30
10.000000
70
192
0
VERTEX
8
OBJECT__39
10
-7.990000
20
6.812000
30
10.000000
70
192
0
VERTEX
8
OBJECT__39
10
-4.460000
20
10.064000
30
10.000000
70
192
0
VERTEX
8
OBJECT__39
10
-7.950000
20
7.804000
30
10.000000
70
192
0
VERTEX
8
OBJECT__39
10
-7.033000
20
9.118000
30
10.000000
70
192
0
VERTEX
8
OBJECT__39
10
-4.459000
20
-10.065000
30
10.000000
70
192
0
VERTEX
8
OBJECT__39
10
-7.033000
20
-9.118000
30
10.000000
70
192
0
VERTEX
8
OBJECT__39
10
-7.947000
20
-7.809000
30
10.000000
70
192
0
VERTEX
8
OBJECT__39
10
-1.750000
20
-10.353000
30
10.001000
70
192
0
VERTEX
8
OBJECT__39
10
-1.750000
20
-10.497000
30
10.000000
70
192
0
VERTEX
8
OBJECT__39
10
-1.750000
20
10.718000
30
10.000000
70
192
0
VERTEX
8
OBJECT__39
10
-1.750000
20
10.497000
30
10.000000
70
192
0
VERTEX
8
OBJECT__39
10
-7.990000
20
-6.812000
30
10.000000
70
192
0
VERTEX
8
OBJECT__39
10
-1.747000
20
10.774000
30
10.000000
70
192
0
VERTEX
8
OBJECT__39
10
-0.550000
20
11.502000
30
10.000000
70
192
0
VERTEX
8
OBJECT__39
10
-1.490000
20
11.015000
30
10.000000
70
192
0
VERTEX
8
OBJECT__39
10
-10.500000
20
0.000000
30
10.000000
70
192
0
VERTEX
8
OBJECT__39
10
-10.469000
20
-4.194000
30
10.000000
70
192
0
VERTEX
8
OBJECT__39
10
-10.985000
20
-3.454000
30
10.000000
70
192
0
VERTEX
8
OBJECT__39
10
-10.474000
20
4.186000
30
10.000000
70
192
0
VERTEX
8
OBJECT__39
10
-10.985000
20
-0.006000
30
10.000000
70
192
0
VERTEX
8
OBJECT__39
10
-10.985000
20
3.454000
30
10.000000
70
192
0
VERTEX
8
OBJECT__39
10
-1.723000
20
10.841000
30
10.000000
70
192
0
VERTEX
8
OBJECT__39
10
-0.550000
20
11.102000
30
10.000000
70
192
0
VERTEX
8
OBJECT__39
10
-0.550000
20
-11.502000
30
10.000000
70
192
0
VERTEX
8
OBJECT__39
10
-1.516000
20
-11.010000
30
10.000000
70
192
0
VERTEX
8
OBJECT__39
10
-1.490000
20
-11.015000
30
10.000000
70
192
0
VERTEX
8
OBJECT__39
10
-1.750000
20
-10.718000
30
10.000000
70
192
0
VERTEX
8
OBJECT__39
10
-1.747000
20
-10.774000
30
10.000000
70
192
0
VERTEX
8
OBJECT__39
10
-0.550000
20
-11.102000
30
10.000000
70
192
0
VERTEX
8
OBJECT__39
10
0
20
0
30
0
70
128
71
1
72
2
73
3
0
VERTEX
8
OBJECT__39
10
0
20
0
30
0
70
128
71
3
72
2
73
4
0
VERTEX
8
OBJECT__39
10
0
20
0
30
0
70
128
71
4
72
5
73
3
0
VERTEX
8
OBJECT__39
10
0
20
0
30
0
70
128
71
6
72
7
73
8
0
VERTEX
8
OBJECT__39
10
0
20
0
30
0
70
128
71
9
72
10
73
6
0
VERTEX
8
OBJECT__39
10
0
20
0
30
0
70
128
71
3
72
11
73
12
0
VERTEX
8
OBJECT__39
10
0
20
0
30
0
70
128
71
6
72
13
73
9
0
VERTEX
8
OBJECT__39
10
0
20
0
30
0
70
128
71
3
72
14
73
11
0
VERTEX
8
OBJECT__39
10
0
20
0
30
0
70
128
71
3
72
15
73
16
0
VERTEX
8
OBJECT__39
10
0
20
0
30
0
70
128
71
8
72
13
73
6
0
VERTEX
8
OBJECT__39
10
0
20
0
30
0
70
128
71
17
72
18
73
19
0
VERTEX
8
OBJECT__39
10
0
20
0
30
0
70
128
71
18
72
17
73
13
0
VERTEX
8
OBJECT__39
10
0
20
0
30
0
70
128
71
20
72
4
73
2
0
VERTEX
8
OBJECT__39
10
0
20
0
30
0
70
128
71
17
72
21
73
22
0
VERTEX
8
OBJECT__39
10
0
20
0
30
0
70
128
71
3
72
23
73
14
0
VERTEX
8
OBJECT__39
10
0
20
0
30
0
70
128
71
15
72
24
73
16
0
VERTEX
8
OBJECT__39
10
0
20
0
30
0
70
128
71
25
72
26
73
27
0
VERTEX
8
OBJECT__39
10
0
20
0
30
0
70
128
71
10
72
28
73
6
0
VERTEX
8
OBJECT__39
10
0
20
0
30
0
70
128
71
13
72
8
73
18
0
VERTEX
8
OBJECT__39
10
0
20
0
30
0
70
128
71
22
72
20
73
17
0
VERTEX
8
OBJECT__39
10
0
20
0
30
0
70
128
71
16
72
23
73
3
0
VERTEX
8
OBJECT__39
10
0
20
0
30
0
70
128
71
25
72
6
73
26
0
VERTEX
8
OBJECT__39
10
0
20
0
30
0
70
128
71
19
72
21
73
17
0
VERTEX
8
OBJECT__39
10
0
20
0
30
0
70
128
71
3
72
12
73
1
0
VERTEX
8
OBJECT__39
10
0
20
0
30
0
70
128
71
6
72
29
73
26
0
VERTEX
8
OBJECT__39
10
0
20
0
30
0
70
128
71
2
72
17
73
20
0
VERTEX
8
OBJECT__39
10
0
20
0
30
0
70
128
71
28
72
29
73
6
0
VERTEX
8
OBJECT__39
10
0
20
0
30
0
70
128
71
27
72
30
73
25
0
SEQEND
8
OBJECT__39
0
POLYLINE
8
OBJECT__40
66
1
70
64
71
6
72
4
62
253
0
VERTEX
8
OBJECT__40
10
-7.990000
20
6.812000
30
10.000000
70
192
0
VERTEX
8
OBJECT__40
10
-7.990000
20
6.812000
30
15.000000
70
192
0
VERTEX
8
OBJECT__40
10
-10.500000
20
0.000000
30
15.000000
70
192
0
VERTEX
8
OBJECT__40
10
-1.750000
20
10.353000
30
10.000000
70
192
0
VERTEX
8
OBJECT__40
10
-1.748000
20
10.353000
30
15.000000
70
192
0
VERTEX
8
OBJECT__40
10
-10.500000
20
0.000000
30
10.000000
70
192
0
VERTEX
8
OBJECT__40
10
0
20
0
30
0
70
128
71
1
72
2
73
3
0
VERTEX
8
OBJECT__40
10
0
20
0
30
0
70
128
71
2
72
1
73
4
0
VERTEX
8
OBJECT__40
10
0
20
0
30
0
70
128
71
4
72
5
73
2
0
VERTEX
8
OBJECT__40
10
0
20
0
30
0
70
128
71
3
72
6
73
1
0
SEQEND
8
OBJECT__40
0
POLYLINE
8
OBJECT__41
66
1
70
64
71
7
72
5
62
253
0
VERTEX
8
OBJECT__41
10
-7.990000
20
-6.812000
30
10.000000
70
192
0
VERTEX
8
OBJECT__41
10
-10.500000
20
0.000000
30
10.000000
70
192
0
VERTEX
8
OBJECT__41
10
-10.500000
20
0.000000
30
15.000000
70
192
0
VERTEX
8
OBJECT__41
10
-7.990000
20
-6.812000
30
15.000000
70
192
0
VERTEX
8
OBJECT__41
10
-1.748000
20
-10.353000
30
15.000000
70
192
0
VERTEX
8
OBJECT__41
10
-1.750000
20
-10.353000
30
10.500000
70
192
0
VERTEX
8
OBJECT__41
10
-1.750000
20
-10.353000
30
10.001000
70
192
0
VERTEX
8
OBJECT__41
10
0
20
0
30
0
70
128
71
1
72
2
73
3
0
VERTEX
8
OBJECT__41
10
0
20
0
30
0
70
128
71
4
72
5
73
6
0
VERTEX
8
OBJECT__41
10
0
20
0
30
0
70
128
71
6
72
1
73
4
0
VERTEX
8
OBJECT__41
10
0
20
0
30
0
70
128
71
6
72
7
73
1
0
VERTEX
8
OBJECT__41
10
0
20
0
30
0
70
128
71
3
72
4
73
1
0
SEQEND
8
OBJECT__41
0
POLYLINE
8
OBJECT__42
66
1
70
64
71
5
72
3
62
253
0
VERTEX
8
OBJECT__42
10
-0.250000
20
-11.502000
30
10.300000
70
192
0
VERTEX
8
OBJECT__42
10
-0.550000
20
-11.502000
30
10.000000
70
192
0
VERTEX
8
OBJECT__42
10
-0.484000
20
-11.105000
30
10.007000
70
192
0
VERTEX
8
OBJECT__42
10
-0.550000
20
-11.102000
30
10.000000
70
192
0
VERTEX
8
OBJECT__42
10
-0.250000
20
-11.113000
30
10.300000
70
192
0
VERTEX
8
OBJECT__42
10
0
20
0
30
0
70
128
71
1
72
2
73
3
0
VERTEX
8
OBJECT__42
10
0
20
0
30
0
70
128
71
2
72
4
73
3
0
VERTEX
8
OBJECT__42
10
0
20
0
30
0
70
128
71
3
72
5
73
1
0
SEQEND
8
OBJECT__42
0
POLYLINE
8
OBJECT__43
66
1
70
64
71
7
72
5
62
253
0
VERTEX
8
OBJECT__43
10
-0.560000
20
-11.856000
30
10.146000
70
192
0
VERTEX
8
OBJECT__43
10
-0.250000
20
-11.644000
30
10.359000
70
192
0
VERTEX
8
OBJECT__43
10
-0.250000
20
-11.702000
30
10.500000
70
192
0
VERTEX
8
OBJECT__43
10
-0.343000
20
-11.919000
30
10.500000
70
192
0
VERTEX
8
OBJECT__43
10
-0.550000
20
-11.502000
30
10.000000
70
192
0
VERTEX
8
OBJECT__43
10
-0.250000
20
-11.502000
30
10.300000
70
192
0
VERTEX
8
OBJECT__43
10
-0.564000
20
-12.002000
30
10.500000
70
192
0
VERTEX
8
OBJECT__43
10
0
20
0
30
0
70
128
71
1
72
2
73
3
0
VERTEX
8
OBJECT__43
10
0
20
0
30
0
70
128
71
3
72
4
73
1
0
VERTEX
8
OBJECT__43
10
0
20
0
30
0
70
128
71
1
72
5
73
6
0
VERTEX
8
OBJECT__43
10
0
20
0
30
0
70
128
71
6
72
2
73
1
0
VERTEX
8
OBJECT__43
10
0
20
0
30
0
70
128
71
4
72
7
73
1
0
SEQEND
8
OBJECT__43
0
POLYLINE
8
OBJECT__44
66
1
70
64
71
5
72
3
62
253
0
VERTEX
8
OBJECT__44
10
-0.550000
20
11.502000
30
10.000000
70
192
0
VERTEX
8
OBJECT__44
10
-0.250000
20
11.502000
30
10.300000
70
192
0
VERTEX
8
OBJECT__44
10
-0.257000
20
11.112000
30
10.234000
70
192
0
VERTEX
8
OBJECT__44
10
-0.250000
20
11.113000
30
10.300000
70
192
0
VERTEX
8
OBJECT__44
10
-0.550000
20
11.102000
30
10.000000
70
192
0
VERTEX
8
OBJECT__44
10
0
20
0
30
0
70
128
71
1
72
2
73
3
0
VERTEX
8
OBJECT__44
10
0
20
0
30
0
70
128
71
2
72
4
73
3
0
VERTEX
8
OBJECT__44
10
0
20
0
30
0
70
128
71
3
72
5
73
1
0
SEQEND
8
OBJECT__44
0
POLYLINE
8
OBJECT__45
66
1
70
64
71
36
72
34
62
253
0
VERTEX
8
OBJECT__45
10
-4.417000
20
-10.768000
30
10.500000
70
192
0
VERTEX
8
OBJECT__45
10
-4.459000
20
-10.065000
30
10.000000
70
192
0
VERTEX
8
OBJECT__45
10
-0.550000
20
-11.502000
30
10.000000
70
192
0
VERTEX
8
OBJECT__45
10
-0.560000
20
-11.856000
30
10.146000
70
192
0
VERTEX
8
OBJECT__45
10
-0.564000
20
-12.002000
30
10.500000
70
192
0
VERTEX
8
OBJECT__45
10
-4.730000
20
-10.668000
30
10.500000
70
192
0
VERTEX
8
OBJECT__45
10
-6.514000
20
-10.096000
30
10.500000
70
192
0
VERTEX
8
OBJECT__45
10
-8.216000
20
-8.314000
30
10.500000
70
192
0
VERTEX
8
OBJECT__45
10
-7.947000
20
-7.809000
30
10.000000
70
192
0
VERTEX
8
OBJECT__45
10
-7.033000
20
-9.118000
30
10.000000
70
192
0
VERTEX
8
OBJECT__45
10
-8.377000
20
-8.145000
30
10.500000
70
192
0
VERTEX
8
OBJECT__45
10
-10.387000
20
-6.039000
30
10.500000
70
192
0
VERTEX
8
OBJECT__45
10
-10.469000
20
-4.194000
30
10.000000
70
192
0
VERTEX
8
OBJECT__45
10
-10.785000
20
-4.565000
30
10.500000
70
192
0
VERTEX
8
OBJECT__45
10
-12.006000
20
-0.038000
30
10.500000
70
192
0
VERTEX
8
OBJECT__45
10
-10.985000
20
-0.006000
30
10.000000
70
192
0
VERTEX
8
OBJECT__45
10
-10.985000
20
-3.454000
30
10.000000
70
192
0
VERTEX
8
OBJECT__45
10
-10.819000
20
-4.437000
30
10.500000
70
192
0
VERTEX
8
OBJECT__45
10
-12.015000
20
-0.006000
30
10.500000
70
192
0
VERTEX
8
OBJECT__45
10
-12.015000
20
-0.005000
30
10.500000
70
192
0
VERTEX
8
OBJECT__45
10
-10.829000
20
4.430000
30
10.500000
70
192
0
VERTEX
8
OBJECT__45
10
-10.985000
20
3.454000
30
10.000000
70
192
0
VERTEX
8
OBJECT__45
10
-10.474000
20
4.186000
30
10.000000
70
192
0
VERTEX
8
OBJECT__45
10
-7.950000
20
7.804000
30
10.000000
70
192
0
VERTEX
8
OBJECT__45
10
-10.408000
20
6.004000
30
10.500000
70
192
0
VERTEX
8
OBJECT__45
10
-10.813000
20
4.490000
30
10.500000
70
192
0
VERTEX
8
OBJECT__45
10
-8.267000
20
8.249000
30
10.500000
70
192
0
VERTEX
8
OBJECT__45
10
-6.490000
20
10.112000
30
10.500000
70
192
0
VERTEX
8
OBJECT__45
10
-7.033000
20
9.118000
30
10.000000
70
192
0
VERTEX
8
OBJECT__45
10
-8.375000
20
8.135000
30
10.500000
70
192
0
VERTEX
8
OBJECT__45
10
-4.460000
20
10.064000
30
10.000000
70
192
0
VERTEX
8
OBJECT__45
10
-4.733000
20
10.672000
30
10.500000
70
192
0
VERTEX
8
OBJECT__45
10
-4.496000
20
10.748000
30
10.500000
70
192
0
VERTEX
8
OBJECT__45
10
-0.560000
20
11.856000
30
10.147000
70
192
0
VERTEX
8
OBJECT__45
10
-0.550000
20
11.502000
30
10.000000
70
192
0
VERTEX
8
OBJECT__45
10
-0.564000
20
12.002000
30
10.500000
70
192
0
VERTEX
8
OBJECT__45
10
0
20
0
30
0
70
128
71
1
72
2
73
3
0
VERTEX
8
OBJECT__45
10
0
20
0
30
0
70
128
71
3
72
4
73
1
0
VERTEX
8
OBJECT__45
10
0
20
0
30
0
70
128
71
4
72
5
73
1
0
VERTEX
8
OBJECT__45
10
0
20
0
30
0
70
128
71
2
72
6
73
7
0
VERTEX
8
OBJECT__45
10
0
20
0
30
0
70
128
71
8
72
9
73
10
0
VERTEX
8
OBJECT__45
10
0
20
0
30
0
70
128
71
10
72
7
73
8
0
VERTEX
8
OBJECT__45
10
0
20
0
30
0
70
128
71
8
72
11
73
9
0
VERTEX
8
OBJECT__45
10
0
20
0
30
0
70
128
71
9
72
11
73
12
0
VERTEX
8
OBJECT__45
10
0
20
0
30
0
70
128
71
12
72
13
73
9
0
VERTEX
8
OBJECT__45
10
0
20
0
30
0
70
128
71
12
72
14
73
13
0
VERTEX
8
OBJECT__45
10
0
20
0
30
0
70
128
71
15
72
16
73
17
0
VERTEX
8
OBJECT__45
10
0
20
0
30
0
70
128
71
17
72
18
73
15
0
VERTEX
8
OBJECT__45
10
0
20
0
30
0
70
128
71
15
72
19
73
16
0
VERTEX
8
OBJECT__45
10
0
20
0
30
0
70
128
71
16
72
19
73
20
0
VERTEX
8
OBJECT__45
10
0
20
0
30
0
70
128
71
20
72
21
73
22
0
VERTEX
8
OBJECT__45
10
0
20
0
30
0
70
128
71
21
72
23
73
22
0
VERTEX
8
OBJECT__45
10
0
20
0
30
0
70
128
71
24
72
23
73
25
0
VERTEX
8
OBJECT__45
10
0
20
0
30
0
70
128
71
23
72
26
73
25
0
VERTEX
8
OBJECT__45
10
0
20
0
30
0
70
128
71
23
72
21
73
26
0
VERTEX
8
OBJECT__45
10
0
20
0
30
0
70
128
71
27
72
28
73
29
0
VERTEX
8
OBJECT__45
10
0
20
0
30
0
70
128
71
24
72
30
73
27
0
VERTEX
8
OBJECT__45
10
0
20
0
30
0
70
128
71
31
72
29
73
28
0
VERTEX
8
OBJECT__45
10
0
20
0
30
0
70
128
71
28
72
32
73
31
0
VERTEX
8
OBJECT__45
10
0
20
0
30
0
70
128
71
33
72
34
73
35
0
VERTEX
8
OBJECT__45
10
0
20
0
30
0
70
128
71
33
72
36
73
34
0
VERTEX
8
OBJECT__45
10
0
20
0
30
0
70
128
71
31
72
32
73
33
0
VERTEX
8
OBJECT__45
10
0
20
0
30
0
70
128
71
35
72
31
73
33
0
VERTEX
8
OBJECT__45
10
0
20
0
30
0
70
128
71
29
72
24
73
27
0
VERTEX
8
OBJECT__45
10
0
20
0
30
0
70
128
71
25
72
30
73
24
0
VERTEX
8
OBJECT__45
10
0
20
0
30
0
70
128
71
20
72
22
73
16
0
VERTEX
8
OBJECT__45
10
0
20
0
30
0
70
128
71
17
72
13
73
18
0
VERTEX
8
OBJECT__45
10
0
20
0
30
0
70
128
71
14
72
18
73
13
0
VERTEX
8
OBJECT__45
10
0
20
0
30
0
70
128
71
7
72
10
73
2
0
VERTEX
8
OBJECT__45
10
0
20
0
30
0
70
128
71
1
72
6
73
2
0
SEQEND
8
OBJECT__45
0
POLYLINE
8
OBJECT__46
66
1
70
64
71
6
72
4
62
253
0
VERTEX
8
OBJECT__46
10
-0.550000
20
11.502000
30
10.000000
70
192
0
VERTEX
8
OBJECT__46
10
-0.343000
20
11.919000
30
10.500000
70
192
0
VERTEX
8
OBJECT__46
10
-0.250000
20
11.702000
30
10.500000
70
192
0
VERTEX
8
OBJECT__46
10
-0.560000
20
11.856000
30
10.147000
70
192
0
VERTEX
8
OBJECT__46
10
-0.564000
20
12.002000
30
10.500000
70
192
0
VERTEX
8
OBJECT__46
10
-0.250000
20
11.502000
30
10.300000
70
192
0
VERTEX
8
OBJECT__46
10
0
20
0
30
0
70
128
71
1
72
2
73
3
0
VERTEX
8
OBJECT__46
10
0
20
0
30
0
70
128
71
2
72
1
73
4
0
VERTEX
8
OBJECT__46
10
0
20
0
30
0
70
128
71
4
72
5
73
2
0
VERTEX
8
OBJECT__46
10
0
20
0
30
0
70
128
71
3
72
6
73
1
0
SEQEND
8
OBJECT__46
0
POLYLINE
8
OBJECT__47
66
1
70
64
71
39
72
37
62
253
0
VERTEX
8
OBJECT__47
10
35.276001
20
23.639000
30
228.615997
70
192
0
VERTEX
8
OBJECT__47
10
35.369999
20
23.417999
30
228.591003
70
192
0
VERTEX
8
OBJECT__47
10
26.898001
20
21.944000
30
207.755005
70
192
0
VERTEX
8
OBJECT__47
10
24.907000
20
21.875000
30
202.707993
70
192
0
VERTEX
8
OBJECT__47
10
35.063000
20
23.716999
30
228.699997
70
192
0
VERTEX
8
OBJECT__47
10
15.764000
20
20.009001
30
176.373993
70
192
0
VERTEX
8
OBJECT__47
10
19.923000
20
20.972000
30
189.955994
70
192
0
VERTEX
8
OBJECT__47
10
18.566000
20
20.264000
30
184.126999
70
192
0
VERTEX
8
OBJECT__47
10
25.101999
20
21.582001
30
202.662003
70
192
0
VERTEX
8
OBJECT__47
10
24.643000
20
21.827000
30
202.033005
70
192
0
VERTEX
8
OBJECT__47
10
15.829000
20
19.712000
30
176.365997
70
192
0
VERTEX
8
OBJECT__47
10
8.665000
20
17.816999
30
149.455994
70
192
0
VERTEX
8
OBJECT__47
10
8.964000
20
18.329000
30
152.550995
70
192
0
VERTEX
8
OBJECT__47
10
9.885000
20
18.648001
30
157.181000
70
192
0
VERTEX
8
OBJECT__47
10
15.272000
20
19.895000
30
174.768997
70
192
0
VERTEX
8
OBJECT__47
10
14.661000
20
19.476000
30
173.054001
70
192
0
VERTEX
8
OBJECT__47
10
8.360000
20
18.121000
30
149.518997
70
192
0
VERTEX
8
OBJECT__47
10
3.969000
20
15.980000
30
122.028000
70
192
0
VERTEX
8
OBJECT__47
10
3.527000
20
16.278999
30
122.077003
70
192
0
VERTEX
8
OBJECT__47
10
4.175000
20
16.674999
30
128.494995
70
192
0
VERTEX
8
OBJECT__47
10
5.133000
20
17.006001
30
133.307999
70
192
0
VERTEX
8
OBJECT__47
10
6.878000
20
17.323000
30
142.425003
70
192
0
VERTEX
8
OBJECT__47
10
8.443000
20
17.756001
30
148.585007
70
192
0
VERTEX
8
OBJECT__47
10
1.381000
20
14.349000
30
94.286003
70
192
0
VERTEX
8
OBJECT__47
10
0.778000
20
14.579000
30
94.309998
70
192
0
VERTEX
8
OBJECT__47
10
0.798000
20
14.610000
30
95.018997
70
192
0
VERTEX
8
OBJECT__47
10
1.270000
20
14.899000
30
99.698997
70
192
0
VERTEX
8
OBJECT__47
10
2.405000
20
15.258000
30
111.059998
70
192
0
VERTEX
8
OBJECT__47
10
2.312000
20
15.215000
30
110.411003
70
192
0
VERTEX
8
OBJECT__47
10
0.122000
20
13.055000
30
66.404999
70
192
0
VERTEX
8
OBJECT__47
10
-0.020000
20
13.353000
30
66.389000
70
192
0
VERTEX
8
OBJECT__47
10
0.096000
20
13.532000
30
70.456001
70
192
0
VERTEX
8
OBJECT__47
10
0.168000
20
13.221000
30
73.287003
70
192
0
VERTEX
8
OBJECT__47
10
-0.250000
20
11.702000
30
10.500000
70
192
0
VERTEX
8
OBJECT__47
10
-0.343000
20
11.919000
30
10.500000
70
192
0
VERTEX
8
OBJECT__47
10
-0.445000
20
12.701000
30
51.528000
70
192
0
VERTEX
8
OBJECT__47
10
0.091000
20
12.941000
30
61.723000
70
192
0
VERTEX
8
OBJECT__47
10
0.067000
20
12.855000
30
58.171001
70
192
0
VERTEX
8
OBJECT__47
10
-0.564000
20
12.002000
30
10.500000
70
192
0
VERTEX
8
OBJECT__47
10
0
20
0
30
0
70
128
71
1
72
2
73
3
0
VERTEX
8
OBJECT__47
10
0
20
0
30
0
70
128
71
4
72
5
73
1
0
VERTEX
8
OBJECT__47
10
0
20
0
30
0
70
128
71
3
72
4
73
1
0
VERTEX
8
OBJECT__47
10
0
20
0
30
0
70
128
71
6
72
7
73
8
0
VERTEX
8
OBJECT__47
10
0
20
0
30
0
70
128
71
9
72
8
73
7
0
VERTEX
8
OBJECT__47
10
0
20
0
30
0
70
128
71
7
72
10
73
9
0
VERTEX
8
OBJECT__47
10
0
20
0
30
0
70
128
71
8
72
11
73
6
0
VERTEX
8
OBJECT__47
10
0
20
0
30
0
70
128
71
12
72
13
73
14
0
VERTEX
8
OBJECT__47
10
0
20
0
30
0
70
128
71
14
72
15
73
16
0
VERTEX
8
OBJECT__47
10
0
20
0
30
0
70
128
71
12
72
17
73
13
0
VERTEX
8
OBJECT__47
10
0
20
0
30
0
70
128
71
11
72
16
73
15
0
VERTEX
8
OBJECT__47
10
0
20
0
30
0
70
128
71
15
72
6
73
11
0
VERTEX
8
OBJECT__47
10
0
20
0
30
0
70
128
71
18
72
19
73
20
0
VERTEX
8
OBJECT__47
10
0
20
0
30
0
70
128
71
20
72
21
73
18
0
VERTEX
8
OBJECT__47
10
0
20
0
30
0
70
128
71
21
72
17
73
22
0
VERTEX
8
OBJECT__47
10
0
20
0
30
0
70
128
71
17
72
12
73
23
0
VERTEX
8
OBJECT__47
10
0
20
0
30
0
70
128
71
23
72
22
73
17
0
VERTEX
8
OBJECT__47
10
0
20
0
30
0
70
128
71
24
72
25
73
26
0
VERTEX
8
OBJECT__47
10
0
20
0
30
0
70
128
71
26
72
27
73
24
0
VERTEX
8
OBJECT__47
10
0
20
0
30
0
70
128
71
19
72
28
73
29
0
VERTEX
8
OBJECT__47
10
0
20
0
30
0
70
128
71
19
72
18
73
28
0
VERTEX
8
OBJECT__47
10
0
20
0
30
0
70
128
71
29
72
27
73
19
0
VERTEX
8
OBJECT__47
10
0
20
0
30
0
70
128
71
30
72
31
73
32
0
VERTEX
8
OBJECT__47
10
0
20
0
30
0
70
128
71
25
72
24
73
33
0
VERTEX
8
OBJECT__47
10
0
20
0
30
0
70
128
71
33
72
32
73
25
0
VERTEX
8
OBJECT__47
10
0
20
0
30
0
70
128
71
34
72
35
73
36
0
VERTEX
8
OBJECT__47
10
0
20
0
30
0
70
128
71
36
72
31
73
37
0
VERTEX
8
OBJECT__47
10
0
20
0
30
0
70
128
71
37
72
38
73
36
0
VERTEX
8
OBJECT__47
10
0
20
0
30
0
70
128
71
31
72
30
73
37
0
VERTEX
8
OBJECT__47
10
0
20
0
30
0
70
128
71
36
72
38
73
34
0
VERTEX
8
OBJECT__47
10
0
20
0
30
0
70
128
71
35
72
39
73
36
0
VERTEX
8
OBJECT__47
10
0
20
0
30
0
70
128
71
32
72
33
73
30
0
VERTEX
8
OBJECT__47
10
0
20
0
30
0
70
128
71
27
72
29
73
24
0
VERTEX
8
OBJECT__47
10
0
20
0
30
0
70
128
71
21
72
22
73
18
0
VERTEX
8
OBJECT__47
10
0
20
0
30
0
70
128
71
14
72
16
73
12
0
VERTEX
8
OBJECT__47
10
0
20
0
30
0
70
128
71
10
72
4
73
9
0
VERTEX
8
OBJECT__47
10
0
20
0
30
0
70
128
71
3
72
9
73
4
0
SEQEND
8
OBJECT__47
0
POLYLINE
8
OBJECT__48
66
1
70
64
71
38
72
36
62
253
0
VERTEX
8
OBJECT__48
10
25.101999
20
21.582001
30
202.662003
70
192
0
VERTEX
8
OBJECT__48
10
26.257000
20
21.239000
30
206.106003
70
192
0
VERTEX
8
OBJECT__48
10
19.517000
20
19.938000
30
187.839005
70
192
0
VERTEX
8
OBJECT__48
10
18.566000
20
20.264000
30
184.126999
70
192
0
VERTEX
8
OBJECT__48
10
26.898001
20
21.944000
30
207.755005
70
192
0
VERTEX
8
OBJECT__48
10
35.369999
20
23.417999
30
228.591003
70
192
0
VERTEX
8
OBJECT__48
10
33.521999
20
22.520000
30
224.171005
70
192
0
VERTEX
8
OBJECT__48
10
35.400002
20
22.837999
30
228.662003
70
192
0
VERTEX
8
OBJECT__48
10
8.665000
20
17.816999
30
149.455994
70
192
0
VERTEX
8
OBJECT__48
10
14.661000
20
19.476000
30
173.054001
70
192
0
VERTEX
8
OBJECT__48
10
13.533000
20
18.617001
30
169.307999
70
192
0
VERTEX
8
OBJECT__48
10
9.097000
20
17.438000
30
152.653000
70
192
0
VERTEX
8
OBJECT__48
10
8.230000
20
17.159000
30
148.641998
70
192
0
VERTEX
8
OBJECT__48
10
8.443000
20
17.756001
30
148.585007
70
192
0
VERTEX
8
OBJECT__48
10
8.591000
20
17.285000
30
150.470001
70
192
0
VERTEX
8
OBJECT__48
10
18.344000
20
19.679001
30
184.207001
70
192
0
VERTEX
8
OBJECT__48
10
15.829000
20
19.712000
30
176.365997
70
192
0
VERTEX
8
OBJECT__48
10
6.878000
20
17.323000
30
142.425003
70
192
0
VERTEX
8
OBJECT__48
10
5.356000
20
16.153000
30
134.061005
70
192
0
VERTEX
8
OBJECT__48
10
4.916000
20
15.969000
30
131.341003
70
192
0
VERTEX
8
OBJECT__48
10
3.969000
20
15.980000
30
122.028000
70
192
0
VERTEX
8
OBJECT__48
10
2.405000
20
15.258000
30
111.059998
70
192
0
VERTEX
8
OBJECT__48
10
3.556000
20
15.332000
30
121.699997
70
192
0
VERTEX
8
OBJECT__48
10
2.489000
20
14.671000
30
111.053001
70
192
0
VERTEX
8
OBJECT__48
10
2.312000
20
15.215000
30
110.411003
70
192
0
VERTEX
8
OBJECT__48
10
1.613000
20
14.129000
30
102.316002
70
192
0
VERTEX
8
OBJECT__48
10
1.381000
20
14.349000
30
94.286003
70
192
0
VERTEX
8
OBJECT__48
10
0.479000
20
13.073000
30
82.861000
70
192
0
VERTEX
8
OBJECT__48
10
0.168000
20
13.221000
30
73.287003
70
192
0
VERTEX
8
OBJECT__48
10
0.019000
20
12.189000
30
61.723000
70
192
0
VERTEX
8
OBJECT__48
10
0.122000
20
13.055000
30
66.404999
70
192
0
VERTEX
8
OBJECT__48
10
0.091000
20
12.941000
30
61.723000
70
192
0
VERTEX
8
OBJECT__48
10
0.067000
20
12.855000
30
58.171001
70
192
0
VERTEX
8
OBJECT__48
10
-0.250000
20
11.702000
30
10.500000
70
192
0
VERTEX
8
OBJECT__48
10
-0.162000
20
11.666000
30
46.713001
70
192
0
VERTEX
8
OBJECT__48
10
-0.104000
20
11.951000
30
56.039001
70
192
0
VERTEX
8
OBJECT__48
10
-0.058000
20
12.041000
30
58.172001
70
192
0
VERTEX
8
OBJECT__48
10
-0.250000
20
11.113000
30
10.500000
70
192
0
VERTEX
8
OBJECT__48
10
0
20
0
30
0
70
128
71
1
72
2
73
3
0
VERTEX
8
OBJECT__48
10
0
20
0
30
0
70
128
71
3
72
4
73
1
0
VERTEX
8
OBJECT__48
10
0
20
0
30
0
70
128
71
5
72
6
73
7
0
VERTEX
8
OBJECT__48
10
0
20
0
30
0
70
128
71
6
72
8
73
7
0
VERTEX
8
OBJECT__48
10
0
20
0
30
0
70
128
71
7
72
2
73
5
0
VERTEX
8
OBJECT__48
10
0
20
0
30
0
70
128
71
1
72
5
73
2
0
VERTEX
8
OBJECT__48
10
0
20
0
30
0
70
128
71
9
72
10
73
11
0
VERTEX
8
OBJECT__48
10
0
20
0
30
0
70
128
71
11
72
12
73
9
0
VERTEX
8
OBJECT__48
10
0
20
0
30
0
70
128
71
13
72
14
73
9
0
VERTEX
8
OBJECT__48
10
0
20
0
30
0
70
128
71
9
72
15
73
13
0
VERTEX
8
OBJECT__48
10
0
20
0
30
0
70
128
71
16
72
11
73
17
0
VERTEX
8
OBJECT__48
10
0
20
0
30
0
70
128
71
11
72
10
73
17
0
VERTEX
8
OBJECT__48
10
0
20
0
30
0
70
128
71
17
72
4
73
16
0
VERTEX
8
OBJECT__48
10
0
20
0
30
0
70
128
71
18
72
19
73
20
0
VERTEX
8
OBJECT__48
10
0
20
0
30
0
70
128
71
18
72
13
73
19
0
VERTEX
8
OBJECT__48
10
0
20
0
30
0
70
128
71
20
72
21
73
18
0
VERTEX
8
OBJECT__48
10
0
20
0
30
0
70
128
71
22
72
21
73
23
0
VERTEX
8
OBJECT__48
10
0
20
0
30
0
70
128
71
23
72
24
73
22
0
VERTEX
8
OBJECT__48
10
0
20
0
30
0
70
128
71
20
72
23
73
21
0
VERTEX
8
OBJECT__48
10
0
20
0
30
0
70
128
71
25
72
24
73
26
0
VERTEX
8
OBJECT__48
10
0
20
0
30
0
70
128
71
27
72
26
73
28
0
VERTEX
8
OBJECT__48
10
0
20
0
30
0
70
128
71
28
72
29
73
27
0
VERTEX
8
OBJECT__48
10
0
20
0
30
0
70
128
71
26
72
27
73
25
0
VERTEX
8
OBJECT__48
10
0
20
0
30
0
70
128
71
30
72
31
73
29
0
VERTEX
8
OBJECT__48
10
0
20
0
30
0
70
128
71
30
72
32
73
31
0
VERTEX
8
OBJECT__48
10
0
20
0
30
0
70
128
71
29
72
28
73
30
0
VERTEX
8
OBJECT__48
10
0
20
0
30
0
70
128
71
33
72
32
73
30
0
VERTEX
8
OBJECT__48
10
0
20
0
30
0
70
128
71
34
72
33
73
35
0
VERTEX
8
OBJECT__48
10
0
20
0
30
0
70
128
71
33
72
36
73
35
0
VERTEX
8
OBJECT__48
10
0
20
0
30
0
70
128
71
33
72
37
73
36
0
VERTEX
8
OBJECT__48
10
0
20
0
30
0
70
128
71
35
72
38
73
34
0
VERTEX
8
OBJECT__48
10
0
20
0
30
0
70
128
71
30
72
37
73
33
0
VERTEX
8
OBJECT__48
10
0
20
0
30
0
70
128
71
25
72
22
73
24
0
VERTEX
8
OBJECT__48
10
0
20
0
30
0
70
128
71
18
72
14
73
13
0
VERTEX
8
OBJECT__48
10
0
20
0
30
0
70
128
71
12
72
15
73
9
0
VERTEX
8
OBJECT__48
10
0
20
0
30
0
70
128
71
3
72
16
73
4
0
SEQEND
8
OBJECT__48
0
POLYLINE
8
OBJECT__49
66
1
70
64
71
8
72
6
62
253
0
VERTEX
8
OBJECT__49
10
35.132999
20
23.650999
30
229.548004
70
192
0
VERTEX
8
OBJECT__49
10
35.439999
20
23.452999
30
229.113998
70
192
0
VERTEX
8
OBJECT__49
10
35.105999
20
23.730000
30
229.074005
70
192
0
VERTEX
8
OBJECT__49
10
34.952000
20
23.711000
30
229.417999
70
192
0
VERTEX
8
OBJECT__49
10
35.276001
20
23.639000
30
228.615997
70
192
0
VERTEX
8
OBJECT__49
10
35.063000
20
23.716999
30
228.699997
70
192
0
VERTEX
8
OBJECT__49
10
35.369999
20
23.417999
30
228.591003
70
192
0
VERTEX
8
OBJECT__49
10
35.236000
20
23.450001
30
229.600998
70
192
0
VERTEX
8
OBJECT__49
10
0
20
0
30
0
70
128
71
1
72
2
73
3
0
VERTEX
8
OBJECT__49
10
0
20
0
30
0
70
128
71
3
72
4
73
1
0
VERTEX
8
OBJECT__49
10
0
20
0
30
0
70
128
71
2
72
5
73
6
0
VERTEX
8
OBJECT__49
10
0
20
0
30
0
70
128
71
2
72
7
73
5
0
VERTEX
8
OBJECT__49
10
0
20
0
30
0
70
128
71
6
72
3
73
2
0
VERTEX
8
OBJECT__49
10
0
20
0
30
0
70
128
71
1
72
8
73
2
0
SEQEND
8
OBJECT__49
0
POLYLINE
8
OBJECT__50
66
1
70
64
71
121
72
158
62
253
0
VERTEX
8
OBJECT__50
10
19.591999
20
-15.159000
30
203.919998
70
192
0
VERTEX
8
OBJECT__50
10
9.904000
20
-14.412000
30
176.421997
70
192
0
VERTEX
8
OBJECT__50
10
11.243000
20
-18.809999
30
176.042999
70
192
0
VERTEX
8
OBJECT__50
10
3.495000
20
-13.613000
30
153.972000
70
192
0
VERTEX
8
OBJECT__50
10
5.077000
20
-17.587000
30
153.593002
70
192
0
VERTEX
8
OBJECT__50
10
-0.707000
20
-12.804000
30
134.600998
70
192
0
VERTEX
8
OBJECT__50
10
1.131000
20
-16.472000
30
134.235001
70
192
0
VERTEX
8
OBJECT__50
10
8.961000
20
-0.070000
30
176.669006
70
192
0
VERTEX
8
OBJECT__50
10
2.273000
20
-0.066000
30
154.246994
70
192
0
VERTEX
8
OBJECT__50
10
18.954000
20
-0.073000
30
204.108002
70
192
0
VERTEX
8
OBJECT__50
10
-1.778000
20
-6.965000
30
134.802002
70
192
0
VERTEX
8
OBJECT__50
10
-2.206000
20
-0.063000
30
134.882004
70
192
0
VERTEX
8
OBJECT__50
10
-6.794000
20
-6.139000
30
100.825996
70
192
0
VERTEX
8
OBJECT__50
10
-5.311000
20
-11.287000
30
100.651001
70
192
0
VERTEX
8
OBJECT__50
10
-2.912000
20
-14.499000
30
100.350998
70
192
0
VERTEX
8
OBJECT__50
10
-7.215000
20
-10.060000
30
71.053001
70
192
0
VERTEX
8
OBJECT__50
10
-4.255000
20
-12.955000
30
70.847000
70
192
0
VERTEX
8
OBJECT__50
10
-9.107000
20
-5.471000
30
71.177002
70
192
0
VERTEX
8
OBJECT__50
10
-7.389000
20
-0.056000
30
100.896004
70
192
0
VERTEX
8
OBJECT__50
10
-9.850000
20
-0.050000
30
71.227997
70
192
0
VERTEX
8
OBJECT__50
10
-1.791000
20
6.852000
30
134.804993
70
192
0
VERTEX
8
OBJECT__50
10
-6.812000
20
6.039000
30
100.828003
70
192
0
VERTEX
8
OBJECT__50
10
9.889000
20
14.312000
30
176.425995
70
192
0
VERTEX
8
OBJECT__50
10
3.476000
20
13.521000
30
153.975998
70
192
0
VERTEX
8
OBJECT__50
10
19.580999
20
15.051000
30
203.923004
70
192
0
VERTEX
8
OBJECT__50
10
-0.731000
20
12.717000
30
134.604996
70
192
0
VERTEX
8
OBJECT__50
10
-5.344000
20
11.210000
30
100.654999
70
192
0
VERTEX
8
OBJECT__50
10
-9.130000
20
5.382000
30
71.179001
70
192
0
VERTEX
8
OBJECT__50
10
-7.257000
20
9.993000
30
71.056000
70
192
0
VERTEX
8
OBJECT__50
10
1.074000
20
16.443001
30
134.248001
70
192
0
VERTEX
8
OBJECT__50
10
-2.975000
20
14.475000
30
100.360001
70
192
0
VERTEX
8
OBJECT__50
10
11.192000
20
18.766001
30
176.057999
70
192
0
VERTEX
8
OBJECT__50
10
5.023000
20
17.552000
30
153.606995
70
192
0
VERTEX
8
OBJECT__50
10
20.638000
20
20.138000
30
203.567001
70
192
0
VERTEX
8
OBJECT__50
10
22.506001
20
21.389999
30
202.869995
70
192
0
VERTEX
8
OBJECT__50
10
13.102000
20
19.621000
30
175.462006
70
192
0
VERTEX
8
OBJECT__50
10
-4.324000
20
12.931000
30
70.852997
70
192
0
VERTEX
8
OBJECT__50
10
-0.139000
20
-13.518000
30
73.228996
70
192
0
VERTEX
8
OBJECT__50
10
1.076000
20
-14.648000
30
94.285004
70
192
0
VERTEX
8
OBJECT__50
10
-0.158000
20
-13.452000
30
70.470001
70
192
0
VERTEX
8
OBJECT__50
10
2.007000
20
-15.514000
30
110.413002
70
192
0
VERTEX
8
OBJECT__50
10
3.664000
20
-16.278999
30
122.042999
70
192
0
VERTEX
8
OBJECT__50
10
1.389000
20
-14.939000
30
99.697998
70
192
0
VERTEX
8
OBJECT__50
10
6.573000
20
-17.622000
30
142.464005
70
192
0
VERTEX
8
OBJECT__50
10
8.361000
20
-18.117001
30
149.505997
70
192
0
VERTEX
8
OBJECT__50
10
5.268000
20
-17.018999
30
133.300003
70
192
0
VERTEX
8
OBJECT__50
10
9.121000
20
-18.327000
30
152.500000
70
192
0
VERTEX
8
OBJECT__50
10
14.360000
20
-19.775999
30
173.141006
70
192
0
VERTEX
8
OBJECT__50
10
22.582001
20
-21.419001
30
202.841003
70
192
0
VERTEX
8
OBJECT__50
10
15.525000
20
-20.011000
30
176.447998
70
192
0
VERTEX
8
OBJECT__50
10
24.554001
20
-21.832001
30
202.072998
70
192
0
VERTEX
8
OBJECT__50
10
14.965000
20
-19.898001
30
174.860001
70
192
0
VERTEX
8
OBJECT__50
10
34.952000
20
-23.711000
30
229.417999
70
192
0
VERTEX
8
OBJECT__50
10
26.589001
20
-22.242001
30
207.848999
70
192
0
VERTEX
8
OBJECT__50
10
35.063999
20
-23.716999
30
228.699997
70
192
0
VERTEX
8
OBJECT__50
10
35.105999
20
-23.730000
30
229.074005
70
192
0
VERTEX
8
OBJECT__50
10
24.796000
20
-21.881001
30
202.761002
70
192
0
VERTEX
8
OBJECT__50
10
20.684999
20
-20.195999
30
203.550003
70
192
0
VERTEX
8
OBJECT__50
10
33.058998
20
-22.451000
30
231.957993
70
192
0
VERTEX
8
OBJECT__50
10
32.673000
20
-22.194000
30
232.475006
70
192
0
VERTEX
8
OBJECT__50
10
33.806999
20
-22.950001
30
230.953003
70
192
0
VERTEX
8
OBJECT__50
10
32.098999
20
-19.733000
30
233.554001
70
192
0
VERTEX
8
OBJECT__50
10
31.915001
20
-18.943001
30
233.899994
70
192
0
VERTEX
8
OBJECT__50
10
32.504002
20
-21.469000
30
232.792999
70
192
0
VERTEX
8
OBJECT__50
10
31.927000
20
-13.214000
30
234.427994
70
192
0
VERTEX
8
OBJECT__50
10
31.945000
20
-4.476000
30
235.235001
70
192
0
VERTEX
8
OBJECT__50
10
31.921000
20
-15.728000
30
234.197006
70
192
0
VERTEX
8
OBJECT__50
10
31.908001
20
13.264000
30
234.634995
70
192
0
VERTEX
8
OBJECT__50
10
31.908001
20
13.455000
30
234.628998
70
192
0
VERTEX
8
OBJECT__50
10
31.934999
20
0.003000
30
235.082993
70
192
0
VERTEX
8
OBJECT__50
10
31.934999
20
-0.076000
30
235.085999
70
192
0
VERTEX
8
OBJECT__50
10
32.146000
20
19.742001
30
233.494003
70
192
0
VERTEX
8
OBJECT__50
10
32.484001
20
21.398001
30
232.828995
70
192
0
VERTEX
8
OBJECT__50
10
31.908001
20
15.616000
30
234.348007
70
192
0
VERTEX
8
OBJECT__50
10
31.909000
20
18.575001
30
233.962997
70
192
0
VERTEX
8
OBJECT__50
10
33.069000
20
22.469000
30
231.940994
70
192
0
VERTEX
8
OBJECT__50
10
33.731998
20
22.976000
30
231.041000
70
192
0
VERTEX
8
OBJECT__50
10
32.633999
20
22.136000
30
232.531998
70
192
0
VERTEX
8
OBJECT__50
10
34.952000
20
23.711000
30
229.417999
70
192
0
VERTEX
8
OBJECT__50
10
35.063000
20
23.716999
30
228.699997
70
192
0
VERTEX
8
OBJECT__50
10
35.105999
20
23.730000
30
229.074005
70
192
0
VERTEX
8
OBJECT__50
10
34.577999
20
23.622999
30
229.891006
70
192
0
VERTEX
8
OBJECT__50
10
24.907000
20
21.875000
30
202.707993
70
192
0
VERTEX
8
OBJECT__50
10
19.923000
20
20.972000
30
189.955994
70
192
0
VERTEX
8
OBJECT__50
10
15.764000
20
20.009001
30
176.373993
70
192
0
VERTEX
8
OBJECT__50
10
24.643000
20
21.827000
30
202.033005
70
192
0
VERTEX
8
OBJECT__50
10
15.272000
20
19.895000
30
174.768997
70
192
0
VERTEX
8
OBJECT__50
10
9.885000
20
18.648001
30
157.181000
70
192
0
VERTEX
8
OBJECT__50
10
8.360000
20
18.121000
30
149.518997
70
192
0
VERTEX
8
OBJECT__50
10
8.964000
20
18.329000
30
152.550995
70
192
0
VERTEX
8
OBJECT__50
10
3.527000
20
16.278999
30
122.077003
70
192
0
VERTEX
8
OBJECT__50
10
4.175000
20
16.674999
30
128.494995
70
192
0
VERTEX
8
OBJECT__50
10
5.133000
20
17.006001
30
133.307999
70
192
0
VERTEX
8
OBJECT__50
10
0.778000
20
14.579000
30
94.309998
70
192
0
VERTEX
8
OBJECT__50
10
0.798000
20
14.610000
30
95.018997
70
192
0
VERTEX
8
OBJECT__50
10
1.270000
20
14.899000
30
99.698997
70
192
0
VERTEX
8
OBJECT__50
10
-4.496000
20
10.748000
30
10.500000
70
192
0
VERTEX
8
OBJECT__50
10
-0.445000
20
12.701000
30
51.528000
70
192
0
VERTEX
8
OBJECT__50
10
0.096000
20
13.532000
30
70.456001
70
192
0
VERTEX
8
OBJECT__50
10
-0.020000
20
13.353000
30
66.389000
70
192
0
VERTEX
8
OBJECT__50
10
-4.733000
20
10.672000
30
10.500000
70
192
0
VERTEX
8
OBJECT__50
10
-6.490000
20
10.112000
30
10.500000
70
192
0
VERTEX
8
OBJECT__50
10
-8.375000
20
8.135000
30
10.500000
70
192
0
VERTEX
8
OBJECT__50
10
-10.408000
20
6.004000
30
10.500000
70
192
0
VERTEX
8
OBJECT__50
10
-8.267000
20
8.249000
30
10.500000
70
192
0
VERTEX
8
OBJECT__50
10
-10.813000
20
4.490000
30
10.500000
70
192
0
VERTEX
8
OBJECT__50
10
-10.829000
20
4.430000
30
10.500000
70
192
0
VERTEX
8
OBJECT__50
10
-12.015000
20
-0.005000
30
10.500000
70
192
0
VERTEX
8
OBJECT__50
10
-12.015000
20
-0.006000
30
10.500000
70
192
0
VERTEX
8
OBJECT__50
10
-12.006000
20
-0.038000
30
10.500000
70
192
0
VERTEX
8
OBJECT__50
10
-10.819000
20
-4.437000
30
10.500000
70
192
0
VERTEX
8
OBJECT__50
10
-10.387000
20
-6.039000
30
10.500000
70
192
0
VERTEX
8
OBJECT__50
10
-8.377000
20
-8.145000
30
10.500000
70
192
0
VERTEX
8
OBJECT__50
10
-10.785000
20
-4.565000
30
10.500000
70
192
0
VERTEX
8
OBJECT__50
10
-6.514000
20
-10.096000
30
10.500000
70
192
0
VERTEX
8
OBJECT__50
10
-4.730000
20
-10.668000
30
10.500000
70
192
0
VERTEX
8
OBJECT__50
10
-8.216000
20
-8.314000
30
10.500000
70
192
0
VERTEX
8
OBJECT__50
10
-4.417000
20
-10.768000
30
10.500000
70
192
0
VERTEX
8
OBJECT__50
10
-0.564000
20
-12.002000
30
10.500000
70
192
0
VERTEX
8
OBJECT__50
10
-0.185000
20
-13.353000
30
66.397003
70
192
0
VERTEX
8
OBJECT__50
10
-0.564000
20
12.002000
30
10.500000
70
192
0
VERTEX
8
OBJECT__50
10
0
20
0
30
0
70
128
71
1
72
2
73
3
0
VERTEX
8
OBJECT__50
10
0
20
0
30
0
70
128
71
2
72
4
73
5
0
VERTEX
8
OBJECT__50
10
0
20
0
30
0
70
128
71
4
72
6
73
7
0
VERTEX
8
OBJECT__50
10
0
20
0
30
0
70
128
71
8
72
9
73
4
0
VERTEX
8
OBJECT__50
10
0
20
0
30
0
70
128
71
10
72
8
73
2
0
VERTEX
8
OBJECT__50
10
0
20
0
30
0
70
128
71
4
72
9
73
11
0
VERTEX
8
OBJECT__50
10
0
20
0
30
0
70
128
71
9
72
12
73
11
0
VERTEX
8
OBJECT__50
10
0
20
0
30
0
70
128
71
11
72
13
73
14
0
VERTEX
8
OBJECT__50
10
0
20
0
30
0
70
128
71
6
72
14
73
15
0
VERTEX
8
OBJECT__50
10
0
20
0
30
0
70
128
71
14
72
16
73
17
0
VERTEX
8
OBJECT__50
10
0
20
0
30
0
70
128
71
13
72
18
73
16
0
VERTEX
8
OBJECT__50
10
0
20
0
30
0
70
128
71
12
72
19
73
13
0
VERTEX
8
OBJECT__50
10
0
20
0
30
0
70
128
71
19
72
20
73
18
0
VERTEX
8
OBJECT__50
10
0
20
0
30
0
70
128
71
12
72
21
73
22
0
VERTEX
8
OBJECT__50
10
0
20
0
30
0
70
128
71
8
72
23
73
24
0
VERTEX
8
OBJECT__50
10
0
20
0
30
0
70
128
71
10
72
25
73
23
0
VERTEX
8
OBJECT__50
10
0
20
0
30
0
70
128
71
24
72
26
73
21
0
VERTEX
8
OBJECT__50
10
0
20
0
30
0
70
128
71
21
72
9
73
24
0
VERTEX
8
OBJECT__50
10
0
20
0
30
0
70
128
71
21
72
26
73
27
0
VERTEX
8
OBJECT__50
10
0
20
0
30
0
70
128
71
19
72
22
73
28
0
VERTEX
8
OBJECT__50
10
0
20
0
30
0
70
128
71
22
72
27
73
29
0
VERTEX
8
OBJECT__50
10
0
20
0
30
0
70
128
71
26
72
30
73
31
0
VERTEX
8
OBJECT__50
10
0
20
0
30
0
70
128
71
23
72
32
73
33
0
VERTEX
8
OBJECT__50
10
0
20
0
30
0
70
128
71
25
72
34
73
32
0
VERTEX
8
OBJECT__50
10
0
20
0
30
0
70
128
71
24
72
33
73
30
0
VERTEX
8
OBJECT__50
10
0
20
0
30
0
70
128
71
34
72
35
73
36
0
VERTEX
8
OBJECT__50
10
0
20
0
30
0
70
128
71
27
72
31
73
37
0
VERTEX
8
OBJECT__50
10
0
20
0
30
0
70
128
71
17
72
38
73
39
0
VERTEX
8
OBJECT__50
10
0
20
0
30
0
70
128
71
39
72
15
73
17
0
VERTEX
8
OBJECT__50
10
0
20
0
30
0
70
128
71
17
72
40
73
38
0
VERTEX
8
OBJECT__50
10
0
20
0
30
0
70
128
71
7
72
15
73
41
0
VERTEX
8
OBJECT__50
10
0
20
0
30
0
70
128
71
41
72
42
73
7
0
VERTEX
8
OBJECT__50
10
0
20
0
30
0
70
128
71
15
72
43
73
41
0
VERTEX
8
OBJECT__50
10
0
20
0
30
0
70
128
71
5
72
7
73
44
0
VERTEX
8
OBJECT__50
10
0
20
0
30
0
70
128
71
44
72
45
73
5
0
VERTEX
8
OBJECT__50
10
0
20
0
30
0
70
128
71
7
72
46
73
44
0
VERTEX
8
OBJECT__50
10
0
20
0
30
0
70
128
71
5
72
47
73
48
0
VERTEX
8
OBJECT__50
10
0
20
0
30
0
70
128
71
48
72
3
73
5
0
VERTEX
8
OBJECT__50
10
0
20
0
30
0
70
128
71
49
72
3
73
50
0
VERTEX
8
OBJECT__50
10
0
20
0
30
0
70
128
71
50
72
51
73
49
0
VERTEX
8
OBJECT__50
10
0
20
0
30
0
70
128
71
3
72
52
73
50
0
VERTEX
8
OBJECT__50
10
0
20
0
30
0
70
128
71
53
72
49
73
54
0
VERTEX
8
OBJECT__50
10
0
20
0
30
0
70
128
71
54
72
55
73
53
0
VERTEX
8
OBJECT__50
10
0
20
0
30
0
70
128
71
55
72
56
73
53
0
VERTEX
8
OBJECT__50
10
0
20
0
30
0
70
128
71
49
72
51
73
57
0
VERTEX
8
OBJECT__50
10
0
20
0
30
0
70
128
71
57
72
54
73
49
0
VERTEX
8
OBJECT__50
10
0
20
0
30
0
70
128
71
58
72
59
73
60
0
VERTEX
8
OBJECT__50
10
0
20
0
30
0
70
128
71
58
72
49
73
61
0
VERTEX
8
OBJECT__50
10
0
20
0
30
0
70
128
71
61
72
59
73
58
0
VERTEX
8
OBJECT__50
10
0
20
0
30
0
70
128
71
1
72
62
73
63
0
VERTEX
8
OBJECT__50
10
0
20
0
30
0
70
128
71
1
72
58
73
64
0
VERTEX
8
OBJECT__50
10
0
20
0
30
0
70
128
71
64
72
62
73
1
0
VERTEX
8
OBJECT__50
10
0
20
0
30
0
70
128
71
10
72
1
73
65
0
VERTEX
8
OBJECT__50
10
0
20
0
30
0
70
128
71
65
72
66
73
10
0
VERTEX
8
OBJECT__50
10
0
20
0
30
0
70
128
71
1
72
67
73
65
0
VERTEX
8
OBJECT__50
10
0
20
0
30
0
70
128
71
25
72
68
73
69
0
VERTEX
8
OBJECT__50
10
0
20
0
30
0
70
128
71
10
72
70
73
68
0
VERTEX
8
OBJECT__50
10
0
20
0
30
0
70
128
71
10
72
71
73
70
0
VERTEX
8
OBJECT__50
10
0
20
0
30
0
70
128
71
68
72
25
73
10
0
VERTEX
8
OBJECT__50
10
0
20
0
30
0
70
128
71
25
72
72
73
73
0
VERTEX
8
OBJECT__50
10
0
20
0
30
0
70
128
71
25
72
74
73
75
0
VERTEX
8
OBJECT__50
10
0
20
0
30
0
70
128
71
75
72
72
73
25
0
VERTEX
8
OBJECT__50
10
0
20
0
30
0
70
128
71
34
72
76
73
77
0
VERTEX
8
OBJECT__50
10
0
20
0
30
0
70
128
71
34
72
73
73
78
0
VERTEX
8
OBJECT__50
10
0
20
0
30
0
70
128
71
78
72
76
73
34
0
VERTEX
8
OBJECT__50
10
0
20
0
30
0
70
128
71
35
72
79
73
80
0
VERTEX
8
OBJECT__50
10
0
20
0
30
0
70
128
71
79
72
81
73
80
0
VERTEX
8
OBJECT__50
10
0
20
0
30
0
70
128
71
35
72
82
73
79
0
VERTEX
8
OBJECT__50
10
0
20
0
30
0
70
128
71
35
72
77
73
82
0
VERTEX
8
OBJECT__50
10
0
20
0
30
0
70
128
71
80
72
83
73
35
0
VERTEX
8
OBJECT__50
10
0
20
0
30
0
70
128
71
36
72
35
73
84
0
VERTEX
8
OBJECT__50
10
0
20
0
30
0
70
128
71
84
72
85
73
36
0
VERTEX
8
OBJECT__50
10
0
20
0
30
0
70
128
71
35
72
86
73
84
0
VERTEX
8
OBJECT__50
10
0
20
0
30
0
70
128
71
36
72
87
73
88
0
VERTEX
8
OBJECT__50
10
0
20
0
30
0
70
128
71
33
72
32
73
36
0
VERTEX
8
OBJECT__50
10
0
20
0
30
0
70
128
71
88
72
33
73
36
0
VERTEX
8
OBJECT__50
10
0
20
0
30
0
70
128
71
30
72
33
73
89
0
VERTEX
8
OBJECT__50
10
0
20
0
30
0
70
128
71
33
72
90
73
89
0
VERTEX
8
OBJECT__50
10
0
20
0
30
0
70
128
71
31
72
30
73
91
0
VERTEX
8
OBJECT__50
10
0
20
0
30
0
70
128
71
30
72
92
73
91
0
VERTEX
8
OBJECT__50
10
0
20
0
30
0
70
128
71
30
72
93
73
92
0
VERTEX
8
OBJECT__50
10
0
20
0
30
0
70
128
71
37
72
31
73
94
0
VERTEX
8
OBJECT__50
10
0
20
0
30
0
70
128
71
31
72
95
73
94
0
VERTEX
8
OBJECT__50
10
0
20
0
30
0
70
128
71
31
72
96
73
95
0
VERTEX
8
OBJECT__50
10
0
20
0
30
0
70
128
71
97
72
37
73
98
0
VERTEX
8
OBJECT__50
10
0
20
0
30
0
70
128
71
37
72
99
73
100
0
VERTEX
8
OBJECT__50
10
0
20
0
30
0
70
128
71
100
72
98
73
37
0
VERTEX
8
OBJECT__50
10
0
20
0
30
0
70
128
71
37
72
97
73
101
0
VERTEX
8
OBJECT__50
10
0
20
0
30
0
70
128
71
101
72
29
73
37
0
VERTEX
8
OBJECT__50
10
0
20
0
30
0
70
128
71
101
72
102
73
29
0
VERTEX
8
OBJECT__50
10
0
20
0
30
0
70
128
71
28
72
103
73
104
0
VERTEX
8
OBJECT__50
10
0
20
0
30
0
70
128
71
29
72
105
73
103
0
VERTEX
8
OBJECT__50
10
0
20
0
30
0
70
128
71
103
72
28
73
29
0
VERTEX
8
OBJECT__50
10
0
20
0
30
0
70
128
71
104
72
106
73
28
0
VERTEX
8
OBJECT__50
10
0
20
0
30
0
70
128
71
20
72
107
73
108
0
VERTEX
8
OBJECT__50
10
0
20
0
30
0
70
128
71
108
72
109
73
20
0
VERTEX
8
OBJECT__50
10
0
20
0
30
0
70
128
71
28
72
106
73
107
0
VERTEX
8
OBJECT__50
10
0
20
0
30
0
70
128
71
107
72
20
73
28
0
VERTEX
8
OBJECT__50
10
0
20
0
30
0
70
128
71
109
72
110
73
20
0
VERTEX
8
OBJECT__50
10
0
20
0
30
0
70
128
71
20
72
110
73
111
0
VERTEX
8
OBJECT__50
10
0
20
0
30
0
70
128
71
111
72
18
73
20
0
VERTEX
8
OBJECT__50
10
0
20
0
30
0
70
128
71
18
72
112
73
113
0
VERTEX
8
OBJECT__50
10
0
20
0
30
0
70
128
71
18
72
114
73
112
0
VERTEX
8
OBJECT__50
10
0
20
0
30
0
70
128
71
113
72
16
73
18
0
VERTEX
8
OBJECT__50
10
0
20
0
30
0
70
128
71
16
72
115
73
116
0
VERTEX
8
OBJECT__50
10
0
20
0
30
0
70
128
71
116
72
17
73
16
0
VERTEX
8
OBJECT__50
10
0
20
0
30
0
70
128
71
16
72
117
73
115
0
VERTEX
8
OBJECT__50
10
0
20
0
30
0
70
128
71
118
72
119
73
120
0
VERTEX
8
OBJECT__50
10
0
20
0
30
0
70
128
71
120
72
17
73
118
0
VERTEX
8
OBJECT__50
10
0
20
0
30
0
70
128
71
120
72
40
73
17
0
VERTEX
8
OBJECT__50
10
0
20
0
30
0
70
128
71
116
72
118
73
17
0
VERTEX
8
OBJECT__50
10
0
20
0
30
0
70
128
71
113
72
117
73
16
0
VERTEX
8
OBJECT__50
10
0
20
0
30
0
70
128
71
111
72
114
73
18
0
VERTEX
8
OBJECT__50
10
0
20
0
30
0
70
128
71
102
72
105
73
29
0
VERTEX
8
OBJECT__50
10
0
20
0
30
0
70
128
71
98
72
121
73
97
0
VERTEX
8
OBJECT__50
10
0
20
0
30
0
70
128
71
94
72
99
73
37
0
VERTEX
8
OBJECT__50
10
0
20
0
30
0
70
128
71
91
72
96
73
31
0
VERTEX
8
OBJECT__50
10
0
20
0
30
0
70
128
71
89
72
93
73
30
0
VERTEX
8
OBJECT__50
10
0
20
0
30
0
70
128
71
88
72
90
73
33
0
VERTEX
8
OBJECT__50
10
0
20
0
30
0
70
128
71
85
72
87
73
36
0
VERTEX
8
OBJECT__50
10
0
20
0
30
0
70
128
71
83
72
86
73
35
0
VERTEX
8
OBJECT__50
10
0
20
0
30
0
70
128
71
77
72
35
73
34
0
VERTEX
8
OBJECT__50
10
0
20
0
30
0
70
128
71
73
72
34
73
25
0
VERTEX
8
OBJECT__50
10
0
20
0
30
0
70
128
71
69
72
74
73
25
0
VERTEX
8
OBJECT__50
10
0
20
0
30
0
70
128
71
66
72
71
73
10
0
VERTEX
8
OBJECT__50
10
0
20
0
30
0
70
128
71
63
72
67
73
1
0
VERTEX
8
OBJECT__50
10
0
20
0
30
0
70
128
71
60
72
64
73
58
0
VERTEX
8
OBJECT__50
10
0
20
0
30
0
70
128
71
53
72
61
73
49
0
VERTEX
8
OBJECT__50
10
0
20
0
30
0
70
128
71
49
72
58
73
3
0
VERTEX
8
OBJECT__50
10
0
20
0
30
0
70
128
71
48
72
52
73
3
0
VERTEX
8
OBJECT__50
10
0
20
0
30
0
70
128
71
45
72
47
73
5
0
VERTEX
8
OBJECT__50
10
0
20
0
30
0
70
128
71
42
72
46
73
7
0
VERTEX
8
OBJECT__50
10
0
20
0
30
0
70
128
71
39
72
43
73
15
0
VERTEX
8
OBJECT__50
10
0
20
0
30
0
70
128
71
37
72
29
73
27
0
VERTEX
8
OBJECT__50
10
0
20
0
30
0
70
128
71
36
72
32
73
34
0
VERTEX
8
OBJECT__50
10
0
20
0
30
0
70
128
71
30
72
26
73
24
0
VERTEX
8
OBJECT__50
10
0
20
0
30
0
70
128
71
32
72
23
73
25
0
VERTEX
8
OBJECT__50
10
0
20
0
30
0
70
128
71
33
72
24
73
23
0
VERTEX
8
OBJECT__50
10
0
20
0
30
0
70
128
71
31
72
27
73
26
0
VERTEX
8
OBJECT__50
10
0
20
0
30
0
70
128
71
29
72
28
73
22
0
VERTEX
8
OBJECT__50
10
0
20
0
30
0
70
128
71
28
72
20
73
19
0
VERTEX
8
OBJECT__50
10
0
20
0
30
0
70
128
71
27
72
22
73
21
0
VERTEX
8
OBJECT__50
10
0
20
0
30
0
70
128
71
21
72
12
73
9
0
VERTEX
8
OBJECT__50
10
0
20
0
30
0
70
128
71
23
72
8
73
10
0
VERTEX
8
OBJECT__50
10
0
20
0
30
0
70
128
71
24
72
9
73
8
0
VERTEX
8
OBJECT__50
10
0
20
0
30
0
70
128
71
22
72
19
73
12
0
VERTEX
8
OBJECT__50
10
0
20
0
30
0
70
128
71
18
72
13
73
19
0
VERTEX
8
OBJECT__50
10
0
20
0
30
0
70
128
71
13
72
11
73
12
0
VERTEX
8
OBJECT__50
10
0
20
0
30
0
70
128
71
16
72
14
73
13
0
VERTEX
8
OBJECT__50
10
0
20
0
30
0
70
128
71
17
72
15
73
14
0
VERTEX
8
OBJECT__50
10
0
20
0
30
0
70
128
71
15
72
7
73
6
0
VERTEX
8
OBJECT__50
10
0
20
0
30
0
70
128
71
14
72
6
73
11
0
VERTEX
8
OBJECT__50
10
0
20
0
30
0
70
128
71
11
72
6
73
4
0
VERTEX
8
OBJECT__50
10
0
20
0
30
0
70
128
71
2
72
1
73
10
0
VERTEX
8
OBJECT__50
10
0
20
0
30
0
70
128
71
4
72
2
73
8
0
VERTEX
8
OBJECT__50
10
0
20
0
30
0
70
128
71
7
72
5
73
4
0
VERTEX
8
OBJECT__50
10
0
20
0
30
0
70
128
71
5
72
3
73
2
0
VERTEX
8
OBJECT__50
10
0
20
0
30
0
70
128
71
3
72
58
73
1
0
SEQEND
8
OBJECT__50
0
POLYLINE
8
OBJECT__51
66
1
70
64
71
42
72
40
62
253
0
VERTEX
8
OBJECT__51
10
33.806999
20
-22.950001
30
230.953003
70
192
0
VERTEX
8
OBJECT__51
10
34.952000
20
-23.711000
30
229.417999
70
192
0
VERTEX
8
OBJECT__51
10
34.889999
20
-23.368000
30
230.059006
70
192
0
VERTEX
8
OBJECT__51
10
33.516998
20
-22.153000
30
232.037003
70
192
0
VERTEX
8
OBJECT__51
10
33.058998
20
-22.451000
30
231.957993
70
192
0
VERTEX
8
OBJECT__51
10
35.132999
20
-23.650999
30
229.548996
70
192
0
VERTEX
8
OBJECT__51
10
35.236000
20
-23.450001
30
229.600998
70
192
0
VERTEX
8
OBJECT__51
10
32.638000
20
-19.726000
30
233.561996
70
192
0
VERTEX
8
OBJECT__51
10
32.098999
20
-19.733000
30
233.554001
70
192
0
VERTEX
8
OBJECT__51
10
32.504002
20
-21.469000
30
232.792999
70
192
0
VERTEX
8
OBJECT__51
10
32.858002
20
-21.570000
30
232.987000
70
192
0
VERTEX
8
OBJECT__51
10
32.673000
20
-22.194000
30
232.475006
70
192
0
VERTEX
8
OBJECT__51
10
32.424000
20
-13.240000
30
234.684006
70
192
0
VERTEX
8
OBJECT__51
10
31.927000
20
-13.214000
30
234.427994
70
192
0
VERTEX
8
OBJECT__51
10
31.921000
20
-15.728000
30
234.197006
70
192
0
VERTEX
8
OBJECT__51
10
32.414001
20
-17.851999
30
234.147003
70
192
0
VERTEX
8
OBJECT__51
10
31.915001
20
-18.943001
30
233.899994
70
192
0
VERTEX
8
OBJECT__51
10
32.426998
20
-11.698000
30
234.863998
70
192
0
VERTEX
8
OBJECT__51
10
32.450001
20
0.005000
30
235.203003
70
192
0
VERTEX
8
OBJECT__51
10
31.945000
20
-4.476000
30
235.235001
70
192
0
VERTEX
8
OBJECT__51
10
31.934999
20
0.003000
30
235.082993
70
192
0
VERTEX
8
OBJECT__51
10
31.934999
20
-0.076000
30
235.085999
70
192
0
VERTEX
8
OBJECT__51
10
32.450001
20
0.016000
30
235.203995
70
192
0
VERTEX
8
OBJECT__51
10
31.908001
20
13.264000
30
234.634995
70
192
0
VERTEX
8
OBJECT__51
10
32.457001
20
3.921000
30
235.317001
70
192
0
VERTEX
8
OBJECT__51
10
32.146000
20
19.742001
30
233.494003
70
192
0
VERTEX
8
OBJECT__51
10
31.909000
20
18.575001
30
233.962997
70
192
0
VERTEX
8
OBJECT__51
10
32.424000
20
18.826000
30
233.990005
70
192
0
VERTEX
8
OBJECT__51
10
31.908001
20
15.616000
30
234.348007
70
192
0
VERTEX
8
OBJECT__51
10
32.436001
20
13.253000
30
234.485992
70
192
0
VERTEX
8
OBJECT__51
10
31.908001
20
13.455000
30
234.628998
70
192
0
VERTEX
8
OBJECT__51
10
33.069000
20
22.469000
30
231.940994
70
192
0
VERTEX
8
OBJECT__51
10
32.633999
20
22.136000
30
232.531998
70
192
0
VERTEX
8
OBJECT__51
10
33.097000
20
21.997999
30
232.606003
70
192
0
VERTEX
8
OBJECT__51
10
32.616001
20
19.733000
30
233.595001
70
192
0
VERTEX
8
OBJECT__51
10
32.484001
20
21.398001
30
232.828995
70
192
0
VERTEX
8
OBJECT__51
10
35.132999
20
23.650999
30
229.548004
70
192
0
VERTEX
8
OBJECT__51
10
34.952000
20
23.711000
30
229.417999
70
192
0
VERTEX
8
OBJECT__51
10
34.577999
20
23.622999
30
229.891006
70
192
0
VERTEX
8
OBJECT__51
10
35.236000
20
23.450001
30
229.600998
70
192
0
VERTEX
8
OBJECT__51
10
33.731998
20
22.976000
30
231.041000
70
192
0
VERTEX
8
OBJECT__51
10
33.477001
20
22.256001
30
232.072006
70
192
0
VERTEX
8
OBJECT__51
10
0
20
0
30
0
70
128
71
1
72
2
73
3
0
VERTEX
8
OBJECT__51
10
0
20
0
30
0
70
128
71
4
72
5
73
1
0
VERTEX
8
OBJECT__51
10
0
20
0
30
0
70
128
71
3
72
2
73
6
0
VERTEX
8
OBJECT__51
10
0
20
0
30
0
70
128
71
6
72
7
73
3
0
VERTEX
8
OBJECT__51
10
0
20
0
30
0
70
128
71
8
72
9
73
10
0
VERTEX
8
OBJECT__51
10
0
20
0
30
0
70
128
71
11
72
10
73
12
0
VERTEX
8
OBJECT__51
10
0
20
0
30
0
70
128
71
12
72
4
73
11
0
VERTEX
8
OBJECT__51
10
0
20
0
30
0
70
128
71
12
72
5
73
4
0
VERTEX
8
OBJECT__51
10
0
20
0
30
0
70
128
71
13
72
14
73
15
0
VERTEX
8
OBJECT__51
10
0
20
0
30
0
70
128
71
15
72
16
73
13
0
VERTEX
8
OBJECT__51
10
0
20
0
30
0
70
128
71
8
72
16
73
17
0
VERTEX
8
OBJECT__51
10
0
20
0
30
0
70
128
71
17
72
9
73
8
0
VERTEX
8
OBJECT__51
10
0
20
0
30
0
70
128
71
18
72
19
73
20
0
VERTEX
8
OBJECT__51
10
0
20
0
30
0
70
128
71
14
72
13
73
18
0
VERTEX
8
OBJECT__51
10
0
20
0
30
0
70
128
71
21
72
22
73
19
0
VERTEX
8
OBJECT__51
10
0
20
0
30
0
70
128
71
19
72
23
73
21
0
VERTEX
8
OBJECT__51
10
0
20
0
30
0
70
128
71
22
72
20
73
19
0
VERTEX
8
OBJECT__51
10
0
20
0
30
0
70
128
71
24
72
21
73
25
0
VERTEX
8
OBJECT__51
10
0
20
0
30
0
70
128
71
21
72
23
73
25
0
VERTEX
8
OBJECT__51
10
0
20
0
30
0
70
128
71
26
72
27
73
28
0
VERTEX
8
OBJECT__51
10
0
20
0
30
0
70
128
71
28
72
27
73
29
0
VERTEX
8
OBJECT__51
10
0
20
0
30
0
70
128
71
29
72
30
73
28
0
VERTEX
8
OBJECT__51
10
0
20
0
30
0
70
128
71
29
72
31
73
30
0
VERTEX
8
OBJECT__51
10
0
20
0
30
0
70
128
71
31
72
24
73
30
0
VERTEX
8
OBJECT__51
10
0
20
0
30
0
70
128
71
32
72
33
73
34
0
VERTEX
8
OBJECT__51
10
0
20
0
30
0
70
128
71
35
72
34
73
36
0
VERTEX
8
OBJECT__51
10
0
20
0
30
0
70
128
71
34
72
33
73
36
0
VERTEX
8
OBJECT__51
10
0
20
0
30
0
70
128
71
36
72
26
73
35
0
VERTEX
8
OBJECT__51
10
0
20
0
30
0
70
128
71
37
72
38
73
39
0
VERTEX
8
OBJECT__51
10
0
20
0
30
0
70
128
71
40
72
37
73
41
0
VERTEX
8
OBJECT__51
10
0
20
0
30
0
70
128
71
41
72
42
73
40
0
VERTEX
8
OBJECT__51
10
0
20
0
30
0
70
128
71
39
72
41
73
37
0
VERTEX
8
OBJECT__51
10
0
20
0
30
0
70
128
71
41
72
32
73
42
0
VERTEX
8
OBJECT__51
10
0
20
0
30
0
70
128
71
34
72
42
73
32
0
VERTEX
8
OBJECT__51
10
0
20
0
30
0
70
128
71
28
72
35
73
26
0
VERTEX
8
OBJECT__51
10
0
20
0
30
0
70
128
71
25
72
30
73
24
0
VERTEX
8
OBJECT__51
10
0
20
0
30
0
70
128
71
20
72
14
73
18
0
VERTEX
8
OBJECT__51
10
0
20
0
30
0
70
128
71
15
72
17
73
16
0
VERTEX
8
OBJECT__51
10
0
20
0
30
0
70
128
71
10
72
11
73
8
0
VERTEX
8
OBJECT__51
10
0
20
0
30
0
70
128
71
3
72
4
73
1
0
SEQEND
8
OBJECT__51
0
POLYLINE
8
OBJECT__52
66
1
70
64
71
6
72
4
62
253
0
VERTEX
8
OBJECT__52
10
35.439999
20
23.452999
30
229.113998
70
192
0
VERTEX
8
OBJECT__52
10
35.470001
20
22.865000
30
229.184998
70
192
0
VERTEX
8
OBJECT__52
10
35.400002
20
22.837999
30
228.662003
70
192
0
VERTEX
8
OBJECT__52
10
35.236000
20
23.450001
30
229.600998
70
192
0
VERTEX
8
OBJECT__52
10
35.266998
20
22.851000
30
229.673996
70
192
0
VERTEX
8
OBJECT__52
10
35.369999
20
23.417999
30
228.591003
70
192
0
VERTEX
8
OBJECT__52
10
0
20
0
30
0
70
128
71
1
72
2
73
3
0
VERTEX
8
OBJECT__52
10
0
20
0
30
0
70
128
71
4
72
5
73
2
0
VERTEX
8
OBJECT__52
10
0
20
0
30
0
70
128
71
2
72
1
73
4
0
VERTEX
8
OBJECT__52
10
0
20
0
30
0
70
128
71
3
72
6
73
1
0
SEQEND
8
OBJECT__52
0
POLYLINE
8
OBJECT__53
66
1
70
64
71
8
72
6
62
253
0
VERTEX
8
OBJECT__53
10
35.105999
20
-23.730000
30
229.074005
70
192
0
VERTEX
8
OBJECT__53
10
35.063999
20
-23.716999
30
228.699997
70
192
0
VERTEX
8
OBJECT__53
10
35.276001
20
-23.639000
30
228.615997
70
192
0
VERTEX
8
OBJECT__53
10
35.442001
20
-23.440001
30
228.865997
70
192
0
VERTEX
8
OBJECT__53
10
35.132999
20
-23.650999
30
229.548996
70
192
0
VERTEX
8
OBJECT__53
10
34.952000
20
-23.711000
30
229.417999
70
192
0
VERTEX
8
OBJECT__53
10
35.236000
20
-23.450001
30
229.600998
70
192
0
VERTEX
8
OBJECT__53
10
35.369999
20
-23.417999
30
228.591003
70
192
0
VERTEX
8
OBJECT__53
10
0
20
0
30
0
70
128
71
1
72
2
73
3
0
VERTEX
8
OBJECT__53
10
0
20
0
30
0
70
128
71
3
72
4
73
1
0
VERTEX
8
OBJECT__53
10
0
20
0
30
0
70
128
71
5
72
6
73
1
0
VERTEX
8
OBJECT__53
10
0
20
0
30
0
70
128
71
4
72
7
73
5
0
VERTEX
8
OBJECT__53
10
0
20
0
30
0
70
128
71
1
72
4
73
5
0
VERTEX
8
OBJECT__53
10
0
20
0
30
0
70
128
71
3
72
8
73
4
0
SEQEND
8
OBJECT__53
0
POLYLINE
8
OBJECT__54
66
1
70
64
71
35
72
33
62
253
0
VERTEX
8
OBJECT__54
10
32.426998
20
-11.698000
30
234.863998
70
192
0
VERTEX
8
OBJECT__54
10
32.751999
20
-10.983000
30
234.514999
70
192
0
VERTEX
8
OBJECT__54
10
32.775002
20
-4.979000
30
234.871994
70
192
0
VERTEX
8
OBJECT__54
10
32.424000
20
-13.240000
30
234.684006
70
192
0
VERTEX
8
OBJECT__54
10
32.414001
20
-17.851999
30
234.147003
70
192
0
VERTEX
8
OBJECT__54
10
32.737000
20
-17.809000
30
233.740005
70
192
0
VERTEX
8
OBJECT__54
10
32.735001
20
-15.054000
30
234.108994
70
192
0
VERTEX
8
OBJECT__54
10
32.450001
20
0.005000
30
235.203003
70
192
0
VERTEX
8
OBJECT__54
10
32.638000
20
-19.726000
30
233.561996
70
192
0
VERTEX
8
OBJECT__54
10
32.840000
20
-20.209999
30
233.238998
70
192
0
VERTEX
8
OBJECT__54
10
32.858002
20
-21.570000
30
232.987000
70
192
0
VERTEX
8
OBJECT__54
10
32.896999
20
-20.525000
30
233.115005
70
192
0
VERTEX
8
OBJECT__54
10
33.207001
20
-21.370001
30
232.574997
70
192
0
VERTEX
8
OBJECT__54
10
33.516998
20
-22.153000
30
232.037003
70
192
0
VERTEX
8
OBJECT__54
10
35.266998
20
-22.851000
30
229.673996
70
192
0
VERTEX
8
OBJECT__54
10
33.880001
20
-22.188000
30
231.570007
70
192
0
VERTEX
8
OBJECT__54
10
34.889999
20
-23.368000
30
230.059006
70
192
0
VERTEX
8
OBJECT__54
10
35.236000
20
-23.450001
30
229.600998
70
192
0
VERTEX
8
OBJECT__54
10
35.236000
20
23.450001
30
229.600998
70
192
0
VERTEX
8
OBJECT__54
10
33.477001
20
22.256001
30
232.072006
70
192
0
VERTEX
8
OBJECT__54
10
34.000999
20
22.285999
30
231.395996
70
192
0
VERTEX
8
OBJECT__54
10
33.317001
20
21.552000
30
232.403000
70
192
0
VERTEX
8
OBJECT__54
10
33.097000
20
21.997999
30
232.606003
70
192
0
VERTEX
8
OBJECT__54
10
32.958000
20
20.771000
30
232.994995
70
192
0
VERTEX
8
OBJECT__54
10
32.616001
20
19.733000
30
233.595001
70
192
0
VERTEX
8
OBJECT__54
10
32.793999
20
19.806999
30
233.363007
70
192
0
VERTEX
8
OBJECT__54
10
32.424000
20
18.826000
30
233.990005
70
192
0
VERTEX
8
OBJECT__54
10
32.436001
20
13.253000
30
234.485992
70
192
0
VERTEX
8
OBJECT__54
10
32.735001
20
14.872000
30
234.130005
70
192
0
VERTEX
8
OBJECT__54
10
32.733002
20
15.553000
30
234.048004
70
192
0
VERTEX
8
OBJECT__54
10
32.778000
20
3.706000
30
234.912994
70
192
0
VERTEX
8
OBJECT__54
10
32.457001
20
3.921000
30
235.317001
70
192
0
VERTEX
8
OBJECT__54
10
32.450001
20
0.016000
30
235.203995
70
192
0
VERTEX
8
OBJECT__54
10
32.777000
20
0.003000
30
234.895996
70
192
0
VERTEX
8
OBJECT__54
10
35.266998
20
22.851000
30
229.673996
70
192
0
VERTEX
8
OBJECT__54
10
0
20
0
30
0
70
128
71
1
72
2
73
3
0
VERTEX
8
OBJECT__54
10
0
20
0
30
0
70
128
71
2
72
1
73
4
0
VERTEX
8
OBJECT__54
10
0
20
0
30
0
70
128
71
5
72
6
73
7
0
VERTEX
8
OBJECT__54
10
0
20
0
30
0
70
128
71
7
72
4
73
5
0
VERTEX
8
OBJECT__54
10
0
20
0
30
0
70
128
71
4
72
7
73
2
0
VERTEX
8
OBJECT__54
10
0
20
0
30
0
70
128
71
3
72
8
73
1
0
VERTEX
8
OBJECT__54
10
0
20
0
30
0
70
128
71
6
72
5
73
9
0
VERTEX
8
OBJECT__54
10
0
20
0
30
0
70
128
71
9
72
10
73
6
0
VERTEX
8
OBJECT__54
10
0
20
0
30
0
70
128
71
11
72
12
73
10
0
VERTEX
8
OBJECT__54
10
0
20
0
30
0
70
128
71
10
72
9
73
11
0
VERTEX
8
OBJECT__54
10
0
20
0
30
0
70
128
71
11
72
13
73
12
0
VERTEX
8
OBJECT__54
10
0
20
0
30
0
70
128
71
13
72
11
73
14
0
VERTEX
8
OBJECT__54
10
0
20
0
30
0
70
128
71
15
72
16
73
17
0
VERTEX
8
OBJECT__54
10
0
20
0
30
0
70
128
71
17
72
18
73
15
0
VERTEX
8
OBJECT__54
10
0
20
0
30
0
70
128
71
16
72
14
73
17
0
VERTEX
8
OBJECT__54
10
0
20
0
30
0
70
128
71
14
72
16
73
13
0
VERTEX
8
OBJECT__54
10
0
20
0
30
0
70
128
71
19
72
20
73
21
0
VERTEX
8
OBJECT__54
10
0
20
0
30
0
70
128
71
22
72
21
73
20
0
VERTEX
8
OBJECT__54
10
0
20
0
30
0
70
128
71
20
72
23
73
22
0
VERTEX
8
OBJECT__54
10
0
20
0
30
0
70
128
71
23
72
24
73
22
0
VERTEX
8
OBJECT__54
10
0
20
0
30
0
70
128
71
25
72
26
73
24
0
VERTEX
8
OBJECT__54
10
0
20
0
30
0
70
128
71
26
72
25
73
27
0
VERTEX
8
OBJECT__54
10
0
20
0
30
0
70
128
71
28
72
29
73
30
0
VERTEX
8
OBJECT__54
10
0
20
0
30
0
70
128
71
31
72
29
73
28
0
VERTEX
8
OBJECT__54
10
0
20
0
30
0
70
128
71
28
72
32
73
31
0
VERTEX
8
OBJECT__54
10
0
20
0
30
0
70
128
71
30
72
27
73
28
0
VERTEX
8
OBJECT__54
10
0
20
0
30
0
70
128
71
33
72
34
73
31
0
VERTEX
8
OBJECT__54
10
0
20
0
30
0
70
128
71
31
72
32
73
33
0
VERTEX
8
OBJECT__54
10
0
20
0
30
0
70
128
71
33
72
8
73
34
0
VERTEX
8
OBJECT__54
10
0
20
0
30
0
70
128
71
27
72
30
73
26
0
VERTEX
8
OBJECT__54
10
0
20
0
30
0
70
128
71
24
72
23
73
25
0
VERTEX
8
OBJECT__54
10
0
20
0
30
0
70
128
71
21
72
35
73
19
0
VERTEX
8
OBJECT__54
10
0
20
0
30
0
70
128
71
3
72
34
73
8
0
SEQEND
8
OBJECT__54
0
POLYLINE
8
OBJECT__55
66
1
70
64
71
39
72
37
62
253
0
VERTEX
8
OBJECT__55
10
35.369999
20
-23.417999
30
228.591003
70
192
0
VERTEX
8
OBJECT__55
10
35.276001
20
-23.639000
30
228.615997
70
192
0
VERTEX
8
OBJECT__55
10
26.589001
20
-22.242001
30
207.848999
70
192
0
VERTEX
8
OBJECT__55
10
25.215000
20
-21.577000
30
202.615997
70
192
0
VERTEX
8
OBJECT__55
10
24.796000
20
-21.881001
30
202.761002
70
192
0
VERTEX
8
OBJECT__55
10
24.554001
20
-21.832001
30
202.072998
70
192
0
VERTEX
8
OBJECT__55
10
15.525000
20
-20.011000
30
176.447998
70
192
0
VERTEX
8
OBJECT__55
10
20.218000
20
-20.670000
30
189.837006
70
192
0
VERTEX
8
OBJECT__55
10
16.070000
20
-19.709999
30
176.304993
70
192
0
VERTEX
8
OBJECT__55
10
18.480000
20
-20.268000
30
184.166000
70
192
0
VERTEX
8
OBJECT__55
10
14.965000
20
-19.898001
30
174.860001
70
192
0
VERTEX
8
OBJECT__55
10
14.360000
20
-19.775999
30
173.141006
70
192
0
VERTEX
8
OBJECT__55
10
9.121000
20
-18.327000
30
152.500000
70
192
0
VERTEX
8
OBJECT__55
10
10.189000
20
-18.348000
30
157.117996
70
192
0
VERTEX
8
OBJECT__55
10
8.665000
20
-17.822001
30
149.473007
70
192
0
VERTEX
8
OBJECT__55
10
8.361000
20
-18.117001
30
149.505997
70
192
0
VERTEX
8
OBJECT__55
10
8.489000
20
-17.761000
30
148.589996
70
192
0
VERTEX
8
OBJECT__55
10
6.573000
20
-17.622000
30
142.464005
70
192
0
VERTEX
8
OBJECT__55
10
5.268000
20
-17.018999
30
133.300003
70
192
0
VERTEX
8
OBJECT__55
10
4.478000
20
-16.375999
30
128.466003
70
192
0
VERTEX
8
OBJECT__55
10
3.664000
20
-16.278999
30
122.042999
70
192
0
VERTEX
8
OBJECT__55
10
3.831000
20
-15.980000
30
122.053001
70
192
0
VERTEX
8
OBJECT__55
10
1.104000
20
-14.312000
30
95.042000
70
192
0
VERTEX
8
OBJECT__55
10
2.718000
20
-15.299000
30
111.029999
70
192
0
VERTEX
8
OBJECT__55
10
1.389000
20
-14.939000
30
99.697998
70
192
0
VERTEX
8
OBJECT__55
10
2.007000
20
-15.514000
30
110.413002
70
192
0
VERTEX
8
OBJECT__55
10
1.076000
20
-14.648000
30
94.285004
70
192
0
VERTEX
8
OBJECT__55
10
1.083000
20
-14.280000
30
94.305000
70
192
0
VERTEX
8
OBJECT__55
10
-0.139000
20
-13.518000
30
73.228996
70
192
0
VERTEX
8
OBJECT__55
10
0.286000
20
-13.053000
30
66.394997
70
192
0
VERTEX
8
OBJECT__55
10
-0.158000
20
-13.452000
30
70.470001
70
192
0
VERTEX
8
OBJECT__55
10
-0.185000
20
-13.353000
30
66.397003
70
192
0
VERTEX
8
OBJECT__55
10
0.051000
20
-12.691000
30
58.167999
70
192
0
VERTEX
8
OBJECT__55
10
0.152000
20
-12.847000
30
61.719002
70
192
0
VERTEX
8
OBJECT__55
10
-0.564000
20
-12.002000
30
10.500000
70
192
0
VERTEX
8
OBJECT__55
10
-0.343000
20
-11.919000
30
10.500000
70
192
0
VERTEX
8
OBJECT__55
10
-0.136000
20
-12.403000
30
51.617001
70
192
0
VERTEX
8
OBJECT__55
10
-0.250000
20
-11.702000
30
10.500000
70
192
0
VERTEX
8
OBJECT__55
10
35.063999
20
-23.716999
30
228.699997
70
192
0
VERTEX
8
OBJECT__55
10
0
20
0
30
0
70
128
71
1
72
2
73
3
0
VERTEX
8
OBJECT__55
10
0
20
0
30
0
70
128
71
3
72
4
73
1
0
VERTEX
8
OBJECT__55
10
0
20
0
30
0
70
128
71
3
72
5
73
4
0
VERTEX
8
OBJECT__55
10
0
20
0
30
0
70
128
71
4
72
5
73
6
0
VERTEX
8
OBJECT__55
10
0
20
0
30
0
70
128
71
6
72
7
73
8
0
VERTEX
8
OBJECT__55
10
0
20
0
30
0
70
128
71
7
72
9
73
10
0
VERTEX
8
OBJECT__55
10
0
20
0
30
0
70
128
71
10
72
8
73
7
0
VERTEX
8
OBJECT__55
10
0
20
0
30
0
70
128
71
9
72
11
73
12
0
VERTEX
8
OBJECT__55
10
0
20
0
30
0
70
128
71
9
72
7
73
11
0
VERTEX
8
OBJECT__55
10
0
20
0
30
0
70
128
71
12
72
13
73
14
0
VERTEX
8
OBJECT__55
10
0
20
0
30
0
70
128
71
15
72
14
73
13
0
VERTEX
8
OBJECT__55
10
0
20
0
30
0
70
128
71
13
72
16
73
15
0
VERTEX
8
OBJECT__55
10
0
20
0
30
0
70
128
71
17
72
16
73
18
0
VERTEX
8
OBJECT__55
10
0
20
0
30
0
70
128
71
18
72
19
73
17
0
VERTEX
8
OBJECT__55
10
0
20
0
30
0
70
128
71
19
72
20
73
17
0
VERTEX
8
OBJECT__55
10
0
20
0
30
0
70
128
71
21
72
22
73
20
0
VERTEX
8
OBJECT__55
10
0
20
0
30
0
70
128
71
20
72
19
73
21
0
VERTEX
8
OBJECT__55
10
0
20
0
30
0
70
128
71
23
72
24
73
25
0
VERTEX
8
OBJECT__55
10
0
20
0
30
0
70
128
71
21
72
26
73
24
0
VERTEX
8
OBJECT__55
10
0
20
0
30
0
70
128
71
26
72
25
73
24
0
VERTEX
8
OBJECT__55
10
0
20
0
30
0
70
128
71
24
72
22
73
21
0
VERTEX
8
OBJECT__55
10
0
20
0
30
0
70
128
71
27
72
28
73
23
0
VERTEX
8
OBJECT__55
10
0
20
0
30
0
70
128
71
28
72
27
73
29
0
VERTEX
8
OBJECT__55
10
0
20
0
30
0
70
128
71
29
72
30
73
28
0
VERTEX
8
OBJECT__55
10
0
20
0
30
0
70
128
71
29
72
31
73
30
0
VERTEX
8
OBJECT__55
10
0
20
0
30
0
70
128
71
32
72
33
73
34
0
VERTEX
8
OBJECT__55
10
0
20
0
30
0
70
128
71
35
72
36
73
37
0
VERTEX
8
OBJECT__55
10
0
20
0
30
0
70
128
71
37
72
32
73
35
0
VERTEX
8
OBJECT__55
10
0
20
0
30
0
70
128
71
37
72
33
73
32
0
VERTEX
8
OBJECT__55
10
0
20
0
30
0
70
128
71
34
72
30
73
32
0
VERTEX
8
OBJECT__55
10
0
20
0
30
0
70
128
71
36
72
38
73
37
0
VERTEX
8
OBJECT__55
10
0
20
0
30
0
70
128
71
31
72
32
73
30
0
VERTEX
8
OBJECT__55
10
0
20
0
30
0
70
128
71
25
72
27
73
23
0
VERTEX
8
OBJECT__55
10
0
20
0
30
0
70
128
71
17
72
15
73
16
0
VERTEX
8
OBJECT__55
10
0
20
0
30
0
70
128
71
12
72
14
73
9
0
VERTEX
8
OBJECT__55
10
0
20
0
30
0
70
128
71
6
72
8
73
4
0
VERTEX
8
OBJECT__55
10
0
20
0
30
0
70
128
71
2
72
39
73
3
0
SEQEND
8
OBJECT__55
0
POLYLINE
8
OBJECT__56
66
1
70
64
71
6
72
4
62
253
0
VERTEX
8
OBJECT__56
10
35.236000
20
-23.450001
30
229.600998
70
192
0
VERTEX
8
OBJECT__56
10
35.442001
20
-23.440001
30
228.865997
70
192
0
VERTEX
8
OBJECT__56
10
35.473999
20
-22.856001
30
228.949997
70
192
0
VERTEX
8
OBJECT__56
10
35.400002
20
-22.837999
30
228.662003
70
192
0
VERTEX
8
OBJECT__56
10
35.369999
20
-23.417999
30
228.591003
70
192
0
VERTEX
8
OBJECT__56
10
35.266998
20
-22.851000
30
229.673996
70
192
0
VERTEX
8
OBJECT__56
10
0
20
0
30
0
70
128
71
1
72
2
73
3
0
VERTEX
8
OBJECT__56
10
0
20
0
30
0
70
128
71
4
72
3
73
2
0
VERTEX
8
OBJECT__56
10
0
20
0
30
0
70
128
71
2
72
5
73
4
0
VERTEX
8
OBJECT__56
10
0
20
0
30
0
70
128
71
3
72
6
73
1
0
SEQEND
8
OBJECT__56
0
POLYLINE
8
OBJECT__57
66
1
70
64
71
38
72
36
62
253
0
VERTEX
8
OBJECT__57
10
25.215000
20
-21.577000
30
202.615997
70
192
0
VERTEX
8
OBJECT__57
10
26.257000
20
-21.239000
30
206.106003
70
192
0
VERTEX
8
OBJECT__57
10
33.521999
20
-22.520000
30
224.171997
70
192
0
VERTEX
8
OBJECT__57
10
35.369999
20
-23.417999
30
228.591003
70
192
0
VERTEX
8
OBJECT__57
10
19.517000
20
-19.938000
30
187.839005
70
192
0
VERTEX
8
OBJECT__57
10
20.218000
20
-20.670000
30
189.837006
70
192
0
VERTEX
8
OBJECT__57
10
18.480000
20
-20.268000
30
184.166000
70
192
0
VERTEX
8
OBJECT__57
10
18.344000
20
-19.679001
30
184.207001
70
192
0
VERTEX
8
OBJECT__57
10
16.070000
20
-19.709999
30
176.304993
70
192
0
VERTEX
8
OBJECT__57
10
8.207000
20
-17.158001
30
148.645996
70
192
0
VERTEX
8
OBJECT__57
10
8.591000
20
-17.285000
30
150.470993
70
192
0
VERTEX
8
OBJECT__57
10
8.665000
20
-17.822001
30
149.473007
70
192
0
VERTEX
8
OBJECT__57
10
9.097000
20
-17.438000
30
152.653000
70
192
0
VERTEX
8
OBJECT__57
10
10.189000
20
-18.348000
30
157.117996
70
192
0
VERTEX
8
OBJECT__57
10
13.533000
20
-18.615999
30
169.307999
70
192
0
VERTEX
8
OBJECT__57
10
8.489000
20
-17.761000
30
148.589996
70
192
0
VERTEX
8
OBJECT__57
10
2.718000
20
-15.299000
30
111.029999
70
192
0
VERTEX
8
OBJECT__57
10
2.489000
20
-14.671000
30
111.053001
70
192
0
VERTEX
8
OBJECT__57
10
3.556000
20
-15.332000
30
121.700996
70
192
0
VERTEX
8
OBJECT__57
10
3.831000
20
-15.980000
30
122.053001
70
192
0
VERTEX
8
OBJECT__57
10
3.875000
20
-15.493000
30
124.163002
70
192
0
VERTEX
8
OBJECT__57
10
4.478000
20
-16.375999
30
128.466003
70
192
0
VERTEX
8
OBJECT__57
10
6.590000
20
-16.622999
30
140.942993
70
192
0
VERTEX
8
OBJECT__57
10
0.152000
20
-12.847000
30
61.719002
70
192
0
VERTEX
8
OBJECT__57
10
-0.037000
20
-12.162000
30
61.723999
70
192
0
VERTEX
8
OBJECT__57
10
-0.024000
20
-12.215000
30
63.373001
70
192
0
VERTEX
8
OBJECT__57
10
0.286000
20
-13.053000
30
66.394997
70
192
0
VERTEX
8
OBJECT__57
10
0.480000
20
-13.073000
30
82.862000
70
192
0
VERTEX
8
OBJECT__57
10
1.083000
20
-14.280000
30
94.305000
70
192
0
VERTEX
8
OBJECT__57
10
1.613000
20
-14.129000
30
102.317001
70
192
0
VERTEX
8
OBJECT__57
10
1.104000
20
-14.312000
30
95.042000
70
192
0
VERTEX
8
OBJECT__57
10
0.051000
20
-12.691000
30
58.167999
70
192
0
VERTEX
8
OBJECT__57
10
-0.250000
20
-11.702000
30
10.500000
70
192
0
VERTEX
8
OBJECT__57
10
-0.250000
20
-11.113000
30
10.500000
70
192
0
VERTEX
8
OBJECT__57
10
-0.174000
20
-11.590000
30
43.870998
70
192
0
VERTEX
8
OBJECT__57
10
-0.136000
20
-12.403000
30
51.617001
70
192
0
VERTEX
8
OBJECT__57
10
-0.064000
20
-12.048000
30
58.172001
70
192
0
VERTEX
8
OBJECT__57
10
35.400002
20
-22.837999
30
228.662003
70
192
0
VERTEX
8
OBJECT__57
10
0
20
0
30
0
70
128
71
1
72
2
73
3
0
VERTEX
8
OBJECT__57
10
0
20
0
30
0
70
128
71
3
72
4
73
1
0
VERTEX
8
OBJECT__57
10
0
20
0
30
0
70
128
71
5
72
2
73
1
0
VERTEX
8
OBJECT__57
10
0
20
0
30
0
70
128
71
1
72
6
73
5
0
VERTEX
8
OBJECT__57
10
0
20
0
30
0
70
128
71
7
72
8
73
5
0
VERTEX
8
OBJECT__57
10
0
20
0
30
0
70
128
71
5
72
6
73
7
0
VERTEX
8
OBJECT__57
10
0
20
0
30
0
70
128
71
8
72
7
73
9
0
VERTEX
8
OBJECT__57
10
0
20
0
30
0
70
128
71
10
72
11
73
12
0
VERTEX
8
OBJECT__57
10
0
20
0
30
0
70
128
71
12
72
11
73
13
0
VERTEX
8
OBJECT__57
10
0
20
0
30
0
70
128
71
13
72
14
73
12
0
VERTEX
8
OBJECT__57
10
0
20
0
30
0
70
128
71
14
72
13
73
15
0
VERTEX
8
OBJECT__57
10
0
20
0
30
0
70
128
71
15
72
9
73
14
0
VERTEX
8
OBJECT__57
10
0
20
0
30
0
70
128
71
12
72
16
73
10
0
VERTEX
8
OBJECT__57
10
0
20
0
30
0
70
128
71
17
72
18
73
19
0
VERTEX
8
OBJECT__57
10
0
20
0
30
0
70
128
71
20
72
19
73
21
0
VERTEX
8
OBJECT__57
10
0
20
0
30
0
70
128
71
21
72
22
73
20
0
VERTEX
8
OBJECT__57
10
0
20
0
30
0
70
128
71
22
72
21
73
23
0
VERTEX
8
OBJECT__57
10
0
20
0
30
0
70
128
71
23
72
16
73
22
0
VERTEX
8
OBJECT__57
10
0
20
0
30
0
70
128
71
23
72
10
73
16
0
VERTEX
8
OBJECT__57
10
0
20
0
30
0
70
128
71
24
72
25
73
26
0
VERTEX
8
OBJECT__57
10
0
20
0
30
0
70
128
71
27
72
26
73
28
0
VERTEX
8
OBJECT__57
10
0
20
0
30
0
70
128
71
28
72
29
73
27
0
VERTEX
8
OBJECT__57
10
0
20
0
30
0
70
128
71
30
72
31
73
29
0
VERTEX
8
OBJECT__57
10
0
20
0
30
0
70
128
71
28
72
30
73
29
0
VERTEX
8
OBJECT__57
10
0
20
0
30
0
70
128
71
17
72
31
73
30
0
VERTEX
8
OBJECT__57
10
0
20
0
30
0
70
128
71
30
72
18
73
17
0
VERTEX
8
OBJECT__57
10
0
20
0
30
0
70
128
71
25
72
24
73
32
0
VERTEX
8
OBJECT__57
10
0
20
0
30
0
70
128
71
33
72
34
73
35
0
VERTEX
8
OBJECT__57
10
0
20
0
30
0
70
128
71
35
72
36
73
33
0
VERTEX
8
OBJECT__57
10
0
20
0
30
0
70
128
71
37
72
32
73
36
0
VERTEX
8
OBJECT__57
10
0
20
0
30
0
70
128
71
35
72
37
73
36
0
VERTEX
8
OBJECT__57
10
0
20
0
30
0
70
128
71
32
72
37
73
25
0
VERTEX
8
OBJECT__57
10
0
20
0
30
0
70
128
71
26
72
27
73
24
0
VERTEX
8
OBJECT__57
10
0
20
0
30
0
70
128
71
19
72
20
73
17
0
VERTEX
8
OBJECT__57
10
0
20
0
30
0
70
128
71
9
72
15
73
8
0
VERTEX
8
OBJECT__57
10
0
20
0
30
0
70
128
71
3
72
38
73
4
0
SEQEND
8
OBJECT__57
0
ENDSEC
0
EOF
